  0
SECTION
  2
HEADER
  9
$ACADVER
  1
AC1015
  9
$ACADMAINTVER
 70
     6
  9
$DWGCODEPAGE
  3
DOS932
  9
$INSBASE
 10
0.0
 20
0.0
 30
0.0
  9
$EXTMIN
 10
0.0
 20
0.0
 30
0.0
  9
$EXTMAX
 10
841.0
 20
594.0
 30
0.0
  9
$LIMMIN
 10
0.0
 20
0.0
  9
$LIMMAX
 10
841.0
 20
594.0
  9
$ORTHOMODE
 70
     0
  9
$REGENMODE
 70
     1
  9
$FILLMODE
 70
     1
  9
$QTEXTMODE
 70
     0
  9
$MIRRTEXT
 70
     1
  9
$LTSCALE
 40
1.0
  9
$ATTMODE
 70
     1
  9
$TEXTSIZE
 40
3.5
  9
$TRACEWID
 40
1.0
  9
$TEXTSTYLE
  7
STANDARD
  9
$CLAYER
  8
0
  9
$CELTYPE
  6
ByLayer
  9
$CECOLOR
 62
   256
  9
$CELTSCALE
 40
1.0
  9
$DISPSILH
 70
     0
  9
$DIMSCALE
 40
1.0
  9
$DIMASZ
 40
3.8637032976
  9
$DIMEXO
 40
1.0
  9
$DIMDLI
 40
3.75
  9
$DIMRND
 40
0.0
  9
$DIMDLE
 40
0.0
  9
$DIMEXE
 40
1.0
  9
$DIMTP
 40
0.0
  9
$DIMTM
 40
0.0
  9
$DIMTXT
 40
2.7999999523
  9
$DIMCEN
 40
2.5
  9
$DIMTSZ
 40
0.0
  9
$DIMTOL
 70
     0
  9
$DIMLIM
 70
     0
  9
$DIMTIH
 70
     1
  9
$DIMTOH
 70
     1
  9
$DIMSE1
 70
     0
  9
$DIMSE2
 70
     0
  9
$DIMTAD
 70
     1
  9
$DIMZIN
 70
     1
  9
$DIMBLK
  1

  9
$DIMASO
 70
     1
  9
$DIMSHO
 70
     1
  9
$DIMPOST
  1

  9
$DIMAPOST
  1

  9
$DIMALT
 70
     0
  9
$DIMALTD
 70
     3
  9
$DIMALTF
 40
0.0393700787
  9
$DIMLFAC
 40
1.0
  9
$DIMTOFL
 70
     1
  9
$DIMTVP
 40
0.0
  9
$DIMTIX
 70
     0
  9
$DIMSOXD
 70
     0
  9
$DIMSAH
 70
     0
  9
$DIMBLK1
  1

  9
$DIMBLK2
  1

  9
$DIMSTYLE
  2
ISO-25
  9
$DIMCLRD
 70
     0
  9
$DIMCLRE
 70
     0
  9
$DIMCLRT
 70
     0
  9
$DIMTFAC
 40
1.0
  9
$DIMGAP
 40
1.524
  9
$DIMJUST
 70
     0
  9
$DIMSD1
 70
     0
  9
$DIMSD2
 70
     0
  9
$DIMTOLJ
 70
     0
  9
$DIMTZIN
 70
     1
  9
$DIMALTZ
 70
     0
  9
$DIMALTTZ
 70
     0
  9
$DIMUPT
 70
     0
  9
$DIMDEC
 70
     3
  9
$DIMTDEC
 70
     3
  9
$DIMALTU
 70
     2
  9
$DIMALTTD
 70
     3
  9
$DIMTXSTY
  7
STANDARD
  9
$DIMAUNIT
 70
     0
  9
$DIMADEC
 70
     0
  9
$DIMALTRND
 40
0.0
  9
$DIMAZIN
 70
     0
  9
$DIMDSEP
 70
    44
  9
$DIMATFIT
 70
     3
  9
$DIMFRAC
 70
     0
  9
$DIMLDRBLK
  1

  9
$DIMLUNIT
 70
     2
  9
$DIMLWD
 70
    -2
  9
$DIMLWE
 70
    -2
  9
$DIMTMOVE
 70
     0
  9
$LUNITS
 70
     2
  9
$LUPREC
 70
     3
  9
$SKETCHINC
 40
1.0
  9
$FILLETRAD
 40
10.0
  9
$AUNITS
 70
     0
  9
$AUPREC
 70
     0
  9
$MENU
  1
.
  9
$ELEVATION
 40
0.0
  9
$PELEVATION
 40
0.0
  9
$THICKNESS
 40
0.0
  9
$LIMCHECK
 70
     0
  9
$CHAMFERA
 40
10.0
  9
$CHAMFERB
 40
10.0
  9
$CHAMFERC
 40
20.0
  9
$CHAMFERD
 40
0.0
  9
$SKPOLY
 70
     0
  9
$TDCREATE
 40
2457042.659061158
  9
$TDUCREATE
 40
2457042.284061158
  9
$TDUPDATE
 40
2457042.659061875
  9
$TDUUPDATE
 40
2457042.284061875
  9
$TDINDWG
 40
0.0000000116
  9
$TDUSRTIMER
 40
0.0000000116
  9
$USRTIMER
 70
     1
  9
$ANGBASE
 50
0.0
  9
$ANGDIR
 70
     0
  9
$PDMODE
 70
     0
  9
$PDSIZE
 40
-1.0
  9
$PLINEWID
 40
0.0
  9
$SPLFRAME
 70
     0
  9
$SPLINETYPE
 70
     6
  9
$SPLINESEGS
 70
     8
  9
$HANDSEED
  5
26B
  9
$SURFTAB1
 70
     6
  9
$SURFTAB2
 70
     6
  9
$SURFTYPE
 70
     6
  9
$SURFU
 70
     6
  9
$SURFV
 70
     6
  9
$UCSBASE
  2

  9
$UCSNAME
  2

  9
$UCSORG
 10
0.0
 20
0.0
 30
0.0
  9
$UCSXDIR
 10
1.0
 20
0.0
 30
0.0
  9
$UCSYDIR
 10
0.0
 20
1.0
 30
0.0
  9
$UCSORTHOREF
  2

  9
$UCSORTHOVIEW
 70
     0
  9
$UCSORGTOP
 10
0.0
 20
0.0
 30
0.0
  9
$UCSORGBOTTOM
 10
0.0
 20
0.0
 30
0.0
  9
$UCSORGLEFT
 10
0.0
 20
0.0
 30
0.0
  9
$UCSORGRIGHT
 10
0.0
 20
0.0
 30
0.0
  9
$UCSORGFRONT
 10
0.0
 20
0.0
 30
0.0
  9
$UCSORGBACK
 10
0.0
 20
0.0
 30
0.0
  9
$PUCSBASE
  2

  9
$PUCSNAME
  2

  9
$PUCSORG
 10
0.0
 20
0.0
 30
0.0
  9
$PUCSXDIR
 10
1.0
 20
0.0
 30
0.0
  9
$PUCSYDIR
 10
0.0
 20
1.0
 30
0.0
  9
$PUCSORTHOREF
  2

  9
$PUCSORTHOVIEW
 70
     0
  9
$PUCSORGTOP
 10
0.0
 20
0.0
 30
0.0
  9
$PUCSORGBOTTOM
 10
0.0
 20
0.0
 30
0.0
  9
$PUCSORGLEFT
 10
0.0
 20
0.0
 30
0.0
  9
$PUCSORGRIGHT
 10
0.0
 20
0.0
 30
0.0
  9
$PUCSORGFRONT
 10
0.0
 20
0.0
 30
0.0
  9
$PUCSORGBACK
 10
0.0
 20
0.0
 30
0.0
  9
$USERI1
 70
     0
  9
$USERI2
 70
     0
  9
$USERI3
 70
     0
  9
$USERI4
 70
     0
  9
$USERI5
 70
     0
  9
$USERR1
 40
0.0
  9
$USERR2
 40
0.0
  9
$USERR3
 40
0.0
  9
$USERR4
 40
0.0
  9
$USERR5
 40
0.0
  9
$WORLDVIEW
 70
     1
  9
$SHADEDGE
 70
     3
  9
$SHADEDIF
 70
    70
  9
$TILEMODE
 70
     1
  9
$MAXACTVP
 70
    64
  9
$PINSBASE
 10
0.0
 20
0.0
 30
0.0
  9
$PLIMCHECK
 70
     0
  9
$PEXTMIN
 10
1.0000000000E+20
 20
1.0000000000E+20
 30
1.0000000000E+20
  9
$PEXTMAX
 10
-1.0000000000E+20
 20
-1.0000000000E+20
 30
-1.0000000000E+20
  9
$PLIMMIN
 10
0.0
 20
0.0
  9
$PLIMMAX
 10
420.0
 20
297.0
  9
$UNITMODE
 70
     0
  9
$VISRETAIN
 70
     1
  9
$PLINEGEN
 70
     0
  9
$PSLTSCALE
 70
     1
  9
$TREEDEPTH
 70
  3020
  9
$CMLSTYLE
  2
Standard
  9
$CMLJUST
 70
     0
  9
$CMLSCALE
 40
20.0
  9
$PROXYGRAPHICS
 70
     1
  9
$MEASUREMENT
 70
     1
  9
$CELWEIGHT
370
    -1
  9
$ENDCAPS
280
     0
  9
$JOINSTYLE
280
     0
  9
$LWDISPLAY
290
     1
  9
$INSUNITS
 70
     4
  9
$HYPERLINKBASE
  1

  9
$STYLESHEET
  1

  9
$XEDIT
290
     1
  9
$CEPSNTYPE
380
     0
  9
$PSTYLEMODE
290
     1
  9
$FINGERPRINTGUID
  2
{15A69941-C051-4C82-9449-3033DA77B1DF}
  9
$VERSIONGUID
  2
{FAEB1C32-E019-11D5-929B-00C0DF256EC4}
  9
$EXTNAMES
290
     1
  9
$PSVPSCALE
 40
0.0
  9
$OLESTARTUP
290
     0
  0
ENDSEC
  0
SECTION
  2
CLASSES
  0
CLASS
  1
ACDBDICTIONARYWDFLT
  2
AcDbDictionaryWithDefault
  3
ObjectDBX Classes
 90
        0
280
     0
281
     0
  0
CLASS
  1
VISUALSTYLE
  2
AcDbVisualStyle
  3
ObjectDBX Classes
 90
     4095
280
     0
281
     0
  0
CLASS
  1
MATERIAL
  2
AcDbMaterial
  3
ObjectDBX Classes
 90
     1153
280
     0
281
     0
  0
CLASS
  1
ACDBPLACEHOLDER
  2
AcDbPlaceHolder
  3
ObjectDBX Classes
 90
        0
280
     0
281
     0
  0
CLASS
  1
LAYOUT
  2
AcDbLayout
  3
ObjectDBX Classes
 90
        0
280
     0
281
     0
  0
ENDSEC
  0
SECTION
  2
TABLES
  0
TABLE
  2
VPORT
  5
8
330
0
100
AcDbSymbolTable
 70
     1
  0
VPORT
  5
29
330
8
100
AcDbSymbolTableRecord
100
AcDbViewportTableRecord
  2
*Active
 70
     0
 10
0.0
 20
0.0
 11
1.0
 21
1.0
 12
420.5
 22
297.0
 13
0.0
 23
0.0
 14
10.0
 24
10.0
 15
10.0
 25
10.0
 16
0.0
 26
0.0
 36
1.0
 17
0.0
 27
0.0
 37
0.0
 40
594.0
 41
1.4158249158
 42
50.0
 43
0.0
 44
0.0
 50
0.0
 51
0.0
 71
     0
 72
  2000
 73
     1
 74
     3
 75
     0
 76
     0
 77
     0
 78
     0
281
     0
 65
     1
110
0.0
120
0.0
130
0.0
111
1.0
121
0.0
131
0.0
112
0.0
122
1.0
132
0.0
 79
     0
146
0.0
  0
ENDTAB
  0
TABLE
  2
LTYPE
  5
5
330
0
100
AcDbSymbolTable
 70
     6
  0
LTYPE
  5
14
330
5
100
AcDbSymbolTableRecord
100
AcDbLinetypeTableRecord
  2
ByBlock
 70
     0
  3

 72
    65
 73
     0
 40
0.0
  0
LTYPE
  5
15
330
5
100
AcDbSymbolTableRecord
100
AcDbLinetypeTableRecord
  2
ByLayer
 70
     0
  3

 72
    65
 73
     0
 40
0.0
  0
LTYPE
  5
16
330
5
100
AcDbSymbolTableRecord
100
AcDbLinetypeTableRecord
  2
Continuous
 70
     0
  3
Solid line
 72
    65
 73
     0
 40
0.0
  0
LTYPE
  5
3F
330
5
100
AcDbSymbolTableRecord
100
AcDbLinetypeTableRecord
  2
HIDDEN
 70
     0
  3
Hidden __ __ __ __ __ __ __ __ __ __ __ __ __ __
 72
    65
 73
     2
 40
1.905
 49
1.27
 74
     0
 49
-0.635
 74
     0
  0
LTYPE
  5
40
330
5
100
AcDbSymbolTableRecord
100
AcDbLinetypeTableRecord
  2
PHANTOM
 70
     0
  3
Phantom ______  __  __  ______  __  __  ______
 72
    65
 73
     6
 40
12.7
 49
6.35
 74
     0
 49
-1.27
 74
     0
 49
1.27
 74
     0
 49
-1.27
 74
     0
 49
1.27
 74
     0
 49
-1.27
 74
     0
  0
LTYPE
  5
41
330
5
100
AcDbSymbolTableRecord
100
AcDbLinetypeTableRecord
  2
CENTER
 70
     0
  3
Center ____ _ ____ _ ____ _ ____ _ ____ _ ____
 72
    65
 73
     4
 40
10.16
 49
6.35
 74
     0
 49
-1.27
 74
     0
 49
1.27
 74
     0
 49
-1.27
 74
     0
  0
LTYPE
  5
42
330
5
100
AcDbSymbolTableRecord
100
AcDbLinetypeTableRecord
  2
CENTERX2
 70
     0
  3
Center (2x) ________  __  ________  __  _____
 72
    65
 73
     4
 40
20.32
 49
12.7
 74
     0
 49
-2.54
 74
     0
 49
2.54
 74
     0
 49
-2.54
 74
     0
  0
LTYPE
  5
43
330
5
100
AcDbSymbolTableRecord
100
AcDbLinetypeTableRecord
  2
DOT2
 70
     0
  3
Dot (.5x) ........................................
 72
    65
 73
     2
 40
0.635
 49
0.0
 74
     0
 49
-0.635
 74
     0
  0
ENDTAB
  0
TABLE
  2
LAYER
  5
2
330
0
100
AcDbSymbolTable
 70
     4
  0
LAYER
  5
10
330
2
100
AcDbSymbolTableRecord
100
AcDbLayerTableRecord
  2
0
 70
     0
 62
     7
  6
Continuous
370
    -3
390
F
  0
LAYER
  5
44
330
2
100
AcDbSymbolTableRecord
100
AcDbLayerTableRecord
  2
SLD-0
 70
     0
 62
     3
  6
Continuous
370
    -3
390
F
  0
LAYER
  5
45
330
2
100
AcDbSymbolTableRecord
100
AcDbLayerTableRecord
  2
SLD-DEFPOINTS
 70
     0
 62
   179
  6
Continuous
370
    -3
390
F
  0
LAYER
  5
46
330
2
100
AcDbSymbolTableRecord
100
AcDbLayerTableRecord
  2
AM_REFDIM
 70
     0
 62
     4
  6
Continuous
370
    15
390
F
  0
ENDTAB
  0
TABLE
  2
STYLE
  5
3
330
0
100
AcDbSymbolTable
 70
     1
  0
STYLE
  5
11
330
3
100
AcDbSymbolTableRecord
100
AcDbTextStyleTableRecord
  2
STANDARD
 70
     0
 40
0.0
 41
1.0
 50
0.0
 71
     0
 42
3.5
  3
MSGOTHIC.TTC
  4

1001
ACAD
1000
ＭＳ ゴシック
1071
    32817
  0
ENDTAB
  0
TABLE
  2
VIEW
  5
6
330
0
100
AcDbSymbolTable
 70
     0
  0
ENDTAB
  0
TABLE
  2
UCS
  5
7
330
0
100
AcDbSymbolTable
 70
     0
  0
ENDTAB
  0
TABLE
  2
APPID
  5
9
330
0
100
AcDbSymbolTable
 70
     1
  0
APPID
  5
12
330
9
100
AcDbSymbolTableRecord
100
AcDbRegAppTableRecord
  2
ACAD
 70
     0
  0
ENDTAB
  0
TABLE
  2
DIMSTYLE
  5
A
330
0
100
AcDbSymbolTable
 70
     1
100
AcDbDimStyleTable
  0
DIMSTYLE
105
27
330
A
100
AcDbSymbolTableRecord
100
AcDbDimStyleTableRecord
  2
ISO-25
 70
     0
 41
2.5
 42
0.625
 43
3.75
 44
1.25
 73
     0
 74
     0
 77
     1
 78
     8
140
2.5
141
2.5
143
0.0393700787
147
0.625
171
     3
172
     1
178
     0
271
     2
272
     2
274
     3
278
    44
283
     0
284
     8
340
11
  0
ENDTAB
  0
TABLE
  2
BLOCK_RECORD
  5
1
330
0
100
AcDbSymbolTable
 70
     1
  0
BLOCK_RECORD
  5
1F
330
1
100
AcDbSymbolTableRecord
100
AcDbBlockTableRecord
  2
*Model_Space
340
22
  0
BLOCK_RECORD
  5
1B
330
1
100
AcDbSymbolTableRecord
100
AcDbBlockTableRecord
  2
*Paper_Space
340
1E
  0
BLOCK_RECORD
  5
23
330
1
100
AcDbSymbolTableRecord
100
AcDbBlockTableRecord
  2
*Paper_Space0
340
26
  0
ENDTAB
  0
ENDSEC
  0
SECTION
  2
BLOCKS
  0
BLOCK
  5
20
330
1F
100
AcDbEntity
  8
0
100
AcDbBlockBegin
  2
*Model_Space
 70
     0
 10
0.0
 20
0.0
 30
0.0
  3
*Model_Space
  1

  0
ENDBLK
  5
21
330
1F
100
AcDbEntity
  8
0
100
AcDbBlockEnd
  0
BLOCK
  5
1C
330
1B
100
AcDbEntity
 67
     1
  8
0
100
AcDbBlockBegin
  2
*Paper_Space
 70
     0
 10
0.0
 20
0.0
 30
0.0
  3
*Paper_Space
  1

  0
ENDBLK
  5
1D
330
1B
100
AcDbEntity
 67
     1
  8
0
100
AcDbBlockEnd
  0
BLOCK
  5
24
330
23
100
AcDbEntity
  8
0
100
AcDbBlockBegin
  2
*Paper_Space0
 70
     0
 10
0.0
 20
0.0
 30
0.0
  3
*Paper_Space0
  1

  0
ENDBLK
  5
25
330
23
100
AcDbEntity
  8
0
100
AcDbBlockEnd
  0
ENDSEC
  0
SECTION
  2
ENTITIES
  0
LINE
  5
47
330
1F
100
AcDbEntity
  8
0
  6
Continuous
 62
     7
370
    15
100
AcDbLine
 10
300.9005326708
 20
370.3774059095
 30
0.0
 11
303.9005326969
 21
370.3774059095
 31
0.0
  0
LINE
  5
48
330
1F
100
AcDbEntity
  8
0
  6
Continuous
 62
     7
370
    15
100
AcDbLine
 10
303.9005326969
 20
379.5244092025
 30
0.0
 11
300.9005326708
 21
379.5244092025
 31
0.0
  0
LINE
  5
49
330
1F
100
AcDbEntity
  8
0
  6
Continuous
 62
     7
370
    15
100
AcDbLine
 10
287.9005328682
 20
370.9509069003
 30
0.0
 11
289.9005327304
 21
370.9509069003
 31
0.0
  0
LINE
  5
4A
330
1F
100
AcDbEntity
  8
0
  6
Continuous
 62
     7
370
    15
100
AcDbLine
 10
289.9005327304
 20
378.9509082116
 30
0.0
 11
287.9005328682
 21
378.9509082116
 31
0.0
  0
SPLINE
  5
4B
330
1F
100
AcDbEntity
  8
0
  6
Continuous
 62
     7
370
    15
100
AcDbSpline
210
0.0
220
0.0
230
1.0
 70
    24
 71
     3
 72
    15
 73
    11
 74
     0
 42
0.00000001
 43
0.00000001
 12
1.0
 22
0.0
 32
0.0
 13
1.0
 23
0.0
 33
0.0
 40
0.0
 40
0.0
 40
0.0
 40
0.0
 40
0.0099775032490817
 40
0.1235381910725625
 40
0.2404522014983923
 40
0.3868899032730399
 40
0.5161436841277878
 40
0.6614695656559026
 40
0.822699598487322
 40
1.0
 40
1.0
 40
1.0
 40
1.0
 10
403.4005313110583
 20
249.9509047620219
 30
0.0
 10
403.4005313110583
 20
250.0698473004712
 30
0.0
 10
403.4005313110582
 20
251.5425550185021
 30
0.0
 10
403.4005313110584
 20
254.3869839445341
 30
0.0
 10
403.4005313110583
 20
258.8331440322508
 30
0.0
 10
403.4005313110583
 20
263.3736863694628
 30
0.0
 10
403.4005313110583
 20
268.128210310924
 30
0.0
 10
403.4005313110583
 20
272.853416341868
 30
0.0
 10
403.4005313110583
 20
277.8515870245936
 30
0.0
 10
403.4005313110583
 20
280.9724635943513
 30
0.0
 10
403.4005313110583
 20
282.6069774009508
 30
0.0
  0
SPLINE
  5
4C
330
1F
100
AcDbEntity
  8
0
  6
Continuous
 62
     7
370
    15
100
AcDbSpline
210
0.0
220
0.0
230
1.0
 70
    24
 71
     3
 72
    23
 73
    19
 74
     0
 42
0.00000001
 43
0.00000001
 12
1.0
 22
0.0
 32
0.0
 13
1.0
 23
0.0
 33
0.0
 40
0.0
 40
0.0
 40
0.0
 40
0.0
 40
0.0413085247287158
 40
0.1232946741110125
 40
0.1972969084972013
 40
0.2635654757816558
 40
0.3222666796786616
 40
0.3735060870229225
 40
0.4309968687026532
 40
0.4878009896311067
 40
0.5481637640011057
 40
0.6120433914985679
 40
0.6788083915099106
 40
0.7478014620839682
 40
0.8333345870286426
 40
0.9170450985811368
 40
0.9940687277765226
 40
1.0
 40
1.0
 40
1.0
 40
1.0
 10
403.4005313110583
 20
174.0034961976331
 30
0.0
 10
403.4005313110583
 20
174.4907809374507
 30
0.0
 10
403.4005313110583
 20
175.9451929163252
 30
0.0
 10
403.4005313110583
 20
178.8446385469014
 30
0.0
 10
403.4005313110583
 20
182.4204391188489
 30
0.0
 10
403.4005313110583
 20
185.9624198620774
 30
0.0
 10
403.4005313110583
 20
189.3277600168993
 30
0.0
 10
403.4005313110584
 20
192.7158569223922
 30
0.0
 10
403.4005313110583
 20
196.2220963668169
 30
0.0
 10
403.4005313110583
 20
200.1849341461168
 30
0.0
 10
403.4005313110584
 20
204.5198783395138
 30
0.0
 10
403.4005313110583
 20
209.2932050737456
 30
0.0
 10
403.4005313110583
 20
214.4187058489553
 30
0.0
 10
403.4005313110583
 20
220.2409183812678
 30
0.0
 10
403.4005313110583
 20
226.6066419043129
 30
0.0
 10
403.4005313110583
 20
233.1733529370889
 30
0.0
 10
403.4005313110584
 20
237.6088376693318
 30
0.0
 10
403.4005313110583
 20
239.7946215249189
 30
0.0
 10
403.4005313110583
 20
239.9509049855393
 30
0.0
  0
LINE
  5
4D
330
1F
100
AcDbEntity
  8
0
  6
Continuous
 62
     7
370
    15
100
AcDbLine
 10
443.9005388808
 20
96.9509029664
 30
0.0
 11
443.9005388808
 21
109.9508995094
 31
0.0
  0
LINE
  5
4E
330
1F
100
AcDbEntity
  8
0
  6
Continuous
 62
     7
370
    15
100
AcDbLine
 10
303.9005326969
 20
109.9508995094
 30
0.0
 11
303.9005326969
 21
96.9509029664
 31
0.0
  0
ARC
  5
4F
330
1F
100
AcDbEntity
  8
0
  6
Continuous
 62
     7
370
    15
100
AcDbCircle
 10
440.9005325628
 20
109.9509048738
 30
0.0
 40
3.0
100
AcDbArc
 50
0.0
 51
90.0
  0
ARC
  5
50
330
1F
100
AcDbEntity
  8
0
  6
Continuous
 62
     7
370
    15
100
AcDbCircle
 10
306.9005325628
 20
109.9509048738
 30
0.0
 40
3.0
100
AcDbArc
 50
90.0
 51
180.0
  0
LINE
  5
51
330
1F
100
AcDbEntity
  8
0
  6
Continuous
 62
     7
370
    15
100
AcDbLine
 10
303.9005326969
 20
392.9509067811
 30
0.0
 11
303.9005326969
 21
389.9509007015
 31
0.0
  0
LINE
  5
52
330
1F
100
AcDbEntity
  8
0
  6
Continuous
 62
     7
370
    15
100
AcDbLine
 10
443.9005388808
 20
379.9509102382
 30
0.0
 11
443.9005388808
 21
392.9509067811
 31
0.0
  0
ARC
  5
53
330
1F
100
AcDbEntity
  8
0
  6
Continuous
 62
     7
370
    15
100
AcDbCircle
 10
440.9005325628
 20
379.9509048738
 30
0.0
 40
3.0
100
AcDbArc
 50
270.0
 51
0.0
  0
LINE
  5
54
330
1F
100
AcDbEntity
  8
0
  6
Continuous
 62
     7
370
    15
100
AcDbLine
 10
404.7151788068
 20
195.2889630474
 30
0.0
 11
405.409990151
 21
200.0953996457
 31
0.0
  0
LINE
  5
55
330
1F
100
AcDbEntity
  8
0
  6
Continuous
 62
     7
370
    15
100
AcDbLine
 10
343.9005336654
 20
173.5543304958
 30
0.0
 11
383.9005290461
 21
173.5543304958
 31
0.0
  0
LINE
  5
56
330
1F
100
AcDbEntity
  8
0
  6
Continuous
 62
     7
370
    15
100
AcDbLine
 10
383.9005290461
 20
316.3474792518
 30
0.0
 11
343.9005336654
 21
316.3474792518
 31
0.0
  0
LINE
  5
57
330
1F
100
AcDbEntity
  8
0
  6
Continuous
 62
     7
370
    15
100
AcDbLine
 10
343.9005336654
 20
164.4509056486
 30
0.0
 11
349.9005309236
 21
164.4509056486
 31
0.0
  0
LINE
  5
58
330
1F
100
AcDbEntity
  8
0
  6
Continuous
 62
     7
370
    15
100
AcDbLine
 10
349.9005309236
 20
325.4509040989
 30
0.0
 11
343.9005336654
 21
325.4509040989
 31
0.0
  0
ARC
  5
59
330
1F
100
AcDbEntity
  8
0
  6
Continuous
 62
     7
370
    15
100
AcDbCircle
 10
432.4005325628
 20
261.9509048738
 30
0.0
 40
27.0
100
AcDbArc
 50
0.0
 51
90.0
  0
LINE
  5
5A
330
1F
100
AcDbEntity
  8
0
  6
Continuous
 62
     7
370
    15
100
AcDbLine
 10
416.4005353046
 20
94.9508989133
 30
0.0
 11
416.4005353046
 21
96.9509029664
 31
0.0
  0
LINE
  5
5B
330
1F
100
AcDbEntity
  8
0
  6
Continuous
 62
     7
370
    15
100
AcDbLine
 10
331.4005344105
 20
96.9509029664
 30
0.0
 11
331.4005344105
 21
94.9508989133
 31
0.0
  0
LINE
  5
5C
330
1F
100
AcDbEntity
  8
0
  6
Continuous
 62
     7
370
    15
100
AcDbLine
 10
331.4005344105
 20
394.9509108342
 30
0.0
 11
331.4005344105
 21
392.9509067811
 31
0.0
  0
LINE
  5
5D
330
1F
100
AcDbEntity
  8
0
  6
Continuous
 62
     7
370
    15
100
AcDbLine
 10
416.4005353046
 20
392.9509067811
 30
0.0
 11
416.4005353046
 21
394.9509108342
 31
0.0
  0
SPLINE
  5
5E
330
1F
100
AcDbEntity
  8
0
  6
Continuous
 62
     7
370
    15
100
AcDbSpline
210
0.0
220
0.0
230
1.0
 70
     8
 71
     3
 72
    15
 73
    11
 74
     0
 42
0.00000001
 43
0.00000001
 12
1.0
 22
0.0
 32
0.0
 13
1.0
 23
0.0
 33
0.0
 40
0.0
 40
0.0
 40
0.0
 40
0.0
 40
0.1351298660422991
 40
0.2482597680066995
 40
0.3669505695554976
 40
0.490964278091958
 40
0.620258627381916
 40
0.7548335771001934
 40
0.8946891967348787
 40
1.0
 40
1.0
 40
1.0
 40
1.0
 10
456.4821108174556
 20
179.9593338646215
 30
0.0
 10
457.2349394535396
 20
182.5727065584257
 30
0.0
 10
458.6180316449025
 20
187.37397897644
 30
0.0
 10
459.5016426253612
 20
194.7307499801448
 30
0.0
 10
459.3710950524019
 20
201.8873086124862
 30
0.0
 10
459.4084753148034
 20
209.3629589362186
 30
0.0
 10
459.3978163473485
 20
217.1595207729609
 30
0.0
 10
459.4009256070969
 20
225.2740119755611
 30
0.0
 10
459.4001960633645
 20
232.906574730571
 30
0.0
 10
459.4003692434335
 20
237.8342365625063
 30
0.0
 10
459.4004436326259
 20
239.9509049855393
 30
0.0
  0
SPLINE
  5
5F
330
1F
100
AcDbEntity
  8
0
  6
Continuous
 62
     7
370
    15
100
AcDbSpline
210
0.0
220
0.0
230
1.0
 70
     8
 71
     3
 72
    18
 73
    14
 74
     0
 42
0.00000001
 43
0.00000001
 12
1.0
 22
0.0
 32
0.0
 13
1.0
 23
0.0
 33
0.0
 40
0.0
 40
0.0
 40
0.0
 40
0.0
 40
0.0822906041692387
 40
0.2053310944574447
 40
0.3084343250511943
 40
0.3918096090084936
 40
0.455537419433006
 40
0.5163620393692918
 40
0.5933513475267139
 40
0.6893682133129063
 40
0.8046942207383094
 40
0.9398366176545672
 40
1.0
 40
1.0
 40
1.0
 40
1.0
 10
421.7897339654201
 20
113.002687124185
 30
0.0
 10
422.7679661298569
 20
113.5933274197741
 30
0.0
 10
425.2088460211285
 20
115.0670900631322
 30
0.0
 10
428.5806025755541
 20
117.7221441886572
 30
0.0
 10
431.781233251673
 20
120.5888945718442
 30
0.0
 10
434.2019893011265
 20
123.0819780608257
 30
0.0
 10
436.1046560811064
 20
125.2524606625236
 30
0.0
 10
437.8545749295273
 20
127.4355246710495
 30
0.0
 10
439.7589054617939
 20
130.0646403286529
 30
0.0
 10
441.9106643068652
 20
133.4431726011321
 30
0.0
 10
444.1616427803196
 20
137.6937820514636
 30
0.0
 10
445.9285740600929
 20
141.6419326109521
 30
0.0
 10
446.7071984772398
 20
144.239411849742
 30
0.0
 10
446.947051484608
 20
145.0395578421873
 30
0.0
  0
LINE
  5
60
330
1F
100
AcDbEntity
  8
0
  6
Continuous
 62
     7
370
    15
100
AcDbLine
 10
432.4005379272
 20
288.9509046354
 30
0.0
 11
408.4005339933
 21
288.9509046354
 31
0.0
  0
SPLINE
  5
61
330
1F
100
AcDbEntity
  8
0
  6
Continuous
 62
     7
370
    15
100
AcDbSpline
210
0.0
220
0.0
230
1.0
 70
     8
 71
     3
 72
     9
 73
     5
 74
     0
 42
0.00000001
 43
0.00000001
 12
1.0
 22
0.0
 32
0.0
 13
1.0
 23
0.0
 33
0.0
 40
0.0
 40
0.0
 40
0.0
 40
0.0
 40
0.4571347998462038
 40
1.0
 40
1.0
 40
1.0
 40
1.0
 10
405.3693993878596
 20
199.8146096147817
 30
0.0
 10
405.4027275837004
 20
199.1412537805076
 30
0.0
 10
405.4756342971074
 20
197.6682619310562
 30
0.0
 10
405.0032677071594
 20
196.2680698123872
 30
0.0
 10
404.7468363237613
 20
195.5079542376321
 30
0.0
  0
SPLINE
  5
62
330
1F
100
AcDbEntity
  8
0
  6
Continuous
 62
     7
370
    15
100
AcDbSpline
210
0.0
220
0.0
230
1.0
 70
    24
 71
     3
 72
    11
 73
     7
 74
     0
 42
0.00000001
 43
0.00000001
 12
1.0
 22
0.0
 32
0.0
 13
1.0
 23
0.0
 33
0.0
 40
0.0
 40
0.0
 40
0.0
 40
0.0
 40
0.2035531582377454
 40
0.4748367203785523
 40
0.7454916896798929
 40
1.0
 40
1.0
 40
1.0
 40
1.0
 10
403.4005313110583
 20
304.4486561693471
 30
0.0
 10
403.4005313110583
 20
305.328339187901
 30
0.0
 10
403.4005313110583
 20
307.3804114972628
 30
0.0
 10
403.4005313110583
 20
309.6358873889995
 30
0.0
 10
403.4005313110583
 20
311.3937610196506
 30
0.0
 10
403.4005313110583
 20
311.8360191879079
 30
0.0
 10
403.4005313110583
 20
312.0503494419378
 30
0.0
  0
LINE
  5
63
330
1F
100
AcDbEntity
  8
0
  6
Continuous
 62
     7
370
    15
100
AcDbLine
 10
303.9005326969
 20
359.9509069599
 30
0.0
 11
339.4005319965
 21
359.9509069599
 31
0.0
  0
SPLINE
  5
64
330
1F
100
AcDbEntity
  8
0
  6
Continuous
 62
     7
370
    15
100
AcDbSpline
210
0.0
220
0.0
230
1.0
 70
     8
 71
     3
 72
    10
 73
     6
 74
     0
 42
0.00000001
 43
0.00000001
 12
1.0
 22
0.0
 32
0.0
 13
1.0
 23
0.0
 33
0.0
 40
0.0
 40
0.0
 40
0.0
 40
0.0
 40
0.1880366392074624
 40
0.4586910546897077
 40
1.0
 40
1.0
 40
1.0
 40
1.0
 10
448.7340434384578
 20
147.4621737279218
 30
0.0
 10
449.3058318219996
 20
149.5071126847169
 30
0.0
 10
450.7006356103014
 20
154.4954767121844
 30
0.0
 10
453.604760100453
 20
165.408080109387
 30
0.0
 10
455.9955625770026
 20
174.259755036306
 30
0.0
 10
457.5894310069316
 20
180.1608720697683
 30
0.0
  0
LINE
  5
65
330
1F
100
AcDbEntity
  8
0
  6
Continuous
 62
     7
370
    15
100
AcDbLine
 10
182.4005304766
 20
268.2431371786
 30
0.0
 11
136.4005341125
 21
268.2431371786
 31
0.0
  0
ARC
  5
66
330
1F
100
AcDbEntity
  8
0
  6
Continuous
 62
     7
370
    15
100
AcDbCircle
 10
136.4005325628
 20
262.6431371855
 30
0.0
 40
5.600000000000023
100
AcDbArc
 50
90.0
 51
180.0
  0
ARC
  5
67
330
1F
100
AcDbEntity
  8
0
  6
Continuous
 62
     7
370
    15
100
AcDbCircle
 10
182.4005325628
 20
262.6431371855
 30
0.0
 40
5.599999999999994
100
AcDbArc
 50
0.0
 51
90.0
  0
LINE
  5
68
330
1F
100
AcDbEntity
  8
0
  6
Continuous
 62
     7
370
    15
100
AcDbLine
 10
122.400535543
 20
313.9509031452
 30
0.0
 11
93.4005363775
 21
313.9509031452
 31
0.0
  0
LINE
  5
69
330
1F
100
AcDbEntity
  8
0
  6
Continuous
 62
     7
370
    15
100
AcDbLine
 10
118.347211082
 20
175.9509066023
 30
0.0
 11
122.400535543
 21
175.9509066023
 31
0.0
  0
ARC
  5
6A
330
1F
100
AcDbEntity
  8
0
  6
Continuous
 62
     7
370
    15
100
AcDbCircle
 10
118.3472132808
 20
183.9509048738
 30
0.0
 40
8.000000000000028
100
AcDbArc
 50
195.2555633432
 51
270.0
  0
ARC
  5
6B
330
1F
100
AcDbEntity
  8
0
  6
Continuous
 62
     7
370
    15
100
AcDbCircle
 10
226.4005325628
 20
213.4208928642
 30
0.0
 40
120.0
100
AcDbArc
 50
180.0
 51
195.2555633432
  0
ARC
  5
6C
330
1F
100
AcDbEntity
  8
0
  6
Continuous
 62
     7
370
    15
100
AcDbCircle
 10
93.4005325628
 20
310.9509048738
 30
0.0
 40
3.0
100
AcDbArc
 50
90.0
 51
180.0
  0
LINE
  5
6D
330
1F
100
AcDbEntity
  8
0
  6
Continuous
 62
     7
370
    15
100
AcDbLine
 10
95.4005255294
 20
221.9509048291
 30
0.0
 11
106.4005329204
 21
221.9509048291
 31
0.0
  0
LINE
  5
6E
330
1F
100
AcDbEntity
  8
0
  6
Continuous
 62
     7
370
    15
100
AcDbLine
 10
295.4005324678
 20
313.5509038247
 30
0.0
 11
122.400535543
 21
313.5509038247
 31
0.0
  0
LINE
  5
6F
330
1F
100
AcDbEntity
  8
0
  6
Continuous
 62
     7
370
    15
100
AcDbLine
 10
122.400535543
 20
176.3509059228
 30
0.0
 11
295.4005324678
 21
176.3509059228
 31
0.0
  0
LINE
  5
70
330
1F
100
AcDbEntity
  8
0
  6
Continuous
 62
     7
370
    15
100
AcDbLine
 10
297.4005325628
 20
174.9509045758
 30
0.0
 11
335.9005323541
 21
174.9509045758
 31
0.0
  0
LINE
  5
71
330
1F
100
AcDbEntity
  8
0
  6
Continuous
 62
     7
370
    15
100
AcDbLine
 10
335.9005323541
 20
314.9509051718
 30
0.0
 11
297.4005325628
 21
314.9509051718
 31
0.0
  0
LINE
  5
72
330
1F
100
AcDbEntity
  8
0
  6
Continuous
 62
     7
370
    15
100
AcDbLine
 10
295.4005324678
 20
175.9509066023
 30
0.0
 11
297.4005325628
 21
175.9509066023
 31
0.0
  0
LINE
  5
73
330
1F
100
AcDbEntity
  8
0
  6
Continuous
 62
     7
370
    15
100
AcDbLine
 10
297.4005325628
 20
313.9509031452
 30
0.0
 11
295.4005324678
 21
313.9509031452
 31
0.0
  0
LINE
  5
74
330
1F
100
AcDbEntity
  8
0
  6
Continuous
 62
     7
370
    15
100
AcDbLine
 10
314.4005334866
 20
224.9509053208
 30
0.0
 11
335.9005323541
 21
224.9509053208
 31
0.0
  0
LINE
  5
75
330
1F
100
AcDbEntity
  8
0
  6
Continuous
 62
     7
370
    15
100
AcDbLine
 10
335.9005323541
 20
264.9509044267
 30
0.0
 11
314.4005334866
 21
264.9509044267
 31
0.0
  0
LINE
  5
76
330
1F
100
AcDbEntity
  8
0
  6
Continuous
 62
     7
370
    15
100
AcDbLine
 10
343.9005336654
 20
316.3474792518
 30
0.0
 11
335.9005323541
 21
316.3474792518
 31
0.0
  0
LINE
  5
77
330
1F
100
AcDbEntity
  8
0
  6
Continuous
 62
     7
370
    15
100
AcDbLine
 10
335.9005323541
 20
173.5543304958
 30
0.0
 11
343.9005336654
 21
173.5543304958
 31
0.0
  0
LINE
  5
78
330
1F
100
AcDbEntity
  8
0
  6
Continuous
 62
     7
370
    15
100
AcDbLine
 10
343.9005336654
 20
325.4509040989
 30
0.0
 11
335.9005323541
 21
325.4509040989
 31
0.0
  0
LINE
  5
79
330
1F
100
AcDbEntity
  8
0
  6
Continuous
 62
     7
370
    15
100
AcDbLine
 10
335.9005323541
 20
164.4509056486
 30
0.0
 11
343.9005336654
 21
164.4509056486
 31
0.0
  0
LINE
  5
7A
330
1F
100
AcDbEntity
  8
0
  6
Continuous
 62
     7
370
    15
100
AcDbLine
 10
335.9005323541
 20
182.2588810601
 30
0.0
 11
314.4005334866
 21
182.2588810601
 31
0.0
  0
LINE
  5
7B
330
1F
100
AcDbEntity
  8
0
  6
Continuous
 62
     7
370
    15
100
AcDbLine
 10
314.4005334866
 20
307.6429286875
 30
0.0
 11
335.9005323541
 21
307.6429286875
 31
0.0
  0
LINE
  5
7C
330
1F
100
AcDbEntity
  8
0
  6
Continuous
 62
     7
370
    15
100
AcDbLine
 10
300.9005326708
 20
381.4509058275
 30
0.0
 11
300.9005326708
 21
374.9509001054
 31
0.0
  0
LINE
  5
7D
330
1F
100
AcDbEntity
  8
0
  6
Continuous
 62
     7
370
    15
100
AcDbLine
 10
300.9005326708
 20
374.9509001054
 30
0.0
 11
289.9005327304
 21
374.9509001054
 31
0.0
  0
LINE
  5
7E
330
1F
100
AcDbEntity
  8
0
  6
Continuous
 62
     7
370
    15
100
AcDbLine
 10
289.9005327304
 20
381.4509058275
 30
0.0
 11
289.9005327304
 21
374.9509001054
 31
0.0
  0
LINE
  5
7F
330
1F
100
AcDbEntity
  8
0
  6
Continuous
 62
     7
370
    15
100
AcDbLine
 10
300.9005326708
 20
381.4509058275
 30
0.0
 11
289.9005327304
 21
381.4509058275
 31
0.0
  0
LINE
  5
80
330
1F
100
AcDbEntity
  8
0
  6
Continuous
 62
     7
370
    15
100
AcDbLine
 10
281.9005328161
 20
381.4509058275
 30
0.0
 11
281.9005328161
 21
374.9509001054
 31
0.0
  0
LINE
  5
81
330
1F
100
AcDbEntity
  8
0
  6
Continuous
 62
     7
370
    15
100
AcDbLine
 10
287.9005328682
 20
381.4509058275
 30
0.0
 11
281.9005328161
 21
381.4509058275
 31
0.0
  0
LINE
  5
82
330
1F
100
AcDbEntity
  8
0
  6
Continuous
 62
     7
370
    15
100
AcDbLine
 10
287.9005328682
 20
374.9509001054
 30
0.0
 11
287.9005328682
 21
381.4509058275
 31
0.0
  0
LINE
  5
83
330
1F
100
AcDbEntity
  8
0
  6
Continuous
 62
     7
370
    15
100
AcDbLine
 10
287.9005328682
 20
374.9509001054
 30
0.0
 11
281.9005328161
 21
374.9509001054
 31
0.0
  0
LINE
  5
84
330
1F
100
AcDbEntity
  8
0
  6
Continuous
 62
     7
370
    15
100
AcDbLine
 10
287.9005328682
 20
368.4509018339
 30
0.0
 11
281.9005328161
 21
368.4509018339
 31
0.0
  0
LINE
  5
85
330
1F
100
AcDbEntity
  8
0
  6
Continuous
 62
     7
370
    15
100
AcDbLine
 10
287.9005328682
 20
368.4509018339
 30
0.0
 11
287.9005328682
 21
374.9509001054
 31
0.0
  0
LINE
  5
86
330
1F
100
AcDbEntity
  8
0
  6
Continuous
 62
     7
370
    15
100
AcDbLine
 10
281.9005328161
 20
374.9509001054
 30
0.0
 11
281.9005328161
 21
368.4509018339
 31
0.0
  0
LINE
  5
87
330
1F
100
AcDbEntity
  8
0
  6
Continuous
 62
     7
370
    15
100
AcDbLine
 10
300.9005326708
 20
368.4509018339
 30
0.0
 11
289.9005327304
 21
368.4509018339
 31
0.0
  0
LINE
  5
88
330
1F
100
AcDbEntity
  8
0
  6
Continuous
 62
     7
370
    15
100
AcDbLine
 10
289.9005327304
 20
374.9509001054
 30
0.0
 11
289.9005327304
 21
368.4509018339
 31
0.0
  0
LINE
  5
89
330
1F
100
AcDbEntity
  8
0
  6
Continuous
 62
     7
370
    15
100
AcDbLine
 10
300.9005326708
 20
374.9509001054
 30
0.0
 11
300.9005326708
 21
368.4509018339
 31
0.0
  0
LINE
  5
8A
330
1F
100
AcDbEntity
  8
0
  6
Continuous
 62
     7
370
    15
100
AcDbLine
 10
391.8022721005
 20
243.7009049017
 30
0.0
 11
375.9987934423
 21
243.7009049017
 31
0.0
  0
ARC
  5
8B
330
1F
100
AcDbEntity
  8
0
  6
Continuous
 62
     7
370
    15
100
AcDbCircle
 10
383.9005325628
 20
244.9509048738
 30
0.0
 40
8.00000000000004
100
AcDbArc
 50
188.9892993452
 51
351.0107006548
  0
LINE
  5
8C
330
1F
100
AcDbEntity
  8
0
  6
Continuous
 62
     7
370
    15
100
AcDbLine
 10
375.9987934423
 20
246.2009048458
 30
0.0
 11
391.8022721005
 21
246.2009048458
 31
0.0
  0
ARC
  5
8D
330
1F
100
AcDbEntity
  8
0
  6
Continuous
 62
     7
370
    15
100
AcDbCircle
 10
383.9005325628
 20
244.9509048738
 30
0.0
 40
8.00000000000004
100
AcDbArc
 50
8.9892993452
 51
171.0107006548
  0
ARC
  5
8E
330
1F
100
AcDbEntity
  8
0
  6
Continuous
 62
     7
370
    15
100
AcDbCircle
 10
383.9005325628
 20
244.9509048738
 30
0.0
 40
8.00000000000004
100
AcDbArc
 50
171.0107006548
 51
188.9892993452
  0
ARC
  5
8F
330
1F
100
AcDbEntity
  8
0
  6
Continuous
 62
     7
370
    15
100
AcDbCircle
 10
383.9005325628
 20
244.9509048738
 30
0.0
 40
7.999999999999985
100
AcDbArc
 50
351.0107006548
 51
8.9892993452
  0
CIRCLE
  5
90
330
1F
100
AcDbEntity
  8
0
  6
Continuous
 62
     7
370
    15
100
AcDbCircle
 10
383.9005325628
 20
244.9509048738
 30
0.0
 40
11.5
  0
SPLINE
  5
91
330
1F
100
AcDbEntity
  8
0
  6
Continuous
 62
     7
370
    15
100
AcDbSpline
210
0.0
220
0.0
230
1.0
 70
     8
 71
     3
 72
    12
 73
     8
 74
     0
 42
0.00000001
 43
0.00000001
 12
1.0
 22
0.0
 32
0.0
 13
1.0
 23
0.0
 33
0.0
 40
0.0
 40
0.0
 40
0.0
 40
0.0
 40
0.2231137959134164
 40
0.4460659657681183
 40
0.6720816067532498
 40
0.8904711556811047
 40
1.0
 40
1.0
 40
1.0
 40
1.0
 10
403.3708929014438
 20
239.9509049855393
 30
0.0
 10
403.3498010574419
 20
239.9746522580524
 30
0.0
 10
403.3076326485989
 20
240.0221296002963
 30
0.0
 10
403.2025346886741
 20
240.3857188546504
 30
0.0
 10
403.1007514695026
 20
240.9195631679473
 30
0.0
 10
403.0413242875718
 20
241.4831558189523
 30
0.0
 10
403.0334992997092
 20
241.8337889851472
 30
0.0
 10
403.0308856559031
 20
241.9509048477036
 30
0.0
  0
SPLINE
  5
92
330
1F
100
AcDbEntity
  8
0
  6
Continuous
 62
     7
370
    15
100
AcDbSpline
210
0.0
220
0.0
230
1.0
 70
    24
 71
     3
 72
    10
 73
     6
 74
     0
 42
0.00000001
 43
0.00000001
 12
1.0
 22
0.0
 32
0.0
 13
1.0
 23
0.0
 33
0.0
 40
0.0
 40
0.0
 40
0.0
 40
0.0
 40
0.1642437813014776
 40
0.58211675820655
 40
0.9999999999999999
 40
0.9999999999999999
 40
0.9999999999999999
 40
0.9999999999999999
 10
403.4005313110583
 20
239.9509049855393
 30
0.0
 10
403.4003808649283
 20
239.9509049855393
 30
0.0
 10
403.3998476501371
 20
239.9509049855393
 30
0.0
 10
403.4086711089718
 20
239.9509049855393
 30
0.0
 10
403.3834857403967
 20
239.9509049855393
 30
0.0
 10
403.3708929014438
 20
239.9509049855393
 30
0.0
  0
SPLINE
  5
93
330
1F
100
AcDbEntity
  8
0
  6
Continuous
 62
     7
370
    15
100
AcDbSpline
210
0.0
220
0.0
230
1.0
 70
     8
 71
     3
 72
    24
 73
    20
 74
     0
 42
0.00000001
 43
0.00000001
 12
1.0
 22
0.0
 32
0.0
 13
1.0
 23
0.0
 33
0.0
 40
0.0
 40
0.0
 40
0.0
 40
0.0
 40
0.010098331578478
 40
0.0388717982887448
 40
0.0683952508820736
 40
0.1272808701658412
 40
0.2098482040059271
 40
0.2607731150999625
 40
0.3122196831013627
 40
0.3561134197824379
 40
0.4003633551146012
 40
0.4283513933730487
 40
0.4564476674180705
 40
0.5184682208028819
 40
0.5647997764944793
 40
0.6123464314229071
 40
0.8047763035653784
 40
0.9024143058427209
 40
1.0
 40
1.0
 40
1.0
 40
1.0
 10
403.4005313110583
 20
174.0034961976331
 30
0.0
 10
403.4003294579759
 20
173.8941020735989
 30
0.0
 10
403.399552459098
 20
173.4730081245256
 30
0.0
 10
403.4139729904724
 20
172.6864211826634
 30
0.0
 10
403.3121666413982
 20
171.2036944797088
 30
0.0
 10
402.8688105990263
 20
168.9231129591131
 30
0.0
 10
402.1343927100767
 20
166.6527389568341
 30
0.0
 10
401.3218371655606
 20
164.7037103906173
 30
0.0
 10
400.6821671388536
 20
163.3133006119713
 30
0.0
 10
399.7763655083917
 20
161.9355922368546
 30
0.0
 10
398.7247958863612
 20
160.819844326723
 30
0.0
 10
397.6139046073527
 20
160.09814609296
 30
0.0
 10
396.2502528180779
 20
159.3329848768219
 30
0.0
 10
394.6841967805148
 20
158.5322880822611
 30
0.0
 10
393.0407576688368
 20
157.8364471027839
 30
0.0
 10
390.2668200089382
 20
156.8715852624186
 30
0.0
 10
387.3021915513622
 20
156.0460297352021
 30
0.0
 10
384.0621822483699
 20
155.0964140390181
 30
0.0
 10
382.638647883564
 20
154.685436141972
 30
0.0
 10
381.9270714116328
 20
154.4800022520345
 30
0.0
  0
LINE
  5
94
330
1F
100
AcDbEntity
  8
0
  6
Continuous
 62
     7
370
    15
100
AcDbLine
 10
377.4005307746
 20
154.480002252
 30
0.0
 11
381.9270714116
 21
154.480002252
 31
0.0
  0
SPLINE
  5
95
330
1F
100
AcDbEntity
  8
0
  6
Continuous
 62
     7
370
    15
100
AcDbSpline
210
0.0
220
0.0
230
1.0
 70
     8
 71
     3
 72
    10
 73
     6
 74
     0
 42
0.00000001
 43
0.00000001
 12
1.0
 22
0.0
 32
0.0
 13
1.0
 23
0.0
 33
0.0
 40
0.0
 40
0.0
 40
0.0
 40
0.0
 40
0.3873860415590485
 40
0.7892564612384012
 40
1.0
 40
1.0
 40
1.0
 40
1.0
 10
377.4005307746165
 20
159.2768797554296
 30
0.0
 10
376.45912889831
 20
159.2814535377831
 30
0.0
 10
374.5411260954559
 20
159.2907721163777
 30
0.0
 10
372.1665305733098
 20
159.8916222553922
 30
0.0
 10
370.8525500815022
 20
160.5198384775345
 30
0.0
 10
370.4005314898723
 20
160.735949305467
 30
0.0
  0
SPLINE
  5
96
330
1F
100
AcDbEntity
  8
0
  6
Continuous
 62
     7
370
    15
100
AcDbSpline
210
0.0
220
0.0
230
1.0
 70
     8
 71
     3
 72
    12
 73
     8
 74
     0
 42
0.00000001
 43
0.00000001
 12
1.0
 22
0.0
 32
0.0
 13
1.0
 23
0.0
 33
0.0
 40
0.0
 40
0.0
 40
0.0
 40
0.0
 40
0.1815145331588986
 40
0.3682427095496122
 40
0.5497794105741576
 40
0.7366785566424073
 40
1.0
 40
1.0
 40
1.0
 40
1.0
 10
364.4809334469073
 20
165.2765640892309
 30
0.0
 10
364.5906408227817
 20
164.6006194484911
 30
0.0
 10
364.8132067002706
 20
163.2293150042699
 30
0.0
 10
365.5716721506328
 20
161.2860109030252
 30
0.0
 10
366.6388862881156
 20
159.4836956142055
 30
0.0
 10
368.1723402857895
 20
157.6376922323552
 30
0.0
 10
369.5782526373609
 20
156.6749432164119
 30
0.0
 10
370.4005314898723
 20
156.1118582166952
 30
0.0
  0
SPLINE
  5
97
330
1F
100
AcDbEntity
  8
0
  6
Continuous
 62
     7
370
    15
100
AcDbSpline
210
0.0
220
0.0
230
1.0
 70
     8
 71
     3
 72
    12
 73
     8
 74
     0
 42
0.00000001
 43
0.00000001
 12
1.0
 22
0.0
 32
0.0
 13
1.0
 23
0.0
 33
0.0
 40
0.0
 40
0.0
 40
0.0
 40
0.0
 40
0.1712284767191373
 40
0.3764365049203246
 40
0.5816447115670644
 40
0.790822412613077
 40
0.9999999999999999
 40
0.9999999999999999
 40
0.9999999999999999
 40
0.9999999999999999
 10
364.779552717232
 20
173.554330495767
 30
0.0
 10
364.7547082997224
 20
172.8197677406935
 30
0.0
 10
364.7000891973785
 20
171.2048714251814
 30
0.0
 10
364.6386014994983
 20
169.3198471927871
 30
0.0
 10
364.5818821861201
 20
167.5765060351515
 30
0.0
 10
364.5275936648247
 20
166.1915771978784
 30
0.0
 10
364.4964868500628
 20
165.5815684035375
 30
0.0
 10
364.4809334469073
 20
165.2765640892309
 30
0.0
  0
SPLINE
  5
98
330
1F
100
AcDbEntity
  8
0
  6
Continuous
 62
     7
370
    15
100
AcDbSpline
210
0.0
220
0.0
230
1.0
 70
     8
 71
     3
 72
    16
 73
    12
 74
     0
 42
0.00000001
 43
0.00000001
 12
1.0
 22
0.0
 32
0.0
 13
1.0
 23
0.0
 33
0.0
 40
0.0
 40
0.0
 40
0.0
 40
0.0
 40
0.0977085872367221
 40
0.1954057341149298
 40
0.2932677912743396
 40
0.3911236133337778
 40
0.4875455747402924
 40
0.5839668244737687
 40
0.687818918794725
 40
0.7918714795061029
 40
1.0
 40
1.0
 40
1.0
 40
1.0
 10
365.6049354863399
 20
195.5407814957422
 30
0.0
 10
365.9303136777592
 20
195.1147327986911
 30
0.0
 10
366.5810319631976
 20
194.2626852891486
 30
0.0
 10
367.9201797651602
 20
193.150661764688
 30
0.0
 10
369.4913542650468
 20
192.2090910270922
 30
0.0
 10
371.2606825274304
 20
191.4718522813961
 30
0.0
 10
373.1729263442816
 20
190.9648206512051
 30
0.0
 10
375.2216282205355
 20
190.6878092063442
 30
0.0
 10
377.3542860741257
 20
190.662115615021
 30
0.0
 10
380.2616057509874
 20
190.7041411973043
 30
0.0
 10
382.4449269985212
 20
190.6951307730992
 30
0.0
 10
383.9005290460818
 20
190.6891235985082
 30
0.0
  0
SPLINE
  5
99
330
1F
100
AcDbEntity
  8
0
  6
Continuous
 62
     7
370
    15
100
AcDbSpline
210
0.0
220
0.0
230
1.0
 70
     8
 71
     3
 72
    18
 73
    14
 74
     0
 42
0.00000001
 43
0.00000001
 12
1.0
 22
0.0
 32
0.0
 13
1.0
 23
0.0
 33
0.0
 40
0.0
 40
0.0
 40
0.0
 40
0.0
 40
0.0897190277985151
 40
0.1796856218860954
 40
0.2694234728288481
 40
0.3591248875939996
 40
0.449058981979329
 40
0.5387601524288872
 40
0.6380962150234538
 40
0.7377496932185416
 40
0.837085748864542
 40
0.9185429066114734
 40
1.0
 40
1.0
 40
1.0
 40
1.0
 10
371.4005335164302
 20
281.2632987179082
 30
0.0
 10
371.0755658833923
 20
278.8132180936777
 30
0.0
 10
370.4247339175533
 20
273.9062962127964
 30
0.0
 10
369.7118193774569
 20
266.1310888980959
 30
0.0
 10
369.0242470926966
 20
258.1664796063201
 30
0.0
 10
368.3644957367849
 20
250.0545940668712
 30
0.0
 10
367.8039591901679
 20
241.8878009922822
 30
0.0
 10
367.2918814195921
 20
233.4549782193229
 30
0.0
 10
366.8402488558833
 20
224.8566078724964
 30
0.0
 10
366.4439326152056
 20
216.2177964660254
 30
0.0
 10
366.1466601677011
 20
208.4398685425955
 30
0.0
 10
365.8643648724477
 20
201.5159592389682
 30
0.0
 10
365.6914119256011
 20
197.5325068856037
 30
0.0
 10
365.6049354863399
 20
195.5407814957422
 30
0.0
  0
SPLINE
  5
9A
330
1F
100
AcDbEntity
  8
0
  6
Continuous
 62
     7
370
    15
100
AcDbSpline
210
0.0
220
0.0
230
1.0
 70
     8
 71
     3
 72
    11
 73
     7
 74
     0
 42
0.00000001
 43
0.00000001
 12
1.0
 22
0.0
 32
0.0
 13
1.0
 23
0.0
 33
0.0
 40
0.0
 40
0.0
 40
0.0
 40
0.0
 40
0.4452223612474223
 40
0.6678515406300322
 40
0.8946245577651701
 40
1.0
 40
1.0
 40
1.0
 40
1.0
 10
383.9005290460818
 20
294.4290297009271
 30
0.0
 10
382.025134981426
 20
294.4195928345455
 30
0.0
 10
379.2119680689204
 20
294.405437153474
 30
0.0
 10
375.440236027071
 20
294.4718076009491
 30
0.0
 10
373.1107963018196
 20
294.1720705314257
 30
0.0
 10
371.8124417497568
 20
293.8011290581212
 30
0.0
 10
371.4005335164302
 20
293.6834463753027
 30
0.0
  0
SPLINE
  5
9B
330
1F
100
AcDbEntity
  8
0
  6
Continuous
 62
     7
370
    15
100
AcDbSpline
210
0.0
220
0.0
230
1.0
 70
     8
 71
     3
 72
    19
 73
    15
 74
     0
 42
0.00000001
 43
0.00000001
 12
1.0
 22
0.0
 32
0.0
 13
1.0
 23
0.0
 33
0.0
 40
0.0
 40
0.0
 40
0.0
 40
0.0
 40
0.0653292944576727
 40
0.1343160412091668
 40
0.2051187235388399
 40
0.2782706988438186
 40
0.3568353427160906
 40
0.4425319621670309
 40
0.5344469530843112
 40
0.6301649733414428
 40
0.725801324075219
 40
0.8179068240269084
 40
0.9089534120134541
 40
1.0
 40
1.0
 40
1.0
 40
1.0
 10
403.4005313110583
 20
282.6069774009508
 30
0.0
 10
403.4001880319567
 20
283.0816162608221
 30
0.0
 10
403.3994822553163
 20
284.0574665771492
 30
0.0
 10
403.4050523604677
 20
285.5478252142111
 30
0.0
 10
403.3828657397723
 20
287.0946957293603
 30
0.0
 10
403.4709983092978
 20
288.7129139159775
 30
0.0
 10
403.0169747888826
 20
290.4326591310759
 30
0.0
 10
401.7455313451601
 20
292.1455466395677
 30
0.0
 10
399.6482576208145
 20
293.6857913599005
 30
0.0
 10
396.8440841740675
 20
294.8416074102501
 30
0.0
 10
393.6288182652795
 20
295.5019035161026
 30
0.0
 10
390.330426557134
 20
295.521873147631
 30
0.0
 10
387.1125035910454
 20
295.5167421882111
 30
0.0
 10
384.9711872277363
 20
295.5174236741398
 30
0.0
 10
383.9005290460818
 20
295.5177644171041
 30
0.0
  0
SPLINE
  5
9C
330
1F
100
AcDbEntity
  8
0
  6
Continuous
 62
     7
370
    15
100
AcDbSpline
210
0.0
220
0.0
230
1.0
 70
    24
 71
     3
 72
     9
 73
     5
 74
     0
 42
0.00000001
 43
0.00000001
 12
1.0
 22
0.0
 32
0.0
 13
1.0
 23
0.0
 33
0.0
 40
0.0
 40
0.0
 40
0.0
 40
0.0
 40
0.3153169339619562
 40
1.0
 40
1.0
 40
1.0
 40
1.0
 10
403.2941146683925
 20
249.9509047620219
 30
0.0
 10
403.3351793775291
 20
249.9509047620219
 30
0.0
 10
403.4654125008207
 20
249.9509047620219
 30
0.0
 10
403.4269000998414
 20
249.9509047620219
 30
0.0
 10
403.4005313110583
 20
249.9509047620219
 30
0.0
  0
SPLINE
  5
9D
330
1F
100
AcDbEntity
  8
0
  6
Continuous
 62
     7
370
    15
100
AcDbSpline
210
0.0
220
0.0
230
1.0
 70
     8
 71
     3
 72
    12
 73
     8
 74
     0
 42
0.00000001
 43
0.00000001
 12
1.0
 22
0.0
 32
0.0
 13
1.0
 23
0.0
 33
0.0
 40
0.0
 40
0.0
 40
0.0
 40
0.0
 40
0.2114556659925287
 40
0.4224858884059131
 40
0.6446560424557617
 40
0.8854068133449694
 40
1.0
 40
1.0
 40
1.0
 40
1.0
 10
402.9031081986659
 20
248.1834005002153
 30
0.0
 10
402.9094837259807
 20
248.391496187206
 30
0.0
 10
402.9222219532067
 20
248.8072688778031
 30
0.0
 10
403.0113610731563
 20
249.3362280533523
 30
0.0
 10
403.1273267214565
 20
249.737667211918
 30
0.0
 10
403.2290799718985
 20
249.9285033526267
 30
0.0
 10
403.2782560940994
 20
249.9454422253405
 30
0.0
 10
403.2941146683925
 20
249.9509047620219
 30
0.0
  0
LINE
  5
9E
330
1F
100
AcDbEntity
  8
0
  6
Continuous
 62
     7
370
    15
100
AcDbLine
 10
402.9882608843
 20
244.9509048738
 30
0.0
 11
402.9031081987
 21
248.1834005002
 31
0.0
  0
SPLINE
  5
9F
330
1F
100
AcDbEntity
  8
0
  6
Continuous
 62
     7
370
    15
100
AcDbSpline
210
0.0
220
0.0
230
1.0
 70
     8
 71
     3
 72
     9
 73
     5
 74
     0
 42
0.00000001
 43
0.00000001
 12
1.0
 22
0.0
 32
0.0
 13
1.0
 23
0.0
 33
0.0
 40
0.0
 40
0.0
 40
0.0
 40
0.0
 40
0.5370639527462959
 40
1.0
 40
1.0
 40
1.0
 40
1.0
 10
402.9882608843081
 20
234.1502014450949
 30
0.0
 10
403.0148076128994
 20
236.0837760717972
 30
0.0
 10
403.0642369749996
 20
239.6840449351513
 30
0.0
 10
403.0123029954972
 20
243.2842432818448
 30
0.0
 10
402.9882608843081
 20
244.9509048737925
 30
0.0
  0
LINE
  5
A0
330
1F
100
AcDbEntity
  8
0
  6
Continuous
 62
     7
370
    15
100
AcDbLine
 10
403.0308856559
 20
241.9509048477
 30
0.0
 11
402.9882608843
 21
234.1502014451
 31
0.0
  0
LINE
  5
A1
330
1F
100
AcDbEntity
  8
0
  6
Continuous
 62
     7
370
    15
100
AcDbLine
 10
365.6049354863
 20
195.5407814957
 30
0.0
 11
343.9005336654
 21
195.5407814957
 31
0.0
  0
LINE
  5
A2
330
1F
100
AcDbEntity
  8
0
  6
Continuous
 62
     7
370
    15
100
AcDbLine
 10
343.9005336654
 20
294.3610282518
 30
0.0
 11
371.4005335164
 21
294.3610282518
 31
0.0
  0
LINE
  5
A3
330
1F
100
AcDbEntity
  8
0
  6
Continuous
 62
     7
370
    15
100
AcDbLine
 10
371.4005335164
 20
294.3610282518
 30
0.0
 11
371.4005335164
 21
281.2632987179
 31
0.0
  0
LINE
  5
A4
330
1F
100
AcDbEntity
  8
0
  6
Continuous
 62
     7
370
    15
100
AcDbLine
 10
343.9005336654
 20
287.886138437
 30
0.0
 11
343.9005336654
 21
202.0156713106
 31
0.0
  0
ELLIPSE
  5
A5
330
1F
100
AcDbEntity
  8
0
  6
Continuous
 62
     7
370
    15
100
AcDbEllipse
 10
433.8280054927
 20
241.9509048738
 30
0.0
 11
0.0
 21
1.999999999999972
 31
0.0
210
0.0
220
0.0
230
1.0
 40
0.0801273872
 41
3.141592654605848
 42
4.712388980384676
  0
LINE
  5
A6
330
1F
100
AcDbEntity
  8
0
  6
Continuous
 62
     7
370
    15
100
AcDbLine
 10
433.8280095649
 20
239.9509049855
 30
0.0
 11
403.3708929014
 21
239.9509049855
 31
0.0
  0
ELLIPSE
  5
A7
330
1F
100
AcDbEntity
  8
0
  6
Continuous
 62
     7
370
    15
100
AcDbEllipse
 10
390.4280054928
 20
247.9509048738
 30
0.0
 11
-12.56025477448605
 21
0.0
 31
0.0
210
0.0
220
7.105427357601002E-15
230
1.0
 40
0.1592324388
 41
3.141592653589778
 42
3.258103916300368
  0
LINE
  5
A8
330
1F
100
AcDbEntity
  8
0
  6
Continuous
 62
     7
370
    15
100
AcDbLine
 10
403.2941146684
 20
249.950904762
 30
0.0
 11
433.8280095649
 21
249.950904762
 31
0.0
  0
ELLIPSE
  5
A9
330
1F
100
AcDbEntity
  8
0
  6
Continuous
 62
     7
370
    15
100
AcDbEllipse
 10
433.8280054928
 20
247.9509048738
 30
0.0
 11
0.0
 21
2.0
 31
0.0
210
0.0
220
0.0
230
1.0
 40
0.0801273872
 41
4.712388980384691
 42
6.283185307179586
  0
LINE
  5
AA
330
1F
100
AcDbEntity
  8
0
  6
Continuous
 62
     7
370
    15
100
AcDbLine
 10
402.9882608843
 20
247.9509048999
 30
0.0
 11
402.9882608843
 21
244.9509048738
 31
0.0
  0
LINE
  5
AB
330
1F
100
AcDbEntity
  8
0
  6
Continuous
 62
     7
370
    15
100
AcDbLine
 10
433.9882566524
 20
247.9509048999
 30
0.0
 11
433.9882566524
 21
241.9509048477
 31
0.0
  0
LINE
  5
AC
330
1F
100
AcDbEntity
  8
0
  6
Continuous
 62
     7
370
    15
100
AcDbLine
 10
383.9005290461
 20
188.5751442887
 30
0.0
 11
383.9005290461
 21
184.5039198078
 31
0.0
  0
LINE
  5
AD
330
1F
100
AcDbEntity
  8
0
  6
Continuous
 62
     7
370
    15
100
AcDbLine
 10
343.9005336654
 20
184.5039198078
 30
0.0
 11
343.9005336654
 21
188.5751442887
 31
0.0
  0
LINE
  5
AE
330
1F
100
AcDbEntity
  8
0
  6
Continuous
 62
     7
370
    15
100
AcDbLine
 10
383.9005290461
 20
305.3978899397
 30
0.0
 11
383.9005290461
 21
301.3266654589
 31
0.0
  0
LINE
  5
AF
330
1F
100
AcDbEntity
  8
0
  6
Continuous
 62
     7
370
    15
100
AcDbLine
 10
343.9005336654
 20
301.3266654589
 30
0.0
 11
343.9005336654
 21
305.3978899397
 31
0.0
  0
LINE
  5
B0
330
1F
100
AcDbEntity
  8
0
  6
Continuous
 62
     7
370
    15
100
AcDbLine
 10
383.9005290461
 20
184.5039198078
 30
0.0
 11
383.9005290461
 21
174.2744440116
 31
0.0
  0
LINE
  5
B1
330
1F
100
AcDbEntity
  8
0
  6
Continuous
 62
     7
370
    15
100
AcDbLine
 10
343.9005336654
 20
184.5039198078
 30
0.0
 11
343.9005336654
 21
174.2744440116
 31
0.0
  0
LINE
  5
B2
330
1F
100
AcDbEntity
  8
0
  6
Continuous
 62
     7
370
    15
100
AcDbLine
 10
383.9005290461
 20
315.6273657359
 30
0.0
 11
383.9005290461
 21
305.3978899397
 31
0.0
  0
LINE
  5
B3
330
1F
100
AcDbEntity
  8
0
  6
Continuous
 62
     7
370
    15
100
AcDbLine
 10
343.9005336654
 20
315.6273657359
 30
0.0
 11
343.9005336654
 21
305.3978899397
 31
0.0
  0
LINE
  5
B4
330
1F
100
AcDbEntity
  8
0
  6
Continuous
 62
     7
370
    15
100
AcDbLine
 10
383.9005290461
 20
190.6891235985
 30
0.0
 11
383.9005290461
 21
188.5751442887
 31
0.0
  0
LINE
  5
B5
330
1F
100
AcDbEntity
  8
0
  6
Continuous
 62
     7
370
    15
100
AcDbLine
 10
343.9005336654
 20
189.611035762
 30
0.0
 11
343.9005336654
 21
188.5751442887
 31
0.0
  0
LINE
  5
B6
330
1F
100
AcDbEntity
  8
0
  6
Continuous
 62
     7
370
    15
100
AcDbLine
 10
383.9005290461
 20
301.3266654589
 30
0.0
 11
383.9005290461
 21
294.4290297009
 31
0.0
  0
LINE
  5
B7
330
1F
100
AcDbEntity
  8
0
  6
Continuous
 62
     7
370
    15
100
AcDbLine
 10
343.9005336654
 20
301.3266654589
 30
0.0
 11
343.9005336654
 21
300.2907739856
 31
0.0
  0
LINE
  5
B8
330
1F
100
AcDbEntity
  8
0
  6
Continuous
 62
     7
370
    15
100
AcDbLine
 10
459.4005330396
 20
241.9509048477
 30
0.0
 11
459.4005330396
 21
239.9509049855
 31
0.0
  0
LINE
  5
B9
330
1F
100
AcDbEntity
  8
0
  6
Continuous
 62
     7
370
    15
100
AcDbLine
 10
459.4005330396
 20
239.9509049855
 30
0.0
 11
433.8280095649
 21
239.9509049855
 31
0.0
  0
LINE
  5
BA
330
1F
100
AcDbEntity
  8
0
  6
Continuous
 62
     7
370
    15
100
AcDbLine
 10
443.9005388808
 20
96.9509029664
 30
0.0
 11
303.9005326969
 21
96.9509029664
 31
0.0
  0
LINE
  5
BB
330
1F
100
AcDbEntity
  8
0
  6
Continuous
 62
     7
370
    15
100
AcDbLine
 10
306.9005322573
 20
112.950905589
 30
0.0
 11
440.9005328012
 21
112.950905589
 31
0.0
  0
LINE
  5
BC
330
1F
100
AcDbEntity
  8
0
  6
Continuous
 62
     7
370
    15
100
AcDbLine
 10
459.4005330396
 20
247.9509048999
 30
0.0
 11
459.4005330396
 21
241.9509048477
 31
0.0
  0
LINE
  5
BD
330
1F
100
AcDbEntity
  8
0
  6
Continuous
 62
     7
370
    15
100
AcDbLine
 10
459.4005330396
 20
249.950904762
 30
0.0
 11
459.4005330396
 21
247.9509048999
 31
0.0
  0
LINE
  5
BE
330
1F
100
AcDbEntity
  8
0
  6
Continuous
 62
     7
370
    15
100
AcDbLine
 10
433.8280095649
 20
249.950904762
 30
0.0
 11
459.4005330396
 21
249.950904762
 31
0.0
  0
LINE
  5
BF
330
1F
100
AcDbEntity
  8
0
  6
Continuous
 62
     7
370
    15
100
AcDbLine
 10
443.9005388808
 20
392.9509067811
 30
0.0
 11
303.9005326969
 21
392.9509067811
 31
0.0
  0
SPLINE
  5
C0
330
1F
100
AcDbEntity
  8
0
  6
Continuous
 62
     7
370
    15
100
AcDbSpline
210
0.0
220
0.0
230
1.0
 70
     8
 71
     3
 72
    13
 73
     9
 74
     0
 42
0.00000001
 43
0.00000001
 12
1.0
 22
0.0
 32
0.0
 13
1.0
 23
0.0
 33
0.0
 40
0.0
 40
0.0
 40
0.0
 40
0.0
 40
0.2402265795386752
 40
0.3748909571975894
 40
0.5133655689489225
 40
0.6495515283075667
 40
0.789788607661541
 40
0.9999999999999999
 40
0.9999999999999999
 40
0.9999999999999999
 40
0.9999999999999999
 10
305.3439867612951
 20
379.9509102381986
 30
0.0
 10
305.2208982971562
 20
381.3070548760653
 30
0.0
 10
305.0288098437066
 20
383.4234166973282
 30
0.0
 10
304.6790882444793
 20
385.7861957489569
 30
0.0
 10
304.410076964018
 20
387.385836746328
 30
0.0
 10
304.1723996615654
 20
388.6395989454963
 30
0.0
 10
303.9561648270256
 20
389.6959365181814
 30
0.0
 10
303.9213911679105
 20
389.8553055297642
 30
0.0
 10
303.9005326968663
 20
389.9509007014555
 30
0.0
  0
LINE
  5
C1
330
1F
100
AcDbEntity
  8
0
  6
Continuous
 62
     7
370
    15
100
AcDbLine
 10
440.9005328012
 20
376.9509041585
 30
0.0
 11
308.5706003872
 21
376.9509041585
 31
0.0
  0
SPLINE
  5
C2
330
1F
100
AcDbEntity
  8
0
  6
Continuous
 62
     7
370
    15
100
AcDbSpline
210
0.0
220
0.0
230
1.0
 70
     8
 71
     3
 72
    12
 73
     8
 74
     0
 42
0.00000001
 43
0.00000001
 12
1.0
 22
0.0
 32
0.0
 13
1.0
 23
0.0
 33
0.0
 40
0.0
 40
0.0
 40
0.0
 40
0.0
 40
0.1658959919742943
 40
0.3814626693278199
 40
0.6006790139646954
 40
0.8226477251165922
 40
0.9999999999999999
 40
0.9999999999999999
 40
0.9999999999999999
 40
0.9999999999999999
 10
308.5706003871792
 20
376.9509041585248
 30
0.0
 10
308.2990567940284
 20
376.9715811671251
 30
0.0
 10
307.674667122829
 20
377.0191260583578
 30
0.0
 10
306.76256226217
 20
377.4435005169561
 30
0.0
 10
305.9731930100388
 20
378.1761839839455
 30
0.0
 10
305.4784398869453
 20
379.0620338276141
 30
0.0
 10
305.3853369838827
 20
379.677541826325
 30
0.0
 10
305.3439867612951
 20
379.9509102381986
 30
0.0
  0
LWPOLYLINE
  5
C3
330
1F
100
AcDbEntity
  8
0
  6
Continuous
 62
     7
370
    15
100
AcDbPolyline
 90
        9
 70
   128
 43
0.0
 10
403.4005313111
 20
304.2736457564
 10
403.2315744949
 20
306.0106964685
 10
402.6822953415
 20
307.8149253406
 10
401.6958906245
 20
309.6128696479
 10
400.2511261893
 20
311.2914854564
 10
398.379190166
 20
312.7280617036
 10
396.1784451199
 20
313.8067418613
 10
393.7977983546
 20
314.4565665998
 10
391.4005293441
 20
314.6659502663
  0
LINE
  5
C4
330
1F
100
AcDbEntity
  8
0
  6
Continuous
 62
     7
370
    15
100
AcDbLine
 10
403.4005313111
 20
295.8352373816
 30
0.0
 11
403.4005313111
 21
303.5930426695
 31
0.0
  0
SPLINE
  5
C5
330
1F
100
AcDbEntity
  8
0
  6
Continuous
 62
     7
370
    15
100
AcDbSpline
210
0.0
220
0.0
230
1.0
 70
    24
 71
     3
 72
    11
 73
     7
 74
     0
 42
0.00000001
 43
0.00000001
 12
1.0
 22
0.0
 32
0.0
 13
1.0
 23
0.0
 33
0.0
 40
0.0
 40
0.0
 40
0.0
 40
0.0
 40
0.259066831149287
 40
0.5181336569366349
 40
0.7581426113596911
 40
1.0
 40
1.0
 40
1.0
 40
1.0
 10
403.4005313110583
 20
295.8352373816293
 30
0.0
 10
403.4005313110583
 20
294.8704479629153
 30
0.0
 10
403.4005313110583
 20
292.9408691454555
 30
0.0
 10
403.4005313110584
 20
289.5794487408792
 30
0.0
 10
403.4005313110583
 20
285.984049656431
 30
0.0
 10
403.4005313110583
 20
283.3806143092696
 30
0.0
 10
403.4005313110583
 20
282.0739032604021
 30
0.0
  0
LINE
  5
C6
330
1F
100
AcDbEntity
  8
0
  6
Continuous
 62
     7
370
    15
100
AcDbLine
 10
391.4005293441
 20
314.6659502663
 30
0.0
 11
383.9005290461
 21
314.6659502663
 31
0.0
  0
LINE
  5
C7
330
1F
100
AcDbEntity
  8
0
  6
Continuous
 62
     7
370
    15
100
AcDbLine
 10
405.4613842559
 20
200.722302673
 30
0.0
 11
405.4613842559
 21
239.9509049855
 31
0.0
  0
SPLINE
  5
C8
330
1F
100
AcDbEntity
  8
0
  6
Continuous
 62
     7
370
    15
100
AcDbSpline
210
0.0
220
0.0
230
1.0
 70
     8
 71
     3
 72
     9
 73
     5
 74
     0
 42
0.00000001
 43
0.00000001
 12
1.0
 22
0.0
 32
0.0
 13
1.0
 23
0.0
 33
0.0
 40
0.0
 40
0.0
 40
0.0
 40
0.0
 40
0.6103371209009835
 40
1.0
 40
1.0
 40
1.0
 40
1.0
 10
405.4613842559093
 20
200.7223026730341
 30
0.0
 10
405.439662678237
 20
200.4746975673181
 30
0.0
 10
405.4040732032921
 20
200.0690117631343
 30
0.0
 10
405.4057307391627
 20
200.0883757568411
 30
0.0
 10
405.4063766193622
 20
200.0959211863798
 30
0.0
  0
SPLINE
  5
C9
330
1F
100
AcDbEntity
  8
0
  6
Continuous
 62
     7
370
    15
100
AcDbSpline
210
0.0
220
0.0
230
1.0
 70
     8
 71
     3
 72
    13
 73
     9
 74
     0
 42
0.00000001
 43
0.00000001
 12
1.0
 22
0.0
 32
0.0
 13
1.0
 23
0.0
 33
0.0
 40
0.0
 40
0.0
 40
0.0
 40
0.0
 40
0.0880902668476181
 40
0.2338113120753198
 40
0.3836603250037833
 40
0.5647748295505323
 40
0.7511138726272428
 40
1.0
 40
1.0
 40
1.0
 40
1.0
 10
404.712533850693
 20
195.2893467523378
 30
0.0
 10
404.7147848815345
 20
195.3014936132247
 30
0.0
 10
404.7207596219159
 20
195.3337341045209
 30
0.0
 10
404.6398371529523
 20
194.8965258353628
 30
0.0
 10
404.4826570301039
 20
194.0362395627976
 30
0.0
 10
404.2331690285667
 20
192.6426694402426
 30
0.0
 10
403.8701275926717
 20
190.5658368230411
 30
0.0
 10
403.5713748570303
 20
188.7907950757841
 30
0.0
 10
403.4005313110583
 20
187.7757267929834
 30
0.0
  0
LINE
  5
CA
330
1F
100
AcDbEntity
  8
0
  6
Continuous
 62
     7
370
    15
100
AcDbLine
 10
405.4613842559
 20
289.3130512811
 30
0.0
 11
403.4005313111
 21
303.6027321495
 31
0.0
  0
LINE
  5
CB
330
1F
100
AcDbEntity
  8
0
  6
Continuous
 62
     7
370
    15
100
AcDbLine
 10
405.4613842559
 20
249.950904762
 30
0.0
 11
405.4613842559
 21
289.3130512811
 31
0.0
  0
LINE
  5
CC
330
1F
100
AcDbEntity
  8
0
  6
Continuous
 62
     7
370
    15
100
AcDbLine
 10
383.9005290461
 20
174.2744440116
 30
0.0
 11
383.9005290461
 21
173.5543304958
 31
0.0
  0
LINE
  5
CD
330
1F
100
AcDbEntity
  8
0
  6
Continuous
 62
     7
370
    15
100
AcDbLine
 10
343.9005336654
 20
173.5543304958
 30
0.0
 11
343.9005336654
 21
174.2744440116
 31
0.0
  0
LINE
  5
CE
330
1F
100
AcDbEntity
  8
0
  6
Continuous
 62
     7
370
    15
100
AcDbLine
 10
383.9005290461
 20
316.3474792518
 30
0.0
 11
383.9005290461
 21
315.6273657359
 31
0.0
  0
LINE
  5
CF
330
1F
100
AcDbEntity
  8
0
  6
Continuous
 62
     7
370
    15
100
AcDbLine
 10
343.9005336654
 20
315.6273657359
 30
0.0
 11
343.9005336654
 21
316.3474792518
 31
0.0
  0
LINE
  5
D0
330
1F
100
AcDbEntity
  8
0
  6
Continuous
 62
     7
370
    15
100
AcDbLine
 10
370.4005314899
 20
112.950905589
 30
0.0
 11
370.4005314899
 21
160.7359493055
 31
0.0
  0
LINE
  5
D1
330
1F
100
AcDbEntity
  8
0
  6
Continuous
 62
     7
370
    15
100
AcDbLine
 10
377.4005307746
 20
112.950905589
 30
0.0
 11
377.4005307746
 21
159.2768797554
 31
0.0
  0
LINE
  5
D2
330
1F
100
AcDbEntity
  8
0
  6
Continuous
 62
     7
370
    15
100
AcDbLine
 10
370.4005314899
 20
376.9509041585
 30
0.0
 11
370.4005314899
 21
321.7138493337
 31
0.0
  0
LINE
  5
D3
330
1F
100
AcDbEntity
  8
0
  6
Continuous
 62
     7
370
    15
100
AcDbLine
 10
377.4005307746
 20
376.9509041585
 30
0.0
 11
377.4005307746
 21
321.63885924
 31
0.0
  0
SPLINE
  5
D4
330
1F
100
AcDbEntity
  8
0
  6
Continuous
 62
     7
370
    15
100
AcDbSpline
210
0.0
220
0.0
230
1.0
 70
     8
 71
     3
 72
    10
 73
     6
 74
     0
 42
0.00000001
 43
0.00000001
 12
1.0
 22
0.0
 32
0.0
 13
1.0
 23
0.0
 33
0.0
 40
0.0
 40
0.0
 40
0.0
 40
0.0
 40
0.3609187780511535
 40
0.7344359985327902
 40
0.9999999999999999
 40
0.9999999999999999
 40
0.9999999999999999
 40
0.9999999999999999
 10
371.4005335164302
 20
320.5052012481016
 30
0.0
 10
372.0875400711975
 20
320.7672072947991
 30
0.0
 10
373.485534234243
 20
321.3003651248432
 30
0.0
 10
375.5374238382089
 20
321.6101584320339
 30
0.0
 10
376.8536046201564
 20
321.630433946615
 30
0.0
 10
377.4005307746165
 20
321.6388592399877
 30
0.0
  0
LINE
  5
D5
330
1F
100
AcDbEntity
  8
0
  6
Continuous
 62
     7
370
    15
100
AcDbLine
 10
371.4005335164
 20
321.7138493337
 30
0.0
 11
370.4005314899
 21
321.7138493337
 31
0.0
  0
LINE
  5
D6
330
1F
100
AcDbEntity
  8
0
  6
Continuous
 62
     7
370
    15
100
AcDbLine
 10
364.4809334469
 20
165.2765640892
 30
0.0
 11
349.9005309236
 21
165.2765640892
 31
0.0
  0
LINE
  5
D7
330
1F
100
AcDbEntity
  8
0
  6
Continuous
 62
     7
370
    15
100
AcDbLine
 10
343.9005336654
 20
173.5543304958
 30
0.0
 11
343.9005336654
 21
164.4509056486
 31
0.0
  0
LINE
  5
D8
330
1F
100
AcDbEntity
  8
0
  6
Continuous
 62
     7
370
    15
100
AcDbLine
 10
362.8508358193
 20
324.6252456583
 30
0.0
 11
349.9005309236
 21
324.6252456583
 31
0.0
  0
LINE
  5
D9
330
1F
100
AcDbEntity
  8
0
  6
Continuous
 62
     7
370
    15
100
AcDbLine
 10
362.8508358193
 20
324.6252456583
 30
0.0
 11
364.137379725
 21
324.5482513584
 31
0.0
  0
SPLINE
  5
DA
330
1F
100
AcDbEntity
  8
0
  6
Continuous
 62
     7
370
    15
100
AcDbSpline
210
0.0
220
0.0
230
1.0
 70
     8
 71
     3
 72
    10
 73
     6
 74
     0
 42
0.00000001
 43
0.00000001
 12
1.0
 22
0.0
 32
0.0
 13
1.0
 23
0.0
 33
0.0
 40
0.0
 40
0.0
 40
0.0
 40
0.0
 40
0.4935136954688723
 40
0.7472745423136946
 40
1.0
 40
1.0
 40
1.0
 40
1.0
 10
370.4005314898723
 20
323.7035715855878
 30
0.0
 10
369.461767076234
 20
323.8811482310168
 30
0.0
 10
368.0402974108876
 20
324.1500333858907
 30
0.0
 10
365.9442978502836
 20
324.4161111056505
 30
0.0
 10
364.7388643606984
 20
324.504264677087
 30
0.0
 10
364.1373797250026
 20
324.5482513584417
 30
0.0
  0
LINE
  5
DB
330
1F
100
AcDbEntity
  8
0
  6
Continuous
 62
     7
370
    15
100
AcDbLine
 10
371.4005335164
 20
321.7138493337
 30
0.0
 11
371.4005335164
 21
316.3474792518
 31
0.0
  0
LINE
  5
DC
330
1F
100
AcDbEntity
  8
0
  6
Continuous
 62
     7
370
    15
100
AcDbLine
 10
343.9005336654
 20
325.4509040989
 30
0.0
 11
343.9005336654
 21
316.3474792518
 31
0.0
  0
LINE
  5
DD
330
1F
100
AcDbEntity
  8
0
  6
Continuous
 62
     7
370
    15
100
AcDbLine
 10
408.4005339933
 20
225.538109792
 30
0.0
 11
406.98826154
 21
225.403444273
 31
0.0
  0
SPLINE
  5
DE
330
1F
100
AcDbEntity
  8
0
  6
Continuous
 62
     7
370
    15
100
AcDbSpline
210
0.0
220
0.0
230
1.0
 70
     8
 71
     3
 72
    15
 73
    11
 74
     0
 42
0.00000001
 43
0.00000001
 12
1.0
 22
0.0
 32
0.0
 13
1.0
 23
0.0
 33
0.0
 40
0.0
 40
0.0
 40
0.0
 40
0.0
 40
0.0938404984305804
 40
0.1876794379107636
 40
0.2853014513006389
 40
0.3829257605813352
 40
0.5438106949135605
 40
0.7091273511423708
 40
0.8529796680133257
 40
1.0
 40
1.0
 40
1.0
 40
1.0
 10
406.9882615399592
 20
225.4034442730468
 30
0.0
 10
407.0462396929851
 20
224.1630510779864
 30
0.0
 10
407.1621950358594
 20
221.6822852942292
 30
0.0
 10
407.2204457200027
 20
218.1640372930557
 30
0.0
 10
407.1788503505805
 20
214.8372283492848
 30
0.0
 10
407.0060871236866
 20
211.097372132827
 30
0.0
 10
406.6358234776224
 20
207.2551488517884
 30
0.0
 10
406.1315523575715
 20
203.9897443751024
 30
0.0
 10
405.683418536966
 20
201.7210849555799
 30
0.0
 10
405.5359311318388
 20
201.0576387235895
 30
0.0
 10
405.4613842559093
 20
200.7223026730341
 30
0.0
  0
LINE
  5
DF
330
1F
100
AcDbEntity
  8
0
  6
Continuous
 62
     7
370
    15
100
AcDbLine
 10
408.4005339933
 20
225.538109792
 30
0.0
 11
408.4005339933
 21
239.9509049855
 31
0.0
  0
LINE
  5
E0
330
1F
100
AcDbEntity
  8
0
  6
Continuous
 62
     7
370
    15
100
AcDbLine
 10
408.4005339933
 20
289.3130512811
 30
0.0
 11
405.4613842559
 21
289.3130512811
 31
0.0
  0
LINE
  5
E1
330
1F
100
AcDbEntity
  8
0
  6
Continuous
 62
     7
370
    15
100
AcDbLine
 10
408.4005339933
 20
249.950904762
 30
0.0
 11
408.4005339933
 21
289.3130512811
 31
0.0
  0
LINE
  5
E2
330
1F
100
AcDbEntity
  8
0
  6
Continuous
 62
     7
370
    15
100
AcDbLine
 10
459.4005330396
 20
261.9509057977
 30
0.0
 11
459.4005330396
 21
249.950904762
 31
0.0
  0
LINE
  5
E3
330
1F
100
AcDbEntity
  8
0
  6
Continuous
 62
     7
370
    15
100
AcDbLine
 10
331.4005344105
 20
94.9508989133
 30
0.0
 11
416.4005353046
 21
94.9508989133
 31
0.0
  0
LINE
  5
E4
330
1F
100
AcDbEntity
  8
0
  6
Continuous
 62
     7
370
    15
100
AcDbLine
 10
331.4005344105
 20
394.9509108342
 30
0.0
 11
416.4005353046
 21
394.9509108342
 31
0.0
  0
LINE
  5
E5
330
1F
100
AcDbEntity
  8
0
  6
Continuous
 62
     7
370
    15
100
AcDbLine
 10
451.7762198043
 20
162.4509015955
 30
0.0
 11
455.8167292667
 21
177.4509021916
 31
0.0
  0
LINE
  5
E6
330
1F
100
AcDbEntity
  8
0
  6
Continuous
 62
     7
370
    15
100
AcDbLine
 10
451.4078630996
 20
161.2009027876
 30
0.0
 11
451.7762198043
 21
162.4509015955
 31
0.0
  0
SPLINE
  5
E7
330
1F
100
AcDbEntity
  8
0
  6
Continuous
 62
     7
370
    15
100
AcDbSpline
210
0.0
220
0.0
230
1.0
 70
     8
 71
     3
 72
     9
 73
     5
 74
     0
 42
0.00000001
 43
0.00000001
 12
1.0
 22
0.0
 32
0.0
 13
1.0
 23
0.0
 33
0.0
 40
0.0
 40
0.0
 40
0.0
 40
0.0
 40
0.4998928556864561
 40
1.0
 40
1.0
 40
1.0
 40
1.0
 10
446.9186796736949
 20
144.9509033836645
 30
0.0
 10
447.6853945952689
 20
147.6534962922633
 30
0.0
 10
449.2191531054223
 20
153.0598406275661
 30
0.0
 10
450.6781888832817
 20
158.4868277537273
 30
0.0
 10
451.4078630995982
 20
161.200902787618
 30
0.0
  0
LINE
  5
E8
330
1F
100
AcDbEntity
  8
0
  6
Continuous
 62
     7
370
    15
100
AcDbLine
 10
455.7937665773
 20
177.4509021916
 30
0.0
 11
456.4972951007
 21
179.950907258
 31
0.0
  0
SPLINE
  5
E9
330
1F
100
AcDbEntity
  8
0
  6
Continuous
 62
     7
370
    15
100
AcDbSpline
210
0.0
220
0.0
230
1.0
 70
     8
 71
     3
 72
    24
 73
    20
 74
     0
 42
0.00000001
 43
0.00000001
 12
1.0
 22
0.0
 32
0.0
 13
1.0
 23
0.0
 33
0.0
 40
0.0
 40
0.0
 40
0.0
 40
0.0
 40
0.241691566323813
 40
0.2953676779557771
 40
0.3486619334456236
 40
0.4019757051006266
 40
0.4552686709755837
 40
0.4819151397540389
 40
0.5085615407591899
 40
0.5352079379265028
 40
0.5618543389316538
 40
0.5885007360989667
 40
0.6151394385508894
 40
0.6403696331362484
 40
0.6636407746667827
 40
0.7448649330438069
 40
0.8280261975877959
 40
0.9134299863073856
 40
1.0
 40
1.0
 40
1.0
 40
1.0
 10
406.9882615399592
 20
225.4034442730468
 30
0.0
 10
407.8306843291551
 20
217.2949730005967
 30
0.0
 10
408.8601967233462
 20
207.3857305394594
 30
0.0
 10
409.1110699445979
 20
195.5925955732762
 30
0.0
 10
408.2069041387543
 20
190.246154232453
 30
0.0
 10
407.3593996981232
 20
184.9242074990318
 30
0.0
 10
406.5098264164832
 20
180.5095369567294
 30
0.0
 10
405.8594990573167
 20
176.974196754706
 30
0.0
 10
405.368624587765
 20
174.323214804155
 30
0.0
 10
404.8756492505804
 20
171.6722401130851
 30
0.0
 10
404.3942082619336
 20
169.0207236523455
 30
0.0
 10
403.8687822654292
 20
166.3716270771474
 30
0.0
 10
403.5143178568551
 20
163.7614924596716
 30
0.0
 10
402.5939894970046
 20
161.294870971317
 30
0.0
 10
399.0741659929948
 20
158.5655813359199
 30
0.0
 10
394.1319144667792
 20
154.7116469274119
 30
0.0
 10
388.2745347932902
 20
148.6201882129005
 30
0.0
 10
382.5988424750176
 20
142.168320255751
 30
0.0
 10
379.1411174258933
 20
137.5139086539355
 30
0.0
 10
377.4005307746165
 20
135.1709211148542
 30
0.0
  0
LINE
  5
EA
330
1F
100
AcDbEntity
  8
0
  6
Continuous
 62
     7
370
    15
100
AcDbLine
 10
381.9270714116
 20
154.480002252
 30
0.0
 11
377.4005307746
 21
151.3962367453
 31
0.0
  0
LINE
  5
EB
330
1F
100
AcDbEntity
  8
0
  6
Continuous
 62
     7
370
    15
100
AcDbLine
 10
402.3772760225
 20
317.8015941657
 30
0.0
 11
401.5007301164
 21
318.6737740316
 31
0.0
  0
SPLINE
  5
EC
330
1F
100
AcDbEntity
  8
0
  6
Continuous
 62
     7
370
    15
100
AcDbSpline
210
0.0
220
0.0
230
1.0
 70
     8
 71
     3
 72
     9
 73
     5
 74
     0
 42
0.00000001
 43
0.00000001
 12
1.0
 22
0.0
 32
0.0
 13
1.0
 23
0.0
 33
0.0
 40
0.0
 40
0.0
 40
0.0
 40
0.0
 40
0.4418670361931427
 40
1.0
 40
1.0
 40
1.0
 40
1.0
 10
403.4260942530864
 20
312.0518544592184
 30
0.0
 10
403.4160951564042
 20
312.9231907953959
 30
0.0
 10
403.393465958335
 20
314.8951331780736
 30
0.0
 10
402.7412816072673
 20
316.760481678602
 30
0.0
 10
402.3772760224574
 20
317.8015941657346
 30
0.0
  0
SPLINE
  5
ED
330
1F
100
AcDbEntity
  8
0
  6
Continuous
 62
     7
370
    15
100
AcDbSpline
210
0.0
220
0.0
230
1.0
 70
     8
 71
     3
 72
    11
 73
     7
 74
     0
 42
0.00000001
 43
0.00000001
 12
1.0
 22
0.0
 32
0.0
 13
1.0
 23
0.0
 33
0.0
 40
0.0
 40
0.0
 40
0.0
 40
0.0
 40
0.2474996004830818
 40
0.4950045016672767
 40
0.747502197305437
 40
1.0
 40
1.0
 40
1.0
 40
1.0
 10
352.9693654668563
 20
112.9509055890363
 30
0.0
 10
353.4586613213086
 20
114.5951656139349
 30
0.0
 10
354.4372635094666
 20
117.8837208788636
 30
0.0
 10
356.3576672311822
 20
122.6992194910173
 30
0.0
 10
358.5792989066184
 20
127.4218715990015
 30
0.0
 10
360.3501179064798
 20
130.4412282134605
 30
0.0
 10
361.2355275941127
 20
131.9509068407339
 30
0.0
  0
SPLINE
  5
EE
330
1F
100
AcDbEntity
  8
0
  6
Continuous
 62
     7
370
    15
100
AcDbSpline
210
0.0
220
0.0
230
1.0
 70
     8
 71
     3
 72
    10
 73
     6
 74
     0
 42
0.00000001
 43
0.00000001
 12
1.0
 22
0.0
 32
0.0
 13
1.0
 23
0.0
 33
0.0
 40
0.0
 40
0.0
 40
0.0
 40
0.0
 40
0.0519134780893521
 40
0.5227534809241762
 40
1.0
 40
1.0
 40
1.0
 40
1.0
 10
370.4005314898723
 20
145.4288208760541
 30
0.0
 10
370.1871107929569
 20
145.2189114309473
 30
0.0
 10
368.038027042071
 20
143.1051849547592
 30
0.0
 10
364.1632655269152
 20
138.802622646126
 30
0.0
 10
361.1333808557544
 20
134.2450776932927
 30
0.0
 10
359.608201582455
 20
131.9509068407339
 30
0.0
  0
SPLINE
  5
EF
330
1F
100
AcDbEntity
  8
0
  6
Continuous
 62
     7
370
    15
100
AcDbSpline
210
0.0
220
0.0
230
1.0
 70
     8
 71
     3
 72
     9
 73
     5
 74
     0
 42
0.00000001
 43
0.00000001
 12
1.0
 22
0.0
 32
0.0
 13
1.0
 23
0.0
 33
0.0
 40
0.0
 40
0.0
 40
0.0
 40
0.0
 40
0.5053869251540812
 40
0.9999999999999999
 40
0.9999999999999999
 40
0.9999999999999999
 40
0.9999999999999999
 10
370.4005314898723
 20
124.396889833383
 30
0.0
 10
369.325494041222
 20
122.5078799138157
 30
0.0
 10
367.1983368174324
 20
118.7701300323929
 30
0.0
 10
365.3763966377763
 20
114.8766645319947
 30
0.0
 10
364.4752412033313
 20
112.9509055890363
 30
0.0
  0
SPLINE
  5
F0
330
1F
100
AcDbEntity
  8
0
  6
Continuous
 62
     7
370
    15
100
AcDbSpline
210
0.0
220
0.0
230
1.0
 70
     8
 71
     3
 72
    15
 73
    11
 74
     0
 42
0.00000001
 43
0.00000001
 12
1.0
 22
0.0
 32
0.0
 13
1.0
 23
0.0
 33
0.0
 40
0.0
 40
0.0
 40
0.0
 40
0.0
 40
0.1349241242536916
 40
0.2698388046901
 40
0.4046997515241164
 40
0.536460201019829
 40
0.6641407738945174
 40
0.7781900924051672
 40
0.8900085598474535
 40
1.0
 40
1.0
 40
1.0
 40
1.0
 10
399.3851675582164
 20
376.9509041585248
 30
0.0
 10
399.4961177959442
 20
374.5859605597487
 30
0.0
 10
399.7180105055996
 20
369.8562388929743
 30
0.0
 10
400.0471604462659
 20
362.7587063710099
 30
0.0
 10
400.3711634851642
 20
355.729473117799
 30
0.0
 10
400.6855858318591
 20
348.7741730748081
 30
0.0
 10
400.996144203381
 20
342.2526033335636
 30
0.0
 10
401.296217585636
 20
336.2682590321673
 30
0.0
 10
401.5866687599523
 20
330.8052574208892
 30
0.0
 10
401.7823143376569
 20
327.5011556752568
 30
0.0
 10
401.8793313694232
 20
325.8627125896734
 30
0.0
  0
LINE
  5
F1
330
1F
100
AcDbEntity
  8
0
  6
Continuous
 62
     7
370
    15
100
AcDbLine
 10
362.8508358193
 20
324.6252456583
 30
0.0
 11
361.49315377
 21
325.3852197804
 31
0.0
  0
SPLINE
  5
F2
330
1F
100
AcDbEntity
  8
0
  6
Continuous
 62
     7
370
    15
100
AcDbSpline
210
0.0
220
0.0
230
1.0
 70
     8
 71
     3
 72
    15
 73
    11
 74
     0
 42
0.00000001
 43
0.00000001
 12
1.0
 22
0.0
 32
0.0
 13
1.0
 23
0.0
 33
0.0
 40
0.0
 40
0.0
 40
0.0
 40
0.0
 40
0.1314399953226215
 40
0.2628860501055085
 40
0.3943077390605009
 40
0.5235128804766322
 40
0.6499121709323614
 40
0.7679579248082368
 40
0.8845439832393067
 40
1.0
 40
1.0
 40
1.0
 40
1.0
 10
356.6725387168162
 20
376.9509041585248
 30
0.0
 10
356.8725956187398
 20
374.5884210392172
 30
0.0
 10
357.2727186453264
 20
369.8633458887555
 30
0.0
 10
357.8789928690989
 20
362.7763111195943
 30
0.0
 10
358.4790503704563
 20
355.7306642096843
 30
0.0
 10
359.0998975067515
 20
348.7727301093048
 30
0.0
 10
359.7105323113344
 20
342.1904274788179
 30
0.0
 10
360.3113108102081
 20
336.0808302726046
 30
0.0
 10
360.9009174266345
 20
330.4418035510845
 30
0.0
 10
361.2963836271675
 20
327.0652664744541
 30
0.0
 10
361.4931537699931
 20
325.3852197803777
 30
0.0
  0
SPLINE
  5
F3
330
1F
100
AcDbEntity
  8
0
  6
Continuous
 62
     7
370
    15
100
AcDbSpline
210
0.0
220
0.0
230
1.0
 70
     8
 71
     3
 72
    15
 73
    11
 74
     0
 42
0.00000001
 43
0.00000001
 12
1.0
 22
0.0
 32
0.0
 13
1.0
 23
0.0
 33
0.0
 40
0.0
 40
0.0
 40
0.0
 40
0.0
 40
0.2070502974304232
 40
0.4135818061116782
 40
0.6008167686966825
 40
0.6684208801952124
 40
0.7367251655297015
 40
0.7954280624019784
 40
0.8811029222823641
 40
1.0
 40
1.0
 40
1.0
 40
1.0
 10
401.8793313694232
 20
325.8627125896734
 30
0.0
 10
401.9076495986376
 20
325.2939800746454
 30
0.0
 10
401.9642151024295
 20
324.1579400704586
 30
0.0
 10
401.9790867190472
 20
322.3193478540005
 30
0.0
 10
401.9542349398326
 20
320.8080317200397
 30
0.0
 10
401.8940286948801
 20
319.7804415930937
 30
0.0
 10
401.8355144535559
 20
319.2385360605271
 30
0.0
 10
401.7526500951336
 20
318.8509685527607
 30
0.0
 10
401.6404928816147
 20
318.6403934860354
 30
0.0
 10
401.5521025309715
 20
318.6615043886416
 30
0.0
 10
401.5007301163905
 20
318.6737740315717
 30
0.0
  0
SPLINE
  5
F4
330
1F
100
AcDbEntity
  8
0
  6
Continuous
 62
     7
370
    15
100
AcDbSpline
210
0.0
220
0.0
230
1.0
 70
     8
 71
     3
 72
    10
 73
     6
 74
     0
 42
0.00000001
 43
0.00000001
 12
1.0
 22
0.0
 32
0.0
 13
1.0
 23
0.0
 33
0.0
 40
0.0
 40
0.0
 40
0.0
 40
0.0
 40
0.18766190248549
 40
0.4897554214040011
 40
1.0
 40
1.0
 40
1.0
 40
1.0
 10
402.3772760224574
 20
317.8015941657346
 30
0.0
 10
402.4944919420619
 20
321.5002607772276
 30
0.0
 10
402.8003991685197
 20
331.1529500069166
 30
0.0
 10
403.1405541841067
 20
350.8712830768358
 30
0.0
 10
402.9206203535882
 20
366.889540503057
 30
0.0
 10
402.7824758482211
 20
376.9509041585248
 30
0.0
  0
SPLINE
  5
F5
330
1F
100
AcDbEntity
  8
0
  6
Continuous
 62
     7
370
    15
100
AcDbSpline
210
0.0
220
0.0
230
1.0
 70
     8
 71
     3
 72
     9
 73
     5
 74
     0
 42
0.00000001
 43
0.00000001
 12
1.0
 22
0.0
 32
0.0
 13
1.0
 23
0.0
 33
0.0
 40
0.0
 40
0.0
 40
0.0
 40
0.0
 40
0.5462155344255449
 40
1.0
 40
1.0
 40
1.0
 40
1.0
 10
361.4931537699931
 20
325.3852197803777
 30
0.0
 10
359.921288219356
 20
331.2752005357167
 30
0.0
 10
357.0435495766967
 20
342.0584543689009
 30
0.0
 10
354.7978441523015
 20
352.9902320252584
 30
0.0
 10
353.7787779164546
 20
357.9509029068273
 30
0.0
  0
LINE
  5
F6
330
1F
100
AcDbEntity
  8
0
  6
Continuous
 62
     7
370
    15
100
AcDbLine
 10
352.573609252
 20
371.110334424
 30
0.0
 11
354.5742354286
 21
357.9509029068
 31
0.0
  0
SPLINE
  5
F7
330
1F
100
AcDbEntity
  8
0
  6
Continuous
 62
     7
370
    15
100
AcDbSpline
210
0.0
220
0.0
230
1.0
 70
     8
 71
     3
 72
    10
 73
     6
 74
     0
 42
0.00000001
 43
0.00000001
 12
1.0
 22
0.0
 32
0.0
 13
1.0
 23
0.0
 33
0.0
 40
0.0
 40
0.0
 40
0.0
 40
0.0
 40
0.3567126219539729
 40
0.7568610452161683
 40
1.0
 40
1.0
 40
1.0
 40
1.0
 10
352.5736092519992
 20
371.1103344239515
 30
0.0
 10
352.5354364632423
 20
371.8000148481906
 30
0.0
 10
352.4544427023847
 20
373.2633559654612
 30
0.0
 10
352.2151615531711
 20
375.2499697230287
 30
0.0
 10
351.9473959758491
 20
376.4843527876037
 30
0.0
 10
351.84619044187
 20
376.9509041585248
 30
0.0
  0
LINE
  5
F8
330
1F
100
AcDbEntity
  8
0
  6
Continuous
 62
     7
370
    15
100
AcDbLine
 10
352.573609252
 20
371.110334424
 30
0.0
 11
339.4005319965
 21
371.110334424
 31
0.0
  0
LINE
  5
F9
330
1F
100
AcDbEntity
  8
0
  6
Continuous
 62
     7
370
    15
100
AcDbLine
 10
303.9005326969
 20
389.9509007015
 30
0.0
 11
303.9005326969
 21
359.9509069599
 31
0.0
  0
LINE
  5
FA
330
1F
100
AcDbEntity
  8
0
  6
Continuous
 62
     7
370
    15
100
AcDbLine
 10
339.4005319965
 20
131.9509068407
 30
0.0
 11
339.4005319965
 21
112.950905589
 31
0.0
  0
LINE
  5
FB
330
1F
100
AcDbEntity
  8
0
  6
Continuous
 62
     7
370
    15
100
AcDbLine
 10
361.2355275941
 20
131.9509068407
 30
0.0
 11
339.4005319965
 21
131.9509068407
 31
0.0
  0
LINE
  5
FC
330
1F
100
AcDbEntity
  8
0
  6
Continuous
 62
     7
370
    15
100
AcDbLine
 10
354.5742354286
 20
357.9509029068
 30
0.0
 11
339.4005319965
 21
357.9509029068
 31
0.0
  0
LINE
  5
FD
330
1F
100
AcDbEntity
  8
0
  6
Continuous
 62
     7
370
    15
100
AcDbLine
 10
339.4005319965
 20
357.9509029068
 30
0.0
 11
339.4005319965
 21
371.110334424
 31
0.0
  0
LINE
  5
FE
330
1F
100
AcDbEntity
  8
0
  6
Continuous
 62
     7
370
    15
100
AcDbLine
 10
349.9005309236
 20
131.9509068407
 30
0.0
 11
349.9005309236
 21
165.2765640892
 31
0.0
  0
LINE
  5
FF
330
1F
100
AcDbEntity
  8
0
  6
Continuous
 62
     7
370
    15
100
AcDbLine
 10
349.9005309236
 20
357.9509029068
 30
0.0
 11
349.9005309236
 21
324.6252456583
 31
0.0
  0
LINE
  5
100
330
1F
100
AcDbEntity
  8
0
  6
Continuous
 62
     7
370
    15
100
AcDbLine
 10
423.900528152
 20
376.9509041585
 30
0.0
 11
408.4005339933
 21
289.0460373737
 31
0.0
  0
LINE
  5
101
330
1F
100
AcDbEntity
  8
0
  6
Continuous
 62
     7
370
    15
100
AcDbLine
 10
452.4444176746
 20
161.2009027876
 30
0.0
 11
451.4078630996
 21
161.2009027876
 31
0.0
  0
SPLINE
  5
102
330
1F
100
AcDbEntity
  8
0
  6
Continuous
 62
     7
370
    15
100
AcDbSpline
210
0.0
220
0.0
230
1.0
 70
     8
 71
     3
 72
     9
 73
     5
 74
     0
 42
0.00000001
 43
0.00000001
 12
1.0
 22
0.0
 32
0.0
 13
1.0
 23
0.0
 33
0.0
 40
0.0
 40
0.0
 40
0.0
 40
0.0
 40
0.4999918926340458
 40
0.9999999999999999
 40
0.9999999999999999
 40
0.9999999999999999
 40
0.9999999999999999
 10
452.4444176745646
 20
161.200902787618
 30
0.0
 10
451.7141403259278
 20
158.4884349208567
 30
0.0
 10
450.2535619457672
 20
153.0634112220292
 30
0.0
 10
448.7322593535284
 20
147.655101894548
 30
0.0
 10
447.9715957236522
 20
144.9509033836645
 30
0.0
  0
LINE
  5
103
330
1F
100
AcDbEntity
  8
0
  6
Continuous
 62
     7
370
    15
100
AcDbLine
 10
447.9715957237
 20
144.9509033837
 30
0.0
 11
446.9186796737
 21
144.9509033837
 31
0.0
  0
LINE
  5
104
330
1F
100
AcDbEntity
  8
0
  6
Continuous
 62
     7
370
    15
100
AcDbLine
 10
448.7833513808
 20
147.4509084501
 30
0.0
 11
447.9743375373
 21
144.9509033837
 31
0.0
  0
LINE
  5
105
330
1F
100
AcDbEntity
  8
0
  6
Continuous
 62
     7
370
    15
100
AcDbLine
 10
447.9715957237
 20
144.9509033837
 30
0.0
 11
448.7833513808
 21
147.4509084501
 31
0.0
  0
LINE
  5
106
330
1F
100
AcDbEntity
  8
0
  6
Continuous
 62
     7
370
    15
100
AcDbLine
 10
452.8120144201
 20
162.4509015955
 30
0.0
 11
452.4444176746
 21
161.2009027876
 31
0.0
  0
LINE
  5
107
330
1F
100
AcDbEntity
  8
0
  6
Continuous
 62
     7
370
    15
100
AcDbLine
 10
456.8524493766
 20
177.4509021916
 30
0.0
 11
452.8120144201
 21
162.4509015955
 31
0.0
  0
LINE
  5
108
330
1F
100
AcDbEntity
  8
0
  6
Continuous
 62
     7
370
    15
100
AcDbLine
 10
456.8298145128
 20
177.4509021916
 30
0.0
 11
456.8524493766
 21
177.4509021916
 31
0.0
  0
LINE
  5
109
330
1F
100
AcDbEntity
  8
0
  6
Continuous
 62
     7
370
    15
100
AcDbLine
 10
457.5329109025
 20
179.950907258
 30
0.0
 11
456.8298145128
 21
177.4509021916
 31
0.0
  0
LINE
  5
10A
330
1F
100
AcDbEntity
  8
0
  6
Continuous
 62
     7
370
    15
100
AcDbLine
 10
452.8120144201
 20
162.4509015955
 30
0.0
 11
451.7762198043
 21
162.4509015955
 31
0.0
  0
LINE
  5
10B
330
1F
100
AcDbEntity
  8
0
  6
Continuous
 62
     7
370
    15
100
AcDbLine
 10
457.5329109025
 20
179.950907258
 30
0.0
 11
456.4972951007
 21
179.950907258
 31
0.0
  0
LINE
  5
10C
330
1F
100
AcDbEntity
  8
0
  6
Continuous
 62
     7
370
    15
100
AcDbLine
 10
456.8298145128
 20
177.4509021916
 30
0.0
 11
455.7937665773
 21
177.4509021916
 31
0.0
  0
LINE
  5
10D
330
1F
100
AcDbEntity
  8
0
  6
Continuous
 62
     7
370
    15
100
AcDbLine
 10
130.8005287242
 20
221.8818733372
 30
0.0
 11
130.8005287242
 21
262.6431373783
 31
0.0
  0
LINE
  5
10E
330
1F
100
AcDbEntity
  8
0
  6
Continuous
 62
     7
370
    15
100
AcDbLine
 10
188.0005358649
 20
262.6431373783
 30
0.0
 11
188.0005358649
 21
221.8818733372
 31
0.0
  0
SPLINE
  5
10F
330
1F
100
AcDbEntity
  8
0
  6
Continuous
 62
     7
370
    15
100
AcDbSpline
210
0.0
220
0.0
230
1.0
 70
     8
 71
     3
 72
     9
 73
     5
 74
     0
 42
0.00000001
 43
0.00000001
 12
1.0
 22
0.0
 32
0.0
 13
1.0
 23
0.0
 33
0.0
 40
0.0
 40
0.0
 40
0.0
 40
0.0
 40
0.8120142874130091
 40
1.0
 40
1.0
 40
1.0
 40
1.0
 10
130.8005287242168
 20
217.869772938661
 30
0.0
 10
130.8418021752284
 20
217.2333101747223
 30
0.0
 10
130.8926306540511
 20
216.4495028282206
 30
0.0
 10
131.1537571288492
 20
215.6803257237898
 30
0.0
 10
131.2028451752894
 20
215.5357314177078
 30
0.0
  0
LINE
  5
110
330
1F
100
AcDbEntity
  8
0
  6
Continuous
 62
     7
370
    15
100
AcDbLine
 10
130.8005287242
 20
217.8697729387
 30
0.0
 11
130.8005287242
 21
221.8818733372
 31
0.0
  0
LINE
  5
111
330
1F
100
AcDbEntity
  8
0
  6
Continuous
 62
     7
370
    15
100
AcDbLine
 10
188.0005358649
 20
221.8818733372
 30
0.0
 11
188.0005358649
 21
217.8697729387
 31
0.0
  0
ARC
  5
112
330
1F
100
AcDbEntity
  8
0
  6
Continuous
 62
     7
370
    15
100
AcDbCircle
 10
163.1024421272
 20
200.1320768765
 30
0.0
 40
14.85670001744013
100
AcDbArc
 50
82.2196829363
 51
90.5059892206
  0
LINE
  5
113
330
1F
100
AcDbEntity
  8
0
  6
Continuous
 62
     7
370
    15
100
AcDbLine
 10
155.8298154664
 20
214.9881975629
 30
0.0
 11
162.9712416721
 21
214.9881975629
 31
0.0
  0
ARC
  5
114
330
1F
100
AcDbEntity
  8
0
  6
Continuous
 62
     7
370
    15
100
AcDbCircle
 10
155.6986456212
 20
200.1315953307
 30
0.0
 40
14.85718127414267
100
AcDbArc
 50
89.4941452196
 51
97.7801826234
  0
LWPOLYLINE
  5
115
330
1F
100
AcDbEntity
  8
0
  6
Continuous
 62
     7
370
    15
100
AcDbPolyline
 90
       23
 70
   128
 43
0.0
 10
165.1136710239
 20
214.8520121254
 10
166.1695971084
 20
214.6498145439
 10
166.9187529874
 20
214.4183790215
 10
167.3271789146
 20
214.1681903877
 10
167.3763527465
 20
213.9105902888
 10
167.0640691114
 20
213.6572519221
 10
166.4044692111
 20
213.4196566321
 10
165.4274447751
 20
213.2085742332
 10
164.1772671533
 20
213.0335675456
 10
162.7106203628
 20
212.9025714375
 10
161.0939486814
 20
212.8215202965
 10
159.4005360198
 20
212.794090984
 10
157.7071233583
 20
212.8215202965
 10
156.0904516769
 20
212.9025714375
 10
154.6237899852
 20
213.0335675456
 10
153.3736272645
 20
213.2085742332
 10
152.3966028285
 20
213.4196566321
 10
151.7370029283
 20
213.6572519221
 10
151.424704392
 20
213.9105902888
 10
151.4738931251
 20
214.1681903877
 10
151.8823041511
 20
214.4183790215
 10
152.6314600301
 20
214.6498145439
 10
153.6873861146
 20
214.8520121254
  0
SPLINE
  5
116
330
1F
100
AcDbEntity
  8
0
  6
Continuous
 62
     7
370
    15
100
AcDbSpline
210
0.0
220
0.0
230
1.0
 70
     8
 71
     3
 72
    18
 73
    14
 74
     0
 42
0.00000001
 43
0.00000001
 12
1.0
 22
0.0
 32
0.0
 13
1.0
 23
0.0
 33
0.0
 40
0.0
 40
0.0
 40
0.0
 40
0.0
 40
0.0621886224469212
 40
0.1472522150058624
 40
0.235488213233222
 40
0.3282913524104589
 40
0.4257048470241444
 40
0.5157470883242136
 40
0.6121849448347171
 40
0.7140459331178335
 40
0.8133421135608838
 40
0.9084034375106177
 40
1.0
 40
1.0
 40
1.0
 40
1.0
 10
154.7616555285686
 20
260.4646071695012
 30
0.0
 10
154.7507278568732
 20
260.162433703037
 30
0.0
 10
154.7248529653145
 20
259.4469376765602
 30
0.0
 10
155.0663952281539
 20
258.3274039112815
 30
0.0
 10
155.7975538841687
 20
257.2213471395529
 30
0.0
 10
156.8924434734431
 20
256.331643377247
 30
0.0
 10
158.223809024351
 20
255.7988820598834
 30
0.0
 10
159.6729608796167
 20
255.6673483913997
 30
0.0
 10
161.1238413075226
 20
255.9555430018887
 30
0.0
 10
162.456124428649
 20
256.6919793426666
 30
0.0
 10
163.4556334776755
 20
257.7953464584911
 30
0.0
 10
164.0458130943887
 20
259.1049391992556
 30
0.0
 10
164.0415221559147
 20
260.0170279387611
 30
0.0
 10
164.039416511082
 20
260.4646071695012
 30
0.0
  0
ARC
  5
117
330
1F
100
AcDbEntity
  8
0
  6
Continuous
 62
     7
370
    15
100
AcDbCircle
 10
159.4005360198
 20
260.4066441285
 30
0.0
 40
3.500134067164442
100
AcDbArc
 50
180.5021533536
 51
359.4978466464
  0
ARC
  5
118
330
1F
100
AcDbEntity
  8
0
  6
Continuous
 62
     7
370
    15
100
AcDbCircle
 10
163.0001777356
 20
266.4565315208
 30
0.0
 40
6.081379338979809
100
AcDbArc
 50
269.0611791464
 51
279.8394917239
  0
ARC
  5
119
330
1F
100
AcDbEntity
  8
0
  6
Continuous
 62
     7
370
    15
100
AcDbCircle
 10
155.8008794993
 20
266.4563413008
 30
0.0
 40
6.081189387059795
100
AcDbArc
 50
260.1603394423
 51
270.9389896874
  0
CIRCLE
  5
11A
330
1F
100
AcDbEntity
  8
0
  6
Continuous
 62
     7
370
    15
100
AcDbCircle
 10
159.4181511493
 20
260.3688787785
 30
0.0
 40
2.382391342834316
  0
ARC
  5
11B
330
1F
100
AcDbEntity
  8
0
  6
Continuous
 62
     7
370
    15
100
AcDbCircle
 10
159.4005285692
 20
260.2628045026
 30
0.0
 40
2.400107662573871
100
AcDbArc
 50
0.5341251042
 51
179.4658748958
  0
LWPOLYLINE
  5
11C
330
1F
100
AcDbEntity
  8
0
  6
Continuous
 62
     7
370
    15
100
AcDbPolyline
 90
       15
 70
   128
 43
0.0
 10
167.1567841363
 20
214.3011776634
 10
167.0640691114
 20
214.250342352
 10
166.4044692111
 20
214.0127489247
 10
165.4274447751
 20
213.8016646631
 10
164.1772671533
 20
213.6266598381
 10
162.7106203628
 20
213.4956637301
 10
161.0939486814
 20
213.4146125891
 10
159.4005360198
 20
213.3871795513
 10
157.7071233583
 20
213.4146125891
 10
156.0904516769
 20
213.4956637301
 10
154.6237899852
 20
213.6266598381
 10
153.3736272645
 20
213.8016646631
 10
152.3966028285
 20
214.0127489247
 10
151.7370029283
 20
214.250342352
 10
151.6442879033
 20
214.3011776634
  0
LINE
  5
11D
330
1F
100
AcDbEntity
  8
0
  6
Continuous
 62
     7
370
    15
100
AcDbLine
 10
189.4005297613
 20
260.2214770295
 30
0.0
 11
189.4005297613
 21
218.8937881865
 31
0.0
  0
LINE
  5
11E
330
1F
100
AcDbEntity
  8
0
  6
Continuous
 62
     7
370
    15
100
AcDbLine
 10
129.4005348277
 20
260.2214770295
 30
0.0
 11
129.4005348277
 21
218.8937881865
 31
0.0
  0
SPLINE
  5
11F
330
1F
100
AcDbEntity
  8
0
  6
Continuous
 62
     7
370
    15
100
AcDbSpline
210
0.0
220
0.0
230
1.0
 70
     8
 71
     3
 72
    10
 73
     6
 74
     0
 42
0.00000001
 43
0.00000001
 12
1.0
 22
0.0
 32
0.0
 13
1.0
 23
0.0
 33
0.0
 40
0.0
 40
0.0
 40
0.0
 40
0.0
 40
0.3125097406435775
 40
0.7243722006115255
 40
0.9999999999999999
 40
0.9999999999999999
 40
0.9999999999999999
 40
0.9999999999999999
 10
131.6488518309825
 20
265.3909543432516
 30
0.0
 10
131.2263055400656
 20
264.9949388741305
 30
0.0
 10
130.2468775517367
 20
264.077007176217
 30
0.0
 10
129.5276077490787
 20
262.3290827664273
 30
0.0
 10
129.4369009090809
 20
261.075869825884
 30
0.0
 10
129.4005348277324
 20
260.5734331436676
 30
0.0
  0
SPLINE
  5
120
330
1F
100
AcDbEntity
  8
0
  6
Continuous
 62
     7
370
    15
100
AcDbSpline
210
0.0
220
0.0
230
1.0
 70
     8
 71
     3
 72
    10
 73
     6
 74
     0
 42
0.00000001
 43
0.00000001
 12
1.0
 22
0.0
 32
0.0
 13
1.0
 23
0.0
 33
0.0
 40
0.0
 40
0.0
 40
0.0
 40
0.0
 40
0.4304630499115618
 40
0.8610025469939782
 40
1.0
 40
1.0
 40
1.0
 40
1.0
 10
189.4005297613376
 20
260.5734331436676
 30
0.0
 10
189.3171219512029
 20
261.3227878549
 30
0.0
 10
189.1502915183007
 20
262.8216303574228
 30
0.0
 10
188.303062374633
 20
264.4494664256316
 30
0.0
 10
187.5056783527086
 20
265.0747739745657
 30
0.0
 10
187.3110740375751
 20
265.2273824341815
 30
0.0
  0
LINE
  5
121
330
1F
100
AcDbEntity
  8
0
  6
Continuous
 62
     7
370
    15
100
AcDbLine
 10
129.4005348277
 20
260.5734331437
 30
0.0
 11
129.4005348277
 21
260.2214770295
 31
0.0
  0
LINE
  5
122
330
1F
100
AcDbEntity
  8
0
  6
Continuous
 62
     7
370
    15
100
AcDbLine
 10
189.4005297613
 20
260.5734331437
 30
0.0
 11
189.4005297613
 21
260.2214770295
 31
0.0
  0
LINE
  5
123
330
1F
100
AcDbEntity
  8
0
  6
Continuous
 62
     7
370
    15
100
AcDbLine
 10
189.4005297613
 20
218.8937881865
 30
0.0
 11
189.4005297613
 21
215.7196042963
 31
0.0
  0
LINE
  5
124
330
1F
100
AcDbEntity
  8
0
  6
Continuous
 62
     7
370
    15
100
AcDbLine
 10
129.4005348277
 20
218.8937881865
 30
0.0
 11
129.4005348277
 21
215.7196042963
 31
0.0
  0
SPLINE
  5
125
330
1F
100
AcDbEntity
  8
0
  6
Continuous
 62
     7
370
    15
100
AcDbSpline
210
0.0
220
0.0
230
1.0
 70
     8
 71
     3
 72
     9
 73
     5
 74
     0
 42
0.00000001
 43
0.00000001
 12
1.0
 22
0.0
 32
0.0
 13
1.0
 23
0.0
 33
0.0
 40
0.0
 40
0.0
 40
0.0
 40
0.0
 40
0.5024599328844022
 40
1.0
 40
1.0
 40
1.0
 40
1.0
 10
188.7047721934551
 20
213.033317951135
 30
0.0
 10
188.9076655012269
 20
213.4615307958017
 30
0.0
 10
189.3114654751016
 20
214.3137636140656
 30
0.0
 10
189.3709392001736
 20
215.2525302708412
 30
0.0
 10
189.4005297613376
 20
215.7196042962593
 30
0.0
  0
SPLINE
  5
126
330
1F
100
AcDbEntity
  8
0
  6
Continuous
 62
     7
370
    15
100
AcDbSpline
210
0.0
220
0.0
230
1.0
 70
     8
 71
     3
 72
     9
 73
     5
 74
     0
 42
0.00000001
 43
0.00000001
 12
1.0
 22
0.0
 32
0.0
 13
1.0
 23
0.0
 33
0.0
 40
0.0
 40
0.0
 40
0.0
 40
0.0
 40
0.7463498082125715
 40
1.0
 40
1.0
 40
1.0
 40
1.0
 10
129.4005348277324
 20
215.7196042962593
 30
0.0
 10
129.4678394274586
 20
215.0191821801754
 30
0.0
 10
129.5580177848263
 20
214.0807185959733
 30
0.0
 10
129.987389602336
 20
213.2452378121791
 30
0.0
 10
130.0962998461955
 20
213.033317951135
 30
0.0
  0
SPLINE
  5
127
330
1F
100
AcDbEntity
  8
0
  6
Continuous
 62
     7
370
    15
100
AcDbSpline
210
0.0
220
0.0
230
1.0
 70
     8
 71
     3
 72
    11
 73
     7
 74
     0
 42
0.00000001
 43
0.00000001
 12
1.0
 22
0.0
 32
0.0
 13
1.0
 23
0.0
 33
0.0
 40
0.0
 40
0.0
 40
0.0
 40
0.0
 40
0.300672901170373
 40
0.6013499826639563
 40
0.901858372487403
 40
1.0
 40
1.0
 40
1.0
 40
1.0
 10
182.4005304765933
 20
209.6617216147703
 30
0.0
 10
183.1879739183194
 20
209.7260416374425
 30
0.0
 10
184.7628717497756
 20
209.8546825770428
 30
0.0
 10
186.8515739316072
 20
210.8691554987925
 30
0.0
 10
188.1037242233179
 20
212.0394125818758
 30
0.0
 10
188.5860346369481
 20
212.8369710690084
 30
0.0
 10
188.7047721934551
 20
213.033317951135
 30
0.0
  0
SPLINE
  5
128
330
1F
100
AcDbEntity
  8
0
  6
Continuous
 62
     7
370
    15
100
AcDbSpline
210
0.0
220
0.0
230
1.0
 70
     8
 71
     3
 72
    11
 73
     7
 74
     0
 42
0.00000001
 43
0.00000001
 12
1.0
 22
0.0
 32
0.0
 13
1.0
 23
0.0
 33
0.0
 40
0.0
 40
0.0
 40
0.0
 40
0.0
 40
0.1992996395343527
 40
0.4987359436396595
 40
0.7985995305083873
 40
1.0
 40
1.0
 40
1.0
 40
1.0
 10
130.0962998461955
 20
213.033317951135
 30
0.0
 10
130.3532191070215
 20
212.640755844132
 30
0.0
 10
130.9961448558418
 20
211.6583916344889
 30
0.0
 10
132.6060205465315
 20
210.4771524088666
 30
0.0
 10
134.5645114106151
 20
209.7637000614347
 30
0.0
 10
135.874286065866
 20
209.6909510781637
 30
0.0
 10
136.4005341124767
 20
209.6617216147703
 30
0.0
  0
LINE
  5
129
330
1F
100
AcDbEntity
  8
0
  6
Continuous
 62
     7
370
    15
100
AcDbLine
 10
182.4005304766
 20
209.6617216148
 30
0.0
 11
136.4005341125
 21
209.6617216148
 31
0.0
  0
LINE
  5
12A
330
1F
100
AcDbEntity
  8
0
  6
Continuous
 62
     7
370
    15
100
AcDbLine
 10
118.347211082
 20
307.3267819263
 30
0.0
 11
93.4005363775
 21
307.3267819263
 31
0.0
  0
LINE
  5
12B
330
1F
100
AcDbEntity
  8
0
  6
Continuous
 62
     7
370
    15
100
AcDbLine
 10
122.400535543
 20
313.9509031452
 30
0.0
 11
122.400535543
 21
175.9509066023
 31
0.0
  0
SPLINE
  5
12C
330
1F
100
AcDbEntity
  8
0
  6
Continuous
 62
     7
370
    15
100
AcDbSpline
210
0.0
220
0.0
230
1.0
 70
     8
 71
     3
 72
    11
 73
     7
 74
     0
 42
0.00000001
 43
0.00000001
 12
1.0
 22
0.0
 32
0.0
 13
1.0
 23
0.0
 33
0.0
 40
0.0
 40
0.0
 40
0.0
 40
0.0
 40
0.2849372319424747
 40
0.5709016752898823
 40
0.8302704677843016
 40
0.9999999999999999
 40
0.9999999999999999
 40
0.9999999999999999
 40
0.9999999999999999
 10
110.6291248393291
 20
300.7361249901575
 30
0.0
 10
110.9649162496873
 20
301.7261443978241
 30
0.0
 10
111.6377096133857
 20
303.7097522771918
 30
0.0
 10
113.7790696756503
 20
305.956661702599
 30
0.0
 10
116.16585122741
 20
307.1603642503837
 30
0.0
 10
117.7289345882973
 20
307.2796131215295
 30
0.0
 10
118.3472110820049
 20
307.3267819263261
 30
0.0
  0
LINE
  5
12D
330
1F
100
AcDbEntity
  8
0
  6
Continuous
 62
     7
370
    15
100
AcDbLine
 10
106.4005329204
 20
265.9509045907
 30
0.0
 11
106.4005329204
 21
213.4208934285
 31
0.0
  0
SPLINE
  5
12E
330
1F
100
AcDbEntity
  8
0
  6
Continuous
 62
     7
370
    15
100
AcDbSpline
210
0.0
220
0.0
230
1.0
 70
     8
 71
     3
 72
    11
 73
     7
 74
     0
 42
0.00000001
 43
0.00000001
 12
1.0
 22
0.0
 32
0.0
 13
1.0
 23
0.0
 33
0.0
 40
0.0
 40
0.0
 40
0.0
 40
0.0
 40
0.2978940980159581
 40
0.5966517106241731
 40
0.7980710480837327
 40
1.0
 40
1.0
 40
1.0
 40
1.0
 10
106.491877038502
 20
265.9509045906585
 30
0.0
 10
106.6079156629259
 20
269.4347530297894
 30
0.0
 10
106.8403292764285
 20
276.4125486444291
 30
0.0
 10
107.8013626086977
 20
285.7071718105096
 30
0.0
 10
109.0751039278833
 20
293.8260294012878
 30
0.0
 10
110.11068173178
 20
298.4308204706566
 30
0.0
 10
110.6291248393291
 20
300.7361249901575
 30
0.0
  0
LINE
  5
12F
330
1F
100
AcDbEntity
  8
0
  6
Continuous
 62
     7
370
    15
100
AcDbLine
 10
106.4918770385
 20
265.9509045907
 30
0.0
 11
93.4005363775
 21
265.9509045907
 31
0.0
  0
SPLINE
  5
130
330
1F
100
AcDbEntity
  8
0
  6
Continuous
 62
     7
370
    15
100
AcDbSpline
210
0.0
220
0.0
230
1.0
 70
     8
 71
     3
 72
    13
 73
     9
 74
     0
 42
0.00000001
 43
0.00000001
 12
1.0
 22
0.0
 32
0.0
 13
1.0
 23
0.0
 33
0.0
 40
0.0
 40
0.0
 40
0.0
 40
0.0
 40
0.1734723474018044
 40
0.3465413381039568
 40
0.5297011293469039
 40
0.7399608988753599
 40
0.9977766169364706
 40
1.0
 40
1.0
 40
1.0
 40
1.0
 10
93.40053637745316
 20
307.3267819263261
 30
0.0
 10
93.1014373495713
 20
307.3100867333746
 30
0.0
 10
92.50393475679373
 20
307.2767351670185
 30
0.0
 10
91.70039526783913
 20
307.0219838134732
 30
0.0
 10
91.02991655731088
 20
306.6360186910306
 30
0.0
 10
90.52942830502609
 20
306.0861620169859
 30
0.0
 10
90.4009130304889
 20
305.6432373109058
 30
0.0
 10
90.4005335424731
 20
305.3992496483639
 30
0.0
 10
90.4005302977794
 20
305.3971635081094
 30
0.0
  0
LINE
  5
131
330
1F
100
AcDbEntity
  8
0
  6
Continuous
 62
     7
370
    15
100
AcDbLine
 10
90.4005302978
 20
305.3971635081
 30
0.0
 11
90.4005302978
 21
310.9509045162
 31
0.0
  0
LINE
  5
132
330
1F
100
AcDbEntity
  8
0
  6
Continuous
 62
     7
370
    15
100
AcDbLine
 10
90.4005302978
 20
268.9509050824
 30
0.0
 11
90.4005302978
 21
305.3971635081
 31
0.0
  0
ARC
  5
133
330
1F
100
AcDbEntity
  8
0
  6
Continuous
 62
     7
370
    15
100
AcDbCircle
 10
93.4005325628
 20
268.9509048738
 30
0.0
 40
3.0
100
AcDbArc
 50
180.0
 51
270.0000000022
  0
LINE
  5
134
330
1F
100
AcDbEntity
  8
0
  6
Continuous
 62
     7
370
    15
100
AcDbLine
 10
98.4005316091
 20
244.9509048738
 30
0.0
 11
98.4005316091
 21
265.9509045907
 31
0.0
  0
LINE
  5
135
330
1F
100
AcDbEntity
  8
0
  6
Continuous
 62
     7
370
    15
100
AcDbLine
 10
95.4005255294
 20
221.9509048291
 30
0.0
 11
95.4005255294
 21
244.9509048738
 31
0.0
  0
LINE
  5
136
330
1F
100
AcDbEntity
  8
0
  6
Continuous
 62
     7
370
    15
100
AcDbLine
 10
95.4005255294
 20
244.9509048738
 30
0.0
 11
98.4005316091
 21
244.9509048738
 31
0.0
  0
SPLINE
  5
137
330
1F
100
AcDbEntity
  8
0
  6
Continuous
 62
     7
370
    15
100
AcDbSpline
210
0.0
220
0.0
230
1.0
 70
     8
 71
     3
 72
    12
 73
     8
 74
     0
 42
0.00000001
 43
0.00000001
 12
1.0
 22
0.0
 32
0.0
 13
1.0
 23
0.0
 33
0.0
 40
0.0
 40
0.0
 40
0.0
 40
0.0
 40
0.2146534307306551
 40
0.4293098833170723
 40
0.6438952001706171
 40
0.8585108121572924
 40
1.0
 40
1.0
 40
1.0
 40
1.0
 10
137.4005361390346
 20
194.7078363873285
 30
0.0
 10
137.4281344143687
 20
194.8999481162914
 30
0.0
 10
137.4833313535608
 20
195.2841742787347
 30
0.0
 10
137.9140331584006
 20
195.8047827554749
 30
0.0
 10
138.548095536691
 20
196.2012447499471
 30
0.0
 10
139.2510839307241
 20
196.4131123151969
 30
0.0
 10
139.7158648672887
 20
196.4347723090419
 30
0.0
 10
139.9005337548488
 20
196.4433783568662
 30
0.0
  0
LINE
  5
138
330
1F
100
AcDbEntity
  8
0
  6
Continuous
 62
     7
370
    15
100
AcDbLine
 10
137.400536139
 20
193.3261746444
 30
0.0
 11
137.400536139
 21
194.7078363873
 31
0.0
  0
SPLINE
  5
139
330
1F
100
AcDbEntity
  8
0
  6
Continuous
 62
     7
370
    15
100
AcDbSpline
210
0.0
220
0.0
230
1.0
 70
     8
 71
     3
 72
    12
 73
     8
 74
     0
 42
0.00000001
 43
0.00000001
 12
1.0
 22
0.0
 32
0.0
 13
1.0
 23
0.0
 33
0.0
 40
0.0
 40
0.0
 40
0.0
 40
0.0
 40
0.2146632592119342
 40
0.4293260775099551
 40
0.6439754205633206
 40
0.8585768982442451
 40
1.0
 40
1.0
 40
1.0
 40
1.0
 10
139.9005337548488
 20
191.7141223229688
 30
0.0
 10
139.6194769188401
 20
191.7315305591151
 30
0.0
 10
139.0573638241075
 20
191.7663469956515
 30
0.0
 10
138.3081958625299
 20
192.0391555526969
 30
0.0
 10
137.7428968683077
 20
192.4447999792527
 30
0.0
 10
137.4432357295552
 20
192.8997935557303
 30
0.0
 10
137.4126755232622
 20
193.2049555928927
 30
0.0
 10
137.4005361390346
 20
193.3261746444028
 30
0.0
  0
LINE
  5
13A
330
1F
100
AcDbEntity
  8
0
  6
Continuous
 62
     7
370
    15
100
AcDbLine
 10
159.9005295825
 20
191.714122323
 30
0.0
 11
139.9005337548
 21
191.714122323
 31
0.0
  0
SPLINE
  5
13B
330
1F
100
AcDbEntity
  8
0
  6
Continuous
 62
     7
370
    15
100
AcDbSpline
210
0.0
220
0.0
230
1.0
 70
     8
 71
     3
 72
    12
 73
     8
 74
     0
 42
0.00000001
 43
0.00000001
 12
1.0
 22
0.0
 32
0.0
 13
1.0
 23
0.0
 33
0.0
 40
0.0
 40
0.0
 40
0.0
 40
0.0
 40
0.21465410969632
 40
0.4293104089624739
 40
0.6438955144779069
 40
0.8585107969224071
 40
1.0
 40
1.0
 40
1.0
 40
1.0
 10
162.4005271983379
 20
193.3261746444028
 30
0.0
 10
162.3729290828651
 20
193.1418732873992
 30
0.0
 10
162.3177325704062
 20
192.7732686934341
 30
0.0
 10
161.887030194474
 20
192.2908242908257
 30
0.0
 10
161.2529681612651
 20
191.9305434695204
 30
0.0
 10
160.5499787156598
 20
191.7411070069815
 30
0.0
 10
160.0851984044805
 20
191.7217953331451
 30
0.0
 10
159.9005295825237
 20
191.7141223229688
 30
0.0
  0
LINE
  5
13C
330
1F
100
AcDbEntity
  8
0
  6
Continuous
 62
     7
370
    15
100
AcDbLine
 10
162.4005271983
 20
194.7078363873
 30
0.0
 11
162.4005271983
 21
193.3261746444
 31
0.0
  0
SPLINE
  5
13D
330
1F
100
AcDbEntity
  8
0
  6
Continuous
 62
     7
370
    15
100
AcDbSpline
210
0.0
220
0.0
230
1.0
 70
     8
 71
     3
 72
    12
 73
     8
 74
     0
 42
0.00000001
 43
0.00000001
 12
1.0
 22
0.0
 32
0.0
 13
1.0
 23
0.0
 33
0.0
 40
0.0
 40
0.0
 40
0.0
 40
0.0
 40
0.2146633372284492
 40
0.4293267868648215
 40
0.6439760945621423
 40
0.8585774485843579
 40
1.0
 40
1.0
 40
1.0
 40
1.0
 10
159.9005295825237
 20
196.4433783568662
 30
0.0
 10
160.1815866296103
 20
196.423819653302
 30
0.0
 10
160.7437008709585
 20
196.3847022359315
 30
0.0
 10
161.4928660571271
 20
196.0808283998952
 30
0.0
 10
162.0581665854009
 20
195.637464217684
 30
0.0
 10
162.3578273208769
 20
195.1510406954218
 30
0.0
 10
162.3883877498958
 20
194.8338380568256
 30
0.0
 10
162.4005271983379
 20
194.7078363873285
 30
0.0
  0
LINE
  5
13E
330
1F
100
AcDbEntity
  8
0
  6
Continuous
 62
     7
370
    15
100
AcDbLine
 10
159.9005295825
 20
196.4433783569
 30
0.0
 11
139.9005337548
 21
196.4433783569
 31
0.0
  0
SPLINE
  5
13F
330
1F
100
AcDbEntity
  8
0
  6
Continuous
 62
     7
370
    15
100
AcDbSpline
210
0.0
220
0.0
230
1.0
 70
     8
 71
     3
 72
    12
 73
     8
 74
     0
 42
0.00000001
 43
0.00000001
 12
1.0
 22
0.0
 32
0.0
 13
1.0
 23
0.0
 33
0.0
 40
0.0
 40
0.0
 40
0.0
 40
0.0
 40
0.2146537792376935
 40
0.4293117714660613
 40
0.6438955851159947
 40
0.8585121931982115
 40
1.0
 40
1.0
 40
1.0
 40
1.0
 10
282.400532898032
 20
178.0393863000196
 30
0.0
 10
282.372935541649
 20
177.9784236648653
 30
0.0
 10
282.317740287232
 20
177.8564971980485
 30
0.0
 10
281.8870241758636
 20
177.705400232086
 30
0.0
 10
281.2529705968477
 20
177.596237467672
 30
0.0
 10
280.5499789134892
 20
177.5404877567784
 30
0.0
 10
280.0851992622423
 20
177.5348252783683
 30
0.0
 10
279.9005324882501
 20
177.5325754560751
 30
0.0
  0
LINE
  5
140
330
1F
100
AcDbEntity
  8
0
  6
Continuous
 62
     7
370
    15
100
AcDbLine
 10
282.400532898
 20
178.0393863
 30
0.0
 11
282.400532898
 21
178.5244488992
 31
0.0
  0
SPLINE
  5
141
330
1F
100
AcDbEntity
  8
0
  6
Continuous
 62
     7
370
    15
100
AcDbSpline
210
0.0
220
0.0
230
1.0
 70
     8
 71
     3
 72
    12
 73
     8
 74
     0
 42
0.00000001
 43
0.00000001
 12
1.0
 22
0.0
 32
0.0
 13
1.0
 23
0.0
 33
0.0
 40
0.0
 40
0.0
 40
0.0
 40
0.0
 40
0.2146627474390656
 40
0.4293261725457076
 40
0.64397648778412
 40
0.8585769403144461
 40
1.0
 40
1.0
 40
1.0
 40
1.0
 10
279.9005324882501
 20
179.1929000891965
 30
0.0
 10
280.1815888821192
 20
179.1850035531716
 30
0.0
 10
280.7437025571226
 20
179.1692104561931
 30
0.0
 10
281.4928687577604
 20
179.0476475576205
 30
0.0
 10
282.0581778848766
 20
178.8739261325924
 30
0.0
 10
282.3578195577483
 20
178.6881069096853
 30
0.0
 10
282.3883895813152
 20
178.5709765423538
 30
0.0
 10
282.400532898032
 20
178.5244488992017
 30
0.0
  0
LINE
  5
142
330
1F
100
AcDbEntity
  8
0
  6
Continuous
 62
     7
370
    15
100
AcDbLine
 10
271.9005330396
 20
179.1929000892
 30
0.0
 11
279.9005324883
 21
179.1929000892
 31
0.0
  0
SPLINE
  5
143
330
1F
100
AcDbEntity
  8
0
  6
Continuous
 62
     7
370
    15
100
AcDbSpline
210
0.0
220
0.0
230
1.0
 70
     8
 71
     3
 72
    12
 73
     8
 74
     0
 42
0.00000001
 43
0.00000001
 12
1.0
 22
0.0
 32
0.0
 13
1.0
 23
0.0
 33
0.0
 40
0.0
 40
0.0
 40
0.0
 40
0.0
 40
0.2146538486941063
 40
0.429311600719957
 40
0.6438950579514854
 40
0.8585117888480215
 40
1.0
 40
1.0
 40
1.0
 40
1.0
 10
269.4005316984885
 20
178.5244488992017
 30
0.0
 10
269.4281298537499
 20
178.5956349638674
 30
0.0
 10
269.4833266661258
 20
178.7380083876679
 30
0.0
 10
269.9140412272834
 20
178.9390602216778
 30
0.0
 10
270.5480935971317
 20
179.0955779195256
 30
0.0
 10
271.2510849216721
 20
179.1807028523679
 30
0.0
 10
271.7158656022507
 20
179.1894318637823
 30
0.0
 10
271.900533039593
 20
179.1929000891965
 30
0.0
  0
LINE
  5
144
330
1F
100
AcDbEntity
  8
0
  6
Continuous
 62
     7
370
    15
100
AcDbLine
 10
269.4005316985
 20
178.0393863
 30
0.0
 11
269.4005316985
 21
178.5244488992
 31
0.0
  0
SPLINE
  5
145
330
1F
100
AcDbEntity
  8
0
  6
Continuous
 62
     7
370
    15
100
AcDbSpline
210
0.0
220
0.0
230
1.0
 70
     8
 71
     3
 72
    12
 73
     8
 74
     0
 42
0.00000001
 43
0.00000001
 12
1.0
 22
0.0
 32
0.0
 13
1.0
 23
0.0
 33
0.0
 40
0.0
 40
0.0
 40
0.0
 40
0.0
 40
0.2146627986876214
 40
0.4293261751341234
 40
0.6439764011367441
 40
0.8585772669645739
 40
1.0
 40
1.0
 40
1.0
 40
1.0
 10
271.900533039593
 20
177.5325754560751
 30
0.0
 10
271.6194766300752
 20
177.5376572578782
 30
0.0
 10
271.0573630545841
 20
177.5478208751621
 30
0.0
 10
270.3081973464584
 20
177.6287251743137
 30
0.0
 10
269.7428852189118
 20
177.7530572777881
 30
0.0
 10
269.4432470137805
 20
177.8977555564011
 30
0.0
 10
269.4126755545062
 20
177.999121038101
 30
0.0
 10
269.4005316984885
 20
178.0393863000196
 30
0.0
  0
LINE
  5
146
330
1F
100
AcDbEntity
  8
0
  6
Continuous
 62
     7
370
    15
100
AcDbLine
 10
271.9005330396
 20
177.5325754561
 30
0.0
 11
279.9005324883
 21
177.5325754561
 31
0.0
  0
SPLINE
  5
147
330
1F
100
AcDbEntity
  8
0
  6
Continuous
 62
     7
370
    15
100
AcDbSpline
210
0.0
220
0.0
230
1.0
 70
     8
 71
     3
 72
    12
 73
     8
 74
     0
 42
0.00000001
 43
0.00000001
 12
1.0
 22
0.0
 32
0.0
 13
1.0
 23
0.0
 33
0.0
 40
0.0
 40
0.0
 40
0.0
 40
0.0
 40
0.2146625976369015
 40
0.4293254594788258
 40
0.6439766960243523
 40
0.8585773720739098
 40
1.0
 40
1.0
 40
1.0
 40
1.0
 10
259.9005310726398
 20
218.6988213934225
 30
0.0
 10
259.6194753905531
 20
218.7243430100306
 30
0.0
 10
259.0573636804586
 20
218.7753862746586
 30
0.0
 10
258.3081971233707
 20
219.1740728295248
 30
0.0
 10
257.7428865574366
 20
219.7628232114415
 30
0.0
 10
257.4432460186185
 20
220.4180158486421
 30
0.0
 10
257.4126765307695
 20
220.8531216382152
 30
0.0
 10
257.4005334568255
 20
221.0259580888074
 30
0.0
  0
LINE
  5
148
330
1F
100
AcDbEntity
  8
0
  6
Continuous
 62
     7
370
    15
100
AcDbLine
 10
259.9005310726
 20
218.6988213934
 30
0.0
 11
279.9005324883
 21
218.6988213934
 31
0.0
  0
SPLINE
  5
149
330
1F
100
AcDbEntity
  8
0
  6
Continuous
 62
     7
370
    15
100
AcDbSpline
210
0.0
220
0.0
230
1.0
 70
     8
 71
     3
 72
    12
 73
     8
 74
     0
 42
0.00000001
 43
0.00000001
 12
1.0
 22
0.0
 32
0.0
 13
1.0
 23
0.0
 33
0.0
 40
0.0
 40
0.0
 40
0.0
 40
0.0
 40
0.2146536462805685
 40
0.429311858208906
 40
0.6438952853802714
 40
0.8585121147141749
 40
1.0
 40
1.0
 40
1.0
 40
1.0
 10
282.400532898032
 20
221.0259580888074
 30
0.0
 10
282.3729354150069
 20
220.7629187656715
 30
0.0
 10
282.3177398619628
 20
220.2368345245966
 30
0.0
 10
281.8870252979584
 20
219.539816133029
 30
0.0
 10
281.2529692083137
 20
219.0156094772353
 30
0.0
 10
280.5499792024374
 20
218.7383610807415
 30
0.0
 10
280.0851993064737
 20
218.7100642992549
 30
0.0
 10
279.9005324882501
 20
218.6988213934225
 30
0.0
  0
LINE
  5
14A
330
1F
100
AcDbEntity
  8
0
  6
Continuous
 62
     7
370
    15
100
AcDbLine
 10
282.400532898
 20
221.0259580888
 30
0.0
 11
282.400532898
 21
222.9698946603
 31
0.0
  0
SPLINE
  5
14B
330
1F
100
AcDbEntity
  8
0
  6
Continuous
 62
     7
370
    15
100
AcDbSpline
210
0.0
220
0.0
230
1.0
 70
     8
 71
     3
 72
    12
 73
     8
 74
     0
 42
0.00000001
 43
0.00000001
 12
1.0
 22
0.0
 32
0.0
 13
1.0
 23
0.0
 33
0.0
 40
0.0
 40
0.0
 40
0.0
 40
0.0
 40
0.2146628340000021
 40
0.429326521978313
 40
0.6439762918209642
 40
0.8585775106320231
 40
1.0
 40
1.0
 40
1.0
 40
1.0
 10
279.9005324882501
 20
225.35268346744
 30
0.0
 10
280.1815889993179
 20
225.3261919329472
 30
0.0
 10
280.7437031395613
 20
225.2732087585721
 30
0.0
 10
281.492867013582
 20
224.860528287726
 30
0.0
 10
282.058179860874
 20
224.2547704744636
 30
0.0
 10
282.3578187593939
 20
223.585421771021
 30
0.0
 10
282.3883893941773
 20
223.1448872056165
 30
0.0
 10
282.400532898032
 20
222.9698946602863
 30
0.0
  0
LINE
  5
14C
330
1F
100
AcDbEntity
  8
0
  6
Continuous
 62
     7
370
    15
100
AcDbLine
 10
259.9005310726
 20
225.3526834674
 30
0.0
 11
279.9005324883
 21
225.3526834674
 31
0.0
  0
SPLINE
  5
14D
330
1F
100
AcDbEntity
  8
0
  6
Continuous
 62
     7
370
    15
100
AcDbSpline
210
0.0
220
0.0
230
1.0
 70
     8
 71
     3
 72
    12
 73
     8
 74
     0
 42
0.00000001
 43
0.00000001
 12
1.0
 22
0.0
 32
0.0
 13
1.0
 23
0.0
 33
0.0
 40
0.0
 40
0.0
 40
0.0
 40
0.0
 40
0.2146537127600479
 40
0.4293113481956417
 40
0.6438953844902983
 40
0.8585125868174399
 40
1.0
 40
1.0
 40
1.0
 40
1.0
 10
257.4005334568255
 20
222.9698946602863
 30
0.0
 10
257.4281310293553
 20
223.2364543065834
 30
0.0
 10
257.4833266787448
 20
223.7695784704048
 30
0.0
 10
257.9140393121141
 20
224.4837960033925
 30
0.0
 10
258.5480933774899
 20
225.0243111084817
 30
0.0
 10
259.2510853348072
 20
225.3116616092184
 30
0.0
 10
259.715864936227
 20
225.3410191394985
 30
0.0
 10
259.9005310726398
 20
225.35268346744
 30
0.0
  0
LINE
  5
14E
330
1F
100
AcDbEntity
  8
0
  6
Continuous
 62
     7
370
    15
100
AcDbLine
 10
257.4005334568
 20
222.9698946603
 30
0.0
 11
257.4005334568
 21
221.0259580888
 31
0.0
  0
SPLINE
  5
14F
330
1F
100
AcDbEntity
  8
0
  6
Continuous
 62
     7
370
    15
100
AcDbSpline
210
0.0
220
0.0
230
1.0
 70
     8
 71
     3
 72
    12
 73
     8
 74
     0
 42
0.00000001
 43
0.00000001
 12
1.0
 22
0.0
 32
0.0
 13
1.0
 23
0.0
 33
0.0
 40
0.0
 40
0.0
 40
0.0
 40
0.0
 40
0.2146624234764083
 40
0.4293254154246995
 40
0.6439765228503826
 40
0.8585770294890643
 40
1.0
 40
1.0
 40
1.0
 40
1.0
 10
259.9005310726398
 20
203.953820643596
 30
0.0
 10
259.619475281183
 20
203.9759627082279
 30
0.0
 10
259.0573629539738
 20
204.0202468961286
 30
0.0
 10
258.3081976976665
 20
204.3665752875836
 30
0.0
 10
257.7428865202056
 20
204.8794408397714
 30
0.0
 10
257.4432457737773
 20
205.4520330858081
 30
0.0
 10
257.4126764779871
 20
205.8338317560947
 30
0.0
 10
257.4005334568255
 20
205.9854933895391
 30
0.0
  0
LINE
  5
150
330
1F
100
AcDbEntity
  8
0
  6
Continuous
 62
     7
370
    15
100
AcDbLine
 10
259.9005310726
 20
203.9538206436
 30
0.0
 11
279.9005324883
 21
203.9538206436
 31
0.0
  0
SPLINE
  5
151
330
1F
100
AcDbEntity
  8
0
  6
Continuous
 62
     7
370
    15
100
AcDbSpline
210
0.0
220
0.0
230
1.0
 70
     8
 71
     3
 72
    12
 73
     8
 74
     0
 42
0.00000001
 43
0.00000001
 12
1.0
 22
0.0
 32
0.0
 13
1.0
 23
0.0
 33
0.0
 40
0.0
 40
0.0
 40
0.0
 40
0.0
 40
0.214654643435431
 40
0.4293117912416345
 40
0.6438956834187439
 40
0.8585123132650225
 40
1.0
 40
1.0
 40
1.0
 40
1.0
 10
282.400532898032
 20
205.9854933895391
 30
0.0
 10
282.3729359337528
 20
205.7547719019688
 30
0.0
 10
282.3177416832212
 20
205.2933262350057
 30
0.0
 10
281.8870227439213
 20
204.6850118646884
 30
0.0
 10
281.2529707861254
 20
204.2288272873398
 30
0.0
 10
280.5499792755741
 20
203.9881332533234
 30
0.0
 10
280.0851992895321
 20
203.9635772549238
 30
0.0
 10
279.9005324882501
 20
203.953820643596
 30
0.0
  0
LINE
  5
152
330
1F
100
AcDbEntity
  8
0
  6
Continuous
 62
     7
370
    15
100
AcDbLine
 10
282.400532898
 20
205.9854933895
 30
0.0
 11
282.400532898
 21
207.7006989993
 31
0.0
  0
SPLINE
  5
153
330
1F
100
AcDbEntity
  8
0
  6
Continuous
 62
     7
370
    15
100
AcDbSpline
210
0.0
220
0.0
230
1.0
 70
     8
 71
     3
 72
    12
 73
     8
 74
     0
 42
0.00000001
 43
0.00000001
 12
1.0
 22
0.0
 32
0.0
 13
1.0
 23
0.0
 33
0.0
 40
0.0
 40
0.0
 40
0.0
 40
0.0
 40
0.2146628193045357
 40
0.4293261767577288
 40
0.6439765173508291
 40
0.8585776013677859
 40
1.0
 40
1.0
 40
1.0
 40
1.0
 10
279.9005324882501
 20
209.8247626699728
 30
0.0
 10
280.1815888395027
 20
209.8010124273712
 30
0.0
 10
280.7437022466017
 20
209.7535118826275
 30
0.0
 10
281.4928689006076
 20
209.383943889039
 30
0.0
 10
282.0581786582828
 20
208.8428511101049
 30
0.0
 10
282.3578188860153
 20
208.2467454694596
 30
0.0
 10
282.388389430246
 20
207.8559384022057
 30
0.0
 10
282.400532898032
 20
207.7006989993375
 30
0.0
  0
LINE
  5
154
330
1F
100
AcDbEntity
  8
0
  6
Continuous
 62
     7
370
    15
100
AcDbLine
 10
259.9005310726
 20
209.82476267
 30
0.0
 11
279.9005324883
 21
209.82476267
 31
0.0
  0
SPLINE
  5
155
330
1F
100
AcDbEntity
  8
0
  6
Continuous
 62
     7
370
    15
100
AcDbSpline
210
0.0
220
0.0
230
1.0
 70
     8
 71
     3
 72
    12
 73
     8
 74
     0
 42
0.00000001
 43
0.00000001
 12
1.0
 22
0.0
 32
0.0
 13
1.0
 23
0.0
 33
0.0
 40
0.0
 40
0.0
 40
0.0
 40
0.0
 40
0.2146535112357896
 40
0.4293112203184922
 40
0.6438951319607682
 40
0.8585126496374867
 40
1.0
 40
1.0
 40
1.0
 40
1.0
 10
257.4005334568255
 20
207.7006989993375
 30
0.0
 10
257.4281311099696
 20
207.9372623541735
 30
0.0
 10
257.4833269559682
 20
208.4103936901697
 30
0.0
 10
257.9140388386888
 20
209.0472639700695
 30
0.0
 10
258.5480944633404
 20
209.5305203288882
 30
0.0
 10
259.2510844851355
 20
209.7879971579611
 30
0.0
 10
259.7158648470241
 20
209.8143086180666
 30
0.0
 10
259.9005310726398
 20
209.8247626699728
 30
0.0
  0
LINE
  5
156
330
1F
100
AcDbEntity
  8
0
  6
Continuous
 62
     7
370
    15
100
AcDbLine
 10
257.4005334568
 20
207.7006989993
 30
0.0
 11
257.4005334568
 21
205.9854933895
 31
0.0
  0
SPLINE
  5
157
330
1F
100
AcDbEntity
  8
0
  6
Continuous
 62
     7
370
    15
100
AcDbSpline
210
0.0
220
0.0
230
1.0
 70
     8
 71
     3
 72
    12
 73
     8
 74
     0
 42
0.00000001
 43
0.00000001
 12
1.0
 22
0.0
 32
0.0
 13
1.0
 23
0.0
 33
0.0
 40
0.0
 40
0.0
 40
0.0
 40
0.0
 40
0.2146624378156496
 40
0.4293253738571824
 40
0.6439761014979271
 40
0.8585766101708537
 40
1.0
 40
1.0
 40
1.0
 40
1.0
 10
259.9005310726398
 20
191.7141223229688
 30
0.0
 10
259.6194752793269
 20
191.7315305695111
 30
0.0
 10
259.0573630403779
 20
191.7663471029999
 30
0.0
 10
258.308198336755
 20
192.0391573189911
 30
0.0
 10
257.742885938108
 20
192.4447963942532
 30
0.0
 10
257.4432455987875
 20
192.8997955314752
 30
0.0
 10
257.4126764437205
 20
193.2049558119415
 30
0.0
 10
257.4005334568255
 20
193.3261746444028
 30
0.0
  0
LINE
  5
158
330
1F
100
AcDbEntity
  8
0
  6
Continuous
 62
     7
370
    15
100
AcDbLine
 10
259.9005310726
 20
191.714122323
 30
0.0
 11
279.9005324883
 21
191.714122323
 31
0.0
  0
SPLINE
  5
159
330
1F
100
AcDbEntity
  8
0
  6
Continuous
 62
     7
370
    15
100
AcDbSpline
210
0.0
220
0.0
230
1.0
 70
     8
 71
     3
 72
    12
 73
     8
 74
     0
 42
0.00000001
 43
0.00000001
 12
1.0
 22
0.0
 32
0.0
 13
1.0
 23
0.0
 33
0.0
 40
0.0
 40
0.0
 40
0.0
 40
0.0
 40
0.2146541638371009
 40
0.4293117864996634
 40
0.6438955234128005
 40
0.858512181450387
 40
1.0
 40
1.0
 40
1.0
 40
1.0
 10
282.400532898032
 20
193.3261746444028
 30
0.0
 10
282.3729357031756
 20
193.1418729127407
 30
0.0
 10
282.317740868776
 20
192.7732664796743
 30
0.0
 10
281.8870237589435
 20
192.2908280195466
 30
0.0
 10
281.2529703682605
 20
191.9305406130157
 30
0.0
 10
280.5499789845841
 20
191.7411081149424
 30
0.0
 10
280.0851992705316
 20
191.721795594592
 30
0.0
 10
279.9005324882501
 20
191.7141223229688
 30
0.0
  0
LINE
  5
15A
330
1F
100
AcDbEntity
  8
0
  6
Continuous
 62
     7
370
    15
100
AcDbLine
 10
282.400532898
 20
193.3261746444
 30
0.0
 11
282.400532898
 21
194.7078363873
 31
0.0
  0
SPLINE
  5
15B
330
1F
100
AcDbEntity
  8
0
  6
Continuous
 62
     7
370
    15
100
AcDbSpline
210
0.0
220
0.0
230
1.0
 70
     8
 71
     3
 72
    12
 73
     8
 74
     0
 42
0.00000001
 43
0.00000001
 12
1.0
 22
0.0
 32
0.0
 13
1.0
 23
0.0
 33
0.0
 40
0.0
 40
0.0
 40
0.0
 40
0.0
 40
0.2146628720591996
 40
0.4293267427257991
 40
0.6439768466057982
 40
0.8585772088669581
 40
1.0
 40
1.0
 40
1.0
 40
1.0
 10
279.9005324882501
 20
196.4433783568662
 30
0.0
 10
280.1815890228344
 20
196.4238195903733
 30
0.0
 10
280.7437033994722
 20
196.3847019664003
 30
0.0
 10
281.4928674016682
 20
196.0808275547912
 30
0.0
 10
282.0581782532151
 20
195.6374671562831
 30
0.0
 10
282.3578193941642
 20
195.1510387435885
 30
0.0
 10
282.3883895425528
 20
194.833837845273
 30
0.0
 10
282.400532898032
 20
194.7078363873285
 30
0.0
  0
LINE
  5
15C
330
1F
100
AcDbEntity
  8
0
  6
Continuous
 62
     7
370
    15
100
AcDbLine
 10
259.9005310726
 20
196.4433783569
 30
0.0
 11
279.9005324883
 21
196.4433783569
 31
0.0
  0
SPLINE
  5
15D
330
1F
100
AcDbEntity
  8
0
  6
Continuous
 62
     7
370
    15
100
AcDbSpline
210
0.0
220
0.0
230
1.0
 70
     8
 71
     3
 72
    12
 73
     8
 74
     0
 42
0.00000001
 43
0.00000001
 12
1.0
 22
0.0
 32
0.0
 13
1.0
 23
0.0
 33
0.0
 40
0.0
 40
0.0
 40
0.0
 40
0.0
 40
0.2146535662427733
 40
0.4293110774360244
 40
0.6438951070324217
 40
0.8585126164568747
 40
1.0
 40
1.0
 40
1.0
 40
1.0
 10
257.4005334568255
 20
194.7078363873285
 30
0.0
 10
257.4281310353966
 20
194.8999484384629
 30
0.0
 10
257.4833266997331
 20
195.2841760714094
 30
0.0
 10
257.9140393689429
 20
195.8047791923505
 30
0.0
 10
258.5480941331879
 20
196.2012482231757
 30
0.0
 10
259.25108462126
 20
196.4131107559842
 30
0.0
 10
259.7158648639891
 20
196.4347719458404
 30
0.0
 10
259.9005310726398
 20
196.4433783568662
 30
0.0
  0
LINE
  5
15E
330
1F
100
AcDbEntity
  8
0
  6
Continuous
 62
     7
370
    15
100
AcDbLine
 10
257.4005334568
 20
194.7078363873
 30
0.0
 11
257.4005334568
 21
193.3261746444
 31
0.0
  0
SPLINE
  5
15F
330
1F
100
AcDbEntity
  8
0
  6
Continuous
 62
     7
370
    15
100
AcDbSpline
210
0.0
220
0.0
230
1.0
 70
     8
 71
     3
 72
    12
 73
     8
 74
     0
 42
0.00000001
 43
0.00000001
 12
1.0
 22
0.0
 32
0.0
 13
1.0
 23
0.0
 33
0.0
 40
0.0
 40
0.0
 40
0.0
 40
0.0
 40
0.2146531764798919
 40
0.4293117221178919
 40
0.6438953285869745
 40
0.858512162344359
 40
1.0
 40
1.0
 40
1.0
 40
1.0
 10
282.400532898032
 20
183.8216068126482
 30
0.0
 10
282.3729352544536
 20
183.6949872632416
 30
0.0
 10
282.317739276992
 20
183.4417449972712
 30
0.0
 10
281.8870254982916
 20
183.1146592143994
 30
0.0
 10
281.2529695198853
 20
182.8722976463711
 30
0.0
 10
280.5499793307256
 20
182.7456995626786
 30
0.0
 10
280.0851993144974
 20
182.732808415074
 30
0.0
 10
279.9005324882501
 20
182.7276864923757
 30
0.0
  0
LINE
  5
160
330
1F
100
AcDbEntity
  8
0
  6
Continuous
 62
     7
370
    15
100
AcDbLine
 10
282.400532898
 20
183.8216068126
 30
0.0
 11
282.400532898
 21
184.7852909841
 31
0.0
  0
SPLINE
  5
161
330
1F
100
AcDbEntity
  8
0
  6
Continuous
 62
     7
370
    15
100
AcDbSpline
210
0.0
220
0.0
230
1.0
 70
     8
 71
     3
 72
    12
 73
     8
 74
     0
 42
0.00000001
 43
0.00000001
 12
1.0
 22
0.0
 32
0.0
 13
1.0
 23
0.0
 33
0.0
 40
0.0
 40
0.0
 40
0.0
 40
0.0
 40
0.2146629199714794
 40
0.4293264162009244
 40
0.6439761471182267
 40
0.8585770850671621
 40
1.0
 40
1.0
 40
1.0
 40
1.0
 10
279.9005324882501
 20
186.0262559630197
 30
0.0
 10
280.1815889016742
 20
186.0120816026867
 30
0.0
 10
280.7437024830122
 20
185.98373284397
 30
0.0
 10
281.4928674140874
 20
185.7641366812459
 30
0.0
 10
282.0581794717112
 20
185.4455889420126
 30
0.0
 10
282.3578191408225
 20
185.0985691980275
 30
0.0
 10
282.3883894799959
 20
184.8743552238545
 30
0.0
 10
282.400532898032
 20
184.7852909840864
 30
0.0
  0
LINE
  5
162
330
1F
100
AcDbEntity
  8
0
  6
Continuous
 62
     7
370
    15
100
AcDbLine
 10
271.9005330396
 20
186.026255963
 30
0.0
 11
279.9005324883
 21
186.026255963
 31
0.0
  0
SPLINE
  5
163
330
1F
100
AcDbEntity
  8
0
  6
Continuous
 62
     7
370
    15
100
AcDbSpline
210
0.0
220
0.0
230
1.0
 70
     8
 71
     3
 72
    12
 73
     8
 74
     0
 42
0.00000001
 43
0.00000001
 12
1.0
 22
0.0
 32
0.0
 13
1.0
 23
0.0
 33
0.0
 40
0.0
 40
0.0
 40
0.0
 40
0.0
 40
0.2146533435568679
 40
0.4293119018992886
 40
0.6438948104130258
 40
0.8585116061177483
 40
1.0
 40
1.0
 40
1.0
 40
1.0
 10
269.4005316984885
 20
184.7852909840864
 30
0.0
 10
269.4281302149918
 20
184.9212117717815
 30
0.0
 10
269.4833279184764
 20
185.1930566492294
 30
0.0
 10
269.9140389723365
 20
185.5655796328873
 30
0.0
 10
270.5480950031047
 20
185.8510328109851
 30
0.0
 10
271.2510852180635
 20
186.0043320303545
 30
0.0
 10
271.7158656077144
 20
186.0200219959361
 30
0.0
 10
271.900533039593
 20
186.0262559630197
 30
0.0
  0
LINE
  5
164
330
1F
100
AcDbEntity
  8
0
  6
Continuous
 62
     7
370
    15
100
AcDbLine
 10
269.4005316985
 20
183.8216068126
 30
0.0
 11
269.4005316985
 21
184.7852909841
 31
0.0
  0
SPLINE
  5
165
330
1F
100
AcDbEntity
  8
0
  6
Continuous
 62
     7
370
    15
100
AcDbSpline
210
0.0
220
0.0
230
1.0
 70
     8
 71
     3
 72
    12
 73
     8
 74
     0
 42
0.00000001
 43
0.00000001
 12
1.0
 22
0.0
 32
0.0
 13
1.0
 23
0.0
 33
0.0
 40
0.0
 40
0.0
 40
0.0
 40
0.0
 40
0.2146628527269726
 40
0.4293262329250006
 40
0.6439767854770977
 40
0.8585777937760879
 40
1.0
 40
1.0
 40
1.0
 40
1.0
 10
271.900533039593
 20
182.7276864923757
 30
0.0
 10
271.6194766670969
 20
182.7392965705408
 30
0.0
 10
271.0573632314909
 20
182.7625167553994
 30
0.0
 10
270.308196698516
 20
182.9451409283722
 30
0.0
 10
269.7428855474981
 20
183.2187626392968
 30
0.0
 10
269.4432473250138
 20
183.5283662003328
 30
0.0
 10
269.4126756199952
 20
183.7382394066605
 30
0.0
 10
269.4005316984885
 20
183.8216068126482
 30
0.0
  0
LINE
  5
166
330
1F
100
AcDbEntity
  8
0
  6
Continuous
 62
     7
370
    15
100
AcDbLine
 10
271.9005330396
 20
182.7276864924
 30
0.0
 11
279.9005324883
 21
182.7276864924
 31
0.0
  0
SPLINE
  5
167
330
1F
100
AcDbEntity
  8
0
  6
Continuous
 62
     7
370
    15
100
AcDbSpline
210
0.0
220
0.0
230
1.0
 70
     8
 71
     3
 72
    12
 73
     8
 74
     0
 42
0.00000001
 43
0.00000001
 12
1.0
 22
0.0
 32
0.0
 13
1.0
 23
0.0
 33
0.0
 40
0.0
 40
0.0
 40
0.0
 40
0.0
 40
0.2146537323107924
 40
0.4293102939806304
 40
0.6438954931384487
 40
0.8585108660903074
 40
1.0
 40
1.0
 40
1.0
 40
1.0
 10
137.4005361390346
 20
178.5244488992017
 30
0.0
 10
137.428134390003
 20
178.5956348155859
 30
0.0
 10
137.4833312557134
 20
178.7380075866587
 30
0.0
 10
137.9140328608468
 20
178.9390619208037
 30
0.0
 10
138.548095263947
 20
179.0955765345213
 30
0.0
 10
139.2510842430115
 20
179.1807032828993
 30
0.0
 10
139.7158648977358
 20
179.1894319669818
 30
0.0
 10
139.9005337548488
 20
179.1929000891965
 30
0.0
  0
LINE
  5
168
330
1F
100
AcDbEntity
  8
0
  6
Continuous
 62
     7
370
    15
100
AcDbLine
 10
137.400536139
 20
178.0393863
 30
0.0
 11
137.400536139
 21
178.5244488992
 31
0.0
  0
SPLINE
  5
169
330
1F
100
AcDbEntity
  8
0
  6
Continuous
 62
     7
370
    15
100
AcDbSpline
210
0.0
220
0.0
230
1.0
 70
     8
 71
     3
 72
    12
 73
     8
 74
     0
 42
0.00000001
 43
0.00000001
 12
1.0
 22
0.0
 32
0.0
 13
1.0
 23
0.0
 33
0.0
 40
0.0
 40
0.0
 40
0.0
 40
0.0
 40
0.214663284059954
 40
0.4293262596792805
 40
0.643975551345627
 40
0.8585775196865931
 40
1.0
 40
1.0
 40
1.0
 40
1.0
 10
139.9005337548488
 20
177.5325754560751
 30
0.0
 10
139.6194768595889
 20
177.5376572464815
 30
0.0
 10
139.0573634729078
 20
177.5478208199926
 30
0.0
 10
138.3081963636504
 20
177.6287248648678
 30
0.0
 10
137.742896076174
 20
177.7530582573663
 30
0.0
 10
137.4432363353263
 20
177.8977548930766
 30
0.0
 10
137.4126756604946
 20
177.999120969803
 30
0.0
 10
137.4005361390346
 20
178.0393863000196
 30
0.0
  0
LINE
  5
16A
330
1F
100
AcDbEntity
  8
0
  6
Continuous
 62
     7
370
    15
100
AcDbLine
 10
147.9005350662
 20
177.5325754561
 30
0.0
 11
139.9005337548
 21
177.5325754561
 31
0.0
  0
SPLINE
  5
16B
330
1F
100
AcDbEntity
  8
0
  6
Continuous
 62
     7
370
    15
100
AcDbSpline
210
0.0
220
0.0
230
1.0
 70
     8
 71
     3
 72
    12
 73
     8
 74
     0
 42
0.00000001
 43
0.00000001
 12
1.0
 22
0.0
 32
0.0
 13
1.0
 23
0.0
 33
0.0
 40
0.0
 40
0.0
 40
0.0
 40
0.0
 40
0.2146539395893365
 40
0.4293126691142298
 40
0.6438952203445923
 40
0.8585106672870995
 40
1.0
 40
1.0
 40
1.0
 40
1.0
 10
150.4005326819652
 20
178.0393863000196
 30
0.0
 10
150.3729357856041
 20
177.9784236054459
 30
0.0
 10
150.317741377066
 20
177.8564968559349
 30
0.0
 10
149.8870184641702
 20
177.7054010223522
 30
0.0
 10
149.2529742066708
 20
177.5962373251472
 30
0.0
 10
148.5499835388381
 20
177.5404875391777
 30
0.0
 10
148.085203712238
 20
177.5348252322094
 30
0.0
 10
147.900535066151
 20
177.5325754560751
 30
0.0
  0
LINE
  5
16C
330
1F
100
AcDbEntity
  8
0
  6
Continuous
 62
     7
370
    15
100
AcDbLine
 10
150.400532682
 20
178.0393863
 30
0.0
 11
150.400532682
 21
178.5244488992
 31
0.0
  0
SPLINE
  5
16D
330
1F
100
AcDbEntity
  8
0
  6
Continuous
 62
     7
370
    15
100
AcDbSpline
210
0.0
220
0.0
230
1.0
 70
     8
 71
     3
 72
    12
 73
     8
 74
     0
 42
0.00000001
 43
0.00000001
 12
1.0
 22
0.0
 32
0.0
 13
1.0
 23
0.0
 33
0.0
 40
0.0
 40
0.0
 40
0.0
 40
0.0
 40
0.2146634332645011
 40
0.429326657997058
 40
0.6439763976972547
 40
0.8585766136289028
 40
1.0
 40
1.0
 40
1.0
 40
1.0
 10
147.900535066151
 20
179.1929000891965
 30
0.0
 10
148.181592127822
 20
179.1850035925923
 30
0.0
 10
148.743705978135
 20
179.1692106070549
 30
0.0
 10
149.4928710332916
 20
179.047647724596
 30
0.0
 10
150.0581774157794
 20
178.8739259918856
 30
0.0
 10
150.3578095153055
 20
178.6881065638624
 30
0.0
 10
150.3883865537484
 20
178.5709765125332
 30
0.0
 10
150.4005326819652
 20
178.5244488992017
 30
0.0
  0
LINE
  5
16E
330
1F
100
AcDbEntity
  8
0
  6
Continuous
 62
     7
370
    15
100
AcDbLine
 10
147.9005350662
 20
179.1929000892
 30
0.0
 11
139.9005337548
 21
179.1929000892
 31
0.0
  0
SPLINE
  5
16F
330
1F
100
AcDbEntity
  8
0
  6
Continuous
 62
     7
370
    15
100
AcDbSpline
210
0.0
220
0.0
230
1.0
 70
     8
 71
     3
 72
    12
 73
     8
 74
     0
 42
0.00000001
 43
0.00000001
 12
1.0
 22
0.0
 32
0.0
 13
1.0
 23
0.0
 33
0.0
 40
0.0
 40
0.0
 40
0.0
 40
0.0
 40
0.2146532271716299
 40
0.4293105951591908
 40
0.6438952456041529
 40
0.8585106833613512
 40
1.0
 40
1.0
 40
1.0
 40
1.0
 10
137.4005361390346
 20
184.7852909840864
 30
0.0
 10
137.4281347512399
 20
184.9212114995369
 30
0.0
 10
137.4833325080477
 20
185.1930551524429
 30
0.0
 10
137.914030605914
 20
185.5655827612201
 30
0.0
 10
138.5480966698956
 20
185.8510302864103
 30
0.0
 10
139.2510845393999
 20
186.0043328101392
 30
0.0
 10
139.7158649031996
 20
186.0200221831172
 30
0.0
 10
139.9005337548488
 20
186.0262559630197
 30
0.0
  0
LINE
  5
170
330
1F
100
AcDbEntity
  8
0
  6
Continuous
 62
     7
370
    15
100
AcDbLine
 10
137.400536139
 20
183.8216068126
 30
0.0
 11
137.400536139
 21
184.7852909841
 31
0.0
  0
SPLINE
  5
171
330
1F
100
AcDbEntity
  8
0
  6
Continuous
 62
     7
370
    15
100
AcDbSpline
210
0.0
220
0.0
230
1.0
 70
     8
 71
     3
 72
    12
 73
     8
 74
     0
 42
0.00000001
 43
0.00000001
 12
1.0
 22
0.0
 32
0.0
 13
1.0
 23
0.0
 33
0.0
 40
0.0
 40
0.0
 40
0.0
 40
0.0
 40
0.2146633380996388
 40
0.4293263174702729
 40
0.643975935686934
 40
0.8585780464992664
 40
1.0
 40
1.0
 40
1.0
 40
1.0
 10
139.9005337548488
 20
182.7276864923757
 30
0.0
 10
139.619476896611
 20
182.7392965426562
 30
0.0
 10
139.0573636498162
 20
182.7625166238154
 30
0.0
 10
138.3081957157053
 20
182.9451402560575
 30
0.0
 10
137.7428964047791
 20
183.2187647509354
 30
0.0
 10
137.4432366465524
 20
183.528364805208
 30
0.0
 10
137.4126757259895
 20
183.7382392590734
 30
0.0
 10
137.4005361390346
 20
183.8216068126482
 30
0.0
  0
LINE
  5
172
330
1F
100
AcDbEntity
  8
0
  6
Continuous
 62
     7
370
    15
100
AcDbLine
 10
147.9005350662
 20
182.7276864924
 30
0.0
 11
139.9005337548
 21
182.7276864924
 31
0.0
  0
SPLINE
  5
173
330
1F
100
AcDbEntity
  8
0
  6
Continuous
 62
     7
370
    15
100
AcDbSpline
210
0.0
220
0.0
230
1.0
 70
     8
 71
     3
 72
    12
 73
     8
 74
     0
 42
0.00000001
 43
0.00000001
 12
1.0
 22
0.0
 32
0.0
 13
1.0
 23
0.0
 33
0.0
 40
0.0
 40
0.0
 40
0.0
 40
0.0
 40
0.2146533368316005
 40
0.4293126197660487
 40
0.6438949638133628
 40
0.8585106364320108
 40
1.0
 40
1.0
 40
1.0
 40
1.0
 10
150.4005326819652
 20
183.8216068126482
 30
0.0
 10
150.3729354984059
 20
183.6949871328551
 30
0.0
 10
150.3177403668189
 20
183.4417442657828
 30
0.0
 10
149.8870197866006
 20
183.1146609390509
 30
0.0
 10
149.2529731297066
 20
182.8722973378893
 30
0.0
 10
148.5499839560773
 20
182.7456990659265
 30
0.0
 10
148.0852037644943
 20
182.7328083096011
 30
0.0
 10
147.900535066151
 20
182.7276864923757
 30
0.0
  0
LINE
  5
174
330
1F
100
AcDbEntity
  8
0
  6
Continuous
 62
     7
370
    15
100
AcDbLine
 10
150.400532682
 20
183.8216068126
 30
0.0
 11
150.400532682
 21
184.7852909841
 31
0.0
  0
SPLINE
  5
175
330
1F
100
AcDbEntity
  8
0
  6
Continuous
 62
     7
370
    15
100
AcDbSpline
210
0.0
220
0.0
230
1.0
 70
     8
 71
     3
 72
    12
 73
     8
 74
     0
 42
0.00000001
 43
0.00000001
 12
1.0
 22
0.0
 32
0.0
 13
1.0
 23
0.0
 33
0.0
 40
0.0
 40
0.0
 40
0.0
 40
0.0
 40
0.2146636057974652
 40
0.4293269016531424
 40
0.6439760570293188
 40
0.8585767583811706
 40
1.0
 40
1.0
 40
1.0
 40
1.0
 10
147.900535066151
 20
186.0262559630197
 30
0.0
 10
148.1815921473773
 20
186.0120816737169
 30
0.0
 10
148.7437059040259
 20
185.9837331155767
 30
0.0
 10
149.4928696896169
 20
185.7641369852392
 30
0.0
 10
150.0581790026063
 20
185.44558868647
 30
0.0
 10
150.3578090983708
 20
185.0985685408758
 30
0.0
 10
150.3883864524303
 20
184.8743551681448
 30
0.0
 10
150.4005326819652
 20
184.7852909840864
 30
0.0
  0
LINE
  5
176
330
1F
100
AcDbEntity
  8
0
  6
Continuous
 62
     7
370
    15
100
AcDbLine
 10
147.9005350662
 20
186.026255963
 30
0.0
 11
139.9005337548
 21
186.026255963
 31
0.0
  0
SPLINE
  5
177
330
1F
100
AcDbEntity
  8
0
  6
Continuous
 62
     7
370
    15
100
AcDbSpline
210
0.0
220
0.0
230
1.0
 70
     8
 71
     3
 72
    11
 73
     7
 74
     0
 42
0.00000001
 43
0.00000001
 12
1.0
 22
0.0
 32
0.0
 13
1.0
 23
0.0
 33
0.0
 40
0.0
 40
0.0
 40
0.0
 40
0.0
 40
0.2780750663818481
 40
0.5561543750781913
 40
0.8341411210474834
 40
0.9999999999999999
 40
0.9999999999999999
 40
0.9999999999999999
 40
0.9999999999999999
 10
137.4005361390346
 20
207.7006989993375
 30
0.0
 10
137.4278999323055
 20
207.9378295484692
 30
0.0
 10
137.4826279363096
 20
208.4120942643974
 30
0.0
 10
137.9168469817982
 20
209.0404580600725
 30
0.0
 10
138.4540748968509
 20
209.4867111482208
 30
0.0
 10
138.8788248215918
 20
209.6141132412018
 30
0.0
 10
139.0375479054683
 20
209.6617216147703
 30
0.0
  0
LINE
  5
178
330
1F
100
AcDbEntity
  8
0
  6
Continuous
 62
     7
370
    15
100
AcDbLine
 10
137.400536139
 20
205.9854933895
 30
0.0
 11
137.400536139
 21
207.7006989993
 31
0.0
  0
SPLINE
  5
179
330
1F
100
AcDbEntity
  8
0
  6
Continuous
 62
     7
370
    15
100
AcDbSpline
210
0.0
220
0.0
230
1.0
 70
     8
 71
     3
 72
    12
 73
     8
 74
     0
 42
0.00000001
 43
0.00000001
 12
1.0
 22
0.0
 32
0.0
 13
1.0
 23
0.0
 33
0.0
 40
0.0
 40
0.0
 40
0.0
 40
0.0
 40
0.21466324487262
 40
0.4293261190769741
 40
0.6439758419165788
 40
0.8585773175631658
 40
1.0
 40
1.0
 40
1.0
 40
1.0
 10
139.9005337548488
 20
203.953820643596
 30
0.0
 10
139.6194769206964
 20
203.9759626941599
 30
0.0
 10
139.0573637377047
 20
204.0202467570539
 30
0.0
 10
138.3081952234345
 20
204.3665730558386
 30
0.0
 10
137.7428974504242
 20
204.8794453582815
 30
0.0
 10
137.4432359045436
 20
205.4520306063563
 30
0.0
 10
137.4126755575328
 20
205.8338314798986
 30
0.0
 10
137.4005361390346
 20
205.9854933895391
 30
0.0
  0
LINE
  5
17A
330
1F
100
AcDbEntity
  8
0
  6
Continuous
 62
     7
370
    15
100
AcDbLine
 10
159.9005295825
 20
203.9538206436
 30
0.0
 11
139.9005337548
 21
203.9538206436
 31
0.0
  0
SPLINE
  5
17B
330
1F
100
AcDbEntity
  8
0
  6
Continuous
 62
     7
370
    15
100
AcDbSpline
210
0.0
220
0.0
230
1.0
 70
     8
 71
     3
 72
    12
 73
     8
 74
     0
 42
0.00000001
 43
0.00000001
 12
1.0
 22
0.0
 32
0.0
 13
1.0
 23
0.0
 33
0.0
 40
0.0
 40
0.0
 40
0.0
 40
0.0
 40
0.2146545892951422
 40
0.4293104137037071
 40
0.6438956744817095
 40
0.8585109287362279
 40
1.0
 40
1.0
 40
1.0
 40
1.0
 10
162.4005271983378
 20
205.9854933895391
 30
0.0
 10
162.3729293134379
 20
205.7547723753781
 30
0.0
 10
162.317733384841
 20
205.2933290194973
 30
0.0
 10
161.8870291794539
 20
204.6850071560938
 30
0.0
 10
161.2529685791218
 20
204.2288309043579
 30
0.0
 10
160.5499790066455
 20
203.9881318473035
 30
0.0
 10
160.085198423481
 20
203.9635769232772
 30
0.0
 10
159.9005295825237
 20
203.953820643596
 30
0.0
  0
LINE
  5
17C
330
1F
100
AcDbEntity
  8
0
  6
Continuous
 62
     7
370
    15
100
AcDbLine
 10
162.4005271983
 20
207.7006989993
 30
0.0
 11
162.4005271983
 21
205.9854933895
 31
0.0
  0
SPLINE
  5
17D
330
1F
100
AcDbEntity
  8
0
  6
Continuous
 62
     7
370
    15
100
AcDbSpline
210
0.0
220
0.0
230
1.0
 70
     8
 71
     3
 72
    11
 73
     7
 74
     0
 42
0.00000001
 43
0.00000001
 12
1.0
 22
0.0
 32
0.0
 13
1.0
 23
0.0
 33
0.0
 40
0.0
 40
0.0
 40
0.0
 40
0.0
 40
0.2485392115670116
 40
0.5311888124206446
 40
0.8137759067760715
 40
1.0
 40
1.0
 40
1.0
 40
1.0
 10
160.8166827750438
 20
209.6617216147703
 30
0.0
 10
161.041469504979
 20
209.5711474740119
 30
0.0
 10
161.5218934806139
 20
209.3775684811354
 30
0.0
 10
162.0563801306961
 20
208.8384598626519
 30
0.0
 10
162.3581010003467
 20
208.2474211381053
 30
0.0
 10
162.3884655880989
 20
207.856130069268
 30
0.0
 10
162.4005271983379
 20
207.7006989993375
 30
0.0
  0
SPLINE
  5
17E
330
1F
100
AcDbEntity
  8
0
  6
Continuous
 62
     7
370
    15
100
AcDbSpline
210
0.0
220
0.0
230
1.0
 70
     8
 71
     3
 72
    10
 73
     6
 74
     0
 42
0.00000001
 43
0.00000001
 12
1.0
 22
0.0
 32
0.0
 13
1.0
 23
0.0
 33
0.0
 40
0.0
 40
0.0
 40
0.0
 40
0.0
 40
0.4754952751519471
 40
0.9509833029481147
 40
1.0
 40
1.0
 40
1.0
 40
1.0
 10
159.4005360198253
 20
258.9149664990824
 30
0.0
 10
159.6221708876066
 20
258.8903956999279
 30
0.0
 10
160.0654372450774
 20
258.8412544761197
 30
0.0
 10
160.5187028611321
 20
258.6353078716203
 30
0.0
 10
160.6805184426867
 20
258.4521094208176
 30
0.0
 10
160.6956406426662
 20
258.4349889211577
 30
0.0
  0
SPLINE
  5
17F
330
1F
100
AcDbEntity
  8
0
  6
Continuous
 62
     7
370
    15
100
AcDbSpline
210
0.0
220
0.0
230
1.0
 70
     8
 71
     3
 72
    10
 73
     6
 74
     0
 42
0.00000001
 43
0.00000001
 12
1.0
 22
0.0
 32
0.0
 13
1.0
 23
0.0
 33
0.0
 40
0.0
 40
0.0
 40
0.0
 40
0.0
 40
0.2248443663901965
 40
0.7008475023915011
 40
1.0
 40
1.0
 40
1.0
 40
1.0
 10
158.1180675816768
 20
258.4225250311416
 30
0.0
 10
158.1948036783907
 20
258.4945350758977
 30
0.0
 10
158.4339926898328
 20
258.7189928233815
 30
0.0
 10
158.8973609476207
 20
258.8806656490926
 30
0.0
 10
159.2604215822536
 20
258.9054150634688
 30
0.0
 10
159.4005360198253
 20
258.9149664990824
 30
0.0
  0
SPLINE
  5
180
330
1F
100
AcDbEntity
  8
0
  6
Continuous
 62
     7
370
    15
100
AcDbSpline
210
0.0
220
0.0
230
1.0
 70
     8
 71
     3
 72
     9
 73
     5
 74
     0
 42
0.00000001
 43
0.00000001
 12
1.0
 22
0.0
 32
0.0
 13
1.0
 23
0.0
 33
0.0
 40
0.0
 40
0.0
 40
0.0
 40
0.0
 40
0.5742556635561118
 40
1.0
 40
1.0
 40
1.0
 40
1.0
 10
159.4005360198253
 20
258.6349615730566
 30
0.0
 10
159.17277804293
 20
258.6181225950149
 30
0.0
 10
158.7761637971341
 20
258.5887994570637
 30
0.0
 10
158.4445159922585
 20
258.37796220911
 30
0.0
 10
158.3033188176387
 20
258.2881994448823
 30
0.0
  0
SPLINE
  5
181
330
1F
100
AcDbEntity
  8
0
  6
Continuous
 62
     7
370
    15
100
AcDbSpline
210
0.0
220
0.0
230
1.0
 70
     8
 71
     3
 72
    10
 73
     6
 74
     0
 42
0.00000001
 43
0.00000001
 12
1.0
 22
0.0
 32
0.0
 13
1.0
 23
0.0
 33
0.0
 40
0.0
 40
0.0
 40
0.0
 40
0.0
 40
0.0548735152698306
 40
0.6352106290369802
 40
1.0
 40
1.0
 40
1.0
 40
1.0
 10
160.4918970656627
 20
258.3061497561854
 30
0.0
 10
160.4761126257238
 20
258.3200122999222
 30
0.0
 10
160.2933934400969
 20
258.4804837966681
 30
0.0
 10
159.9014646282315
 20
258.5976699520942
 30
0.0
 10
159.5400361496723
 20
258.6245764884774
 30
0.0
 10
159.4005360198253
 20
258.6349615730566
 30
0.0
  0
SPLINE
  5
182
330
1F
100
AcDbEntity
  8
0
  6
Continuous
 62
     7
370
    15
100
AcDbSpline
210
0.0
220
0.0
230
1.0
 70
     8
 71
     3
 72
    12
 73
     8
 74
     0
 42
0.00000001
 43
0.00000001
 12
1.0
 22
0.0
 32
0.0
 13
1.0
 23
0.0
 33
0.0
 40
0.0
 40
0.0
 40
0.0
 40
0.0
 40
0.2146510064090178
 40
0.4293073500733303
 40
0.643885116908924
 40
0.8585000149933417
 40
1.0
 40
1.0
 40
1.0
 40
1.0
 10
137.4005361390346
 20
194.5686930693906
 30
0.0
 10
137.428128356371
 20
194.3842250212456
 30
0.0
 10
137.4833134771189
 20
194.0152843381935
 30
0.0
 10
137.914016741179
 20
193.532614749405
 30
0.0
 10
138.548054888818
 20
193.172235063874
 30
0.0
 10
139.2510536741688
 20
192.9827900707449
 30
0.0
 10
139.7158499208836
 20
192.9634712984304
 30
0.0
 10
139.9005337548488
 20
192.9557951070589
 30
0.0
  0
SPLINE
  5
183
330
1F
100
AcDbEntity
  8
0
  6
Continuous
 62
     7
370
    15
100
AcDbSpline
210
0.0
220
0.0
230
1.0
 70
     8
 71
     3
 72
    12
 73
     8
 74
     0
 42
0.00000001
 43
0.00000001
 12
1.0
 22
0.0
 32
0.0
 13
1.0
 23
0.0
 33
0.0
 40
0.0
 40
0.0
 40
0.0
 40
0.0
 40
0.2146620385223183
 40
0.4293237345908226
 40
0.643971711711028
 40
0.8585681244863275
 40
1.0
 40
1.0
 40
1.0
 40
1.0
 10
159.9005295825237
 20
192.9557951070589
 30
0.0
 10
160.181586594637
 20
192.9732032342306
 30
0.0
 10
160.7437001704888
 20
193.0080194608026
 30
0.0
 10
161.4928654144851
 20
193.2808520343858
 30
0.0
 10
162.0581691774499
 20
193.68662095193
 30
0.0
 10
162.3578104338855
 20
194.141900918458
 30
0.0
 10
162.3883824829375
 20
194.4473526711977
 30
0.0
 10
162.4005271983379
 20
194.5686930693906
 30
0.0
  0
LINE
  5
184
330
1F
100
AcDbEntity
  8
0
  6
Continuous
 62
     7
370
    15
100
AcDbLine
 10
159.9005295825
 20
192.9557951071
 30
0.0
 11
139.9005337548
 21
192.9557951071
 31
0.0
  0
SPLINE
  5
185
330
1F
100
AcDbEntity
  8
0
  6
Continuous
 62
     7
370
    15
100
AcDbSpline
210
0.0
220
0.0
230
1.0
 70
     8
 71
     3
 72
     9
 73
     5
 74
     0
 42
0.00000001
 43
0.00000001
 12
1.0
 22
0.0
 32
0.0
 13
1.0
 23
0.0
 33
0.0
 40
0.0
 40
0.0
 40
0.0
 40
0.0
 40
0.9307277057756892
 40
1.0
 40
1.0
 40
1.0
 40
1.0
 10
279.9005324882501
 20
179.1050204910558
 30
0.0
 10
280.1908383041765
 20
179.105840189168
 30
0.0
 10
280.5027510302347
 20
179.1067208958528
 30
0.0
 10
280.7645478287194
 20
179.1349950630643
 30
0.0
 10
280.782683093571
 20
179.1369536794942
 30
0.0
  0
LINE
  5
186
330
1F
100
AcDbEntity
  8
0
  6
Continuous
 62
     7
370
    15
100
AcDbLine
 10
271.9005330396
 20
179.1050204911
 30
0.0
 11
279.9005324883
 21
179.1050204911
 31
0.0
  0
SPLINE
  5
187
330
1F
100
AcDbEntity
  8
0
  6
Continuous
 62
     7
370
    15
100
AcDbSpline
210
0.0
220
0.0
230
1.0
 70
     8
 71
     3
 72
     9
 73
     5
 74
     0
 42
0.00000001
 43
0.00000001
 12
1.0
 22
0.0
 32
0.0
 13
1.0
 23
0.0
 33
0.0
 40
0.0
 40
0.0
 40
0.0
 40
0.0
 40
0.4008160206597563
 40
1.0
 40
1.0
 40
1.0
 40
1.0
 10
271.0083148372405
 20
179.142854539327
 30
0.0
 10
271.1207016100316
 20
179.1327599681715
 30
0.0
 10
271.4010965219068
 20
179.1075749190835
 30
0.0
 10
271.7134036261165
 20
179.1059775869062
 30
0.0
 10
271.900533039593
 20
179.1050204910558
 30
0.0
  0
SPLINE
  5
188
330
1F
100
AcDbEntity
  8
0
  6
Continuous
 62
     7
370
    15
100
AcDbSpline
210
0.0
220
0.0
230
1.0
 70
     8
 71
     3
 72
    11
 73
     7
 74
     0
 42
0.00000001
 43
0.00000001
 12
1.0
 22
0.0
 32
0.0
 13
1.0
 23
0.0
 33
0.0
 40
0.0
 40
0.0
 40
0.0
 40
0.0
 40
0.2657979207704857
 40
0.5315957327941246
 40
0.7973776261316488
 40
1.0
 40
1.0
 40
1.0
 40
1.0
 10
279.9005324882501
 20
184.1789552845281
 30
0.0
 10
280.1820991046038
 20
184.190484086871
 30
0.0
 10
280.7452322221131
 20
184.21354168684
 30
0.0
 10
281.4867439238633
 20
184.397429105853
 30
0.0
 10
282.0340939541912
 20
184.6451953433227
 30
0.0
 10
282.1943393216752
 20
184.854142243048
 30
0.0
 10
282.2636582818859
 20
184.9445285178941
 30
0.0
  0
LINE
  5
189
330
1F
100
AcDbEntity
  8
0
  6
Continuous
 62
     7
370
    15
100
AcDbLine
 10
271.9005330396
 20
184.1789552845
 30
0.0
 11
279.9005324883
 21
184.1789552845
 31
0.0
  0
SPLINE
  5
18A
330
1F
100
AcDbEntity
  8
0
  6
Continuous
 62
     7
370
    15
100
AcDbSpline
210
0.0
220
0.0
230
1.0
 70
     8
 71
     3
 72
    12
 73
     8
 74
     0
 42
0.00000001
 43
0.00000001
 12
1.0
 22
0.0
 32
0.0
 13
1.0
 23
0.0
 33
0.0
 40
0.0
 40
0.0
 40
0.0
 40
0.0
 40
0.0180912157881289
 40
0.2864726001545747
 40
0.5547562161137386
 40
0.8230834837929285
 40
1.0
 40
1.0
 40
1.0
 40
1.0
 10
269.5318221044772
 20
184.9273065008443
 30
0.0
 10
269.5348098863439
 20
184.9189301192102
 30
0.0
 10
269.5821211146256
 20
184.7862909503058
 30
0.0
 10
269.9295519532864
 20
184.5684219149895
 30
0.0
 10
270.5438590492576
 20
184.3229424700658
 30
0.0
 10
271.2516974439127
 20
184.1970720204978
 30
0.0
 10
271.7160311786391
 20
184.1841069308359
 30
0.0
 10
271.900533039593
 20
184.1789552845281
 30
0.0
  0
SPLINE
  5
18B
330
1F
100
AcDbEntity
  8
0
  6
Continuous
 62
     7
370
    15
100
AcDbSpline
210
0.0
220
0.0
230
1.0
 70
     8
 71
     3
 72
    12
 73
     8
 74
     0
 42
0.00000001
 43
0.00000001
 12
1.0
 22
0.0
 32
0.0
 13
1.0
 23
0.0
 33
0.0
 40
0.0
 40
0.0
 40
0.0
 40
0.0
 40
0.2146613780075144
 40
0.4293229514263506
 40
0.6439716047553143
 40
0.8585676609022552
 40
1.0
 40
1.0
 40
1.0
 40
1.0
 10
279.9005324882501
 20
219.3111156948131
 30
0.0
 10
280.181588914664
 20
219.3366365730253
 30
0.0
 10
280.7437020233442
 20
219.387678352682
 30
0.0
 10
281.4928669400177
 20
219.7863750448296
 30
0.0
 10
282.0581729070325
 20
220.3751909731943
 30
0.0
 10
282.3578181947668
 20
221.0305173825008
 30
0.0
 10
282.3883887427658
 20
221.4657667422978
 30
0.0
 10
282.400532898032
 20
221.6386696227115
 30
0.0
  0
LINE
  5
18C
330
1F
100
AcDbEntity
  8
0
  6
Continuous
 62
     7
370
    15
100
AcDbLine
 10
259.9005310726
 20
219.3111156948
 30
0.0
 11
279.9005324883
 21
219.3111156948
 31
0.0
  0
SPLINE
  5
18D
330
1F
100
AcDbEntity
  8
0
  6
Continuous
 62
     7
370
    15
100
AcDbSpline
210
0.0
220
0.0
230
1.0
 70
     8
 71
     3
 72
    12
 73
     8
 74
     0
 42
0.00000001
 43
0.00000001
 12
1.0
 22
0.0
 32
0.0
 13
1.0
 23
0.0
 33
0.0
 40
0.0
 40
0.0
 40
0.0
 40
0.0
 40
0.2146519766013363
 40
0.4293083689649178
 40
0.6438865192210564
 40
0.8584999443190398
 40
1.0
 40
1.0
 40
1.0
 40
1.0
 10
257.4005334568255
 20
221.6386696227115
 30
0.0
 10
257.4281286290267
 20
221.3755523831666
 30
0.0
 10
257.4833195411093
 20
220.8493124913003
 30
0.0
 10
257.9140214300203
 20
220.1521816700358
 30
0.0
 10
258.548058173661
 20
219.6279262178264
 30
0.0
 10
259.2510526729167
 20
219.3506617642526
 30
0.0
 10
259.7158471302009
 20
219.3223609094579
 30
0.0
 10
259.9005310726398
 20
219.3111156948131
 30
0.0
  0
SPLINE
  5
18E
330
1F
100
AcDbEntity
  8
0
  6
Continuous
 62
     7
370
    15
100
AcDbSpline
210
0.0
220
0.0
230
1.0
 70
     8
 71
     3
 72
    12
 73
     8
 74
     0
 42
0.00000001
 43
0.00000001
 12
1.0
 22
0.0
 32
0.0
 13
1.0
 23
0.0
 33
0.0
 40
0.0
 40
0.0
 40
0.0
 40
0.0
 40
0.2146615005521732
 40
0.4293231282176988
 40
0.6439716703601603
 40
0.8585681958697319
 40
1.0
 40
1.0
 40
1.0
 40
1.0
 10
279.9005324882501
 20
192.9557951070589
 30
0.0
 10
280.1815889096239
 20
192.9732032554839
 30
0.0
 10
280.7437019188012
 20
193.0080195626423
 30
0.0
 10
281.4928665746693
 20
193.2808527249569
 30
0.0
 10
282.0581737211657
 20
193.6866203383065
 30
0.0
 10
282.3578176448523
 20
194.1419006876467
 30
0.0
 10
282.3883886176948
 20
194.4473526594936
 30
0.0
 10
282.400532898032
 20
194.5686930693906
 30
0.0
  0
LINE
  5
18F
330
1F
100
AcDbEntity
  8
0
  6
Continuous
 62
     7
370
    15
100
AcDbLine
 10
259.9005310726
 20
192.9557951071
 30
0.0
 11
279.9005324883
 21
192.9557951071
 31
0.0
  0
SPLINE
  5
190
330
1F
100
AcDbEntity
  8
0
  6
Continuous
 62
     7
370
    15
100
AcDbSpline
210
0.0
220
0.0
230
1.0
 70
     8
 71
     3
 72
    12
 73
     8
 74
     0
 42
0.00000001
 43
0.00000001
 12
1.0
 22
0.0
 32
0.0
 13
1.0
 23
0.0
 33
0.0
 40
0.0
 40
0.0
 40
0.0
 40
0.0
 40
0.2146516355638335
 40
0.429308288844872
 40
0.643886365183854
 40
0.8584998108961259
 40
1.0
 40
1.0
 40
1.0
 40
1.0
 10
257.4005334568255
 20
194.5686930693906
 30
0.0
 10
257.4281287688278
 20
194.3842250957344
 30
0.0
 10
257.4833200379028
 20
194.0152848362809
 30
0.0
 10
257.914020899102
 20
193.532614556655
 30
0.0
 10
258.5480583584526
 20
193.1722365624491
 30
0.0
 10
259.2510530015367
 20
192.9827895201329
 30
0.0
 10
259.7158471561924
 20
192.9634711690393
 30
0.0
 10
259.9005310726398
 20
192.9557951070589
 30
0.0
  0
SPLINE
  5
191
330
1F
100
AcDbEntity
  8
0
  6
Continuous
 62
     7
370
    15
100
AcDbSpline
210
0.0
220
0.0
230
1.0
 70
     8
 71
     3
 72
    12
 73
     8
 74
     0
 42
0.00000001
 43
0.00000001
 12
1.0
 22
0.0
 32
0.0
 13
1.0
 23
0.0
 33
0.0
 40
0.0
 40
0.0
 40
0.0
 40
0.0
 40
0.2146613986416847
 40
0.429322949772229
 40
0.6439715885430711
 40
0.858567821175537
 40
1.0
 40
1.0
 40
1.0
 40
1.0
 10
279.9005324882501
 20
204.9100207068246
 30
0.0
 10
280.1815889028687
 20
204.9321613663323
 30
0.0
 10
280.7437019317599
 20
204.9764427010756
 30
0.0
 10
281.4928669438824
 20
205.322790897559
 30
0.0
 10
282.058173156149
 20
205.8357553090516
 30
0.0
 10
282.3578180173877
 20
206.4085611604175
 30
0.0
 10
282.3883887025806
 20
206.7905834243981
 30
0.0
 10
282.400532898032
 20
206.9423416532796
 30
0.0
  0
LINE
  5
192
330
1F
100
AcDbEntity
  8
0
  6
Continuous
 62
     7
370
    15
100
AcDbLine
 10
259.9005310726
 20
204.9100207068
 30
0.0
 11
279.9005324883
 21
204.9100207068
 31
0.0
  0
SPLINE
  5
193
330
1F
100
AcDbEntity
  8
0
  6
Continuous
 62
     7
370
    15
100
AcDbSpline
210
0.0
220
0.0
230
1.0
 70
     8
 71
     3
 72
    12
 73
     8
 74
     0
 42
0.00000001
 43
0.00000001
 12
1.0
 22
0.0
 32
0.0
 13
1.0
 23
0.0
 33
0.0
 40
0.0
 40
0.0
 40
0.0
 40
0.0
 40
0.2146517997433769
 40
0.4293082900179384
 40
0.6438862551364773
 40
0.858499847514266
 40
1.0
 40
1.0
 40
1.0
 40
1.0
 10
257.4005334568255
 20
206.9423416532796
 30
0.0
 10
257.428128710582
 20
206.7114967302187
 30
0.0
 10
257.4833198211012
 20
206.2498018397165
 30
0.0
 10
257.9140208877017
 20
205.6413062900158
 30
0.0
 10
258.5480589553031
 20
205.1850490487533
 30
0.0
 10
259.2510525813775
 20
204.9443407240894
 30
0.0
 10
259.7158471117629
 20
204.9197798548351
 30
0.0
 10
259.9005310726398
 20
204.9100207068246
 30
0.0
  0
SPLINE
  5
194
330
1F
100
AcDbEntity
  8
0
  6
Continuous
 62
     7
370
    15
100
AcDbSpline
210
0.0
220
0.0
230
1.0
 70
     8
 71
     3
 72
     9
 73
     5
 74
     0
 42
0.00000001
 43
0.00000001
 12
1.0
 22
0.0
 32
0.0
 13
1.0
 23
0.0
 33
0.0
 40
0.0
 40
0.0
 40
0.0
 40
0.0
 40
0.4008220980267772
 40
1.0
 40
1.0
 40
1.0
 40
1.0
 10
139.008311827206
 20
179.142854539327
 30
0.0
 10
139.120701099934
 20
179.1327599618424
 30
0.0
 10
139.4010979974138
 20
179.1075752788265
 30
0.0
 10
139.713405813085
 20
179.1059777156239
 30
0.0
 10
139.9005337548488
 20
179.1050204910558
 30
0.0
  0
SPLINE
  5
195
330
1F
100
AcDbEntity
  8
0
  6
Continuous
 62
     7
370
    15
100
AcDbSpline
210
0.0
220
0.0
230
1.0
 70
     8
 71
     3
 72
     9
 73
     5
 74
     0
 42
0.00000001
 43
0.00000001
 12
1.0
 22
0.0
 32
0.0
 13
1.0
 23
0.0
 33
0.0
 40
0.0
 40
0.0
 40
0.0
 40
0.0
 40
0.9307312093654031
 40
1.0
 40
1.0
 40
1.0
 40
1.0
 10
147.900535066151
 20
179.1050204910558
 30
0.0
 10
148.1908434215666
 20
179.1058395087631
 30
0.0
 10
148.5027577019673
 20
179.1067194810892
 30
0.0
 10
148.7645497876536
 20
179.1349950640576
 30
0.0
 10
148.7826838088268
 20
179.1369536794942
 30
0.0
  0
LINE
  5
196
330
1F
100
AcDbEntity
  8
0
  6
Continuous
 62
     7
370
    15
100
AcDbLine
 10
147.9005350662
 20
179.1050204911
 30
0.0
 11
139.9005337548
 21
179.1050204911
 31
0.0
  0
SPLINE
  5
197
330
1F
100
AcDbEntity
  8
0
  6
Continuous
 62
     7
370
    15
100
AcDbSpline
210
0.0
220
0.0
230
1.0
 70
     8
 71
     3
 72
    12
 73
     8
 74
     0
 42
0.00000001
 43
0.00000001
 12
1.0
 22
0.0
 32
0.0
 13
1.0
 23
0.0
 33
0.0
 40
0.0
 40
0.0
 40
0.0
 40
0.0
 40
0.0180912854756778
 40
0.2864722217104235
 40
0.5547553897011368
 40
0.8230849629716351
 40
1.0
 40
1.0
 40
1.0
 40
1.0
 10
137.5318153691524
 20
184.9273065008443
 30
0.0
 10
137.5348037917524
 20
184.9189301205064
 30
0.0
 10
137.5821249211863
 20
184.7862916582732
 30
0.0
 10
137.9295433107408
 20
184.5684217367696
 30
0.0
 10
138.5438569767699
 20
184.3229412929576
 30
0.0
 10
139.2516980116728
 20
184.1970726908075
 30
0.0
 10
139.7160332009757
 20
184.1841070837754
 30
0.0
 10
139.9005337548488
 20
184.1789552845281
 30
0.0
  0
SPLINE
  5
198
330
1F
100
AcDbEntity
  8
0
  6
Continuous
 62
     7
370
    15
100
AcDbSpline
210
0.0
220
0.0
230
1.0
 70
     8
 71
     3
 72
    11
 73
     7
 74
     0
 42
0.00000001
 43
0.00000001
 12
1.0
 22
0.0
 32
0.0
 13
1.0
 23
0.0
 33
0.0
 40
0.0
 40
0.0
 40
0.0
 40
0.0
 40
0.2657988243595487
 40
0.5315969585447872
 40
0.7973783897102749
 40
1.0
 40
1.0
 40
1.0
 40
1.0
 10
147.900535066151
 20
184.1789552845281
 30
0.0
 10
148.182102324739
 20
184.1904840631157
 30
0.0
 10
148.7452361107962
 20
184.2135415903553
 30
0.0
 10
149.4867476570039
 20
184.3974287533555
 30
0.0
 10
150.0340964592799
 20
184.6451950253249
 30
0.0
 10
150.1943347821941
 20
184.8541422196854
 30
0.0
 10
150.2636506152385
 20
184.9445285178941
 30
0.0
  0
LINE
  5
199
330
1F
100
AcDbEntity
  8
0
  6
Continuous
 62
     7
370
    15
100
AcDbLine
 10
147.9005350662
 20
184.1789552845
 30
0.0
 11
139.9005337548
 21
184.1789552845
 31
0.0
  0
SPLINE
  5
19A
330
1F
100
AcDbEntity
  8
0
  6
Continuous
 62
     7
370
    15
100
AcDbSpline
210
0.0
220
0.0
230
1.0
 70
     8
 71
     3
 72
    12
 73
     8
 74
     0
 42
0.00000001
 43
0.00000001
 12
1.0
 22
0.0
 32
0.0
 13
1.0
 23
0.0
 33
0.0
 40
0.0
 40
0.0
 40
0.0
 40
0.0
 40
0.2146511705884934
 40
0.4293073512466313
 40
0.64388500686201
 40
0.8585000516113845
 40
1.0
 40
1.0
 40
1.0
 40
1.0
 10
137.4005361390346
 20
206.9423416532796
 30
0.0
 10
137.4281282981247
 20
206.7114966361435
 30
0.0
 10
137.4833132603204
 20
206.2498012138287
 30
0.0
 10
137.9140167297783
 20
205.6413065337567
 30
0.0
 10
138.5480554856675
 20
205.185047149212
 30
0.0
 10
139.2510532540104
 20
204.9443414230615
 30
0.0
 10
139.7158498764545
 20
204.9197800190376
 30
0.0
 10
139.9005337548488
 20
204.9100207068246
 30
0.0
  0
SPLINE
  5
19B
330
1F
100
AcDbEntity
  8
0
  6
Continuous
 62
     7
370
    15
100
AcDbSpline
210
0.0
220
0.0
230
1.0
 70
     8
 71
     3
 72
    12
 73
     8
 74
     0
 42
0.00000001
 43
0.00000001
 12
1.0
 22
0.0
 32
0.0
 13
1.0
 23
0.0
 33
0.0
 40
0.0
 40
0.0
 40
0.0
 40
0.0
 40
0.214661936612047
 40
0.4293235561455132
 40
0.643971629894303
 40
0.858567749792101
 40
1.0
 40
1.0
 40
1.0
 40
1.0
 10
159.9005295825237
 20
204.9100207068246
 30
0.0
 10
160.1815865878816
 20
204.9321613391308
 30
0.0
 10
160.7437001834465
 20
204.9764425710392
 30
0.0
 10
161.4928657836981
 20
205.3227900236152
 30
0.0
 10
162.0581686124347
 20
205.8357560838233
 30
0.0
 10
162.3578108064216
 20
206.4085614491045
 30
0.0
 10
162.3883825678229
 20
206.7905834390408
 30
0.0
 10
162.4005271983379
 20
206.9423416532796
 30
0.0
  0
LINE
  5
19C
330
1F
100
AcDbEntity
  8
0
  6
Continuous
 62
     7
370
    15
100
AcDbLine
 10
159.9005295825
 20
204.9100207068
 30
0.0
 11
139.9005337548
 21
204.9100207068
 31
0.0
  0
LINE
  5
19D
330
1F
100
AcDbEntity
  8
0
  6
Continuous
 62
     7
370
    15
100
AcDbLine
 10
335.9005323541
 20
202.0156713106
 30
0.0
 11
335.9005323541
 21
287.886138437
 31
0.0
  0
LINE
  5
19E
330
1F
100
AcDbEntity
  8
0
  6
Continuous
 62
     7
370
    15
100
AcDbLine
 10
335.9005323541
 20
301.3266654589
 30
0.0
 11
335.9005323541
 21
305.3978899397
 31
0.0
  0
LINE
  5
19F
330
1F
100
AcDbEntity
  8
0
  6
Continuous
 62
     7
370
    15
100
AcDbLine
 10
335.9005323541
 20
184.5039198078
 30
0.0
 11
335.9005323541
 21
188.5751442887
 31
0.0
  0
LINE
  5
1A0
330
1F
100
AcDbEntity
  8
0
  6
Continuous
 62
     7
370
    15
100
AcDbLine
 10
335.9005323541
 20
305.3978899397
 30
0.0
 11
335.9005323541
 21
315.6273657359
 31
0.0
  0
LINE
  5
1A1
330
1F
100
AcDbEntity
  8
0
  6
Continuous
 62
     7
370
    15
100
AcDbLine
 10
335.9005323541
 20
174.2744440116
 30
0.0
 11
335.9005323541
 21
184.5039198078
 31
0.0
  0
LINE
  5
1A2
330
1F
100
AcDbEntity
  8
0
  6
Continuous
 62
     7
370
    15
100
AcDbLine
 10
335.9005323541
 20
300.2907739856
 30
0.0
 11
335.9005323541
 21
301.3266654589
 31
0.0
  0
LINE
  5
1A3
330
1F
100
AcDbEntity
  8
0
  6
Continuous
 62
     7
370
    15
100
AcDbLine
 10
335.9005323541
 20
188.5751442887
 30
0.0
 11
335.9005323541
 21
189.611035762
 31
0.0
  0
LINE
  5
1A4
330
1F
100
AcDbEntity
  8
0
  6
Continuous
 62
     7
370
    15
100
AcDbLine
 10
297.4005325628
 20
244.9509048738
 30
0.0
 11
297.4005325628
 21
314.9509051718
 31
0.0
  0
LINE
  5
1A5
330
1F
100
AcDbEntity
  8
0
  6
Continuous
 62
     7
370
    15
100
AcDbLine
 10
297.4005325628
 20
174.9509045758
 30
0.0
 11
297.4005325628
 21
244.9509048738
 31
0.0
  0
LINE
  5
1A6
330
1F
100
AcDbEntity
  8
0
  6
Continuous
 62
     7
370
    15
100
AcDbLine
 10
314.4005334866
 20
263.0990533062
 30
0.0
 11
314.4005334866
 21
312.5574508585
 31
0.0
  0
LINE
  5
1A7
330
1F
100
AcDbEntity
  8
0
  6
Continuous
 62
     7
370
    15
100
AcDbLine
 10
314.4005334866
 20
177.344358889
 30
0.0
 11
314.4005334866
 21
226.8027564414
 31
0.0
  0
LINE
  5
1A8
330
1F
100
AcDbEntity
  8
0
  6
Continuous
 62
     7
370
    15
100
AcDbLine
 10
343.9005336654
 20
300.2907739856
 30
0.0
 11
343.9005336654
 21
287.886138437
 31
0.0
  0
LINE
  5
1A9
330
1F
100
AcDbEntity
  8
0
  6
Continuous
 62
     7
370
    15
100
AcDbLine
 10
335.9005323541
 20
287.886138437
 30
0.0
 11
335.9005323541
 21
300.2907739856
 31
0.0
  0
LINE
  5
1AA
330
1F
100
AcDbEntity
  8
0
  6
Continuous
 62
     7
370
    15
100
AcDbLine
 10
343.9005336654
 20
202.0156713106
 30
0.0
 11
343.9005336654
 21
189.611035762
 31
0.0
  0
LINE
  5
1AB
330
1F
100
AcDbEntity
  8
0
  6
Continuous
 62
     7
370
    15
100
AcDbLine
 10
335.9005323541
 20
189.611035762
 30
0.0
 11
335.9005323541
 21
202.0156713106
 31
0.0
  0
LINE
  5
1AC
330
1F
100
AcDbEntity
  8
0
  6
Continuous
 62
     7
370
    15
100
AcDbLine
 10
295.4005324678
 20
244.9509048738
 30
0.0
 11
295.4005324678
 21
313.9509031452
 31
0.0
  0
LINE
  5
1AD
330
1F
100
AcDbEntity
  8
0
  6
Continuous
 62
     7
370
    15
100
AcDbLine
 10
295.4005324678
 20
175.9509066023
 30
0.0
 11
295.4005324678
 21
244.9509048738
 31
0.0
  0
LINE
  5
1AE
330
1F
100
AcDbEntity
  8
0
  6
Continuous
 62
     7
370
    15
100
AcDbLine
 10
335.9005323541
 20
315.6273657359
 30
0.0
 11
335.9005323541
 21
316.3474792518
 31
0.0
  0
LINE
  5
1AF
330
1F
100
AcDbEntity
  8
0
  6
Continuous
 62
     7
370
    15
100
AcDbLine
 10
335.9005323541
 20
173.5543304958
 30
0.0
 11
335.9005323541
 21
174.2744440116
 31
0.0
  0
LINE
  5
1B0
330
1F
100
AcDbEntity
  8
0
  6
Continuous
 62
     7
370
    15
100
AcDbLine
 10
335.9005323541
 20
316.3474792518
 30
0.0
 11
335.9005323541
 21
325.4509040989
 31
0.0
  0
LINE
  5
1B1
330
1F
100
AcDbEntity
  8
0
  6
Continuous
 62
     7
370
    15
100
AcDbLine
 10
335.9005323541
 20
164.4509056486
 30
0.0
 11
335.9005323541
 21
173.5543304958
 31
0.0
  0
LINE
  5
1B2
330
1F
100
AcDbEntity
  8
0
  6
Continuous
 62
     7
370
    15
100
AcDbLine
 10
335.9005323541
 20
302.9509032049
 30
0.0
 11
314.4005334866
 21
302.9509032049
 31
0.0
  0
LINE
  5
1B3
330
1F
100
AcDbEntity
  8
0
  6
Continuous
 62
     7
370
    15
100
AcDbLine
 10
335.9005323541
 20
186.9509065427
 30
0.0
 11
314.4005334866
 21
186.9509065427
 31
0.0
  0
LINE
  5
1B4
330
1F
100
AcDbEntity
  8
SLD-0
  6
CENTERX2
370
     0
100
AcDbLine
 10
456.9240135572
 20
244.9509048738
 30
0.0
 11
91.9009519534
 21
244.9509048738
 31
0.0
  0
LINE
  5
1B5
330
1F
100
AcDbEntity
  8
SLD-0
  6
CENTERX2
370
     0
100
AcDbLine
 10
373.9005325628
 20
338.1710827805
 30
0.0
 11
373.9005325628
 21
403.5827457581
 31
0.0
  0
LINE
  5
1B6
330
1F
100
AcDbEntity
  8
SLD-0
  6
CENTERX2
370
     0
100
AcDbLine
 10
373.9005325628
 20
81.6946411962
 30
0.0
 11
373.9005325628
 21
129.1873858033
 31
0.0
  0
LINE
  5
1B7
330
1F
100
AcDbEntity
  8
0
  6
Continuous
 62
     7
370
    15
100
AcDbLine
 10
561.5148558151
 20
252.9509052538
 30
0.0
 11
555.5148585569
 21
252.9509052538
 31
0.0
  0
LINE
  5
1B8
330
1F
100
AcDbEntity
  8
0
  6
Continuous
 62
     7
370
    15
100
AcDbLine
 10
555.5148585569
 20
236.9509044938
 30
0.0
 11
561.5148558151
 21
236.9509044938
 31
0.0
  0
LINE
  5
1B9
330
1F
100
AcDbEntity
  8
0
  6
Continuous
 62
     7
370
    15
100
AcDbLine
 10
562.5148578417
 20
251.4509050079
 30
0.0
 11
561.5148558151
 21
251.4509050079
 31
0.0
  0
LINE
  5
1BA
330
1F
100
AcDbEntity
  8
0
  6
Continuous
 62
     7
370
    15
100
AcDbLine
 10
561.5148558151
 20
238.4509047397
 30
0.0
 11
562.5148578417
 21
238.4509047397
 31
0.0
  0
SPLINE
  5
1BB
330
1F
100
AcDbEntity
  8
0
  6
Continuous
 62
     7
370
    15
100
AcDbSpline
210
0.0
220
0.0
230
1.0
 70
     8
 71
     3
 72
    26
 73
    22
 74
     0
 42
0.00000001
 43
0.00000001
 12
1.0
 22
0.0
 32
0.0
 13
1.0
 23
0.0
 33
0.0
 40
0.0
 40
0.0
 40
0.0
 40
0.0
 40
0.0372065358411176
 40
0.1106018352382103
 40
0.1903078062566575
 40
0.2745766944749638
 40
0.3612011189812274
 40
0.3832026047539928
 40
0.4053973730710089
 40
0.4296119915842693
 40
0.4739242278655641
 40
0.5194358758415926
 40
0.5660456844463896
 40
0.6223864565491994
 40
0.6801922824529439
 40
0.74020935158373
 40
0.802378806823854
 40
0.8661220681135162
 40
0.9314391823435294
 40
0.998330167780599
 40
1.0
 40
1.0
 40
1.0
 40
1.0
 10
680.0892292391704
 20
120.2551940359396
 30
0.0
 10
680.274892129588
 20
121.4519261896118
 30
0.0
 10
680.8268020548629
 20
125.0093864447115
 30
0.0
 10
681.7451543524563
 20
131.2144972921109
 30
0.0
 10
682.8915317640893
 20
139.0319831852435
 30
0.0
 10
684.1157032339424
 20
147.388978256932
 30
0.0
 10
685.1064349671694
 20
153.9465068727915
 30
0.0
 10
685.7887542362936
 20
158.2216116518803
 30
0.0
 10
686.1572914086365
 20
160.2934300431577
 30
0.0
 10
686.59803135395
 20
163.7202805457838
 30
0.0
 10
687.1115875428549
 20
168.4870008976085
 30
0.0
 10
687.7405976652952
 20
174.0216960587707
 30
0.0
 10
688.4209682578821
 20
180.0973606683902
 30
0.0
 10
689.1588637194086
 20
186.6454365451162
 30
0.0
 10
689.9590636410189
 20
193.8450648024345
 30
0.0
 10
690.787573400369
 20
201.4054607828943
 30
0.0
 10
691.6300357388466
 20
209.1854386238289
 30
0.0
 10
692.5004018551614
 20
217.1954916141277
 30
0.0
 10
693.3913322713677
 20
225.4009243066181
 30
0.0
 10
694.0002627745707
 20
231.0074877331981
 30
0.0
 10
694.3121379976955
 20
233.8786026538265
 30
0.0
 10
694.3197338711666
 20
233.94853006082
 30
0.0
  0
SPLINE
  5
1BC
330
1F
100
AcDbEntity
  8
0
  6
Continuous
 62
     7
370
    15
100
AcDbSpline
210
0.0
220
0.0
230
1.0
 70
     8
 71
     3
 72
    28
 73
    24
 74
     0
 42
0.00000001
 43
0.00000001
 12
1.0
 22
0.0
 32
0.0
 13
1.0
 23
0.0
 33
0.0
 40
0.0
 40
0.0
 40
0.0
 40
0.0
 40
0.0393144277589313
 40
0.0950106477092498
 40
0.150121880531128
 40
0.2046480445358166
 40
0.2585890682545319
 40
0.3116641922553196
 40
0.3803932051443396
 40
0.4482118624548234
 40
0.4745760323810791
 40
0.5007825998591251
 40
0.5268315947476744
 40
0.5525866582135608
 40
0.5741968254759803
 40
0.5943071422020019
 40
0.6144772500021933
 40
0.6347188207957034
 40
0.6990292305696955
 40
0.8153057715882981
 40
0.8830267916981114
 40
0.9480263370168519
 40
1.0
 40
1.0
 40
1.0
 40
1.0
 10
607.9434952568458
 20
239.9487429201823
 30
0.0
 10
608.1017461651464
 20
238.1018675848645
 30
0.0
 10
608.4841890024276
 20
233.6385488530555
 30
0.0
 10
609.0882811970711
 20
226.5862708988506
 30
0.0
 10
609.753364891771
 20
218.8201996450941
 30
0.0
 10
610.411542967242
 20
211.1342067345867
 30
0.0
 10
611.0603097171908
 20
203.5532163622927
 30
0.0
 10
611.7704505881384
 20
195.2688233087073
 30
0.0
 10
612.5437517435122
 20
186.4599714858922
 30
0.0
 10
613.2044120789799
 20
179.01914941761
 30
0.0
 10
613.6934872957295
 20
173.5019569877552
 30
0.0
 10
614.0124192339949
 20
169.8944547431281
 30
0.0
 10
614.3304510040135
 20
166.3382801605859
 30
0.0
 10
614.6243355789487
 20
162.9072104765577
 30
0.0
 10
614.9195322767472
 20
160.1177398660697
 30
0.0
 10
615.2154028735112
 20
158.0251871529255
 30
0.0
 10
615.4953642946028
 20
155.8059976341867
 30
0.0
 10
615.9786357940275
 20
151.9351169974831
 30
0.0
 10
616.8826936018249
 20
144.2632796977576
 30
0.0
 10
617.9475388728088
 20
135.0268349635749
 30
0.0
 10
619.0213332644037
 20
125.8273107941348
 30
0.0
 10
619.829064288911
 20
119.0589955962433
 30
0.0
 10
620.3710247456314
 20
114.8200317105393
 30
0.0
 10
620.6118292045044
 20
112.9365706719679
 30
0.0
  0
LINE
  5
1BD
330
1F
100
AcDbEntity
  8
0
  6
Continuous
 62
     7
370
    15
100
AcDbLine
 10
579.5148550403
 20
392.9509067811
 30
0.0
 11
579.5148550403
 21
379.9509102382
 31
0.0
  0
LINE
  5
1BE
330
1F
100
AcDbEntity
  8
0
  6
Continuous
 62
     7
370
    15
100
AcDbLine
 10
719.5148556363
 20
387.9509115495
 30
0.0
 11
719.5148556363
 21
392.9509067811
 31
0.0
  0
ARC
  5
1BF
330
1F
100
AcDbEntity
  8
0
  6
Continuous
 62
     7
370
    15
100
AcDbCircle
 10
582.5148553383
 20
109.9509048738
 30
0.0
 40
3.0
100
AcDbArc
 50
90.0
 51
180.0
  0
ARC
  5
1C0
330
1F
100
AcDbEntity
  8
0
  6
Continuous
 62
     7
370
    15
100
AcDbCircle
 10
582.5148553383
 20
379.9509048738
 30
0.0
 40
3.0
100
AcDbArc
 50
180.0
 51
270.0
  0
LINE
  5
1C1
330
1F
100
AcDbEntity
  8
0
  6
Continuous
 62
     7
370
    15
100
AcDbLine
 10
719.5148556363
 20
96.9509029664
 30
0.0
 11
719.5148556363
 21
101.9508981981
 31
0.0
  0
LINE
  5
1C2
330
1F
100
AcDbEntity
  8
0
  6
Continuous
 62
     7
370
    15
100
AcDbLine
 10
579.5148550403
 20
109.9508995094
 30
0.0
 11
579.5148550403
 21
96.9509029664
 31
0.0
  0
LINE
  5
1C3
330
1F
100
AcDbEntity
  8
0
  6
Continuous
 62
     7
370
    15
100
AcDbLine
 10
607.0148548912
 20
394.9509108342
 30
0.0
 11
607.0148548912
 21
392.9509067811
 31
0.0
  0
LINE
  5
1C4
330
1F
100
AcDbEntity
  8
0
  6
Continuous
 62
     7
370
    15
100
AcDbLine
 10
692.0148557853
 20
392.9509067811
 30
0.0
 11
692.0148557853
 21
394.9509108342
 31
0.0
  0
LINE
  5
1C5
330
1F
100
AcDbEntity
  8
0
  6
Continuous
 62
     7
370
    15
100
AcDbLine
 10
692.0148557853
 20
94.9508989133
 30
0.0
 11
692.0148557853
 21
96.9509029664
 31
0.0
  0
LINE
  5
1C6
330
1F
100
AcDbEntity
  8
0
  6
Continuous
 62
     7
370
    15
100
AcDbLine
 10
607.0148548912
 20
96.9509029664
 30
0.0
 11
607.0148548912
 21
94.9508989133
 31
0.0
  0
SPLINE
  5
1C7
330
1F
100
AcDbEntity
  8
0
  6
Continuous
 62
     7
370
    15
100
AcDbSpline
210
0.0
220
0.0
230
1.0
 70
     8
 71
     3
 72
     9
 73
     5
 74
     0
 42
0.00000001
 43
0.00000001
 12
1.0
 22
0.0
 32
0.0
 13
1.0
 23
0.0
 33
0.0
 40
0.0
 40
0.0
 40
0.0
 40
0.0
 40
0.3965877742528999
 40
1.0
 40
1.0
 40
1.0
 40
1.0
 10
692.9945177268432
 20
345.6221291698736
 30
0.0
 10
692.849916832213
 20
345.6980612187225
 30
0.0
 10
692.4853042444882
 20
345.8895246318142
 30
0.0
 10
692.1525490787294
 20
346.1093498809434
 30
0.0
 10
691.9517605435299
 20
346.2419951237958
 30
0.0
  0
SPLINE
  5
1C8
330
1F
100
AcDbEntity
  8
0
  6
Continuous
 62
     7
370
    15
100
AcDbSpline
210
0.0
220
0.0
230
1.0
 70
     8
 71
     3
 72
    27
 73
    23
 74
     0
 42
0.00000001
 43
0.00000001
 12
1.0
 22
0.0
 32
0.0
 13
1.0
 23
0.0
 33
0.0
 40
0.0
 40
0.0
 40
0.0
 40
0.0
 40
0.0662902933354865
 40
0.1281520092868858
 40
0.1857420539577781
 40
0.2391723216908855
 40
0.2885332102901449
 40
0.3339041383501289
 40
0.3831523588754059
 40
0.4267767287626361
 40
0.4647856383994884
 40
0.4971435427616298
 40
0.5292757021958376
 40
0.5673226061004081
 40
0.611293199591467
 40
0.6611761488050936
 40
0.716943938090835
 40
0.778543175250461
 40
0.8342625975941221
 40
0.8938691431467793
 40
0.9572824159707259
 40
1.0
 40
1.0
 40
1.0
 40
1.0
 10
747.1333383452343
 20
228.8632796980661
 30
0.0
 10
747.5994616089067
 20
231.8576391072251
 30
0.0
 10
748.5005683895432
 20
237.6463172907534
 30
0.0
 10
748.9611691097697
 20
246.1328976348461
 30
0.0
 10
748.8567493836799
 20
254.0358034544045
 30
0.0
 10
748.253406563405
 20
261.344350072605
 30
0.0
 10
747.2762470508638
 20
268.0468687579764
 30
0.0
 10
745.949459519654
 20
274.4934085085181
 30
0.0
 10
744.3177130720892
 20
280.5993355353107
 30
0.0
 10
742.4455142931884
 20
286.2815493584599
 30
0.0
 10
740.5688085726255
 20
291.1418599566964
 30
0.0
 10
738.6951110564295
 20
295.4350731189197
 30
0.0
 10
736.6538897710813
 20
299.6531104997208
 30
0.0
 10
734.1834518337687
 20
304.2483969071637
 30
0.0
 10
731.0676232753799
 20
309.4101600244047
 30
0.0
 10
727.2027207890168
 20
315.0540153209921
 30
0.0
 10
722.4775629588341
 20
321.067275127818
 30
0.0
 10
717.1510556154392
 20
326.922316818774
 30
0.0
 10
711.2993688342698
 20
332.5095395346152
 30
0.0
 10
704.9932460089489
 20
337.7044697093022
 30
0.0
 10
698.844594241215
 20
342.1491946866143
 30
0.0
 10
694.6386236393579
 20
344.5664586027127
 30
0.0
 10
692.945723874514
 20
345.5394053735059
 30
0.0
  0
SPLINE
  5
1C9
330
1F
100
AcDbEntity
  8
0
  6
Continuous
 62
     7
370
    15
100
AcDbSpline
210
0.0
220
0.0
230
1.0
 70
     8
 71
     3
 72
    11
 73
     7
 74
     0
 42
0.00000001
 43
0.00000001
 12
1.0
 22
0.0
 32
0.0
 13
1.0
 23
0.0
 33
0.0
 40
0.0
 40
0.0
 40
0.0
 40
0.0
 40
0.1406786875935003
 40
0.452936571993465
 40
0.739381293994945
 40
1.0
 40
1.0
 40
1.0
 40
1.0
 10
627.3725046646045
 20
322.2754740990919
 30
0.0
 10
626.479893017981
 20
322.0371788099297
 30
0.0
 10
623.6059931667725
 20
321.2699506445151
 30
0.0
 10
619.0663786516855
 20
319.5242161983003
 30
0.0
 10
613.9058344755674
 20
317.2357822161492
 30
0.0
 10
610.762382816445
 20
315.4951703879465
 30
0.0
 10
609.2648557257103
 20
314.6659502662939
 30
0.0
  0
SPLINE
  5
1CA
330
1F
100
AcDbEntity
  8
0
  6
Continuous
 62
     7
370
    15
100
AcDbSpline
210
0.0
220
0.0
230
1.0
 70
     8
 71
     3
 72
    11
 73
     7
 74
     0
 42
0.00000001
 43
0.00000001
 12
1.0
 22
0.0
 32
0.0
 13
1.0
 23
0.0
 33
0.0
 40
0.0
 40
0.0
 40
0.0
 40
0.0
 40
0.2488406979646389
 40
0.4980985175381252
 40
0.748294705829415
 40
1.0
 40
1.0
 40
1.0
 40
1.0
 10
609.2648557257103
 20
314.6659502662939
 30
0.0
 10
607.1687857245906
 20
313.3813931186625
 30
0.0
 10
602.9731321648894
 20
310.8101255721492
 30
0.0
 10
597.161079208757
 20
306.2293461229671
 30
0.0
 10
591.7075377208669
 20
301.1849887760434
 30
0.0
 10
588.4917763037555
 20
297.4106220965053
 30
0.0
 10
586.8790610563206
 20
295.5177644171041
 30
0.0
  0
SPLINE
  5
1CB
330
1F
100
AcDbEntity
  8
0
  6
Continuous
 62
     7
370
    15
100
AcDbSpline
210
0.0
220
0.0
230
1.0
 70
     8
 71
     3
 72
    24
 73
    20
 74
     0
 42
0.00000001
 43
0.00000001
 12
1.0
 22
0.0
 32
0.0
 13
1.0
 23
0.0
 33
0.0
 40
0.0
 40
0.0
 40
0.0
 40
0.0
 40
0.0374180444942232
 40
0.0971197596254686
 40
0.1508645038200166
 40
0.1984240738596516
 40
0.2395837542628287
 40
0.2743862119884207
 40
0.309074034519097
 40
0.3611236764724824
 40
0.422800572080893
 40
0.4941054849599698
 40
0.5750925559013659
 40
0.6345351841029255
 40
0.6984056796665604
 40
0.7667987914495981
 40
0.8398470002385913
 40
0.9176916319220996
 40
1.0
 40
1.0
 40
1.0
 40
1.0
 10
685.8255318235801
 20
158.4061154999059
 30
0.0
 10
686.9732074382233
 20
158.8098354307007
 30
0.0
 10
689.952037073197
 20
159.8577037296667
 30
0.0
 10
694.4254973828879
 20
161.8826136523991
 30
0.0
 10
699.0834648833224
 20
164.2709735025675
 30
0.0
 10
703.0829011313133
 20
166.609333813809
 30
0.0
 10
706.4580010681277
 20
168.7854541235312
 30
0.0
 10
709.4040865991717
 20
170.8490593186233
 30
0.0
 10
712.5592960431385
 20
173.2271175684432
 30
0.0
 10
716.2834949575606
 20
176.2972703074399
 30
0.0
 10
720.7012484304687
 20
180.3844314341069
 30
0.0
 10
725.4840743870113
 20
185.4421560220932
 30
0.0
 10
729.822026152629
 20
190.7958876112016
 30
0.0
 10
733.630721563552
 20
196.2403112608543
 30
0.0
 10
736.8816649967729
 20
201.5613526689251
 30
0.0
 10
739.978172797022
 20
207.4793243260353
 30
0.0
 10
742.8239275634307
 20
214.0195007794776
 30
0.0
 10
745.3318521611352
 20
221.18632437987
 30
0.0
 10
746.5217877743148
 20
226.2571834375416
 30
0.0
 10
747.1333383452343
 20
228.8632796980661
 30
0.0
  0
SPLINE
  5
1CC
330
1F
100
AcDbEntity
  8
0
  6
Continuous
 62
     7
370
    15
100
AcDbSpline
210
0.0
220
0.0
230
1.0
 70
     8
 71
     3
 72
    11
 73
     7
 74
     0
 42
0.00000001
 43
0.00000001
 12
1.0
 22
0.0
 32
0.0
 13
1.0
 23
0.0
 33
0.0
 40
0.0
 40
0.0
 40
0.0
 40
0.0
 40
0.267152385201159
 40
0.5232571555464948
 40
0.7922928518632311
 40
1.0
 40
1.0
 40
1.0
 40
1.0
 10
594.4404876660751
 20
175.741761354379
 30
0.0
 10
596.0739306390262
 20
174.2890565995189
 30
0.0
 10
599.2732684369283
 20
171.4437211281376
 30
0.0
 10
604.5910961766547
 20
167.7299661247335
 30
0.0
 10
609.6858614833205
 20
164.5624735551387
 30
0.0
 10
613.1916180736295
 20
162.8546260150287
 30
0.0
 10
614.7190048229145
 20
162.110551623277
 30
0.0
  0
SPLINE
  5
1CD
330
1F
100
AcDbEntity
  8
0
  6
Continuous
 62
     7
370
    15
100
AcDbSpline
210
0.0
220
0.0
230
1.0
 70
     8
 71
     3
 72
    17
 73
    13
 74
     0
 42
0.00000001
 43
0.00000001
 12
1.0
 22
0.0
 32
0.0
 13
1.0
 23
0.0
 33
0.0
 40
0.0
 40
0.0
 40
0.0
 40
0.0
 40
0.0776993905482102
 40
0.2158167229769185
 40
0.2899639693811393
 40
0.3606543135832528
 40
0.4325090044195623
 40
0.5215950275364976
 40
0.629521879707042
 40
0.7565134349360197
 40
0.9017349521034586
 40
1.0
 40
1.0
 40
1.0
 40
1.0
 10
565.5713542234348
 20
236.0087143160623
 30
0.0
 10
565.6123692568284
 20
234.7511395736833
 30
0.0
 10
565.7262920307053
 20
231.2581178410303
 30
0.0
 10
566.3992775616628
 20
226.601454020986
 30
0.0
 10
567.2628636944881
 20
222.1037409700737
 30
0.0
 10
568.0801131740078
 20
218.6911674445981
 30
0.0
 10
569.1023483323019
 20
215.0827846804536
 30
0.0
 10
570.4857133832598
 20
210.954278779879
 30
0.0
 10
572.4392016327046
 20
206.0824608804682
 30
0.0
 10
575.1088668014174
 20
200.5364290783685
 30
0.0
 10
577.9983904313866
 20
195.2688882112698
 30
0.0
 10
580.248597614856
 20
192.0308049333573
 30
0.0
 10
581.1567245852398
 20
190.7239960409921
 30
0.0
  0
SPLINE
  5
1CE
330
1F
100
AcDbEntity
  8
0
  6
Continuous
 62
     7
370
    15
100
AcDbSpline
210
0.0
220
0.0
230
1.0
 70
     8
 71
     3
 72
    16
 73
    12
 74
     0
 42
0.00000001
 43
0.00000001
 12
1.0
 22
0.0
 32
0.0
 13
1.0
 23
0.0
 33
0.0
 40
0.0
 40
0.0
 40
0.0
 40
0.0
 40
0.1535144300409299
 40
0.3216598688810057
 40
0.4726485959456821
 40
0.6067257257844346
 40
0.7239096530404955
 40
0.8236752343060513
 40
0.9080237070038155
 40
0.9899803449945219
 40
1.0
 40
1.0
 40
1.0
 40
1.0
 10
585.9434916507648
 20
294.386241016559
 30
0.0
 10
584.420685947658
 20
292.621042095443
 30
0.0
 10
581.2299404088703
 20
288.9224083359737
 30
0.0
 10
577.2875318689722
 20
282.9084354323484
 30
0.0
 10
573.9946868322671
 20
276.8657147471604
 30
0.0
 10
571.5336541168937
 20
271.2720070602654
 30
0.0
 10
569.7501660218273
 20
266.251340647933
 30
0.0
 10
568.3990952653686
 20
261.880648332607
 30
0.0
 10
567.450135135797
 20
257.9577151078939
 30
0.0
 10
566.8468174491807
 20
255.3457559600014
 30
0.0
 10
566.667907575343
 20
253.9615776098595
 30
0.0
 10
566.6484176051067
 20
253.8107888676446
 30
0.0
  0
SPLINE
  5
1CF
330
1F
100
AcDbEntity
  8
0
  6
Continuous
 62
     7
370
    15
100
AcDbSpline
210
0.0
220
0.0
230
1.0
 70
     8
 71
     3
 72
    20
 73
    16
 74
     0
 42
0.00000001
 43
0.00000001
 12
1.0
 22
0.0
 32
0.0
 13
1.0
 23
0.0
 33
0.0
 40
0.0
 40
0.0
 40
0.0
 40
0.0
 40
0.0252400976458865
 40
0.1326711593096148
 40
0.2442386732337574
 40
0.3388500271777439
 40
0.4334336502187874
 40
0.5345850672493221
 40
0.6175189672192136
 40
0.6936357149815371
 40
0.7623902066095626
 40
0.8291336755061168
 40
0.9024692722166744
 40
0.9908988007271174
 40
1.0
 40
1.0
 40
1.0
 40
1.0
 10
629.8398556988882
 20
329.7999942578596
 30
0.0
 10
629.8974601346581
 20
329.7273887540009
 30
0.0
 10
630.2002500597282
 20
329.3457477435607
 30
0.0
 10
630.5302454886037
 20
328.4862192009953
 30
0.0
 10
630.7472206959641
 20
327.3474032487438
 30
0.0
 10
630.6840586539834
 20
326.2365477954061
 30
0.0
 10
630.4099729748292
 20
325.2105920150066
 30
0.0
 10
629.9411262332817
 20
324.3039093919788
 30
0.0
 10
629.3597476539294
 20
323.5821286567069
 30
0.0
 10
628.7817805766122
 20
323.0715276941831
 30
0.0
 10
628.255799919356
 20
322.7275238004925
 30
0.0
 10
627.8340686801972
 20
322.5164266291329
 30
0.0
 10
627.5413988995547
 20
322.3997158866587
 30
0.0
 10
627.3971460321418
 20
322.3532582970408
 30
0.0
 10
627.3752944204942
 20
322.347022756388
 30
0.0
 10
627.3732553105997
 20
322.3464408792776
 30
0.0
  0
SPLINE
  5
1D0
330
1F
100
AcDbEntity
  8
0
  6
Continuous
 62
     7
370
    15
100
AcDbSpline
210
0.0
220
0.0
230
1.0
 70
     8
 71
     3
 72
    11
 73
     7
 74
     0
 42
0.00000001
 43
0.00000001
 12
1.0
 22
0.0
 32
0.0
 13
1.0
 23
0.0
 33
0.0
 40
0.0
 40
0.0
 40
0.0
 40
0.0
 40
0.1631067927426642
 40
0.4692499121583537
 40
0.7730681310698957
 40
1.0
 40
1.0
 40
1.0
 40
1.0
 10
622.753746328895
 20
346.7794502057355
 30
0.0
 10
622.9464950726982
 20
345.790677357403
 30
0.0
 10
623.5010233641161
 20
342.9460283736132
 30
0.0
 10
625.147722003599
 20
338.4513593436586
 30
0.0
 10
627.3172073551455
 20
333.74949695635
 30
0.0
 10
629.1336432362091
 20
331.0157562873341
 30
0.0
 10
629.9102934878515
 20
329.8468956627172
 30
0.0
  0
LINE
  5
1D1
330
1F
100
AcDbEntity
  8
0
  6
Continuous
 62
     7
370
    15
100
AcDbLine
 10
562.5148578417
 20
233.4509048514
 30
0.0
 11
565.6386404168
 21
233.4509048514
 31
0.0
  0
LINE
  5
1D2
330
1F
100
AcDbEntity
  8
0
  6
Continuous
 62
     7
370
    15
100
AcDbLine
 10
567.1025453937
 20
256.4509048961
 30
0.0
 11
562.5148578417
 21
256.4509048961
 31
0.0
  0
LINE
  5
1D3
330
1F
100
AcDbEntity
  8
0
  6
Continuous
 62
     7
370
    15
100
AcDbLine
 10
699.5148560833
 20
357.9509029068
 30
0.0
 11
719.5148556363
 21
357.9509029068
 31
0.0
  0
LINE
  5
1D4
330
1F
100
AcDbEntity
  8
0
  6
Continuous
 62
     7
370
    15
100
AcDbLine
 10
719.5148556363
 20
131.9509068407
 30
0.0
 11
694.5148571264
 21
131.9509068407
 31
0.0
  0
SPLINE
  5
1D5
330
1F
100
AcDbEntity
  8
0
  6
Continuous
 62
     7
370
    15
100
AcDbSpline
210
0.0
220
0.0
230
1.0
 70
     8
 71
     3
 72
    11
 73
     7
 74
     0
 42
0.00000001
 43
0.00000001
 12
1.0
 22
0.0
 32
0.0
 13
1.0
 23
0.0
 33
0.0
 40
0.0
 40
0.0
 40
0.0
 40
0.0
 40
0.3268694757040986
 40
0.631078170968941
 40
0.9157937390112768
 40
0.9999999999999999
 40
0.9999999999999999
 40
0.9999999999999999
 40
0.9999999999999999
 10
692.9908855688024
 20
345.6154907025618
 30
0.0
 10
691.3225272375178
 20
346.7090700584594
 30
0.0
 10
688.101472344093
 20
348.8204145278159
 30
0.0
 10
684.3042699160891
 20
352.9298836959862
 30
0.0
 10
681.8790535546052
 20
356.2660096759652
 30
0.0
 10
680.9697463516651
 20
358.3122436242886
 30
0.0
 10
680.7621973436521
 20
358.7792957104963
 30
0.0
  0
SPLINE
  5
1D6
330
1F
100
AcDbEntity
  8
0
  6
Continuous
 62
     7
370
    15
100
AcDbSpline
210
0.0
220
0.0
230
1.0
 70
     8
 71
     3
 72
    10
 73
     6
 74
     0
 42
0.00000001
 43
0.00000001
 12
1.0
 22
0.0
 32
0.0
 13
1.0
 23
0.0
 33
0.0
 40
0.0
 40
0.0
 40
0.0
 40
0.0
 40
0.2314242403451535
 40
0.8618063751026974
 40
1.0
 40
1.0
 40
1.0
 40
1.0
 10
557.5279532801555
 20
253.8807116352242
 30
0.0
 10
557.5012341074959
 20
253.8118656846294
 30
0.0
 10
557.4017339285115
 20
253.5554885694485
 30
0.0
 10
557.3570806484367
 20
253.4366262110611
 30
0.0
 10
557.3512463612266
 20
253.4214029566467
 30
0.0
 10
557.3501973282741
 20
253.4186657421511
 30
0.0
  0
LINE
  5
1D7
330
1F
100
AcDbEntity
  8
0
  6
Continuous
 62
     7
370
    15
100
AcDbLine
 10
561.5148558151
 20
244.9509048738
 30
0.0
 11
561.5148558151
 21
236.9509044938
 31
0.0
  0
LINE
  5
1D8
330
1F
100
AcDbEntity
  8
0
  6
Continuous
 62
     7
370
    15
100
AcDbLine
 10
561.5148558151
 20
252.9509052538
 30
0.0
 11
561.5148558151
 21
244.9509048738
 31
0.0
  0
LINE
  5
1D9
330
1F
100
AcDbEntity
  8
0
  6
Continuous
 62
     7
370
    15
100
AcDbLine
 10
555.5148585569
 20
243.7009049017
 30
0.0
 11
555.5148585569
 21
236.9509044938
 31
0.0
  0
LINE
  5
1DA
330
1F
100
AcDbEntity
  8
0
  6
Continuous
 62
     7
370
    15
100
AcDbLine
 10
558.514857186
 20
243.7009049017
 30
0.0
 11
555.5148585569
 21
243.7009049017
 31
0.0
  0
LINE
  5
1DB
330
1F
100
AcDbEntity
  8
0
  6
Continuous
 62
     7
370
    15
100
AcDbLine
 10
558.514857186
 20
243.7009049017
 30
0.0
 11
558.514857186
 21
246.2009048458
 31
0.0
  0
LINE
  5
1DC
330
1F
100
AcDbEntity
  8
0
  6
Continuous
 62
     7
370
    15
100
AcDbLine
 10
555.5148585569
 20
246.2009048458
 30
0.0
 11
558.514857186
 21
246.2009048458
 31
0.0
  0
LINE
  5
1DD
330
1F
100
AcDbEntity
  8
0
  6
Continuous
 62
     7
370
    15
100
AcDbLine
 10
555.5148585569
 20
252.9509052538
 30
0.0
 11
555.5148585569
 21
246.2009048458
 31
0.0
  0
ARC
  5
1DE
330
1F
100
AcDbEntity
  8
0
  6
Continuous
 62
     7
370
    15
100
AcDbCircle
 10
651.5148553383
 20
244.9509048738
 30
0.0
 40
44.00000000000011
100
AcDbArc
 50
14.4775121859
 51
173.4750211559
  0
ARC
  5
1DF
330
1F
100
AcDbEntity
  8
0
  6
Continuous
 62
     7
370
    15
100
AcDbCircle
 10
651.5148553383
 20
244.9509048738
 30
0.0
 40
31.14213562373107
100
AcDbArc
 50
6.4529873635
 51
20.6843422176
  0
LINE
  5
1E0
330
1F
100
AcDbEntity
  8
0
  6
Continuous
 62
     7
370
    15
100
AcDbLine
 10
681.3738210928
 20
233.9509049334
 30
0.0
 11
682.2487688493
 21
241.4509047657
 31
0.0
  0
SPLINE
  5
1E1
330
1F
100
AcDbEntity
  8
0
  6
Continuous
 62
     7
370
    15
100
AcDbSpline
210
0.0
220
0.0
230
1.0
 70
     8
 71
     3
 72
    10
 73
     6
 74
     0
 42
0.00000001
 43
0.00000001
 12
1.0
 22
0.0
 32
0.0
 13
1.0
 23
0.0
 33
0.0
 40
0.0
 40
0.0
 40
0.0
 40
0.0
 40
0.3212526392624944
 40
0.6683748936166759
 40
1.0
 40
1.0
 40
1.0
 40
1.0
 10
678.6081134211468
 20
112.9509055890363
 30
0.0
 10
678.7923064499903
 20
113.7167961991647
 30
0.0
 10
679.1755250792314
 20
115.3102525400736
 30
0.0
 10
679.6891882522414
 20
117.7891778748282
 30
0.0
 10
679.9588259507578
 20
119.445646457946
 30
0.0
 10
680.0905666183876
 20
120.2549705185217
 30
0.0
  0
ARC
  5
1E2
330
1F
100
AcDbEntity
  8
0
  6
Continuous
 62
     7
370
    15
100
AcDbCircle
 10
717.5148553383
 20
246.4509048738
 30
0.0
 40
2.0
100
AcDbArc
 50
360.0
 51
90.0
  0
LINE
  5
1E3
330
1F
100
AcDbEntity
  8
0
  6
Continuous
 62
     7
370
    15
100
AcDbLine
 10
719.5148556363
 20
246.4509048868
 30
0.0
 11
719.5148556363
 21
243.4509048607
 31
0.0
  0
ARC
  5
1E4
330
1F
100
AcDbEntity
  8
0
  6
Continuous
 62
     7
370
    15
100
AcDbCircle
 10
717.5148553383
 20
243.4509048738
 30
0.0
 40
2.0
100
AcDbArc
 50
270.0
 51
360.0
  0
ARC
  5
1E5
330
1F
100
AcDbEntity
  8
0
  6
Continuous
 62
     7
370
    15
100
AcDbCircle
 10
581.5148553383
 20
241.9509048738
 30
0.0
 40
2.000000000000114
100
AcDbArc
 50
179.9999999993
 51
270.0
  0
LINE
  5
1E6
330
1F
100
AcDbEntity
  8
0
  6
Continuous
 62
     7
370
    15
100
AcDbLine
 10
579.5148550403
 20
247.9509048999
 30
0.0
 11
579.5148550403
 21
241.9509048477
 31
0.0
  0
ARC
  5
1E7
330
1F
100
AcDbEntity
  8
0
  6
Continuous
 62
     7
370
    15
100
AcDbCircle
 10
581.5148553383
 20
247.9509048738
 30
0.0
 40
2.0
100
AcDbArc
 50
90.0
 51
180.0
  0
LINE
  5
1E8
330
1F
100
AcDbEntity
  8
0
  6
Continuous
 62
     7
370
    15
100
AcDbLine
 10
649.5148553383
 20
241.4509047657
 30
0.0
 11
717.5148590338
 21
241.4509047657
 31
0.0
  0
LINE
  5
1E9
330
1F
100
AcDbEntity
  8
0
  6
Continuous
 62
     7
370
    15
100
AcDbLine
 10
717.5148590338
 20
248.4509049818
 30
0.0
 11
668.1506591719
 21
248.4509049818
 31
0.0
  0
LINE
  5
1EA
330
1F
100
AcDbEntity
  8
0
  6
Continuous
 62
     7
370
    15
100
AcDbLine
 10
635.2667785119
 20
249.950904762
 30
0.0
 11
581.5148516428
 21
249.950904762
 31
0.0
  0
LINE
  5
1EB
330
1F
100
AcDbEntity
  8
0
  6
Continuous
 62
     7
370
    15
100
AcDbLine
 10
581.5148516428
 20
239.9509049855
 30
0.0
 11
649.5148553383
 21
239.9509049855
 31
0.0
  0
LINE
  5
1EC
330
1F
100
AcDbEntity
  8
0
  6
Continuous
 62
     7
370
    15
100
AcDbLine
 10
650.7648553103
 20
162.4509015955
 30
0.0
 11
650.7648553103
 21
177.4509021916
 31
0.0
  0
LINE
  5
1ED
330
1F
100
AcDbEntity
  8
0
  6
Continuous
 62
     7
370
    15
100
AcDbLine
 10
652.0148552824
 20
161.2009027876
 30
0.0
 11
650.7648553103
 21
162.4509015955
 31
0.0
  0
SPLINE
  5
1EE
330
1F
100
AcDbEntity
  8
0
  6
Continuous
 62
     7
370
    15
100
AcDbSpline
210
0.0
220
0.0
230
1.0
 70
    24
 71
     3
 72
     9
 73
     5
 74
     0
 42
0.00000001
 43
0.00000001
 12
1.0
 22
0.0
 32
0.0
 13
1.0
 23
0.0
 33
0.0
 40
0.0
 40
0.0
 40
0.0
 40
0.0
 40
0.4999214129866443
 40
1.0
 40
1.0
 40
1.0
 40
1.0
 10
652.0148552824008
 20
144.9509033836645
 30
0.0
 10
652.0148552824008
 20
147.6546330948636
 30
0.0
 10
652.0148552824008
 20
153.0629425630385
 30
0.0
 10
652.0148552824008
 20
158.4879651552096
 30
0.0
 10
652.0148552824008
 20
161.200902787618
 30
0.0
  0
LINE
  5
1EF
330
1F
100
AcDbEntity
  8
0
  6
Continuous
 62
     7
370
    15
100
AcDbLine
 10
649.5148553383
 20
147.4509084501
 30
0.0
 11
652.0148552824
 21
144.9509033837
 31
0.0
  0
LINE
  5
1F0
330
1F
100
AcDbEntity
  8
0
  6
Continuous
 62
     7
370
    15
100
AcDbLine
 10
647.0148553942
 20
144.9509033837
 30
0.0
 11
649.5148553383
 21
147.4509084501
 31
0.0
  0
SPLINE
  5
1F1
330
1F
100
AcDbEntity
  8
0
  6
Continuous
 62
     7
370
    15
100
AcDbSpline
210
0.0
220
0.0
230
1.0
 70
    24
 71
     3
 72
     9
 73
     5
 74
     0
 42
0.00000001
 43
0.00000001
 12
1.0
 22
0.0
 32
0.0
 13
1.0
 23
0.0
 33
0.0
 40
0.0
 40
0.0
 40
0.0
 40
0.0
 40
0.4999918926340458
 40
0.9999999999999999
 40
0.9999999999999999
 40
0.9999999999999999
 40
0.9999999999999999
 10
647.0148553941596
 20
161.200902787618
 30
0.0
 10
647.0148553941596
 20
158.4884349208567
 30
0.0
 10
647.0148553941594
 20
153.0634112220292
 30
0.0
 10
647.0148553941596
 20
147.655101894548
 30
0.0
 10
647.0148553941596
 20
144.9509033836645
 30
0.0
  0
LINE
  5
1F2
330
1F
100
AcDbEntity
  8
0
  6
Continuous
 62
     7
370
    15
100
AcDbLine
 10
648.2648553662
 20
162.4509015955
 30
0.0
 11
647.0148553942
 21
161.2009027876
 31
0.0
  0
LINE
  5
1F3
330
1F
100
AcDbEntity
  8
0
  6
Continuous
 62
     7
370
    15
100
AcDbLine
 10
648.2648553662
 20
177.4509021916
 30
0.0
 11
648.2648553662
 21
162.4509015955
 31
0.0
  0
LINE
  5
1F4
330
1F
100
AcDbEntity
  8
0
  6
Continuous
 62
     7
370
    15
100
AcDbLine
 10
647.0148553942
 20
177.4509021916
 30
0.0
 11
648.2648553662
 21
177.4509021916
 31
0.0
  0
LINE
  5
1F5
330
1F
100
AcDbEntity
  8
0
  6
Continuous
 62
     7
370
    15
100
AcDbLine
 10
649.5148553383
 20
179.950907258
 30
0.0
 11
647.0148553942
 21
177.4509021916
 31
0.0
  0
LINE
  5
1F6
330
1F
100
AcDbEntity
  8
0
  6
Continuous
 62
     7
370
    15
100
AcDbLine
 10
652.0148552824
 20
177.4509021916
 30
0.0
 11
649.5148553383
 21
179.950907258
 31
0.0
  0
LINE
  5
1F7
330
1F
100
AcDbEntity
  8
0
  6
Continuous
 62
     7
370
    15
100
AcDbLine
 10
650.7648553103
 20
177.4509021916
 30
0.0
 11
652.0148552824
 21
177.4509021916
 31
0.0
  0
ARC
  5
1F8
330
1F
100
AcDbEntity
  8
0
  6
Continuous
 62
     7
370
    15
100
AcDbCircle
 10
717.5148553383
 20
235.9509048738
 30
0.0
 40
2.0
100
AcDbArc
 50
270.0
 51
360.0
  0
LINE
  5
1F9
330
1F
100
AcDbEntity
  8
0
  6
Continuous
 62
     7
370
    15
100
AcDbLine
 10
717.5148590338
 20
233.9509049334
 30
0.0
 11
681.3738210928
 21
233.9509049334
 31
0.0
  0
LINE
  5
1FA
330
1F
100
AcDbEntity
  8
0
  6
Continuous
 62
     7
370
    15
100
AcDbLine
 10
719.5148556363
 20
235.9509052612
 30
0.0
 11
719.5148556363
 21
243.4509048607
 31
0.0
  0
LINE
  5
1FB
330
1F
100
AcDbEntity
  8
0
  6
Continuous
 62
     7
370
    15
100
AcDbLine
 10
680.6495874059
 20
255.9509048142
 30
0.0
 11
717.5148590338
 21
255.9509048142
 31
0.0
  0
ARC
  5
1FC
330
1F
100
AcDbEntity
  8
0
  6
Continuous
 62
     7
370
    15
100
AcDbCircle
 10
717.5148553383
 20
253.9509048738
 30
0.0
 40
2.0
100
AcDbArc
 50
359.9999999996
 51
90.0
  0
LINE
  5
1FD
330
1F
100
AcDbEntity
  8
0
  6
Continuous
 62
     7
370
    15
100
AcDbLine
 10
719.5148556363
 20
253.9509044864
 30
0.0
 11
719.5148556363
 21
246.4509048868
 31
0.0
  0
LINE
  5
1FE
330
1F
100
AcDbEntity
  8
0
  6
Continuous
 62
     7
370
    15
100
AcDbLine
 10
649.5148553383
 20
392.9509067811
 30
0.0
 11
579.5148550403
 21
392.9509067811
 31
0.0
  0
LINE
  5
1FF
330
1F
100
AcDbEntity
  8
0
  6
Continuous
 62
     7
370
    15
100
AcDbLine
 10
719.5148556363
 20
392.9509067811
 30
0.0
 11
649.5148553383
 21
392.9509067811
 31
0.0
  0
SPLINE
  5
200
330
1F
100
AcDbEntity
  8
0
  6
Continuous
 62
     7
370
    15
100
AcDbSpline
210
0.0
220
0.0
230
1.0
 70
     8
 71
     3
 72
    14
 73
    10
 74
     0
 42
0.00000001
 43
0.00000001
 12
1.0
 22
0.0
 32
0.0
 13
1.0
 23
0.0
 33
0.0
 40
0.0
 40
0.0
 40
0.0
 40
0.0
 40
0.096524720219247
 40
0.2460391597446191
 40
0.399834836368702
 40
0.5504756536463447
 40
0.7053181930520684
 40
0.850790997886238
 40
1.0
 40
1.0
 40
1.0
 40
1.0
 10
719.5148556363033
 20
387.9509115495008
 30
0.0
 10
719.5113307666734
 20
387.9344713724848
 30
0.0
 10
719.50234595988
 20
387.8925657618818
 30
0.0
 10
719.4127979090313
 20
387.4718513271108
 30
0.0
 10
719.2402416514002
 20
386.6243085851414
 30
0.0
 10
719.0062032583687
 20
385.38938030146
 30
0.0
 10
718.7449165383621
 20
383.8415202309723
 30
0.0
 10
718.4767039110054
 20
382.0266367709763
 30
0.0
 10
718.3236916224038
 20
380.64864282985
 30
0.0
 10
718.2462154757427
 20
379.9509102381986
 30
0.0
  0
LINE
  5
201
330
1F
100
AcDbEntity
  8
0
  6
Continuous
 62
     7
370
    15
100
AcDbLine
 10
582.5148536694
 20
112.950905589
 30
0.0
 11
714.9365632665
 21
112.950905589
 31
0.0
  0
SPLINE
  5
202
330
1F
100
AcDbEntity
  8
0
  6
Continuous
 62
     7
370
    15
100
AcDbSpline
210
0.0
220
0.0
230
1.0
 70
     8
 71
     3
 72
    12
 73
     8
 74
     0
 42
0.00000001
 43
0.00000001
 12
1.0
 22
0.0
 32
0.0
 13
1.0
 23
0.0
 33
0.0
 40
0.0
 40
0.0
 40
0.0
 40
0.0
 40
0.2091038209394079
 40
0.4179090055260392
 40
0.6343688987370439
 40
0.860788316394637
 40
1.0
 40
1.0
 40
1.0
 40
1.0
 10
714.9365632664608
 20
112.9509055890363
 30
0.0
 10
715.2907121067882
 20
112.9160003021177
 30
0.0
 10
715.998504001764
 20
112.8462395790555
 30
0.0
 10
716.9509260596578
 20
112.318452012798
 30
0.0
 10
717.7017512307231
 20
111.5451307618885
 30
0.0
 10
718.1244631126482
 20
110.7033596615157
 30
0.0
 10
718.212641951554
 20
110.1583923126013
 30
0.0
 10
718.2462154757427
 20
109.9508995093626
 30
0.0
  0
SPLINE
  5
203
330
1F
100
AcDbEntity
  8
0
  6
Continuous
 62
     7
370
    15
100
AcDbSpline
210
0.0
220
0.0
230
1.0
 70
     8
 71
     3
 72
    12
 73
     8
 74
     0
 42
0.00000001
 43
0.00000001
 12
1.0
 22
0.0
 32
0.0
 13
1.0
 23
0.0
 33
0.0
 40
0.0
 40
0.0
 40
0.0
 40
0.0
 40
0.2446926330318888
 40
0.4898183306736671
 40
0.722742945626433
 40
0.9436581883520585
 40
1.0
 40
1.0
 40
1.0
 40
1.0
 10
718.2462154757427
 20
379.9509102381986
 30
0.0
 10
718.1712624767638
 20
379.5842195786336
 30
0.0
 10
718.0212238246639
 20
378.8501892790031
 30
0.0
 10
717.312138217219
 20
377.8785186329019
 30
0.0
 10
716.3470996848149
 20
377.2041207072386
 30
0.0
 10
715.4985874881759
 20
376.9667902307718
 30
0.0
 10
715.0314840412797
 20
376.953587171513
 30
0.0
 10
714.9365632664608
 20
376.9509041585248
 30
0.0
  0
LINE
  5
204
330
1F
100
AcDbEntity
  8
0
  6
Continuous
 62
     7
370
    15
100
AcDbLine
 10
714.9365632665
 20
376.9509041585
 30
0.0
 11
582.5148536694
 21
376.9509041585
 31
0.0
  0
SPLINE
  5
205
330
1F
100
AcDbEntity
  8
0
  6
Continuous
 62
     7
370
    15
100
AcDbSpline
210
0.0
220
0.0
230
1.0
 70
     8
 71
     3
 72
    15
 73
    11
 74
     0
 42
0.00000001
 43
0.00000001
 12
1.0
 22
0.0
 32
0.0
 13
1.0
 23
0.0
 33
0.0
 40
0.0
 40
0.0
 40
0.0
 40
0.0
 40
0.0457763571737477
 40
0.1973466285085287
 40
0.3531606598049693
 40
0.5073385965328353
 40
0.6660362104129003
 40
0.8191658299202068
 40
0.9769149135624393
 40
1.0
 40
1.0
 40
1.0
 40
1.0
 10
718.2462154757427
 20
109.9508995093626
 30
0.0
 10
718.2690156785816
 20
109.7333903716118
 30
0.0
 10
718.3673097202516
 20
108.7956858958713
 30
0.0
 10
718.567601692049
 20
107.2337793156458
 30
0.0
 10
718.8419482459942
 20
105.456497026551
 30
0.0
 10
719.1047730071186
 20
103.9780635933165
 30
0.0
 10
719.3210573384262
 20
102.874008265798
 30
0.0
 10
719.4683609773324
 20
102.1669851287141
 30
0.0
 10
719.512949508798
 20
101.9598496371128
 30
0.0
 10
719.5146398493347
 20
101.9519115635845
 30
0.0
 10
719.5148556363033
 20
101.9508981980604
 30
0.0
  0
LINE
  5
206
330
1F
100
AcDbEntity
  8
0
  6
Continuous
 62
     7
370
    15
100
AcDbLine
 10
719.5148556363
 20
96.9509029664
 30
0.0
 11
579.5148550403
 21
96.9509029664
 31
0.0
  0
SPLINE
  5
207
330
1F
100
AcDbEntity
  8
0
  6
Continuous
 62
     7
370
    15
100
AcDbSpline
210
0.0
220
0.0
230
1.0
 70
     8
 71
     3
 72
    12
 73
     8
 74
     0
 42
0.00000001
 43
0.00000001
 12
1.0
 22
0.0
 32
0.0
 13
1.0
 23
0.0
 33
0.0
 40
0.0
 40
0.0
 40
0.0
 40
0.0
 40
0.2181830666325336
 40
0.4364106025928137
 40
0.6533291580522065
 40
0.8675842829097008
 40
0.9999999999999999
 40
0.9999999999999999
 40
0.9999999999999999
 40
0.9999999999999999
 10
722.4890082013059
 20
255.9509048141759
 30
0.0
 10
722.718974137291
 20
255.9283859543221
 30
0.0
 10
723.1789528801329
 20
255.8833436448972
 30
0.0
 10
723.7910995956997
 20
255.5315829069457
 30
0.0
 10
724.2489711340668
 20
255.0151398966904
 30
0.0
 10
724.4831056454867
 20
254.4541763927176
 30
0.0
 10
724.5060821320615
 20
254.0900048412149
 30
0.0
 10
724.5148583185124
 20
253.9509044863504
 30
0.0
  0
LINE
  5
208
330
1F
100
AcDbEntity
  8
0
  6
Continuous
 62
     7
370
    15
100
AcDbLine
 10
717.5148590338
 20
255.9509048142
 30
0.0
 11
722.4890082013
 21
255.9509048142
 31
0.0
  0
SPLINE
  5
209
330
1F
100
AcDbEntity
  8
0
  6
Continuous
 62
     7
370
    15
100
AcDbSpline
210
0.0
220
0.0
230
1.0
 70
     8
 71
     3
 72
    12
 73
     8
 74
     0
 42
0.00000001
 43
0.00000001
 12
1.0
 22
0.0
 32
0.0
 13
1.0
 23
0.0
 33
0.0
 40
0.0
 40
0.0
 40
0.0
 40
0.0
 40
0.2112800798569969
 40
0.4225188470192571
 40
0.6349592116528757
 40
0.8499777552709517
 40
1.0
 40
1.0
 40
1.0
 40
1.0
 10
724.5148583185123
 20
235.9509052612108
 30
0.0
 10
724.4928637254815
 20
235.7281873342939
 30
0.0
 10
724.4488788401369
 20
235.2827950296566
 30
0.0
 10
724.1064172473991
 20
234.6883902191834
 30
0.0
 10
723.6012255609055
 20
234.2359547350889
 30
0.0
 10
723.0303492819921
 20
233.9878897303472
 30
0.0
 10
722.6466844445484
 20
233.9616774833544
 30
0.0
 10
722.4890082013059
 20
233.9509049333852
 30
0.0
  0
LINE
  5
20A
330
1F
100
AcDbEntity
  8
0
  6
Continuous
 62
     7
370
    15
100
AcDbLine
 10
722.4890082013
 20
233.9509049334
 30
0.0
 11
717.5148590338
 21
233.9509049334
 31
0.0
  0
LINE
  5
20B
330
1F
100
AcDbEntity
  8
0
  6
Continuous
 62
     7
370
    15
100
AcDbLine
 10
724.5148583185
 20
235.9509052612
 30
0.0
 11
724.5148583185
 21
253.9509044864
 31
0.0
  0
SPLINE
  5
20C
330
1F
100
AcDbEntity
  8
0
  6
Continuous
 62
     7
370
    15
100
AcDbSpline
210
0.0
220
0.0
230
1.0
 70
     8
 71
     3
 72
    12
 73
     8
 74
     0
 42
0.00000001
 43
0.00000001
 12
1.0
 22
0.0
 32
0.0
 13
1.0
 23
0.0
 33
0.0
 40
0.0
 40
0.0
 40
0.0
 40
0.0
 40
0.2231137959134164
 40
0.4460659657681183
 40
0.6720816067532498
 40
0.8904711556811047
 40
1.0
 40
1.0
 40
1.0
 40
1.0
 10
576.6024156343387
 20
239.9509049855393
 30
0.0
 10
576.3638559267346
 20
239.9746522580524
 30
0.0
 10
575.8869093267712
 20
240.0221296002963
 30
0.0
 10
575.2521998117285
 20
240.3857188546504
 30
0.0
 10
574.7757043983253
 20
240.9195631679473
 30
0.0
 10
574.5485810636492
 20
241.4831558189523
 30
0.0
 10
574.5284524519698
 20
241.8337889851472
 30
0.0
 10
574.5217292439388
 20
241.9509048477036
 30
0.0
  0
LINE
  5
20D
330
1F
100
AcDbEntity
  8
0
  6
Continuous
 62
     7
370
    15
100
AcDbLine
 10
581.5148516428
 20
239.9509049855
 30
0.0
 11
576.6024156343
 21
239.9509049855
 31
0.0
  0
LINE
  5
20E
330
1F
100
AcDbEntity
  8
0
  6
Continuous
 62
     7
370
    15
100
AcDbLine
 10
574.5217292439
 20
241.9509048477
 30
0.0
 11
574.514852358
 21
234.1502014451
 31
0.0
  0
LINE
  5
20F
330
1F
100
AcDbEntity
  8
0
  6
Continuous
 62
     7
370
    15
100
AcDbLine
 10
574.514852358
 20
247.9509048999
 30
0.0
 11
574.514852358
 21
244.9509048738
 31
0.0
  0
LINE
  5
210
330
1F
100
AcDbEntity
  8
0
  6
Continuous
 62
     7
370
    15
100
AcDbLine
 10
574.514852358
 20
247.9509048999
 30
0.0
 11
574.514852358
 21
248.1834005002
 31
0.0
  0
SPLINE
  5
211
330
1F
100
AcDbEntity
  8
0
  6
Continuous
 62
     7
370
    15
100
AcDbSpline
210
0.0
220
0.0
230
1.0
 70
     8
 71
     3
 72
    12
 73
     8
 74
     0
 42
0.00000001
 43
0.00000001
 12
1.0
 22
0.0
 32
0.0
 13
1.0
 23
0.0
 33
0.0
 40
0.0
 40
0.0
 40
0.0
 40
0.0
 40
0.2114556659925287
 40
0.4224858884059131
 40
0.6446560424557617
 40
0.8854068133449694
 40
1.0
 40
1.0
 40
1.0
 40
1.0
 10
574.5148523580478
 20
248.1834005002153
 30
0.0
 10
574.5607541432898
 20
248.391496187206
 30
0.0
 10
574.6524653605152
 20
248.8072688778031
 30
0.0
 10
575.0396272683012
 20
249.3362280533523
 30
0.0
 10
575.5751337643861
 20
249.737667211918
 30
0.0
 10
576.1252540409758
 20
249.9285033526267
 30
0.0
 10
576.476697451599
 20
249.9454422253405
 30
0.0
 10
576.5900327693867
 20
249.9509047620219
 30
0.0
  0
LINE
  5
212
330
1F
100
AcDbEntity
  8
0
  6
Continuous
 62
     7
370
    15
100
AcDbLine
 10
576.5900327694
 20
249.950904762
 30
0.0
 11
581.5148516428
 21
249.950904762
 31
0.0
  0
LINE
  5
213
330
1F
100
AcDbEntity
  8
0
  6
Continuous
 62
     7
370
    15
100
AcDbLine
 10
653.0148554463
 20
376.9509041585
 30
0.0
 11
653.0148554463
 21
289.0460373737
 31
0.0
  0
LINE
  5
214
330
1F
100
AcDbEntity
  8
0
  6
Continuous
 62
     7
370
    15
100
AcDbLine
 10
646.0148552302
 20
289.0460373737
 30
0.0
 11
653.0148554463
 21
289.0460373737
 31
0.0
  0
LINE
  5
215
330
1F
100
AcDbEntity
  8
0
  6
Continuous
 62
     7
370
    15
100
AcDbLine
 10
646.0148552302
 20
376.9509041585
 30
0.0
 11
646.0148552302
 21
289.0460373737
 31
0.0
  0
LINE
  5
216
330
1F
100
AcDbEntity
  8
0
  6
Continuous
 62
     7
370
    15
100
AcDbLine
 10
649.5148553383
 20
394.9509108342
 30
0.0
 11
692.0148557853
 21
394.9509108342
 31
0.0
  0
LINE
  5
217
330
1F
100
AcDbEntity
  8
0
  6
Continuous
 62
     7
370
    15
100
AcDbLine
 10
607.0148548912
 20
394.9509108342
 30
0.0
 11
649.5148553383
 21
394.9509108342
 31
0.0
  0
LINE
  5
218
330
1F
100
AcDbEntity
  8
0
  6
Continuous
 62
     7
370
    15
100
AcDbLine
 10
649.5148553383
 20
94.9508989133
 30
0.0
 11
692.0148557853
 21
94.9508989133
 31
0.0
  0
LINE
  5
219
330
1F
100
AcDbEntity
  8
0
  6
Continuous
 62
     7
370
    15
100
AcDbLine
 10
607.0148548912
 20
94.9508989133
 30
0.0
 11
649.5148553383
 21
94.9508989133
 31
0.0
  0
ARC
  5
21A
330
1F
100
AcDbEntity
  8
0
  6
Continuous
 62
     7
370
    15
100
AcDbCircle
 10
649.5148553383
 20
244.9509048738
 30
0.0
 40
44.50000000000001
100
AcDbArc
 50
186.4513512701
 51
204.4826810395
  0
ARC
  5
21B
330
1F
100
AcDbEntity
  8
0
  6
Continuous
 62
     7
370
    15
100
AcDbCircle
 10
649.5148553383
 20
244.9509048738
 30
0.0
 40
44.49999999999999
100
AcDbArc
 50
94.5110687803
 51
173.5486487299
  0
ARC
  5
21C
330
1F
100
AcDbEntity
  8
0
  6
Continuous
 62
     7
370
    15
100
AcDbCircle
 10
649.5148553383
 20
244.9509048738
 30
0.0
 40
44.50000000000003
100
AcDbArc
 50
74.2722058265
 51
85.4889312197
  0
SPLINE
  5
21D
330
1F
100
AcDbEntity
  8
0
  6
Continuous
 62
     7
370
    15
100
AcDbSpline
210
0.0
220
0.0
230
1.0
 70
     8
 71
     3
 72
    13
 73
     9
 74
     0
 42
0.00000001
 43
0.00000001
 12
1.0
 22
0.0
 32
0.0
 13
1.0
 23
0.0
 33
0.0
 40
0.0
 40
0.0
 40
0.0
 40
0.0
 40
0.1388855015294762
 40
0.2777711017005172
 40
0.4206915182318062
 40
0.5636120129829066
 40
0.7799382443265097
 40
1.0
 40
1.0
 40
1.0
 40
1.0
 10
603.9717993568825
 20
282.0739032604021
 30
0.0
 10
602.973513202816
 20
280.787027604058
 30
0.0
 10
600.9769401856636
 20
278.2132753773836
 30
0.0
 10
598.3759888424028
 20
274.0148366766256
 30
0.0
 10
596.091200759099
 20
269.585914678143
 30
0.0
 10
593.864676290131
 20
264.1333272188396
 30
0.0
 10
591.9181282489634
 20
257.5971159030972
 30
0.0
 10
591.2890495516858
 20
252.5141453858336
 30
0.0
 10
590.971817715113
 20
249.9509047620219
 30
0.0
  0
SPLINE
  5
21E
330
1F
100
AcDbEntity
  8
0
  6
Continuous
 62
     7
370
    15
100
AcDbSpline
210
0.0
220
0.0
230
1.0
 70
     8
 71
     3
 72
    11
 73
     7
 74
     0
 42
0.00000001
 43
0.00000001
 12
1.0
 22
0.0
 32
0.0
 13
1.0
 23
0.0
 33
0.0
 40
0.0
 40
0.0
 40
0.0
 40
0.0
 40
0.259066831149287
 40
0.5181336569366349
 40
0.7581426113596911
 40
1.0
 40
1.0
 40
1.0
 40
1.0
 10
620.1367727350639
 20
295.8352373816293
 30
0.0
 10
618.5649895096826
 20
294.8704479629153
 30
0.0
 10
615.4214230914513
 20
292.9408691454555
 30
0.0
 10
611.1909233037292
 20
289.5794487408792
 30
0.0
 10
607.3259629240785
 20
285.984049656431
 30
0.0
 10
605.0927094582065
 20
283.3806143092696
 30
0.0
 10
603.9717993568825
 20
282.0739032604021
 30
0.0
  0
SPLINE
  5
21F
330
1F
100
AcDbEntity
  8
0
  6
Continuous
 62
     7
370
    15
100
AcDbSpline
210
0.0
220
0.0
230
1.0
 70
     8
 71
     3
 72
    13
 73
     9
 74
     0
 42
0.00000001
 43
0.00000001
 12
1.0
 22
0.0
 32
0.0
 13
1.0
 23
0.0
 33
0.0
 40
0.0
 40
0.0
 40
0.0
 40
0.0
 40
0.0344214783767959
 40
0.2136000184786888
 40
0.3927785518703411
 40
0.577162561911791
 40
0.7615466543551306
 40
1.0
 40
1.0
 40
1.0
 40
1.0
 10
646.0148552302468
 20
303.6027321495336
 30
0.0
 10
645.702808239835
 20
303.5825266269804
 30
0.0
 10
643.7664229925621
 20
303.4571427040848
 30
0.0
 10
640.2186720993705
 20
303.0328661550865
 30
0.0
 10
635.3801243220156
 20
302.0556803196899
 30
0.0
 10
630.6005576874975
 20
300.6483417872217
 30
0.0
 10
625.4366596436382
 20
298.677457579919
 30
0.0
 10
622.047846949277
 20
296.8601071242798
 30
0.0
 10
620.1367727350639
 20
295.8352373816293
 30
0.0
  0
LINE
  5
220
330
1F
100
AcDbEntity
  8
0
  6
Continuous
 62
     7
370
    15
100
AcDbLine
 10
682.0148541462
 20
301.2425558545
 30
0.0
 11
682.8108555507
 21
297.7252000846
 31
0.0
  0
LINE
  5
221
330
1F
100
AcDbEntity
  8
0
  6
Continuous
 62
     7
370
    15
100
AcDbLine
 10
685.5322099161
 20
302.038557259
 30
0.0
 11
682.0148541462
 21
301.2425558545
 31
0.0
  0
LINE
  5
222
330
1F
100
AcDbEntity
  8
0
  6
Continuous
 62
     7
370
    15
100
AcDbLine
 10
684.8652227652
 20
300.981379477
 30
0.0
 11
685.5322099161
 21
302.038557259
 31
0.0
  0
SPLINE
  5
223
330
1F
100
AcDbEntity
  8
0
  6
Continuous
 62
     7
370
    15
100
AcDbSpline
210
0.0
220
0.0
230
1.0
 70
     8
 71
     3
 72
     9
 73
     5
 74
     0
 42
0.00000001
 43
0.00000001
 12
1.0
 22
0.0
 32
0.0
 13
1.0
 23
0.0
 33
0.0
 40
0.0
 40
0.0
 40
0.0
 40
0.0
 40
0.4973976027712425
 40
1.0
 40
1.0
 40
1.0
 40
1.0
 10
695.4774162601876
 20
292.6636444308085
 30
0.0
 10
693.8236680905757
 20
294.1775594421004
 30
0.0
 10
690.4988668442529
 20
297.2212311503217
 30
0.0
 10
686.749608830629
 20
299.7236551671939
 30
0.0
 10
684.8652227651523
 20
300.9813794769567
 30
0.0
  0
LINE
  5
224
330
1F
100
AcDbEntity
  8
0
  6
Continuous
 62
     7
370
    15
100
AcDbLine
 10
697.244530065
 20
292.6806466557
 30
0.0
 11
695.4774162602
 21
292.6636444308
 31
0.0
  0
LINE
  5
225
330
1F
100
AcDbEntity
  8
0
  6
Continuous
 62
     7
370
    15
100
AcDbLine
 10
704.5151009094
 20
279.591529993
 30
0.0
 11
707.9715705347
 21
278.7009062149
 31
0.0
  0
LINE
  5
226
330
1F
100
AcDbEntity
  8
0
  6
Continuous
 62
     7
370
    15
100
AcDbLine
 10
703.6414421033
 20
276.2009048738
 30
0.0
 11
704.5151009094
 21
279.591529993
 31
0.0
  0
SPLINE
  5
227
330
1F
100
AcDbEntity
  8
0
  6
Continuous
 62
     7
370
    15
100
AcDbSpline
210
0.0
220
0.0
230
1.0
 70
     8
 71
     3
 72
     9
 73
     5
 74
     0
 42
0.00000001
 43
0.00000001
 12
1.0
 22
0.0
 32
0.0
 13
1.0
 23
0.0
 33
0.0
 40
0.0
 40
0.0
 40
0.0
 40
0.0
 40
0.4957042115120768
 40
1.0
 40
1.0
 40
1.0
 40
1.0
 10
693.7090284060882
 20
289.1450779415887
 30
0.0
 10
695.5609984052993
 20
287.16818461885
 30
0.0
 10
699.2970368657386
 20
283.1801343323523
 30
0.0
 10
702.1850362012678
 20
278.5406016606647
 30
0.0
 10
703.641442103331
 20
276.2009048737806
 30
0.0
  0
LINE
  5
228
330
1F
100
AcDbEntity
  8
0
  6
Continuous
 62
     7
370
    15
100
AcDbLine
 10
693.6920261812
 20
290.9121917464
 30
0.0
 11
693.7090284061
 21
289.1450779416
 31
0.0
  0
SPLINE
  5
229
330
1F
100
AcDbEntity
  8
0
  6
Continuous
 62
     7
370
    15
100
AcDbSpline
210
0.0
220
0.0
230
1.0
 70
     8
 71
     3
 72
     9
 73
     5
 74
     0
 42
0.00000001
 43
0.00000001
 12
1.0
 22
0.0
 32
0.0
 13
1.0
 23
0.0
 33
0.0
 40
0.0
 40
0.0
 40
0.0
 40
0.0
 40
0.4974257912240511
 40
0.9999999999999999
 40
0.9999999999999999
 40
0.9999999999999999
 40
0.9999999999999999
 10
683.5312484633374
 20
298.867020187549
 30
0.0
 10
685.3165100033254
 20
297.67650198416
 30
0.0
 10
688.9055107577797
 20
295.2831435689089
 30
0.0
 10
692.0910542041069
 20
292.3741678943805
 30
0.0
 10
693.692026181166
 20
290.9121917464059
 30
0.0
  0
LINE
  5
22A
330
1F
100
AcDbEntity
  8
0
  6
Continuous
 62
     7
370
    15
100
AcDbLine
 10
682.8108555507
 20
297.7252000846
 30
0.0
 11
683.5312484633
 21
298.8670201875
 31
0.0
  0
SPLINE
  5
22B
330
1F
100
AcDbEntity
  8
0
  6
Continuous
 62
     7
370
    15
100
AcDbSpline
210
0.0
220
0.0
230
1.0
 70
     8
 71
     3
 72
     9
 73
     5
 74
     0
 42
0.00000001
 43
0.00000001
 12
1.0
 22
0.0
 32
0.0
 13
1.0
 23
0.0
 33
0.0
 40
0.0
 40
0.0
 40
0.0
 40
0.0
 40
0.4957042143109645
 40
1.0
 40
1.0
 40
1.0
 40
1.0
 10
707.9715705346512
 20
278.7009062148851
 30
0.0
 10
706.4269417801441
 20
281.1854775321003
 30
0.0
 10
703.3109126847407
 20
286.1976828865954
 30
0.0
 10
699.2782066986921
 20
290.5073165575863
 30
0.0
 10
697.2445300650047
 20
292.6806466557306
 30
0.0
  0
SPLINE
  5
22C
330
1F
100
AcDbEntity
  8
0
  6
Continuous
 62
     7
370
    15
100
AcDbSpline
210
0.0
220
0.0
230
1.0
 70
     8
 71
     3
 72
    12
 73
     8
 74
     0
 42
0.00000001
 43
0.00000001
 12
1.0
 22
0.0
 32
0.0
 13
1.0
 23
0.0
 33
0.0
 40
0.0
 40
0.0
 40
0.0
 40
0.0
 40
0.1837971038711664
 40
0.3721083671411303
 40
0.5598209329444154
 40
0.7799104930477943
 40
1.0
 40
1.0
 40
1.0
 40
1.0
 10
690.9970133435177
 20
203.3502155818265
 30
0.0
 10
692.474790125781
 20
204.9188995934409
 30
0.0
 10
695.4666387124296
 20
208.0947953710553
 30
0.0
 10
699.2587551885968
 20
213.4721998895342
 30
0.0
 10
702.6661900143633
 20
219.5754702861621
 30
0.0
 10
705.4894409764946
 20
226.4047403201844
 30
0.0
 10
706.6512512321013
 20
231.435516931472
 30
0.0
 10
707.232156289761
 20
233.9509049333852
 30
0.0
  0
SPLINE
  5
22D
330
1F
100
AcDbEntity
  8
0
  6
Continuous
 62
     7
370
    15
100
AcDbSpline
210
0.0
220
0.0
230
1.0
 70
     8
 71
     3
 72
    14
 73
    10
 74
     0
 42
0.00000001
 43
0.00000001
 12
1.0
 22
0.0
 32
0.0
 13
1.0
 23
0.0
 33
0.0
 40
0.0
 40
0.0
 40
0.0
 40
0.0
 40
0.1563546055254284
 40
0.312709214079031
 40
0.4572704546098674
 40
0.6022927402368425
 40
0.7468540146607663
 40
0.8914153160743585
 40
0.9999999999999999
 40
0.9999999999999999
 40
0.9999999999999999
 40
0.9999999999999999
 10
590.971817715113
 20
239.9509049855393
 30
0.0
 10
591.2585543599222
 20
237.5871453963931
 30
0.0
 10
591.8320276550935
 20
232.859626172321
 30
0.0
 10
593.7177858725526
 20
226.1370464364012
 30
0.0
 10
596.2633699407825
 20
219.8388041785431
 30
0.0
 10
599.4177616230043
 20
214.0184679188722
 30
0.0
 10
603.209914419018
 20
208.6010065915823
 30
0.0
 10
607.1785423333773
 20
204.0061292342476
 30
0.0
 10
610.0855032777763
 20
201.4760690715584
 30
0.0
 10
611.3324179183887
 20
200.3908226169866
 30
0.0
  0
SPLINE
  5
22E
330
1F
100
AcDbEntity
  8
0
  6
Continuous
 62
     7
370
    15
100
AcDbSpline
210
0.0
220
0.0
230
1.0
 70
     8
 71
     3
 72
     9
 73
     5
 74
     0
 42
0.00000001
 43
0.00000001
 12
1.0
 22
0.0
 32
0.0
 13
1.0
 23
0.0
 33
0.0
 40
0.0
 40
0.0
 40
0.0
 40
0.0
 40
0.498486126500879
 40
1.0
 40
1.0
 40
1.0
 40
1.0
 10
662.0594602879333
 20
302.3522974826616
 30
0.0
 10
660.5687391713061
 20
302.6478710181516
 30
0.0
 10
657.578242470643
 20
303.2408133685531
 30
0.0
 10
654.5390517546126
 20
303.4818492906103
 30
0.0
 10
653.0148554463136
 20
303.6027321495336
 30
0.0
  0
SPLINE
  5
22F
330
1F
100
AcDbEntity
  8
0
  6
Continuous
 62
     7
370
    15
100
AcDbSpline
210
0.0
220
0.0
230
1.0
 70
     8
 71
     3
 72
    18
 73
    14
 74
     0
 42
0.00000001
 43
0.00000001
 12
1.0
 22
0.0
 32
0.0
 13
1.0
 23
0.0
 33
0.0
 40
0.0
 40
0.0
 40
0.0
 40
0.0
 40
0.0920999249785603
 40
0.1844686314546077
 40
0.2765685668909036
 40
0.3727988955889817
 40
0.4693360925934141
 40
0.5655663795813521
 40
0.6617967085580102
 40
0.7583339089765364
 40
0.8545642393786445
 40
0.9272821218454184
 40
1.0
 40
1.0
 40
1.0
 40
1.0
 10
707.232156289761
 20
255.9509048141759
 30
0.0
 10
706.7722402225909
 20
258.0066175394982
 30
0.0
 10
705.8510658837996
 20
262.1240423169049
 30
0.0
 10
703.6427261465003
 20
268.0647153347313
 30
0.0
 10
700.8223182852859
 20
273.8362358784089
 30
0.0
 10
697.3061769862802
 20
279.3322704651436
 30
0.0
 10
693.1469742460602
 20
284.4781182326905
 30
0.0
 10
688.4413132671453
 20
289.1317898658113
 30
0.0
 10
683.2320763733019
 20
293.2130102937338
 30
0.0
 10
677.6041658242593
 20
296.6946208092883
 30
0.0
 10
672.1072651267357
 20
299.2879446388658
 30
0.0
 10
666.9045064024091
 20
301.1672611574924
 30
0.0
 10
663.6744756275016
 20
301.95728538208
 30
0.0
 10
662.0594602879333
 20
302.3522974826616
 30
0.0
  0
SPLINE
  5
230
330
1F
100
AcDbEntity
  8
0
  6
Continuous
 62
     7
370
    15
100
AcDbSpline
210
0.0
220
0.0
230
1.0
 70
     8
 71
     3
 72
    13
 73
     9
 74
     0
 42
0.00000001
 43
0.00000001
 12
1.0
 22
0.0
 32
0.0
 13
1.0
 23
0.0
 33
0.0
 40
0.0
 40
0.0
 40
0.0
 40
0.0
 40
0.1705372487704798
 40
0.3068295306185299
 40
0.4432789375070781
 40
0.5899935065588752
 40
0.7368707679049288
 40
1.0
 40
1.0
 40
1.0
 40
1.0
 10
675.063883407061
 20
376.9509041585248
 30
0.0
 10
675.0067883412632
 20
375.9880131134547
 30
0.0
 10
674.904063262926
 20
374.2555856846922
 30
0.0
 10
675.104407793813
 20
371.6846897702587
 30
0.0
 10
675.5948036945595
 20
369.3345097478123
 30
0.0
 10
676.3346387370611
 20
367.0826949261248
 30
0.0
 10
677.4869263884689
 20
364.39109366269
 30
0.0
 10
678.3694270261316
 20
362.7949298416862
 30
0.0
 10
678.9357880931543
 20
361.7705622591299
 30
0.0
  0
LINE
  5
231
330
1F
100
AcDbEntity
  8
0
  6
Continuous
 62
     7
370
    15
100
AcDbLine
 10
692.9905055892
 20
345.6157514729
 30
0.0
 11
693.8097975087
 21
345.1371336259
 31
0.0
  0
LINE
  5
232
330
1F
100
AcDbEntity
  8
0
  6
Continuous
 62
     7
370
    15
100
AcDbLine
 10
627.3779715281
 20
322.330563692
 30
0.0
 11
627.358765794
 21
322.3247522392
 31
0.0
  0
LWPOLYLINE
  5
233
330
1F
100
AcDbEntity
  8
0
  6
Continuous
 62
     7
370
    15
100
AcDbPolyline
 90
        9
 70
   128
 43
0.0
 10
615.2648567092
 20
304.2736457564
 10
614.2619675826
 20
306.0106964685
 10
613.2202981841
 20
307.8149253406
 10
612.182253493
 20
309.6128696479
 10
611.2131043207
 20
311.2914854564
 10
610.3836982381
 20
312.7280617036
 10
609.7609191071
 20
313.8067418613
 10
609.3857413959
 20
314.4565665998
 10
609.2648557257
 20
314.6659502663
  0
SPLINE
  5
234
330
1F
100
AcDbEntity
  8
0
  6
Continuous
 62
     7
370
    15
100
AcDbSpline
210
0.0
220
0.0
230
1.0
 70
     8
 71
     3
 72
    10
 73
     6
 74
     0
 42
0.00000001
 43
0.00000001
 12
1.0
 22
0.0
 32
0.0
 13
1.0
 23
0.0
 33
0.0
 40
0.0
 40
0.0
 40
0.0
 40
0.0
 40
0.4360653558656417
 40
0.8766235449108329
 40
1.0
 40
1.0
 40
1.0
 40
1.0
 10
594.383233679478
 20
175.6771499194425
 30
0.0
 10
592.2684456876756
 20
177.6906105802663
 30
0.0
 10
588.0170807920886
 20
181.7382768263636
 30
0.0
 10
583.7753211499675
 20
186.9407868723505
 30
0.0
 10
581.5892129894289
 20
190.0162747266126
 30
0.0
 10
581.1109407674717
 20
190.6891235985082
 30
0.0
  0
SPLINE
  5
235
330
1F
100
AcDbEntity
  8
0
  6
Continuous
 62
     7
370
    15
100
AcDbSpline
210
0.0
220
0.0
230
1.0
 70
    24
 71
     3
 72
    10
 73
     6
 74
     0
 42
0.00000001
 43
0.00000001
 12
1.0
 22
0.0
 32
0.0
 13
1.0
 23
0.0
 33
0.0
 40
0.0
 40
0.0
 40
0.0
 40
0.0
 40
0.0832531841856015
 40
0.3888358037717657
 40
1.0
 40
1.0
 40
1.0
 40
1.0
 10
581.1232416760372
 20
190.701428232364
 30
0.0
 10
581.1186716553381
 20
190.6968568276488
 30
0.0
 10
581.0973272744685
 20
190.6755059827027
 30
0.0
 10
581.1214880495675
 20
190.6996740748141
 30
0.0
 10
581.1151596788702
 20
190.6933437875903
 30
0.0
 10
581.1109407674717
 20
190.6891235985082
 30
0.0
  0
LINE
  5
236
330
1F
100
AcDbEntity
  8
0
  6
Continuous
 62
     7
370
    15
100
AcDbLine
 10
585.8945934903
 20
294.4290297009
 30
0.0
 11
586.8790610563
 21
295.5177644171
 31
0.0
  0
SPLINE
  5
237
330
1F
100
AcDbEntity
  8
0
  6
Continuous
 62
     7
370
    15
100
AcDbSpline
210
0.0
220
0.0
230
1.0
 70
    24
 71
     3
 72
     9
 73
     5
 74
     0
 42
0.00000001
 43
0.00000001
 12
1.0
 22
0.0
 32
0.0
 13
1.0
 23
0.0
 33
0.0
 40
0.0
 40
0.0
 40
0.0
 40
0.0
 40
0.5370639527462959
 40
1.0
 40
1.0
 40
1.0
 40
1.0
 10
574.5148523580478
 20
234.1502014450949
 30
0.0
 10
574.514852358048
 20
236.0837760717972
 30
0.0
 10
574.5148523580478
 20
239.6840449351513
 30
0.0
 10
574.5148523580478
 20
243.2842432818448
 30
0.0
 10
574.5148523580478
 20
244.9509048737925
 30
0.0
  0
SPLINE
  5
238
330
1F
100
AcDbEntity
  8
0
  6
Continuous
 62
     7
370
    15
100
AcDbSpline
210
0.0
220
0.0
230
1.0
 70
     8
 71
     3
 72
    13
 73
     9
 74
     0
 42
0.00000001
 43
0.00000001
 12
1.0
 22
0.0
 32
0.0
 13
1.0
 23
0.0
 33
0.0
 40
0.0
 40
0.0
 40
0.0
 40
0.0
 40
0.2128937902192534
 40
0.4256861395270571
 40
0.5310947562699461
 40
0.639694005634518
 40
0.8507552266545771
 40
1.0
 40
1.0
 40
1.0
 40
1.0
 10
566.2720515262531
 20
244.9509048737812
 30
0.0
 10
566.324945948382
 20
246.2349195533966
 30
0.0
 10
566.4307095891876
 20
248.8023370976033
 30
0.0
 10
566.3867971373164
 20
251.6548175844378
 30
0.0
 10
566.5594575167272
 20
253.5332570074746
 30
0.0
 10
566.8599598569748
 20
255.0604265085346
 30
0.0
 10
567.094809964374
 20
256.2922100551523
 30
0.0
 10
567.1002797265919
 20
256.3088338465186
 30
0.0
 10
567.1025453936504
 20
256.3157196991366
 30
0.0
  0
SPLINE
  5
239
330
1F
100
AcDbEntity
  8
0
  6
Continuous
 62
     7
370
    15
100
AcDbSpline
210
0.0
220
0.0
230
1.0
 70
     8
 71
     3
 72
    13
 73
     9
 74
     0
 42
0.00000001
 43
0.00000001
 12
1.0
 22
0.0
 32
0.0
 13
1.0
 23
0.0
 33
0.0
 40
0.0
 40
0.0
 40
0.0
 40
0.0
 40
0.1805879311607528
 40
0.3941225215138127
 40
0.500018580498807
 40
0.6093264724675002
 40
0.8130125646026344
 40
1.0
 40
1.0
 40
1.0
 40
1.0
 10
565.6386404168056
 20
233.5358405389112
 30
0.0
 10
565.6337815795961
 20
233.5908318649665
 30
0.0
 10
565.6231774536149
 20
233.7108471946012
 30
0.0
 10
565.5336552106587
 20
235.1432214774957
 30
0.0
 10
565.4492736074999
 20
236.8068897262313
 30
0.0
 10
565.5922853839232
 20
238.7471518563044
 30
0.0
 10
565.977406758501
 20
241.4783200644301
 30
0.0
 10
566.1766757383589
 20
243.8268376970641
 30
0.0
 10
566.2720515262531
 20
244.9509048737816
 30
0.0
  0
SPLINE
  5
23A
330
1F
100
AcDbEntity
  8
0
  6
Continuous
 62
     7
370
    15
100
AcDbSpline
210
0.0
220
0.0
230
1.0
 70
     8
 71
     3
 72
    11
 73
     7
 74
     0
 42
0.00000001
 43
0.00000001
 12
1.0
 22
0.0
 32
0.0
 13
1.0
 23
0.0
 33
0.0
 40
0.0
 40
0.0
 40
0.0
 40
0.0
 40
0.1146404381773235
 40
0.3355379229420354
 40
0.5568675098162904
 40
1.0
 40
1.0
 40
1.0
 40
1.0
 10
622.6938771885084
 20
346.768684116773
 30
0.0
 10
622.4696754753035
 20
347.9039298753666
 30
0.0
 10
621.813465691348
 20
351.2266492396981
 30
0.0
 10
621.5608083658966
 20
356.8573955309467
 30
0.0
 10
621.5157340534482
 20
365.7803542604375
 30
0.0
 10
621.3647838250114
 20
372.4817294808373
 30
0.0
 10
621.264114497249
 20
376.9509041585249
 30
0.0
  0
LINE
  5
23B
330
1F
100
AcDbEntity
  8
0
  6
Continuous
 62
     7
370
    15
100
AcDbLine
 10
562.5148578417
 20
256.4509048961
 30
0.0
 11
562.5148578417
 21
233.4509048514
 31
0.0
  0
LINE
  5
23C
330
1F
100
AcDbEntity
  8
0
  6
Continuous
 62
     7
370
    15
100
AcDbLine
 10
699.6992020738
 20
358.3649540223
 30
0.0
 11
680.8751425576
 21
358.3649540223
 31
0.0
  0
SPLINE
  5
23D
330
1F
100
AcDbEntity
  8
0
  6
Continuous
 62
     7
370
    15
100
AcDbSpline
210
0.0
220
0.0
230
1.0
 70
     8
 71
     3
 72
    10
 73
     6
 74
     0
 42
0.00000001
 43
0.00000001
 12
1.0
 22
0.0
 32
0.0
 13
1.0
 23
0.0
 33
0.0
 40
0.0
 40
0.0
 40
0.0
 40
0.0
 40
0.351386940463351
 40
0.7108082889860806
 40
0.9999999999999999
 40
0.9999999999999999
 40
0.9999999999999999
 40
0.9999999999999999
 10
678.9357880931543
 20
361.7705622591299
 30
0.0
 10
679.1964534689158
 20
361.316994892795
 30
0.0
 10
679.723744293949
 20
360.3994894124284
 30
0.0
 10
680.3634706696848
 20
359.3413988777396
 30
0.0
 10
680.5787977854441
 20
358.9244912339879
 30
0.0
 10
680.6748038958954
 20
358.7386080898565
 30
0.0
  0
LINE
  5
23E
330
1F
100
AcDbEntity
  8
0
  6
Continuous
 62
     7
370
    15
100
AcDbLine
 10
719.5148556363
 20
387.9509115495
 30
0.0
 11
719.5148556363
 21
357.9509029068
 31
0.0
  0
LINE
  5
23F
330
1F
100
AcDbEntity
  8
0
  6
Continuous
 62
     7
370
    15
100
AcDbLine
 10
694.7079277467
 20
131.5368557252
 30
0.0
 11
681.7906997036
 21
131.5368557252
 31
0.0
  0
LINE
  5
240
330
1F
100
AcDbEntity
  8
0
  6
Continuous
 62
     7
370
    15
100
AcDbLine
 10
719.5148556363
 20
101.9508981981
 30
0.0
 11
719.5148556363
 21
131.9509068407
 31
0.0
  0
LINE
  5
241
330
1F
100
AcDbEntity
  8
0
  6
Continuous
 62
     7
370
    15
100
AcDbLine
 10
691.9156885576
 20
346.354282824
 30
0.0
 11
692.9908334147
 21
345.6154236473
 31
0.0
  0
LINE
  5
242
330
1F
100
AcDbEntity
  8
0
  6
Continuous
 62
     7
370
    15
100
AcDbLine
 10
578.9969577324
 20
301.3266654589
 30
0.0
 11
585.8945934903
 21
294.4290297009
 31
0.0
  0
ARC
  5
243
330
1F
100
AcDbEntity
  8
0
  6
Continuous
 62
     7
370
    15
100
AcDbCircle
 10
581.1182797381
 20
303.4479855374
 30
0.0
 40
3.000000000000105
100
AcDbArc
 50
139.4608436979
 51
225.0
  0
ARC
  5
244
330
1F
100
AcDbEntity
  8
0
  6
Continuous
 62
     7
370
    15
100
AcDbCircle
 10
649.5148553383
 20
244.9509048738
 30
0.0
 40
93.00000000000001
100
AcDbArc
 50
130.5391563021
 51
139.4608436979
  0
ARC
  5
245
330
1F
100
AcDbEntity
  8
0
  6
Continuous
 62
     7
370
    15
100
AcDbCircle
 10
591.0177746747
 20
313.347480474
 30
0.0
 40
3.000000000000064
100
AcDbArc
 50
45.0
 51
130.5391563021
  0
LINE
  5
246
330
1F
100
AcDbEntity
  8
0
  6
Continuous
 62
     7
370
    15
100
AcDbLine
 10
600.1047319602
 20
308.5031652726
 30
0.0
 11
593.1390947532
 21
315.4688024797
 31
0.0
  0
ARC
  5
247
330
1F
100
AcDbEntity
  8
0
  6
Continuous
 62
     7
370
    15
100
AcDbCircle
 10
581.1182797381
 20
186.4538242102
 30
0.0
 40
3.000000000000125
100
AcDbArc
 50
135.0
 51
220.5391563021
  0
LINE
  5
248
330
1F
100
AcDbEntity
  8
0
  6
Continuous
 62
     7
370
    15
100
AcDbLine
 10
581.1109407675
 20
190.6891235985
 30
0.0
 11
578.9969577324
 21
188.5751442887
 31
0.0
  0
ARC
  5
249
330
1F
100
AcDbEntity
  8
0
  6
Continuous
 62
     7
370
    15
100
AcDbCircle
 10
649.5148553383
 20
244.9509048738
 30
0.0
 40
93.00000000000006
100
AcDbArc
 50
220.5391563021
 51
229.4608436979
  0
ARC
  5
24A
330
1F
100
AcDbEntity
  8
0
  6
Continuous
 62
     7
370
    15
100
AcDbCircle
 10
591.0177746747
 20
176.5543292736
 30
0.0
 40
2.999999999999977
100
AcDbArc
 50
229.4608436979
 51
315.0
  0
LINE
  5
24B
330
1F
100
AcDbEntity
  8
0
  6
Continuous
 62
     7
370
    15
100
AcDbLine
 10
593.1390947532
 20
174.4330072679
 30
0.0
 11
594.3832336795
 21
175.6771499194
 31
0.0
  0
LINE
  5
24C
330
1F
100
AcDbEntity
  8
0
  6
Continuous
 62
     7
370
    15
100
AcDbLine
 10
699.6992020738
 20
358.3649540223
 30
0.0
 11
693.8097975087
 21
345.1371336259
 31
0.0
  0
LINE
  5
24D
330
1F
100
AcDbEntity
  8
0
  6
Continuous
 62
     7
370
    15
100
AcDbLine
 10
694.7079277467
 20
131.5368557252
 30
0.0
 11
684.9095797967
 21
152.5494897641
 31
0.0
  0
LINE
  5
24E
330
1F
100
AcDbEntity
  8
0
  6
Continuous
 62
     7
370
    15
100
AcDbLine
 10
599.5148545932
 20
112.950905589
 30
0.0
 11
616.3197173607
 21
148.9890435614
 31
0.0
  0
LINE
  5
24F
330
1F
100
AcDbEntity
  8
0
  6
Continuous
 62
     7
370
    15
100
AcDbLine
 10
599.5148545932
 20
376.9509041585
 30
0.0
 11
625.3072856795
 21
321.63885924
 31
0.0
  0
LINE
  5
250
330
1F
100
AcDbEntity
  8
0
  6
Continuous
 62
     7
370
    15
100
AcDbLine
 10
625.2723182421
 20
321.7138493337
 30
0.0
 11
625.0525372904
 21
321.6440895476
 31
0.0
  0
ARC
  5
251
330
1F
100
AcDbEntity
  8
0
  6
Continuous
 62
     7
370
    15
100
AcDbCircle
 10
649.5148553383
 20
244.9509048738
 30
0.0
 40
80.50000000000007
100
AcDbArc
 50
115.4701753927
 51
121.7249461857
  0
LINE
  5
252
330
1F
100
AcDbEntity
  8
0
  6
Continuous
 62
     7
370
    15
100
AcDbLine
 10
601.5794365537
 20
309.6227342166
 30
0.0
 11
600.1047319602
 21
308.5031652726
 31
0.0
  0
LINE
  5
253
330
1F
100
AcDbEntity
  8
0
  6
Continuous
 62
     7
370
    15
100
AcDbLine
 10
569.4294436705
 20
214.225440649
 30
0.0
 11
555.5745228064
 21
216.3463564493
 31
0.0
  0
LINE
  5
254
330
1F
100
AcDbEntity
  8
0
  6
Continuous
 62
     7
370
    15
100
AcDbLine
 10
568.5574202668
 20
268.1786542662
 30
0.0
 11
570.3860907685
 21
267.898721052
 31
0.0
  0
ARC
  5
255
330
1F
100
AcDbEntity
  8
0
  6
Continuous
 62
     7
370
    15
100
AcDbCircle
 10
567.7100422557
 20
262.6431371855
 30
0.0
 40
5.60000000000001
100
AcDbArc
 50
81.2967002836
 51
151.7406996297
  0
ARC
  5
256
330
1F
100
AcDbEntity
  8
0
  6
Continuous
 62
     7
370
    15
100
AcDbCircle
 10
651.9158507483
 20
217.3801079441
 30
0.0
 40
101.2000000000001
100
AcDbArc
 50
162.2844639403
 51
177.3009662613
  0
ARC
  5
257
330
1F
100
AcDbEntity
  8
0
  6
Continuous
 62
     7
370
    15
100
AcDbCircle
 10
651.9158507483
 20
217.3801079441
 30
0.0
 40
101.2
100
AcDbArc
 50
151.7406996297
 51
159.4215173201
  0
ARC
  5
258
330
1F
100
AcDbEntity
  8
0
  6
Continuous
 62
     7
370
    15
100
AcDbCircle
 10
556.4219027686
 20
221.8818741805
 30
0.0
 40
5.600000000000049
100
AcDbArc
 50
177.3009662613
 51
261.2967002836
  0
ARC
  5
259
330
1F
100
AcDbEntity
  8
0
  6
Continuous
 62
     7
370
    15
100
AcDbCircle
 10
601.2460544204
 20
321.5039770391
 30
0.0
 40
10.00000000000003
100
AcDbArc
 50
225.0
 51
302.2325499915
  0
LINE
  5
25A
330
1F
100
AcDbEntity
  8
0
  6
Continuous
 62
     7
370
    15
100
AcDbLine
 10
594.1749862265
 20
175.4688987412
 30
0.0
 11
594.4605111014
 21
175.7433334269
 31
0.0
  0
LINE
  5
25B
330
1F
100
AcDbEntity
  8
0
  6
Continuous
 62
     7
370
    15
100
AcDbLine
 10
581.0317783486
 20
190.7765822388
 30
0.0
 11
580.0328492057
 21
189.611035762
 31
0.0
  0
ARC
  5
25C
330
1F
100
AcDbEntity
  8
0
  6
Continuous
 62
     7
370
    15
100
AcDbCircle
 10
572.9617831729
 20
293.2197057917
 30
0.0
 40
9.999999999999975
100
AcDbArc
 50
341.9930094863
 51
45.0
  0
LINE
  5
25D
330
1F
100
AcDbEntity
  8
SLD-0
  6
CENTERX2
370
     0
100
AcDbLine
 10
534.637930124
 20
244.9509048738
 30
0.0
 11
755.1219597685
 21
244.9509048738
 31
0.0
  0
LINE
  5
25E
330
1F
100
AcDbEntity
  8
SLD-0
  6
CENTERX2
370
     0
100
AcDbLine
 10
649.5148553383
 20
403.4443284916
 30
0.0
 11
649.5148553383
 21
92.9509048738
 31
0.0
  0
SPLINE
  5
25F
330
1F
100
AcDbEntity
  8
0
  6
Continuous
 62
     7
370
    15
100
AcDbSpline
210
0.0
220
0.0
230
1.0
 70
     8
 71
     3
 72
    14
 73
    10
 74
     0
 42
0.00000001
 43
0.00000001
 12
1.0
 22
0.0
 32
0.0
 13
1.0
 23
0.0
 33
0.0
 40
0.0
 40
0.0
 40
0.0
 40
0.0
 40
0.005703665488544
 40
0.1075131469575836
 40
0.2967409764772297
 40
0.5252165851338246
 40
0.6862393858890175
 40
0.8515069378007133
 40
1.0
 40
1.0
 40
1.0
 40
1.0
 10
666.7055726737296
 20
458.5698860060497
 30
0.0
 10
666.7097594951488
 20
458.561914255794
 30
0.0
 10
666.7886803833791
 20
458.411648087752
 30
0.0
 10
667.2177641994595
 20
458.1638694908476
 30
0.0
 10
667.7378579012868
 20
457.5354794004407
 30
0.0
 10
668.3361893439449
 20
456.8448705720026
 30
0.0
 10
668.8330793615919
 20
456.1236786885246
 30
0.0
 10
669.1914534761997
 20
455.4658541631154
 30
0.0
 10
669.4050912793449
 20
455.0199734792398
 30
0.0
 10
669.5061993539846
 20
454.8089521300121
 30
0.0
  0
SPLINE
  5
260
330
1F
100
AcDbEntity
  8
0
  6
Continuous
 62
     7
370
    15
100
AcDbSpline
210
0.0
220
0.0
230
1.0
 70
     8
 71
     3
 72
    24
 73
    20
 74
     0
 42
0.00000001
 43
0.00000001
 12
1.0
 22
0.0
 32
0.0
 13
1.0
 23
0.0
 33
0.0
 40
0.0
 40
0.0
 40
0.0
 40
0.0
 40
0.0683762094946913
 40
0.1569364899502109
 40
0.2351147911751656
 40
0.3190391479912454
 40
0.3630460003023709
 40
0.4034279619651749
 40
0.4396480266278218
 40
0.4718021767982459
 40
0.5172835130457928
 40
0.5587873521492392
 40
0.5995211607233659
 40
0.6392040553008904
 40
0.7548623707354036
 40
0.8070555915415988
 40
0.860845102018536
 40
0.9292803139608663
 40
1.0
 40
1.0
 40
1.0
 40
1.0
 10
748.211400279454
 20
451.2709098231121
 30
0.0
 10
748.0664690927289
 20
451.9890854834545
 30
0.0
 10
747.7338242752253
 20
453.6374361032789
 30
0.0
 10
746.4347800095136
 20
455.8343323846115
 30
0.0
 10
744.6612801502542
 20
457.846547539313
 30
0.0
 10
742.84436444715
 20
459.125904995483
 30
0.0
 10
741.2205633012868
 20
459.8963797043247
 30
0.0
 10
739.9989972389361
 20
460.3070025553324
 30
0.0
 10
738.8661819811598
 20
460.5613821476531
 30
0.0
 10
737.6621339741661
 20
460.7246086034213
 30
0.0
 10
736.3916227213198
 20
460.7795254543369
 30
0.0
 10
735.0302061285296
 20
460.7687361845733
 30
0.0
 10
733.7304506610678
 20
460.77144931306
 30
0.0
 10
731.6402191415049
 20
460.7704341809183
 30
0.0
 10
729.4278077505285
 20
460.7709810974652
 30
0.0
 10
727.0650210211824
 20
460.7708932016049
 30
0.0
 10
725.2056514369729
 20
460.7709114947025
 30
0.0
 10
723.1487821385653
 20
460.7709053634596
 30
0.0
 10
721.6653317950868
 20
460.7709062653317
 30
0.0
 10
720.9114298910415
 20
460.7709067236706
 30
0.0
  0
LINE
  5
261
330
1F
100
AcDbEntity
  8
0
  6
Continuous
 62
     7
370
     0
100
AcDbLine
 10
562.5148580164
 20
451.2709098231
 30
0.0
 11
748.2114002795
 21
451.2709098231
 31
0.0
  0
SPLINE
  5
262
330
1F
100
AcDbEntity
  8
0
  6
Continuous
 62
     7
370
    15
100
AcDbSpline
210
0.0
220
0.0
230
1.0
 70
     8
 71
     3
 72
    22
 73
    18
 74
     0
 42
0.00000001
 43
0.00000001
 12
1.0
 22
0.0
 32
0.0
 13
1.0
 23
0.0
 33
0.0
 40
0.0
 40
0.0
 40
0.0
 40
0.0
 40
0.0602856482036459
 40
0.1304923445600668
 40
0.1984264312667672
 40
0.2655156756262482
 40
0.334548270508235
 40
0.4020532460474228
 40
0.4714160769483999
 40
0.5408250062227176
 40
0.6122216727642044
 40
0.6820817009717216
 40
0.7540085464619266
 40
0.8231034592730576
 40
0.8942579011121253
 40
0.9466818296499661
 40
1.0
 40
1.0
 40
1.0
 40
1.0
 10
671.2691771552479
 20
451.2709098231121
 30
0.0
 10
671.2340735556351
 20
452.3327034389852
 30
0.0
 10
671.1580894507531
 20
454.6310272109406
 30
0.0
 10
670.2998893807977
 20
458.0416355679518
 30
0.0
 10
668.8818527292947
 20
461.3735866854922
 30
0.0
 10
666.9335271867441
 20
464.408813899051
 30
0.0
 10
664.5047928314559
 20
467.0628949734018
 30
0.0
 10
661.6478201951043
 20
469.3130206419099
 30
0.0
 10
658.451836387379
 20
471.0639211026382
 30
0.0
 10
654.9499852003249
 20
472.2967706730599
 30
0.0
 10
651.2803287772648
 20
472.9233998747654
 30
0.0
 10
647.5140967513632
 20
472.9328852968254
 30
0.0
 10
643.8402984040733
 20
472.3036830671245
 30
0.0
 10
640.3044377167126
 20
471.0566323530338
 30
0.0
 10
637.3393767104748
 20
469.3845217098529
 30
0.0
 10
634.8665877349064
 20
467.476660796087
 30
0.0
 10
633.5979684195858
 20
466.1133517667415
 30
0.0
 10
632.9582945198333
 20
465.4259326230808
 30
0.0
  0
SPLINE
  5
263
330
1F
100
AcDbEntity
  8
0
  6
Continuous
 62
     7
370
    15
100
AcDbSpline
210
0.0
220
0.0
230
1.0
 70
     8
 71
     3
 72
    12
 73
     8
 74
     0
 42
0.00000001
 43
0.00000001
 12
1.0
 22
0.0
 32
0.0
 13
1.0
 23
0.0
 33
0.0
 40
0.0
 40
0.0
 40
0.0
 40
0.0
 40
0.2389410697309736
 40
0.4778723849396226
 40
0.7168215233901415
 40
0.9557650154737083
 40
1.0
 40
1.0
 40
1.0
 40
1.0
 10
632.9582945198333
 20
465.4259326230808
 30
0.0
 10
632.2080094567073
 20
464.4534225921188
 30
0.0
 10
630.7074699600679
 20
462.5084422319122
 30
0.0
 10
629.0956493955819
 20
459.1668383480333
 30
0.0
 10
628.0988611777965
 20
455.6265121388633
 30
0.0
 10
627.6625598787946
 20
452.9483568538298
 30
0.0
 10
627.7574182255769
 20
451.4975402224549
 30
0.0
 10
627.7722359389579
 20
451.2709098231121
 30
0.0
  0
ARC
  5
264
330
1F
100
AcDbEntity
  8
0
  6
Continuous
 62
     7
370
    15
100
AcDbCircle
 10
649.514855513
 20
451.3039724673
 30
0.0
 40
42.46697371783344
100
AcDbArc
 50
359.9553923909
 51
180.0446076091
  0
CIRCLE
  5
265
330
1F
100
AcDbEntity
  8
0
  6
Continuous
 62
     7
370
    15
100
AcDbCircle
 10
612.3917494883
 20
488.3940160962
 30
0.0
 40
7.499998941726514
  0
CIRCLE
  5
266
330
1F
100
AcDbEntity
  8
0
  6
Continuous
 62
     7
370
    15
100
AcDbCircle
 10
686.6379599473
 20
488.3940168318
 30
0.0
 40
7.499999031091884
  0
ARC
  5
267
330
1F
100
AcDbEntity
  8
0
  6
Continuous
 62
     7
370
    15
100
AcDbCircle
 10
649.514855513
 20
451.2709098231
 30
0.0
 40
70.00000029802322
100
AcDbArc
 50
0.0
 51
180.0
  0
LINE
  5
268
330
1F
100
AcDbEntity
  8
0
  6
Continuous
 62
     7
370
    15
100
AcDbLine
 10
720.1913163752
 20
460.7539566528
 30
0.0
 11
719.5148558111
 21
460.7562961351
 31
0.0
  0
SPLINE
  5
269
330
1F
100
AcDbEntity
  8
0
  6
Continuous
 62
     7
370
    15
100
AcDbSpline
210
0.0
220
0.0
230
1.0
 70
     8
 71
     3
 72
    10
 73
     6
 74
     0
 42
0.00000001
 43
0.00000001
 12
1.0
 22
0.0
 32
0.0
 13
1.0
 23
0.0
 33
0.0
 40
0.0
 40
0.0
 40
0.0
 40
0.0
 40
0.0582267143477105
 40
0.6255353094362555
 40
1.0
 40
1.0
 40
1.0
 40
1.0
 10
720.8739609212196
 20
460.7678892385288
 30
0.0
 10
720.8608713325384
 20
460.7657285696946
 30
0.0
 10
720.7202485960889
 20
460.7425162922552
 30
0.0
 10
720.4907221761493
 20
460.7548966835827
 30
0.0
 10
720.2764961850975
 20
460.7542240879861
 30
0.0
 10
720.1913163751876
 20
460.7539566528126
 30
0.0
  0
ARC
  5
26A
330
1F
100
AcDbEntity
  8
SLD-0
  6
CENTERX2
370
     0
100
AcDbCircle
 10
649.5148553383
 20
451.2709098055
 30
0.0
 40
52.50000000000012
100
AcDbArc
 50
358.0091845982
 51
181.9906750017
  0
ENDSEC
  0
SECTION
  2
OBJECTS
  0
DICTIONARY
  5
C
330
0
100
AcDbDictionary
281
     1
  3
ACAD_GROUP
350
D
  3
ACAD_LAYOUT
350
1A
  3
ACAD_MLINESTYLE
350
17
  3
ACAD_PLOTSETTINGS
350
19
  3
ACAD_PLOTSTYLENAME
350
E
  0
DICTIONARY
  5
D
102
{ACAD_REACTORS
330
C
102
}
330
C
100
AcDbDictionary
281
     1
  0
DICTIONARY
  5
1A
102
{ACAD_REACTORS
330
C
102
}
330
C
100
AcDbDictionary
281
     1
  3
Layout1
350
1E
  3
Layout2
350
26
  3
Model
350
22
  0
DICTIONARY
  5
17
102
{ACAD_REACTORS
330
C
102
}
330
C
100
AcDbDictionary
281
     1
  3
Standard
350
18
  0
DICTIONARY
  5
19
102
{ACAD_REACTORS
330
C
102
}
330
C
100
AcDbDictionary
281
     1
  0
ACDBDICTIONARYWDFLT
  5
E
102
{ACAD_REACTORS
330
C
102
}
330
C
100
AcDbDictionary
281
     1
  3
Normal
350
F
100
AcDbDictionaryWithDefault
340
F
  0
LAYOUT
  5
1E
102
{ACAD_REACTORS
330
1A
102
}
330
1A
100
AcDbPlotSettings
  1

  2
none_device
  4

  6

 40
0.0
 41
0.0
 42
0.0
 43
0.0
 44
0.0
 45
0.0
 46
0.0
 47
0.0
 48
0.0
 49
0.0
140
0.0
141
0.0
142
1.0
143
1.0
 70
   688
 72
     0
 73
     0
 74
     5
  7

 75
    16
147
1.0
148
0.0
149
0.0
100
AcDbLayout
  1
Layout1
 70
     1
 71
     1
 10
0.0
 20
0.0
 11
420.0
 21
297.0
 12
0.0
 22
0.0
 32
0.0
 14
1.0000000000E+20
 24
1.0000000000E+20
 34
1.0000000000E+20
 15
-1.0000000000E+20
 25
-1.0000000000E+20
 35
-1.0000000000E+20
146
0.0
 13
0.0
 23
0.0
 33
0.0
 16
1.0
 26
0.0
 36
0.0
 17
0.0
 27
1.0
 37
0.0
 76
     0
330
1B
  0
LAYOUT
  5
26
102
{ACAD_REACTORS
330
1A
102
}
330
1A
100
AcDbPlotSettings
  1

  2
none_device
  4

  6

 40
0.0
 41
0.0
 42
0.0
 43
0.0
 44
0.0
 45
0.0
 46
0.0
 47
0.0
 48
0.0
 49
0.0
140
0.0
141
0.0
142
1.0
143
1.0
 70
   688
 72
     0
 73
     0
 74
     5
  7

 75
    16
147
1.0
148
0.0
149
0.0
100
AcDbLayout
  1
Layout2
 70
     1
 71
     2
 10
0.0
 20
0.0
 11
0.0
 21
0.0
 12
0.0
 22
0.0
 32
0.0
 14
0.0
 24
0.0
 34
0.0
 15
0.0
 25
0.0
 35
0.0
146
0.0
 13
0.0
 23
0.0
 33
0.0
 16
1.0
 26
0.0
 36
0.0
 17
0.0
 27
1.0
 37
0.0
 76
     0
330
23
  0
LAYOUT
  5
22
102
{ACAD_REACTORS
330
1A
102
}
330
1A
100
AcDbPlotSettings
  1

  2
none_device
  4

  6

 40
0.0
 41
0.0
 42
0.0
 43
0.0
 44
0.0
 45
0.0
 46
0.0
 47
0.0
 48
0.0
 49
0.0
140
0.0
141
0.0
142
1.0
143
1.0
 70
  1712
 72
     0
 73
     0
 74
     0
  7

 75
     0
147
1.0
148
0.0
149
0.0
100
AcDbLayout
  1
Model
 70
     1
 71
     0
 10
0.0
 20
0.0
 11
841.0
 21
594.0
 12
0.0
 22
0.0
 32
0.0
 14
0.0
 24
0.0
 34
0.0
 15
841.0
 25
594.0
 35
0.0
146
0.0
 13
0.0
 23
0.0
 33
0.0
 16
1.0
 26
0.0
 36
0.0
 17
0.0
 27
1.0
 37
0.0
 76
     0
330
1F
331
29
  0
MLINESTYLE
  5
18
102
{ACAD_REACTORS
330
17
102
}
330
17
100
AcDbMlineStyle
  2
Standard
 70
     0
  3

 62
   256
 51
90.0
 52
90.0
 71
     2
 49
0.5
 62
   256
  6
BYLAYER
 49
-0.5
 62
   256
  6
BYLAYER
  0
ACDBPLACEHOLDER
  5
F
102
{ACAD_REACTORS
330
E
102
}
330
E
  0
ENDSEC
  0
EOF
