  0
SECTION
  2
HEADER
  9
$ACADVER
  1
AC1015
  9
$ACADMAINTVER
 70
     6
  9
$DWGCODEPAGE
  3
DOS932
  9
$INSBASE
 10
0.0
 20
0.0
 30
0.0
  9
$EXTMIN
 10
0.0
 20
0.0
 30
0.0
  9
$EXTMAX
 10
841.0
 20
594.0
 30
0.0
  9
$LIMMIN
 10
0.0
 20
0.0
  9
$LIMMAX
 10
841.0
 20
594.0
  9
$ORTHOMODE
 70
     0
  9
$REGENMODE
 70
     1
  9
$FILLMODE
 70
     1
  9
$QTEXTMODE
 70
     0
  9
$MIRRTEXT
 70
     1
  9
$LTSCALE
 40
1.0
  9
$ATTMODE
 70
     1
  9
$TEXTSIZE
 40
3.5
  9
$TRACEWID
 40
1.0
  9
$TEXTSTYLE
  7
STANDARD
  9
$CLAYER
  8
0
  9
$CELTYPE
  6
ByLayer
  9
$CECOLOR
 62
   256
  9
$CELTSCALE
 40
1.0
  9
$DISPSILH
 70
     0
  9
$DIMSCALE
 40
1.0
  9
$DIMASZ
 40
3.8637032976
  9
$DIMEXO
 40
1.0
  9
$DIMDLI
 40
3.75
  9
$DIMRND
 40
0.0
  9
$DIMDLE
 40
0.0
  9
$DIMEXE
 40
1.0
  9
$DIMTP
 40
0.0
  9
$DIMTM
 40
0.0
  9
$DIMTXT
 40
2.7999999523
  9
$DIMCEN
 40
2.5
  9
$DIMTSZ
 40
0.0
  9
$DIMTOL
 70
     0
  9
$DIMLIM
 70
     0
  9
$DIMTIH
 70
     1
  9
$DIMTOH
 70
     1
  9
$DIMSE1
 70
     0
  9
$DIMSE2
 70
     0
  9
$DIMTAD
 70
     1
  9
$DIMZIN
 70
     1
  9
$DIMBLK
  1

  9
$DIMASO
 70
     1
  9
$DIMSHO
 70
     1
  9
$DIMPOST
  1

  9
$DIMAPOST
  1

  9
$DIMALT
 70
     0
  9
$DIMALTD
 70
     3
  9
$DIMALTF
 40
0.0393700787
  9
$DIMLFAC
 40
1.0
  9
$DIMTOFL
 70
     1
  9
$DIMTVP
 40
0.0
  9
$DIMTIX
 70
     0
  9
$DIMSOXD
 70
     0
  9
$DIMSAH
 70
     0
  9
$DIMBLK1
  1

  9
$DIMBLK2
  1

  9
$DIMSTYLE
  2
ISO-25
  9
$DIMCLRD
 70
     0
  9
$DIMCLRE
 70
     0
  9
$DIMCLRT
 70
     0
  9
$DIMTFAC
 40
1.0
  9
$DIMGAP
 40
1.524
  9
$DIMJUST
 70
     0
  9
$DIMSD1
 70
     0
  9
$DIMSD2
 70
     0
  9
$DIMTOLJ
 70
     0
  9
$DIMTZIN
 70
     1
  9
$DIMALTZ
 70
     0
  9
$DIMALTTZ
 70
     0
  9
$DIMUPT
 70
     0
  9
$DIMDEC
 70
     3
  9
$DIMTDEC
 70
     3
  9
$DIMALTU
 70
     2
  9
$DIMALTTD
 70
     3
  9
$DIMTXSTY
  7
STANDARD
  9
$DIMAUNIT
 70
     0
  9
$DIMADEC
 70
     0
  9
$DIMALTRND
 40
0.0
  9
$DIMAZIN
 70
     0
  9
$DIMDSEP
 70
    44
  9
$DIMATFIT
 70
     3
  9
$DIMFRAC
 70
     0
  9
$DIMLDRBLK
  1

  9
$DIMLUNIT
 70
     2
  9
$DIMLWD
 70
    -2
  9
$DIMLWE
 70
    -2
  9
$DIMTMOVE
 70
     0
  9
$LUNITS
 70
     2
  9
$LUPREC
 70
     3
  9
$SKETCHINC
 40
1.0
  9
$FILLETRAD
 40
10.0
  9
$AUNITS
 70
     0
  9
$AUPREC
 70
     0
  9
$MENU
  1
.
  9
$ELEVATION
 40
0.0
  9
$PELEVATION
 40
0.0
  9
$THICKNESS
 40
0.0
  9
$LIMCHECK
 70
     0
  9
$CHAMFERA
 40
10.0
  9
$CHAMFERB
 40
10.0
  9
$CHAMFERC
 40
20.0
  9
$CHAMFERD
 40
0.0
  9
$SKPOLY
 70
     0
  9
$TDCREATE
 40
2457042.661876898
  9
$TDUCREATE
 40
2457042.286876898
  9
$TDUPDATE
 40
2457042.661877442
  9
$TDUUPDATE
 40
2457042.286877442
  9
$TDINDWG
 40
0.0000000116
  9
$TDUSRTIMER
 40
0.0000000116
  9
$USRTIMER
 70
     1
  9
$ANGBASE
 50
0.0
  9
$ANGDIR
 70
     0
  9
$PDMODE
 70
     0
  9
$PDSIZE
 40
-1.0
  9
$PLINEWID
 40
0.0
  9
$SPLFRAME
 70
     0
  9
$SPLINETYPE
 70
     6
  9
$SPLINESEGS
 70
     8
  9
$HANDSEED
  5
24D
  9
$SURFTAB1
 70
     6
  9
$SURFTAB2
 70
     6
  9
$SURFTYPE
 70
     6
  9
$SURFU
 70
     6
  9
$SURFV
 70
     6
  9
$UCSBASE
  2

  9
$UCSNAME
  2

  9
$UCSORG
 10
0.0
 20
0.0
 30
0.0
  9
$UCSXDIR
 10
1.0
 20
0.0
 30
0.0
  9
$UCSYDIR
 10
0.0
 20
1.0
 30
0.0
  9
$UCSORTHOREF
  2

  9
$UCSORTHOVIEW
 70
     0
  9
$UCSORGTOP
 10
0.0
 20
0.0
 30
0.0
  9
$UCSORGBOTTOM
 10
0.0
 20
0.0
 30
0.0
  9
$UCSORGLEFT
 10
0.0
 20
0.0
 30
0.0
  9
$UCSORGRIGHT
 10
0.0
 20
0.0
 30
0.0
  9
$UCSORGFRONT
 10
0.0
 20
0.0
 30
0.0
  9
$UCSORGBACK
 10
0.0
 20
0.0
 30
0.0
  9
$PUCSBASE
  2

  9
$PUCSNAME
  2

  9
$PUCSORG
 10
0.0
 20
0.0
 30
0.0
  9
$PUCSXDIR
 10
1.0
 20
0.0
 30
0.0
  9
$PUCSYDIR
 10
0.0
 20
1.0
 30
0.0
  9
$PUCSORTHOREF
  2

  9
$PUCSORTHOVIEW
 70
     0
  9
$PUCSORGTOP
 10
0.0
 20
0.0
 30
0.0
  9
$PUCSORGBOTTOM
 10
0.0
 20
0.0
 30
0.0
  9
$PUCSORGLEFT
 10
0.0
 20
0.0
 30
0.0
  9
$PUCSORGRIGHT
 10
0.0
 20
0.0
 30
0.0
  9
$PUCSORGFRONT
 10
0.0
 20
0.0
 30
0.0
  9
$PUCSORGBACK
 10
0.0
 20
0.0
 30
0.0
  9
$USERI1
 70
     0
  9
$USERI2
 70
     0
  9
$USERI3
 70
     0
  9
$USERI4
 70
     0
  9
$USERI5
 70
     0
  9
$USERR1
 40
0.0
  9
$USERR2
 40
0.0
  9
$USERR3
 40
0.0
  9
$USERR4
 40
0.0
  9
$USERR5
 40
0.0
  9
$WORLDVIEW
 70
     1
  9
$SHADEDGE
 70
     3
  9
$SHADEDIF
 70
    70
  9
$TILEMODE
 70
     1
  9
$MAXACTVP
 70
    64
  9
$PINSBASE
 10
0.0
 20
0.0
 30
0.0
  9
$PLIMCHECK
 70
     0
  9
$PEXTMIN
 10
1.0000000000E+20
 20
1.0000000000E+20
 30
1.0000000000E+20
  9
$PEXTMAX
 10
-1.0000000000E+20
 20
-1.0000000000E+20
 30
-1.0000000000E+20
  9
$PLIMMIN
 10
0.0
 20
0.0
  9
$PLIMMAX
 10
420.0
 20
297.0
  9
$UNITMODE
 70
     0
  9
$VISRETAIN
 70
     1
  9
$PLINEGEN
 70
     0
  9
$PSLTSCALE
 70
     1
  9
$TREEDEPTH
 70
  3020
  9
$CMLSTYLE
  2
Standard
  9
$CMLJUST
 70
     0
  9
$CMLSCALE
 40
20.0
  9
$PROXYGRAPHICS
 70
     1
  9
$MEASUREMENT
 70
     1
  9
$CELWEIGHT
370
    -1
  9
$ENDCAPS
280
     0
  9
$JOINSTYLE
280
     0
  9
$LWDISPLAY
290
     1
  9
$INSUNITS
 70
     4
  9
$HYPERLINKBASE
  1

  9
$STYLESHEET
  1

  9
$XEDIT
290
     1
  9
$CEPSNTYPE
380
     0
  9
$PSTYLEMODE
290
     1
  9
$FINGERPRINTGUID
  2
{67A12CE1-A1B5-4372-9DDA-B7DBBE31F84A}
  9
$VERSIONGUID
  2
{FAEB1C32-E019-11D5-929B-00C0DF256EC4}
  9
$EXTNAMES
290
     1
  9
$PSVPSCALE
 40
0.0
  9
$OLESTARTUP
290
     0
  0
ENDSEC
  0
SECTION
  2
CLASSES
  0
CLASS
  1
ACDBDICTIONARYWDFLT
  2
AcDbDictionaryWithDefault
  3
ObjectDBX Classes
 90
        0
280
     0
281
     0
  0
CLASS
  1
VISUALSTYLE
  2
AcDbVisualStyle
  3
ObjectDBX Classes
 90
     4095
280
     0
281
     0
  0
CLASS
  1
MATERIAL
  2
AcDbMaterial
  3
ObjectDBX Classes
 90
     1153
280
     0
281
     0
  0
CLASS
  1
ACDBPLACEHOLDER
  2
AcDbPlaceHolder
  3
ObjectDBX Classes
 90
        0
280
     0
281
     0
  0
CLASS
  1
LAYOUT
  2
AcDbLayout
  3
ObjectDBX Classes
 90
        0
280
     0
281
     0
  0
ENDSEC
  0
SECTION
  2
TABLES
  0
TABLE
  2
VPORT
  5
8
330
0
100
AcDbSymbolTable
 70
     1
  0
VPORT
  5
29
330
8
100
AcDbSymbolTableRecord
100
AcDbViewportTableRecord
  2
*Active
 70
     0
 10
0.0
 20
0.0
 11
1.0
 21
1.0
 12
420.5
 22
297.0
 13
0.0
 23
0.0
 14
10.0
 24
10.0
 15
10.0
 25
10.0
 16
0.0
 26
0.0
 36
1.0
 17
0.0
 27
0.0
 37
0.0
 40
594.0
 41
1.4158249158
 42
50.0
 43
0.0
 44
0.0
 50
0.0
 51
0.0
 71
     0
 72
  2000
 73
     1
 74
     3
 75
     0
 76
     0
 77
     0
 78
     0
281
     0
 65
     1
110
0.0
120
0.0
130
0.0
111
1.0
121
0.0
131
0.0
112
0.0
122
1.0
132
0.0
 79
     0
146
0.0
  0
ENDTAB
  0
TABLE
  2
LTYPE
  5
5
330
0
100
AcDbSymbolTable
 70
     6
  0
LTYPE
  5
14
330
5
100
AcDbSymbolTableRecord
100
AcDbLinetypeTableRecord
  2
ByBlock
 70
     0
  3

 72
    65
 73
     0
 40
0.0
  0
LTYPE
  5
15
330
5
100
AcDbSymbolTableRecord
100
AcDbLinetypeTableRecord
  2
ByLayer
 70
     0
  3

 72
    65
 73
     0
 40
0.0
  0
LTYPE
  5
16
330
5
100
AcDbSymbolTableRecord
100
AcDbLinetypeTableRecord
  2
Continuous
 70
     0
  3
Solid line
 72
    65
 73
     0
 40
0.0
  0
LTYPE
  5
3F
330
5
100
AcDbSymbolTableRecord
100
AcDbLinetypeTableRecord
  2
HIDDEN
 70
     0
  3
Hidden __ __ __ __ __ __ __ __ __ __ __ __ __ __
 72
    65
 73
     2
 40
1.905
 49
1.27
 74
     0
 49
-0.635
 74
     0
  0
LTYPE
  5
40
330
5
100
AcDbSymbolTableRecord
100
AcDbLinetypeTableRecord
  2
PHANTOM
 70
     0
  3
Phantom ______  __  __  ______  __  __  ______
 72
    65
 73
     6
 40
12.7
 49
6.35
 74
     0
 49
-1.27
 74
     0
 49
1.27
 74
     0
 49
-1.27
 74
     0
 49
1.27
 74
     0
 49
-1.27
 74
     0
  0
LTYPE
  5
41
330
5
100
AcDbSymbolTableRecord
100
AcDbLinetypeTableRecord
  2
CENTER
 70
     0
  3
Center ____ _ ____ _ ____ _ ____ _ ____ _ ____
 72
    65
 73
     4
 40
10.16
 49
6.35
 74
     0
 49
-1.27
 74
     0
 49
1.27
 74
     0
 49
-1.27
 74
     0
  0
LTYPE
  5
42
330
5
100
AcDbSymbolTableRecord
100
AcDbLinetypeTableRecord
  2
CENTERX2
 70
     0
  3
Center (2x) ________  __  ________  __  _____
 72
    65
 73
     4
 40
20.32
 49
12.7
 74
     0
 49
-2.54
 74
     0
 49
2.54
 74
     0
 49
-2.54
 74
     0
  0
LTYPE
  5
43
330
5
100
AcDbSymbolTableRecord
100
AcDbLinetypeTableRecord
  2
DOT2
 70
     0
  3
Dot (.5x) ........................................
 72
    65
 73
     2
 40
0.635
 49
0.0
 74
     0
 49
-0.635
 74
     0
  0
ENDTAB
  0
TABLE
  2
LAYER
  5
2
330
0
100
AcDbSymbolTable
 70
     4
  0
LAYER
  5
10
330
2
100
AcDbSymbolTableRecord
100
AcDbLayerTableRecord
  2
0
 70
     0
 62
     7
  6
Continuous
370
    -3
390
F
  0
LAYER
  5
44
330
2
100
AcDbSymbolTableRecord
100
AcDbLayerTableRecord
  2
SLD-0
 70
     0
 62
     3
  6
Continuous
370
    -3
390
F
  0
LAYER
  5
45
330
2
100
AcDbSymbolTableRecord
100
AcDbLayerTableRecord
  2
SLD-DEFPOINTS
 70
     0
 62
   179
  6
Continuous
370
    -3
390
F
  0
LAYER
  5
46
330
2
100
AcDbSymbolTableRecord
100
AcDbLayerTableRecord
  2
AM_REFDIM
 70
     0
 62
     4
  6
Continuous
370
    15
390
F
  0
ENDTAB
  0
TABLE
  2
STYLE
  5
3
330
0
100
AcDbSymbolTable
 70
     1
  0
STYLE
  5
11
330
3
100
AcDbSymbolTableRecord
100
AcDbTextStyleTableRecord
  2
STANDARD
 70
     0
 40
0.0
 41
1.0
 50
0.0
 71
     0
 42
3.5
  3
MSGOTHIC.TTC
  4

1001
ACAD
1000
ＭＳ ゴシック
1071
    32817
  0
ENDTAB
  0
TABLE
  2
VIEW
  5
6
330
0
100
AcDbSymbolTable
 70
     0
  0
ENDTAB
  0
TABLE
  2
UCS
  5
7
330
0
100
AcDbSymbolTable
 70
     0
  0
ENDTAB
  0
TABLE
  2
APPID
  5
9
330
0
100
AcDbSymbolTable
 70
     1
  0
APPID
  5
12
330
9
100
AcDbSymbolTableRecord
100
AcDbRegAppTableRecord
  2
ACAD
 70
     0
  0
ENDTAB
  0
TABLE
  2
DIMSTYLE
  5
A
330
0
100
AcDbSymbolTable
 70
     1
100
AcDbDimStyleTable
  0
DIMSTYLE
105
27
330
A
100
AcDbSymbolTableRecord
100
AcDbDimStyleTableRecord
  2
ISO-25
 70
     0
 41
2.5
 42
0.625
 43
3.75
 44
1.25
 73
     0
 74
     0
 77
     1
 78
     8
140
2.5
141
2.5
143
0.0393700787
147
0.625
171
     3
172
     1
178
     0
271
     2
272
     2
274
     3
278
    44
283
     0
284
     8
340
11
  0
ENDTAB
  0
TABLE
  2
BLOCK_RECORD
  5
1
330
0
100
AcDbSymbolTable
 70
     1
  0
BLOCK_RECORD
  5
1F
330
1
100
AcDbSymbolTableRecord
100
AcDbBlockTableRecord
  2
*Model_Space
340
22
  0
BLOCK_RECORD
  5
1B
330
1
100
AcDbSymbolTableRecord
100
AcDbBlockTableRecord
  2
*Paper_Space
340
1E
  0
BLOCK_RECORD
  5
23
330
1
100
AcDbSymbolTableRecord
100
AcDbBlockTableRecord
  2
*Paper_Space0
340
26
  0
ENDTAB
  0
ENDSEC
  0
SECTION
  2
BLOCKS
  0
BLOCK
  5
20
330
1F
100
AcDbEntity
  8
0
100
AcDbBlockBegin
  2
*Model_Space
 70
     0
 10
0.0
 20
0.0
 30
0.0
  3
*Model_Space
  1

  0
ENDBLK
  5
21
330
1F
100
AcDbEntity
  8
0
100
AcDbBlockEnd
  0
BLOCK
  5
1C
330
1B
100
AcDbEntity
 67
     1
  8
0
100
AcDbBlockBegin
  2
*Paper_Space
 70
     0
 10
0.0
 20
0.0
 30
0.0
  3
*Paper_Space
  1

  0
ENDBLK
  5
1D
330
1B
100
AcDbEntity
 67
     1
  8
0
100
AcDbBlockEnd
  0
BLOCK
  5
24
330
23
100
AcDbEntity
  8
0
100
AcDbBlockBegin
  2
*Paper_Space0
 70
     0
 10
0.0
 20
0.0
 30
0.0
  3
*Paper_Space0
  1

  0
ENDBLK
  5
25
330
23
100
AcDbEntity
  8
0
100
AcDbBlockEnd
  0
ENDSEC
  0
SECTION
  2
ENTITIES
  0
LINE
  5
47
330
1F
100
AcDbEntity
  8
0
  6
Continuous
 62
     7
370
    15
100
AcDbLine
 10
298.4005326103
 20
375.3774011411
 30
0.0
 11
301.4005327527
 21
375.3774011411
 31
0.0
  0
LINE
  5
48
330
1F
100
AcDbEntity
  8
0
  6
Continuous
 62
     7
370
    15
100
AcDbLine
 10
301.4005327527
 20
384.5244044341
 30
0.0
 11
298.4005326103
 21
384.5244044341
 31
0.0
  0
LINE
  5
49
330
1F
100
AcDbEntity
  8
0
  6
Continuous
 62
     7
370
    15
100
AcDbLine
 10
285.4005324584
 20
375.950902132
 30
0.0
 11
287.4005327863
 21
375.950902132
 31
0.0
  0
LINE
  5
4A
330
1F
100
AcDbEntity
  8
0
  6
Continuous
 62
     7
370
    15
100
AcDbLine
 10
287.4005327863
 20
383.9509034433
 30
0.0
 11
285.4005324584
 21
383.9509034433
 31
0.0
  0
LINE
  5
4B
330
1F
100
AcDbEntity
  8
0
  6
Continuous
 62
     7
370
    15
100
AcDbLine
 10
403.4005313111
 20
249.950904762
 30
0.0
 11
403.4005313111
 21
256.0416798942
 31
0.0
  0
SPLINE
  5
4C
330
1F
100
AcDbEntity
  8
0
  6
Continuous
 62
     7
370
    15
100
AcDbSpline
210
0.0
220
0.0
230
1.0
 70
    24
 71
     3
 72
    22
 73
    18
 74
     0
 42
0.00000001
 43
0.00000001
 12
1.0
 22
0.0
 32
0.0
 13
1.0
 23
0.0
 33
0.0
 40
0.0
 40
0.0
 40
0.0
 40
0.0
 40
0.0054035890854878
 40
0.0852280962355287
 40
0.184727896132094
 40
0.2767262258511781
 40
0.361509198187225
 40
0.4392526258787848
 40
0.5100500622446289
 40
0.5739306147492603
 40
0.6307052657084916
 40
0.6799298507894015
 40
0.7295672349316438
 40
0.7866284927971081
 40
0.8510448490492819
 40
0.9227992418949481
 40
1.0
 40
1.0
 40
1.0
 40
1.0
 10
403.4005313110583
 20
167.2294134177488
 30
0.0
 10
403.4005313110583
 20
167.293703774217
 30
0.0
 10
403.4005313110584
 20
168.3077232715181
 30
0.0
 10
403.4005313110583
 20
171.1213569882847
 30
0.0
 10
403.4005313110583
 20
175.6651660638404
 30
0.0
 10
403.4005313110583
 20
181.0796679258021
 30
0.0
 10
403.4005313110583
 20
186.5962684638133
 30
0.0
 10
403.4005313110583
 20
192.0782853077451
 30
0.0
 10
403.4005313110583
 20
197.3842435067719
 30
0.0
 10
403.4005313110583
 20
202.3929897040725
 30
0.0
 10
403.4005313110583
 20
207.010271637647
 30
0.0
 10
403.4005313110583
 20
211.3658452124491
 30
0.0
 10
403.4005313110583
 20
215.8375294112028
 30
0.0
 10
403.4005313110584
 20
220.8567403627902
 30
0.0
 10
403.4005313110583
 20
226.6261469697477
 30
0.0
 10
403.4005313110583
 20
233.0792046743307
 30
0.0
 10
403.4005313110583
 20
237.6051759895076
 30
0.0
 10
403.4005313110583
 20
239.9509049855393
 30
0.0
  0
SPLINE
  5
4D
330
1F
100
AcDbEntity
  8
0
  6
Continuous
 62
     7
370
    15
100
AcDbSpline
210
0.0
220
0.0
230
1.0
 70
    24
 71
     3
 72
    11
 73
     7
 74
     0
 42
0.00000001
 43
0.00000001
 12
1.0
 22
0.0
 32
0.0
 13
1.0
 23
0.0
 33
0.0
 40
0.0
 40
0.0
 40
0.0
 40
0.0
 40
0.2598062854150457
 40
0.5379112576389347
 40
0.8187866051324213
 40
0.9999999999999999
 40
0.9999999999999999
 40
0.9999999999999999
 40
0.9999999999999999
 10
364.4005342316859
 20
173.554330495767
 30
0.0
 10
364.4005342316859
 20
172.1472389504272
 30
0.0
 10
364.4005342316859
 20
169.2339515310805
 30
0.0
 10
364.4005342316859
 20
165.7143970534605
 30
0.0
 10
364.4005342316859
 20
163.1022328303016
 30
0.0
 10
364.4005342316859
 20
162.0237568603771
 30
0.0
 10
364.4005342316859
 20
161.6008201517385
 30
0.0
  0
LINE
  5
4E
330
1F
100
AcDbEntity
  8
0
  6
Continuous
 62
     7
370
    15
100
AcDbLine
 10
456.4005269599
 20
91.9509077348
 30
0.0
 11
456.4005269599
 21
104.9509042777
 31
0.0
  0
LINE
  5
4F
330
1F
100
AcDbEntity
  8
0
  6
Continuous
 62
     7
370
    15
100
AcDbLine
 10
301.4005327527
 20
104.9509042777
 30
0.0
 11
301.4005327527
 21
91.9509077348
 31
0.0
  0
ARC
  5
50
330
1F
100
AcDbEntity
  8
0
  6
Continuous
 62
     7
370
    15
100
AcDbCircle
 10
453.4005325628
 20
104.9509048738
 30
0.0
 40
3.0
100
AcDbArc
 50
0.0
 51
90.0
  0
ARC
  5
51
330
1F
100
AcDbEntity
  8
0
  6
Continuous
 62
     7
370
    15
100
AcDbCircle
 10
304.4005325628
 20
104.9509048738
 30
0.0
 40
3.000000000000057
100
AcDbArc
 50
90.0
 51
180.0
  0
LINE
  5
52
330
1F
100
AcDbEntity
  8
0
  6
Continuous
 62
     7
370
    15
100
AcDbLine
 10
301.4005327527
 20
397.9509020128
 30
0.0
 11
301.4005327527
 21
394.9509108342
 31
0.0
  0
LINE
  5
53
330
1F
100
AcDbEntity
  8
0
  6
Continuous
 62
     7
370
    15
100
AcDbLine
 10
456.4005269599
 20
384.9509054698
 30
0.0
 11
456.4005269599
 21
397.9509020128
 31
0.0
  0
ARC
  5
54
330
1F
100
AcDbEntity
  8
0
  6
Continuous
 62
     7
370
    15
100
AcDbCircle
 10
453.4005325628
 20
384.9509048738
 30
0.0
 40
3.0
100
AcDbArc
 50
270.0
 51
0.0
  0
LINE
  5
55
330
1F
100
AcDbEntity
  8
0
  6
Continuous
 62
     7
370
    15
100
AcDbLine
 10
343.9005336654
 20
173.5543304958
 30
0.0
 11
367.9544611764
 21
173.5543304958
 31
0.0
  0
LINE
  5
56
330
1F
100
AcDbEntity
  8
0
  6
Continuous
 62
     7
370
    15
100
AcDbLine
 10
383.9005290461
 20
316.3474792518
 30
0.0
 11
343.9005336654
 21
316.3474792518
 31
0.0
  0
LINE
  5
57
330
1F
100
AcDbEntity
  8
0
  6
Continuous
 62
     7
370
    15
100
AcDbLine
 10
428.9005382848
 20
89.9509036817
 30
0.0
 11
428.9005382848
 21
91.9509077348
 31
0.0
  0
LINE
  5
58
330
1F
100
AcDbEntity
  8
0
  6
Continuous
 62
     7
370
    15
100
AcDbLine
 10
328.9005330694
 20
91.9509077348
 30
0.0
 11
328.9005330694
 21
89.9509036817
 31
0.0
  0
LINE
  5
59
330
1F
100
AcDbEntity
  8
0
  6
Continuous
 62
     7
370
    15
100
AcDbLine
 10
328.9005330694
 20
399.9509060659
 30
0.0
 11
328.9005330694
 21
397.9509020128
 31
0.0
  0
LINE
  5
5A
330
1F
100
AcDbEntity
  8
0
  6
Continuous
 62
     7
370
    15
100
AcDbLine
 10
428.9005382848
 20
397.9509020128
 30
0.0
 11
428.9005382848
 21
399.9509060659
 31
0.0
  0
ARC
  5
5B
330
1F
100
AcDbEntity
  8
0
  6
Continuous
 62
     7
370
    15
100
AcDbCircle
 10
446.9005325628
 20
278.9509048738
 30
0.0
 40
17.00000000000006
100
AcDbArc
 50
0.0
 51
90.0
  0
LINE
  5
5C
330
1F
100
AcDbEntity
  8
0
  6
Continuous
 62
     7
370
    15
100
AcDbLine
 10
343.9005336654
 20
164.4509056486
 30
0.0
 11
349.9005309236
 21
164.4509056486
 31
0.0
  0
LINE
  5
5D
330
1F
100
AcDbEntity
  8
0
  6
Continuous
 62
     7
370
    15
100
AcDbLine
 10
349.9005309236
 20
325.4509040989
 30
0.0
 11
343.9005336654
 21
325.4509040989
 31
0.0
  0
LINE
  5
5E
330
1F
100
AcDbEntity
  8
0
  6
Continuous
 62
     7
370
    15
100
AcDbLine
 10
446.9005300594
 20
295.9509039201
 30
0.0
 11
433.1539555383
 21
295.9509039201
 31
0.0
  0
SPLINE
  5
5F
330
1F
100
AcDbEntity
  8
0
  6
Continuous
 62
     7
370
    15
100
AcDbSpline
210
0.0
220
0.0
230
1.0
 70
     8
 71
     3
 72
    13
 73
     9
 74
     0
 42
0.00000001
 43
0.00000001
 12
1.0
 22
0.0
 32
0.0
 13
1.0
 23
0.0
 33
0.0
 40
0.0
 40
0.0
 40
0.0
 40
0.0
 40
0.0477565056686236
 40
0.1537193930679949
 40
0.2627115040423956
 40
0.3745714989671249
 40
0.6966663295427387
 40
1.0
 40
1.0
 40
1.0
 40
1.0
 10
462.1899112057918
 20
174.9683910884183
 30
0.0
 10
462.4534958623306
 20
175.9687409737923
 30
0.0
 10
463.3019263087775
 20
179.1886829499146
 30
0.0
 10
463.9530790059326
 20
184.87200487196
 30
0.0
 10
463.8863397841642
 20
191.9491387480764
 30
0.0
 10
463.9128377595259
 20
203.7051541468428
 30
0.0
 10
463.8965869898937
 20
219.6696409569633
 30
0.0
 10
463.8992453838515
 20
233.2118546494046
 30
0.0
 10
463.9005347085231
 20
239.7798466399532
 30
0.0
  0
SPLINE
  5
60
330
1F
100
AcDbEntity
  8
0
  6
Continuous
 62
     7
370
    15
100
AcDbSpline
210
0.0
220
0.0
230
1.0
 70
     8
 71
     3
 72
    14
 73
    10
 74
     0
 42
0.00000001
 43
0.00000001
 12
1.0
 22
0.0
 32
0.0
 13
1.0
 23
0.0
 33
0.0
 40
0.0
 40
0.0
 40
0.0
 40
0.0
 40
0.1330897365028865
 40
0.3059311401524205
 40
0.4894813665986106
 40
0.6443348291705584
 40
0.8066080246962777
 40
0.976697229315399
 40
1.0
 40
1.0
 40
1.0
 40
1.0
 10
429.4754399848216
 20
107.9411798991483
 30
0.0
 10
430.8457233515802
 20
109.0668231222633
 30
0.0
 10
433.9955706932289
 20
111.6543202779508
 30
0.0
 10
438.5369403121929
 20
116.3520806416331
 30
0.0
 10
442.8296038087456
 20
121.645900757804
 30
0.0
 10
446.5440518972907
 20
127.196960467621
 30
0.0
 10
449.6303598209336
 20
132.9043916074097
 30
0.0
 10
451.6593159197871
 20
137.2055897605436
 30
0.0
 10
452.4542247449098
 20
139.6556839893948
 30
0.0
 10
452.5500073027843
 20
139.950908152036
 30
0.0
  0
LINE
  5
61
330
1F
100
AcDbEntity
  8
0
  6
Continuous
 62
     7
370
    15
100
AcDbLine
 10
301.4005327527
 20
364.9509021916
 30
0.0
 11
344.4005309534
 21
364.9509021916
 31
0.0
  0
ARC
  5
62
330
1F
100
AcDbEntity
  8
0
  6
Continuous
 62
     7
370
    15
100
AcDbCircle
 10
433.1539481478
 20
305.9509048738
 30
0.0
 40
10.00000000000006
100
AcDbArc
 50
170.0
 51
269.9474779186
  0
SPLINE
  5
63
330
1F
100
AcDbEntity
  8
0
  6
Continuous
 62
     7
370
    15
100
AcDbSpline
210
0.0
220
0.0
230
1.0
 70
     8
 71
     3
 72
    12
 73
     8
 74
     0
 42
0.00000001
 43
0.00000001
 12
1.0
 22
0.0
 32
0.0
 13
1.0
 23
0.0
 33
0.0
 40
0.0
 40
0.0
 40
0.0
 40
0.0
 40
0.0972517267562125
 40
0.2779286304504142
 40
0.4583254449161398
 40
0.7289209783755554
 40
1.0
 40
1.0
 40
1.0
 40
1.0
 10
454.4570281100505
 20
142.467528013162
 30
0.0
 10
454.8035541502135
 20
143.510263574456
 30
0.0
 10
455.793865695008
 20
146.4902216290712
 30
0.0
 10
457.0179706516251
 20
151.5247353343445
 30
0.0
 10
458.8917031799689
 20
158.4082451217734
 30
0.0
 10
460.9785033266938
 20
166.2932382671486
 30
0.0
 10
462.5492661418602
 20
172.2065112454291
 30
0.0
 10
463.3353485656016
 20
175.1657867707532
 30
0.0
  0
LINE
  5
64
330
1F
100
AcDbEntity
  8
0
  6
Continuous
 62
     7
370
    15
100
AcDbLine
 10
182.4005304766
 20
268.2431371786
 30
0.0
 11
136.4005341125
 21
268.2431371786
 31
0.0
  0
ARC
  5
65
330
1F
100
AcDbEntity
  8
0
  6
Continuous
 62
     7
370
    15
100
AcDbCircle
 10
136.4005325628
 20
262.6431371855
 30
0.0
 40
5.600000000000023
100
AcDbArc
 50
90.0
 51
180.0
  0
ARC
  5
66
330
1F
100
AcDbEntity
  8
0
  6
Continuous
 62
     7
370
    15
100
AcDbCircle
 10
182.4005325628
 20
262.6431371855
 30
0.0
 40
5.599999999999994
100
AcDbArc
 50
0.0
 51
90.0
  0
LINE
  5
67
330
1F
100
AcDbEntity
  8
0
  6
Continuous
 62
     7
370
    15
100
AcDbLine
 10
122.400535543
 20
313.9509031452
 30
0.0
 11
93.4005363775
 21
313.9509031452
 31
0.0
  0
LINE
  5
68
330
1F
100
AcDbEntity
  8
0
  6
Continuous
 62
     7
370
    15
100
AcDbLine
 10
118.347211082
 20
175.9509066023
 30
0.0
 11
122.400535543
 21
175.9509066023
 31
0.0
  0
ARC
  5
69
330
1F
100
AcDbEntity
  8
0
  6
Continuous
 62
     7
370
    15
100
AcDbCircle
 10
118.3472132808
 20
183.9509048738
 30
0.0
 40
8.000000000000028
100
AcDbArc
 50
195.2555633432
 51
270.0
  0
ARC
  5
6A
330
1F
100
AcDbEntity
  8
0
  6
Continuous
 62
     7
370
    15
100
AcDbCircle
 10
226.4005325628
 20
213.4208928642
 30
0.0
 40
120.0
100
AcDbArc
 50
180.0
 51
195.2555633432
  0
ARC
  5
6B
330
1F
100
AcDbEntity
  8
0
  6
Continuous
 62
     7
370
    15
100
AcDbCircle
 10
93.4005325628
 20
310.9509048738
 30
0.0
 40
3.0
100
AcDbArc
 50
90.0
 51
180.0
  0
LINE
  5
6C
330
1F
100
AcDbEntity
  8
0
  6
Continuous
 62
     7
370
    15
100
AcDbLine
 10
95.4005255294
 20
221.9509048291
 30
0.0
 11
106.4005329204
 21
221.9509048291
 31
0.0
  0
LINE
  5
6D
330
1F
100
AcDbEntity
  8
0
  6
Continuous
 62
     7
370
    15
100
AcDbLine
 10
295.4005324678
 20
313.5509038247
 30
0.0
 11
122.400535543
 21
313.5509038247
 31
0.0
  0
LINE
  5
6E
330
1F
100
AcDbEntity
  8
0
  6
Continuous
 62
     7
370
    15
100
AcDbLine
 10
122.400535543
 20
176.3509059228
 30
0.0
 11
295.4005324678
 21
176.3509059228
 31
0.0
  0
LINE
  5
6F
330
1F
100
AcDbEntity
  8
0
  6
Continuous
 62
     7
370
    15
100
AcDbLine
 10
297.4005325628
 20
174.9509045758
 30
0.0
 11
335.9005323541
 21
174.9509045758
 31
0.0
  0
LINE
  5
70
330
1F
100
AcDbEntity
  8
0
  6
Continuous
 62
     7
370
    15
100
AcDbLine
 10
335.9005323541
 20
314.9509051718
 30
0.0
 11
297.4005325628
 21
314.9509051718
 31
0.0
  0
LINE
  5
71
330
1F
100
AcDbEntity
  8
0
  6
Continuous
 62
     7
370
    15
100
AcDbLine
 10
295.4005324678
 20
175.9509066023
 30
0.0
 11
297.4005325628
 21
175.9509066023
 31
0.0
  0
LINE
  5
72
330
1F
100
AcDbEntity
  8
0
  6
Continuous
 62
     7
370
    15
100
AcDbLine
 10
297.4005325628
 20
313.9509031452
 30
0.0
 11
295.4005324678
 21
313.9509031452
 31
0.0
  0
LINE
  5
73
330
1F
100
AcDbEntity
  8
0
  6
Continuous
 62
     7
370
    15
100
AcDbLine
 10
335.9005323541
 20
264.9509044267
 30
0.0
 11
314.4005334866
 21
264.9509044267
 31
0.0
  0
LINE
  5
74
330
1F
100
AcDbEntity
  8
0
  6
Continuous
 62
     7
370
    15
100
AcDbLine
 10
314.4005334866
 20
224.9509053208
 30
0.0
 11
335.9005323541
 21
224.9509053208
 31
0.0
  0
LINE
  5
75
330
1F
100
AcDbEntity
  8
0
  6
Continuous
 62
     7
370
    15
100
AcDbLine
 10
343.9005336654
 20
316.3474792518
 30
0.0
 11
335.9005323541
 21
316.3474792518
 31
0.0
  0
LINE
  5
76
330
1F
100
AcDbEntity
  8
0
  6
Continuous
 62
     7
370
    15
100
AcDbLine
 10
335.9005323541
 20
173.5543304958
 30
0.0
 11
343.9005336654
 21
173.5543304958
 31
0.0
  0
LINE
  5
77
330
1F
100
AcDbEntity
  8
0
  6
Continuous
 62
     7
370
    15
100
AcDbLine
 10
343.9005336654
 20
325.4509040989
 30
0.0
 11
335.9005323541
 21
325.4509040989
 31
0.0
  0
LINE
  5
78
330
1F
100
AcDbEntity
  8
0
  6
Continuous
 62
     7
370
    15
100
AcDbLine
 10
335.9005323541
 20
164.4509056486
 30
0.0
 11
343.9005336654
 21
164.4509056486
 31
0.0
  0
LINE
  5
79
330
1F
100
AcDbEntity
  8
0
  6
Continuous
 62
     7
370
    15
100
AcDbLine
 10
335.9005323541
 20
182.2588810601
 30
0.0
 11
314.4005334866
 21
182.2588810601
 31
0.0
  0
LINE
  5
7A
330
1F
100
AcDbEntity
  8
0
  6
Continuous
 62
     7
370
    15
100
AcDbLine
 10
314.4005334866
 20
307.6429286875
 30
0.0
 11
335.9005323541
 21
307.6429286875
 31
0.0
  0
LINE
  5
7B
330
1F
100
AcDbEntity
  8
0
  6
Continuous
 62
     7
370
    15
100
AcDbLine
 10
298.4005326103
 20
373.4509045162
 30
0.0
 11
287.4005327863
 21
373.4509045162
 31
0.0
  0
LINE
  5
7C
330
1F
100
AcDbEntity
  8
0
  6
Continuous
 62
     7
370
    15
100
AcDbLine
 10
287.4005327863
 20
379.9509102382
 30
0.0
 11
287.4005327863
 21
373.4509045162
 31
0.0
  0
LINE
  5
7D
330
1F
100
AcDbEntity
  8
0
  6
Continuous
 62
     7
370
    15
100
AcDbLine
 10
298.4005326103
 20
379.9509102382
 30
0.0
 11
287.4005327863
 21
379.9509102382
 31
0.0
  0
LINE
  5
7E
330
1F
100
AcDbEntity
  8
0
  6
Continuous
 62
     7
370
    15
100
AcDbLine
 10
298.4005326103
 20
379.9509102382
 30
0.0
 11
298.4005326103
 21
373.4509045162
 31
0.0
  0
LINE
  5
7F
330
1F
100
AcDbEntity
  8
0
  6
Continuous
 62
     7
370
    15
100
AcDbLine
 10
285.4005324584
 20
379.9509102382
 30
0.0
 11
279.4005333376
 21
379.9509102382
 31
0.0
  0
LINE
  5
80
330
1F
100
AcDbEntity
  8
0
  6
Continuous
 62
     7
370
    15
100
AcDbLine
 10
285.4005324584
 20
373.4509045162
 30
0.0
 11
279.4005333376
 21
373.4509045162
 31
0.0
  0
LINE
  5
81
330
1F
100
AcDbEntity
  8
0
  6
Continuous
 62
     7
370
    15
100
AcDbLine
 10
279.4005333376
 20
379.9509102382
 30
0.0
 11
279.4005333376
 21
373.4509045162
 31
0.0
  0
LINE
  5
82
330
1F
100
AcDbEntity
  8
0
  6
Continuous
 62
     7
370
    15
100
AcDbLine
 10
285.4005324584
 20
373.4509045162
 30
0.0
 11
285.4005324584
 21
379.9509102382
 31
0.0
  0
LINE
  5
83
330
1F
100
AcDbEntity
  8
0
  6
Continuous
 62
     7
370
    15
100
AcDbLine
 10
285.4005324584
 20
386.4509010591
 30
0.0
 11
279.4005333376
 21
386.4509010591
 31
0.0
  0
LINE
  5
84
330
1F
100
AcDbEntity
  8
0
  6
Continuous
 62
     7
370
    15
100
AcDbLine
 10
279.4005333376
 20
386.4509010591
 30
0.0
 11
279.4005333376
 21
379.9509102382
 31
0.0
  0
LINE
  5
85
330
1F
100
AcDbEntity
  8
0
  6
Continuous
 62
     7
370
    15
100
AcDbLine
 10
285.4005324584
 20
379.9509102382
 30
0.0
 11
285.4005324584
 21
386.4509010591
 31
0.0
  0
LINE
  5
86
330
1F
100
AcDbEntity
  8
0
  6
Continuous
 62
     7
370
    15
100
AcDbLine
 10
298.4005326103
 20
386.4509010591
 30
0.0
 11
287.4005327863
 21
386.4509010591
 31
0.0
  0
LINE
  5
87
330
1F
100
AcDbEntity
  8
0
  6
Continuous
 62
     7
370
    15
100
AcDbLine
 10
287.4005327863
 20
386.4509010591
 30
0.0
 11
287.4005327863
 21
379.9509102382
 31
0.0
  0
LINE
  5
88
330
1F
100
AcDbEntity
  8
0
  6
Continuous
 62
     7
370
    15
100
AcDbLine
 10
298.4005326103
 20
386.4509010591
 30
0.0
 11
298.4005326103
 21
379.9509102382
 31
0.0
  0
LINE
  5
89
330
1F
100
AcDbEntity
  8
0
  6
Continuous
 62
     7
370
    15
100
AcDbLine
 10
391.8022721005
 20
243.7009049017
 30
0.0
 11
375.9987934423
 21
243.7009049017
 31
0.0
  0
ARC
  5
8A
330
1F
100
AcDbEntity
  8
0
  6
Continuous
 62
     7
370
    15
100
AcDbCircle
 10
383.9005325628
 20
244.9509048738
 30
0.0
 40
8.00000000000004
100
AcDbArc
 50
188.9892993452
 51
351.0107006548
  0
LINE
  5
8B
330
1F
100
AcDbEntity
  8
0
  6
Continuous
 62
     7
370
    15
100
AcDbLine
 10
375.9987934423
 20
246.2009048458
 30
0.0
 11
391.8022721005
 21
246.2009048458
 31
0.0
  0
ARC
  5
8C
330
1F
100
AcDbEntity
  8
0
  6
Continuous
 62
     7
370
    15
100
AcDbCircle
 10
383.9005325628
 20
244.9509048738
 30
0.0
 40
8.00000000000004
100
AcDbArc
 50
8.9892993452
 51
171.0107006548
  0
ARC
  5
8D
330
1F
100
AcDbEntity
  8
0
  6
Continuous
 62
     7
370
    15
100
AcDbCircle
 10
383.9005325628
 20
244.9509048738
 30
0.0
 40
8.00000000000004
100
AcDbArc
 50
171.0107006548
 51
188.9892993452
  0
ARC
  5
8E
330
1F
100
AcDbEntity
  8
0
  6
Continuous
 62
     7
370
    15
100
AcDbCircle
 10
383.9005325628
 20
244.9509048738
 30
0.0
 40
7.999999999999985
100
AcDbArc
 50
351.0107006548
 51
8.9892993452
  0
CIRCLE
  5
8F
330
1F
100
AcDbEntity
  8
0
  6
Continuous
 62
     7
370
    15
100
AcDbCircle
 10
383.9005325628
 20
244.9509048738
 30
0.0
 40
11.5
  0
SPLINE
  5
90
330
1F
100
AcDbEntity
  8
0
  6
Continuous
 62
     7
370
    15
100
AcDbSpline
210
0.0
220
0.0
230
1.0
 70
     8
 71
     3
 72
    12
 73
     8
 74
     0
 42
0.00000001
 43
0.00000001
 12
1.0
 22
0.0
 32
0.0
 13
1.0
 23
0.0
 33
0.0
 40
0.0
 40
0.0
 40
0.0
 40
0.0
 40
0.2172927806052252
 40
0.4346184303188017
 40
0.6509365122863614
 40
0.8661411578206752
 40
1.0
 40
1.0
 40
1.0
 40
1.0
 10
403.4005313110583
 20
239.9509049855393
 30
0.0
 10
403.4005025963977
 20
239.9733218513879
 30
0.0
 10
403.4004451627328
 20
240.0181589740047
 30
0.0
 10
403.4008752993769
 20
240.3683121657828
 30
0.0
 10
403.399250825287
 20
240.8831037530274
 30
0.0
 10
403.3876668342202
 20
241.4441973551825
 30
0.0
 10
403.3860492827244
 20
241.8104531144249
 30
0.0
 10
403.3854289841884
 20
241.9509048477036
 30
0.0
  0
SPLINE
  5
91
330
1F
100
AcDbEntity
  8
0
  6
Continuous
 62
     7
370
    15
100
AcDbSpline
210
0.0
220
0.0
230
1.0
 70
     8
 71
     3
 72
    24
 73
    20
 74
     0
 42
0.00000001
 43
0.00000001
 12
1.0
 22
0.0
 32
0.0
 13
1.0
 23
0.0
 33
0.0
 40
0.0
 40
0.0
 40
0.0
 40
0.0
 40
0.0067157494386596
 40
0.0570375220724957
 40
0.0959998052180975
 40
0.1493338734048072
 40
0.1955591734982875
 40
0.242934687403107
 40
0.2909327781353399
 40
0.339114416029211
 40
0.3837959833580363
 40
0.4136780943358632
 40
0.4398560135893519
 40
0.4772051475421628
 40
0.5299727736314926
 40
0.6163916310870494
 40
0.8015581975179155
 40
0.9892287563129376
 40
0.9999999999999999
 40
0.9999999999999999
 40
0.9999999999999999
 40
0.9999999999999999
 10
403.4005313110583
 20
167.2294134177488
 30
0.0
 10
403.4004361848961
 20
167.1561304223324
 30
0.0
 10
403.3996282690217
 20
166.5337307174622
 30
0.0
 10
403.4329152772279
 20
165.462318640254
 30
0.0
 10
403.1903203616912
 20
163.5461849325737
 30
0.0
 10
402.7671931429322
 20
161.7395131655898
 30
0.0
 10
402.2171981371393
 20
159.988452117848
 30
0.0
 10
401.6284587010832
 20
158.4325329761612
 30
0.0
 10
401.0070483921537
 20
156.9947437032141
 30
0.0
 10
400.3440298131374
 20
155.6566406697564
 30
0.0
 10
399.4352023284655
 20
154.4324199722656
 30
0.0
 10
398.4478101233637
 20
153.499633660811
 30
0.0
 10
397.3887471840425
 20
152.8602920465374
 30
0.0
 10
395.9976195469462
 20
152.1299584269596
 30
0.0
 10
393.9508207715445
 20
151.1188081850031
 30
0.0
 10
390.719800262612
 20
149.8685012614057
 30
0.0
 10
386.8568528260986
 20
148.6992121476144
 30
0.0
 10
383.8277438214333
 20
147.7199721247061
 30
0.0
 10
382.4740127685195
 20
147.2871393343641
 30
0.0
 10
382.4005334568255
 20
147.2636455573362
 30
0.0
  0
SPLINE
  5
92
330
1F
100
AcDbEntity
  8
0
  6
Continuous
 62
     7
370
    15
100
AcDbSpline
210
0.0
220
0.0
230
1.0
 70
     8
 71
     3
 72
     9
 73
     5
 74
     0
 42
0.00000001
 43
0.00000001
 12
1.0
 22
0.0
 32
0.0
 13
1.0
 23
0.0
 33
0.0
 40
0.0
 40
0.0
 40
0.0
 40
0.0
 40
0.4999819593527547
 40
1.0
 40
1.0
 40
1.0
 40
1.0
 10
382.4005334568255
 20
154.3915340580267
 30
0.0
 10
381.2338458634673
 20
154.3883585917927
 30
0.0
 10
378.9003864825158
 20
154.3820074301666
 30
0.0
 10
376.5671796706002
 20
154.4137646132954
 30
0.0
 10
375.4005341720813
 20
154.4296437777799
 30
0.0
  0
SPLINE
  5
93
330
1F
100
AcDbEntity
  8
0
  6
Continuous
 62
     7
370
    15
100
AcDbSpline
210
0.0
220
0.0
230
1.0
 70
     8
 71
     3
 72
    17
 73
    13
 74
     0
 42
0.00000001
 43
0.00000001
 12
1.0
 22
0.0
 32
0.0
 13
1.0
 23
0.0
 33
0.0
 40
0.0
 40
0.0
 40
0.0
 40
0.0
 40
0.0439710751027855
 40
0.1564614042920218
 40
0.2683844078184793
 40
0.3667410994692666
 40
0.467913729200015
 40
0.5662743559440074
 40
0.6675224301029822
 40
0.7653169161645031
 40
0.8659988745490899
 40
0.9999999999999999
 40
0.9999999999999999
 40
0.9999999999999999
 40
0.9999999999999999
 10
364.4005342316859
 20
161.6008201517385
 30
0.0
 10
364.4006685822749
 20
161.3004642527111
 30
0.0
 10
364.4011466393108
 20
160.2317138153074
 30
0.0
 10
364.3932129793022
 20
158.3981623968477
 30
0.0
 10
364.6628001019193
 20
156.1965412715665
 30
0.0
 10
365.3510448176546
 20
154.170942728271
 30
0.0
 10
366.3108425118783
 20
152.3666777238135
 30
0.0
 10
367.5709719355595
 20
150.731896565774
 30
0.0
 10
369.0745923305331
 20
149.349264011699
 30
0.0
 10
370.8019771128285
 20
148.2378067769268
 30
0.0
 10
372.8988474205786
 20
147.3167430726405
 30
0.0
 10
374.4912767865376
 20
147.0757206804844
 30
0.0
 10
375.4005341720813
 20
146.9380998887342
 30
0.0
  0
SPLINE
  5
94
330
1F
100
AcDbEntity
  8
0
  6
Continuous
 62
     7
370
    15
100
AcDbSpline
210
0.0
220
0.0
230
1.0
 70
     8
 71
     3
 72
    10
 73
     6
 74
     0
 42
0.00000001
 43
0.00000001
 12
1.0
 22
0.0
 32
0.0
 13
1.0
 23
0.0
 33
0.0
 40
0.0
 40
0.0
 40
0.0
 40
0.0
 40
0.3512534796710879
 40
0.6991327486959179
 40
1.0
 40
1.0
 40
1.0
 40
1.0
 10
368.8850684952968
 20
174.2744440116209
 30
0.0
 10
368.838361582622
 20
174.1165612270827
 30
0.0
 10
368.7453964331464
 20
173.802312311373
 30
0.0
 10
368.3834994154864
 20
173.5728743651004
 30
0.0
 10
368.0903938677387
 20
173.5948788814512
 30
0.0
 10
367.9544611764186
 20
173.6050838507932
 30
0.0
  0
SPLINE
  5
95
330
1F
100
AcDbEntity
  8
0
  6
Continuous
 62
     7
370
    15
100
AcDbSpline
210
0.0
220
0.0
230
1.0
 70
     8
 71
     3
 72
     9
 73
     5
 74
     0
 42
0.00000001
 43
0.00000001
 12
1.0
 22
0.0
 32
0.0
 13
1.0
 23
0.0
 33
0.0
 40
0.0
 40
0.0
 40
0.0
 40
0.0
 40
0.4984804754794709
 40
1.0
 40
1.0
 40
1.0
 40
1.0
 10
369.9790670466655
 20
184.5039198078435
 30
0.0
 10
369.7850487514138
 20
182.7054529161072
 30
0.0
 10
369.3958293039216
 20
179.0975545525725
 30
0.0
 10
369.0556666884618
 20
175.8854014888341
 30
0.0
 10
368.8850684952968
 20
174.2744440116209
 30
0.0
  0
SPLINE
  5
96
330
1F
100
AcDbEntity
  8
0
  6
Continuous
 62
     7
370
    15
100
AcDbSpline
210
0.0
220
0.0
230
1.0
 70
     8
 71
     3
 72
    12
 73
     8
 74
     0
 42
0.00000001
 43
0.00000001
 12
1.0
 22
0.0
 32
0.0
 13
1.0
 23
0.0
 33
0.0
 40
0.0
 40
0.0
 40
0.0
 40
0.0
 40
0.2795092844643087
 40
0.5963309494083386
 40
0.7555639557117658
 40
0.8834809803726997
 40
1.0
 40
1.0
 40
1.0
 40
1.0
 10
367.0963107538455
 20
188.5751442887109
 30
0.0
 10
367.4246130719302
 20
188.2706788294859
 30
0.0
 10
368.1250435904068
 20
187.6211040695288
 30
0.0
 10
369.0615327766612
 20
186.5798169747042
 30
0.0
 10
369.6721407513481
 20
185.6796554084733
 30
0.0
 10
369.9686137038782
 20
185.03266797496
 30
0.0
 10
369.9756926286973
 20
184.6746037079219
 30
0.0
 10
369.9790670466655
 20
184.5039198078435
 30
0.0
  0
SPLINE
  5
97
330
1F
100
AcDbEntity
  8
0
  6
Continuous
 62
     7
370
    15
100
AcDbSpline
210
0.0
220
0.0
230
1.0
 70
     8
 71
     3
 72
    12
 73
     8
 74
     0
 42
0.00000001
 43
0.00000001
 12
1.0
 22
0.0
 32
0.0
 13
1.0
 23
0.0
 33
0.0
 40
0.0
 40
0.0
 40
0.0
 40
0.0
 40
0.2677431659158409
 40
0.5392193329740661
 40
0.731808135344404
 40
0.9299382000219464
 40
1.0
 40
1.0
 40
1.0
 40
1.0
 10
364.4005342316859
 20
195.5407814957422
 30
0.0
 10
364.3781676443241
 20
194.8805620400861
 30
0.0
 10
364.3331226241201
 20
193.5509180386133
 30
0.0
 10
364.7295645273531
 20
191.7517260962171
 30
0.0
 10
365.5623198790393
 20
190.222218787132
 30
0.0
 10
366.3741807487722
 20
189.2343654944872
 30
0.0
 10
366.9467374209789
 20
188.7116874487397
 30
0.0
 10
367.0963107538455
 20
188.5751442887109
 30
0.0
  0
SPLINE
  5
98
330
1F
100
AcDbEntity
  8
0
  6
Continuous
 62
     7
370
    15
100
AcDbSpline
210
0.0
220
0.0
230
1.0
 70
     8
 71
     3
 72
    23
 73
    19
 74
     0
 42
0.00000001
 43
0.00000001
 12
1.0
 22
0.0
 32
0.0
 13
1.0
 23
0.0
 33
0.0
 40
0.0
 40
0.0
 40
0.0
 40
0.0
 40
0.0668006941253189
 40
0.1341299877128016
 40
0.1969629871710182
 40
0.2597960017437178
 40
0.324450425779674
 40
0.3891048239972847
 40
0.4520022161610353
 40
0.51489959178508
 40
0.5796253318652359
 40
0.6443510632339792
 40
0.707229565726915
 40
0.7701080917631068
 40
0.8348122924673858
 40
0.8995165331851537
 40
0.9496474265678955
 40
1.0
 40
1.0
 40
1.0
 40
1.0
 10
365.1486917329066
 20
294.361028251819
 30
0.0
 10
365.0969847380447
 20
292.4538804737962
 30
0.0
 10
364.9931615865596
 20
288.6244934983736
 30
0.0
 10
364.8797395121983
 20
282.5632273046235
 30
0.0
 10
364.7883652950318
 20
276.3765196008943
 30
0.0
 10
364.7102723289199
 20
270.0507757708981
 30
0.0
 10
364.6330659867658
 20
263.4859604431055
 30
0.0
 10
364.5621736713595
 20
256.7850232298755
 30
0.0
 10
364.5009395915911
 20
250.0618936610011
 30
0.0
 10
364.4518162674649
 20
243.3006537181337
 30
0.0
 10
364.4173287423182
 20
236.4856557200173
 30
0.0
 10
364.4000191945467
 20
229.7322941665789
 30
0.0
 10
364.398975457183
 20
223.1525023608569
 30
0.0
 10
364.4009656716332
 20
216.7250192510658
 30
0.0
 10
364.4004162817999
 20
210.4363182236838
 30
0.0
 10
364.4005578810711
 20
204.802178722172
 30
0.0
 10
364.4005289306463
 20
199.8270254871426
 30
0.0
 10
364.4005324620758
 20
196.971629288959
 30
0.0
 10
364.4005342316859
 20
195.5407814957422
 30
0.0
  0
SPLINE
  5
99
330
1F
100
AcDbEntity
  8
0
  6
Continuous
 62
     7
370
    15
100
AcDbSpline
210
0.0
220
0.0
230
1.0
 70
     8
 71
     3
 72
    15
 73
    11
 74
     0
 42
0.00000001
 43
0.00000001
 12
1.0
 22
0.0
 32
0.0
 13
1.0
 23
0.0
 33
0.0
 40
0.0
 40
0.0
 40
0.0
 40
0.0
 40
0.2558734192962172
 40
0.3853178717629203
 40
0.5137730025584542
 40
0.6063447797854717
 40
0.6989005515306701
 40
0.7915841021767891
 40
0.8842488473394877
 40
1.0
 40
1.0
 40
1.0
 40
1.0
 10
383.9005290460818
 20
299.7099341728014
 30
0.0
 10
382.0341433760032
 20
299.7094982167274
 30
0.0
 10
379.2235671298985
 20
299.7088417137305
 30
0.0
 10
375.475298673195
 20
299.7119209631845
 30
0.0
 10
372.9253227915061
 20
299.4279452016807
 30
0.0
 10
370.8012560576534
 20
298.804267101462
 30
0.0
 10
369.0637498592065
 20
298.053885948032
 30
0.0
 10
367.543325048064
 20
297.0975557592504
 30
0.0
 10
366.1368357996293
 20
295.8881266748108
 30
0.0
 10
365.5015308464042
 20
294.9063131671847
 30
0.0
 10
365.1486917329066
 20
294.361028251819
 30
0.0
  0
ARC
  5
9A
330
1F
100
AcDbEntity
  8
0
  6
Continuous
 62
     7
370
    15
100
AcDbCircle
 10
376.1656235377
 20
306.9176848515
 30
0.0
 40
12.5255753666178
100
AcDbArc
 50
88.9253752592
 51
131.1627303524
  0
LWPOLYLINE
  5
9B
330
1F
100
AcDbEntity
  8
0
  6
Continuous
 62
     7
370
    15
100
AcDbPolyline
 90
        8
 70
   128
 43
0.0
 10
403.2184316707
 20
310.8522141256
 10
402.6985301566
 20
312.5507751383
 10
401.7248882842
 20
314.3458733239
 10
400.2866803599
 20
316.0327890791
 10
398.4107955289
 20
317.4835512318
 10
396.1973844958
 20
318.5747185625
 10
393.8033937407
 20
319.23069003
 10
391.4005293441
 20
319.4410571732
  0
SPLINE
  5
9C
330
1F
100
AcDbEntity
  8
0
  6
Continuous
 62
     7
370
    15
100
AcDbSpline
210
0.0
220
0.0
230
1.0
 70
     8
 71
     3
 72
    19
 73
    15
 74
     0
 42
0.00000001
 43
0.00000001
 12
1.0
 22
0.0
 32
0.0
 13
1.0
 23
0.0
 33
0.0
 40
0.0
 40
0.0
 40
0.0
 40
0.0
 40
0.082854399835043
 40
0.1657088260861208
 40
0.2504908583516371
 40
0.3352729741937227
 40
0.4181261102100085
 40
0.5009792611075325
 40
0.5857532161178086
 40
0.6705271540695077
 40
0.7628123952224163
 40
0.8550976151232997
 40
0.9500639510472464
 40
1.0
 40
1.0
 40
1.0
 40
1.0
 10
403.2184391212695
 20
310.8521843232435
 30
0.0
 10
403.2485534737677
 20
309.8702657988404
 30
0.0
 10
403.3087821883655
 20
307.9064284369744
 30
0.0
 10
403.3626306517147
 20
304.4864981575483
 30
0.0
 10
403.3934974166615
 20
300.7248212575866
 30
0.0
 10
403.4019189005798
 20
296.6345332894989
 30
0.0
 10
403.4008800751461
 20
292.2830910452076
 30
0.0
 10
403.4004354642651
 20
287.666834092441
 30
0.0
 10
403.4005571679976
 20
282.7697210749423
 30
0.0
 10
403.400523696032
 20
277.4635118862507
 30
0.0
 10
403.400533424649
 20
271.7940894296678
 30
0.0
 10
403.4005307170562
 20
265.7200498809928
 30
0.0
 10
403.4005313819411
 20
260.4530906217042
 30
0.0
 10
403.4005313292253
 20
257.172300879546
 30
0.0
 10
403.4005313110583
 20
256.0416798942011
 30
0.0
  0
SPLINE
  5
9D
330
1F
100
AcDbEntity
  8
0
  6
Continuous
 62
     7
370
    15
100
AcDbSpline
210
0.0
220
0.0
230
1.0
 70
     8
 71
     3
 72
    12
 73
     8
 74
     0
 42
0.00000001
 43
0.00000001
 12
1.0
 22
0.0
 32
0.0
 13
1.0
 23
0.0
 33
0.0
 40
0.0
 40
0.0
 40
0.0
 40
0.0
 40
0.21717625744223
 40
0.4342359602883754
 40
0.6544808448337135
 40
0.8786075271206452
 40
1.0
 40
1.0
 40
1.0
 40
1.0
 10
403.3586292457812
 20
248.0535098720562
 30
0.0
 10
403.359562310813
 20
248.2735596411387
 30
0.0
 10
403.3614279401174
 20
248.7135410825453
 30
0.0
 10
403.3839616737009
 20
249.2874102752173
 30
0.0
 10
403.4030140967732
 20
249.7164137290086
 30
0.0
 10
403.4002261128542
 20
249.925089083214
 30
0.0
 10
403.4004519624996
 20
249.9441929371255
 30
0.0
 10
403.4005313110583
 20
249.9509047620219
 30
0.0
  0
LINE
  5
9E
330
1F
100
AcDbEntity
  8
0
  6
Continuous
 62
     7
370
    15
100
AcDbLine
 10
403.3775164676
 20
244.9509048826
 30
0.0
 11
403.3586292458
 21
248.0535098721
 31
0.0
  0
SPLINE
  5
9F
330
1F
100
AcDbEntity
  8
0
  6
Continuous
 62
     7
370
    15
100
AcDbSpline
210
0.0
220
0.0
230
1.0
 70
     8
 71
     3
 72
     9
 73
     5
 74
     0
 42
0.00000001
 43
0.00000001
 12
1.0
 22
0.0
 32
0.0
 13
1.0
 23
0.0
 33
0.0
 40
0.0
 40
0.0
 40
0.0
 40
0.0
 40
0.5282831427629061
 40
1.0
 40
1.0
 40
1.0
 40
1.0
 10
403.3775164675944
 20
234.3513242803734
 30
0.0
 10
403.3824212013819
 20
236.2178513599121
 30
0.0
 10
403.3917054911698
 20
239.7510458316812
 30
0.0
 10
403.3820643543536
 20
243.2842383920116
 30
0.0
 10
403.3775164675944
 20
244.9509048825842
 30
0.0
  0
LINE
  5
A0
330
1F
100
AcDbEntity
  8
0
  6
Continuous
 62
     7
370
    15
100
AcDbLine
 10
403.3854289842
 20
241.9509048477
 30
0.0
 11
403.3775164676
 21
234.3513242804
 31
0.0
  0
LINE
  5
A1
330
1F
100
AcDbEntity
  8
0
  6
Continuous
 62
     7
370
    15
100
AcDbLine
 10
364.4005342317
 20
195.5407814957
 30
0.0
 11
343.9005336654
 21
195.5407814957
 31
0.0
  0
LINE
  5
A2
330
1F
100
AcDbEntity
  8
0
  6
Continuous
 62
     7
370
    15
100
AcDbLine
 10
365.1486917329
 20
294.3610282518
 30
0.0
 11
343.9005336654
 21
294.3610282518
 31
0.0
  0
LINE
  5
A3
330
1F
100
AcDbEntity
  8
0
  6
Continuous
 62
     7
370
    15
100
AcDbLine
 10
343.9005336654
 20
287.886138437
 30
0.0
 11
343.9005336654
 21
202.0156713106
 31
0.0
  0
ELLIPSE
  5
A4
330
1F
100
AcDbEntity
  8
0
  6
Continuous
 62
     7
370
    15
100
AcDbEllipse
 10
389.0373615057
 20
247.9509048738
 30
0.0
 11
-14.34015341619465
 21
0.0
 31
0.0
210
0.0
220
7.105427357601002E-15
230
1.0
 40
0.1394685218
 41
3.141592653589792
 42
3.192917630781132
  0
LINE
  5
A5
330
1F
100
AcDbEntity
  8
0
  6
Continuous
 62
     7
370
    15
100
AcDbLine
 10
403.4005313111
 20
249.950904762
 30
0.0
 11
438.737361033
 21
249.950904762
 31
0.0
  0
ELLIPSE
  5
A6
330
1F
100
AcDbEntity
  8
0
  6
Continuous
 62
     7
370
    15
100
AcDbEllipse
 10
438.7373615057
 20
247.9509048738
 30
0.0
 11
0.0
 21
2.0
 31
0.0
210
0.0
220
0.0
230
1.0
 40
0.0700767081
 41
4.712388980384691
 42
6.283185307179586
  0
ELLIPSE
  5
A7
330
1F
100
AcDbEntity
  8
0
  6
Continuous
 62
     7
370
    15
100
AcDbEllipse
 10
438.7373615056
 20
241.9509048738
 30
0.0
 11
0.0
 21
2.0
 31
0.0
210
0.0
220
0.0
230
1.0
 40
0.0700767081
 41
3.141592653574785
 42
4.712388980384705
  0
LINE
  5
A8
330
1F
100
AcDbEntity
  8
0
  6
Continuous
 62
     7
370
    15
100
AcDbLine
 10
438.737361033
 20
239.9509049855
 30
0.0
 11
403.4005313111
 21
239.9509049855
 31
0.0
  0
LINE
  5
A9
330
1F
100
AcDbEntity
  8
0
  6
Continuous
 62
     7
370
    15
100
AcDbLine
 10
403.3775164676
 20
247.9509048999
 30
0.0
 11
403.3775164676
 21
244.9509048826
 31
0.0
  0
LINE
  5
AA
330
1F
100
AcDbEntity
  8
0
  6
Continuous
 62
     7
370
    15
100
AcDbLine
 10
438.8775213552
 20
247.9509048999
 30
0.0
 11
438.8775213552
 21
241.9509048477
 31
0.0
  0
LINE
  5
AB
330
1F
100
AcDbEntity
  8
0
  6
Continuous
 62
     7
370
    15
100
AcDbLine
 10
456.4005269599
 20
91.9509077348
 30
0.0
 11
301.4005327527
 21
91.9509077348
 31
0.0
  0
LINE
  5
AC
330
1F
100
AcDbEntity
  8
0
  6
Continuous
 62
     7
370
    15
100
AcDbLine
 10
304.4005327788
 20
107.9509103574
 30
0.0
 11
453.4005357814
 21
107.9509103574
 31
0.0
  0
SPLINE
  5
AD
330
1F
100
AcDbEntity
  8
0
  6
Continuous
 62
     7
370
    15
100
AcDbSpline
210
0.0
220
0.0
230
1.0
 70
     8
 71
     3
 72
    14
 73
    10
 74
     0
 42
0.00000001
 43
0.00000001
 12
1.0
 22
0.0
 32
0.0
 13
1.0
 23
0.0
 33
0.0
 40
0.0
 40
0.0
 40
0.0
 40
0.0
 40
0.1333140469193983
 40
0.270537648511687
 40
0.4038393831520475
 40
0.5409258912643472
 40
0.6757399458272252
 40
0.8143957432065857
 40
1.0
 40
1.0
 40
1.0
 40
1.0
 10
301.4005327527457
 20
394.9509108342451
 30
0.0
 10
301.4081761421231
 20
394.9116556569829
 30
0.0
 10
301.4236870701656
 20
394.8319941089779
 30
0.0
 10
301.545277954711
 20
394.191967748397
 30
0.0
 10
301.7263661977404
 20
393.1811206572596
 30
0.0
 10
301.9527874110527
 20
391.8058666292916
 30
0.0
 10
302.200437796201
 20
390.080771908396
 30
0.0
 10
302.4758667676699
 20
387.8453072335224
 30
0.0
 10
302.6195411853054
 20
386.0045451866258
 30
0.0
 10
302.7017794479661
 20
384.950905469827
 30
0.0
  0
LINE
  5
AE
330
1F
100
AcDbEntity
  8
0
  6
Continuous
 62
     7
370
    15
100
AcDbLine
 10
456.4005269599
 20
397.9509020128
 30
0.0
 11
301.4005327527
 21
397.9509020128
 31
0.0
  0
LINE
  5
AF
330
1F
100
AcDbEntity
  8
0
  6
Continuous
 62
     7
370
    15
100
AcDbLine
 10
453.4005357814
 20
381.9508993902
 30
0.0
 11
305.8988203225
 21
381.9508993902
 31
0.0
  0
SPLINE
  5
B0
330
1F
100
AcDbEntity
  8
0
  6
Continuous
 62
     7
370
    15
100
AcDbSpline
210
0.0
220
0.0
230
1.0
 70
     8
 71
     3
 72
    12
 73
     8
 74
     0
 42
0.00000001
 43
0.00000001
 12
1.0
 22
0.0
 32
0.0
 13
1.0
 23
0.0
 33
0.0
 40
0.0
 40
0.0
 40
0.0
 40
0.0
 40
0.1604340900139785
 40
0.3836439321076655
 40
0.6040914216474036
 40
0.8246324542536896
 40
1.0
 40
1.0
 40
1.0
 40
1.0
 10
302.7017794479661
 20
384.950905469827
 30
0.0
 10
302.735434060399
 20
384.7045297892781
 30
0.0
 10
302.8159118930478
 20
384.1153748605889
 30
0.0
 10
303.2689149534525
 20
383.2405428435587
 30
0.0
 10
304.0430501977635
 20
382.481102848255
 30
0.0
 10
304.9670056753841
 20
382.0262667315235
 30
0.0
 10
305.6127764273136
 20
381.9740352873629
 30
0.0
 10
305.8988203224771
 20
381.9508993901533
 30
0.0
  0
SPLINE
  5
B1
330
1F
100
AcDbEntity
  8
0
  6
Continuous
 62
     7
370
    15
100
AcDbSpline
210
0.0
220
0.0
230
1.0
 70
     8
 71
     3
 72
    13
 73
     9
 74
     0
 42
0.00000001
 43
0.00000001
 12
1.0
 22
0.0
 32
0.0
 13
1.0
 23
0.0
 33
0.0
 40
0.0
 40
0.0
 40
0.0
 40
0.0
 40
0.1668590789443338
 40
0.3337182227228686
 40
0.5045407454906377
 40
0.6753631331174393
 40
0.8372421673923987
 40
1.0
 40
1.0
 40
1.0
 40
1.0
 10
402.3041932773822
 20
320.8561161436361
 30
0.0
 10
402.3590084780271
 20
320.678586893676
 30
0.0
 10
402.4686389006156
 20
320.3235283247755
 30
0.0
 10
402.6392295591846
 20
319.2375056477309
 30
0.0
 10
402.8075784642257
 20
317.7392379603461
 30
0.0
 10
402.9645178923496
 20
315.8138791370512
 30
0.0
 10
403.1060057347391
 20
313.5479893698966
 30
0.0
 10
403.1806505851044
 20
311.7524062316575
 30
0.0
 10
403.2180740428203
 20
310.8521843232435
 30
0.0
  0
LINE
  5
B2
330
1F
100
AcDbEntity
  8
0
  6
Continuous
 62
     7
370
    15
100
AcDbLine
 10
402.3041932774
 20
320.8561161436
 30
0.0
 11
402.3450746131
 21
320.9666157045
 31
0.0
  0
LINE
  5
B3
330
1F
100
AcDbEntity
  8
0
  6
Continuous
 62
     7
370
    15
100
AcDbLine
 10
403.4231214714
 20
320.9666157045
 30
0.0
 11
402.3450746131
 21
320.9666157045
 31
0.0
  0
LINE
  5
B4
330
1F
100
AcDbEntity
  8
0
  6
Continuous
 62
     7
370
    15
100
AcDbLine
 10
403.4231214714
 20
249.950904762
 30
0.0
 11
403.4231214714
 21
320.9666157045
 31
0.0
  0
LINE
  5
B5
330
1F
100
AcDbEntity
  8
0
  6
Continuous
 62
     7
370
    15
100
AcDbLine
 10
405.6283294153
 20
239.9509049855
 30
0.0
 11
405.6212811661
 21
236.1703043707
 31
0.0
  0
LINE
  5
B6
330
1F
100
AcDbEntity
  8
0
  6
Continuous
 62
     7
370
    15
100
AcDbLine
 10
405.6212811661
 20
236.1703043707
 30
0.0
 11
405.8025239897
 21
232.6922094353
 31
0.0
  0
LINE
  5
B7
330
1F
100
AcDbEntity
  8
0
  6
Continuous
 62
     7
370
    15
100
AcDbLine
 10
405.8025239897
 20
204.5580590047
 30
0.0
 11
405.8025239897
 21
232.6922094353
 31
0.0
  0
SPLINE
  5
B8
330
1F
100
AcDbEntity
  8
0
  6
Continuous
 62
     7
370
    15
100
AcDbSpline
210
0.0
220
0.0
230
1.0
 70
     8
 71
     3
 72
    26
 73
    22
 74
     0
 42
0.00000001
 43
0.00000001
 12
1.0
 22
0.0
 32
0.0
 13
1.0
 23
0.0
 33
0.0
 40
0.0
 40
0.0
 40
0.0
 40
0.0
 40
0.1218812599346735
 40
0.2437082823945764
 40
0.3655854771672645
 40
0.4265023132199589
 40
0.4569433281560685
 40
0.4645502881350363
 40
0.467235171604355
 40
0.4685086712254002
 40
0.4695785744438441
 40
0.4706556745889089
 40
0.4718343735606302
 40
0.4738182263681565
 40
0.4800205208310657
 40
0.4942631960488852
 40
0.5510569831434854
 40
0.6441312343327057
 40
0.7372415098020056
 40
0.8684183769050682
 40
1.0
 40
1.0
 40
1.0
 40
1.0
 10
405.8025239897006
 20
204.5580590047163
 30
0.0
 10
405.7417045049436
 20
203.0545516834441
 30
0.0
 10
405.6200926002571
 20
200.0482061055324
 30
0.0
 10
405.4026808933933
 20
195.7563841143905
 30
0.0
 10
405.2153763411818
 20
192.4198216187804
 30
0.0
 10
405.097352750513
 20
190.4224729591093
 30
0.0
 10
405.0449633259398
 20
189.5692628224617
 30
0.0
 10
405.0277051670216
 20
189.2763678580023
 30
0.0
 10
405.0201126963964
 20
189.1626495969227
 30
0.0
 10
405.0153680787666
 20
189.0971619702869
 30
0.0
 10
405.0113695458041
 20
189.0447470223419
 30
0.0
 10
405.0070088492062
 20
188.9905401854358
 30
0.0
 10
405.0017786507121
 20
188.9285454313654
 30
0.0
 10
404.9921167711648
 20
188.8210051684873
 30
0.0
 10
404.9758821808535
 20
188.6586243566935
 30
0.0
 10
404.935835690664
 20
188.3164444072128
 30
0.0
 10
404.8404099471771
 20
187.5234559253661
 30
0.0
 10
404.6443919337821
 20
185.7960136325864
 30
0.0
 10
404.3277878077967
 20
182.8507011664473
 30
0.0
 10
403.9148552200139
 20
178.7338044325351
 30
0.0
 10
403.5872009616661
 20
175.2311566696864
 30
0.0
 10
403.4231214714282
 20
173.4771350302022
 30
0.0
  0
LINE
  5
B9
330
1F
100
AcDbEntity
  8
0
  6
Continuous
 62
     7
370
    15
100
AcDbLine
 10
405.4549544049
 20
295.6534692921
 30
0.0
 11
403.4231214714
 21
320.9666157045
 31
0.0
  0
SPLINE
  5
BA
330
1F
100
AcDbEntity
  8
0
  6
Continuous
 62
     7
370
    15
100
AcDbSpline
210
0.0
220
0.0
230
1.0
 70
     8
 71
     3
 72
    19
 73
    15
 74
     0
 42
0.00000001
 43
0.00000001
 12
1.0
 22
0.0
 32
0.0
 13
1.0
 23
0.0
 33
0.0
 40
0.0
 40
0.0
 40
0.0
 40
0.0
 40
0.0876332660807019
 40
0.1752665363848894
 40
0.2575915206770422
 40
0.3401790264917435
 40
0.4225040450422295
 40
0.5048293006304863
 40
0.5874170722772915
 40
0.66974235524177
 40
0.7520680459662724
 40
0.8346562421497893
 40
0.9169819202189763
 40
1.0
 40
1.0
 40
1.0
 40
1.0
 10
405.6007324648135
 20
249.9509047620219
 30
0.0
 10
405.5998459592913
 20
251.9669308349294
 30
0.0
 10
405.5980729482043
 20
255.9989830779069
 30
0.0
 10
405.5925742705628
 20
261.7535253584064
 30
0.0
 10
405.5852337340913
 20
267.1706907455933
 30
0.0
 10
405.5761282071239
 20
272.1939819481155
 30
0.0
 10
405.565313530788
 20
276.8787255056787
 30
0.0
 10
405.5528362239882
 20
281.1502893087491
 30
0.0
 10
405.5389580466375
 20
284.969403520098
 30
0.0
 10
405.5238416743696
 20
288.2889566808237
 30
0.0
 10
405.5076558934702
 20
291.0510440086322
 30
0.0
 10
405.4906731175116
 20
293.2254331233839
 30
0.0
 10
405.4730325026305
 20
294.8460268408975
 30
0.0
 10
405.4609972372708
 20
295.3835714588724
 30
0.0
 10
405.4549544048541
 20
295.6534692920965
 30
0.0
  0
LINE
  5
BB
330
1F
100
AcDbEntity
  8
0
  6
Continuous
 62
     7
370
    15
100
AcDbLine
 10
463.9005347085
 20
241.9509048477
 30
0.0
 11
463.9005347085
 21
239.9509049855
 31
0.0
  0
LINE
  5
BC
330
1F
100
AcDbEntity
  8
0
  6
Continuous
 62
     7
370
    15
100
AcDbLine
 10
463.9005347085
 20
239.9509049855
 30
0.0
 11
438.737361033
 21
239.9509049855
 31
0.0
  0
LINE
  5
BD
330
1F
100
AcDbEntity
  8
0
  6
Continuous
 62
     7
370
    15
100
AcDbLine
 10
463.9005347085
 20
247.9509048999
 30
0.0
 11
463.9005347085
 21
241.9509048477
 31
0.0
  0
LINE
  5
BE
330
1F
100
AcDbEntity
  8
0
  6
Continuous
 62
     7
370
    15
100
AcDbLine
 10
463.9005347085
 20
249.950904762
 30
0.0
 11
463.9005347085
 21
247.9509048999
 31
0.0
  0
LINE
  5
BF
330
1F
100
AcDbEntity
  8
0
  6
Continuous
 62
     7
370
    15
100
AcDbLine
 10
438.737361033
 20
249.950904762
 30
0.0
 11
463.9005347085
 21
249.950904762
 31
0.0
  0
LINE
  5
C0
330
1F
100
AcDbEntity
  8
0
  6
Continuous
 62
     7
370
    15
100
AcDbLine
 10
343.9005336654
 20
184.5039198078
 30
0.0
 11
343.9005336654
 21
188.5751442887
 31
0.0
  0
LINE
  5
C1
330
1F
100
AcDbEntity
  8
0
  6
Continuous
 62
     7
370
    15
100
AcDbLine
 10
383.9005290461
 20
305.3978899397
 30
0.0
 11
383.9005290461
 21
301.3266654589
 31
0.0
  0
LINE
  5
C2
330
1F
100
AcDbEntity
  8
0
  6
Continuous
 62
     7
370
    15
100
AcDbLine
 10
343.9005336654
 20
301.3266654589
 30
0.0
 11
343.9005336654
 21
305.3978899397
 31
0.0
  0
LINE
  5
C3
330
1F
100
AcDbEntity
  8
0
  6
Continuous
 62
     7
370
    15
100
AcDbLine
 10
343.9005336654
 20
184.5039198078
 30
0.0
 11
343.9005336654
 21
174.2744440116
 31
0.0
  0
LINE
  5
C4
330
1F
100
AcDbEntity
  8
0
  6
Continuous
 62
     7
370
    15
100
AcDbLine
 10
383.9005290461
 20
315.6273657359
 30
0.0
 11
383.9005290461
 21
305.3978899397
 31
0.0
  0
LINE
  5
C5
330
1F
100
AcDbEntity
  8
0
  6
Continuous
 62
     7
370
    15
100
AcDbLine
 10
343.9005336654
 20
315.6273657359
 30
0.0
 11
343.9005336654
 21
305.3978899397
 31
0.0
  0
LINE
  5
C6
330
1F
100
AcDbEntity
  8
0
  6
Continuous
 62
     7
370
    15
100
AcDbLine
 10
343.9005336654
 20
189.611035762
 30
0.0
 11
343.9005336654
 21
188.5751442887
 31
0.0
  0
LINE
  5
C7
330
1F
100
AcDbEntity
  8
0
  6
Continuous
 62
     7
370
    15
100
AcDbLine
 10
383.9005290461
 20
301.3266654589
 30
0.0
 11
383.9005290461
 21
299.7099341728
 31
0.0
  0
LINE
  5
C8
330
1F
100
AcDbEntity
  8
0
  6
Continuous
 62
     7
370
    15
100
AcDbLine
 10
343.9005336654
 20
301.3266654589
 30
0.0
 11
343.9005336654
 21
300.2907739856
 31
0.0
  0
LINE
  5
C9
330
1F
100
AcDbEntity
  8
0
  6
Continuous
 62
     7
370
    15
100
AcDbLine
 10
343.9005336654
 20
173.5543304958
 30
0.0
 11
343.9005336654
 21
174.2744440116
 31
0.0
  0
LINE
  5
CA
330
1F
100
AcDbEntity
  8
0
  6
Continuous
 62
     7
370
    15
100
AcDbLine
 10
383.9005290461
 20
316.3474792518
 30
0.0
 11
383.9005290461
 21
315.6273657359
 31
0.0
  0
LINE
  5
CB
330
1F
100
AcDbEntity
  8
0
  6
Continuous
 62
     7
370
    15
100
AcDbLine
 10
343.9005336654
 20
315.6273657359
 30
0.0
 11
343.9005336654
 21
316.3474792518
 31
0.0
  0
LINE
  5
CC
330
1F
100
AcDbEntity
  8
0
  6
Continuous
 62
     7
370
    15
100
AcDbLine
 10
375.4005341721
 20
107.9509103574
 30
0.0
 11
375.4005341721
 21
154.4296437778
 31
0.0
  0
LINE
  5
CD
330
1F
100
AcDbEntity
  8
0
  6
Continuous
 62
     7
370
    15
100
AcDbLine
 10
382.4005334568
 20
107.9509103574
 30
0.0
 11
382.4005334568
 21
154.391534058
 31
0.0
  0
LINE
  5
CE
330
1F
100
AcDbEntity
  8
0
  6
Continuous
 62
     7
370
    15
100
AcDbLine
 10
382.4005334568
 20
381.9508993902
 30
0.0
 11
382.4005334568
 21
324.3275875129
 31
0.0
  0
SPLINE
  5
CF
330
1F
100
AcDbEntity
  8
0
  6
Continuous
 62
     7
370
    15
100
AcDbSpline
210
0.0
220
0.0
230
1.0
 70
     8
 71
     3
 72
     9
 73
     5
 74
     0
 42
0.00000001
 43
0.00000001
 12
1.0
 22
0.0
 32
0.0
 13
1.0
 23
0.0
 33
0.0
 40
0.0
 40
0.0
 40
0.0
 40
0.0
 40
0.4995556428654901
 40
1.0
 40
1.0
 40
1.0
 40
1.0
 10
375.4005341720813
 20
324.1992512621206
 30
0.0
 10
376.5657896574241
 20
324.2373798078467
 30
0.0
 10
378.8983736287686
 20
324.3137047303466
 30
0.0
 10
381.2324554035472
 20
324.3229571777899
 30
0.0
 10
382.4005334568255
 20
324.3275875129026
 30
0.0
  0
LINE
  5
D0
330
1F
100
AcDbEntity
  8
0
  6
Continuous
 62
     7
370
    15
100
AcDbLine
 10
375.4005341721
 20
381.9508993902
 30
0.0
 11
375.4005341721
 21
324.1992512621
 31
0.0
  0
LINE
  5
D1
330
1F
100
AcDbEntity
  8
0
  6
Continuous
 62
     7
370
    15
100
AcDbLine
 10
328.9005330694
 20
89.9509036817
 30
0.0
 11
428.9005382848
 21
89.9509036817
 31
0.0
  0
LINE
  5
D2
330
1F
100
AcDbEntity
  8
0
  6
Continuous
 62
     7
370
    15
100
AcDbLine
 10
328.9005330694
 20
399.9509060659
 30
0.0
 11
428.9005382848
 21
399.9509060659
 31
0.0
  0
LINE
  5
D3
330
1F
100
AcDbEntity
  8
0
  6
Continuous
 62
     7
370
    15
100
AcDbLine
 10
463.9005347085
 20
278.9509067215
 30
0.0
 11
463.9005347085
 21
249.950904762
 31
0.0
  0
LINE
  5
D4
330
1F
100
AcDbEntity
  8
0
  6
Continuous
 62
     7
370
    15
100
AcDbLine
 10
364.4005342317
 20
165.2765640892
 30
0.0
 11
349.9005309236
 21
165.2765640892
 31
0.0
  0
LINE
  5
D5
330
1F
100
AcDbEntity
  8
0
  6
Continuous
 62
     7
370
    15
100
AcDbLine
 10
343.9005336654
 20
173.5543304958
 30
0.0
 11
343.9005336654
 21
164.4509056486
 31
0.0
  0
LINE
  5
D6
330
1F
100
AcDbEntity
  8
0
  6
Continuous
 62
     7
370
    15
100
AcDbLine
 10
367.9506613803
 20
324.6252456583
 30
0.0
 11
349.9005309236
 21
324.6252456583
 31
0.0
  0
SPLINE
  5
D7
330
1F
100
AcDbEntity
  8
0
  6
Continuous
 62
     7
370
    15
100
AcDbSpline
210
0.0
220
0.0
230
1.0
 70
     8
 71
     3
 72
     9
 73
     5
 74
     0
 42
0.00000001
 43
0.00000001
 12
1.0
 22
0.0
 32
0.0
 13
1.0
 23
0.0
 33
0.0
 40
0.0
 40
0.0
 40
0.0
 40
0.0
 40
0.9437190730786644
 40
1.0
 40
1.0
 40
1.0
 40
1.0
 10
368.2652099919551
 20
324.1992885150236
 30
0.0
 10
368.2282989415716
 20
324.3422006575254
 30
0.0
 10
368.1891866130869
 20
324.4936357048597
 30
0.0
 10
367.9633705193817
 20
324.6182331960349
 30
0.0
 10
367.9506613803142
 20
324.6252456583303
 30
0.0
  0
SPLINE
  5
D8
330
1F
100
AcDbEntity
  8
0
  6
Continuous
 62
     7
370
    15
100
AcDbSpline
210
0.0
220
0.0
230
1.0
 70
     8
 71
     3
 72
    11
 73
     7
 74
     0
 42
0.00000001
 43
0.00000001
 12
1.0
 22
0.0
 32
0.0
 13
1.0
 23
0.0
 33
0.0
 40
0.0
 40
0.0
 40
0.0
 40
0.0
 40
0.2690183305705063
 40
0.539816441044753
 40
0.8440026176526522
 40
0.9999999999999999
 40
0.9999999999999999
 40
0.9999999999999999
 40
0.9999999999999999
 10
368.2652099919551
 20
324.1992885150236
 30
0.0
 10
368.1050386404489
 20
323.7681349363334
 30
0.0
 10
367.7836362707887
 20
322.9029753395927
 30
0.0
 10
367.28912136549
 20
320.8414921982024
 30
0.0
 10
366.8685031229265
 20
318.6999290468789
 30
0.0
 10
366.6267875986771
 20
316.9430445890813
 30
0.0
 10
366.5448485803836
 20
316.3474792517942
 30
0.0
  0
LINE
  5
D9
330
1F
100
AcDbEntity
  8
0
  6
Continuous
 62
     7
370
    15
100
AcDbLine
 10
343.9005336654
 20
325.4509040989
 30
0.0
 11
343.9005336654
 21
316.3474792518
 31
0.0
  0
LINE
  5
DA
330
1F
100
AcDbEntity
  8
0
  6
Continuous
 62
     7
370
    15
100
AcDbLine
 10
405.4549544049
 20
295.6534692921
 30
0.0
 11
433.0912216497
 21
295.6534692921
 31
0.0
  0
LINE
  5
DB
330
1F
100
AcDbEntity
  8
0
  6
Continuous
 62
     7
370
    15
100
AcDbLine
 10
457.5822486472
 20
157.4509063639
 30
0.0
 11
461.5789337945
 21
172.4509069599
 31
0.0
  0
LINE
  5
DC
330
1F
100
AcDbEntity
  8
0
  6
Continuous
 62
     7
370
    15
100
AcDbLine
 10
457.2242482496
 20
156.200907556
 30
0.0
 11
457.5822486472
 21
157.4509063639
 31
0.0
  0
SPLINE
  5
DD
330
1F
100
AcDbEntity
  8
0
  6
Continuous
 62
     7
370
    15
100
AcDbSpline
210
0.0
220
0.0
230
1.0
 70
     8
 71
     3
 72
     9
 73
     5
 74
     0
 42
0.00000001
 43
0.00000001
 12
1.0
 22
0.0
 32
0.0
 13
1.0
 23
0.0
 33
0.0
 40
0.0
 40
0.0
 40
0.0
 40
0.0
 40
0.4992746541379967
 40
1.0
 40
1.0
 40
1.0
 40
1.0
 10
452.5318874907725
 20
139.950908152036
 30
0.0
 10
453.3914890076629
 20
142.6325915212099
 30
0.0
 10
455.1131896983869
 20
148.0037501549358
 30
0.0
 10
456.5198818402822
 20
153.4658804665588
 30
0.0
 10
457.224248249554
 20
156.2009075559896
 30
0.0
  0
LINE
  5
DE
330
1F
100
AcDbEntity
  8
0
  6
Continuous
 62
     7
370
    15
100
AcDbLine
 10
461.560486157
 20
172.4509069599
 30
0.0
 11
462.2493221355
 21
174.9509045758
 31
0.0
  0
SPLINE
  5
DF
330
1F
100
AcDbEntity
  8
0
  6
Continuous
 62
     7
370
    15
100
AcDbSpline
210
0.0
220
0.0
230
1.0
 70
     8
 71
     3
 72
    23
 73
    19
 74
     0
 42
0.00000001
 43
0.00000001
 12
1.0
 22
0.0
 32
0.0
 13
1.0
 23
0.0
 33
0.0
 40
0.0
 40
0.0
 40
0.0
 40
0.0
 40
0.4071745575046978
 40
0.4511286099029551
 40
0.4949738010065467
 40
0.5388489316396042
 40
0.5827096618007581
 40
0.6598902025249239
 40
0.690211123061079
 40
0.7204692526738499
 40
0.7389800393103126
 40
0.756275069411495
 40
0.7731713731208869
 40
0.7901264366018741
 40
0.8071436896188008
 40
0.8749631694189958
 40
0.9369722817554217
 40
1.0
 40
1.0
 40
1.0
 40
1.0
 10
405.6212811660998
 20
236.1703043706935
 30
0.0
 10
407.6562786097416
 20
221.1007015489062
 30
0.0
 10
409.9109518229509
 20
204.4043514271181
 30
0.0
 10
409.1681196351436
 20
185.9901957113473
 30
0.0
 10
408.4568653081342
 20
181.1421668133662
 30
0.0
 10
407.7454276399356
 20
176.3023111334975
 30
0.0
 10
406.6413588806523
 20
170.2698696113659
 30
0.0
 10
405.6786217811863
 20
164.7246074391539
 30
0.0
 10
404.6848470636552
 20
159.7002238039944
 30
0.0
 10
404.3503377731079
 20
156.7696812721115
 30
0.0
 10
403.3595717706717
 20
154.4598742350778
 30
0.0
 10
401.8867779725797
 20
153.118308919531
 30
0.0
 10
400.2973835842483
 20
152.09044843615
 30
0.0
 10
398.7996414706909
 20
150.938922517197
 30
0.0
 10
395.8453217301809
 20
148.5890815238101
 30
0.0
 10
391.8163819137837
 20
144.9094479191039
 30
0.0
 10
386.8336344330237
 20
139.7614872335094
 30
0.0
 10
383.8862373867923
 20
136.1718724221374
 30
0.0
 10
382.4005334568255
 20
134.3624437131208
 30
0.0
  0
SPLINE
  5
E0
330
1F
100
AcDbEntity
  8
0
  6
Continuous
 62
     7
370
    15
100
AcDbSpline
210
0.0
220
0.0
230
1.0
 70
     8
 71
     3
 72
    14
 73
    10
 74
     0
 42
0.00000001
 43
0.00000001
 12
1.0
 22
0.0
 32
0.0
 13
1.0
 23
0.0
 33
0.0
 40
0.0
 40
0.0
 40
0.0
 40
0.0
 40
0.1229647222468228
 40
0.2459268421751423
 40
0.3739357922746236
 40
0.5019434138748493
 40
0.7106017965755984
 40
0.9253061863728071
 40
0.9999999999999999
 40
0.9999999999999999
 40
0.9999999999999999
 40
0.9999999999999999
 10
405.8025239897006
 20
232.6922094352764
 30
0.0
 10
405.8952103409321
 20
231.2608615244802
 30
0.0
 10
406.0805810818616
 20
228.398195994691
 30
0.0
 10
406.2873798194063
 20
224.2277095609776
 30
0.0
 10
406.4162759650694
 20
220.193294023945
 30
0.0
 10
406.4612433151796
 20
215.5478835650519
 30
0.0
 10
406.330070214022
 20
210.5882149764582
 30
0.0
 10
406.0469994198493
 20
206.821116009617
 30
0.0
 10
405.8526783500292
 20
205.0223272397647
 30
0.0
 10
405.8025239897006
 20
204.5580590047163
 30
0.0
  0
SPLINE
  5
E1
330
1F
100
AcDbEntity
  8
0
  6
Continuous
 62
     7
370
    15
100
AcDbSpline
210
0.0
220
0.0
230
1.0
 70
     8
 71
     3
 72
    10
 73
     6
 74
     0
 42
0.00000001
 43
0.00000001
 12
1.0
 22
0.0
 32
0.0
 13
1.0
 23
0.0
 33
0.0
 40
0.0
 40
0.0
 40
0.0
 40
0.0
 40
0.2976618136181783
 40
0.8379234410772594
 40
1.0
 40
1.0
 40
1.0
 40
1.0
 10
402.3041932773822
 20
320.8561161436361
 30
0.0
 10
402.2137271880025
 20
321.0396596299004
 30
0.0
 10
401.9590634943551
 20
321.5563378955083
 30
0.0
 10
401.5372218895063
 20
322.2276070562659
 30
0.0
 10
401.1219635524832
 20
322.7506968614871
 30
0.0
 10
401.0261355829471
 20
322.8714087881368
 30
0.0
  0
SPLINE
  5
E2
330
1F
100
AcDbEntity
  8
0
  6
Continuous
 62
     7
370
    15
100
AcDbSpline
210
0.0
220
0.0
230
1.0
 70
     8
 71
     3
 72
    12
 73
     8
 74
     0
 42
0.00000001
 43
0.00000001
 12
1.0
 22
0.0
 32
0.0
 13
1.0
 23
0.0
 33
0.0
 40
0.0
 40
0.0
 40
0.0
 40
0.0
 40
0.2032213241665475
 40
0.4064439906528147
 40
0.6148626972715031
 40
0.8232796447142446
 40
1.0
 40
1.0
 40
1.0
 40
1.0
 10
352.9116532695525
 20
107.9509103574079
 30
0.0
 10
353.4790945434848
 20
109.7082878877097
 30
0.0
 10
354.6139808394187
 20
113.2230545561625
 30
0.0
 10
356.848528181655
 20
118.3510733079329
 30
0.0
 10
359.4812249561346
 20
123.3336401269978
 30
0.0
 10
362.359775767957
 20
127.9025625776143
 30
0.0
 10
364.4916621638276
 20
130.6775864075372
 30
0.0
 10
365.4698788118594
 20
131.9509068407339
 30
0.0
  0
SPLINE
  5
E3
330
1F
100
AcDbEntity
  8
0
  6
Continuous
 62
     7
370
    15
100
AcDbSpline
210
0.0
220
0.0
230
1.0
 70
     8
 71
     3
 72
     9
 73
     5
 74
     0
 42
0.00000001
 43
0.00000001
 12
1.0
 22
0.0
 32
0.0
 13
1.0
 23
0.0
 33
0.0
 40
0.0
 40
0.0
 40
0.0
 40
0.0
 40
0.4681114165812508
 40
0.9999999999999999
 40
0.9999999999999999
 40
0.9999999999999999
 40
0.9999999999999999
 10
375.4005341720813
 20
142.8300881661695
 30
0.0
 10
373.5187326001867
 20
141.2851382237011
 30
0.0
 10
369.4987461071464
 20
137.9847488553929
 30
0.0
 10
366.0994272279985
 20
134.0459232254028
 30
0.0
 10
364.2913683247798
 20
131.9509068407339
 30
0.0
  0
SPLINE
  5
E4
330
1F
100
AcDbEntity
  8
0
  6
Continuous
 62
     7
370
    15
100
AcDbSpline
210
0.0
220
0.0
230
1.0
 70
     8
 71
     3
 72
     9
 73
     5
 74
     0
 42
0.00000001
 43
0.00000001
 12
1.0
 22
0.0
 32
0.0
 13
1.0
 23
0.0
 33
0.0
 40
0.0
 40
0.0
 40
0.0
 40
0.0
 40
0.5025956354504044
 40
1.0
 40
1.0
 40
1.0
 40
1.0
 10
375.4005341720813
 20
124.5110550798696
 30
0.0
 10
373.769619303103
 20
121.8279787660646
 30
0.0
 10
370.5246351569178
 20
116.4895394232706
 30
0.0
 10
367.9769216118622
 20
110.7872526742728
 30
0.0
 10
366.7096777749293
 20
107.9509103574079
 30
0.0
  0
SPLINE
  5
E5
330
1F
100
AcDbEntity
  8
0
  6
Continuous
 62
     7
370
    15
100
AcDbSpline
210
0.0
220
0.0
230
1.0
 70
     8
 71
     3
 72
    15
 73
    11
 74
     0
 42
0.00000001
 43
0.00000001
 12
1.0
 22
0.0
 32
0.0
 13
1.0
 23
0.0
 33
0.0
 40
0.0
 40
0.0
 40
0.0
 40
0.0
 40
0.1197149037890293
 40
0.2384070558939463
 40
0.354147676476349
 40
0.4673342742665286
 40
0.5783926302806911
 40
0.7211306090399304
 40
0.8614659825547835
 40
1.0
 40
1.0
 40
1.0
 40
1.0
 10
403.9142190408938
 20
381.9508993901533
 30
0.0
 10
403.9021674500983
 20
379.6864591656151
 30
0.0
 10
403.8781672279916
 20
375.1769243450268
 30
0.0
 10
403.8393820292301
 20
368.460920738527
 30
0.0
 10
403.8003135555347
 20
361.8632356272287
 30
0.0
 10
403.760876302002
 20
355.4995565399873
 30
0.0
 10
403.7172759834482
 20
348.8020233575077
 30
0.0
 10
403.6692467825291
 20
341.9369628446912
 30
0.0
 10
403.6168182978491
 20
335.0734263529043
 30
0.0
 10
403.5814783689241
 20
331.1447445573074
 30
0.0
 10
403.5639225435489
 20
329.1930923141759
 30
0.0
  0
SPLINE
  5
E6
330
1F
100
AcDbEntity
  8
0
  6
Continuous
 62
     7
370
    15
100
AcDbSpline
210
0.0
220
0.0
230
1.0
 70
     8
 71
     3
 72
     9
 73
     5
 74
     0
 42
0.00000001
 43
0.00000001
 12
1.0
 22
0.0
 32
0.0
 13
1.0
 23
0.0
 33
0.0
 40
0.0
 40
0.0
 40
0.0
 40
0.0
 40
0.4934896789527106
 40
1.0
 40
1.0
 40
1.0
 40
1.0
 10
366.479536790871
 20
331.4871856846136
 30
0.0
 10
365.7336971860165
 20
331.7915486790916
 30
0.0
 10
364.2223391239039
 20
332.4083052344141
 30
0.0
 10
362.7803584536959
 20
333.1734196088076
 30
0.0
 10
362.0499803614848
 20
333.5609579362196
 30
0.0
  0
SPLINE
  5
E7
330
1F
100
AcDbEntity
  8
0
  6
Continuous
 62
     7
370
    15
100
AcDbSpline
210
0.0
220
0.0
230
1.0
 70
     8
 71
     3
 72
    14
 73
    10
 74
     0
 42
0.00000001
 43
0.00000001
 12
1.0
 22
0.0
 32
0.0
 13
1.0
 23
0.0
 33
0.0
 40
0.0
 40
0.0
 40
0.0
 40
0.0
 40
0.1470336957365451
 40
0.2924939048759466
 40
0.4345965855915336
 40
0.574004379892808
 40
0.7177418967851263
 40
0.8596041196291738
 40
0.9999999999999999
 40
0.9999999999999999
 40
0.9999999999999999
 40
0.9999999999999999
 10
358.3472168934577
 20
381.9508993901533
 30
0.0
 10
358.5186013550517
 20
379.4279680478911
 30
0.0
 10
358.8595362010103
 20
374.4091046075378
 30
0.0
 10
359.3743000987169
 20
366.9319585250368
 30
0.0
 10
359.8941889967706
 20
359.6452152558234
 30
0.0
 10
360.4218302481224
 20
352.558502711591
 30
0.0
 10
360.9581536424804
 20
345.7664563612688
 30
0.0
 10
361.502694728609
 20
339.3102351326415
 30
0.0
 10
361.8681847290622
 20
335.4707348810379
 30
0.0
 10
362.0499803614848
 20
333.5609579362196
 30
0.0
  0
SPLINE
  5
E8
330
1F
100
AcDbEntity
  8
0
  6
Continuous
 62
     7
370
    15
100
AcDbSpline
210
0.0
220
0.0
230
1.0
 70
     8
 71
     3
 72
     9
 73
     5
 74
     0
 42
0.00000001
 43
0.00000001
 12
1.0
 22
0.0
 32
0.0
 13
1.0
 23
0.0
 33
0.0
 40
0.0
 40
0.0
 40
0.0
 40
0.0
 40
0.6604898357753307
 40
1.0
 40
1.0
 40
1.0
 40
1.0
 10
362.0499803614848
 20
333.5609579362196
 30
0.0
 10
360.6511625625052
 20
338.9151921420492
 30
0.0
 10
358.5333134704936
 20
347.0216517964125
 30
0.0
 10
356.6298452412775
 20
355.180791907709
 30
0.0
 10
355.9835984301799
 20
357.9509029068273
 30
0.0
  0
SPLINE
  5
E9
330
1F
100
AcDbEntity
  8
0
  6
Continuous
 62
     7
370
    15
100
AcDbSpline
210
0.0
220
0.0
230
1.0
 70
     8
 71
     3
 72
     9
 73
     5
 74
     0
 42
0.00000001
 43
0.00000001
 12
1.0
 22
0.0
 32
0.0
 13
1.0
 23
0.0
 33
0.0
 40
0.0
 40
0.0
 40
0.0
 40
0.0
 40
0.6335308621138643
 40
1.0
 40
1.0
 40
1.0
 40
1.0
 10
353.1984559190505
 20
376.1103296555799
 30
0.0
 10
353.8250075460007
 20
372.2570190564653
 30
0.0
 10
354.813991136886
 20
366.1747414129459
 30
0.0
 10
356.1338370942578
 20
360.1564287572788
 30
0.0
 10
356.6175199043983
 20
357.9509029068273
 30
0.0
  0
SPLINE
  5
EA
330
1F
100
AcDbEntity
  8
0
  6
Continuous
 62
     7
370
    15
100
AcDbSpline
210
0.0
220
0.0
230
1.0
 70
     8
 71
     3
 72
     9
 73
     5
 74
     0
 42
0.00000001
 43
0.00000001
 12
1.0
 22
0.0
 32
0.0
 13
1.0
 23
0.0
 33
0.0
 40
0.0
 40
0.0
 40
0.0
 40
0.0
 40
0.2953352326331879
 40
1.0
 40
1.0
 40
1.0
 40
1.0
 10
352.4764574063056
 20
381.9508993901533
 30
0.0
 10
352.5853576842796
 20
381.3804469787017
 30
0.0
 10
352.9540921458033
 20
379.4489049599408
 30
0.0
 10
353.0974421920558
 20
377.4904112031197
 30
0.0
 10
353.1984559190505
 20
376.1103296555799
 30
0.0
  0
SPLINE
  5
EB
330
1F
100
AcDbEntity
  8
0
  6
Continuous
 62
     7
370
    15
100
AcDbSpline
210
0.0
220
0.0
230
1.0
 70
     8
 71
     3
 72
    10
 73
     6
 74
     0
 42
0.00000001
 43
0.00000001
 12
1.0
 22
0.0
 32
0.0
 13
1.0
 23
0.0
 33
0.0
 40
0.0
 40
0.0
 40
0.0
 40
0.0
 40
0.3186508284689613
 40
0.6373024435667263
 40
1.0
 40
1.0
 40
1.0
 40
1.0
 10
403.534530003094
 20
326.2117871918005
 30
0.0
 10
404.2809176408109
 20
332.1208903204018
 30
0.0
 10
405.7736947587942
 20
343.939111164953
 30
0.0
 10
407.8993604256072
 20
362.5109653022967
 30
0.0
 10
409.0204191287764
 20
375.1975459223088
 30
0.0
 10
409.6171840024226
 20
381.9508993901533
 30
0.0
  0
SPLINE
  5
EC
330
1F
100
AcDbEntity
  8
0
  6
Continuous
 62
     7
370
    15
100
AcDbSpline
210
0.0
220
0.0
230
1.0
 70
     8
 71
     3
 72
     9
 73
     5
 74
     0
 42
0.00000001
 43
0.00000001
 12
1.0
 22
0.0
 32
0.0
 13
1.0
 23
0.0
 33
0.0
 40
0.0
 40
0.0
 40
0.0
 40
0.0
 40
0.560452187723715
 40
1.0
 40
1.0
 40
1.0
 40
1.0
 10
403.5639225435489
 20
329.1930923141759
 30
0.0
 10
403.5584395738394
 20
328.6177284223528
 30
0.0
 10
403.548656456154
 20
327.5911218635312
 30
0.0
 10
403.5388433377987
 20
326.632949679205
 30
0.0
 10
403.534530003094
 20
326.2117871918005
 30
0.0
  0
SPLINE
  5
ED
330
1F
100
AcDbEntity
  8
0
  6
Continuous
 62
     7
370
    15
100
AcDbSpline
210
0.0
220
0.0
230
1.0
 70
     8
 71
     3
 72
    13
 73
     9
 74
     0
 42
0.00000001
 43
0.00000001
 12
1.0
 22
0.0
 32
0.0
 13
1.0
 23
0.0
 33
0.0
 40
0.0
 40
0.0
 40
0.0
 40
0.0
 40
0.1524395397026791
 40
0.3055662665048492
 40
0.4490048155559181
 40
0.645732568434257
 40
0.9539778112634117
 40
1.0
 40
1.0
 40
1.0
 40
1.0
 10
366.479536790871
 20
331.4871856846136
 30
0.0
 10
366.8469304567089
 20
331.3084421481651
 30
0.0
 10
367.583373974097
 20
330.9501493115366
 30
0.0
 10
368.3727122102263
 20
330.0063213257964
 30
0.0
 10
368.8359230070521
 20
328.7598703708281
 30
0.0
 10
368.859593434995
 20
327.0056920618261
 30
0.0
 10
368.4123920315343
 20
325.5828321976341
 30
0.0
 10
368.0037475811501
 20
324.7353415144511
 30
0.0
 10
367.9506613803142
 20
324.6252456583303
 30
0.0
  0
LINE
  5
EE
330
1F
100
AcDbEntity
  8
0
  6
Continuous
 62
     7
370
    15
100
AcDbLine
 10
344.4005309534
 20
376.1103296556
 30
0.0
 11
353.1984559191
 21
376.1103296556
 31
0.0
  0
LINE
  5
EF
330
1F
100
AcDbEntity
  8
0
  6
Continuous
 62
     7
370
    15
100
AcDbLine
 10
301.4005327527
 20
364.9509021916
 30
0.0
 11
301.4005327527
 21
394.9509108342
 31
0.0
  0
LINE
  5
F0
330
1F
100
AcDbEntity
  8
0
  6
Continuous
 62
     7
370
    15
100
AcDbLine
 10
344.4005309534
 20
131.9509068407
 30
0.0
 11
344.4005309534
 21
107.9509103574
 31
0.0
  0
LINE
  5
F1
330
1F
100
AcDbEntity
  8
0
  6
Continuous
 62
     7
370
    15
100
AcDbLine
 10
365.4698788119
 20
131.9509068407
 30
0.0
 11
344.4005309534
 21
131.9509068407
 31
0.0
  0
LINE
  5
F2
330
1F
100
AcDbEntity
  8
0
  6
Continuous
 62
     7
370
    15
100
AcDbLine
 10
356.6175199044
 20
357.9509029068
 30
0.0
 11
344.4005309534
 21
357.9509029068
 31
0.0
  0
LINE
  5
F3
330
1F
100
AcDbEntity
  8
0
  6
Continuous
 62
     7
370
    15
100
AcDbLine
 10
344.4005309534
 20
357.9509029068
 30
0.0
 11
344.4005309534
 21
376.1103296556
 31
0.0
  0
LINE
  5
F4
330
1F
100
AcDbEntity
  8
0
  6
Continuous
 62
     7
370
    15
100
AcDbLine
 10
349.9005309236
 20
357.9509029068
 30
0.0
 11
349.9005309236
 21
324.6252456583
 31
0.0
  0
LINE
  5
F5
330
1F
100
AcDbEntity
  8
0
  6
Continuous
 62
     7
370
    15
100
AcDbLine
 10
349.9005309236
 20
131.9509068407
 30
0.0
 11
349.9005309236
 21
165.2765640892
 31
0.0
  0
SPLINE
  5
F6
330
1F
100
AcDbEntity
  8
0
  6
Continuous
 62
     7
370
    15
100
AcDbSpline
210
0.0
220
0.0
230
1.0
 70
     8
 71
     3
 72
    11
 73
     7
 74
     0
 42
0.00000001
 43
0.00000001
 12
1.0
 22
0.0
 32
0.0
 13
1.0
 23
0.0
 33
0.0
 40
0.0
 40
0.0
 40
0.0
 40
0.0
 40
0.3059210525845399
 40
0.61038208793201
 40
0.9543315745455608
 40
1.0
 40
1.0
 40
1.0
 40
1.0
 10
403.534530003094
 20
326.2117871918005
 30
0.0
 10
403.1910136785993
 20
325.7514152108047
 30
0.0
 10
402.5056204713899
 20
324.8328683876569
 30
0.0
 10
402.1084666136902
 20
323.0609868386224
 30
0.0
 10
402.1655180625158
 20
321.7555902736408
 30
0.0
 10
402.3262362893772
 20
321.0493916227365
 30
0.0
 10
402.3450746131175
 20
320.9666157044691
 30
0.0
  0
LINE
  5
F7
330
1F
100
AcDbEntity
  8
0
  6
Continuous
 62
     7
370
    15
100
AcDbLine
 10
436.4005311322
 20
381.9508993902
 30
0.0
 11
423.2620580983
 21
307.4389280655
 31
0.0
  0
SPLINE
  5
F8
330
1F
100
AcDbEntity
  8
0
  6
Continuous
 62
     7
370
    15
100
AcDbSpline
210
0.0
220
0.0
230
1.0
 70
     8
 71
     3
 72
    13
 73
     9
 74
     0
 42
0.00000001
 43
0.00000001
 12
1.0
 22
0.0
 32
0.0
 13
1.0
 23
0.0
 33
0.0
 40
0.0
 40
0.0
 40
0.0
 40
0.0
 40
0.1919005238445214
 40
0.3837924821816548
 40
0.5759981592950462
 40
0.7691929656556273
 40
0.963349346627682
 40
1.0
 40
1.0
 40
1.0
 40
1.0
 10
433.0912216496699
 20
295.6534692920965
 30
0.0
 10
431.9727910930076
 20
295.7635029560748
 30
0.0
 10
429.7359799009911
 20
295.9835653726631
 30
0.0
 10
426.7583941541185
 20
297.6992582372613
 30
0.0
 10
424.4860482857956
 20
300.2294066087269
 30
0.0
 10
423.1799782482713
 20
303.3954276466236
 30
0.0
 10
423.0232204207952
 20
305.9059594999392
 30
0.0
 10
423.2293293440955
 20
307.2288600730135
 30
0.0
 10
423.2620580983394
 20
307.438928065471
 30
0.0
  0
LINE
  5
F9
330
1F
100
AcDbEntity
  8
0
  6
Continuous
 62
     7
370
    15
100
AcDbLine
 10
454.5178695512
 20
142.4509057679
 30
0.0
 11
453.6000027251
 21
139.950908152
 31
0.0
  0
LINE
  5
FA
330
1F
100
AcDbEntity
  8
0
  6
Continuous
 62
     7
370
    15
100
AcDbLine
 10
453.5987510276
 20
139.950908152
 30
0.0
 11
454.5178695512
 21
142.4509057679
 31
0.0
  0
SPLINE
  5
FB
330
1F
100
AcDbEntity
  8
0
  6
Continuous
 62
     7
370
    15
100
AcDbSpline
210
0.0
220
0.0
230
1.0
 70
     8
 71
     3
 72
     9
 73
     5
 74
     0
 42
0.00000001
 43
0.00000001
 12
1.0
 22
0.0
 32
0.0
 13
1.0
 23
0.0
 33
0.0
 40
0.0
 40
0.0
 40
0.0
 40
0.0
 40
0.4998416216324127
 40
1.0
 40
1.0
 40
1.0
 40
1.0
 10
458.2597299409144
 20
156.2009075559896
 30
0.0
 10
457.5547010612149
 20
153.4729085897473
 30
0.0
 10
456.1441965150007
 20
148.0151818855703
 30
0.0
 10
454.4474120127115
 20
142.6395669839561
 30
0.0
 10
453.5987510276072
 20
139.950908152036
 30
0.0
  0
LINE
  5
FC
330
1F
100
AcDbEntity
  8
0
  6
Continuous
 62
     7
370
    15
100
AcDbLine
 10
458.6172386003
 20
157.4509063639
 30
0.0
 11
458.2597299409
 21
156.200907556
 31
0.0
  0
LINE
  5
FD
330
1F
100
AcDbEntity
  8
0
  6
Continuous
 62
     7
370
    15
100
AcDbLine
 10
462.6138641429
 20
172.4509069599
 30
0.0
 11
458.6172386003
 21
157.4509063639
 31
0.0
  0
LINE
  5
FE
330
1F
100
AcDbEntity
  8
0
  6
Continuous
 62
     7
370
    15
100
AcDbLine
 10
462.5956400228
 20
172.4509069599
 30
0.0
 11
462.6138641429
 21
172.4509069599
 31
0.0
  0
LINE
  5
FF
330
1F
100
AcDbEntity
  8
0
  6
Continuous
 62
     7
370
    15
100
AcDbLine
 10
463.2814659667
 20
174.9509045758
 30
0.0
 11
462.5956400228
 21
172.4509069599
 31
0.0
  0
LINE
  5
100
330
1F
100
AcDbEntity
  8
0
  6
Continuous
 62
     7
370
    15
100
AcDbLine
 10
458.2597299409
 20
156.200907556
 30
0.0
 11
457.2242482496
 21
156.200907556
 31
0.0
  0
LINE
  5
101
330
1F
100
AcDbEntity
  8
0
  6
Continuous
 62
     7
370
    15
100
AcDbLine
 10
453.5987510276
 20
139.950908152
 30
0.0
 11
452.5318874908
 21
139.950908152
 31
0.0
  0
LINE
  5
102
330
1F
100
AcDbEntity
  8
0
  6
Continuous
 62
     7
370
    15
100
AcDbLine
 10
458.6172386003
 20
157.4509063639
 30
0.0
 11
457.5822486472
 21
157.4509063639
 31
0.0
  0
LINE
  5
103
330
1F
100
AcDbEntity
  8
0
  6
Continuous
 62
     7
370
    15
100
AcDbLine
 10
463.2814659667
 20
174.9509045758
 30
0.0
 11
462.2493221355
 21
174.9509045758
 31
0.0
  0
LINE
  5
104
330
1F
100
AcDbEntity
  8
0
  6
Continuous
 62
     7
370
    15
100
AcDbLine
 10
462.5956400228
 20
172.4509069599
 30
0.0
 11
461.560486157
 21
172.4509069599
 31
0.0
  0
LINE
  5
105
330
1F
100
AcDbEntity
  8
0
  6
Continuous
 62
     7
370
    15
100
AcDbLine
 10
188.0005358649
 20
262.6431373783
 30
0.0
 11
188.0005358649
 21
221.8818733372
 31
0.0
  0
LINE
  5
106
330
1F
100
AcDbEntity
  8
0
  6
Continuous
 62
     7
370
    15
100
AcDbLine
 10
130.8005287242
 20
221.8818733372
 30
0.0
 11
130.8005287242
 21
262.6431373783
 31
0.0
  0
SPLINE
  5
107
330
1F
100
AcDbEntity
  8
0
  6
Continuous
 62
     7
370
    15
100
AcDbSpline
210
0.0
220
0.0
230
1.0
 70
     8
 71
     3
 72
     9
 73
     5
 74
     0
 42
0.00000001
 43
0.00000001
 12
1.0
 22
0.0
 32
0.0
 13
1.0
 23
0.0
 33
0.0
 40
0.0
 40
0.0
 40
0.0
 40
0.0
 40
0.8120142874130091
 40
1.0
 40
1.0
 40
1.0
 40
1.0
 10
130.8005287242168
 20
217.869772938661
 30
0.0
 10
130.8418021752284
 20
217.2333101747223
 30
0.0
 10
130.8926306540511
 20
216.4495028282206
 30
0.0
 10
131.1537571288492
 20
215.6803257237898
 30
0.0
 10
131.2028451752894
 20
215.5357314177078
 30
0.0
  0
LINE
  5
108
330
1F
100
AcDbEntity
  8
0
  6
Continuous
 62
     7
370
    15
100
AcDbLine
 10
130.8005287242
 20
217.8697729387
 30
0.0
 11
130.8005287242
 21
221.8818733372
 31
0.0
  0
ARC
  5
109
330
1F
100
AcDbEntity
  8
0
  6
Continuous
 62
     7
370
    15
100
AcDbCircle
 10
163.1024421272
 20
200.1320768765
 30
0.0
 40
14.85670001744013
100
AcDbArc
 50
82.2196829363
 51
90.5059892206
  0
LINE
  5
10A
330
1F
100
AcDbEntity
  8
0
  6
Continuous
 62
     7
370
    15
100
AcDbLine
 10
155.8298154664
 20
214.9881975629
 30
0.0
 11
162.9712416721
 21
214.9881975629
 31
0.0
  0
ARC
  5
10B
330
1F
100
AcDbEntity
  8
0
  6
Continuous
 62
     7
370
    15
100
AcDbCircle
 10
155.6986456212
 20
200.1315953307
 30
0.0
 40
14.85718127414267
100
AcDbArc
 50
89.4941452196
 51
97.7801826234
  0
LWPOLYLINE
  5
10C
330
1F
100
AcDbEntity
  8
0
  6
Continuous
 62
     7
370
    15
100
AcDbPolyline
 90
       23
 70
   128
 43
0.0
 10
165.1136710239
 20
214.8520121254
 10
166.1695971084
 20
214.6498145439
 10
166.9187529874
 20
214.4183790215
 10
167.3271789146
 20
214.1681903877
 10
167.3763527465
 20
213.9105902888
 10
167.0640691114
 20
213.6572519221
 10
166.4044692111
 20
213.4196566321
 10
165.4274447751
 20
213.2085742332
 10
164.1772671533
 20
213.0335675456
 10
162.7106203628
 20
212.9025714375
 10
161.0939486814
 20
212.8215202965
 10
159.4005360198
 20
212.794090984
 10
157.7071233583
 20
212.8215202965
 10
156.0904516769
 20
212.9025714375
 10
154.6237899852
 20
213.0335675456
 10
153.3736272645
 20
213.2085742332
 10
152.3966028285
 20
213.4196566321
 10
151.7370029283
 20
213.6572519221
 10
151.424704392
 20
213.9105902888
 10
151.4738931251
 20
214.1681903877
 10
151.8823041511
 20
214.4183790215
 10
152.6314600301
 20
214.6498145439
 10
153.6873861146
 20
214.8520121254
  0
LINE
  5
10D
330
1F
100
AcDbEntity
  8
0
  6
Continuous
 62
     7
370
    15
100
AcDbLine
 10
188.0005358649
 20
221.8818733372
 30
0.0
 11
188.0005358649
 21
217.8697729387
 31
0.0
  0
SPLINE
  5
10E
330
1F
100
AcDbEntity
  8
0
  6
Continuous
 62
     7
370
    15
100
AcDbSpline
210
0.0
220
0.0
230
1.0
 70
     8
 71
     3
 72
    18
 73
    14
 74
     0
 42
0.00000001
 43
0.00000001
 12
1.0
 22
0.0
 32
0.0
 13
1.0
 23
0.0
 33
0.0
 40
0.0
 40
0.0
 40
0.0
 40
0.0
 40
0.0621886224469212
 40
0.1472522150058624
 40
0.235488213233222
 40
0.3282913524104589
 40
0.4257048470241444
 40
0.5157470883242136
 40
0.6121849448347171
 40
0.7140459331178335
 40
0.8133421135608838
 40
0.9084034375106177
 40
1.0
 40
1.0
 40
1.0
 40
1.0
 10
154.7616555285686
 20
260.4646071695012
 30
0.0
 10
154.7507278568732
 20
260.162433703037
 30
0.0
 10
154.7248529653145
 20
259.4469376765602
 30
0.0
 10
155.0663952281539
 20
258.3274039112815
 30
0.0
 10
155.7975538841687
 20
257.2213471395529
 30
0.0
 10
156.8924434734431
 20
256.331643377247
 30
0.0
 10
158.223809024351
 20
255.7988820598834
 30
0.0
 10
159.6729608796167
 20
255.6673483913997
 30
0.0
 10
161.1238413075226
 20
255.9555430018887
 30
0.0
 10
162.456124428649
 20
256.6919793426666
 30
0.0
 10
163.4556334776755
 20
257.7953464584911
 30
0.0
 10
164.0458130943887
 20
259.1049391992556
 30
0.0
 10
164.0415221559147
 20
260.0170279387611
 30
0.0
 10
164.039416511082
 20
260.4646071695012
 30
0.0
  0
ARC
  5
10F
330
1F
100
AcDbEntity
  8
0
  6
Continuous
 62
     7
370
    15
100
AcDbCircle
 10
159.4005360198
 20
260.4066441285
 30
0.0
 40
3.500134067164442
100
AcDbArc
 50
180.5021533536
 51
359.4978466464
  0
ARC
  5
110
330
1F
100
AcDbEntity
  8
0
  6
Continuous
 62
     7
370
    15
100
AcDbCircle
 10
163.0001777356
 20
266.4565315208
 30
0.0
 40
6.081379338979809
100
AcDbArc
 50
269.0611791464
 51
279.8394917239
  0
ARC
  5
111
330
1F
100
AcDbEntity
  8
0
  6
Continuous
 62
     7
370
    15
100
AcDbCircle
 10
155.8008794993
 20
266.4563413008
 30
0.0
 40
6.081189387059795
100
AcDbArc
 50
260.1603394423
 51
270.9389896874
  0
CIRCLE
  5
112
330
1F
100
AcDbEntity
  8
0
  6
Continuous
 62
     7
370
    15
100
AcDbCircle
 10
159.4181511493
 20
260.3688787785
 30
0.0
 40
2.382391342834316
  0
ARC
  5
113
330
1F
100
AcDbEntity
  8
0
  6
Continuous
 62
     7
370
    15
100
AcDbCircle
 10
159.4005285692
 20
260.2628045026
 30
0.0
 40
2.400107662573871
100
AcDbArc
 50
0.5341251042
 51
179.4658748958
  0
LWPOLYLINE
  5
114
330
1F
100
AcDbEntity
  8
0
  6
Continuous
 62
     7
370
    15
100
AcDbPolyline
 90
       15
 70
   128
 43
0.0
 10
167.1567841363
 20
214.3011776634
 10
167.0640691114
 20
214.250342352
 10
166.4044692111
 20
214.0127489247
 10
165.4274447751
 20
213.8016646631
 10
164.1772671533
 20
213.6266598381
 10
162.7106203628
 20
213.4956637301
 10
161.0939486814
 20
213.4146125891
 10
159.4005360198
 20
213.3871795513
 10
157.7071233583
 20
213.4146125891
 10
156.0904516769
 20
213.4956637301
 10
154.6237899852
 20
213.6266598381
 10
153.3736272645
 20
213.8016646631
 10
152.3966028285
 20
214.0127489247
 10
151.7370029283
 20
214.250342352
 10
151.6442879033
 20
214.3011776634
  0
LINE
  5
115
330
1F
100
AcDbEntity
  8
0
  6
Continuous
 62
     7
370
    15
100
AcDbLine
 10
189.4005297613
 20
260.2214770295
 30
0.0
 11
189.4005297613
 21
218.8937881865
 31
0.0
  0
LINE
  5
116
330
1F
100
AcDbEntity
  8
0
  6
Continuous
 62
     7
370
    15
100
AcDbLine
 10
129.4005348277
 20
260.2214770295
 30
0.0
 11
129.4005348277
 21
218.8937881865
 31
0.0
  0
SPLINE
  5
117
330
1F
100
AcDbEntity
  8
0
  6
Continuous
 62
     7
370
    15
100
AcDbSpline
210
0.0
220
0.0
230
1.0
 70
     8
 71
     3
 72
    10
 73
     6
 74
     0
 42
0.00000001
 43
0.00000001
 12
1.0
 22
0.0
 32
0.0
 13
1.0
 23
0.0
 33
0.0
 40
0.0
 40
0.0
 40
0.0
 40
0.0
 40
0.3125097406435775
 40
0.7243722006115255
 40
0.9999999999999999
 40
0.9999999999999999
 40
0.9999999999999999
 40
0.9999999999999999
 10
131.6488518309825
 20
265.3909543432516
 30
0.0
 10
131.2263055400656
 20
264.9949388741305
 30
0.0
 10
130.2468775517367
 20
264.077007176217
 30
0.0
 10
129.5276077490787
 20
262.3290827664273
 30
0.0
 10
129.4369009090809
 20
261.075869825884
 30
0.0
 10
129.4005348277324
 20
260.5734331436676
 30
0.0
  0
SPLINE
  5
118
330
1F
100
AcDbEntity
  8
0
  6
Continuous
 62
     7
370
    15
100
AcDbSpline
210
0.0
220
0.0
230
1.0
 70
     8
 71
     3
 72
    10
 73
     6
 74
     0
 42
0.00000001
 43
0.00000001
 12
1.0
 22
0.0
 32
0.0
 13
1.0
 23
0.0
 33
0.0
 40
0.0
 40
0.0
 40
0.0
 40
0.0
 40
0.4304630499115618
 40
0.8610025469939782
 40
1.0
 40
1.0
 40
1.0
 40
1.0
 10
189.4005297613376
 20
260.5734331436676
 30
0.0
 10
189.3171219512029
 20
261.3227878549
 30
0.0
 10
189.1502915183007
 20
262.8216303574228
 30
0.0
 10
188.303062374633
 20
264.4494664256316
 30
0.0
 10
187.5056783527086
 20
265.0747739745657
 30
0.0
 10
187.3110740375751
 20
265.2273824341815
 30
0.0
  0
LINE
  5
119
330
1F
100
AcDbEntity
  8
0
  6
Continuous
 62
     7
370
    15
100
AcDbLine
 10
189.4005297613
 20
260.5734331437
 30
0.0
 11
189.4005297613
 21
260.2214770295
 31
0.0
  0
LINE
  5
11A
330
1F
100
AcDbEntity
  8
0
  6
Continuous
 62
     7
370
    15
100
AcDbLine
 10
129.4005348277
 20
260.5734331437
 30
0.0
 11
129.4005348277
 21
260.2214770295
 31
0.0
  0
LINE
  5
11B
330
1F
100
AcDbEntity
  8
0
  6
Continuous
 62
     7
370
    15
100
AcDbLine
 10
189.4005297613
 20
218.8937881865
 30
0.0
 11
189.4005297613
 21
215.7196042963
 31
0.0
  0
LINE
  5
11C
330
1F
100
AcDbEntity
  8
0
  6
Continuous
 62
     7
370
    15
100
AcDbLine
 10
129.4005348277
 20
218.8937881865
 30
0.0
 11
129.4005348277
 21
215.7196042963
 31
0.0
  0
SPLINE
  5
11D
330
1F
100
AcDbEntity
  8
0
  6
Continuous
 62
     7
370
    15
100
AcDbSpline
210
0.0
220
0.0
230
1.0
 70
     8
 71
     3
 72
     9
 73
     5
 74
     0
 42
0.00000001
 43
0.00000001
 12
1.0
 22
0.0
 32
0.0
 13
1.0
 23
0.0
 33
0.0
 40
0.0
 40
0.0
 40
0.0
 40
0.0
 40
0.5024599328844022
 40
1.0
 40
1.0
 40
1.0
 40
1.0
 10
188.7047721934551
 20
213.033317951135
 30
0.0
 10
188.9076655012269
 20
213.4615307958017
 30
0.0
 10
189.3114654751016
 20
214.3137636140656
 30
0.0
 10
189.3709392001736
 20
215.2525302708412
 30
0.0
 10
189.4005297613376
 20
215.7196042962593
 30
0.0
  0
SPLINE
  5
11E
330
1F
100
AcDbEntity
  8
0
  6
Continuous
 62
     7
370
    15
100
AcDbSpline
210
0.0
220
0.0
230
1.0
 70
     8
 71
     3
 72
     9
 73
     5
 74
     0
 42
0.00000001
 43
0.00000001
 12
1.0
 22
0.0
 32
0.0
 13
1.0
 23
0.0
 33
0.0
 40
0.0
 40
0.0
 40
0.0
 40
0.0
 40
0.7463498082125715
 40
1.0
 40
1.0
 40
1.0
 40
1.0
 10
129.4005348277324
 20
215.7196042962593
 30
0.0
 10
129.4678394274586
 20
215.0191821801754
 30
0.0
 10
129.5580177848263
 20
214.0807185959733
 30
0.0
 10
129.987389602336
 20
213.2452378121791
 30
0.0
 10
130.0962998461955
 20
213.033317951135
 30
0.0
  0
SPLINE
  5
11F
330
1F
100
AcDbEntity
  8
0
  6
Continuous
 62
     7
370
    15
100
AcDbSpline
210
0.0
220
0.0
230
1.0
 70
     8
 71
     3
 72
    11
 73
     7
 74
     0
 42
0.00000001
 43
0.00000001
 12
1.0
 22
0.0
 32
0.0
 13
1.0
 23
0.0
 33
0.0
 40
0.0
 40
0.0
 40
0.0
 40
0.0
 40
0.300672901170373
 40
0.6013499826639563
 40
0.901858372487403
 40
1.0
 40
1.0
 40
1.0
 40
1.0
 10
182.4005304765933
 20
209.6617216147703
 30
0.0
 10
183.1879739183194
 20
209.7260416374425
 30
0.0
 10
184.7628717497756
 20
209.8546825770428
 30
0.0
 10
186.8515739316072
 20
210.8691554987925
 30
0.0
 10
188.1037242233179
 20
212.0394125818758
 30
0.0
 10
188.5860346369481
 20
212.8369710690084
 30
0.0
 10
188.7047721934551
 20
213.033317951135
 30
0.0
  0
SPLINE
  5
120
330
1F
100
AcDbEntity
  8
0
  6
Continuous
 62
     7
370
    15
100
AcDbSpline
210
0.0
220
0.0
230
1.0
 70
     8
 71
     3
 72
    11
 73
     7
 74
     0
 42
0.00000001
 43
0.00000001
 12
1.0
 22
0.0
 32
0.0
 13
1.0
 23
0.0
 33
0.0
 40
0.0
 40
0.0
 40
0.0
 40
0.0
 40
0.1992996395343527
 40
0.4987359436396595
 40
0.7985995305083873
 40
1.0
 40
1.0
 40
1.0
 40
1.0
 10
130.0962998461955
 20
213.033317951135
 30
0.0
 10
130.3532191070215
 20
212.640755844132
 30
0.0
 10
130.9961448558418
 20
211.6583916344889
 30
0.0
 10
132.6060205465315
 20
210.4771524088666
 30
0.0
 10
134.5645114106151
 20
209.7637000614347
 30
0.0
 10
135.874286065866
 20
209.6909510781637
 30
0.0
 10
136.4005341124767
 20
209.6617216147703
 30
0.0
  0
LINE
  5
121
330
1F
100
AcDbEntity
  8
0
  6
Continuous
 62
     7
370
    15
100
AcDbLine
 10
182.4005304766
 20
209.6617216148
 30
0.0
 11
136.4005341125
 21
209.6617216148
 31
0.0
  0
LINE
  5
122
330
1F
100
AcDbEntity
  8
0
  6
Continuous
 62
     7
370
    15
100
AcDbLine
 10
118.347211082
 20
307.3267819263
 30
0.0
 11
93.4005363775
 21
307.3267819263
 31
0.0
  0
LINE
  5
123
330
1F
100
AcDbEntity
  8
0
  6
Continuous
 62
     7
370
    15
100
AcDbLine
 10
122.400535543
 20
313.9509031452
 30
0.0
 11
122.400535543
 21
175.9509066023
 31
0.0
  0
SPLINE
  5
124
330
1F
100
AcDbEntity
  8
0
  6
Continuous
 62
     7
370
    15
100
AcDbSpline
210
0.0
220
0.0
230
1.0
 70
     8
 71
     3
 72
    11
 73
     7
 74
     0
 42
0.00000001
 43
0.00000001
 12
1.0
 22
0.0
 32
0.0
 13
1.0
 23
0.0
 33
0.0
 40
0.0
 40
0.0
 40
0.0
 40
0.0
 40
0.2849372319424747
 40
0.5709016752898823
 40
0.8302704677843016
 40
0.9999999999999999
 40
0.9999999999999999
 40
0.9999999999999999
 40
0.9999999999999999
 10
110.6291248393291
 20
300.7361249901575
 30
0.0
 10
110.9649162496873
 20
301.7261443978241
 30
0.0
 10
111.6377096133857
 20
303.7097522771918
 30
0.0
 10
113.7790696756503
 20
305.956661702599
 30
0.0
 10
116.16585122741
 20
307.1603642503837
 30
0.0
 10
117.7289345882973
 20
307.2796131215295
 30
0.0
 10
118.3472110820049
 20
307.3267819263261
 30
0.0
  0
LINE
  5
125
330
1F
100
AcDbEntity
  8
0
  6
Continuous
 62
     7
370
    15
100
AcDbLine
 10
106.4005329204
 20
265.9509045907
 30
0.0
 11
106.4005329204
 21
213.4208934285
 31
0.0
  0
SPLINE
  5
126
330
1F
100
AcDbEntity
  8
0
  6
Continuous
 62
     7
370
    15
100
AcDbSpline
210
0.0
220
0.0
230
1.0
 70
     8
 71
     3
 72
    11
 73
     7
 74
     0
 42
0.00000001
 43
0.00000001
 12
1.0
 22
0.0
 32
0.0
 13
1.0
 23
0.0
 33
0.0
 40
0.0
 40
0.0
 40
0.0
 40
0.0
 40
0.2978940980159581
 40
0.5966517106241731
 40
0.7980710480837327
 40
1.0
 40
1.0
 40
1.0
 40
1.0
 10
106.491877038502
 20
265.9509045906585
 30
0.0
 10
106.6079156629259
 20
269.4347530297894
 30
0.0
 10
106.8403292764285
 20
276.4125486444291
 30
0.0
 10
107.8013626086977
 20
285.7071718105096
 30
0.0
 10
109.0751039278833
 20
293.8260294012878
 30
0.0
 10
110.11068173178
 20
298.4308204706566
 30
0.0
 10
110.6291248393291
 20
300.7361249901575
 30
0.0
  0
SPLINE
  5
127
330
1F
100
AcDbEntity
  8
0
  6
Continuous
 62
     7
370
    15
100
AcDbSpline
210
0.0
220
0.0
230
1.0
 70
     8
 71
     3
 72
    13
 73
     9
 74
     0
 42
0.00000001
 43
0.00000001
 12
1.0
 22
0.0
 32
0.0
 13
1.0
 23
0.0
 33
0.0
 40
0.0
 40
0.0
 40
0.0
 40
0.0
 40
0.1734723474018044
 40
0.3465413381039568
 40
0.5297011293469039
 40
0.7399608988753599
 40
0.9977766169364706
 40
1.0
 40
1.0
 40
1.0
 40
1.0
 10
93.40053637745316
 20
307.3267819263261
 30
0.0
 10
93.1014373495713
 20
307.3100867333746
 30
0.0
 10
92.50393475679373
 20
307.2767351670185
 30
0.0
 10
91.70039526783913
 20
307.0219838134732
 30
0.0
 10
91.02991655731088
 20
306.6360186910306
 30
0.0
 10
90.52942830502609
 20
306.0861620169859
 30
0.0
 10
90.4009130304889
 20
305.6432373109058
 30
0.0
 10
90.4005335424731
 20
305.3992496483639
 30
0.0
 10
90.4005302977794
 20
305.3971635081094
 30
0.0
  0
LINE
  5
128
330
1F
100
AcDbEntity
  8
0
  6
Continuous
 62
     7
370
    15
100
AcDbLine
 10
90.4005302978
 20
305.3971635081
 30
0.0
 11
90.4005302978
 21
310.9509045162
 31
0.0
  0
LINE
  5
129
330
1F
100
AcDbEntity
  8
0
  6
Continuous
 62
     7
370
    15
100
AcDbLine
 10
90.4005302978
 20
268.9509050824
 30
0.0
 11
90.4005302978
 21
305.3971635081
 31
0.0
  0
ARC
  5
12A
330
1F
100
AcDbEntity
  8
0
  6
Continuous
 62
     7
370
    15
100
AcDbCircle
 10
93.4005325628
 20
268.9509048738
 30
0.0
 40
3.0
100
AcDbArc
 50
180.0
 51
270.0000000022
  0
LINE
  5
12B
330
1F
100
AcDbEntity
  8
0
  6
Continuous
 62
     7
370
    15
100
AcDbLine
 10
106.4918770385
 20
265.9509045907
 30
0.0
 11
93.4005363775
 21
265.9509045907
 31
0.0
  0
LINE
  5
12C
330
1F
100
AcDbEntity
  8
0
  6
Continuous
 62
     7
370
    15
100
AcDbLine
 10
98.4005316091
 20
244.9509048738
 30
0.0
 11
98.4005316091
 21
265.9509045907
 31
0.0
  0
LINE
  5
12D
330
1F
100
AcDbEntity
  8
0
  6
Continuous
 62
     7
370
    15
100
AcDbLine
 10
95.4005255294
 20
221.9509048291
 30
0.0
 11
95.4005255294
 21
244.9509048738
 31
0.0
  0
LINE
  5
12E
330
1F
100
AcDbEntity
  8
0
  6
Continuous
 62
     7
370
    15
100
AcDbLine
 10
95.4005255294
 20
244.9509048738
 30
0.0
 11
98.4005316091
 21
244.9509048738
 31
0.0
  0
SPLINE
  5
12F
330
1F
100
AcDbEntity
  8
0
  6
Continuous
 62
     7
370
    15
100
AcDbSpline
210
0.0
220
0.0
230
1.0
 70
     8
 71
     3
 72
    12
 73
     8
 74
     0
 42
0.00000001
 43
0.00000001
 12
1.0
 22
0.0
 32
0.0
 13
1.0
 23
0.0
 33
0.0
 40
0.0
 40
0.0
 40
0.0
 40
0.0
 40
0.2146534307306551
 40
0.4293098833170723
 40
0.6438952001706171
 40
0.8585108121572924
 40
1.0
 40
1.0
 40
1.0
 40
1.0
 10
137.4005361390346
 20
194.7078363873285
 30
0.0
 10
137.4281344143687
 20
194.8999481162914
 30
0.0
 10
137.4833313535608
 20
195.2841742787347
 30
0.0
 10
137.9140331584006
 20
195.8047827554749
 30
0.0
 10
138.548095536691
 20
196.2012447499471
 30
0.0
 10
139.2510839307241
 20
196.4131123151969
 30
0.0
 10
139.7158648672887
 20
196.4347723090419
 30
0.0
 10
139.9005337548488
 20
196.4433783568662
 30
0.0
  0
LINE
  5
130
330
1F
100
AcDbEntity
  8
0
  6
Continuous
 62
     7
370
    15
100
AcDbLine
 10
137.400536139
 20
193.3261746444
 30
0.0
 11
137.400536139
 21
194.7078363873
 31
0.0
  0
SPLINE
  5
131
330
1F
100
AcDbEntity
  8
0
  6
Continuous
 62
     7
370
    15
100
AcDbSpline
210
0.0
220
0.0
230
1.0
 70
     8
 71
     3
 72
    12
 73
     8
 74
     0
 42
0.00000001
 43
0.00000001
 12
1.0
 22
0.0
 32
0.0
 13
1.0
 23
0.0
 33
0.0
 40
0.0
 40
0.0
 40
0.0
 40
0.0
 40
0.2146632592119342
 40
0.4293260775099551
 40
0.6439754205633206
 40
0.8585768982442451
 40
1.0
 40
1.0
 40
1.0
 40
1.0
 10
139.9005337548488
 20
191.7141223229688
 30
0.0
 10
139.6194769188401
 20
191.7315305591151
 30
0.0
 10
139.0573638241075
 20
191.7663469956515
 30
0.0
 10
138.3081958625299
 20
192.0391555526969
 30
0.0
 10
137.7428968683077
 20
192.4447999792527
 30
0.0
 10
137.4432357295552
 20
192.8997935557303
 30
0.0
 10
137.4126755232622
 20
193.2049555928927
 30
0.0
 10
137.4005361390346
 20
193.3261746444028
 30
0.0
  0
LINE
  5
132
330
1F
100
AcDbEntity
  8
0
  6
Continuous
 62
     7
370
    15
100
AcDbLine
 10
159.9005295825
 20
191.714122323
 30
0.0
 11
139.9005337548
 21
191.714122323
 31
0.0
  0
SPLINE
  5
133
330
1F
100
AcDbEntity
  8
0
  6
Continuous
 62
     7
370
    15
100
AcDbSpline
210
0.0
220
0.0
230
1.0
 70
     8
 71
     3
 72
    12
 73
     8
 74
     0
 42
0.00000001
 43
0.00000001
 12
1.0
 22
0.0
 32
0.0
 13
1.0
 23
0.0
 33
0.0
 40
0.0
 40
0.0
 40
0.0
 40
0.0
 40
0.21465410969632
 40
0.4293104089624739
 40
0.6438955144779069
 40
0.8585107969224071
 40
1.0
 40
1.0
 40
1.0
 40
1.0
 10
162.4005271983379
 20
193.3261746444028
 30
0.0
 10
162.3729290828651
 20
193.1418732873992
 30
0.0
 10
162.3177325704062
 20
192.7732686934341
 30
0.0
 10
161.887030194474
 20
192.2908242908257
 30
0.0
 10
161.2529681612651
 20
191.9305434695204
 30
0.0
 10
160.5499787156598
 20
191.7411070069815
 30
0.0
 10
160.0851984044805
 20
191.7217953331451
 30
0.0
 10
159.9005295825237
 20
191.7141223229688
 30
0.0
  0
LINE
  5
134
330
1F
100
AcDbEntity
  8
0
  6
Continuous
 62
     7
370
    15
100
AcDbLine
 10
162.4005271983
 20
194.7078363873
 30
0.0
 11
162.4005271983
 21
193.3261746444
 31
0.0
  0
SPLINE
  5
135
330
1F
100
AcDbEntity
  8
0
  6
Continuous
 62
     7
370
    15
100
AcDbSpline
210
0.0
220
0.0
230
1.0
 70
     8
 71
     3
 72
    12
 73
     8
 74
     0
 42
0.00000001
 43
0.00000001
 12
1.0
 22
0.0
 32
0.0
 13
1.0
 23
0.0
 33
0.0
 40
0.0
 40
0.0
 40
0.0
 40
0.0
 40
0.2146633372284492
 40
0.4293267868648215
 40
0.6439760945621423
 40
0.8585774485843579
 40
1.0
 40
1.0
 40
1.0
 40
1.0
 10
159.9005295825237
 20
196.4433783568662
 30
0.0
 10
160.1815866296103
 20
196.423819653302
 30
0.0
 10
160.7437008709585
 20
196.3847022359315
 30
0.0
 10
161.4928660571271
 20
196.0808283998952
 30
0.0
 10
162.0581665854009
 20
195.637464217684
 30
0.0
 10
162.3578273208769
 20
195.1510406954218
 30
0.0
 10
162.3883877498958
 20
194.8338380568256
 30
0.0
 10
162.4005271983379
 20
194.7078363873285
 30
0.0
  0
LINE
  5
136
330
1F
100
AcDbEntity
  8
0
  6
Continuous
 62
     7
370
    15
100
AcDbLine
 10
159.9005295825
 20
196.4433783569
 30
0.0
 11
139.9005337548
 21
196.4433783569
 31
0.0
  0
SPLINE
  5
137
330
1F
100
AcDbEntity
  8
0
  6
Continuous
 62
     7
370
    15
100
AcDbSpline
210
0.0
220
0.0
230
1.0
 70
     8
 71
     3
 72
    12
 73
     8
 74
     0
 42
0.00000001
 43
0.00000001
 12
1.0
 22
0.0
 32
0.0
 13
1.0
 23
0.0
 33
0.0
 40
0.0
 40
0.0
 40
0.0
 40
0.0
 40
0.2146537792376935
 40
0.4293117714660613
 40
0.6438955851159947
 40
0.8585121931982115
 40
1.0
 40
1.0
 40
1.0
 40
1.0
 10
282.400532898032
 20
178.0393863000196
 30
0.0
 10
282.372935541649
 20
177.9784236648653
 30
0.0
 10
282.317740287232
 20
177.8564971980485
 30
0.0
 10
281.8870241758636
 20
177.705400232086
 30
0.0
 10
281.2529705968477
 20
177.596237467672
 30
0.0
 10
280.5499789134892
 20
177.5404877567784
 30
0.0
 10
280.0851992622423
 20
177.5348252783683
 30
0.0
 10
279.9005324882501
 20
177.5325754560751
 30
0.0
  0
LINE
  5
138
330
1F
100
AcDbEntity
  8
0
  6
Continuous
 62
     7
370
    15
100
AcDbLine
 10
282.400532898
 20
178.0393863
 30
0.0
 11
282.400532898
 21
178.5244488992
 31
0.0
  0
SPLINE
  5
139
330
1F
100
AcDbEntity
  8
0
  6
Continuous
 62
     7
370
    15
100
AcDbSpline
210
0.0
220
0.0
230
1.0
 70
     8
 71
     3
 72
    12
 73
     8
 74
     0
 42
0.00000001
 43
0.00000001
 12
1.0
 22
0.0
 32
0.0
 13
1.0
 23
0.0
 33
0.0
 40
0.0
 40
0.0
 40
0.0
 40
0.0
 40
0.2146627474390656
 40
0.4293261725457076
 40
0.64397648778412
 40
0.8585769403144461
 40
1.0
 40
1.0
 40
1.0
 40
1.0
 10
279.9005324882501
 20
179.1929000891965
 30
0.0
 10
280.1815888821192
 20
179.1850035531716
 30
0.0
 10
280.7437025571226
 20
179.1692104561931
 30
0.0
 10
281.4928687577604
 20
179.0476475576205
 30
0.0
 10
282.0581778848766
 20
178.8739261325924
 30
0.0
 10
282.3578195577483
 20
178.6881069096853
 30
0.0
 10
282.3883895813152
 20
178.5709765423538
 30
0.0
 10
282.400532898032
 20
178.5244488992017
 30
0.0
  0
LINE
  5
13A
330
1F
100
AcDbEntity
  8
0
  6
Continuous
 62
     7
370
    15
100
AcDbLine
 10
271.9005330396
 20
179.1929000892
 30
0.0
 11
279.9005324883
 21
179.1929000892
 31
0.0
  0
SPLINE
  5
13B
330
1F
100
AcDbEntity
  8
0
  6
Continuous
 62
     7
370
    15
100
AcDbSpline
210
0.0
220
0.0
230
1.0
 70
     8
 71
     3
 72
    12
 73
     8
 74
     0
 42
0.00000001
 43
0.00000001
 12
1.0
 22
0.0
 32
0.0
 13
1.0
 23
0.0
 33
0.0
 40
0.0
 40
0.0
 40
0.0
 40
0.0
 40
0.2146538486941063
 40
0.429311600719957
 40
0.6438950579514854
 40
0.8585117888480215
 40
1.0
 40
1.0
 40
1.0
 40
1.0
 10
269.4005316984885
 20
178.5244488992017
 30
0.0
 10
269.4281298537499
 20
178.5956349638674
 30
0.0
 10
269.4833266661258
 20
178.7380083876679
 30
0.0
 10
269.9140412272834
 20
178.9390602216778
 30
0.0
 10
270.5480935971317
 20
179.0955779195256
 30
0.0
 10
271.2510849216721
 20
179.1807028523679
 30
0.0
 10
271.7158656022507
 20
179.1894318637823
 30
0.0
 10
271.900533039593
 20
179.1929000891965
 30
0.0
  0
LINE
  5
13C
330
1F
100
AcDbEntity
  8
0
  6
Continuous
 62
     7
370
    15
100
AcDbLine
 10
269.4005316985
 20
178.0393863
 30
0.0
 11
269.4005316985
 21
178.5244488992
 31
0.0
  0
SPLINE
  5
13D
330
1F
100
AcDbEntity
  8
0
  6
Continuous
 62
     7
370
    15
100
AcDbSpline
210
0.0
220
0.0
230
1.0
 70
     8
 71
     3
 72
    12
 73
     8
 74
     0
 42
0.00000001
 43
0.00000001
 12
1.0
 22
0.0
 32
0.0
 13
1.0
 23
0.0
 33
0.0
 40
0.0
 40
0.0
 40
0.0
 40
0.0
 40
0.2146627986876214
 40
0.4293261751341234
 40
0.6439764011367441
 40
0.8585772669645739
 40
1.0
 40
1.0
 40
1.0
 40
1.0
 10
271.900533039593
 20
177.5325754560751
 30
0.0
 10
271.6194766300752
 20
177.5376572578782
 30
0.0
 10
271.0573630545841
 20
177.5478208751621
 30
0.0
 10
270.3081973464584
 20
177.6287251743137
 30
0.0
 10
269.7428852189118
 20
177.7530572777881
 30
0.0
 10
269.4432470137805
 20
177.8977555564011
 30
0.0
 10
269.4126755545062
 20
177.999121038101
 30
0.0
 10
269.4005316984885
 20
178.0393863000196
 30
0.0
  0
LINE
  5
13E
330
1F
100
AcDbEntity
  8
0
  6
Continuous
 62
     7
370
    15
100
AcDbLine
 10
271.9005330396
 20
177.5325754561
 30
0.0
 11
279.9005324883
 21
177.5325754561
 31
0.0
  0
SPLINE
  5
13F
330
1F
100
AcDbEntity
  8
0
  6
Continuous
 62
     7
370
    15
100
AcDbSpline
210
0.0
220
0.0
230
1.0
 70
     8
 71
     3
 72
    12
 73
     8
 74
     0
 42
0.00000001
 43
0.00000001
 12
1.0
 22
0.0
 32
0.0
 13
1.0
 23
0.0
 33
0.0
 40
0.0
 40
0.0
 40
0.0
 40
0.0
 40
0.2146625976369015
 40
0.4293254594788258
 40
0.6439766960243523
 40
0.8585773720739098
 40
1.0
 40
1.0
 40
1.0
 40
1.0
 10
259.9005310726398
 20
218.6988213934225
 30
0.0
 10
259.6194753905531
 20
218.7243430100306
 30
0.0
 10
259.0573636804586
 20
218.7753862746586
 30
0.0
 10
258.3081971233707
 20
219.1740728295248
 30
0.0
 10
257.7428865574366
 20
219.7628232114415
 30
0.0
 10
257.4432460186185
 20
220.4180158486421
 30
0.0
 10
257.4126765307695
 20
220.8531216382152
 30
0.0
 10
257.4005334568255
 20
221.0259580888074
 30
0.0
  0
LINE
  5
140
330
1F
100
AcDbEntity
  8
0
  6
Continuous
 62
     7
370
    15
100
AcDbLine
 10
259.9005310726
 20
218.6988213934
 30
0.0
 11
279.9005324883
 21
218.6988213934
 31
0.0
  0
SPLINE
  5
141
330
1F
100
AcDbEntity
  8
0
  6
Continuous
 62
     7
370
    15
100
AcDbSpline
210
0.0
220
0.0
230
1.0
 70
     8
 71
     3
 72
    12
 73
     8
 74
     0
 42
0.00000001
 43
0.00000001
 12
1.0
 22
0.0
 32
0.0
 13
1.0
 23
0.0
 33
0.0
 40
0.0
 40
0.0
 40
0.0
 40
0.0
 40
0.2146536462805685
 40
0.429311858208906
 40
0.6438952853802714
 40
0.8585121147141749
 40
1.0
 40
1.0
 40
1.0
 40
1.0
 10
282.400532898032
 20
221.0259580888074
 30
0.0
 10
282.3729354150069
 20
220.7629187656715
 30
0.0
 10
282.3177398619628
 20
220.2368345245966
 30
0.0
 10
281.8870252979584
 20
219.539816133029
 30
0.0
 10
281.2529692083137
 20
219.0156094772353
 30
0.0
 10
280.5499792024374
 20
218.7383610807415
 30
0.0
 10
280.0851993064737
 20
218.7100642992549
 30
0.0
 10
279.9005324882501
 20
218.6988213934225
 30
0.0
  0
LINE
  5
142
330
1F
100
AcDbEntity
  8
0
  6
Continuous
 62
     7
370
    15
100
AcDbLine
 10
282.400532898
 20
221.0259580888
 30
0.0
 11
282.400532898
 21
222.9698946603
 31
0.0
  0
SPLINE
  5
143
330
1F
100
AcDbEntity
  8
0
  6
Continuous
 62
     7
370
    15
100
AcDbSpline
210
0.0
220
0.0
230
1.0
 70
     8
 71
     3
 72
    12
 73
     8
 74
     0
 42
0.00000001
 43
0.00000001
 12
1.0
 22
0.0
 32
0.0
 13
1.0
 23
0.0
 33
0.0
 40
0.0
 40
0.0
 40
0.0
 40
0.0
 40
0.2146628340000021
 40
0.429326521978313
 40
0.6439762918209642
 40
0.8585775106320231
 40
1.0
 40
1.0
 40
1.0
 40
1.0
 10
279.9005324882501
 20
225.35268346744
 30
0.0
 10
280.1815889993179
 20
225.3261919329472
 30
0.0
 10
280.7437031395613
 20
225.2732087585721
 30
0.0
 10
281.492867013582
 20
224.860528287726
 30
0.0
 10
282.058179860874
 20
224.2547704744636
 30
0.0
 10
282.3578187593939
 20
223.585421771021
 30
0.0
 10
282.3883893941773
 20
223.1448872056165
 30
0.0
 10
282.400532898032
 20
222.9698946602863
 30
0.0
  0
LINE
  5
144
330
1F
100
AcDbEntity
  8
0
  6
Continuous
 62
     7
370
    15
100
AcDbLine
 10
259.9005310726
 20
225.3526834674
 30
0.0
 11
279.9005324883
 21
225.3526834674
 31
0.0
  0
SPLINE
  5
145
330
1F
100
AcDbEntity
  8
0
  6
Continuous
 62
     7
370
    15
100
AcDbSpline
210
0.0
220
0.0
230
1.0
 70
     8
 71
     3
 72
    12
 73
     8
 74
     0
 42
0.00000001
 43
0.00000001
 12
1.0
 22
0.0
 32
0.0
 13
1.0
 23
0.0
 33
0.0
 40
0.0
 40
0.0
 40
0.0
 40
0.0
 40
0.2146537127600479
 40
0.4293113481956417
 40
0.6438953844902983
 40
0.8585125868174399
 40
1.0
 40
1.0
 40
1.0
 40
1.0
 10
257.4005334568255
 20
222.9698946602863
 30
0.0
 10
257.4281310293553
 20
223.2364543065834
 30
0.0
 10
257.4833266787448
 20
223.7695784704048
 30
0.0
 10
257.9140393121141
 20
224.4837960033925
 30
0.0
 10
258.5480933774899
 20
225.0243111084817
 30
0.0
 10
259.2510853348072
 20
225.3116616092184
 30
0.0
 10
259.715864936227
 20
225.3410191394985
 30
0.0
 10
259.9005310726398
 20
225.35268346744
 30
0.0
  0
LINE
  5
146
330
1F
100
AcDbEntity
  8
0
  6
Continuous
 62
     7
370
    15
100
AcDbLine
 10
257.4005334568
 20
222.9698946603
 30
0.0
 11
257.4005334568
 21
221.0259580888
 31
0.0
  0
SPLINE
  5
147
330
1F
100
AcDbEntity
  8
0
  6
Continuous
 62
     7
370
    15
100
AcDbSpline
210
0.0
220
0.0
230
1.0
 70
     8
 71
     3
 72
    12
 73
     8
 74
     0
 42
0.00000001
 43
0.00000001
 12
1.0
 22
0.0
 32
0.0
 13
1.0
 23
0.0
 33
0.0
 40
0.0
 40
0.0
 40
0.0
 40
0.0
 40
0.2146624234764083
 40
0.4293254154246995
 40
0.6439765228503826
 40
0.8585770294890643
 40
1.0
 40
1.0
 40
1.0
 40
1.0
 10
259.9005310726398
 20
203.953820643596
 30
0.0
 10
259.619475281183
 20
203.9759627082279
 30
0.0
 10
259.0573629539738
 20
204.0202468961286
 30
0.0
 10
258.3081976976665
 20
204.3665752875836
 30
0.0
 10
257.7428865202056
 20
204.8794408397714
 30
0.0
 10
257.4432457737773
 20
205.4520330858081
 30
0.0
 10
257.4126764779871
 20
205.8338317560947
 30
0.0
 10
257.4005334568255
 20
205.9854933895391
 30
0.0
  0
LINE
  5
148
330
1F
100
AcDbEntity
  8
0
  6
Continuous
 62
     7
370
    15
100
AcDbLine
 10
259.9005310726
 20
203.9538206436
 30
0.0
 11
279.9005324883
 21
203.9538206436
 31
0.0
  0
SPLINE
  5
149
330
1F
100
AcDbEntity
  8
0
  6
Continuous
 62
     7
370
    15
100
AcDbSpline
210
0.0
220
0.0
230
1.0
 70
     8
 71
     3
 72
    12
 73
     8
 74
     0
 42
0.00000001
 43
0.00000001
 12
1.0
 22
0.0
 32
0.0
 13
1.0
 23
0.0
 33
0.0
 40
0.0
 40
0.0
 40
0.0
 40
0.0
 40
0.214654643435431
 40
0.4293117912416345
 40
0.6438956834187439
 40
0.8585123132650225
 40
1.0
 40
1.0
 40
1.0
 40
1.0
 10
282.400532898032
 20
205.9854933895391
 30
0.0
 10
282.3729359337528
 20
205.7547719019688
 30
0.0
 10
282.3177416832212
 20
205.2933262350057
 30
0.0
 10
281.8870227439213
 20
204.6850118646884
 30
0.0
 10
281.2529707861254
 20
204.2288272873398
 30
0.0
 10
280.5499792755741
 20
203.9881332533234
 30
0.0
 10
280.0851992895321
 20
203.9635772549238
 30
0.0
 10
279.9005324882501
 20
203.953820643596
 30
0.0
  0
LINE
  5
14A
330
1F
100
AcDbEntity
  8
0
  6
Continuous
 62
     7
370
    15
100
AcDbLine
 10
282.400532898
 20
205.9854933895
 30
0.0
 11
282.400532898
 21
207.7006989993
 31
0.0
  0
SPLINE
  5
14B
330
1F
100
AcDbEntity
  8
0
  6
Continuous
 62
     7
370
    15
100
AcDbSpline
210
0.0
220
0.0
230
1.0
 70
     8
 71
     3
 72
    12
 73
     8
 74
     0
 42
0.00000001
 43
0.00000001
 12
1.0
 22
0.0
 32
0.0
 13
1.0
 23
0.0
 33
0.0
 40
0.0
 40
0.0
 40
0.0
 40
0.0
 40
0.2146628193045357
 40
0.4293261767577288
 40
0.6439765173508291
 40
0.8585776013677859
 40
1.0
 40
1.0
 40
1.0
 40
1.0
 10
279.9005324882501
 20
209.8247626699728
 30
0.0
 10
280.1815888395027
 20
209.8010124273712
 30
0.0
 10
280.7437022466017
 20
209.7535118826275
 30
0.0
 10
281.4928689006076
 20
209.383943889039
 30
0.0
 10
282.0581786582828
 20
208.8428511101049
 30
0.0
 10
282.3578188860153
 20
208.2467454694596
 30
0.0
 10
282.388389430246
 20
207.8559384022057
 30
0.0
 10
282.400532898032
 20
207.7006989993375
 30
0.0
  0
LINE
  5
14C
330
1F
100
AcDbEntity
  8
0
  6
Continuous
 62
     7
370
    15
100
AcDbLine
 10
259.9005310726
 20
209.82476267
 30
0.0
 11
279.9005324883
 21
209.82476267
 31
0.0
  0
SPLINE
  5
14D
330
1F
100
AcDbEntity
  8
0
  6
Continuous
 62
     7
370
    15
100
AcDbSpline
210
0.0
220
0.0
230
1.0
 70
     8
 71
     3
 72
    12
 73
     8
 74
     0
 42
0.00000001
 43
0.00000001
 12
1.0
 22
0.0
 32
0.0
 13
1.0
 23
0.0
 33
0.0
 40
0.0
 40
0.0
 40
0.0
 40
0.0
 40
0.2146535112357896
 40
0.4293112203184922
 40
0.6438951319607682
 40
0.8585126496374867
 40
1.0
 40
1.0
 40
1.0
 40
1.0
 10
257.4005334568255
 20
207.7006989993375
 30
0.0
 10
257.4281311099696
 20
207.9372623541735
 30
0.0
 10
257.4833269559682
 20
208.4103936901697
 30
0.0
 10
257.9140388386888
 20
209.0472639700695
 30
0.0
 10
258.5480944633404
 20
209.5305203288882
 30
0.0
 10
259.2510844851355
 20
209.7879971579611
 30
0.0
 10
259.7158648470241
 20
209.8143086180666
 30
0.0
 10
259.9005310726398
 20
209.8247626699728
 30
0.0
  0
LINE
  5
14E
330
1F
100
AcDbEntity
  8
0
  6
Continuous
 62
     7
370
    15
100
AcDbLine
 10
257.4005334568
 20
207.7006989993
 30
0.0
 11
257.4005334568
 21
205.9854933895
 31
0.0
  0
SPLINE
  5
14F
330
1F
100
AcDbEntity
  8
0
  6
Continuous
 62
     7
370
    15
100
AcDbSpline
210
0.0
220
0.0
230
1.0
 70
     8
 71
     3
 72
    12
 73
     8
 74
     0
 42
0.00000001
 43
0.00000001
 12
1.0
 22
0.0
 32
0.0
 13
1.0
 23
0.0
 33
0.0
 40
0.0
 40
0.0
 40
0.0
 40
0.0
 40
0.2146624378156496
 40
0.4293253738571824
 40
0.6439761014979271
 40
0.8585766101708537
 40
1.0
 40
1.0
 40
1.0
 40
1.0
 10
259.9005310726398
 20
191.7141223229688
 30
0.0
 10
259.6194752793269
 20
191.7315305695111
 30
0.0
 10
259.0573630403779
 20
191.7663471029999
 30
0.0
 10
258.308198336755
 20
192.0391573189911
 30
0.0
 10
257.742885938108
 20
192.4447963942532
 30
0.0
 10
257.4432455987875
 20
192.8997955314752
 30
0.0
 10
257.4126764437205
 20
193.2049558119415
 30
0.0
 10
257.4005334568255
 20
193.3261746444028
 30
0.0
  0
LINE
  5
150
330
1F
100
AcDbEntity
  8
0
  6
Continuous
 62
     7
370
    15
100
AcDbLine
 10
259.9005310726
 20
191.714122323
 30
0.0
 11
279.9005324883
 21
191.714122323
 31
0.0
  0
SPLINE
  5
151
330
1F
100
AcDbEntity
  8
0
  6
Continuous
 62
     7
370
    15
100
AcDbSpline
210
0.0
220
0.0
230
1.0
 70
     8
 71
     3
 72
    12
 73
     8
 74
     0
 42
0.00000001
 43
0.00000001
 12
1.0
 22
0.0
 32
0.0
 13
1.0
 23
0.0
 33
0.0
 40
0.0
 40
0.0
 40
0.0
 40
0.0
 40
0.2146541638371009
 40
0.4293117864996634
 40
0.6438955234128005
 40
0.858512181450387
 40
1.0
 40
1.0
 40
1.0
 40
1.0
 10
282.400532898032
 20
193.3261746444028
 30
0.0
 10
282.3729357031756
 20
193.1418729127407
 30
0.0
 10
282.317740868776
 20
192.7732664796743
 30
0.0
 10
281.8870237589435
 20
192.2908280195466
 30
0.0
 10
281.2529703682605
 20
191.9305406130157
 30
0.0
 10
280.5499789845841
 20
191.7411081149424
 30
0.0
 10
280.0851992705316
 20
191.721795594592
 30
0.0
 10
279.9005324882501
 20
191.7141223229688
 30
0.0
  0
LINE
  5
152
330
1F
100
AcDbEntity
  8
0
  6
Continuous
 62
     7
370
    15
100
AcDbLine
 10
282.400532898
 20
193.3261746444
 30
0.0
 11
282.400532898
 21
194.7078363873
 31
0.0
  0
SPLINE
  5
153
330
1F
100
AcDbEntity
  8
0
  6
Continuous
 62
     7
370
    15
100
AcDbSpline
210
0.0
220
0.0
230
1.0
 70
     8
 71
     3
 72
    12
 73
     8
 74
     0
 42
0.00000001
 43
0.00000001
 12
1.0
 22
0.0
 32
0.0
 13
1.0
 23
0.0
 33
0.0
 40
0.0
 40
0.0
 40
0.0
 40
0.0
 40
0.2146628720591996
 40
0.4293267427257991
 40
0.6439768466057982
 40
0.8585772088669581
 40
1.0
 40
1.0
 40
1.0
 40
1.0
 10
279.9005324882501
 20
196.4433783568662
 30
0.0
 10
280.1815890228344
 20
196.4238195903733
 30
0.0
 10
280.7437033994722
 20
196.3847019664003
 30
0.0
 10
281.4928674016682
 20
196.0808275547912
 30
0.0
 10
282.0581782532151
 20
195.6374671562831
 30
0.0
 10
282.3578193941642
 20
195.1510387435885
 30
0.0
 10
282.3883895425528
 20
194.833837845273
 30
0.0
 10
282.400532898032
 20
194.7078363873285
 30
0.0
  0
LINE
  5
154
330
1F
100
AcDbEntity
  8
0
  6
Continuous
 62
     7
370
    15
100
AcDbLine
 10
259.9005310726
 20
196.4433783569
 30
0.0
 11
279.9005324883
 21
196.4433783569
 31
0.0
  0
SPLINE
  5
155
330
1F
100
AcDbEntity
  8
0
  6
Continuous
 62
     7
370
    15
100
AcDbSpline
210
0.0
220
0.0
230
1.0
 70
     8
 71
     3
 72
    12
 73
     8
 74
     0
 42
0.00000001
 43
0.00000001
 12
1.0
 22
0.0
 32
0.0
 13
1.0
 23
0.0
 33
0.0
 40
0.0
 40
0.0
 40
0.0
 40
0.0
 40
0.2146535662427733
 40
0.4293110774360244
 40
0.6438951070324217
 40
0.8585126164568747
 40
1.0
 40
1.0
 40
1.0
 40
1.0
 10
257.4005334568255
 20
194.7078363873285
 30
0.0
 10
257.4281310353966
 20
194.8999484384629
 30
0.0
 10
257.4833266997331
 20
195.2841760714094
 30
0.0
 10
257.9140393689429
 20
195.8047791923505
 30
0.0
 10
258.5480941331879
 20
196.2012482231757
 30
0.0
 10
259.25108462126
 20
196.4131107559842
 30
0.0
 10
259.7158648639891
 20
196.4347719458404
 30
0.0
 10
259.9005310726398
 20
196.4433783568662
 30
0.0
  0
LINE
  5
156
330
1F
100
AcDbEntity
  8
0
  6
Continuous
 62
     7
370
    15
100
AcDbLine
 10
257.4005334568
 20
194.7078363873
 30
0.0
 11
257.4005334568
 21
193.3261746444
 31
0.0
  0
SPLINE
  5
157
330
1F
100
AcDbEntity
  8
0
  6
Continuous
 62
     7
370
    15
100
AcDbSpline
210
0.0
220
0.0
230
1.0
 70
     8
 71
     3
 72
    12
 73
     8
 74
     0
 42
0.00000001
 43
0.00000001
 12
1.0
 22
0.0
 32
0.0
 13
1.0
 23
0.0
 33
0.0
 40
0.0
 40
0.0
 40
0.0
 40
0.0
 40
0.2146531764798919
 40
0.4293117221178919
 40
0.6438953285869745
 40
0.858512162344359
 40
1.0
 40
1.0
 40
1.0
 40
1.0
 10
282.400532898032
 20
183.8216068126482
 30
0.0
 10
282.3729352544536
 20
183.6949872632416
 30
0.0
 10
282.317739276992
 20
183.4417449972712
 30
0.0
 10
281.8870254982916
 20
183.1146592143994
 30
0.0
 10
281.2529695198853
 20
182.8722976463711
 30
0.0
 10
280.5499793307256
 20
182.7456995626786
 30
0.0
 10
280.0851993144974
 20
182.732808415074
 30
0.0
 10
279.9005324882501
 20
182.7276864923757
 30
0.0
  0
LINE
  5
158
330
1F
100
AcDbEntity
  8
0
  6
Continuous
 62
     7
370
    15
100
AcDbLine
 10
282.400532898
 20
183.8216068126
 30
0.0
 11
282.400532898
 21
184.7852909841
 31
0.0
  0
SPLINE
  5
159
330
1F
100
AcDbEntity
  8
0
  6
Continuous
 62
     7
370
    15
100
AcDbSpline
210
0.0
220
0.0
230
1.0
 70
     8
 71
     3
 72
    12
 73
     8
 74
     0
 42
0.00000001
 43
0.00000001
 12
1.0
 22
0.0
 32
0.0
 13
1.0
 23
0.0
 33
0.0
 40
0.0
 40
0.0
 40
0.0
 40
0.0
 40
0.2146629199714794
 40
0.4293264162009244
 40
0.6439761471182267
 40
0.8585770850671621
 40
1.0
 40
1.0
 40
1.0
 40
1.0
 10
279.9005324882501
 20
186.0262559630197
 30
0.0
 10
280.1815889016742
 20
186.0120816026867
 30
0.0
 10
280.7437024830122
 20
185.98373284397
 30
0.0
 10
281.4928674140874
 20
185.7641366812459
 30
0.0
 10
282.0581794717112
 20
185.4455889420126
 30
0.0
 10
282.3578191408225
 20
185.0985691980275
 30
0.0
 10
282.3883894799959
 20
184.8743552238545
 30
0.0
 10
282.400532898032
 20
184.7852909840864
 30
0.0
  0
LINE
  5
15A
330
1F
100
AcDbEntity
  8
0
  6
Continuous
 62
     7
370
    15
100
AcDbLine
 10
271.9005330396
 20
186.026255963
 30
0.0
 11
279.9005324883
 21
186.026255963
 31
0.0
  0
SPLINE
  5
15B
330
1F
100
AcDbEntity
  8
0
  6
Continuous
 62
     7
370
    15
100
AcDbSpline
210
0.0
220
0.0
230
1.0
 70
     8
 71
     3
 72
    12
 73
     8
 74
     0
 42
0.00000001
 43
0.00000001
 12
1.0
 22
0.0
 32
0.0
 13
1.0
 23
0.0
 33
0.0
 40
0.0
 40
0.0
 40
0.0
 40
0.0
 40
0.2146533435568679
 40
0.4293119018992886
 40
0.6438948104130258
 40
0.8585116061177483
 40
1.0
 40
1.0
 40
1.0
 40
1.0
 10
269.4005316984885
 20
184.7852909840864
 30
0.0
 10
269.4281302149918
 20
184.9212117717815
 30
0.0
 10
269.4833279184764
 20
185.1930566492294
 30
0.0
 10
269.9140389723365
 20
185.5655796328873
 30
0.0
 10
270.5480950031047
 20
185.8510328109851
 30
0.0
 10
271.2510852180635
 20
186.0043320303545
 30
0.0
 10
271.7158656077144
 20
186.0200219959361
 30
0.0
 10
271.900533039593
 20
186.0262559630197
 30
0.0
  0
LINE
  5
15C
330
1F
100
AcDbEntity
  8
0
  6
Continuous
 62
     7
370
    15
100
AcDbLine
 10
269.4005316985
 20
183.8216068126
 30
0.0
 11
269.4005316985
 21
184.7852909841
 31
0.0
  0
SPLINE
  5
15D
330
1F
100
AcDbEntity
  8
0
  6
Continuous
 62
     7
370
    15
100
AcDbSpline
210
0.0
220
0.0
230
1.0
 70
     8
 71
     3
 72
    12
 73
     8
 74
     0
 42
0.00000001
 43
0.00000001
 12
1.0
 22
0.0
 32
0.0
 13
1.0
 23
0.0
 33
0.0
 40
0.0
 40
0.0
 40
0.0
 40
0.0
 40
0.2146628527269726
 40
0.4293262329250006
 40
0.6439767854770977
 40
0.8585777937760879
 40
1.0
 40
1.0
 40
1.0
 40
1.0
 10
271.900533039593
 20
182.7276864923757
 30
0.0
 10
271.6194766670969
 20
182.7392965705408
 30
0.0
 10
271.0573632314909
 20
182.7625167553994
 30
0.0
 10
270.308196698516
 20
182.9451409283722
 30
0.0
 10
269.7428855474981
 20
183.2187626392968
 30
0.0
 10
269.4432473250138
 20
183.5283662003328
 30
0.0
 10
269.4126756199952
 20
183.7382394066605
 30
0.0
 10
269.4005316984885
 20
183.8216068126482
 30
0.0
  0
LINE
  5
15E
330
1F
100
AcDbEntity
  8
0
  6
Continuous
 62
     7
370
    15
100
AcDbLine
 10
271.9005330396
 20
182.7276864924
 30
0.0
 11
279.9005324883
 21
182.7276864924
 31
0.0
  0
SPLINE
  5
15F
330
1F
100
AcDbEntity
  8
0
  6
Continuous
 62
     7
370
    15
100
AcDbSpline
210
0.0
220
0.0
230
1.0
 70
     8
 71
     3
 72
    12
 73
     8
 74
     0
 42
0.00000001
 43
0.00000001
 12
1.0
 22
0.0
 32
0.0
 13
1.0
 23
0.0
 33
0.0
 40
0.0
 40
0.0
 40
0.0
 40
0.0
 40
0.2146537323107924
 40
0.4293102939806304
 40
0.6438954931384487
 40
0.8585108660903074
 40
1.0
 40
1.0
 40
1.0
 40
1.0
 10
137.4005361390346
 20
178.5244488992017
 30
0.0
 10
137.428134390003
 20
178.5956348155859
 30
0.0
 10
137.4833312557134
 20
178.7380075866587
 30
0.0
 10
137.9140328608468
 20
178.9390619208037
 30
0.0
 10
138.548095263947
 20
179.0955765345213
 30
0.0
 10
139.2510842430115
 20
179.1807032828993
 30
0.0
 10
139.7158648977358
 20
179.1894319669818
 30
0.0
 10
139.9005337548488
 20
179.1929000891965
 30
0.0
  0
LINE
  5
160
330
1F
100
AcDbEntity
  8
0
  6
Continuous
 62
     7
370
    15
100
AcDbLine
 10
137.400536139
 20
178.0393863
 30
0.0
 11
137.400536139
 21
178.5244488992
 31
0.0
  0
SPLINE
  5
161
330
1F
100
AcDbEntity
  8
0
  6
Continuous
 62
     7
370
    15
100
AcDbSpline
210
0.0
220
0.0
230
1.0
 70
     8
 71
     3
 72
    12
 73
     8
 74
     0
 42
0.00000001
 43
0.00000001
 12
1.0
 22
0.0
 32
0.0
 13
1.0
 23
0.0
 33
0.0
 40
0.0
 40
0.0
 40
0.0
 40
0.0
 40
0.214663284059954
 40
0.4293262596792805
 40
0.643975551345627
 40
0.8585775196865931
 40
1.0
 40
1.0
 40
1.0
 40
1.0
 10
139.9005337548488
 20
177.5325754560751
 30
0.0
 10
139.6194768595889
 20
177.5376572464815
 30
0.0
 10
139.0573634729078
 20
177.5478208199926
 30
0.0
 10
138.3081963636504
 20
177.6287248648678
 30
0.0
 10
137.742896076174
 20
177.7530582573663
 30
0.0
 10
137.4432363353263
 20
177.8977548930766
 30
0.0
 10
137.4126756604946
 20
177.999120969803
 30
0.0
 10
137.4005361390346
 20
178.0393863000196
 30
0.0
  0
LINE
  5
162
330
1F
100
AcDbEntity
  8
0
  6
Continuous
 62
     7
370
    15
100
AcDbLine
 10
147.9005350662
 20
177.5325754561
 30
0.0
 11
139.9005337548
 21
177.5325754561
 31
0.0
  0
SPLINE
  5
163
330
1F
100
AcDbEntity
  8
0
  6
Continuous
 62
     7
370
    15
100
AcDbSpline
210
0.0
220
0.0
230
1.0
 70
     8
 71
     3
 72
    12
 73
     8
 74
     0
 42
0.00000001
 43
0.00000001
 12
1.0
 22
0.0
 32
0.0
 13
1.0
 23
0.0
 33
0.0
 40
0.0
 40
0.0
 40
0.0
 40
0.0
 40
0.2146539395893365
 40
0.4293126691142298
 40
0.6438952203445923
 40
0.8585106672870995
 40
1.0
 40
1.0
 40
1.0
 40
1.0
 10
150.4005326819652
 20
178.0393863000196
 30
0.0
 10
150.3729357856041
 20
177.9784236054459
 30
0.0
 10
150.317741377066
 20
177.8564968559349
 30
0.0
 10
149.8870184641702
 20
177.7054010223522
 30
0.0
 10
149.2529742066708
 20
177.5962373251472
 30
0.0
 10
148.5499835388381
 20
177.5404875391777
 30
0.0
 10
148.085203712238
 20
177.5348252322094
 30
0.0
 10
147.900535066151
 20
177.5325754560751
 30
0.0
  0
LINE
  5
164
330
1F
100
AcDbEntity
  8
0
  6
Continuous
 62
     7
370
    15
100
AcDbLine
 10
150.400532682
 20
178.0393863
 30
0.0
 11
150.400532682
 21
178.5244488992
 31
0.0
  0
SPLINE
  5
165
330
1F
100
AcDbEntity
  8
0
  6
Continuous
 62
     7
370
    15
100
AcDbSpline
210
0.0
220
0.0
230
1.0
 70
     8
 71
     3
 72
    12
 73
     8
 74
     0
 42
0.00000001
 43
0.00000001
 12
1.0
 22
0.0
 32
0.0
 13
1.0
 23
0.0
 33
0.0
 40
0.0
 40
0.0
 40
0.0
 40
0.0
 40
0.2146634332645011
 40
0.429326657997058
 40
0.6439763976972547
 40
0.8585766136289028
 40
1.0
 40
1.0
 40
1.0
 40
1.0
 10
147.900535066151
 20
179.1929000891965
 30
0.0
 10
148.181592127822
 20
179.1850035925923
 30
0.0
 10
148.743705978135
 20
179.1692106070549
 30
0.0
 10
149.4928710332916
 20
179.047647724596
 30
0.0
 10
150.0581774157794
 20
178.8739259918856
 30
0.0
 10
150.3578095153055
 20
178.6881065638624
 30
0.0
 10
150.3883865537484
 20
178.5709765125332
 30
0.0
 10
150.4005326819652
 20
178.5244488992017
 30
0.0
  0
LINE
  5
166
330
1F
100
AcDbEntity
  8
0
  6
Continuous
 62
     7
370
    15
100
AcDbLine
 10
147.9005350662
 20
179.1929000892
 30
0.0
 11
139.9005337548
 21
179.1929000892
 31
0.0
  0
SPLINE
  5
167
330
1F
100
AcDbEntity
  8
0
  6
Continuous
 62
     7
370
    15
100
AcDbSpline
210
0.0
220
0.0
230
1.0
 70
     8
 71
     3
 72
    12
 73
     8
 74
     0
 42
0.00000001
 43
0.00000001
 12
1.0
 22
0.0
 32
0.0
 13
1.0
 23
0.0
 33
0.0
 40
0.0
 40
0.0
 40
0.0
 40
0.0
 40
0.2146532271716299
 40
0.4293105951591908
 40
0.6438952456041529
 40
0.8585106833613512
 40
1.0
 40
1.0
 40
1.0
 40
1.0
 10
137.4005361390346
 20
184.7852909840864
 30
0.0
 10
137.4281347512399
 20
184.9212114995369
 30
0.0
 10
137.4833325080477
 20
185.1930551524429
 30
0.0
 10
137.914030605914
 20
185.5655827612201
 30
0.0
 10
138.5480966698956
 20
185.8510302864103
 30
0.0
 10
139.2510845393999
 20
186.0043328101392
 30
0.0
 10
139.7158649031996
 20
186.0200221831172
 30
0.0
 10
139.9005337548488
 20
186.0262559630197
 30
0.0
  0
LINE
  5
168
330
1F
100
AcDbEntity
  8
0
  6
Continuous
 62
     7
370
    15
100
AcDbLine
 10
137.400536139
 20
183.8216068126
 30
0.0
 11
137.400536139
 21
184.7852909841
 31
0.0
  0
SPLINE
  5
169
330
1F
100
AcDbEntity
  8
0
  6
Continuous
 62
     7
370
    15
100
AcDbSpline
210
0.0
220
0.0
230
1.0
 70
     8
 71
     3
 72
    12
 73
     8
 74
     0
 42
0.00000001
 43
0.00000001
 12
1.0
 22
0.0
 32
0.0
 13
1.0
 23
0.0
 33
0.0
 40
0.0
 40
0.0
 40
0.0
 40
0.0
 40
0.2146633380996388
 40
0.4293263174702729
 40
0.643975935686934
 40
0.8585780464992664
 40
1.0
 40
1.0
 40
1.0
 40
1.0
 10
139.9005337548488
 20
182.7276864923757
 30
0.0
 10
139.619476896611
 20
182.7392965426562
 30
0.0
 10
139.0573636498162
 20
182.7625166238154
 30
0.0
 10
138.3081957157053
 20
182.9451402560575
 30
0.0
 10
137.7428964047791
 20
183.2187647509354
 30
0.0
 10
137.4432366465524
 20
183.528364805208
 30
0.0
 10
137.4126757259895
 20
183.7382392590734
 30
0.0
 10
137.4005361390346
 20
183.8216068126482
 30
0.0
  0
LINE
  5
16A
330
1F
100
AcDbEntity
  8
0
  6
Continuous
 62
     7
370
    15
100
AcDbLine
 10
147.9005350662
 20
182.7276864924
 30
0.0
 11
139.9005337548
 21
182.7276864924
 31
0.0
  0
SPLINE
  5
16B
330
1F
100
AcDbEntity
  8
0
  6
Continuous
 62
     7
370
    15
100
AcDbSpline
210
0.0
220
0.0
230
1.0
 70
     8
 71
     3
 72
    12
 73
     8
 74
     0
 42
0.00000001
 43
0.00000001
 12
1.0
 22
0.0
 32
0.0
 13
1.0
 23
0.0
 33
0.0
 40
0.0
 40
0.0
 40
0.0
 40
0.0
 40
0.2146533368316005
 40
0.4293126197660487
 40
0.6438949638133628
 40
0.8585106364320108
 40
1.0
 40
1.0
 40
1.0
 40
1.0
 10
150.4005326819652
 20
183.8216068126482
 30
0.0
 10
150.3729354984059
 20
183.6949871328551
 30
0.0
 10
150.3177403668189
 20
183.4417442657828
 30
0.0
 10
149.8870197866006
 20
183.1146609390509
 30
0.0
 10
149.2529731297066
 20
182.8722973378893
 30
0.0
 10
148.5499839560773
 20
182.7456990659265
 30
0.0
 10
148.0852037644943
 20
182.7328083096011
 30
0.0
 10
147.900535066151
 20
182.7276864923757
 30
0.0
  0
LINE
  5
16C
330
1F
100
AcDbEntity
  8
0
  6
Continuous
 62
     7
370
    15
100
AcDbLine
 10
150.400532682
 20
183.8216068126
 30
0.0
 11
150.400532682
 21
184.7852909841
 31
0.0
  0
SPLINE
  5
16D
330
1F
100
AcDbEntity
  8
0
  6
Continuous
 62
     7
370
    15
100
AcDbSpline
210
0.0
220
0.0
230
1.0
 70
     8
 71
     3
 72
    12
 73
     8
 74
     0
 42
0.00000001
 43
0.00000001
 12
1.0
 22
0.0
 32
0.0
 13
1.0
 23
0.0
 33
0.0
 40
0.0
 40
0.0
 40
0.0
 40
0.0
 40
0.2146636057974652
 40
0.4293269016531424
 40
0.6439760570293188
 40
0.8585767583811706
 40
1.0
 40
1.0
 40
1.0
 40
1.0
 10
147.900535066151
 20
186.0262559630197
 30
0.0
 10
148.1815921473773
 20
186.0120816737169
 30
0.0
 10
148.7437059040259
 20
185.9837331155767
 30
0.0
 10
149.4928696896169
 20
185.7641369852392
 30
0.0
 10
150.0581790026063
 20
185.44558868647
 30
0.0
 10
150.3578090983708
 20
185.0985685408758
 30
0.0
 10
150.3883864524303
 20
184.8743551681448
 30
0.0
 10
150.4005326819652
 20
184.7852909840864
 30
0.0
  0
LINE
  5
16E
330
1F
100
AcDbEntity
  8
0
  6
Continuous
 62
     7
370
    15
100
AcDbLine
 10
147.9005350662
 20
186.026255963
 30
0.0
 11
139.9005337548
 21
186.026255963
 31
0.0
  0
SPLINE
  5
16F
330
1F
100
AcDbEntity
  8
0
  6
Continuous
 62
     7
370
    15
100
AcDbSpline
210
0.0
220
0.0
230
1.0
 70
     8
 71
     3
 72
    11
 73
     7
 74
     0
 42
0.00000001
 43
0.00000001
 12
1.0
 22
0.0
 32
0.0
 13
1.0
 23
0.0
 33
0.0
 40
0.0
 40
0.0
 40
0.0
 40
0.0
 40
0.2780750663818481
 40
0.5561543750781913
 40
0.8341411210474834
 40
0.9999999999999999
 40
0.9999999999999999
 40
0.9999999999999999
 40
0.9999999999999999
 10
137.4005361390346
 20
207.7006989993375
 30
0.0
 10
137.4278999323055
 20
207.9378295484692
 30
0.0
 10
137.4826279363096
 20
208.4120942643974
 30
0.0
 10
137.9168469817982
 20
209.0404580600725
 30
0.0
 10
138.4540748968509
 20
209.4867111482208
 30
0.0
 10
138.8788248215918
 20
209.6141132412018
 30
0.0
 10
139.0375479054683
 20
209.6617216147703
 30
0.0
  0
LINE
  5
170
330
1F
100
AcDbEntity
  8
0
  6
Continuous
 62
     7
370
    15
100
AcDbLine
 10
137.400536139
 20
205.9854933895
 30
0.0
 11
137.400536139
 21
207.7006989993
 31
0.0
  0
SPLINE
  5
171
330
1F
100
AcDbEntity
  8
0
  6
Continuous
 62
     7
370
    15
100
AcDbSpline
210
0.0
220
0.0
230
1.0
 70
     8
 71
     3
 72
    12
 73
     8
 74
     0
 42
0.00000001
 43
0.00000001
 12
1.0
 22
0.0
 32
0.0
 13
1.0
 23
0.0
 33
0.0
 40
0.0
 40
0.0
 40
0.0
 40
0.0
 40
0.21466324487262
 40
0.4293261190769741
 40
0.6439758419165788
 40
0.8585773175631658
 40
1.0
 40
1.0
 40
1.0
 40
1.0
 10
139.9005337548488
 20
203.953820643596
 30
0.0
 10
139.6194769206964
 20
203.9759626941599
 30
0.0
 10
139.0573637377047
 20
204.0202467570539
 30
0.0
 10
138.3081952234345
 20
204.3665730558386
 30
0.0
 10
137.7428974504242
 20
204.8794453582815
 30
0.0
 10
137.4432359045436
 20
205.4520306063563
 30
0.0
 10
137.4126755575328
 20
205.8338314798986
 30
0.0
 10
137.4005361390346
 20
205.9854933895391
 30
0.0
  0
LINE
  5
172
330
1F
100
AcDbEntity
  8
0
  6
Continuous
 62
     7
370
    15
100
AcDbLine
 10
159.9005295825
 20
203.9538206436
 30
0.0
 11
139.9005337548
 21
203.9538206436
 31
0.0
  0
SPLINE
  5
173
330
1F
100
AcDbEntity
  8
0
  6
Continuous
 62
     7
370
    15
100
AcDbSpline
210
0.0
220
0.0
230
1.0
 70
     8
 71
     3
 72
    12
 73
     8
 74
     0
 42
0.00000001
 43
0.00000001
 12
1.0
 22
0.0
 32
0.0
 13
1.0
 23
0.0
 33
0.0
 40
0.0
 40
0.0
 40
0.0
 40
0.0
 40
0.2146545892951422
 40
0.4293104137037071
 40
0.6438956744817095
 40
0.8585109287362279
 40
1.0
 40
1.0
 40
1.0
 40
1.0
 10
162.4005271983378
 20
205.9854933895391
 30
0.0
 10
162.3729293134379
 20
205.7547723753781
 30
0.0
 10
162.317733384841
 20
205.2933290194973
 30
0.0
 10
161.8870291794539
 20
204.6850071560938
 30
0.0
 10
161.2529685791218
 20
204.2288309043579
 30
0.0
 10
160.5499790066455
 20
203.9881318473035
 30
0.0
 10
160.085198423481
 20
203.9635769232772
 30
0.0
 10
159.9005295825237
 20
203.953820643596
 30
0.0
  0
LINE
  5
174
330
1F
100
AcDbEntity
  8
0
  6
Continuous
 62
     7
370
    15
100
AcDbLine
 10
162.4005271983
 20
207.7006989993
 30
0.0
 11
162.4005271983
 21
205.9854933895
 31
0.0
  0
SPLINE
  5
175
330
1F
100
AcDbEntity
  8
0
  6
Continuous
 62
     7
370
    15
100
AcDbSpline
210
0.0
220
0.0
230
1.0
 70
     8
 71
     3
 72
    11
 73
     7
 74
     0
 42
0.00000001
 43
0.00000001
 12
1.0
 22
0.0
 32
0.0
 13
1.0
 23
0.0
 33
0.0
 40
0.0
 40
0.0
 40
0.0
 40
0.0
 40
0.2485392115670116
 40
0.5311888124206446
 40
0.8137759067760715
 40
1.0
 40
1.0
 40
1.0
 40
1.0
 10
160.8166827750438
 20
209.6617216147703
 30
0.0
 10
161.041469504979
 20
209.5711474740119
 30
0.0
 10
161.5218934806139
 20
209.3775684811354
 30
0.0
 10
162.0563801306961
 20
208.8384598626519
 30
0.0
 10
162.3581010003467
 20
208.2474211381053
 30
0.0
 10
162.3884655880989
 20
207.856130069268
 30
0.0
 10
162.4005271983379
 20
207.7006989993375
 30
0.0
  0
SPLINE
  5
176
330
1F
100
AcDbEntity
  8
0
  6
Continuous
 62
     7
370
    15
100
AcDbSpline
210
0.0
220
0.0
230
1.0
 70
     8
 71
     3
 72
    10
 73
     6
 74
     0
 42
0.00000001
 43
0.00000001
 12
1.0
 22
0.0
 32
0.0
 13
1.0
 23
0.0
 33
0.0
 40
0.0
 40
0.0
 40
0.0
 40
0.0
 40
0.4754952751519471
 40
0.9509833029481147
 40
1.0
 40
1.0
 40
1.0
 40
1.0
 10
159.4005360198253
 20
258.9149664990824
 30
0.0
 10
159.6221708876066
 20
258.8903956999279
 30
0.0
 10
160.0654372450774
 20
258.8412544761197
 30
0.0
 10
160.5187028611321
 20
258.6353078716203
 30
0.0
 10
160.6805184426867
 20
258.4521094208176
 30
0.0
 10
160.6956406426662
 20
258.4349889211577
 30
0.0
  0
SPLINE
  5
177
330
1F
100
AcDbEntity
  8
0
  6
Continuous
 62
     7
370
    15
100
AcDbSpline
210
0.0
220
0.0
230
1.0
 70
     8
 71
     3
 72
    10
 73
     6
 74
     0
 42
0.00000001
 43
0.00000001
 12
1.0
 22
0.0
 32
0.0
 13
1.0
 23
0.0
 33
0.0
 40
0.0
 40
0.0
 40
0.0
 40
0.0
 40
0.2248443663901965
 40
0.7008475023915011
 40
1.0
 40
1.0
 40
1.0
 40
1.0
 10
158.1180675816768
 20
258.4225250311416
 30
0.0
 10
158.1948036783907
 20
258.4945350758977
 30
0.0
 10
158.4339926898328
 20
258.7189928233815
 30
0.0
 10
158.8973609476207
 20
258.8806656490926
 30
0.0
 10
159.2604215822536
 20
258.9054150634688
 30
0.0
 10
159.4005360198253
 20
258.9149664990824
 30
0.0
  0
SPLINE
  5
178
330
1F
100
AcDbEntity
  8
0
  6
Continuous
 62
     7
370
    15
100
AcDbSpline
210
0.0
220
0.0
230
1.0
 70
     8
 71
     3
 72
     9
 73
     5
 74
     0
 42
0.00000001
 43
0.00000001
 12
1.0
 22
0.0
 32
0.0
 13
1.0
 23
0.0
 33
0.0
 40
0.0
 40
0.0
 40
0.0
 40
0.0
 40
0.5742556635561118
 40
1.0
 40
1.0
 40
1.0
 40
1.0
 10
159.4005360198253
 20
258.6349615730566
 30
0.0
 10
159.17277804293
 20
258.6181225950149
 30
0.0
 10
158.7761637971341
 20
258.5887994570637
 30
0.0
 10
158.4445159922585
 20
258.37796220911
 30
0.0
 10
158.3033188176387
 20
258.2881994448823
 30
0.0
  0
SPLINE
  5
179
330
1F
100
AcDbEntity
  8
0
  6
Continuous
 62
     7
370
    15
100
AcDbSpline
210
0.0
220
0.0
230
1.0
 70
     8
 71
     3
 72
    10
 73
     6
 74
     0
 42
0.00000001
 43
0.00000001
 12
1.0
 22
0.0
 32
0.0
 13
1.0
 23
0.0
 33
0.0
 40
0.0
 40
0.0
 40
0.0
 40
0.0
 40
0.0548735152698306
 40
0.6352106290369802
 40
1.0
 40
1.0
 40
1.0
 40
1.0
 10
160.4918970656627
 20
258.3061497561854
 30
0.0
 10
160.4761126257238
 20
258.3200122999222
 30
0.0
 10
160.2933934400969
 20
258.4804837966681
 30
0.0
 10
159.9014646282315
 20
258.5976699520942
 30
0.0
 10
159.5400361496723
 20
258.6245764884774
 30
0.0
 10
159.4005360198253
 20
258.6349615730566
 30
0.0
  0
SPLINE
  5
17A
330
1F
100
AcDbEntity
  8
0
  6
Continuous
 62
     7
370
    15
100
AcDbSpline
210
0.0
220
0.0
230
1.0
 70
     8
 71
     3
 72
    12
 73
     8
 74
     0
 42
0.00000001
 43
0.00000001
 12
1.0
 22
0.0
 32
0.0
 13
1.0
 23
0.0
 33
0.0
 40
0.0
 40
0.0
 40
0.0
 40
0.0
 40
0.2146510064090178
 40
0.4293073500733303
 40
0.643885116908924
 40
0.8585000149933417
 40
1.0
 40
1.0
 40
1.0
 40
1.0
 10
137.4005361390346
 20
194.5686930693906
 30
0.0
 10
137.428128356371
 20
194.3842250212456
 30
0.0
 10
137.4833134771189
 20
194.0152843381935
 30
0.0
 10
137.914016741179
 20
193.532614749405
 30
0.0
 10
138.548054888818
 20
193.172235063874
 30
0.0
 10
139.2510536741688
 20
192.9827900707449
 30
0.0
 10
139.7158499208836
 20
192.9634712984304
 30
0.0
 10
139.9005337548488
 20
192.9557951070589
 30
0.0
  0
SPLINE
  5
17B
330
1F
100
AcDbEntity
  8
0
  6
Continuous
 62
     7
370
    15
100
AcDbSpline
210
0.0
220
0.0
230
1.0
 70
     8
 71
     3
 72
    12
 73
     8
 74
     0
 42
0.00000001
 43
0.00000001
 12
1.0
 22
0.0
 32
0.0
 13
1.0
 23
0.0
 33
0.0
 40
0.0
 40
0.0
 40
0.0
 40
0.0
 40
0.2146620385223183
 40
0.4293237345908226
 40
0.643971711711028
 40
0.8585681244863275
 40
1.0
 40
1.0
 40
1.0
 40
1.0
 10
159.9005295825237
 20
192.9557951070589
 30
0.0
 10
160.181586594637
 20
192.9732032342306
 30
0.0
 10
160.7437001704888
 20
193.0080194608026
 30
0.0
 10
161.4928654144851
 20
193.2808520343858
 30
0.0
 10
162.0581691774499
 20
193.68662095193
 30
0.0
 10
162.3578104338855
 20
194.141900918458
 30
0.0
 10
162.3883824829375
 20
194.4473526711977
 30
0.0
 10
162.4005271983379
 20
194.5686930693906
 30
0.0
  0
LINE
  5
17C
330
1F
100
AcDbEntity
  8
0
  6
Continuous
 62
     7
370
    15
100
AcDbLine
 10
159.9005295825
 20
192.9557951071
 30
0.0
 11
139.9005337548
 21
192.9557951071
 31
0.0
  0
SPLINE
  5
17D
330
1F
100
AcDbEntity
  8
0
  6
Continuous
 62
     7
370
    15
100
AcDbSpline
210
0.0
220
0.0
230
1.0
 70
     8
 71
     3
 72
     9
 73
     5
 74
     0
 42
0.00000001
 43
0.00000001
 12
1.0
 22
0.0
 32
0.0
 13
1.0
 23
0.0
 33
0.0
 40
0.0
 40
0.0
 40
0.0
 40
0.0
 40
0.9307277057756892
 40
1.0
 40
1.0
 40
1.0
 40
1.0
 10
279.9005324882501
 20
179.1050204910558
 30
0.0
 10
280.1908383041765
 20
179.105840189168
 30
0.0
 10
280.5027510302347
 20
179.1067208958528
 30
0.0
 10
280.7645478287194
 20
179.1349950630643
 30
0.0
 10
280.782683093571
 20
179.1369536794942
 30
0.0
  0
LINE
  5
17E
330
1F
100
AcDbEntity
  8
0
  6
Continuous
 62
     7
370
    15
100
AcDbLine
 10
271.9005330396
 20
179.1050204911
 30
0.0
 11
279.9005324883
 21
179.1050204911
 31
0.0
  0
SPLINE
  5
17F
330
1F
100
AcDbEntity
  8
0
  6
Continuous
 62
     7
370
    15
100
AcDbSpline
210
0.0
220
0.0
230
1.0
 70
     8
 71
     3
 72
     9
 73
     5
 74
     0
 42
0.00000001
 43
0.00000001
 12
1.0
 22
0.0
 32
0.0
 13
1.0
 23
0.0
 33
0.0
 40
0.0
 40
0.0
 40
0.0
 40
0.0
 40
0.4008160206597563
 40
1.0
 40
1.0
 40
1.0
 40
1.0
 10
271.0083148372405
 20
179.142854539327
 30
0.0
 10
271.1207016100316
 20
179.1327599681715
 30
0.0
 10
271.4010965219068
 20
179.1075749190835
 30
0.0
 10
271.7134036261165
 20
179.1059775869062
 30
0.0
 10
271.900533039593
 20
179.1050204910558
 30
0.0
  0
SPLINE
  5
180
330
1F
100
AcDbEntity
  8
0
  6
Continuous
 62
     7
370
    15
100
AcDbSpline
210
0.0
220
0.0
230
1.0
 70
     8
 71
     3
 72
    11
 73
     7
 74
     0
 42
0.00000001
 43
0.00000001
 12
1.0
 22
0.0
 32
0.0
 13
1.0
 23
0.0
 33
0.0
 40
0.0
 40
0.0
 40
0.0
 40
0.0
 40
0.2657979207704857
 40
0.5315957327941246
 40
0.7973776261316488
 40
1.0
 40
1.0
 40
1.0
 40
1.0
 10
279.9005324882501
 20
184.1789552845281
 30
0.0
 10
280.1820991046038
 20
184.190484086871
 30
0.0
 10
280.7452322221131
 20
184.21354168684
 30
0.0
 10
281.4867439238633
 20
184.397429105853
 30
0.0
 10
282.0340939541912
 20
184.6451953433227
 30
0.0
 10
282.1943393216752
 20
184.854142243048
 30
0.0
 10
282.2636582818859
 20
184.9445285178941
 30
0.0
  0
LINE
  5
181
330
1F
100
AcDbEntity
  8
0
  6
Continuous
 62
     7
370
    15
100
AcDbLine
 10
271.9005330396
 20
184.1789552845
 30
0.0
 11
279.9005324883
 21
184.1789552845
 31
0.0
  0
SPLINE
  5
182
330
1F
100
AcDbEntity
  8
0
  6
Continuous
 62
     7
370
    15
100
AcDbSpline
210
0.0
220
0.0
230
1.0
 70
     8
 71
     3
 72
    12
 73
     8
 74
     0
 42
0.00000001
 43
0.00000001
 12
1.0
 22
0.0
 32
0.0
 13
1.0
 23
0.0
 33
0.0
 40
0.0
 40
0.0
 40
0.0
 40
0.0
 40
0.0180912157881289
 40
0.2864726001545747
 40
0.5547562161137386
 40
0.8230834837929285
 40
1.0
 40
1.0
 40
1.0
 40
1.0
 10
269.5318221044772
 20
184.9273065008443
 30
0.0
 10
269.5348098863439
 20
184.9189301192102
 30
0.0
 10
269.5821211146256
 20
184.7862909503058
 30
0.0
 10
269.9295519532864
 20
184.5684219149895
 30
0.0
 10
270.5438590492576
 20
184.3229424700658
 30
0.0
 10
271.2516974439127
 20
184.1970720204978
 30
0.0
 10
271.7160311786391
 20
184.1841069308359
 30
0.0
 10
271.900533039593
 20
184.1789552845281
 30
0.0
  0
SPLINE
  5
183
330
1F
100
AcDbEntity
  8
0
  6
Continuous
 62
     7
370
    15
100
AcDbSpline
210
0.0
220
0.0
230
1.0
 70
     8
 71
     3
 72
    12
 73
     8
 74
     0
 42
0.00000001
 43
0.00000001
 12
1.0
 22
0.0
 32
0.0
 13
1.0
 23
0.0
 33
0.0
 40
0.0
 40
0.0
 40
0.0
 40
0.0
 40
0.2146613780075144
 40
0.4293229514263506
 40
0.6439716047553143
 40
0.8585676609022552
 40
1.0
 40
1.0
 40
1.0
 40
1.0
 10
279.9005324882501
 20
219.3111156948131
 30
0.0
 10
280.181588914664
 20
219.3366365730253
 30
0.0
 10
280.7437020233442
 20
219.387678352682
 30
0.0
 10
281.4928669400177
 20
219.7863750448296
 30
0.0
 10
282.0581729070325
 20
220.3751909731943
 30
0.0
 10
282.3578181947668
 20
221.0305173825008
 30
0.0
 10
282.3883887427658
 20
221.4657667422978
 30
0.0
 10
282.400532898032
 20
221.6386696227115
 30
0.0
  0
LINE
  5
184
330
1F
100
AcDbEntity
  8
0
  6
Continuous
 62
     7
370
    15
100
AcDbLine
 10
259.9005310726
 20
219.3111156948
 30
0.0
 11
279.9005324883
 21
219.3111156948
 31
0.0
  0
SPLINE
  5
185
330
1F
100
AcDbEntity
  8
0
  6
Continuous
 62
     7
370
    15
100
AcDbSpline
210
0.0
220
0.0
230
1.0
 70
     8
 71
     3
 72
    12
 73
     8
 74
     0
 42
0.00000001
 43
0.00000001
 12
1.0
 22
0.0
 32
0.0
 13
1.0
 23
0.0
 33
0.0
 40
0.0
 40
0.0
 40
0.0
 40
0.0
 40
0.2146519766013363
 40
0.4293083689649178
 40
0.6438865192210564
 40
0.8584999443190398
 40
1.0
 40
1.0
 40
1.0
 40
1.0
 10
257.4005334568255
 20
221.6386696227115
 30
0.0
 10
257.4281286290267
 20
221.3755523831666
 30
0.0
 10
257.4833195411093
 20
220.8493124913003
 30
0.0
 10
257.9140214300203
 20
220.1521816700358
 30
0.0
 10
258.548058173661
 20
219.6279262178264
 30
0.0
 10
259.2510526729167
 20
219.3506617642526
 30
0.0
 10
259.7158471302009
 20
219.3223609094579
 30
0.0
 10
259.9005310726398
 20
219.3111156948131
 30
0.0
  0
SPLINE
  5
186
330
1F
100
AcDbEntity
  8
0
  6
Continuous
 62
     7
370
    15
100
AcDbSpline
210
0.0
220
0.0
230
1.0
 70
     8
 71
     3
 72
    12
 73
     8
 74
     0
 42
0.00000001
 43
0.00000001
 12
1.0
 22
0.0
 32
0.0
 13
1.0
 23
0.0
 33
0.0
 40
0.0
 40
0.0
 40
0.0
 40
0.0
 40
0.2146615005521732
 40
0.4293231282176988
 40
0.6439716703601603
 40
0.8585681958697319
 40
1.0
 40
1.0
 40
1.0
 40
1.0
 10
279.9005324882501
 20
192.9557951070589
 30
0.0
 10
280.1815889096239
 20
192.9732032554839
 30
0.0
 10
280.7437019188012
 20
193.0080195626423
 30
0.0
 10
281.4928665746693
 20
193.2808527249569
 30
0.0
 10
282.0581737211657
 20
193.6866203383065
 30
0.0
 10
282.3578176448523
 20
194.1419006876467
 30
0.0
 10
282.3883886176948
 20
194.4473526594936
 30
0.0
 10
282.400532898032
 20
194.5686930693906
 30
0.0
  0
LINE
  5
187
330
1F
100
AcDbEntity
  8
0
  6
Continuous
 62
     7
370
    15
100
AcDbLine
 10
259.9005310726
 20
192.9557951071
 30
0.0
 11
279.9005324883
 21
192.9557951071
 31
0.0
  0
SPLINE
  5
188
330
1F
100
AcDbEntity
  8
0
  6
Continuous
 62
     7
370
    15
100
AcDbSpline
210
0.0
220
0.0
230
1.0
 70
     8
 71
     3
 72
    12
 73
     8
 74
     0
 42
0.00000001
 43
0.00000001
 12
1.0
 22
0.0
 32
0.0
 13
1.0
 23
0.0
 33
0.0
 40
0.0
 40
0.0
 40
0.0
 40
0.0
 40
0.2146516355638335
 40
0.429308288844872
 40
0.643886365183854
 40
0.8584998108961259
 40
1.0
 40
1.0
 40
1.0
 40
1.0
 10
257.4005334568255
 20
194.5686930693906
 30
0.0
 10
257.4281287688278
 20
194.3842250957344
 30
0.0
 10
257.4833200379028
 20
194.0152848362809
 30
0.0
 10
257.914020899102
 20
193.532614556655
 30
0.0
 10
258.5480583584526
 20
193.1722365624491
 30
0.0
 10
259.2510530015367
 20
192.9827895201329
 30
0.0
 10
259.7158471561924
 20
192.9634711690393
 30
0.0
 10
259.9005310726398
 20
192.9557951070589
 30
0.0
  0
SPLINE
  5
189
330
1F
100
AcDbEntity
  8
0
  6
Continuous
 62
     7
370
    15
100
AcDbSpline
210
0.0
220
0.0
230
1.0
 70
     8
 71
     3
 72
    12
 73
     8
 74
     0
 42
0.00000001
 43
0.00000001
 12
1.0
 22
0.0
 32
0.0
 13
1.0
 23
0.0
 33
0.0
 40
0.0
 40
0.0
 40
0.0
 40
0.0
 40
0.2146613986416847
 40
0.429322949772229
 40
0.6439715885430711
 40
0.858567821175537
 40
1.0
 40
1.0
 40
1.0
 40
1.0
 10
279.9005324882501
 20
204.9100207068246
 30
0.0
 10
280.1815889028687
 20
204.9321613663323
 30
0.0
 10
280.7437019317599
 20
204.9764427010756
 30
0.0
 10
281.4928669438824
 20
205.322790897559
 30
0.0
 10
282.058173156149
 20
205.8357553090516
 30
0.0
 10
282.3578180173877
 20
206.4085611604175
 30
0.0
 10
282.3883887025806
 20
206.7905834243981
 30
0.0
 10
282.400532898032
 20
206.9423416532796
 30
0.0
  0
LINE
  5
18A
330
1F
100
AcDbEntity
  8
0
  6
Continuous
 62
     7
370
    15
100
AcDbLine
 10
259.9005310726
 20
204.9100207068
 30
0.0
 11
279.9005324883
 21
204.9100207068
 31
0.0
  0
SPLINE
  5
18B
330
1F
100
AcDbEntity
  8
0
  6
Continuous
 62
     7
370
    15
100
AcDbSpline
210
0.0
220
0.0
230
1.0
 70
     8
 71
     3
 72
    12
 73
     8
 74
     0
 42
0.00000001
 43
0.00000001
 12
1.0
 22
0.0
 32
0.0
 13
1.0
 23
0.0
 33
0.0
 40
0.0
 40
0.0
 40
0.0
 40
0.0
 40
0.2146517997433769
 40
0.4293082900179384
 40
0.6438862551364773
 40
0.858499847514266
 40
1.0
 40
1.0
 40
1.0
 40
1.0
 10
257.4005334568255
 20
206.9423416532796
 30
0.0
 10
257.428128710582
 20
206.7114967302187
 30
0.0
 10
257.4833198211012
 20
206.2498018397165
 30
0.0
 10
257.9140208877017
 20
205.6413062900158
 30
0.0
 10
258.5480589553031
 20
205.1850490487533
 30
0.0
 10
259.2510525813775
 20
204.9443407240894
 30
0.0
 10
259.7158471117629
 20
204.9197798548351
 30
0.0
 10
259.9005310726398
 20
204.9100207068246
 30
0.0
  0
SPLINE
  5
18C
330
1F
100
AcDbEntity
  8
0
  6
Continuous
 62
     7
370
    15
100
AcDbSpline
210
0.0
220
0.0
230
1.0
 70
     8
 71
     3
 72
     9
 73
     5
 74
     0
 42
0.00000001
 43
0.00000001
 12
1.0
 22
0.0
 32
0.0
 13
1.0
 23
0.0
 33
0.0
 40
0.0
 40
0.0
 40
0.0
 40
0.0
 40
0.4008220980267772
 40
1.0
 40
1.0
 40
1.0
 40
1.0
 10
139.008311827206
 20
179.142854539327
 30
0.0
 10
139.120701099934
 20
179.1327599618424
 30
0.0
 10
139.4010979974138
 20
179.1075752788265
 30
0.0
 10
139.713405813085
 20
179.1059777156239
 30
0.0
 10
139.9005337548488
 20
179.1050204910558
 30
0.0
  0
SPLINE
  5
18D
330
1F
100
AcDbEntity
  8
0
  6
Continuous
 62
     7
370
    15
100
AcDbSpline
210
0.0
220
0.0
230
1.0
 70
     8
 71
     3
 72
     9
 73
     5
 74
     0
 42
0.00000001
 43
0.00000001
 12
1.0
 22
0.0
 32
0.0
 13
1.0
 23
0.0
 33
0.0
 40
0.0
 40
0.0
 40
0.0
 40
0.0
 40
0.9307312093654031
 40
1.0
 40
1.0
 40
1.0
 40
1.0
 10
147.900535066151
 20
179.1050204910558
 30
0.0
 10
148.1908434215666
 20
179.1058395087631
 30
0.0
 10
148.5027577019673
 20
179.1067194810892
 30
0.0
 10
148.7645497876536
 20
179.1349950640576
 30
0.0
 10
148.7826838088268
 20
179.1369536794942
 30
0.0
  0
LINE
  5
18E
330
1F
100
AcDbEntity
  8
0
  6
Continuous
 62
     7
370
    15
100
AcDbLine
 10
147.9005350662
 20
179.1050204911
 30
0.0
 11
139.9005337548
 21
179.1050204911
 31
0.0
  0
SPLINE
  5
18F
330
1F
100
AcDbEntity
  8
0
  6
Continuous
 62
     7
370
    15
100
AcDbSpline
210
0.0
220
0.0
230
1.0
 70
     8
 71
     3
 72
    12
 73
     8
 74
     0
 42
0.00000001
 43
0.00000001
 12
1.0
 22
0.0
 32
0.0
 13
1.0
 23
0.0
 33
0.0
 40
0.0
 40
0.0
 40
0.0
 40
0.0
 40
0.0180912854756778
 40
0.2864722217104235
 40
0.5547553897011368
 40
0.8230849629716351
 40
1.0
 40
1.0
 40
1.0
 40
1.0
 10
137.5318153691524
 20
184.9273065008443
 30
0.0
 10
137.5348037917524
 20
184.9189301205064
 30
0.0
 10
137.5821249211863
 20
184.7862916582732
 30
0.0
 10
137.9295433107408
 20
184.5684217367696
 30
0.0
 10
138.5438569767699
 20
184.3229412929576
 30
0.0
 10
139.2516980116728
 20
184.1970726908075
 30
0.0
 10
139.7160332009757
 20
184.1841070837754
 30
0.0
 10
139.9005337548488
 20
184.1789552845281
 30
0.0
  0
SPLINE
  5
190
330
1F
100
AcDbEntity
  8
0
  6
Continuous
 62
     7
370
    15
100
AcDbSpline
210
0.0
220
0.0
230
1.0
 70
     8
 71
     3
 72
    11
 73
     7
 74
     0
 42
0.00000001
 43
0.00000001
 12
1.0
 22
0.0
 32
0.0
 13
1.0
 23
0.0
 33
0.0
 40
0.0
 40
0.0
 40
0.0
 40
0.0
 40
0.2657988243595487
 40
0.5315969585447872
 40
0.7973783897102749
 40
1.0
 40
1.0
 40
1.0
 40
1.0
 10
147.900535066151
 20
184.1789552845281
 30
0.0
 10
148.182102324739
 20
184.1904840631157
 30
0.0
 10
148.7452361107962
 20
184.2135415903553
 30
0.0
 10
149.4867476570039
 20
184.3974287533555
 30
0.0
 10
150.0340964592799
 20
184.6451950253249
 30
0.0
 10
150.1943347821941
 20
184.8541422196854
 30
0.0
 10
150.2636506152385
 20
184.9445285178941
 30
0.0
  0
LINE
  5
191
330
1F
100
AcDbEntity
  8
0
  6
Continuous
 62
     7
370
    15
100
AcDbLine
 10
147.9005350662
 20
184.1789552845
 30
0.0
 11
139.9005337548
 21
184.1789552845
 31
0.0
  0
SPLINE
  5
192
330
1F
100
AcDbEntity
  8
0
  6
Continuous
 62
     7
370
    15
100
AcDbSpline
210
0.0
220
0.0
230
1.0
 70
     8
 71
     3
 72
    12
 73
     8
 74
     0
 42
0.00000001
 43
0.00000001
 12
1.0
 22
0.0
 32
0.0
 13
1.0
 23
0.0
 33
0.0
 40
0.0
 40
0.0
 40
0.0
 40
0.0
 40
0.2146511705884934
 40
0.4293073512466313
 40
0.64388500686201
 40
0.8585000516113845
 40
1.0
 40
1.0
 40
1.0
 40
1.0
 10
137.4005361390346
 20
206.9423416532796
 30
0.0
 10
137.4281282981247
 20
206.7114966361435
 30
0.0
 10
137.4833132603204
 20
206.2498012138287
 30
0.0
 10
137.9140167297783
 20
205.6413065337567
 30
0.0
 10
138.5480554856675
 20
205.185047149212
 30
0.0
 10
139.2510532540104
 20
204.9443414230615
 30
0.0
 10
139.7158498764545
 20
204.9197800190376
 30
0.0
 10
139.9005337548488
 20
204.9100207068246
 30
0.0
  0
SPLINE
  5
193
330
1F
100
AcDbEntity
  8
0
  6
Continuous
 62
     7
370
    15
100
AcDbSpline
210
0.0
220
0.0
230
1.0
 70
     8
 71
     3
 72
    12
 73
     8
 74
     0
 42
0.00000001
 43
0.00000001
 12
1.0
 22
0.0
 32
0.0
 13
1.0
 23
0.0
 33
0.0
 40
0.0
 40
0.0
 40
0.0
 40
0.0
 40
0.214661936612047
 40
0.4293235561455132
 40
0.643971629894303
 40
0.858567749792101
 40
1.0
 40
1.0
 40
1.0
 40
1.0
 10
159.9005295825237
 20
204.9100207068246
 30
0.0
 10
160.1815865878816
 20
204.9321613391308
 30
0.0
 10
160.7437001834465
 20
204.9764425710392
 30
0.0
 10
161.4928657836981
 20
205.3227900236152
 30
0.0
 10
162.0581686124347
 20
205.8357560838233
 30
0.0
 10
162.3578108064216
 20
206.4085614491045
 30
0.0
 10
162.3883825678229
 20
206.7905834390408
 30
0.0
 10
162.4005271983379
 20
206.9423416532796
 30
0.0
  0
LINE
  5
194
330
1F
100
AcDbEntity
  8
0
  6
Continuous
 62
     7
370
    15
100
AcDbLine
 10
159.9005295825
 20
204.9100207068
 30
0.0
 11
139.9005337548
 21
204.9100207068
 31
0.0
  0
LINE
  5
195
330
1F
100
AcDbEntity
  8
0
  6
Continuous
 62
     7
370
    15
100
AcDbLine
 10
335.9005323541
 20
202.0156713106
 30
0.0
 11
335.9005323541
 21
287.886138437
 31
0.0
  0
LINE
  5
196
330
1F
100
AcDbEntity
  8
0
  6
Continuous
 62
     7
370
    15
100
AcDbLine
 10
335.9005323541
 20
301.3266654589
 30
0.0
 11
335.9005323541
 21
305.3978899397
 31
0.0
  0
LINE
  5
197
330
1F
100
AcDbEntity
  8
0
  6
Continuous
 62
     7
370
    15
100
AcDbLine
 10
335.9005323541
 20
184.5039198078
 30
0.0
 11
335.9005323541
 21
188.5751442887
 31
0.0
  0
LINE
  5
198
330
1F
100
AcDbEntity
  8
0
  6
Continuous
 62
     7
370
    15
100
AcDbLine
 10
335.9005323541
 20
305.3978899397
 30
0.0
 11
335.9005323541
 21
315.6273657359
 31
0.0
  0
LINE
  5
199
330
1F
100
AcDbEntity
  8
0
  6
Continuous
 62
     7
370
    15
100
AcDbLine
 10
335.9005323541
 20
174.2744440116
 30
0.0
 11
335.9005323541
 21
184.5039198078
 31
0.0
  0
LINE
  5
19A
330
1F
100
AcDbEntity
  8
0
  6
Continuous
 62
     7
370
    15
100
AcDbLine
 10
335.9005323541
 20
300.2907739856
 30
0.0
 11
335.9005323541
 21
301.3266654589
 31
0.0
  0
LINE
  5
19B
330
1F
100
AcDbEntity
  8
0
  6
Continuous
 62
     7
370
    15
100
AcDbLine
 10
335.9005323541
 20
188.5751442887
 30
0.0
 11
335.9005323541
 21
189.611035762
 31
0.0
  0
LINE
  5
19C
330
1F
100
AcDbEntity
  8
0
  6
Continuous
 62
     7
370
    15
100
AcDbLine
 10
297.4005325628
 20
244.9509048738
 30
0.0
 11
297.4005325628
 21
314.9509051718
 31
0.0
  0
LINE
  5
19D
330
1F
100
AcDbEntity
  8
0
  6
Continuous
 62
     7
370
    15
100
AcDbLine
 10
297.4005325628
 20
174.9509045758
 30
0.0
 11
297.4005325628
 21
244.9509048738
 31
0.0
  0
LINE
  5
19E
330
1F
100
AcDbEntity
  8
0
  6
Continuous
 62
     7
370
    15
100
AcDbLine
 10
314.4005334866
 20
263.0990533062
 30
0.0
 11
314.4005334866
 21
312.5574508585
 31
0.0
  0
LINE
  5
19F
330
1F
100
AcDbEntity
  8
0
  6
Continuous
 62
     7
370
    15
100
AcDbLine
 10
314.4005334866
 20
177.344358889
 30
0.0
 11
314.4005334866
 21
226.8027564414
 31
0.0
  0
LINE
  5
1A0
330
1F
100
AcDbEntity
  8
0
  6
Continuous
 62
     7
370
    15
100
AcDbLine
 10
343.9005336654
 20
300.2907739856
 30
0.0
 11
343.9005336654
 21
287.886138437
 31
0.0
  0
LINE
  5
1A1
330
1F
100
AcDbEntity
  8
0
  6
Continuous
 62
     7
370
    15
100
AcDbLine
 10
335.9005323541
 20
287.886138437
 30
0.0
 11
335.9005323541
 21
300.2907739856
 31
0.0
  0
LINE
  5
1A2
330
1F
100
AcDbEntity
  8
0
  6
Continuous
 62
     7
370
    15
100
AcDbLine
 10
343.9005336654
 20
202.0156713106
 30
0.0
 11
343.9005336654
 21
189.611035762
 31
0.0
  0
LINE
  5
1A3
330
1F
100
AcDbEntity
  8
0
  6
Continuous
 62
     7
370
    15
100
AcDbLine
 10
335.9005323541
 20
189.611035762
 30
0.0
 11
335.9005323541
 21
202.0156713106
 31
0.0
  0
LINE
  5
1A4
330
1F
100
AcDbEntity
  8
0
  6
Continuous
 62
     7
370
    15
100
AcDbLine
 10
295.4005324678
 20
244.9509048738
 30
0.0
 11
295.4005324678
 21
313.9509031452
 31
0.0
  0
LINE
  5
1A5
330
1F
100
AcDbEntity
  8
0
  6
Continuous
 62
     7
370
    15
100
AcDbLine
 10
295.4005324678
 20
175.9509066023
 30
0.0
 11
295.4005324678
 21
244.9509048738
 31
0.0
  0
LINE
  5
1A6
330
1F
100
AcDbEntity
  8
0
  6
Continuous
 62
     7
370
    15
100
AcDbLine
 10
335.9005323541
 20
315.6273657359
 30
0.0
 11
335.9005323541
 21
316.3474792518
 31
0.0
  0
LINE
  5
1A7
330
1F
100
AcDbEntity
  8
0
  6
Continuous
 62
     7
370
    15
100
AcDbLine
 10
335.9005323541
 20
173.5543304958
 30
0.0
 11
335.9005323541
 21
174.2744440116
 31
0.0
  0
LINE
  5
1A8
330
1F
100
AcDbEntity
  8
0
  6
Continuous
 62
     7
370
    15
100
AcDbLine
 10
335.9005323541
 20
316.3474792518
 30
0.0
 11
335.9005323541
 21
325.4509040989
 31
0.0
  0
LINE
  5
1A9
330
1F
100
AcDbEntity
  8
0
  6
Continuous
 62
     7
370
    15
100
AcDbLine
 10
335.9005323541
 20
164.4509056486
 30
0.0
 11
335.9005323541
 21
173.5543304958
 31
0.0
  0
LINE
  5
1AA
330
1F
100
AcDbEntity
  8
0
  6
Continuous
 62
     7
370
    15
100
AcDbLine
 10
335.9005323541
 20
302.9509032049
 30
0.0
 11
314.4005334866
 21
302.9509032049
 31
0.0
  0
LINE
  5
1AB
330
1F
100
AcDbEntity
  8
0
  6
Continuous
 62
     7
370
    15
100
AcDbLine
 10
335.9005323541
 20
186.9509065427
 30
0.0
 11
314.4005334866
 21
186.9509065427
 31
0.0
  0
LINE
  5
1AC
330
1F
100
AcDbEntity
  8
SLD-0
  6
CENTERX2
370
     0
100
AcDbLine
 10
480.3969552422
 20
244.9509048738
 30
0.0
 11
85.1142198603
 21
244.9509048738
 31
0.0
  0
LINE
  5
1AD
330
1F
100
AcDbEntity
  8
SLD-0
  6
CENTERX2
370
     0
100
AcDbLine
 10
378.9005325628
 20
74.0891119816
 30
0.0
 11
378.9005325628
 21
413.4408480607
 31
0.0
  0
LINE
  5
1AE
330
1F
100
AcDbEntity
  8
0
  6
Continuous
 62
     7
370
    15
100
AcDbLine
 10
553.5148545038
 20
252.9509052538
 30
0.0
 11
547.5148572456
 21
252.9509052538
 31
0.0
  0
LINE
  5
1AF
330
1F
100
AcDbEntity
  8
0
  6
Continuous
 62
     7
370
    15
100
AcDbLine
 10
547.5148572456
 20
236.9509044938
 30
0.0
 11
553.5148545038
 21
236.9509044938
 31
0.0
  0
LINE
  5
1B0
330
1F
100
AcDbEntity
  8
0
  6
Continuous
 62
     7
370
    15
100
AcDbLine
 10
554.5148565304
 20
251.4509050079
 30
0.0
 11
553.5148545038
 21
251.4509050079
 31
0.0
  0
LINE
  5
1B1
330
1F
100
AcDbEntity
  8
0
  6
Continuous
 62
     7
370
    15
100
AcDbLine
 10
553.5148545038
 20
238.4509047397
 30
0.0
 11
554.5148565304
 21
238.4509047397
 31
0.0
  0
SPLINE
  5
1B2
330
1F
100
AcDbEntity
  8
0
  6
Continuous
 62
     7
370
    15
100
AcDbSpline
210
0.0
220
0.0
230
1.0
 70
     8
 71
     3
 72
    33
 73
    29
 74
     0
 42
0.00000001
 43
0.00000001
 12
1.0
 22
0.0
 32
0.0
 13
1.0
 23
0.0
 33
0.0
 40
0.0
 40
0.0
 40
0.0
 40
0.0
 40
0.034011936199913
 40
0.0818872395359947
 40
0.1241613669716821
 40
0.164582335796195
 40
0.2031280516868998
 40
0.2394378900332304
 40
0.2703872188392332
 40
0.2951409739732814
 40
0.3141512179548818
 40
0.3246399815086415
 40
0.337481144456499
 40
0.3526381851788659
 40
0.3700616385407617
 40
0.3906659815036864
 40
0.4140240718849124
 40
0.4402315666153283
 40
0.4688173856213441
 40
0.5055609627815989
 40
0.5456077805427498
 40
0.6025058055903244
 40
0.6648439312302731
 40
0.7335579623989811
 40
0.8078874883479313
 40
0.8878327933849239
 40
0.9733942399718148
 40
1.0
 40
1.0
 40
1.0
 40
1.0
 10
685.2751760613369
 20
115.250229267053
 30
0.0
 10
685.4582631181025
 20
116.4118239208382
 30
0.0
 10
685.8990640647224
 20
119.2084826908402
 30
0.0
 10
686.5607099525065
 20
123.44565094791
 30
0.0
 10
687.2601785364324
 20
127.9155685961621
 30
0.0
 10
687.9150831191838
 20
132.0808993818785
 30
0.0
 10
688.5462225513733
 20
136.0564152278448
 30
0.0
 10
689.1364883821424
 20
139.7235423795568
 30
0.0
 10
689.6587336787351
 20
142.9120539260987
 30
0.0
 10
690.090029404952
 20
145.4983640532059
 30
0.0
 10
690.4106261378266
 20
147.3870524671796
 30
0.0
 10
690.6622019703594
 20
148.8511961930676
 30
0.0
 10
690.8909827131886
 20
150.1564806185209
 30
0.0
 10
691.1611518522823
 20
151.6813888688256
 30
0.0
 10
691.482809831478
 20
153.3777398025522
 30
0.0
 10
691.8393174807296
 20
155.5331687867439
 30
0.0
 10
692.201356430298
 20
158.53522627849
 30
0.0
 10
692.6056331186244
 20
161.8263250916312
 30
0.0
 10
693.0785541738543
 20
165.6969383174586
 30
0.0
 10
693.6228907042401
 20
170.1485099243428
 30
0.0
 10
694.3133600250178
 20
175.7868139186767
 30
0.0
 10
695.1349640502627
 20
182.5835184431244
 30
0.0
 10
696.112427493362
 20
190.6936362771056
 30
0.0
 10
697.1573365385769
 20
199.5916735976919
 30
0.0
 10
698.2987942121911
 20
209.2418113259011
 30
0.0
 10
699.5242899657522
 20
219.6244299833203
 30
0.0
 10
700.5063732412655
 20
227.9403757847668
 30
0.0
 10
701.0796772707452
 20
232.7958993014687
 30
0.0
 10
701.215663446133
 20
233.9476164333743
 30
0.0
  0
SPLINE
  5
1B3
330
1F
100
AcDbEntity
  8
0
  6
Continuous
 62
     7
370
    15
100
AcDbSpline
210
0.0
220
0.0
230
1.0
 70
     8
 71
     3
 72
    34
 73
    30
 74
     0
 42
0.00000001
 43
0.00000001
 12
1.0
 22
0.0
 32
0.0
 13
1.0
 23
0.0
 33
0.0
 40
0.0
 40
0.0
 40
0.0
 40
0.0
 40
0.0577457618250565
 40
0.127731065614987
 40
0.1935931419924405
 40
0.2553315390056112
 40
0.3129457913408312
 40
0.3660810613361773
 40
0.414940336131299
 40
0.4668967011928153
 40
0.5132961881507195
 40
0.554111737934561
 40
0.5679779829634845
 40
0.5809147728635023
 40
0.5978826860381972
 40
0.6121506362390214
 40
0.6248624120818567
 40
0.636092573121606
 40
0.654988492480501
 40
0.6698430310089168
 40
0.6873867945669345
 40
0.7079584563538203
 40
0.7320060545594367
 40
0.7590034313329934
 40
0.7939063044322834
 40
0.8367469641530415
 40
0.8873435895640486
 40
0.9451729775352731
 40
1.0
 40
1.0
 40
1.0
 40
1.0
 10
600.992341978495
 20
239.9569716207903
 30
0.0
 10
601.2596817785974
 20
237.1608827851596
 30
0.0
 10
601.8510255667666
 20
230.9760582155006
 30
0.0
 10
602.7472721976584
 20
221.6021030279594
 30
0.0
 10
603.6617872996534
 20
212.0356173849052
 30
0.0
 10
604.5196486466414
 20
203.0658640555401
 30
0.0
 10
605.3164345657691
 20
194.7204664847605
 30
0.0
 10
606.0607552799659
 20
186.9721015926254
 30
0.0
 10
606.7817856997016
 20
179.5870156492566
 30
0.0
 10
607.4682062378097
 20
172.6189939182676
 30
0.0
 10
608.1175225162965
 20
166.0633075990639
 30
0.0
 10
608.5894851205674
 20
161.2960229551715
 30
0.0
 10
608.9049342424789
 20
158.1042210087854
 30
0.0
 10
609.1100800583365
 20
156.0444252134141
 30
0.0
 10
609.329042016827
 20
154.1398407453489
 30
0.0
 10
609.5690110165699
 20
152.6043372230207
 30
0.0
 10
609.7739331349956
 20
151.1986835911428
 30
0.0
 10
610.0033818329039
 20
149.6100898054303
 30
0.0
 10
610.2433956581082
 20
147.8983002735725
 30
0.0
 10
610.515915300557
 20
145.9205437501431
 30
0.0
 10
610.7926306008741
 20
143.8831708752325
 30
0.0
 10
611.1130429924394
 20
141.4888486383981
 30
0.0
 10
611.477636903144
 20
138.7235836015143
 30
0.0
 10
611.9062359218806
 20
135.4291940499776
 30
0.0
 10
612.421172010135
 20
131.4215391610776
 30
0.0
 10
613.0454569224817
 20
126.5108507103875
 30
0.0
 10
613.7791101311999
 20
120.7111365839885
 30
0.0
 10
614.5728712105818
 20
114.4345099041111
 30
0.0
 10
615.1375865340369
 20
110.0706414995787
 30
0.0
 10
615.4124191831993
 20
107.9468572415632
 30
0.0
  0
ARC
  5
1B4
330
1F
100
AcDbEntity
  8
0
  6
Continuous
 62
     7
370
    15
100
AcDbCircle
 10
575.0148553383
 20
104.9509048738
 30
0.0
 40
3.0
100
AcDbArc
 50
90.0
 51
180.0
  0
LINE
  5
1B5
330
1F
100
AcDbEntity
  8
0
  6
Continuous
 62
     7
370
    15
100
AcDbLine
 10
572.0148547422
 20
397.9509020128
 30
0.0
 11
572.0148547422
 21
384.9509054698
 31
0.0
  0
LINE
  5
1B6
330
1F
100
AcDbEntity
  8
0
  6
Continuous
 62
     7
370
    15
100
AcDbLine
 10
727.0148559343
 20
392.9509067811
 30
0.0
 11
727.0148559343
 21
397.9509020128
 31
0.0
  0
ARC
  5
1B7
330
1F
100
AcDbEntity
  8
0
  6
Continuous
 62
     7
370
    15
100
AcDbCircle
 10
575.0148553383
 20
384.9509048738
 30
0.0
 40
3.000000000000114
100
AcDbArc
 50
180.0
 51
270.0
  0
LINE
  5
1B8
330
1F
100
AcDbEntity
  8
0
  6
Continuous
 62
     7
370
    15
100
AcDbLine
 10
727.0148559343
 20
91.9509077348
 30
0.0
 11
727.0148559343
 21
96.9509029664
 31
0.0
  0
LINE
  5
1B9
330
1F
100
AcDbEntity
  8
0
  6
Continuous
 62
     7
370
    15
100
AcDbLine
 10
572.0148547422
 20
104.9509042777
 30
0.0
 11
572.0148547422
 21
91.9509077348
 31
0.0
  0
LINE
  5
1BA
330
1F
100
AcDbEntity
  8
0
  6
Continuous
 62
     7
370
    15
100
AcDbLine
 10
699.5148560833
 20
89.9509036817
 30
0.0
 11
699.5148560833
 21
91.9509077348
 31
0.0
  0
LINE
  5
1BB
330
1F
100
AcDbEntity
  8
0
  6
Continuous
 62
     7
370
    15
100
AcDbLine
 10
599.5148545932
 20
91.9509077348
 30
0.0
 11
599.5148545932
 21
89.9509036817
 31
0.0
  0
LINE
  5
1BC
330
1F
100
AcDbEntity
  8
0
  6
Continuous
 62
     7
370
    15
100
AcDbLine
 10
599.5148545932
 20
399.9509060659
 30
0.0
 11
599.5148545932
 21
397.9509020128
 31
0.0
  0
LINE
  5
1BD
330
1F
100
AcDbEntity
  8
0
  6
Continuous
 62
     7
370
    15
100
AcDbLine
 10
699.5148560833
 20
397.9509020128
 30
0.0
 11
699.5148560833
 21
399.9509060659
 31
0.0
  0
SPLINE
  5
1BE
330
1F
100
AcDbEntity
  8
0
  6
Continuous
 62
     7
370
    15
100
AcDbSpline
210
0.0
220
0.0
230
1.0
 70
     8
 71
     3
 72
    15
 73
    11
 74
     0
 42
0.00000001
 43
0.00000001
 12
1.0
 22
0.0
 32
0.0
 13
1.0
 23
0.0
 33
0.0
 40
0.0
 40
0.0
 40
0.0
 40
0.0
 40
0.1326583288503278
 40
0.2654543265975974
 40
0.3906866113172326
 40
0.5103065893304369
 40
0.6266113933338634
 40
0.7439528193374086
 40
0.8684550014766622
 40
1.0
 40
1.0
 40
1.0
 40
1.0
 10
632.8050861936258
 20
331.773757366113
 30
0.0
 10
632.7923255910763
 20
331.4126017377596
 30
0.0
 10
632.7667911434006
 20
330.689915684405
 30
0.0
 10
632.4287551787543
 20
329.6841815714706
 30
0.0
 10
631.9380603567349
 20
328.8163547602132
 30
0.0
 10
631.3388126282128
 20
328.1229944489421
 30
0.0
 10
630.6958055145938
 20
327.6023721252333
 30
0.0
 10
630.0646466125133
 20
327.242363180512
 30
0.0
 10
629.4843029939676
 20
327.0137880209672
 30
0.0
 10
629.1918260175978
 20
326.9475353036255
 30
0.0
 10
629.0415651034759
 20
326.9134977735799
 30
0.0
  0
SPLINE
  5
1BF
330
1F
100
AcDbEntity
  8
0
  6
Continuous
 62
     7
370
    15
100
AcDbSpline
210
0.0
220
0.0
230
1.0
 70
     8
 71
     3
 72
    23
 73
    19
 74
     0
 42
0.00000001
 43
0.00000001
 12
1.0
 22
0.0
 32
0.0
 13
1.0
 23
0.0
 33
0.0
 40
0.0
 40
0.0
 40
0.0
 40
0.0
 40
0.0887371065411441
 40
0.1701380685040685
 40
0.2445285423702055
 40
0.3121477632437911
 40
0.3731703509233085
 40
0.4277226864575374
 40
0.4758953662055546
 40
0.517752563114688
 40
0.5533391285259384
 40
0.5881694150855291
 40
0.6406776763642945
 40
0.7031829292245507
 40
0.7756933740572418
 40
0.8582528359037963
 40
0.9316040108613275
 40
1.0
 40
1.0
 40
1.0
 40
1.0
 10
757.7267750036167
 20
264.959919629268
 30
0.0
 10
757.1891981018946
 20
268.0265402306232
 30
0.0
 10
756.1584872832019
 20
273.9062553383886
 30
0.0
 10
753.9227231502954
 20
282.195788120518
 30
0.0
 10
751.4334324153265
 20
289.6285817196143
 30
0.0
 10
748.7678562676055
 20
296.2355743219122
 30
0.0
 10
746.0497930527675
 20
302.059731939597
 30
0.0
 10
743.372913320595
 20
307.1424759345753
 30
0.0
 10
740.8205050362145
 20
311.525191683645
 30
0.0
 10
738.4624770801619
 20
315.2473334934466
 30
0.0
 10
736.2494193858046
 20
318.5046392201742
 30
0.0
 10
733.7235305860238
 20
321.9987416809772
 30
0.0
 10
730.4921434193495
 20
326.1449491328518
 30
0.0
 10
726.2052582279194
 20
331.1357283578403
 30
0.0
 10
720.9175386524038
 20
336.6437889122069
 30
0.0
 10
714.9983238415092
 20
342.0484142645086
 30
0.0
 10
708.8851348917349
 20
347.0114949400185
 30
0.0
 10
704.7824610199892
 20
349.8214697148425
 30
0.0
 10
702.8028345536636
 20
351.1773416675848
 30
0.0
  0
SPLINE
  5
1C0
330
1F
100
AcDbEntity
  8
0
  6
Continuous
 62
     7
370
    15
100
AcDbSpline
210
0.0
220
0.0
230
1.0
 70
     8
 71
     3
 72
    21
 73
    17
 74
     0
 42
0.00000001
 43
0.00000001
 12
1.0
 22
0.0
 32
0.0
 13
1.0
 23
0.0
 33
0.0
 40
0.0
 40
0.0
 40
0.0
 40
0.0
 40
0.0322335784300695
 40
0.0769362310564274
 40
0.1307747592893045
 40
0.1938500754666572
 40
0.2663305056177502
 40
0.3484851087715193
 40
0.4403007585005465
 40
0.5407562358693714
 40
0.6124744579589158
 40
0.688038376125523
 40
0.7675262144570495
 40
0.851045344690203
 40
0.9387408957813568
 40
0.9999999999999999
 40
0.9999999999999999
 40
0.9999999999999999
 40
0.9999999999999999
 10
558.2497208249019
 20
233.7492680080455
 30
0.0
 10
558.3237115652239
 20
232.7165101276759
 30
0.0
 10
558.5003152490434
 20
230.2514875400707
 30
0.0
 10
559.0296030187126
 20
226.0823664005266
 30
0.0
 10
559.9254932749061
 20
220.967236633342
 30
0.0
 10
561.3479893138549
 20
215.0479708647533
 30
0.0
 10
563.4612522235062
 20
208.3758722027606
 30
0.0
 10
566.4502874280774
 20
201.0351599572755
 30
0.0
 10
570.5425897647696
 20
193.2130991256196
 30
0.0
 10
575.1925132189492
 20
186.105356768238
 30
0.0
 10
580.1024276393586
 20
179.8360075778083
 30
0.0
 10
585.0065700493317
 20
174.4421952494995
 30
0.0
 10
590.5844025116818
 20
169.1749273349824
 30
0.0
 10
596.8876931544509
 20
164.1559497965465
 30
0.0
 10
603.0629286641769
 20
159.9277390770927
 30
0.0
 10
607.2979248721981
 20
157.6966467370872
 30
0.0
 10
609.0396097731041
 20
156.7790875114721
 30
0.0
  0
SPLINE
  5
1C1
330
1F
100
AcDbEntity
  8
0
  6
Continuous
 62
     7
370
    15
100
AcDbSpline
210
0.0
220
0.0
230
1.0
 70
     8
 71
     3
 72
    19
 73
    15
 74
     0
 42
0.00000001
 43
0.00000001
 12
1.0
 22
0.0
 32
0.0
 13
1.0
 23
0.0
 33
0.0
 40
0.0
 40
0.0
 40
0.0
 40
0.0
 40
0.0891307211614836
 40
0.1724563186427394
 40
0.2501663918018152
 40
0.3564624502164306
 40
0.4507192648895954
 40
0.5330825132902859
 40
0.6035937539537384
 40
0.663606247586768
 40
0.7222320136341935
 40
0.8389650776683895
 40
0.9549374092116961
 40
1.0
 40
1.0
 40
1.0
 40
1.0
 10
606.5079471897529
 20
319.4410571731847
 30
0.0
 10
604.3618480705576
 20
318.3037063334374
 30
0.0
 10
600.2094262263731
 20
316.1030808221429
 30
0.0
 10
594.5401604480509
 20
312.3046792295845
 30
0.0
 10
588.7857052881109
 20
307.8373329559031
 30
0.0
 10
583.2200272656028
 20
302.6728537021286
 30
0.0
 10
578.0826240723613
 20
296.9173982015132
 30
0.0
 10
574.031282366459
 20
291.5341289985686
 30
0.0
 10
570.8867069123572
 20
286.6578484515226
 30
0.0
 10
568.3676735478907
 20
282.1614568845299
 30
0.0
 10
565.5503966648023
 20
276.3987830257201
 30
0.0
 10
562.6784353135902
 20
268.9949231743012
 30
0.0
 10
560.5064140323971
 20
261.7189897762955
 30
0.0
 10
559.8194600156495
 20
257.3854456826273
 30
0.0
 10
559.6272288691448
 20
256.1727849669975
 30
0.0
  0
SPLINE
  5
1C2
330
1F
100
AcDbEntity
  8
0
  6
Continuous
 62
     7
370
    15
100
AcDbSpline
210
0.0
220
0.0
230
1.0
 70
     8
 71
     3
 72
    13
 73
     9
 74
     0
 42
0.00000001
 43
0.00000001
 12
1.0
 22
0.0
 32
0.0
 13
1.0
 23
0.0
 33
0.0
 40
0.0
 40
0.0
 40
0.0
 40
0.0
 40
0.1670626329829862
 40
0.3336484392354381
 40
0.5000000085391676
 40
0.6663515981896028
 40
0.8329374112146518
 40
1.0
 40
1.0
 40
1.0
 40
1.0
 10
752.7671097647594
 20
216.9094080008787
 30
0.0
 10
753.5914350603047
 20
219.4952892326476
 30
0.0
 10
755.2377328790932
 20
224.659671127166
 30
0.0
 10
756.9499889673053
 20
232.607956231974
 30
0.0
 10
758.0995582498641
 20
240.6402238557044
 30
0.0
 10
758.614884725903
 20
248.7379561967473
 30
0.0
 10
758.5622450115532
 20
256.8684100816006
 30
0.0
 10
758.0055301837502
 20
262.2601815416213
 30
0.0
 10
757.7267750036167
 20
264.959919629268
 30
0.0
  0
SPLINE
  5
1C3
330
1F
100
AcDbEntity
  8
0
  6
Continuous
 62
     7
370
    15
100
AcDbSpline
210
0.0
220
0.0
230
1.0
 70
     8
 71
     3
 72
    23
 73
    19
 74
     0
 42
0.00000001
 43
0.00000001
 12
1.0
 22
0.0
 32
0.0
 13
1.0
 23
0.0
 33
0.0
 40
0.0
 40
0.0
 40
0.0
 40
0.0
 40
0.0395741843126423
 40
0.0969550073082706
 40
0.1477369858509282
 40
0.1917171947788928
 40
0.2289480711660232
 40
0.2657656441352881
 40
0.3210723144489648
 40
0.3866542647054364
 40
0.4624899155443811
 40
0.5486087787277093
 40
0.6117927016843154
 40
0.6796484245487775
 40
0.7522575147880163
 40
0.82973562304108
 40
0.9122431889547703
 40
1.0
 40
1.0
 40
1.0
 40
1.0
 10
691.2308311891006
 20
152.0431632079404
 30
0.0
 10
692.3758120306187
 20
152.4712107998277
 30
0.0
 10
695.1809646265688
 20
153.5199085334777
 30
0.0
 10
699.3275859992383
 20
155.4313607669175
 30
0.0
 10
703.5351653222812
 20
157.5224692700858
 30
0.0
 10
707.1042919312658
 20
159.4940266254144
 30
0.0
 10
710.2264949297514
 20
161.3758526290264
 30
0.0
 10
713.5756062066322
 20
163.5543743773545
 30
0.0
 10
717.5426673737617
 20
166.3830483042403
 30
0.0
 10
722.2866321523022
 20
170.1838004258383
 30
0.0
 10
727.4750164097567
 20
174.9305677213854
 30
0.0
 10
732.2437626434861
 20
180.0005538067724
 30
0.0
 10
736.4922590532003
 20
185.1936732577659
 30
0.0
 10
740.1737872047264
 20
190.2972663381569
 30
0.0
 10
743.7529744213259
 20
196.003452973226
 30
0.0
 10
747.1305507618654
 20
202.3476465113534
 30
0.0
 10
750.2593020782913
 20
209.3418172474927
 30
0.0
 10
751.9141673882767
 20
214.3355587873721
 30
0.0
 10
752.7671097647594
 20
216.9094080008787
 30
0.0
  0
SPLINE
  5
1C4
330
1F
100
AcDbEntity
  8
0
  6
Continuous
 62
     7
370
    15
100
AcDbSpline
210
0.0
220
0.0
230
1.0
 70
     8
 71
     3
 72
    15
 73
    11
 74
     0
 42
0.00000001
 43
0.00000001
 12
1.0
 22
0.0
 32
0.0
 13
1.0
 23
0.0
 33
0.0
 40
0.0
 40
0.0
 40
0.0
 40
0.0
 40
0.0737612596219546
 40
0.2484379599968289
 40
0.3922148012281372
 40
0.505077417335211
 40
0.5942793210601263
 40
0.703163573565644
 40
0.8389969128326508
 40
1.0
 40
1.0
 40
1.0
 40
1.0
 10
628.9463876616405
 20
326.7510527648252
 30
0.0
 10
628.3720902604252
 20
326.6551353970273
 30
0.0
 10
626.4377784615124
 20
326.3320726496431
 30
0.0
 10
623.4242901298375
 20
325.6111403317415
 30
0.0
 10
620.1386412481493
 20
324.7205549745706
 30
0.0
 10
617.5327939944076
 20
323.9063681768512
 30
0.0
 10
615.2107960563796
 20
323.1126716815935
 30
0.0
 10
612.7419125663704
 20
322.1913623185762
 30
0.0
 10
609.7759227564031
 20
320.9828217571596
 30
0.0
 10
607.6571580800037
 20
319.9832315603461
 30
0.0
 10
606.5079471897529
 20
319.4410571731847
 30
0.0
  0
LINE
  5
1C5
330
1F
100
AcDbEntity
  8
0
  6
Continuous
 62
     7
370
    15
100
AcDbLine
 10
554.5148565304
 20
233.4509048514
 30
0.0
 11
558.2536919844
 21
233.4509048514
 31
0.0
  0
LINE
  5
1C6
330
1F
100
AcDbEntity
  8
0
  6
Continuous
 62
     7
370
    15
100
AcDbLine
 10
559.540824486
 20
256.4509048961
 30
0.0
 11
554.5148565304
 21
256.4509048961
 31
0.0
  0
LINE
  5
1C7
330
1F
100
AcDbEntity
  8
0
  6
Continuous
 62
     7
370
    15
100
AcDbLine
 10
707.0148563814
 20
362.950905589
 30
0.0
 11
727.0148559343
 21
362.950905589
 31
0.0
  0
LINE
  5
1C8
330
1F
100
AcDbEntity
  8
0
  6
Continuous
 62
     7
370
    15
100
AcDbLine
 10
727.0148559343
 20
126.9509041585
 30
0.0
 11
707.0148563814
 21
126.9509041585
 31
0.0
  0
LINE
  5
1C9
330
1F
100
AcDbEntity
  8
0
  6
Continuous
 62
     7
370
    15
100
AcDbLine
 10
701.5324919354
 20
352.0995447315
 30
0.0
 11
700.2507536542
 21
353.074483005
 31
0.0
  0
LINE
  5
1CA
330
1F
100
AcDbEntity
  8
0
  6
Continuous
 62
     7
370
    15
100
AcDbLine
 10
553.5148545038
 20
244.9509048738
 30
0.0
 11
553.5148545038
 21
236.9509044938
 31
0.0
  0
LINE
  5
1CB
330
1F
100
AcDbEntity
  8
0
  6
Continuous
 62
     7
370
    15
100
AcDbLine
 10
553.5148545038
 20
252.9509052538
 30
0.0
 11
553.5148545038
 21
244.9509048738
 31
0.0
  0
LINE
  5
1CC
330
1F
100
AcDbEntity
  8
0
  6
Continuous
 62
     7
370
    15
100
AcDbLine
 10
547.5148572456
 20
243.7009049017
 30
0.0
 11
547.5148572456
 21
236.9509044938
 31
0.0
  0
LINE
  5
1CD
330
1F
100
AcDbEntity
  8
0
  6
Continuous
 62
     7
370
    15
100
AcDbLine
 10
550.5148558747
 20
243.7009049017
 30
0.0
 11
547.5148572456
 21
243.7009049017
 31
0.0
  0
LINE
  5
1CE
330
1F
100
AcDbEntity
  8
0
  6
Continuous
 62
     7
370
    15
100
AcDbLine
 10
550.5148558747
 20
243.7009049017
 30
0.0
 11
550.5148558747
 21
246.2009048458
 31
0.0
  0
LINE
  5
1CF
330
1F
100
AcDbEntity
  8
0
  6
Continuous
 62
     7
370
    15
100
AcDbLine
 10
547.5148572456
 20
246.2009048458
 30
0.0
 11
550.5148558747
 21
246.2009048458
 31
0.0
  0
LINE
  5
1D0
330
1F
100
AcDbEntity
  8
0
  6
Continuous
 62
     7
370
    15
100
AcDbLine
 10
547.5148572456
 20
252.9509052538
 30
0.0
 11
547.5148572456
 21
246.2009048458
 31
0.0
  0
ARC
  5
1D1
330
1F
100
AcDbEntity
  8
0
  6
Continuous
 62
     7
370
    15
100
AcDbCircle
 10
651.5148553383
 20
244.9509048738
 30
0.0
 40
51.00000000000009
100
AcDbArc
 50
12.4557926259
 51
174.3737290539
  0
ARC
  5
1D2
330
1F
100
AcDbEntity
  8
0
  6
Continuous
 62
     7
370
    15
100
AcDbCircle
 10
651.5148553383
 20
244.9509048738
 30
0.0
 40
44.9544511501034
100
AcDbArc
 50
4.4653726926
 51
14.1636397725
  0
ARC
  5
1D3
330
1F
100
AcDbEntity
  8
0
  6
Continuous
 62
     7
370
    15
100
AcDbCircle
 10
722.5148553383
 20
246.4509048738
 30
0.0
 40
2.000000000000028
100
AcDbArc
 50
0.0
 51
90.0
  0
LINE
  5
1D4
330
1F
100
AcDbEntity
  8
0
  6
Continuous
 62
     7
370
    15
100
AcDbLine
 10
724.5148583185
 20
246.4509048868
 30
0.0
 11
724.5148583185
 21
243.4509048607
 31
0.0
  0
ARC
  5
1D5
330
1F
100
AcDbEntity
  8
0
  6
Continuous
 62
     7
370
    15
100
AcDbCircle
 10
722.5148553383
 20
243.4509048738
 30
0.0
 40
2.0
100
AcDbArc
 50
270.0
 51
0.0
  0
LINE
  5
1D6
330
1F
100
AcDbEntity
  8
0
  6
Continuous
 62
     7
370
    15
100
AcDbLine
 10
649.5148553383
 20
241.4509047657
 30
0.0
 11
722.5148542654
 21
241.4509047657
 31
0.0
  0
ARC
  5
1D7
330
1F
100
AcDbEntity
  8
0
  6
Continuous
 62
     7
370
    15
100
AcDbCircle
 10
576.5148553383
 20
241.9509048738
 30
0.0
 40
2.0
100
AcDbArc
 50
179.9999999995
 51
270.0
  0
LINE
  5
1D8
330
1F
100
AcDbEntity
  8
0
  6
Continuous
 62
     7
370
    15
100
AcDbLine
 10
574.514852358
 20
247.9509048999
 30
0.0
 11
574.514852358
 21
241.9509048477
 31
0.0
  0
ARC
  5
1D9
330
1F
100
AcDbEntity
  8
0
  6
Continuous
 62
     7
370
    15
100
AcDbCircle
 10
576.5148553383
 20
247.9509048738
 30
0.0
 40
2.0
100
AcDbArc
 50
90.0
 51
180.0
  0
LINE
  5
1DA
330
1F
100
AcDbEntity
  8
0
  6
Continuous
 62
     7
370
    15
100
AcDbLine
 10
722.5148542654
 20
248.4509049818
 30
0.0
 11
685.3342293631
 21
248.4509049818
 31
0.0
  0
LINE
  5
1DB
330
1F
100
AcDbEntity
  8
0
  6
Continuous
 62
     7
370
    15
100
AcDbLine
 10
617.8845106494
 20
249.950904762
 30
0.0
 11
576.5148564112
 21
249.950904762
 31
0.0
  0
LINE
  5
1DC
330
1F
100
AcDbEntity
  8
0
  6
Continuous
 62
     7
370
    15
100
AcDbLine
 10
576.5148564112
 20
239.9509049855
 30
0.0
 11
649.5148553383
 21
239.9509049855
 31
0.0
  0
LINE
  5
1DD
330
1F
100
AcDbEntity
  8
0
  6
Continuous
 62
     7
370
    15
100
AcDbLine
 10
694.5282346439
 20
233.9509049334
 30
0.0
 11
695.8564421963
 21
241.4509047657
 31
0.0
  0
SPLINE
  5
1DE
330
1F
100
AcDbEntity
  8
0
  6
Continuous
 62
     7
370
    15
100
AcDbSpline
210
0.0
220
0.0
230
1.0
 70
     8
 71
     3
 72
    10
 73
     6
 74
     0
 42
0.00000001
 43
0.00000001
 12
1.0
 22
0.0
 32
0.0
 13
1.0
 23
0.0
 33
0.0
 40
0.0
 40
0.0
 40
0.0
 40
0.0
 40
0.3613115256883533
 40
0.7065017323173857
 40
1.0
 40
1.0
 40
1.0
 40
1.0
 10
683.8712445330071
 20
107.9509103574079
 30
0.0
 10
684.0557982347314
 20
108.8164584560045
 30
0.0
 10
684.416671056946
 20
110.5089348581827
 30
0.0
 10
684.9048132128373
 20
112.9885505346263
 30
0.0
 10
685.1552546112853
 20
114.5386825902491
 30
0.0
 10
685.2703406345295
 20
115.2510190285963
 30
0.0
  0
LINE
  5
1DF
330
1F
100
AcDbEntity
  8
0
  6
Continuous
 62
     7
370
    15
100
AcDbLine
 10
650.7648553103
 20
157.4509063639
 30
0.0
 11
650.7648553103
 21
172.4509069599
 31
0.0
  0
LINE
  5
1E0
330
1F
100
AcDbEntity
  8
0
  6
Continuous
 62
     7
370
    15
100
AcDbLine
 10
652.0148552824
 20
156.200907556
 30
0.0
 11
650.7648553103
 21
157.4509063639
 31
0.0
  0
SPLINE
  5
1E1
330
1F
100
AcDbEntity
  8
0
  6
Continuous
 62
     7
370
    15
100
AcDbSpline
210
0.0
220
0.0
230
1.0
 70
    24
 71
     3
 72
     9
 73
     5
 74
     0
 42
0.00000001
 43
0.00000001
 12
1.0
 22
0.0
 32
0.0
 13
1.0
 23
0.0
 33
0.0
 40
0.0
 40
0.0
 40
0.0
 40
0.0
 40
0.4993684722931695
 40
1.0
 40
1.0
 40
1.0
 40
1.0
 10
652.0148552824008
 20
139.950908152036
 30
0.0
 10
652.0148552824008
 20
142.6352794607351
 30
0.0
 10
652.0148552824008
 20
148.0108116731954
 30
0.0
 10
652.0148552824008
 20
153.4685777747179
 30
0.0
 10
652.0148552824008
 20
156.2009075559896
 30
0.0
  0
LINE
  5
1E2
330
1F
100
AcDbEntity
  8
0
  6
Continuous
 62
     7
370
    15
100
AcDbLine
 10
649.5148553383
 20
142.4509057679
 30
0.0
 11
652.0148552824
 21
139.950908152
 31
0.0
  0
LINE
  5
1E3
330
1F
100
AcDbEntity
  8
0
  6
Continuous
 62
     7
370
    15
100
AcDbLine
 10
647.0148553942
 20
139.950908152
 30
0.0
 11
649.5148553383
 21
142.4509057679
 31
0.0
  0
SPLINE
  5
1E4
330
1F
100
AcDbEntity
  8
0
  6
Continuous
 62
     7
370
    15
100
AcDbSpline
210
0.0
220
0.0
230
1.0
 70
    24
 71
     3
 72
     9
 73
     5
 74
     0
 42
0.00000001
 43
0.00000001
 12
1.0
 22
0.0
 32
0.0
 13
1.0
 23
0.0
 33
0.0
 40
0.0
 40
0.0
 40
0.0
 40
0.0
 40
0.4998416216324127
 40
1.0
 40
1.0
 40
1.0
 40
1.0
 10
647.0148553941596
 20
156.2009075559896
 30
0.0
 10
647.0148553941596
 20
153.4729085897473
 30
0.0
 10
647.0148553941594
 20
148.0151818855703
 30
0.0
 10
647.0148553941596
 20
142.6395669839561
 30
0.0
 10
647.0148553941596
 20
139.950908152036
 30
0.0
  0
LINE
  5
1E5
330
1F
100
AcDbEntity
  8
0
  6
Continuous
 62
     7
370
    15
100
AcDbLine
 10
648.2648553662
 20
157.4509063639
 30
0.0
 11
647.0148553942
 21
156.200907556
 31
0.0
  0
LINE
  5
1E6
330
1F
100
AcDbEntity
  8
0
  6
Continuous
 62
     7
370
    15
100
AcDbLine
 10
648.2648553662
 20
172.4509069599
 30
0.0
 11
648.2648553662
 21
157.4509063639
 31
0.0
  0
LINE
  5
1E7
330
1F
100
AcDbEntity
  8
0
  6
Continuous
 62
     7
370
    15
100
AcDbLine
 10
647.0148553942
 20
172.4509069599
 30
0.0
 11
648.2648553662
 21
172.4509069599
 31
0.0
  0
LINE
  5
1E8
330
1F
100
AcDbEntity
  8
0
  6
Continuous
 62
     7
370
    15
100
AcDbLine
 10
650.7648553103
 20
172.4509069599
 30
0.0
 11
652.0148552824
 21
172.4509069599
 31
0.0
  0
LINE
  5
1E9
330
1F
100
AcDbEntity
  8
0
  6
Continuous
 62
     7
370
    15
100
AcDbLine
 10
652.0148552824
 20
172.4509069599
 30
0.0
 11
649.5148553383
 21
174.9509045758
 31
0.0
  0
LINE
  5
1EA
330
1F
100
AcDbEntity
  8
0
  6
Continuous
 62
     7
370
    15
100
AcDbLine
 10
649.5148553383
 20
174.9509045758
 30
0.0
 11
647.0148553942
 21
172.4509069599
 31
0.0
  0
ARC
  5
1EB
330
1F
100
AcDbEntity
  8
0
  6
Continuous
 62
     7
370
    15
100
AcDbCircle
 10
722.5148553383
 20
235.9509048738
 30
0.0
 40
2.0
100
AcDbArc
 50
270.0
 51
0.0
  0
LINE
  5
1EC
330
1F
100
AcDbEntity
  8
0
  6
Continuous
 62
     7
370
    15
100
AcDbLine
 10
722.5148542654
 20
233.9509049334
 30
0.0
 11
694.5282346439
 21
233.9509049334
 31
0.0
  0
LINE
  5
1ED
330
1F
100
AcDbEntity
  8
0
  6
Continuous
 62
     7
370
    15
100
AcDbLine
 10
724.5148583185
 20
235.9509052612
 30
0.0
 11
724.5148583185
 21
243.4509048607
 31
0.0
  0
ARC
  5
1EE
330
1F
100
AcDbEntity
  8
0
  6
Continuous
 62
     7
370
    15
100
AcDbCircle
 10
722.5148553383
 20
253.9509048738
 30
0.0
 40
2.0
100
AcDbArc
 50
0.0000000006
 51
90.0
  0
LINE
  5
1EF
330
1F
100
AcDbEntity
  8
0
  6
Continuous
 62
     7
370
    15
100
AcDbLine
 10
695.102726562
 20
255.9509048142
 30
0.0
 11
722.5148542654
 21
255.9509048142
 31
0.0
  0
LINE
  5
1F0
330
1F
100
AcDbEntity
  8
0
  6
Continuous
 62
     7
370
    15
100
AcDbLine
 10
724.5148583185
 20
253.9509044864
 30
0.0
 11
724.5148583185
 21
246.4509048868
 31
0.0
  0
LINE
  5
1F1
330
1F
100
AcDbEntity
  8
0
  6
Continuous
 62
     7
370
    15
100
AcDbLine
 10
575.0148533713
 20
107.9509103574
 30
0.0
 11
722.59871055
 21
107.9509103574
 31
0.0
  0
SPLINE
  5
1F2
330
1F
100
AcDbEntity
  8
0
  6
Continuous
 62
     7
370
    15
100
AcDbSpline
210
0.0
220
0.0
230
1.0
 70
     8
 71
     3
 72
    12
 73
     8
 74
     0
 42
0.00000001
 43
0.00000001
 12
1.0
 22
0.0
 32
0.0
 13
1.0
 23
0.0
 33
0.0
 40
0.0
 40
0.0
 40
0.0
 40
0.0
 40
0.207585900818335
 40
0.4148925310191194
 40
0.6293602606122294
 40
0.8537942381264393
 40
1.0
 40
1.0
 40
1.0
 40
1.0
 10
722.5987105500149
 20
107.9509103574079
 30
0.0
 10
722.9487347084211
 20
107.9164850992424
 30
0.0
 10
723.6483121287874
 20
107.8476808960909
 30
0.0
 10
724.5890047077909
 20
107.3261261773797
 30
0.0
 10
725.3295769557047
 20
106.5620347348401
 30
0.0
 10
725.7524656497036
 20
105.7190271262362
 30
0.0
 10
725.8374194360094
 20
105.1681916218315
 30
0.0
 10
725.8709310423778
 20
104.9509042777342
 30
0.0
  0
SPLINE
  5
1F3
330
1F
100
AcDbEntity
  8
0
  6
Continuous
 62
     7
370
    15
100
AcDbSpline
210
0.0
220
0.0
230
1.0
 70
     8
 71
     3
 72
    14
 73
    10
 74
     0
 42
0.00000001
 43
0.00000001
 12
1.0
 22
0.0
 32
0.0
 13
1.0
 23
0.0
 33
0.0
 40
0.0
 40
0.0
 40
0.0
 40
0.0
 40
0.0984274094389517
 40
0.24859907827937
 40
0.4030803123984233
 40
0.5542029794787219
 40
0.7095706719778628
 40
0.8529928586030003
 40
1.0
 40
1.0
 40
1.0
 40
1.0
 10
727.0148559343265
 20
392.9509067811292
 30
0.0
 10
727.0115512283727
 20
392.9338537935926
 30
0.0
 10
727.0032044999683
 20
392.8907828948697
 30
0.0
 10
726.9207492827886
 20
392.4617109705212
 30
0.0
 10
726.7632655336103
 20
391.6040930339836
 30
0.0
 10
726.5503573286321
 20
390.3566302081505
 30
0.0
 10
726.3147464535349
 20
388.8037728356794
 30
0.0
 10
726.0752769664372
 20
386.9975869276828
 30
0.0
 10
725.9396045807136
 20
385.6387237280284
 30
0.0
 10
725.8709310423778
 20
384.950905469827
 30
0.0
  0
LINE
  5
1F4
330
1F
100
AcDbEntity
  8
0
  6
Continuous
 62
     7
370
    15
100
AcDbLine
 10
649.5148553383
 20
397.9509020128
 30
0.0
 11
572.0148547422
 21
397.9509020128
 31
0.0
  0
LINE
  5
1F5
330
1F
100
AcDbEntity
  8
0
  6
Continuous
 62
     7
370
    15
100
AcDbLine
 10
727.0148559343
 20
397.9509020128
 30
0.0
 11
649.5148553383
 21
397.9509020128
 31
0.0
  0
SPLINE
  5
1F6
330
1F
100
AcDbEntity
  8
0
  6
Continuous
 62
     7
370
    15
100
AcDbSpline
210
0.0
220
0.0
230
1.0
 70
     8
 71
     3
 72
    12
 73
     8
 74
     0
 42
0.00000001
 43
0.00000001
 12
1.0
 22
0.0
 32
0.0
 13
1.0
 23
0.0
 33
0.0
 40
0.0
 40
0.0
 40
0.0
 40
0.0
 40
0.2442447550368466
 40
0.4889625278367926
 40
0.7204803907698282
 40
0.9395500924534048
 40
1.0
 40
1.0
 40
1.0
 40
1.0
 10
725.8709310423778
 20
384.950905469827
 30
0.0
 10
725.8002507660622
 20
384.5859403191013
 30
0.0
 10
725.6587533301383
 20
383.85530320616
 30
0.0
 10
724.9640597884776
 20
382.8851231959947
 30
0.0
 10
724.0133191008346
 20
382.210779728406
 30
0.0
 10
723.168938778487
 20
381.9681959829139
 30
0.0
 10
722.7001027101662
 20
381.9539748936371
 30
0.0
 10
722.5987105500149
 20
381.9508993901533
 30
0.0
  0
LINE
  5
1F7
330
1F
100
AcDbEntity
  8
0
  6
Continuous
 62
     7
370
    15
100
AcDbLine
 10
722.59871055
 20
381.9508993902
 30
0.0
 11
575.0148533713
 21
381.9508993902
 31
0.0
  0
SPLINE
  5
1F8
330
1F
100
AcDbEntity
  8
0
  6
Continuous
 62
     7
370
    15
100
AcDbSpline
210
0.0
220
0.0
230
1.0
 70
     8
 71
     3
 72
    15
 73
    11
 74
     0
 42
0.00000001
 43
0.00000001
 12
1.0
 22
0.0
 32
0.0
 13
1.0
 23
0.0
 33
0.0
 40
0.0
 40
0.0
 40
0.0
 40
0.0
 40
0.0515151897136326
 40
0.2034287656604209
 40
0.3596248731084579
 40
0.5136325001321423
 40
0.6721501997006629
 40
0.8252474871816644
 40
0.982930565331816
 40
1.0
 40
1.0
 40
1.0
 40
1.0
 10
725.8709310423778
 20
104.9509042777342
 30
0.0
 10
725.8940878325789
 20
104.7063319865499
 30
0.0
 10
725.9855318760425
 20
103.7405384101906
 30
0.0
 10
726.1701601333826
 20
102.1572094589151
 30
0.0
 10
726.4177611113761
 20
100.3890057659659
 30
0.0
 10
726.653729385255
 20
98.92471665592387
 30
0.0
 10
726.8465551486809
 20
97.83745232889827
 30
0.0
 10
726.9766272125573
 20
97.14747380892862
 30
0.0
 10
727.0136521505935
 20
96.95713657740262
 30
0.0
 10
727.0147488146355
 20
96.95145766946051
 30
0.0
 10
727.0148559343265
 20
96.95090296643197
 30
0.0
  0
LINE
  5
1F9
330
1F
100
AcDbEntity
  8
0
  6
Continuous
 62
     7
370
    15
100
AcDbLine
 10
727.0148559343
 20
91.9509077348
 30
0.0
 11
572.0148547422
 21
91.9509077348
 31
0.0
  0
SPLINE
  5
1FA
330
1F
100
AcDbEntity
  8
0
  6
Continuous
 62
     7
370
    15
100
AcDbSpline
210
0.0
220
0.0
230
1.0
 70
     8
 71
     3
 72
    12
 73
     8
 74
     0
 42
0.00000001
 43
0.00000001
 12
1.0
 22
0.0
 32
0.0
 13
1.0
 23
0.0
 33
0.0
 40
0.0
 40
0.0
 40
0.0
 40
0.0
 40
0.2173541563021221
 40
0.4347432641210316
 40
0.6511413748588964
 40
0.8655093629222927
 40
1.0
 40
1.0
 40
1.0
 40
1.0
 10
727.4951129090236
 20
255.9509048141759
 30
0.0
 10
727.7238604817876
 20
255.9284837742018
 30
0.0
 10
728.1813924109442
 20
255.8836380888503
 30
0.0
 10
728.7905059615041
 20
255.5335347829906
 30
0.0
 10
729.2470827375716
 20
255.0192189040406
 30
0.0
 10
729.4825381122932
 20
254.4579126686492
 30
0.0
 10
729.505861866149
 20
254.0919781545463
 30
0.0
 10
729.5148535501407
 20
253.9509044863504
 30
0.0
  0
LINE
  5
1FB
330
1F
100
AcDbEntity
  8
0
  6
Continuous
 62
     7
370
    15
100
AcDbLine
 10
722.5148542654
 20
255.9509048142
 30
0.0
 11
727.495112909
 21
255.9509048142
 31
0.0
  0
LINE
  5
1FC
330
1F
100
AcDbEntity
  8
0
  6
Continuous
 62
     7
370
    15
100
AcDbLine
 10
729.5148535501
 20
235.9509052612
 30
0.0
 11
729.5148535501
 21
253.9509044864
 31
0.0
  0
SPLINE
  5
1FD
330
1F
100
AcDbEntity
  8
0
  6
Continuous
 62
     7
370
    15
100
AcDbSpline
210
0.0
220
0.0
230
1.0
 70
     8
 71
     3
 72
    12
 73
     8
 74
     0
 42
0.00000001
 43
0.00000001
 12
1.0
 22
0.0
 32
0.0
 13
1.0
 23
0.0
 33
0.0
 40
0.0
 40
0.0
 40
0.0
 40
0.0
 40
0.2120774632592005
 40
0.4241224754501638
 40
0.6370946950101255
 40
0.8520471849040185
 40
1.0
 40
1.0
 40
1.0
 40
1.0
 10
729.5148535501407
 20
235.9509052612108
 30
0.0
 10
729.4928327050247
 20
235.7276897828009
 30
0.0
 10
729.448794384316
 20
235.2812929813345
 30
0.0
 10
729.1057871216404
 20
234.685726380309
 30
0.0
 10
728.6000554602658
 20
234.2333104105293
 30
0.0
 10
728.0311860460712
 20
233.9872143943174
 30
0.0
 10
727.6503684028783
 20
233.9614207434474
 30
0.0
 10
727.4951129090236
 20
233.9509049333852
 30
0.0
  0
LINE
  5
1FE
330
1F
100
AcDbEntity
  8
0
  6
Continuous
 62
     7
370
    15
100
AcDbLine
 10
727.495112909
 20
233.9509049334
 30
0.0
 11
722.5148542654
 21
233.9509049334
 31
0.0
  0
LINE
  5
1FF
330
1F
100
AcDbEntity
  8
0
  6
Continuous
 62
     7
370
    15
100
AcDbLine
 10
569.5159672629
 20
241.9509048477
 30
0.0
 11
569.5148571264
 21
234.3513242804
 31
0.0
  0
LINE
  5
200
330
1F
100
AcDbEntity
  8
0
  6
Continuous
 62
     7
370
    15
100
AcDbLine
 10
569.5148571264
 20
247.9509048999
 30
0.0
 11
569.5148571264
 21
244.9509048826
 31
0.0
  0
SPLINE
  5
201
330
1F
100
AcDbEntity
  8
0
  6
Continuous
 62
     7
370
    15
100
AcDbSpline
210
0.0
220
0.0
230
1.0
 70
     8
 71
     3
 72
    12
 73
     8
 74
     0
 42
0.00000001
 43
0.00000001
 12
1.0
 22
0.0
 32
0.0
 13
1.0
 23
0.0
 33
0.0
 40
0.0
 40
0.0
 40
0.0
 40
0.0
 40
0.2172927806052252
 40
0.4346184303188017
 40
0.6509365122863614
 40
0.8661411578206752
 40
1.0
 40
1.0
 40
1.0
 40
1.0
 10
571.5378387700962
 20
239.9509049855393
 30
0.0
 10
571.3090910996011
 20
239.9733218513879
 30
0.0
 10
570.8515611567619
 20
240.0181589740047
 30
0.0
 10
570.242468352989
 20
240.3683121657828
 30
0.0
 10
569.7852743471715
 20
240.8831037530274
 30
0.0
 10
569.5484748972476
 20
241.4441973551825
 30
0.0
 10
569.5249778926355
 20
241.8104531144249
 30
0.0
 10
569.5159672629284
 20
241.9509048477036
 30
0.0
  0
LINE
  5
202
330
1F
100
AcDbEntity
  8
0
  6
Continuous
 62
     7
370
    15
100
AcDbLine
 10
576.5148564112
 20
239.9509049855
 30
0.0
 11
571.5378387701
 21
239.9509049855
 31
0.0
  0
LINE
  5
203
330
1F
100
AcDbEntity
  8
0
  6
Continuous
 62
     7
370
    15
100
AcDbLine
 10
569.5148571264
 20
247.9509048999
 30
0.0
 11
569.5148571264
 21
248.0535098721
 31
0.0
  0
SPLINE
  5
204
330
1F
100
AcDbEntity
  8
0
  6
Continuous
 62
     7
370
    15
100
AcDbSpline
210
0.0
220
0.0
230
1.0
 70
     8
 71
     3
 72
    12
 73
     8
 74
     0
 42
0.00000001
 43
0.00000001
 12
1.0
 22
0.0
 32
0.0
 13
1.0
 23
0.0
 33
0.0
 40
0.0
 40
0.0
 40
0.0
 40
0.0
 40
0.21717625744223
 40
0.4342359602883754
 40
0.6544808448337135
 40
0.8786075271206452
 40
1.0
 40
1.0
 40
1.0
 40
1.0
 10
569.5148571264194
 20
248.0535098720562
 30
0.0
 10
569.5481353317851
 20
248.2735596411387
 30
0.0
 10
569.6146738827015
 20
248.7135410825453
 30
0.0
 10
569.9855559584807
 20
249.2874102752173
 30
0.0
 10
570.5120581327304
 20
249.7164137290086
 30
0.0
 10
571.0635682559629
 20
249.925089083214
 30
0.0
 10
571.414533058552
 20
249.9441929371255
 30
0.0
 10
571.5378387700962
 20
249.9509047620219
 30
0.0
  0
LINE
  5
205
330
1F
100
AcDbEntity
  8
0
  6
Continuous
 62
     7
370
    15
100
AcDbLine
 10
571.5378387701
 20
249.950904762
 30
0.0
 11
576.5148564112
 21
249.950904762
 31
0.0
  0
LINE
  5
206
330
1F
100
AcDbEntity
  8
0
  6
Continuous
 62
     7
370
    15
100
AcDbLine
 10
653.0148554463
 20
381.9508993902
 30
0.0
 11
653.0148554463
 21
307.6689386644
 31
0.0
  0
LINE
  5
207
330
1F
100
AcDbEntity
  8
0
  6
Continuous
 62
     7
370
    15
100
AcDbLine
 10
646.0148552302
 20
381.9508993902
 30
0.0
 11
646.0148552302
 21
307.4389280655
 31
0.0
  0
SPLINE
  5
208
330
1F
100
AcDbEntity
  8
0
  6
Continuous
 62
     7
370
    15
100
AcDbSpline
210
0.0
220
0.0
230
1.0
 70
    24
 71
     3
 72
    13
 73
     9
 74
     0
 42
0.00000001
 43
0.00000001
 12
1.0
 22
0.0
 32
0.0
 13
1.0
 23
0.0
 33
0.0
 40
0.0
 40
0.0
 40
0.0
 40
0.0
 40
0.1933649009251028
 40
0.3867306843125584
 40
0.5800783652438117
 40
0.7733610976431922
 40
0.9665668128492182
 40
1.0
 40
1.0
 40
1.0
 40
1.0
 10
653.0148554463136
 20
307.668938664369
 30
0.0
 10
653.0148554463136
 20
306.5416229378131
 30
0.0
 10
653.0148554463136
 20
304.2869863399533
 30
0.0
 10
653.0148554463136
 20
301.0384486666202
 30
0.0
 10
653.0148554463136
 20
298.354333255828
 30
0.0
 10
653.0148554463136
 20
296.5281010875037
 30
0.0
 10
653.0148554463135
 20
295.9565676585898
 30
0.0
 10
653.0148554463136
 20
295.9324068859158
 30
0.0
 10
653.0148554463136
 20
295.9288427509588
 30
0.0
  0
SPLINE
  5
209
330
1F
100
AcDbEntity
  8
0
  6
Continuous
 62
     7
370
    15
100
AcDbSpline
210
0.0
220
0.0
230
1.0
 70
    24
 71
     3
 72
    13
 73
     9
 74
     0
 42
0.00000001
 43
0.00000001
 12
1.0
 22
0.0
 32
0.0
 13
1.0
 23
0.0
 33
0.0
 40
0.0
 40
0.0
 40
0.0
 40
0.0
 40
0.1919005238445214
 40
0.3837924821816548
 40
0.5759981592950462
 40
0.7691929656556273
 40
0.963349346627682
 40
1.0
 40
1.0
 40
1.0
 40
1.0
 10
646.0148552302468
 20
295.6534692920965
 30
0.0
 10
646.0148552302468
 20
295.7635029560748
 30
0.0
 10
646.0148552302468
 20
295.9835653726631
 30
0.0
 10
646.0148552302468
 20
297.6992582372613
 30
0.0
 10
646.0148552302467
 20
300.2294066087269
 30
0.0
 10
646.0148552302468
 20
303.3954276466236
 30
0.0
 10
646.0148552302467
 20
305.9059594999392
 30
0.0
 10
646.0148552302468
 20
307.2288600730135
 30
0.0
 10
646.0148552302468
 20
307.438928065471
 30
0.0
  0
LINE
  5
20A
330
1F
100
AcDbEntity
  8
0
  6
Continuous
 62
     7
370
    15
100
AcDbLine
 10
649.5148553383
 20
89.9509036817
 30
0.0
 11
699.5148560833
 21
89.9509036817
 31
0.0
  0
LINE
  5
20B
330
1F
100
AcDbEntity
  8
0
  6
Continuous
 62
     7
370
    15
100
AcDbLine
 10
599.5148545932
 20
89.9509036817
 30
0.0
 11
649.5148553383
 21
89.9509036817
 31
0.0
  0
LINE
  5
20C
330
1F
100
AcDbEntity
  8
0
  6
Continuous
 62
     7
370
    15
100
AcDbLine
 10
649.5148553383
 20
399.9509060659
 30
0.0
 11
699.5148560833
 21
399.9509060659
 31
0.0
  0
LINE
  5
20D
330
1F
100
AcDbEntity
  8
0
  6
Continuous
 62
     7
370
    15
100
AcDbLine
 10
599.5148545932
 20
399.9509060659
 30
0.0
 11
649.5148553383
 21
399.9509060659
 31
0.0
  0
LINE
  5
20E
330
1F
100
AcDbEntity
  8
0
  6
Continuous
 62
     7
370
    15
100
AcDbLine
 10
701.4588764738
 20
352.2928053417
 30
0.0
 11
702.8226121199
 21
351.2054303564
 31
0.0
  0
SPLINE
  5
20F
330
1F
100
AcDbEntity
  8
0
  6
Continuous
 62
     7
370
    15
100
AcDbSpline
210
0.0
220
0.0
230
1.0
 70
     8
 71
     3
 72
     9
 73
     5
 74
     0
 42
0.00000001
 43
0.00000001
 12
1.0
 22
0.0
 32
0.0
 13
1.0
 23
0.0
 33
0.0
 40
0.0
 40
0.0
 40
0.0
 40
0.0
 40
0.4947054521005005
 40
1.0
 40
1.0
 40
1.0
 40
1.0
 10
665.5915933530974
 20
319.3295070804876
 30
0.0
 10
663.7467056865038
 20
319.3024805804963
 30
0.0
 10
660.0174408102823
 20
319.2478490823462
 30
0.0
 10
656.3610699993893
 20
319.9870146444056
 30
0.0
 10
654.5135257635462
 20
320.3605109729093
 30
0.0
  0
SPLINE
  5
210
330
1F
100
AcDbEntity
  8
0
  6
Continuous
 62
     7
370
    15
100
AcDbSpline
210
0.0
220
0.0
230
1.0
 70
     8
 71
     3
 72
     9
 73
     5
 74
     0
 42
0.00000001
 43
0.00000001
 12
1.0
 22
0.0
 32
0.0
 13
1.0
 23
0.0
 33
0.0
 40
0.0
 40
0.0
 40
0.0
 40
0.0
 40
0.5598864176546895
 40
1.0
 40
1.0
 40
1.0
 40
1.0
 10
653.0148554463136
 20
321.2109276928228
 30
0.0
 10
653.2925448776197
 20
321.0486722860402
 30
0.0
 10
653.788519458445
 20
320.7588717092333
 30
0.0
 10
654.291956349805
 20
320.4822541276706
 30
0.0
 10
654.5135257635462
 20
320.3605109729093
 30
0.0
  0
SPLINE
  5
211
330
1F
100
AcDbEntity
  8
0
  6
Continuous
 62
     7
370
    15
100
AcDbSpline
210
0.0
220
0.0
230
1.0
 70
     8
 71
     3
 72
    17
 73
    13
 74
     0
 42
0.00000001
 43
0.00000001
 12
1.0
 22
0.0
 32
0.0
 13
1.0
 23
0.0
 33
0.0
 40
0.0
 40
0.0
 40
0.0
 40
0.0
 40
0.103895472707332
 40
0.1864235571242326
 40
0.2690188645776012
 40
0.386364660002871
 40
0.5038851826116376
 40
0.6252390659211714
 40
0.74654619087334
 40
0.8479479227469539
 40
0.9492066463787687
 40
1.0
 40
1.0
 40
1.0
 40
1.0
 10
679.9757419955181
 20
381.9508993901533
 30
0.0
 10
680.0917304293852
 20
381.116809803447
 30
0.0
 10
680.2998528418764
 20
379.6201714643339
 30
0.0
 10
680.9472951449311
 20
377.4749429568701
 30
0.0
 10
681.8153860190098
 20
375.3101540691556
 30
0.0
 10
683.0294209981856
 20
373.0366833068992
 30
0.0
 10
684.5338561763296
 20
370.7106250274708
 30
0.0
 10
686.076334640939
 20
368.576497954187
 30
0.0
 10
687.5047965465207
 20
366.7758535317408
 30
0.0
 10
688.7273362006079
 20
365.3281354742448
 30
0.0
 10
689.5454556286109
 20
364.3817078410714
 30
0.0
 10
689.9078796386837
 20
363.9522326391358
 30
0.0
 10
690.0289482306886
 20
363.8087654389661
 30
0.0
  0
ARC
  5
212
330
1F
100
AcDbEntity
  8
0
  6
Continuous
 62
     7
370
    15
100
AcDbCircle
 10
649.5148553383
 20
244.9509048738
 30
0.0
 40
76.09624262217301
100
AcDbArc
 50
307.116943701
 51
351.6885591935
  0
ARC
  5
213
330
1F
100
AcDbEntity
  8
0
  6
Continuous
 62
     7
370
    15
100
AcDbCircle
 10
649.5148553383
 20
244.9509048738
 30
0.0
 40
76.09624262217304
100
AcDbArc
 50
183.7674059288
 51
235.5538585392
  0
ARC
  5
214
330
1F
100
AcDbEntity
  8
0
  6
Continuous
 62
     7
370
    15
100
AcDbCircle
 10
649.5148553383
 20
244.9509048738
 30
0.0
 40
76.096242622173
100
AcDbArc
 50
92.6362142677
 51
176.2325940712
  0
LINE
  5
215
330
1F
100
AcDbEntity
  8
0
  6
Continuous
 62
     7
370
    15
100
AcDbLine
 10
682.0148541462
 20
301.2425558545
 30
0.0
 11
682.8108555507
 21
297.7252000846
 31
0.0
  0
LINE
  5
216
330
1F
100
AcDbEntity
  8
0
  6
Continuous
 62
     7
370
    15
100
AcDbLine
 10
685.5322099161
 20
302.038557259
 30
0.0
 11
682.0148541462
 21
301.2425558545
 31
0.0
  0
LINE
  5
217
330
1F
100
AcDbEntity
  8
0
  6
Continuous
 62
     7
370
    15
100
AcDbLine
 10
684.8652227652
 20
300.981379477
 30
0.0
 11
685.5322099161
 21
302.038557259
 31
0.0
  0
ARC
  5
218
330
1F
100
AcDbEntity
  8
0
  6
Continuous
 62
     7
370
    15
100
AcDbCircle
 10
649.5148553383
 20
244.9509048738
 30
0.0
 40
66.25000000000009
100
AcDbArc
 50
46.0703581215
 51
57.7516301839
  0
LINE
  5
219
330
1F
100
AcDbEntity
  8
0
  6
Continuous
 62
     7
370
    15
100
AcDbLine
 10
697.244530065
 20
292.6806466557
 30
0.0
 11
695.4774162602
 21
292.6636444308
 31
0.0
  0
ARC
  5
21A
330
1F
100
AcDbEntity
  8
0
  6
Continuous
 62
     7
370
    15
100
AcDbCircle
 10
649.5148553383
 20
244.9509048738
 30
0.0
 40
67.50000000000036
100
AcDbArc
 50
30.0
 51
45.0000392285
  0
LINE
  5
21B
330
1F
100
AcDbEntity
  8
0
  6
Continuous
 62
     7
370
    15
100
AcDbLine
 10
704.5151009094
 20
279.591529993
 30
0.0
 11
707.9715705347
 21
278.7009062149
 31
0.0
  0
LINE
  5
21C
330
1F
100
AcDbEntity
  8
0
  6
Continuous
 62
     7
370
    15
100
AcDbLine
 10
703.6414421033
 20
276.2009048738
 30
0.0
 11
704.5151009094
 21
279.591529993
 31
0.0
  0
ARC
  5
21D
330
1F
100
AcDbEntity
  8
0
  6
Continuous
 62
     7
370
    15
100
AcDbCircle
 10
649.5148553383
 20
244.9509048738
 30
0.0
 40
62.50000000000023
100
AcDbArc
 50
30.0
 51
45.0
  0
LINE
  5
21E
330
1F
100
AcDbEntity
  8
0
  6
Continuous
 62
     7
370
    15
100
AcDbLine
 10
693.6920261812
 20
290.9121917464
 30
0.0
 11
693.7090284061
 21
289.1450779416
 31
0.0
  0
ARC
  5
21F
330
1F
100
AcDbEntity
  8
0
  6
Continuous
 62
     7
370
    15
100
AcDbCircle
 10
649.5148553383
 20
244.9509048738
 30
0.0
 40
63.75000000000016
100
AcDbArc
 50
46.1339102698
 51
57.7516301839
  0
LINE
  5
220
330
1F
100
AcDbEntity
  8
0
  6
Continuous
 62
     7
370
    15
100
AcDbLine
 10
682.8108555507
 20
297.7252000846
 30
0.0
 11
683.5312484633
 21
298.8670201875
 31
0.0
  0
ARC
  5
221
330
1F
100
AcDbEntity
  8
0
  6
Continuous
 62
     7
370
    15
100
AcDbCircle
 10
649.5148553383
 20
244.9509048738
 30
0.0
 40
76.09624262217295
100
AcDbArc
 50
87.2044390517
 51
87.3637857323
  0
LINE
  5
222
330
1F
100
AcDbEntity
  8
0
  6
Continuous
 62
     7
370
    15
100
AcDbLine
 10
653.2262507696
 20
320.956587223
 30
0.0
 11
654.5135257635
 21
320.3605109729
 31
0.0
  0
ARC
  5
223
330
1F
100
AcDbEntity
  8
0
  6
Continuous
 62
     7
370
    15
100
AcDbCircle
 10
649.5148553383
 20
244.9509048738
 30
0.0
 40
76.09624262217304
100
AcDbArc
 50
8.3114408065
 51
77.8033001689
  0
SPLINE
  5
224
330
1F
100
AcDbEntity
  8
0
  6
Continuous
 62
     7
370
    15
100
AcDbSpline
210
0.0
220
0.0
230
1.0
 70
     8
 71
     3
 72
    15
 73
    11
 74
     0
 42
0.00000001
 43
0.00000001
 12
1.0
 22
0.0
 32
0.0
 13
1.0
 23
0.0
 33
0.0
 40
0.0
 40
0.0
 40
0.0
 40
0.0
 40
0.0641769555593946
 40
0.191796861231164
 40
0.3198229891141257
 40
0.447436192981875
 40
0.5745666823403708
 40
0.7021506985311727
 40
0.8294352239587699
 40
1.0
 40
1.0
 40
1.0
 40
1.0
 10
631.5850387197183
 20
334.9653253235143
 30
0.0
 10
630.886642901166
 20
335.7880427490687
 30
0.0
 10
628.7994431465539
 20
338.2467854321097
 30
0.0
 10
625.7417981363411
 20
342.6882211298549
 30
0.0
 10
622.6678143542636
 20
348.3631997193943
 30
0.0
 10
620.2455135008411
 20
354.3420688481061
 30
0.0
 10
618.5663769893255
 20
360.5606011790189
 30
0.0
 10
617.5734386495781
 20
366.9210583407336
 30
0.0
 10
617.3034146000805
 20
374.0767700819676
 30
0.0
 10
617.3353643407909
 20
379.0836732190066
 30
0.0
 10
617.3536605071472
 20
381.9508993901533
 30
0.0
  0
LINE
  5
225
330
1F
100
AcDbEntity
  8
0
  6
Continuous
 62
     7
370
    15
100
AcDbLine
 10
629.0697115343
 20
326.7848038949
 30
0.0
 11
628.9418670219
 21
326.7770329394
 31
0.0
  0
SPLINE
  5
226
330
1F
100
AcDbEntity
  8
0
  6
Continuous
 62
     7
370
    15
100
AcDbSpline
210
0.0
220
0.0
230
1.0
 70
     8
 71
     3
 72
    10
 73
     6
 74
     0
 42
0.00000001
 43
0.00000001
 12
1.0
 22
0.0
 32
0.0
 13
1.0
 23
0.0
 33
0.0
 40
0.0
 40
0.0
 40
0.0
 40
0.0
 40
0.4822768430325405
 40
0.9645530063749029
 40
1.0
 40
1.0
 40
1.0
 40
1.0
 10
631.5850387197183
 20
334.9653253235143
 30
0.0
 10
631.9030831849615
 20
334.5076351817138
 30
0.0
 10
632.5391716672161
 20
333.592255543152
 30
0.0
 10
632.8929790233886
 20
332.4100028966939
 30
0.0
 10
632.8135041155716
 20
331.8141861232961
 30
0.0
 10
632.8080627005743
 20
331.7733922876638
 30
0.0
  0
SPLINE
  5
227
330
1F
100
AcDbEntity
  8
0
  6
Continuous
 62
     7
370
    15
100
AcDbSpline
210
0.0
220
0.0
230
1.0
 70
    24
 71
     3
 72
     9
 73
     5
 74
     0
 42
0.00000001
 43
0.00000001
 12
1.0
 22
0.0
 32
0.0
 13
1.0
 23
0.0
 33
0.0
 40
0.0
 40
0.0
 40
0.0
 40
0.0
 40
0.5282831427629061
 40
1.0
 40
1.0
 40
1.0
 40
1.0
 10
569.5148571264194
 20
234.3513242803734
 30
0.0
 10
569.5148571264194
 20
236.2178513599121
 30
0.0
 10
569.5148571264194
 20
239.7510458316812
 30
0.0
 10
569.5148571264194
 20
243.2842383920116
 30
0.0
 10
569.5148571264194
 20
244.9509048825842
 30
0.0
  0
SPLINE
  5
228
330
1F
100
AcDbEntity
  8
0
  6
Continuous
 62
     7
370
    15
100
AcDbSpline
210
0.0
220
0.0
230
1.0
 70
     8
 71
     3
 72
    13
 73
     9
 74
     0
 42
0.00000001
 43
0.00000001
 12
1.0
 22
0.0
 32
0.0
 13
1.0
 23
0.0
 33
0.0
 40
0.0
 40
0.0
 40
0.0
 40
0.0
 40
0.2366350988243558
 40
0.4731349522906846
 40
0.5905020450510223
 40
0.7114485575018555
 40
0.9457499534098641
 40
1.0
 40
1.0
 40
1.0
 40
1.0
 10
558.8775216471599
 20
244.9509048737812
 30
0.0
 10
558.9186083287289
 20
246.2333819752776
 30
0.0
 10
559.0007582093697
 20
248.7976031970871
 30
0.0
 10
558.9137855941946
 20
251.6439713507372
 30
0.0
 10
559.0534739126822
 20
253.5295721412468
 30
0.0
 10
559.3212634796198
 20
255.0364814233059
 30
0.0
 10
559.5036878725587
 20
256.1172425473637
 30
0.0
 10
559.515781761061
 20
256.1797341875349
 30
0.0
 10
559.5180555116581
 20
256.191483130328
 30
0.0
  0
SPLINE
  5
229
330
1F
100
AcDbEntity
  8
0
  6
Continuous
 62
     7
370
    15
100
AcDbSpline
210
0.0
220
0.0
230
1.0
 70
     8
 71
     3
 72
    13
 73
     9
 74
     0
 42
0.00000001
 43
0.00000001
 12
1.0
 22
0.0
 32
0.0
 13
1.0
 23
0.0
 33
0.0
 40
0.0
 40
0.0
 40
0.0
 40
0.0
 40
0.0876889434176706
 40
0.3255625321904522
 40
0.4434813761900301
 40
0.5651888021941407
 40
0.7923468003518579
 40
1.0
 40
1.0
 40
1.0
 40
1.0
 10
558.2395805847095
 20
233.7484642766636
 30
0.0
 10
558.2369712269956
 20
233.7844401170909
 30
0.0
 10
558.2272834708011
 20
233.9180075344946
 30
0.0
 10
558.156402298596
 20
235.158448150074
 30
0.0
 10
558.0777184748409
 20
236.8055179724591
 30
0.0
 10
558.2232144209472
 20
238.75139530108
 30
0.0
 10
558.6058768023507
 20
241.480365641173
 30
0.0
 10
558.7897223521079
 20
243.8291795626021
 30
0.0
 10
558.8775216471599
 20
244.950904873781
 30
0.0
  0
LINE
  5
22A
330
1F
100
AcDbEntity
  8
0
  6
Continuous
 62
     7
370
    15
100
AcDbLine
 10
554.5148565304
 20
256.4509048961
 30
0.0
 11
554.5148565304
 21
233.4509048514
 31
0.0
  0
LINE
  5
22B
330
1F
100
AcDbEntity
  8
0
  6
Continuous
 62
     7
370
    15
100
AcDbLine
 10
707.1992023718
 20
363.364949254
 30
0.0
 11
690.3907819521
 21
363.364949254
 31
0.0
  0
LINE
  5
22C
330
1F
100
AcDbEntity
  8
0
  6
Continuous
 62
     7
370
    15
100
AcDbLine
 10
690.0289482307
 20
363.808765439
 30
0.0
 11
690.3907819521
 21
363.364949254
 31
0.0
  0
LINE
  5
22D
330
1F
100
AcDbEntity
  8
0
  6
Continuous
 62
     7
370
    15
100
AcDbLine
 10
727.0148559343
 20
392.9509067811
 30
0.0
 11
727.0148559343
 21
362.950905589
 31
0.0
  0
LINE
  5
22E
330
1F
100
AcDbEntity
  8
0
  6
Continuous
 62
     7
370
    15
100
AcDbLine
 10
727.0148559343
 20
96.9509029664
 30
0.0
 11
727.0148559343
 21
126.9509041585
 31
0.0
  0
LINE
  5
22F
330
1F
100
AcDbEntity
  8
0
  6
Continuous
 62
     7
370
    15
100
AcDbLine
 10
707.207930727
 20
126.5368604936
 30
0.0
 11
687.0448752176
 21
126.5368604936
 31
0.0
  0
SPLINE
  5
230
330
1F
100
AcDbEntity
  8
0
  6
Continuous
 62
     7
370
    15
100
AcDbSpline
210
0.0
220
0.0
230
1.0
 70
     8
 71
     3
 72
    10
 73
     6
 74
     0
 42
0.00000001
 43
0.00000001
 12
1.0
 22
0.0
 32
0.0
 13
1.0
 23
0.0
 33
0.0
 40
0.0
 40
0.0
 40
0.0
 40
0.0
 40
0.2438317361812594
 40
0.6950800143934339
 40
1.0
 40
1.0
 40
1.0
 40
1.0
 10
690.3907819520878
 20
363.3649492539686
 30
0.0
 10
691.0820375921201
 20
362.4310516016861
 30
0.0
 10
693.0525685318084
 20
359.7688321393763
 30
0.0
 10
696.2978666382755
 20
356.2347133025081
 30
0.0
 10
699.154230388917
 20
354.0313387066042
 30
0.0
 10
700.3060406875061
 20
353.1428420819562
 30
0.0
  0
LINE
  5
231
330
1F
100
AcDbEntity
  8
0
  6
Continuous
 62
     7
370
    15
100
AcDbLine
 10
578.9969577324
 20
301.3266654589
 30
0.0
 11
580.6136890184
 21
299.7099341728
 31
0.0
  0
ARC
  5
232
330
1F
100
AcDbEntity
  8
0
  6
Continuous
 62
     7
370
    15
100
AcDbCircle
 10
581.1182797381
 20
303.4479855374
 30
0.0
 40
3.000000000000105
100
AcDbArc
 50
139.4608436979
 51
225.0
  0
ARC
  5
233
330
1F
100
AcDbEntity
  8
0
  6
Continuous
 62
     7
370
    15
100
AcDbCircle
 10
649.5148553383
 20
244.9509048738
 30
0.0
 40
93.00000000000001
100
AcDbArc
 50
130.5391563021
 51
139.4608436979
  0
ARC
  5
234
330
1F
100
AcDbEntity
  8
0
  6
Continuous
 62
     7
370
    15
100
AcDbCircle
 10
591.0177746747
 20
313.347480474
 30
0.0
 40
3.000000000000064
100
AcDbArc
 50
45.0
 51
130.5391563021
  0
LINE
  5
235
330
1F
100
AcDbEntity
  8
0
  6
Continuous
 62
     7
370
    15
100
AcDbLine
 10
595.6278606188
 20
312.9800328888
 30
0.0
 11
593.1390947532
 21
315.4688024797
 31
0.0
  0
LINE
  5
236
330
1F
100
AcDbEntity
  8
0
  6
Continuous
 62
     7
370
    15
100
AcDbLine
 10
707.207930727
 20
126.5368604936
 30
0.0
 11
694.6915774476
 21
153.3782625474
 31
0.0
  0
LINE
  5
237
330
1F
100
AcDbEntity
  8
0
  6
Continuous
 62
     7
370
    15
100
AcDbLine
 10
707.1992023718
 20
363.364949254
 30
0.0
 11
702.0279704463
 21
351.7501795568
 31
0.0
  0
LINE
  5
238
330
1F
100
AcDbEntity
  8
0
  6
Continuous
 62
     7
370
    15
100
AcDbLine
 10
592.0148542952
 20
381.9508993902
 30
0.0
 11
618.8850491177
 21
324.3275875129
 31
0.0
  0
LINE
  5
239
330
1F
100
AcDbEntity
  8
0
  6
Continuous
 62
     7
370
    15
100
AcDbLine
 10
592.0148542952
 20
107.9509103574
 30
0.0
 11
610.3340140414
 21
147.2364658393
 31
0.0
  0
LINE
  5
23A
330
1F
100
AcDbEntity
  8
0
  6
Continuous
 62
     7
370
    15
100
AcDbLine
 10
561.3159402143
 20
215.4674580224
 30
0.0
 11
555.5745228064
 21
216.3463564493
 31
0.0
  0
ARC
  5
23B
330
1F
100
AcDbEntity
  8
0
  6
Continuous
 62
     7
370
    15
100
AcDbCircle
 10
651.9158507483
 20
217.3801079441
 30
0.0
 40
101.2000000000001
100
AcDbArc
 50
168.8494692232
 51
177.3009662613
  0
LWPOLYLINE
  5
23C
330
1F
100
AcDbEntity
  8
0
  6
Continuous
 62
     7
370
    15
100
AcDbPolyline
 90
        3
 70
   128
 43
0.0
 10
558.5621534717
 20
256.4509048961
 10
560.2455302011
 20
260.2519266211
 10
560.2936833035
 20
260.3547334574
  0
ARC
  5
23D
330
1F
100
AcDbEntity
  8
0
  6
Continuous
 62
     7
370
    15
100
AcDbCircle
 10
556.4219027686
 20
221.8818741805
 30
0.0
 40
5.600000000000049
100
AcDbArc
 50
177.3009662613
 51
261.2967002836
  0
LWPOLYLINE
  5
23E
330
1F
100
AcDbEntity
  8
0
  6
Continuous
 62
     7
370
    15
100
AcDbPolyline
 90
        3
 70
   128
 43
0.0
 10
595.8603075575
 20
313.0782017388
 10
595.4609378111
 20
313.3472347535
 10
594.1749862265
 20
314.4329110064
  0
LINE
  5
23F
330
1F
100
AcDbEntity
  8
0
  6
Continuous
 62
     7
370
    15
100
AcDbLine
 10
580.0328492057
 20
300.2907739856
 30
0.0
 11
580.6644274723
 21
299.5969535686
 31
0.0
  0
LINE
  5
240
330
1F
100
AcDbEntity
  8
0
  6
Continuous
 62
     7
370
    15
100
AcDbLine
 10
744.8448628873
 20
460.7709067237
 30
0.0
 11
727.0148561091
 21
460.7709067237
 31
0.0
  0
SPLINE
  5
241
330
1F
100
AcDbEntity
  8
0
  6
Continuous
 62
     7
370
    15
100
AcDbSpline
210
0.0
220
0.0
230
1.0
 70
     8
 71
     3
 72
    21
 73
    17
 74
     0
 42
0.00000001
 43
0.00000001
 12
1.0
 22
0.0
 32
0.0
 13
1.0
 23
0.0
 33
0.0
 40
0.0
 40
0.0
 40
0.0
 40
0.0
 40
0.0507049807790404
 40
0.1458090936995187
 40
0.2253850575456131
 40
0.2715304666383941
 40
0.3171032947224093
 40
0.3633916546179659
 40
0.3870831661137825
 40
0.4112315093993404
 40
0.4639289983385465
 40
0.5364814434118508
 40
0.6314653026501216
 40
0.7492488576969557
 40
0.8886549366881297
 40
1.0
 40
1.0
 40
1.0
 40
1.0
 10
569.6210429758346
 20
460.628995515041
 30
0.0
 10
569.3798605009785
 20
460.6161987749962
 30
0.0
 10
568.6863073719826
 20
460.5794000021816
 30
0.0
 10
567.6196626065912
 20
460.4453439155303
 30
0.0
 10
566.5892467248527
 20
460.2258857170037
 30
0.0
 10
565.810627739777
 20
459.9798568558438
 30
0.0
 10
565.1985352517163
 20
459.7390465826257
 30
0.0
 10
564.7001583404389
 20
459.5046814420778
 30
0.0
 10
564.3033194464057
 20
459.2960003542254
 30
0.0
 10
563.8861809483208
 20
459.0607658591455
 30
0.0
 10
563.2826930360734
 20
458.6828508019385
 30
0.0
 10
562.4364532274084
 20
458.0611490663908
 30
0.0
 10
561.4228591166044
 20
457.1508144480836
 30
0.0
 10
560.3294750036907
 20
455.8746436668519
 30
0.0
 10
559.3684977513944
 20
454.3890621180879
 30
0.0
 10
558.9484012264052
 20
453.2684907448103
 30
0.0
 10
558.7618590087211
 20
452.7709054123684
 30
0.0
  0
SPLINE
  5
242
330
1F
100
AcDbEntity
  8
0
  6
Continuous
 62
     7
370
    15
100
AcDbSpline
210
0.0
220
0.0
230
1.0
 70
     8
 71
     3
 72
    18
 73
    14
 74
     0
 42
0.00000001
 43
0.00000001
 12
1.0
 22
0.0
 32
0.0
 13
1.0
 23
0.0
 33
0.0
 40
0.0
 40
0.0
 40
0.0
 40
0.0
 40
0.0705935652077928
 40
0.1758978518492862
 40
0.3196740540587511
 40
0.4495903103096107
 40
0.5101340797061484
 40
0.5688095500123471
 40
0.6292593526416919
 40
0.6924664635489495
 40
0.7829808326362984
 40
0.8844391839763619
 40
0.9999999999999999
 40
0.9999999999999999
 40
0.9999999999999999
 40
0.9999999999999999
 10
758.5586846560752
 20
446.2709108661934
 30
0.0
 10
758.5598223337515
 20
446.8405019707342
 30
0.0
 10
758.5626570830486
 20
448.2597510400549
 30
0.0
 10
758.5290462968729
 20
450.8511217308589
 30
0.0
 10
757.612898296329
 20
453.82822328844
 30
0.0
 10
756.1521919323417
 20
456.1316776661055
 30
0.0
 10
754.7633630099724
 20
457.5932500098253
 30
0.0
 10
753.6424136695165
 20
458.5192796347158
 30
0.0
 10
752.3982371173144
 20
459.3137296539441
 30
0.0
 10
750.829074109736
 20
460.0496772823898
 30
0.0
 10
748.8371149426827
 20
460.6312222345951
 30
0.0
 10
746.3494904810658
 20
460.8128855967973
 30
0.0
 10
744.5980729226584
 20
460.785493027948
 30
0.0
 10
743.6654583305633
 20
460.7709067236706
 30
0.0
  0
LINE
  5
243
330
1F
100
AcDbEntity
  8
0
  6
Continuous
 62
     7
370
     0
100
AcDbLine
 10
547.5148574204
 20
446.2709108662
 30
0.0
 11
758.5586846561
 21
446.2709108662
 31
0.0
  0
SPLINE
  5
244
330
1F
100
AcDbEntity
  8
0
  6
Continuous
 62
     7
370
    15
100
AcDbSpline
210
0.0
220
0.0
230
1.0
 70
     8
 71
     3
 72
    22
 73
    18
 74
     0
 42
0.00000001
 43
0.00000001
 12
1.0
 22
0.0
 32
0.0
 13
1.0
 23
0.0
 33
0.0
 40
0.0
 40
0.0
 40
0.0
 40
0.0
 40
0.0055655390775861
 40
0.0757386353837002
 40
0.1459348190031066
 40
0.2161225718209525
 40
0.2857394261347016
 40
0.3553544575557983
 40
0.4231590246587582
 40
0.4918554562688001
 40
0.5605589879094067
 40
0.6324219567554419
 40
0.704283913587343
 40
0.7759513719423538
 40
0.8476148900635361
 40
0.9238072309529395
 40
1.0
 40
1.0
 40
1.0
 40
1.0
 10
674.8747841209686
 20
446.2709108661934
 30
0.0
 10
674.8833318551082
 20
446.3834348978351
 30
0.0
 10
674.999653690304
 20
447.9147181186697
 30
0.0
 10
674.5577477858379
 20
450.8807545158663
 30
0.0
 10
673.4825856688032
 20
455.0132402451678
 30
0.0
 10
671.6649632824026
 20
458.8938622791782
 30
0.0
 10
669.2280279335193
 20
462.3921346088042
 30
0.0
 10
666.268820016
 20
465.3973642848223
 30
0.0
 10
662.8667314914182
 20
467.8544790783075
 30
0.0
 10
659.1301452380267
 20
469.7222770579352
 30
0.0
 10
655.0663832441376
 20
471.0011006131097
 30
0.0
 10
650.7805833861084
 20
471.5944180613141
 30
0.0
 10
646.3957187106172
 20
471.4699154331747
 30
0.0
 10
642.0992702740946
 20
470.5910307544103
 30
0.0
 10
637.9407546731435
 20
468.960963159392
 30
0.0
 10
634.0219127555956
 20
466.5866523938811
 30
0.0
 10
631.8145614939532
 20
464.4136321465369
 30
0.0
 10
630.7108827621257
 20
463.3271189700886
 30
0.0
  0
SPLINE
  5
245
330
1F
100
AcDbEntity
  8
0
  6
Continuous
 62
     7
370
    15
100
AcDbSpline
210
0.0
220
0.0
230
1.0
 70
     8
 71
     3
 72
    12
 73
     8
 74
     0
 42
0.00000001
 43
0.00000001
 12
1.0
 22
0.0
 32
0.0
 13
1.0
 23
0.0
 33
0.0
 40
0.0
 40
0.0
 40
0.0
 40
0.0
 40
0.2288274127910257
 40
0.4576607045934969
 40
0.6865010399521064
 40
0.9153433732781516
 40
0.9999999999999999
 40
0.9999999999999999
 40
0.9999999999999999
 40
0.9999999999999999
 10
630.7108827621257
 20
463.3271189700886
 30
0.0
 10
629.8060960200305
 20
462.2227028079851
 30
0.0
 10
627.9964992901477
 20
460.0138421092262
 30
0.0
 10
626.0128401786341
 20
456.1871827074029
 30
0.0
 10
624.7162066505188
 20
452.1096328425949
 30
0.0
 10
624.1054500465048
 20
448.7508622832376
 30
0.0
 10
624.1888539949892
 20
446.7982030313099
 30
0.0
 10
624.2113762289798
 20
446.2709108661934
 30
0.0
  0
ARC
  5
246
330
1F
100
AcDbEntity
  8
0
  6
Continuous
 62
     7
370
    15
100
AcDbCircle
 10
649.514855513
 20
446.3038294694
 30
0.0
 40
49.96710982462047
100
AcDbArc
 50
359.9622532267
 51
180.0377467733
  0
CIRCLE
  5
247
330
1F
100
AcDbEntity
  8
0
  6
Continuous
 62
     7
370
    15
100
AcDbCircle
 10
607.0884463001
 20
488.6973168523
 30
0.0
 40
7.500000605835786
  0
CIRCLE
  5
248
330
1F
100
AcDbEntity
  8
0
  6
Continuous
 62
     7
370
    15
100
AcDbCircle
 10
691.9412634586
 20
488.697316181
 30
0.0
 40
7.500000677048192
  0
ARC
  5
249
330
1F
100
AcDbEntity
  8
0
  6
Continuous
 62
     7
370
    15
100
AcDbCircle
 10
649.514855513
 20
446.304091668
 30
0.0
 40
77.46683771727388
100
AcDbArc
 50
359.9754589187
 51
180.0245410813
  0
LINE
  5
24A
330
1F
100
AcDbEntity
  8
0
  6
Continuous
 62
     7
370
    15
100
AcDbLine
 10
692.9893471987
 20
481.2709091526
 30
0.0
 11
690.8931785018
 21
481.2709091526
 31
0.0
  0
LINE
  5
24B
330
1F
100
AcDbEntity
  8
0
  6
Continuous
 62
     7
370
    15
100
AcDbLine
 10
608.1365325243
 20
481.2709091526
 30
0.0
 11
606.0403638274
 21
481.2709091526
 31
0.0
  0
ARC
  5
24C
330
1F
100
AcDbEntity
  8
SLD-0
  6
CENTERX2
370
     0
100
AcDbCircle
 10
649.5148553383
 20
446.2709098055
 30
0.0
 40
60.00000000000003
100
AcDbArc
 50
0.0
 51
178.9826845621
  0
ENDSEC
  0
SECTION
  2
OBJECTS
  0
DICTIONARY
  5
C
330
0
100
AcDbDictionary
281
     1
  3
ACAD_GROUP
350
D
  3
ACAD_LAYOUT
350
1A
  3
ACAD_MLINESTYLE
350
17
  3
ACAD_PLOTSETTINGS
350
19
  3
ACAD_PLOTSTYLENAME
350
E
  0
DICTIONARY
  5
D
102
{ACAD_REACTORS
330
C
102
}
330
C
100
AcDbDictionary
281
     1
  0
DICTIONARY
  5
1A
102
{ACAD_REACTORS
330
C
102
}
330
C
100
AcDbDictionary
281
     1
  3
Layout1
350
1E
  3
Layout2
350
26
  3
Model
350
22
  0
DICTIONARY
  5
17
102
{ACAD_REACTORS
330
C
102
}
330
C
100
AcDbDictionary
281
     1
  3
Standard
350
18
  0
DICTIONARY
  5
19
102
{ACAD_REACTORS
330
C
102
}
330
C
100
AcDbDictionary
281
     1
  0
ACDBDICTIONARYWDFLT
  5
E
102
{ACAD_REACTORS
330
C
102
}
330
C
100
AcDbDictionary
281
     1
  3
Normal
350
F
100
AcDbDictionaryWithDefault
340
F
  0
LAYOUT
  5
1E
102
{ACAD_REACTORS
330
1A
102
}
330
1A
100
AcDbPlotSettings
  1

  2
none_device
  4

  6

 40
0.0
 41
0.0
 42
0.0
 43
0.0
 44
0.0
 45
0.0
 46
0.0
 47
0.0
 48
0.0
 49
0.0
140
0.0
141
0.0
142
1.0
143
1.0
 70
   688
 72
     0
 73
     0
 74
     5
  7

 75
    16
147
1.0
148
0.0
149
0.0
100
AcDbLayout
  1
Layout1
 70
     1
 71
     1
 10
0.0
 20
0.0
 11
420.0
 21
297.0
 12
0.0
 22
0.0
 32
0.0
 14
1.0000000000E+20
 24
1.0000000000E+20
 34
1.0000000000E+20
 15
-1.0000000000E+20
 25
-1.0000000000E+20
 35
-1.0000000000E+20
146
0.0
 13
0.0
 23
0.0
 33
0.0
 16
1.0
 26
0.0
 36
0.0
 17
0.0
 27
1.0
 37
0.0
 76
     0
330
1B
  0
LAYOUT
  5
26
102
{ACAD_REACTORS
330
1A
102
}
330
1A
100
AcDbPlotSettings
  1

  2
none_device
  4

  6

 40
0.0
 41
0.0
 42
0.0
 43
0.0
 44
0.0
 45
0.0
 46
0.0
 47
0.0
 48
0.0
 49
0.0
140
0.0
141
0.0
142
1.0
143
1.0
 70
   688
 72
     0
 73
     0
 74
     5
  7

 75
    16
147
1.0
148
0.0
149
0.0
100
AcDbLayout
  1
Layout2
 70
     1
 71
     2
 10
0.0
 20
0.0
 11
0.0
 21
0.0
 12
0.0
 22
0.0
 32
0.0
 14
0.0
 24
0.0
 34
0.0
 15
0.0
 25
0.0
 35
0.0
146
0.0
 13
0.0
 23
0.0
 33
0.0
 16
1.0
 26
0.0
 36
0.0
 17
0.0
 27
1.0
 37
0.0
 76
     0
330
23
  0
LAYOUT
  5
22
102
{ACAD_REACTORS
330
1A
102
}
330
1A
100
AcDbPlotSettings
  1

  2
none_device
  4

  6

 40
0.0
 41
0.0
 42
0.0
 43
0.0
 44
0.0
 45
0.0
 46
0.0
 47
0.0
 48
0.0
 49
0.0
140
0.0
141
0.0
142
1.0
143
1.0
 70
  1712
 72
     0
 73
     0
 74
     0
  7

 75
     0
147
1.0
148
0.0
149
0.0
100
AcDbLayout
  1
Model
 70
     1
 71
     0
 10
0.0
 20
0.0
 11
841.0
 21
594.0
 12
0.0
 22
0.0
 32
0.0
 14
0.0
 24
0.0
 34
0.0
 15
841.0
 25
594.0
 35
0.0
146
0.0
 13
0.0
 23
0.0
 33
0.0
 16
1.0
 26
0.0
 36
0.0
 17
0.0
 27
1.0
 37
0.0
 76
     0
330
1F
331
29
  0
MLINESTYLE
  5
18
102
{ACAD_REACTORS
330
17
102
}
330
17
100
AcDbMlineStyle
  2
Standard
 70
     0
  3

 62
   256
 51
90.0
 52
90.0
 71
     2
 49
0.5
 62
   256
  6
BYLAYER
 49
-0.5
 62
   256
  6
BYLAYER
  0
ACDBPLACEHOLDER
  5
F
102
{ACAD_REACTORS
330
E
102
}
330
E
  0
ENDSEC
  0
EOF
