  0
SECTION
  2
HEADER
  9
$ACADVER
  1
AC1015
  9
$ACADMAINTVER
 70
     6
  9
$DWGCODEPAGE
  3
DOS932
  9
$INSBASE
 10
0.0
 20
0.0
 30
0.0
  9
$EXTMIN
 10
0.0
 20
0.0
 30
0.0
  9
$EXTMAX
 10
841.0
 20
594.0
 30
0.0
  9
$LIMMIN
 10
0.0
 20
0.0
  9
$LIMMAX
 10
841.0
 20
594.0
  9
$ORTHOMODE
 70
     0
  9
$REGENMODE
 70
     1
  9
$FILLMODE
 70
     1
  9
$QTEXTMODE
 70
     0
  9
$MIRRTEXT
 70
     1
  9
$LTSCALE
 40
1.0
  9
$ATTMODE
 70
     1
  9
$TEXTSIZE
 40
3.5
  9
$TRACEWID
 40
1.0
  9
$TEXTSTYLE
  7
STANDARD
  9
$CLAYER
  8
0
  9
$CELTYPE
  6
ByLayer
  9
$CECOLOR
 62
   256
  9
$CELTSCALE
 40
1.0
  9
$DISPSILH
 70
     0
  9
$DIMSCALE
 40
1.0
  9
$DIMASZ
 40
3.8637032976
  9
$DIMEXO
 40
1.0
  9
$DIMDLI
 40
3.75
  9
$DIMRND
 40
0.0
  9
$DIMDLE
 40
0.0
  9
$DIMEXE
 40
1.0
  9
$DIMTP
 40
0.0
  9
$DIMTM
 40
0.0
  9
$DIMTXT
 40
2.7999999523
  9
$DIMCEN
 40
2.5
  9
$DIMTSZ
 40
0.0
  9
$DIMTOL
 70
     0
  9
$DIMLIM
 70
     0
  9
$DIMTIH
 70
     1
  9
$DIMTOH
 70
     1
  9
$DIMSE1
 70
     0
  9
$DIMSE2
 70
     0
  9
$DIMTAD
 70
     1
  9
$DIMZIN
 70
     1
  9
$DIMBLK
  1

  9
$DIMASO
 70
     1
  9
$DIMSHO
 70
     1
  9
$DIMPOST
  1

  9
$DIMAPOST
  1

  9
$DIMALT
 70
     0
  9
$DIMALTD
 70
     3
  9
$DIMALTF
 40
0.0393700787
  9
$DIMLFAC
 40
1.0
  9
$DIMTOFL
 70
     1
  9
$DIMTVP
 40
0.0
  9
$DIMTIX
 70
     0
  9
$DIMSOXD
 70
     0
  9
$DIMSAH
 70
     0
  9
$DIMBLK1
  1

  9
$DIMBLK2
  1

  9
$DIMSTYLE
  2
ISO-25
  9
$DIMCLRD
 70
     0
  9
$DIMCLRE
 70
     0
  9
$DIMCLRT
 70
     0
  9
$DIMTFAC
 40
1.0
  9
$DIMGAP
 40
1.524
  9
$DIMJUST
 70
     0
  9
$DIMSD1
 70
     0
  9
$DIMSD2
 70
     0
  9
$DIMTOLJ
 70
     0
  9
$DIMTZIN
 70
     1
  9
$DIMALTZ
 70
     0
  9
$DIMALTTZ
 70
     0
  9
$DIMUPT
 70
     0
  9
$DIMDEC
 70
     3
  9
$DIMTDEC
 70
     3
  9
$DIMALTU
 70
     2
  9
$DIMALTTD
 70
     3
  9
$DIMTXSTY
  7
STANDARD
  9
$DIMAUNIT
 70
     0
  9
$DIMADEC
 70
     0
  9
$DIMALTRND
 40
0.0
  9
$DIMAZIN
 70
     0
  9
$DIMDSEP
 70
    44
  9
$DIMATFIT
 70
     3
  9
$DIMFRAC
 70
     0
  9
$DIMLDRBLK
  1

  9
$DIMLUNIT
 70
     2
  9
$DIMLWD
 70
    -2
  9
$DIMLWE
 70
    -2
  9
$DIMTMOVE
 70
     0
  9
$LUNITS
 70
     2
  9
$LUPREC
 70
     3
  9
$SKETCHINC
 40
1.0
  9
$FILLETRAD
 40
10.0
  9
$AUNITS
 70
     0
  9
$AUPREC
 70
     0
  9
$MENU
  1
.
  9
$ELEVATION
 40
0.0
  9
$PELEVATION
 40
0.0
  9
$THICKNESS
 40
0.0
  9
$LIMCHECK
 70
     0
  9
$CHAMFERA
 40
10.0
  9
$CHAMFERB
 40
10.0
  9
$CHAMFERC
 40
20.0
  9
$CHAMFERD
 40
0.0
  9
$SKPOLY
 70
     0
  9
$TDCREATE
 40
2457042.666249259
  9
$TDUCREATE
 40
2457042.291249259
  9
$TDUPDATE
 40
2457042.666250162
  9
$TDUUPDATE
 40
2457042.291250162
  9
$TDINDWG
 40
0.0000000116
  9
$TDUSRTIMER
 40
0.0000000116
  9
$USRTIMER
 70
     1
  9
$ANGBASE
 50
0.0
  9
$ANGDIR
 70
     0
  9
$PDMODE
 70
     0
  9
$PDSIZE
 40
-1.0
  9
$PLINEWID
 40
0.0
  9
$SPLFRAME
 70
     0
  9
$SPLINETYPE
 70
     6
  9
$SPLINESEGS
 70
     8
  9
$HANDSEED
  5
259
  9
$SURFTAB1
 70
     6
  9
$SURFTAB2
 70
     6
  9
$SURFTYPE
 70
     6
  9
$SURFU
 70
     6
  9
$SURFV
 70
     6
  9
$UCSBASE
  2

  9
$UCSNAME
  2

  9
$UCSORG
 10
0.0
 20
0.0
 30
0.0
  9
$UCSXDIR
 10
1.0
 20
0.0
 30
0.0
  9
$UCSYDIR
 10
0.0
 20
1.0
 30
0.0
  9
$UCSORTHOREF
  2

  9
$UCSORTHOVIEW
 70
     0
  9
$UCSORGTOP
 10
0.0
 20
0.0
 30
0.0
  9
$UCSORGBOTTOM
 10
0.0
 20
0.0
 30
0.0
  9
$UCSORGLEFT
 10
0.0
 20
0.0
 30
0.0
  9
$UCSORGRIGHT
 10
0.0
 20
0.0
 30
0.0
  9
$UCSORGFRONT
 10
0.0
 20
0.0
 30
0.0
  9
$UCSORGBACK
 10
0.0
 20
0.0
 30
0.0
  9
$PUCSBASE
  2

  9
$PUCSNAME
  2

  9
$PUCSORG
 10
0.0
 20
0.0
 30
0.0
  9
$PUCSXDIR
 10
1.0
 20
0.0
 30
0.0
  9
$PUCSYDIR
 10
0.0
 20
1.0
 30
0.0
  9
$PUCSORTHOREF
  2

  9
$PUCSORTHOVIEW
 70
     0
  9
$PUCSORGTOP
 10
0.0
 20
0.0
 30
0.0
  9
$PUCSORGBOTTOM
 10
0.0
 20
0.0
 30
0.0
  9
$PUCSORGLEFT
 10
0.0
 20
0.0
 30
0.0
  9
$PUCSORGRIGHT
 10
0.0
 20
0.0
 30
0.0
  9
$PUCSORGFRONT
 10
0.0
 20
0.0
 30
0.0
  9
$PUCSORGBACK
 10
0.0
 20
0.0
 30
0.0
  9
$USERI1
 70
     0
  9
$USERI2
 70
     0
  9
$USERI3
 70
     0
  9
$USERI4
 70
     0
  9
$USERI5
 70
     0
  9
$USERR1
 40
0.0
  9
$USERR2
 40
0.0
  9
$USERR3
 40
0.0
  9
$USERR4
 40
0.0
  9
$USERR5
 40
0.0
  9
$WORLDVIEW
 70
     1
  9
$SHADEDGE
 70
     3
  9
$SHADEDIF
 70
    70
  9
$TILEMODE
 70
     1
  9
$MAXACTVP
 70
    64
  9
$PINSBASE
 10
0.0
 20
0.0
 30
0.0
  9
$PLIMCHECK
 70
     0
  9
$PEXTMIN
 10
1.0000000000E+20
 20
1.0000000000E+20
 30
1.0000000000E+20
  9
$PEXTMAX
 10
-1.0000000000E+20
 20
-1.0000000000E+20
 30
-1.0000000000E+20
  9
$PLIMMIN
 10
0.0
 20
0.0
  9
$PLIMMAX
 10
420.0
 20
297.0
  9
$UNITMODE
 70
     0
  9
$VISRETAIN
 70
     1
  9
$PLINEGEN
 70
     0
  9
$PSLTSCALE
 70
     1
  9
$TREEDEPTH
 70
  3020
  9
$CMLSTYLE
  2
Standard
  9
$CMLJUST
 70
     0
  9
$CMLSCALE
 40
20.0
  9
$PROXYGRAPHICS
 70
     1
  9
$MEASUREMENT
 70
     1
  9
$CELWEIGHT
370
    -1
  9
$ENDCAPS
280
     0
  9
$JOINSTYLE
280
     0
  9
$LWDISPLAY
290
     1
  9
$INSUNITS
 70
     4
  9
$HYPERLINKBASE
  1

  9
$STYLESHEET
  1

  9
$XEDIT
290
     1
  9
$CEPSNTYPE
380
     0
  9
$PSTYLEMODE
290
     1
  9
$FINGERPRINTGUID
  2
{FB262A44-33C3-48C3-9FB7-8CAB9B76CC8E}
  9
$VERSIONGUID
  2
{FAEB1C32-E019-11D5-929B-00C0DF256EC4}
  9
$EXTNAMES
290
     1
  9
$PSVPSCALE
 40
0.0
  9
$OLESTARTUP
290
     0
  0
ENDSEC
  0
SECTION
  2
CLASSES
  0
CLASS
  1
ACDBDICTIONARYWDFLT
  2
AcDbDictionaryWithDefault
  3
ObjectDBX Classes
 90
        0
280
     0
281
     0
  0
CLASS
  1
VISUALSTYLE
  2
AcDbVisualStyle
  3
ObjectDBX Classes
 90
     4095
280
     0
281
     0
  0
CLASS
  1
MATERIAL
  2
AcDbMaterial
  3
ObjectDBX Classes
 90
     1153
280
     0
281
     0
  0
CLASS
  1
ACDBPLACEHOLDER
  2
AcDbPlaceHolder
  3
ObjectDBX Classes
 90
        0
280
     0
281
     0
  0
CLASS
  1
LAYOUT
  2
AcDbLayout
  3
ObjectDBX Classes
 90
        0
280
     0
281
     0
  0
ENDSEC
  0
SECTION
  2
TABLES
  0
TABLE
  2
VPORT
  5
8
330
0
100
AcDbSymbolTable
 70
     1
  0
VPORT
  5
29
330
8
100
AcDbSymbolTableRecord
100
AcDbViewportTableRecord
  2
*Active
 70
     0
 10
0.0
 20
0.0
 11
1.0
 21
1.0
 12
420.5
 22
297.0
 13
0.0
 23
0.0
 14
10.0
 24
10.0
 15
10.0
 25
10.0
 16
0.0
 26
0.0
 36
1.0
 17
0.0
 27
0.0
 37
0.0
 40
594.0
 41
1.4158249158
 42
50.0
 43
0.0
 44
0.0
 50
0.0
 51
0.0
 71
     0
 72
  2000
 73
     1
 74
     3
 75
     0
 76
     0
 77
     0
 78
     0
281
     0
 65
     1
110
0.0
120
0.0
130
0.0
111
1.0
121
0.0
131
0.0
112
0.0
122
1.0
132
0.0
 79
     0
146
0.0
  0
ENDTAB
  0
TABLE
  2
LTYPE
  5
5
330
0
100
AcDbSymbolTable
 70
     6
  0
LTYPE
  5
14
330
5
100
AcDbSymbolTableRecord
100
AcDbLinetypeTableRecord
  2
ByBlock
 70
     0
  3

 72
    65
 73
     0
 40
0.0
  0
LTYPE
  5
15
330
5
100
AcDbSymbolTableRecord
100
AcDbLinetypeTableRecord
  2
ByLayer
 70
     0
  3

 72
    65
 73
     0
 40
0.0
  0
LTYPE
  5
16
330
5
100
AcDbSymbolTableRecord
100
AcDbLinetypeTableRecord
  2
Continuous
 70
     0
  3
Solid line
 72
    65
 73
     0
 40
0.0
  0
LTYPE
  5
3F
330
5
100
AcDbSymbolTableRecord
100
AcDbLinetypeTableRecord
  2
HIDDEN
 70
     0
  3
Hidden __ __ __ __ __ __ __ __ __ __ __ __ __ __
 72
    65
 73
     2
 40
1.905
 49
1.27
 74
     0
 49
-0.635
 74
     0
  0
LTYPE
  5
40
330
5
100
AcDbSymbolTableRecord
100
AcDbLinetypeTableRecord
  2
PHANTOM
 70
     0
  3
Phantom ______  __  __  ______  __  __  ______
 72
    65
 73
     6
 40
12.7
 49
6.35
 74
     0
 49
-1.27
 74
     0
 49
1.27
 74
     0
 49
-1.27
 74
     0
 49
1.27
 74
     0
 49
-1.27
 74
     0
  0
LTYPE
  5
41
330
5
100
AcDbSymbolTableRecord
100
AcDbLinetypeTableRecord
  2
CENTER
 70
     0
  3
Center ____ _ ____ _ ____ _ ____ _ ____ _ ____
 72
    65
 73
     4
 40
10.16
 49
6.35
 74
     0
 49
-1.27
 74
     0
 49
1.27
 74
     0
 49
-1.27
 74
     0
  0
LTYPE
  5
42
330
5
100
AcDbSymbolTableRecord
100
AcDbLinetypeTableRecord
  2
CENTERX2
 70
     0
  3
Center (2x) ________  __  ________  __  _____
 72
    65
 73
     4
 40
20.32
 49
12.7
 74
     0
 49
-2.54
 74
     0
 49
2.54
 74
     0
 49
-2.54
 74
     0
  0
LTYPE
  5
43
330
5
100
AcDbSymbolTableRecord
100
AcDbLinetypeTableRecord
  2
DOT2
 70
     0
  3
Dot (.5x) ........................................
 72
    65
 73
     2
 40
0.635
 49
0.0
 74
     0
 49
-0.635
 74
     0
  0
ENDTAB
  0
TABLE
  2
LAYER
  5
2
330
0
100
AcDbSymbolTable
 70
     4
  0
LAYER
  5
10
330
2
100
AcDbSymbolTableRecord
100
AcDbLayerTableRecord
  2
0
 70
     0
 62
     7
  6
Continuous
370
    -3
390
F
  0
LAYER
  5
44
330
2
100
AcDbSymbolTableRecord
100
AcDbLayerTableRecord
  2
SLD-0
 70
     0
 62
     3
  6
Continuous
370
    -3
390
F
  0
LAYER
  5
45
330
2
100
AcDbSymbolTableRecord
100
AcDbLayerTableRecord
  2
SLD-DEFPOINTS
 70
     0
 62
   179
  6
Continuous
370
    -3
390
F
  0
LAYER
  5
46
330
2
100
AcDbSymbolTableRecord
100
AcDbLayerTableRecord
  2
AM_REFDIM
 70
     0
 62
     4
  6
Continuous
370
    15
390
F
  0
ENDTAB
  0
TABLE
  2
STYLE
  5
3
330
0
100
AcDbSymbolTable
 70
     1
  0
STYLE
  5
11
330
3
100
AcDbSymbolTableRecord
100
AcDbTextStyleTableRecord
  2
STANDARD
 70
     0
 40
0.0
 41
1.0
 50
0.0
 71
     0
 42
3.5
  3
MSGOTHIC.TTC
  4

1001
ACAD
1000
ＭＳ ゴシック
1071
    32817
  0
ENDTAB
  0
TABLE
  2
VIEW
  5
6
330
0
100
AcDbSymbolTable
 70
     0
  0
ENDTAB
  0
TABLE
  2
UCS
  5
7
330
0
100
AcDbSymbolTable
 70
     0
  0
ENDTAB
  0
TABLE
  2
APPID
  5
9
330
0
100
AcDbSymbolTable
 70
     1
  0
APPID
  5
12
330
9
100
AcDbSymbolTableRecord
100
AcDbRegAppTableRecord
  2
ACAD
 70
     0
  0
ENDTAB
  0
TABLE
  2
DIMSTYLE
  5
A
330
0
100
AcDbSymbolTable
 70
     1
100
AcDbDimStyleTable
  0
DIMSTYLE
105
27
330
A
100
AcDbSymbolTableRecord
100
AcDbDimStyleTableRecord
  2
ISO-25
 70
     0
 41
2.5
 42
0.625
 43
3.75
 44
1.25
 73
     0
 74
     0
 77
     1
 78
     8
140
2.5
141
2.5
143
0.0393700787
147
0.625
171
     3
172
     1
178
     0
271
     2
272
     2
274
     3
278
    44
283
     0
284
     8
340
11
  0
ENDTAB
  0
TABLE
  2
BLOCK_RECORD
  5
1
330
0
100
AcDbSymbolTable
 70
     1
  0
BLOCK_RECORD
  5
1F
330
1
100
AcDbSymbolTableRecord
100
AcDbBlockTableRecord
  2
*Model_Space
340
22
  0
BLOCK_RECORD
  5
1B
330
1
100
AcDbSymbolTableRecord
100
AcDbBlockTableRecord
  2
*Paper_Space
340
1E
  0
BLOCK_RECORD
  5
23
330
1
100
AcDbSymbolTableRecord
100
AcDbBlockTableRecord
  2
*Paper_Space0
340
26
  0
ENDTAB
  0
ENDSEC
  0
SECTION
  2
BLOCKS
  0
BLOCK
  5
20
330
1F
100
AcDbEntity
  8
0
100
AcDbBlockBegin
  2
*Model_Space
 70
     0
 10
0.0
 20
0.0
 30
0.0
  3
*Model_Space
  1

  0
ENDBLK
  5
21
330
1F
100
AcDbEntity
  8
0
100
AcDbBlockEnd
  0
BLOCK
  5
1C
330
1B
100
AcDbEntity
 67
     1
  8
0
100
AcDbBlockBegin
  2
*Paper_Space
 70
     0
 10
0.0
 20
0.0
 30
0.0
  3
*Paper_Space
  1

  0
ENDBLK
  5
1D
330
1B
100
AcDbEntity
 67
     1
  8
0
100
AcDbBlockEnd
  0
BLOCK
  5
24
330
23
100
AcDbEntity
  8
0
100
AcDbBlockBegin
  2
*Paper_Space0
 70
     0
 10
0.0
 20
0.0
 30
0.0
  3
*Paper_Space0
  1

  0
ENDBLK
  5
25
330
23
100
AcDbEntity
  8
0
100
AcDbBlockEnd
  0
ENDSEC
  0
SECTION
  2
ENTITIES
  0
LINE
  5
47
330
1F
100
AcDbEntity
  8
0
  6
Continuous
 62
     7
370
    15
100
AcDbLine
 10
293.4005323728
 20
390.3774017371
 30
0.0
 11
296.4005325153
 21
390.3774017371
 31
0.0
  0
LINE
  5
48
330
1F
100
AcDbEntity
  8
0
  6
Continuous
 62
     7
370
    15
100
AcDbLine
 10
296.4005325153
 20
399.5244050302
 30
0.0
 11
293.4005323728
 21
399.5244050302
 31
0.0
  0
LINE
  5
49
330
1F
100
AcDbEntity
  8
0
  6
Continuous
 62
     7
370
    15
100
AcDbLine
 10
280.4005316389
 20
390.950902728
 30
0.0
 11
282.400532898
 21
390.950902728
 31
0.0
  0
LINE
  5
4A
330
1F
100
AcDbEntity
  8
0
  6
Continuous
 62
     7
370
    15
100
AcDbLine
 10
282.400532898
 20
398.9509040393
 30
0.0
 11
280.4005316389
 21
398.9509040393
 31
0.0
  0
SPLINE
  5
4B
330
1F
100
AcDbEntity
  8
0
  6
Continuous
 62
     7
370
    15
100
AcDbSpline
210
0.0
220
0.0
230
1.0
 70
    24
 71
     3
 72
    24
 73
    20
 74
     0
 42
0.00000001
 43
0.00000001
 12
1.0
 22
0.0
 32
0.0
 13
1.0
 23
0.0
 33
0.0
 40
0.0
 40
0.0
 40
0.0
 40
0.0
 40
0.0121403782693604
 40
0.0626705717867365
 40
0.1176202732118677
 40
0.1663592273765436
 40
0.2088388746967698
 40
0.2449930290755264
 40
0.2814079855513038
 40
0.33641475910622
 40
0.4015620304747391
 40
0.4764127858614943
 40
0.5608948236498827
 40
0.6226049524062192
 40
0.6886841147701946
 40
0.7592434398038436
 40
0.8344583322015456
 40
0.9145878970452358
 40
1.0
 40
1.0
 40
1.0
 40
1.0
 10
361.9005291652911
 20
295.0220474876684
 30
0.0
 10
361.9005291652911
 20
294.7279286359467
 30
0.0
 10
361.9005291652911
 20
293.209640144296
 30
0.0
 10
361.9005291652911
 20
290.1102278208219
 30
0.0
 10
361.9005291652911
 20
285.9099605243274
 30
0.0
 10
361.9005291652911
 20
281.72925757384
 30
0.0
 10
361.9005291652911
 20
277.9695083277774
 30
0.0
 10
361.9005291652911
 20
274.4882548489434
 30
0.0
 10
361.9005291652911
 20
270.5509935253727
 30
0.0
 10
361.9005291652911
 20
265.6103867789284
 30
0.0
 10
361.9005291652911
 20
259.3211319869049
 30
0.0
 10
361.9005291652911
 20
251.9494648266916
 30
0.0
 10
361.9005291652911
 20
244.5867208538683
 30
0.0
 10
361.9005291652911
 20
237.4805759154655
 30
0.0
 10
361.9005291652911
 20
230.8411606384961
 30
0.0
 10
361.9005291652911
 20
223.7898210173729
 30
0.0
 10
361.9005291652912
 20
216.3728023121743
 30
0.0
 10
361.9005291652911
 20
208.6152492255225
 30
0.0
 10
361.9005291652911
 20
203.5101370884843
 30
0.0
 10
361.9005291652911
 20
200.8761273600381
 30
0.0
  0
SPLINE
  5
4C
330
1F
100
AcDbEntity
  8
0
  6
Continuous
 62
     7
370
    15
100
AcDbSpline
210
0.0
220
0.0
230
1.0
 70
    24
 71
     3
 72
    15
 73
    11
 74
     0
 42
0.00000001
 43
0.00000001
 12
1.0
 22
0.0
 32
0.0
 13
1.0
 23
0.0
 33
0.0
 40
0.0
 40
0.0
 40
0.0
 40
0.0
 40
0.0166029794332029
 40
0.169433899652487
 40
0.320689394017332
 40
0.4704959910735849
 40
0.6189409923426767
 40
0.766090910897119
 40
0.9120067161857586
 40
0.9999999999999999
 40
0.9999999999999999
 40
0.9999999999999999
 40
0.9999999999999999
 10
405.9005289268725
 20
157.659053234033
 30
0.0
 10
405.9005289268725
 20
157.7976423626422
 30
0.0
 10
405.9005289268726
 20
159.2119485481176
 30
0.0
 10
405.9005289268725
 20
162.7547744620206
 30
0.0
 10
405.9005289268725
 20
168.2494113361983
 30
0.0
 10
405.9005289268725
 20
174.5350188665635
 30
0.0
 10
405.9005289268725
 20
181.3955037323778
 30
0.0
 10
405.9005289268725
 20
188.7824600662328
 30
0.0
 10
405.9005289268725
 20
195.5193804110133
 30
0.0
 10
405.9005289268725
 20
199.8939828392604
 30
0.0
 10
405.9005289268725
 20
201.5396462656778
 30
0.0
  0
SPLINE
  5
4D
330
1F
100
AcDbEntity
  8
0
  6
Continuous
 62
     7
370
    15
100
AcDbSpline
210
0.0
220
0.0
230
1.0
 70
    24
 71
     3
 72
    11
 73
     7
 74
     0
 42
0.00000001
 43
0.00000001
 12
1.0
 22
0.0
 32
0.0
 13
1.0
 23
0.0
 33
0.0
 40
0.0
 40
0.0
 40
0.0
 40
0.0
 40
0.227390650482298
 40
0.4822093537786324
 40
0.7395096273029975
 40
1.0
 40
1.0
 40
1.0
 40
1.0
 10
361.9005291652911
 20
173.554330495767
 30
0.0
 10
361.9005291652911
 20
171.7758000551882
 30
0.0
 10
361.9005291652911
 20
168.0042113262404
 30
0.0
 10
361.9005291652911
 20
163.0308820769247
 30
0.0
 10
361.9005291652911
 20
158.4388376126783
 30
0.0
 10
361.9005291652911
 20
156.0263722090945
 30
0.0
 10
361.9005291652911
 20
154.8127079285902
 30
0.0
  0
SPLINE
  5
4E
330
1F
100
AcDbEntity
  8
0
  6
Continuous
 62
     7
370
    15
100
AcDbSpline
210
0.0
220
0.0
230
1.0
 70
    24
 71
     3
 72
     9
 73
     5
 74
     0
 42
0.00000001
 43
0.00000001
 12
1.0
 22
0.0
 32
0.0
 13
1.0
 23
0.0
 33
0.0
 40
0.0
 40
0.0
 40
0.0
 40
0.0
 40
0.604051739026145
 40
1.0
 40
1.0
 40
1.0
 40
1.0
 10
361.9005291652911
 20
200.6541671134752
 30
0.0
 10
361.9005291652911
 20
198.6599114527745
 30
0.0
 10
361.9005291652911
 20
195.3584464757581
 30
0.0
 10
361.9005291652911
 20
192.3137525654778
 30
0.0
 10
361.9005291652911
 20
191.1082113065046
 30
0.0
  0
LINE
  5
4F
330
1F
100
AcDbEntity
  8
0
  6
Continuous
 62
     7
370
    15
100
AcDbLine
 10
471.400527556
 20
76.9509071388
 30
0.0
 11
471.400527556
 21
89.9509036817
 31
0.0
  0
LINE
  5
50
330
1F
100
AcDbEntity
  8
0
  6
Continuous
 62
     7
370
    15
100
AcDbLine
 10
296.4005325153
 20
89.9509036817
 30
0.0
 11
296.4005325153
 21
76.9509071388
 31
0.0
  0
ARC
  5
51
330
1F
100
AcDbEntity
  8
0
  6
Continuous
 62
     7
370
    15
100
AcDbCircle
 10
468.4005325628
 20
89.9509048738
 30
0.0
 40
3.0
100
AcDbArc
 50
0.0
 51
90.0
  0
ARC
  5
52
330
1F
100
AcDbEntity
  8
0
  6
Continuous
 62
     7
370
    15
100
AcDbCircle
 10
299.4005325628
 20
89.9509048738
 30
0.0
 40
3.0
100
AcDbArc
 50
90.0
 51
180.0
  0
LINE
  5
53
330
1F
100
AcDbEntity
  8
0
  6
Continuous
 62
     7
370
    15
100
AcDbLine
 10
296.4005325153
 20
412.9509026088
 30
0.0
 11
296.4005325153
 21
409.9509114303
 31
0.0
  0
LINE
  5
54
330
1F
100
AcDbEntity
  8
0
  6
Continuous
 62
     7
370
    15
100
AcDbLine
 10
471.400527556
 20
399.9509060659
 30
0.0
 11
471.400527556
 21
412.9509026088
 31
0.0
  0
ARC
  5
55
330
1F
100
AcDbEntity
  8
0
  6
Continuous
 62
     7
370
    15
100
AcDbCircle
 10
468.4005325628
 20
399.9509048738
 30
0.0
 40
3.0
100
AcDbArc
 50
270.0
 51
0.0
  0
LINE
  5
56
330
1F
100
AcDbEntity
  8
0
  6
Continuous
 62
     7
370
    15
100
AcDbLine
 10
343.9005336654
 20
173.5543304958
 30
0.0
 11
361.9128896785
 21
173.5543304958
 31
0.0
  0
LINE
  5
57
330
1F
100
AcDbEntity
  8
0
  6
Continuous
 62
     7
370
    15
100
AcDbLine
 10
383.9005290461
 20
316.3474792518
 30
0.0
 11
343.9005336654
 21
316.3474792518
 31
0.0
  0
LINE
  5
58
330
1F
100
AcDbEntity
  8
0
  6
Continuous
 62
     7
370
    15
100
AcDbLine
 10
443.9005388808
 20
74.9509030856
 30
0.0
 11
443.9005388808
 21
76.9509071388
 31
0.0
  0
LINE
  5
59
330
1F
100
AcDbEntity
  8
0
  6
Continuous
 62
     7
370
    15
100
AcDbLine
 10
323.9005322498
 20
76.9509071388
 30
0.0
 11
323.9005322498
 21
74.9509030856
 31
0.0
  0
LINE
  5
5A
330
1F
100
AcDbEntity
  8
0
  6
Continuous
 62
     7
370
    15
100
AcDbLine
 10
323.9005322498
 20
414.9509066619
 30
0.0
 11
323.9005322498
 21
412.9509026088
 31
0.0
  0
LINE
  5
5B
330
1F
100
AcDbEntity
  8
0
  6
Continuous
 62
     7
370
    15
100
AcDbLine
 10
443.9005388808
 20
412.9509026088
 30
0.0
 11
443.9005388808
 21
414.9509066619
 31
0.0
  0
ARC
  5
5C
330
1F
100
AcDbEntity
  8
0
  6
Continuous
 62
     7
370
    15
100
AcDbCircle
 10
448.9005325628
 20
268.9509048738
 30
0.0
 40
27.0
100
AcDbArc
 50
0.0
 51
90.0
  0
LINE
  5
5D
330
1F
100
AcDbEntity
  8
0
  6
Continuous
 62
     7
370
    15
100
AcDbLine
 10
349.9394900096
 20
325.4509040989
 30
0.0
 11
343.9005336654
 21
325.4509040989
 31
0.0
  0
LINE
  5
5E
330
1F
100
AcDbEntity
  8
0
  6
Continuous
 62
     7
370
    15
100
AcDbLine
 10
343.9005336654
 20
164.4509056486
 30
0.0
 11
349.9394900096
 21
164.4509056486
 31
0.0
  0
LINE
  5
5F
330
1F
100
AcDbEntity
  8
0
  6
Continuous
 62
     7
370
    15
100
AcDbLine
 10
448.9005341125
 20
295.9509039201
 30
0.0
 11
437.3699112725
 21
295.9509039201
 31
0.0
  0
SPLINE
  5
60
330
1F
100
AcDbEntity
  8
0
  6
Continuous
 62
     7
370
    15
100
AcDbSpline
210
0.0
220
0.0
230
1.0
 70
     8
 71
     3
 72
    16
 73
    12
 74
     0
 42
0.00000001
 43
0.00000001
 12
1.0
 22
0.0
 32
0.0
 13
1.0
 23
0.0
 33
0.0
 40
0.0
 40
0.0
 40
0.0
 40
0.0
 40
0.0437117933784786
 40
0.1916513065276839
 40
0.297174559161906
 40
0.4078149976677196
 40
0.5235042089311179
 40
0.6441353193349015
 40
0.7697083650069212
 40
0.9002234223576165
 40
1.0
 40
1.0
 40
1.0
 40
1.0
 10
471.1863382649653
 20
169.9523398556036
 30
0.0
 10
471.4524869290066
 20
170.944842883271
 30
0.0
 10
472.6193971665354
 20
175.2964031209892
 30
0.0
 10
474.6274383669323
 20
181.9962955614914
 30
0.0
 10
475.9232026087861
 20
190.4931389380032
 30
0.0
 10
475.8937392507731
 20
198.3070190487007
 30
0.0
 10
475.9021825953255
 20
206.4602677387431
 30
0.0
 10
475.8997646136346
 20
214.9690871511416
 30
0.0
 10
475.9004859088541
 20
223.8251531050857
 30
0.0
 10
475.900352747295
 20
232.1913028588407
 30
0.0
 10
475.9004342906339
 20
237.6052488016655
 30
0.0
 10
475.900469620251
 20
239.9509049855393
 30
0.0
  0
SPLINE
  5
61
330
1F
100
AcDbEntity
  8
0
  6
Continuous
 62
     7
370
    15
100
AcDbSpline
210
0.0
220
0.0
230
1.0
 70
     8
 71
     3
 72
    19
 73
    15
 74
     0
 42
0.00000001
 43
0.00000001
 12
1.0
 22
0.0
 32
0.0
 13
1.0
 23
0.0
 33
0.0
 40
0.0
 40
0.0
 40
0.0
 40
0.0
 40
0.031873176505382
 40
0.1654630815008772
 40
0.2805760884337252
 40
0.3774474487246846
 40
0.4561629448213305
 40
0.5167184666170734
 40
0.5740479677790888
 40
0.6463042352697745
 40
0.736753806383934
 40
0.8457334776419854
 40
0.9730167441574026
 40
1.0
 40
1.0
 40
1.0
 40
1.0
 10
438.6460169148677
 20
92.92305949109017
 30
0.0
 10
439.0469684341315
 20
93.25229719535247
 30
0.0
 10
441.1284262988239
 20
94.96146744652972
 30
0.0
 10
444.2403924277003
 20
98.32868428789651
 30
0.0
 10
447.8277023715855
 20
102.6585666196749
 30
0.0
 10
450.535246794921
 20
106.5442607235288
 30
0.0
 10
452.539567673405
 20
109.8244450736278
 30
0.0
 10
454.0701557614214
 20
112.6348227460771
 30
0.0
 10
455.4366092104794
 20
115.4117258580855
 30
0.0
 10
456.8662950068743
 20
118.6956251703991
 30
0.0
 10
458.4103963288788
 20
122.8427376734469
 30
0.0
 10
459.8382819585166
 20
127.9671312799789
 30
0.0
 10
460.9461487689358
 20
132.1040500597298
 30
0.0
 10
461.6021207618781
 20
134.5270846594506
 30
0.0
 10
461.7168589425319
 20
134.950905469827
 30
0.0
  0
SPLINE
  5
62
330
1F
100
AcDbEntity
  8
0
  6
Continuous
 62
     7
370
    15
100
AcDbSpline
210
0.0
220
0.0
230
1.0
 70
     8
 71
     3
 72
    14
 73
    10
 74
     0
 42
0.00000001
 43
0.00000001
 12
1.0
 22
0.0
 32
0.0
 13
1.0
 23
0.0
 33
0.0
 40
0.0
 40
0.0
 40
0.0
 40
0.0
 40
0.065810110554236
 40
0.3083305758496579
 40
0.5151301568208208
 40
0.6461854196414449
 40
0.7683797953880401
 40
0.9033673839245151
 40
1.0
 40
1.0
 40
1.0
 40
1.0
 10
414.543187518143
 20
365.4379391946119
 30
0.0
 10
414.6213877248859
 20
365.8463358768189
 30
0.0
 10
414.9877678232258
 20
367.7597376799691
 30
0.0
 10
415.5907113216409
 20
371.0279987181474
 30
0.0
 10
416.2684388985032
 20
374.7307842256369
 30
0.0
 10
416.7851899214259
 20
377.6610457347321
 30
0.0
 10
417.2514176864991
 20
380.1988740373564
 30
0.0
 10
417.6889989441081
 20
382.3535446047514
 30
0.0
 10
417.9052311438854
 20
383.5052272437471
 30
0.0
 10
417.99544384005
 20
383.9857125558179
 30
0.0
  0
SPLINE
  5
63
330
1F
100
AcDbEntity
  8
0
  6
Continuous
 62
     7
370
    15
100
AcDbSpline
210
0.0
220
0.0
230
1.0
 70
    24
 71
     3
 72
     9
 73
     5
 74
     0
 42
0.00000001
 43
0.00000001
 12
1.0
 22
0.0
 32
0.0
 13
1.0
 23
0.0
 33
0.0
 40
0.0
 40
0.0
 40
0.0
 40
0.0
 40
0.5304559172011223
 40
1.0
 40
1.0
 40
1.0
 40
1.0
 10
361.9005291652911
 20
153.608902720384
 30
0.0
 10
361.9005291652911
 20
152.6851326538906
 30
0.0
 10
361.9005291652911
 20
150.9436683087146
 30
0.0
 10
361.9005291652911
 20
150.0249128193639
 30
0.0
 10
361.9005291652911
 20
149.5935166158002
 30
0.0
  0
LINE
  5
64
330
1F
100
AcDbEntity
  8
0
  6
Continuous
 62
     7
370
    15
100
AcDbLine
 10
296.4005325153
 20
379.9509102382
 30
0.0
 11
326.4005317283
 21
379.9509102382
 31
0.0
  0
LINE
  5
65
330
1F
100
AcDbEntity
  8
0
  6
Continuous
 62
     7
370
    15
100
AcDbLine
 10
344.4005272281
 20
131.9509068407
 30
0.0
 11
344.4005272281
 21
92.9509097614
 31
0.0
  0
LINE
  5
66
330
1F
100
AcDbEntity
  8
0
  6
Continuous
 62
     7
370
    15
100
AcDbLine
 10
349.9005309236
 20
164.4550854244
 30
0.0
 11
349.9005309236
 21
131.9509068407
 31
0.0
  0
LINE
  5
67
330
1F
100
AcDbEntity
  8
0
  6
Continuous
 62
     7
370
    15
100
AcDbLine
 10
349.9005309236
 20
339.2477104344
 30
0.0
 11
349.9005309236
 21
325.4467243232
 31
0.0
  0
ARC
  5
68
330
1F
100
AcDbEntity
  8
0
  6
Continuous
 62
     7
370
    15
100
AcDbCircle
 10
437.3699178556
 20
305.9509048738
 30
0.0
 40
10.00000000000001
100
AcDbArc
 50
165.0
 51
269.9394226515
  0
LWPOLYLINE
  5
69
330
1F
100
AcDbEntity
  8
0
  6
Continuous
 62
     7
370
    15
100
AcDbPolyline
 90
        3
 70
   128
 43
0.0
 10
463.429121573
 20
137.4506646671
 10
467.4871548009
 20
152.4499425568
 10
472.2219689679
 20
169.950663475
  0
LINE
  5
6A
330
1F
100
AcDbEntity
  8
0
  6
Continuous
 62
     7
370
    15
100
AcDbLine
 10
182.4005304766
 20
268.2431371786
 30
0.0
 11
136.4005341125
 21
268.2431371786
 31
0.0
  0
ARC
  5
6B
330
1F
100
AcDbEntity
  8
0
  6
Continuous
 62
     7
370
    15
100
AcDbCircle
 10
136.4005325628
 20
262.6431371855
 30
0.0
 40
5.600000000000023
100
AcDbArc
 50
90.0
 51
180.0
  0
ARC
  5
6C
330
1F
100
AcDbEntity
  8
0
  6
Continuous
 62
     7
370
    15
100
AcDbCircle
 10
182.4005325628
 20
262.6431371855
 30
0.0
 40
5.599999999999994
100
AcDbArc
 50
0.0
 51
90.0
  0
ARC
  5
6D
330
1F
100
AcDbEntity
  8
0
  6
Continuous
 62
     7
370
    15
100
AcDbCircle
 10
118.3472132808
 20
183.9509048738
 30
0.0
 40
8.000000000000028
100
AcDbArc
 50
195.2555633432
 51
270.0
  0
LINE
  5
6E
330
1F
100
AcDbEntity
  8
0
  6
Continuous
 62
     7
370
    15
100
AcDbLine
 10
122.400535543
 20
313.9509031452
 30
0.0
 11
93.4005363775
 21
313.9509031452
 31
0.0
  0
LINE
  5
6F
330
1F
100
AcDbEntity
  8
0
  6
Continuous
 62
     7
370
    15
100
AcDbLine
 10
118.347211082
 20
175.9509066023
 30
0.0
 11
122.400535543
 21
175.9509066023
 31
0.0
  0
ARC
  5
70
330
1F
100
AcDbEntity
  8
0
  6
Continuous
 62
     7
370
    15
100
AcDbCircle
 10
226.4005325628
 20
213.4208928642
 30
0.0
 40
120.0
100
AcDbArc
 50
180.0
 51
195.2555633432
  0
ARC
  5
71
330
1F
100
AcDbEntity
  8
0
  6
Continuous
 62
     7
370
    15
100
AcDbCircle
 10
93.4005325628
 20
310.9509048738
 30
0.0
 40
3.0
100
AcDbArc
 50
90.0
 51
180.0
  0
LINE
  5
72
330
1F
100
AcDbEntity
  8
0
  6
Continuous
 62
     7
370
    15
100
AcDbLine
 10
95.4005255294
 20
221.9509048291
 30
0.0
 11
106.4005329204
 21
221.9509048291
 31
0.0
  0
LINE
  5
73
330
1F
100
AcDbEntity
  8
0
  6
Continuous
 62
     7
370
    15
100
AcDbLine
 10
295.4005324678
 20
313.5509038247
 30
0.0
 11
122.400535543
 21
313.5509038247
 31
0.0
  0
LINE
  5
74
330
1F
100
AcDbEntity
  8
0
  6
Continuous
 62
     7
370
    15
100
AcDbLine
 10
122.400535543
 20
176.3509059228
 30
0.0
 11
295.4005324678
 21
176.3509059228
 31
0.0
  0
LINE
  5
75
330
1F
100
AcDbEntity
  8
0
  6
Continuous
 62
     7
370
    15
100
AcDbLine
 10
297.4005325628
 20
174.9509045758
 30
0.0
 11
335.9005323541
 21
174.9509045758
 31
0.0
  0
LINE
  5
76
330
1F
100
AcDbEntity
  8
0
  6
Continuous
 62
     7
370
    15
100
AcDbLine
 10
335.9005323541
 20
314.9509051718
 30
0.0
 11
297.4005325628
 21
314.9509051718
 31
0.0
  0
LINE
  5
77
330
1F
100
AcDbEntity
  8
0
  6
Continuous
 62
     7
370
    15
100
AcDbLine
 10
295.4005324678
 20
175.9509066023
 30
0.0
 11
297.4005325628
 21
175.9509066023
 31
0.0
  0
LINE
  5
78
330
1F
100
AcDbEntity
  8
0
  6
Continuous
 62
     7
370
    15
100
AcDbLine
 10
297.4005325628
 20
313.9509031452
 30
0.0
 11
295.4005324678
 21
313.9509031452
 31
0.0
  0
LINE
  5
79
330
1F
100
AcDbEntity
  8
0
  6
Continuous
 62
     7
370
    15
100
AcDbLine
 10
335.9005323541
 20
264.9509044267
 30
0.0
 11
314.4005334866
 21
264.9509044267
 31
0.0
  0
LINE
  5
7A
330
1F
100
AcDbEntity
  8
0
  6
Continuous
 62
     7
370
    15
100
AcDbLine
 10
314.4005334866
 20
224.9509053208
 30
0.0
 11
335.9005323541
 21
224.9509053208
 31
0.0
  0
LINE
  5
7B
330
1F
100
AcDbEntity
  8
0
  6
Continuous
 62
     7
370
    15
100
AcDbLine
 10
343.9005336654
 20
316.3474792518
 30
0.0
 11
335.9005323541
 21
316.3474792518
 31
0.0
  0
LINE
  5
7C
330
1F
100
AcDbEntity
  8
0
  6
Continuous
 62
     7
370
    15
100
AcDbLine
 10
335.9005323541
 20
173.5543304958
 30
0.0
 11
343.9005336654
 21
173.5543304958
 31
0.0
  0
LINE
  5
7D
330
1F
100
AcDbEntity
  8
0
  6
Continuous
 62
     7
370
    15
100
AcDbLine
 10
343.9005336654
 20
325.4509040989
 30
0.0
 11
335.9005323541
 21
325.4509040989
 31
0.0
  0
LINE
  5
7E
330
1F
100
AcDbEntity
  8
0
  6
Continuous
 62
     7
370
    15
100
AcDbLine
 10
335.9005323541
 20
164.4509056486
 30
0.0
 11
343.9005336654
 21
164.4509056486
 31
0.0
  0
LINE
  5
7F
330
1F
100
AcDbEntity
  8
0
  6
Continuous
 62
     7
370
    15
100
AcDbLine
 10
314.4005334866
 20
307.6429286875
 30
0.0
 11
335.9005323541
 21
307.6429286875
 31
0.0
  0
LINE
  5
80
330
1F
100
AcDbEntity
  8
0
  6
Continuous
 62
     7
370
    15
100
AcDbLine
 10
335.9005323541
 20
182.2588810601
 30
0.0
 11
314.4005334866
 21
182.2588810601
 31
0.0
  0
LINE
  5
81
330
1F
100
AcDbEntity
  8
0
  6
Continuous
 62
     7
370
    15
100
AcDbLine
 10
274.4005325181
 20
394.9509108342
 30
0.0
 11
274.4005325181
 21
388.4509051122
 31
0.0
  0
LINE
  5
82
330
1F
100
AcDbEntity
  8
0
  6
Continuous
 62
     7
370
    15
100
AcDbLine
 10
280.4005316389
 20
394.9509108342
 30
0.0
 11
274.4005325181
 21
394.9509108342
 31
0.0
  0
LINE
  5
83
330
1F
100
AcDbEntity
  8
0
  6
Continuous
 62
     7
370
    15
100
AcDbLine
 10
280.4005316389
 20
388.4509051122
 30
0.0
 11
280.4005316389
 21
394.9509108342
 31
0.0
  0
LINE
  5
84
330
1F
100
AcDbEntity
  8
0
  6
Continuous
 62
     7
370
    15
100
AcDbLine
 10
280.4005316389
 20
388.4509051122
 30
0.0
 11
274.4005325181
 21
388.4509051122
 31
0.0
  0
LINE
  5
85
330
1F
100
AcDbEntity
  8
0
  6
Continuous
 62
     7
370
    15
100
AcDbLine
 10
293.4005323728
 20
401.4509016551
 30
0.0
 11
293.4005323728
 21
394.9509108342
 31
0.0
  0
LINE
  5
86
330
1F
100
AcDbEntity
  8
0
  6
Continuous
 62
     7
370
    15
100
AcDbLine
 10
293.4005323728
 20
394.9509108342
 30
0.0
 11
282.400532898
 21
394.9509108342
 31
0.0
  0
LINE
  5
87
330
1F
100
AcDbEntity
  8
0
  6
Continuous
 62
     7
370
    15
100
AcDbLine
 10
282.400532898
 20
401.4509016551
 30
0.0
 11
282.400532898
 21
394.9509108342
 31
0.0
  0
LINE
  5
88
330
1F
100
AcDbEntity
  8
0
  6
Continuous
 62
     7
370
    15
100
AcDbLine
 10
293.4005323728
 20
401.4509016551
 30
0.0
 11
282.400532898
 21
401.4509016551
 31
0.0
  0
LINE
  5
89
330
1F
100
AcDbEntity
  8
0
  6
Continuous
 62
     7
370
    15
100
AcDbLine
 10
274.4005325181
 20
401.4509016551
 30
0.0
 11
274.4005325181
 21
394.9509108342
 31
0.0
  0
LINE
  5
8A
330
1F
100
AcDbEntity
  8
0
  6
Continuous
 62
     7
370
    15
100
AcDbLine
 10
280.4005316389
 20
401.4509016551
 30
0.0
 11
274.4005325181
 21
401.4509016551
 31
0.0
  0
LINE
  5
8B
330
1F
100
AcDbEntity
  8
0
  6
Continuous
 62
     7
370
    15
100
AcDbLine
 10
280.4005316389
 20
394.9509108342
 30
0.0
 11
280.4005316389
 21
401.4509016551
 31
0.0
  0
LINE
  5
8C
330
1F
100
AcDbEntity
  8
0
  6
Continuous
 62
     7
370
    15
100
AcDbLine
 10
293.4005323728
 20
388.4509051122
 30
0.0
 11
282.400532898
 21
388.4509051122
 31
0.0
  0
LINE
  5
8D
330
1F
100
AcDbEntity
  8
0
  6
Continuous
 62
     7
370
    15
100
AcDbLine
 10
282.400532898
 20
394.9509108342
 30
0.0
 11
282.400532898
 21
388.4509051122
 31
0.0
  0
LINE
  5
8E
330
1F
100
AcDbEntity
  8
0
  6
Continuous
 62
     7
370
    15
100
AcDbLine
 10
293.4005323728
 20
394.9509108342
 30
0.0
 11
293.4005323728
 21
388.4509051122
 31
0.0
  0
LINE
  5
8F
330
1F
100
AcDbEntity
  8
0
  6
Continuous
 62
     7
370
    15
100
AcDbLine
 10
391.8022721005
 20
243.7009049017
 30
0.0
 11
375.9987934423
 21
243.7009049017
 31
0.0
  0
ARC
  5
90
330
1F
100
AcDbEntity
  8
0
  6
Continuous
 62
     7
370
    15
100
AcDbCircle
 10
383.9005325628
 20
244.9509048738
 30
0.0
 40
8.00000000000004
100
AcDbArc
 50
188.9892993452
 51
351.0107006548
  0
LINE
  5
91
330
1F
100
AcDbEntity
  8
0
  6
Continuous
 62
     7
370
    15
100
AcDbLine
 10
375.9987934423
 20
246.2009048458
 30
0.0
 11
391.8022721005
 21
246.2009048458
 31
0.0
  0
ARC
  5
92
330
1F
100
AcDbEntity
  8
0
  6
Continuous
 62
     7
370
    15
100
AcDbCircle
 10
383.9005325628
 20
244.9509048738
 30
0.0
 40
8.00000000000004
100
AcDbArc
 50
8.9892993452
 51
171.0107006548
  0
ARC
  5
93
330
1F
100
AcDbEntity
  8
0
  6
Continuous
 62
     7
370
    15
100
AcDbCircle
 10
383.9005325628
 20
244.9509048738
 30
0.0
 40
8.00000000000004
100
AcDbArc
 50
171.0107006548
 51
188.9892993452
  0
ARC
  5
94
330
1F
100
AcDbEntity
  8
0
  6
Continuous
 62
     7
370
    15
100
AcDbCircle
 10
383.9005325628
 20
244.9509048738
 30
0.0
 40
7.999999999999985
100
AcDbArc
 50
351.0107006548
 51
8.9892993452
  0
CIRCLE
  5
95
330
1F
100
AcDbEntity
  8
0
  6
Continuous
 62
     7
370
    15
100
AcDbCircle
 10
383.9005325628
 20
244.9509048738
 30
0.0
 40
11.5
  0
LWPOLYLINE
  5
96
330
1F
100
AcDbEntity
  8
0
  6
Continuous
 62
     7
370
    15
100
AcDbPolyline
 90
        8
 70
   128
 43
0.0
 10
373.9005311322
 20
323.7762967028
 10
371.4919297886
 20
323.5649162807
 10
369.0841554594
 20
322.9025820174
 10
366.8577580643
 20
321.7984804787
 10
364.9781032396
 20
320.3332418479
 10
363.5469435644
 20
318.6382124104
 10
362.5863998127
 20
316.8465265908
 10
362.4503969145
 20
316.3474792518
  0
LWPOLYLINE
  5
97
330
1F
100
AcDbEntity
  8
0
  6
Continuous
 62
     7
370
    15
100
AcDbPolyline
 90
        8
 70
   128
 43
0.0
 10
405.7268186403
 20
315.1462593951
 10
405.21466573
 20
316.8465265908
 10
404.2541219783
 20
318.6382124104
 10
402.8229623032
 20
320.3332418479
 10
400.9433074785
 20
321.7984804787
 10
398.7169026327
 20
322.9025820174
 10
396.3091357541
 20
323.5649162807
 10
393.9005344105
 20
323.7762967028
  0
SPLINE
  5
98
330
1F
100
AcDbEntity
  8
0
  6
Continuous
 62
     7
370
    15
100
AcDbSpline
210
0.0
220
0.0
230
1.0
 70
     8
 71
     3
 72
    27
 73
    23
 74
     0
 42
0.00000001
 43
0.00000001
 12
1.0
 22
0.0
 32
0.0
 13
1.0
 23
0.0
 33
0.0
 40
0.0
 40
0.0
 40
0.0
 40
0.0
 40
0.0443935165967707
 40
0.0887871086921381
 40
0.1340867072240066
 40
0.1793868211895991
 40
0.223777190836184
 40
0.2681675958667964
 40
0.3134457462142003
 40
0.3587238773531346
 40
0.4118135773799742
 40
0.4649032896367849
 40
0.5195353842457592
 40
0.5741674828997905
 40
0.6272572032467436
 40
0.680346923613738
 40
0.7349790164195632
 40
0.7896111088493281
 40
0.8414903852733263
 40
0.8933696776509706
 40
0.9466848614631701
 40
1.0
 40
1.0
 40
1.0
 40
1.0
 10
405.7268186402553
 20
315.1462519444746
 30
0.0
 10
405.7583789659187
 20
314.1770307457808
 30
0.0
 10
405.821499670919
 20
312.2385867000708
 30
0.0
 10
405.8758289038954
 20
308.8893725008552
 30
0.0
 10
405.8995112059426
 20
305.222075731975
 30
0.0
 10
405.9007955223676
 20
301.2465196344198
 30
0.0
 10
405.9004581547738
 20
297.022080780795
 30
0.0
 10
405.9005483055804
 20
292.5456920135735
 30
0.0
 10
405.9005237187725
 20
287.8034264517268
 30
0.0
 10
405.9005305926354
 20
282.5288196622382
 30
0.0
 10
405.900528451393
 20
276.7351528597148
 30
0.0
 10
405.9005290584128
 20
270.3633553302977
 30
0.0
 10
405.9005288911669
 20
263.7473044070357
 30
0.0
 10
405.900528936139
 20
256.9958004022611
 30
0.0
 10
405.900528924422
 20
250.2233754905234
 30
0.0
 10
405.9005289275506
 20
243.414397578792
 30
0.0
 10
405.9005289266884
 20
236.5504164171877
 30
0.0
 10
405.9005289269192
 20
229.7980606209956
 30
0.0
 10
405.9005289268604
 20
223.2656821510534
 30
0.0
 10
405.9005289268759
 20
216.9364414482775
 30
0.0
 10
405.9005289268717
 20
210.7205538791495
 30
0.0
 10
405.9005289268723
 20
206.7475780982548
 30
0.0
 10
405.9005289268725
 20
204.7610910512727
 30
0.0
  0
LWPOLYLINE
  5
99
330
1F
100
AcDbEntity
  8
0
  6
Continuous
 62
     7
370
    15
100
AcDbPolyline
 90
       23
 70
   128
 43
0.0
 10
405.9005289269
 20
204.7610910513
 10
405.9005289269
 20
203.1570667304
 10
405.9005289269
 20
201.5396462657
 10
405.8191685868
 20
199.9016249456
 10
404.935350914
 20
198.2533628024
 10
403.4422843647
 20
196.9837503411
 10
401.3185112667
 20
195.9158064701
 10
398.7022845936
 20
195.1392659821
 10
395.7929595304
 20
194.7174327351
 10
391.8243779731
 20
194.6427518405
 10
387.8624572349
 20
194.6427518405
 10
383.9005290461
 20
194.6427518405
 10
380.9290884924
 20
194.6427518405
 10
377.9576479388
 20
194.6427518405
 10
374.9862073851
 20
194.6427518405
 10
372.0081060124
 20
194.7174327351
 10
369.0987734986
 20
195.1392659821
 10
366.482554276
 20
195.9158064701
 10
364.358781178
 20
196.9837503411
 10
362.8657146287
 20
198.2533628024
 10
362.059368093
 20
199.6281327583
 10
361.9005291653
 20
201.0041655876
 10
361.9005291653
 20
201.0041655876
  0
SPLINE
  5
9A
330
1F
100
AcDbEntity
  8
0
  6
Continuous
 62
     7
370
    15
100
AcDbSpline
210
0.0
220
0.0
230
1.0
 70
     8
 71
     3
 72
    12
 73
     8
 74
     0
 42
0.00000001
 43
0.00000001
 12
1.0
 22
0.0
 32
0.0
 13
1.0
 23
0.0
 33
0.0
 40
0.0
 40
0.0
 40
0.0
 40
0.0
 40
0.2519150580213111
 40
0.4483464337620472
 40
0.6508719926149201
 40
0.8694246566250872
 40
0.9999999999999999
 40
0.9999999999999999
 40
0.9999999999999999
 40
0.9999999999999999
 10
365.6077443552249
 20
301.3266654588502
 30
0.0
 10
365.0263307360343
 20
300.898886415887
 30
0.0
 10
363.9915584411493
 20
300.1375456296029
 30
0.0
 10
362.9173777217725
 20
298.798728130284
 30
0.0
 10
362.2089396234585
 20
297.4346799912357
 30
0.0
 10
361.8936545668579
 20
296.1481170564171
 30
0.0
 10
361.9066127514722
 20
295.3284987682238
 30
0.0
 10
361.9114591670268
 20
295.0219580807012
 30
0.0
  0
SPLINE
  5
9B
330
1F
100
AcDbEntity
  8
0
  6
Continuous
 62
     7
370
    15
100
AcDbSpline
210
0.0
220
0.0
230
1.0
 70
     8
 71
     3
 72
    11
 73
     7
 74
     0
 42
0.00000001
 43
0.00000001
 12
1.0
 22
0.0
 32
0.0
 13
1.0
 23
0.0
 33
0.0
 40
0.0
 40
0.0
 40
0.0
 40
0.0
 40
0.0565670766086219
 40
0.1992259267629099
 40
0.6152385010655839
 40
1.0
 40
1.0
 40
1.0
 40
1.0
 10
371.2879477930301
 20
305.3978899397176
 30
0.0
 10
371.2249309324223
 20
305.3015017914194
 30
0.0
 10
371.0029892446249
 20
304.9620283852446
 30
0.0
 10
369.7764679810643
 20
304.1217395462545
 30
0.0
 10
367.8500240561077
 20
302.8439174491129
 30
0.0
 10
366.335468532376
 20
301.8190843821943
 30
0.0
 10
365.6077443552249
 20
301.3266654588502
 30
0.0
  0
SPLINE
  5
9C
330
1F
100
AcDbEntity
  8
0
  6
Continuous
 62
     7
370
    15
100
AcDbSpline
210
0.0
220
0.0
230
1.0
 70
     8
 71
     3
 72
    16
 73
    12
 74
     0
 42
0.00000001
 43
0.00000001
 12
1.0
 22
0.0
 32
0.0
 13
1.0
 23
0.0
 33
0.0
 40
0.0
 40
0.0
 40
0.0
 40
0.0
 40
0.3067694201386925
 40
0.5147876126362106
 40
0.6195984769713434
 40
0.6715096480085763
 40
0.6934105363056919
 40
0.7224647194206774
 40
0.7764949762046134
 40
0.9638441896786137
 40
1.0
 40
1.0
 40
1.0
 40
1.0
 10
383.9005290460818
 20
308.312266496591
 30
0.0
 10
382.376764135298
 20
308.3102649855044
 30
0.0
 10
379.8197449243003
 20
308.3069062637861
 30
0.0
 10
376.7427169060744
 20
308.3232150710998
 30
0.0
 10
374.9302930943534
 20
308.2967824240798
 30
0.0
 10
374.0441546307826
 20
308.3330654233235
 30
0.0
 10
373.5316036708699
 20
308.278139612964
 30
0.0
 10
373.0814299647014
 20
308.066341569176
 30
0.0
 10
372.2138632839054
 20
307.3007718589284
 30
0.0
 10
371.7002581859375
 20
306.3241364684776
 30
0.0
 10
371.3453589016796
 20
305.5268627742947
 30
0.0
 10
371.2879477930301
 20
305.3978899397176
 30
0.0
  0
SPLINE
  5
9D
330
1F
100
AcDbEntity
  8
0
  6
Continuous
 62
     7
370
    15
100
AcDbSpline
210
0.0
220
0.0
230
1.0
 70
     8
 71
     3
 72
    21
 73
    17
 74
     0
 42
0.00000001
 43
0.00000001
 12
1.0
 22
0.0
 32
0.0
 13
1.0
 23
0.0
 33
0.0
 40
0.0
 40
0.0
 40
0.0
 40
0.0
 40
0.0243320494862346
 40
0.1015019157519334
 40
0.1800637581983119
 40
0.2795834454311835
 40
0.366928953879775
 40
0.4564583424663961
 40
0.5416266767353497
 40
0.614165923768577
 40
0.6620333379526141
 40
0.7102623062876731
 40
0.760753492836163
 40
0.8216914032306861
 40
0.9236089221544322
 40
1.0
 40
1.0
 40
1.0
 40
1.0
 10
405.9005289268725
 20
157.659053234033
 30
0.0
 10
405.9004492847819
 20
157.511802312434
 30
0.0
 10
405.9001170552759
 20
156.8975404251649
 30
0.0
 10
405.9069034472834
 20
155.7220646948321
 30
0.0
 10
405.5779186252959
 20
153.7287933608767
 30
0.0
 10
405.0418466984772
 20
151.7786449269203
 30
0.0
 10
404.3788548768211
 20
149.9365616167047
 30
0.0
 10
403.7150517385975
 20
148.3618895456748
 30
0.0
 10
403.0283146372957
 20
146.9567499725506
 30
0.0
 10
402.1224360759468
 20
145.7379536684271
 30
0.0
 10
401.1558536028894
 20
144.8278686776661
 30
0.0
 10
400.2166331768576
 20
144.2787396942024
 30
0.0
 10
399.1368272872924
 20
143.7486451905697
 30
0.0
 10
397.6457432663961
 20
143.0116708686483
 30
0.0
 10
396.070004268801
 20
142.3095877486845
 30
0.0
 10
395.046996961661
 20
141.9154198721678
 30
0.0
 10
394.6087195468181
 20
141.7465502299589
 30
0.0
  0
SPLINE
  5
9E
330
1F
100
AcDbEntity
  8
0
  6
Continuous
 62
     7
370
    15
100
AcDbSpline
210
0.0
220
0.0
230
1.0
 70
     8
 71
     3
 72
     9
 73
     5
 74
     0
 42
0.00000001
 43
0.00000001
 12
1.0
 22
0.0
 32
0.0
 13
1.0
 23
0.0
 33
0.0
 40
0.0
 40
0.0
 40
0.0
 40
0.0
 40
0.5000032555737768
 40
0.9999999999999999
 40
0.9999999999999999
 40
0.9999999999999999
 40
0.9999999999999999
 10
394.6087195468181
 20
141.7465502299589
 30
0.0
 10
393.4073632820071
 20
141.738062765843
 30
0.0
 10
391.0046663966989
 20
141.7210879481366
 30
0.0
 10
388.6019076766838
 20
141.7244828851518
 30
0.0
 10
387.4005361390346
 20
141.7261803426069
 30
0.0
  0
LINE
  5
9F
330
1F
100
AcDbEntity
  8
0
  6
Continuous
 62
     7
370
    15
100
AcDbLine
 10
387.400536139
 20
145.4117813982
 30
0.0
 11
380.4005294037
 21
145.4117813982
 31
0.0
  0
SPLINE
  5
A0
330
1F
100
AcDbEntity
  8
0
  6
Continuous
 62
     7
370
    15
100
AcDbSpline
210
0.0
220
0.0
230
1.0
 70
     8
 71
     3
 72
    16
 73
    12
 74
     0
 42
0.00000001
 43
0.00000001
 12
1.0
 22
0.0
 32
0.0
 13
1.0
 23
0.0
 33
0.0
 40
0.0
 40
0.0
 40
0.0
 40
0.0
 40
0.1041430024732257
 40
0.2082862825338045
 40
0.3123843407395567
 40
0.4599059404293306
 40
0.6075185187466045
 40
0.7546095671761405
 40
0.8766220859557865
 40
0.9979354876761041
 40
1.0
 40
1.0
 40
1.0
 40
1.0
 10
380.4005294037097
 20
141.7261803426069
 30
0.0
 10
379.4685513203634
 20
141.7267194996952
 30
0.0
 10
377.6045926695351
 20
141.7277978153088
 30
0.0
 10
374.8131677184708
 20
141.7197116022685
 30
0.0
 10
371.6154004785894
 20
141.7546965279763
 30
0.0
 10
368.158920705471
 20
142.9012326840892
 30
0.0
 10
364.9622195554684
 20
145.2587863673706
 30
0.0
 10
362.8723955179315
 20
148.3158880369235
 30
0.0
 10
361.8630823029677
 20
151.596229181025
 30
0.0
 10
361.9006368458412
 20
153.7298770520824
 30
0.0
 10
361.9005309374812
 20
154.7948868631502
 30
0.0
 10
361.9005291652911
 20
154.8127079285902
 30
0.0
  0
SPLINE
  5
A1
330
1F
100
AcDbEntity
  8
0
  6
Continuous
 62
     7
370
    15
100
AcDbSpline
210
0.0
220
0.0
230
1.0
 70
     8
 71
     3
 72
    10
 73
     6
 74
     0
 42
0.00000001
 43
0.00000001
 12
1.0
 22
0.0
 32
0.0
 13
1.0
 23
0.0
 33
0.0
 40
0.0
 40
0.0
 40
0.0
 40
0.0
 40
0.4761991435362696
 40
0.9523223768706869
 40
1.0
 40
1.0
 40
1.0
 40
1.0
 10
361.9771881890529
 20
174.2744440116209
 30
0.0
 10
361.9712893753871
 20
174.0871771789433
 30
0.0
 10
361.9594926883767
 20
173.7126733655174
 30
0.0
 10
361.9177927711007
 20
173.5101472635964
 30
0.0
 10
361.9132987364265
 20
173.5646506099263
 30
0.0
 10
361.9128896785014
 20
173.5696116365713
 30
0.0
  0
SPLINE
  5
A2
330
1F
100
AcDbEntity
  8
0
  6
Continuous
 62
     7
370
    15
100
AcDbSpline
210
0.0
220
0.0
230
1.0
 70
     8
 71
     3
 72
     9
 73
     5
 74
     0
 42
0.00000001
 43
0.00000001
 12
1.0
 22
0.0
 32
0.0
 13
1.0
 23
0.0
 33
0.0
 40
0.0
 40
0.0
 40
0.0
 40
0.0
 40
0.4984816048670094
 40
1.0
 40
1.0
 40
1.0
 40
1.0
 10
362.1423377585643
 20
184.5039198078435
 30
0.0
 10
362.1100088247798
 20
182.7048338140867
 30
0.0
 10
362.0451540067308
 20
179.0957016491459
 30
0.0
 10
361.9998892814379
 20
175.8847801891407
 30
0.0
 10
361.9771881890529
 20
174.2744440116209
 30
0.0
  0
SPLINE
  5
A3
330
1F
100
AcDbEntity
  8
0
  6
Continuous
 62
     7
370
    15
100
AcDbSpline
210
0.0
220
0.0
230
1.0
 70
     8
 71
     3
 72
    12
 73
     8
 74
     0
 42
0.00000001
 43
0.00000001
 12
1.0
 22
0.0
 32
0.0
 13
1.0
 23
0.0
 33
0.0
 40
0.0
 40
0.0
 40
0.0
 40
0.0
 40
0.2231534567200715
 40
0.4462198567899619
 40
0.672058075579445
 40
0.8988169299554383
 40
1.0
 40
1.0
 40
1.0
 40
1.0
 10
361.9005291652911
 20
188.5751442887109
 30
0.0
 10
361.905862990663
 20
188.3160320428771
 30
0.0
 10
361.9165285605741
 20
187.7979086361062
 30
0.0
 10
362.0095104879195
 20
186.8089575758843
 30
0.0
 10
362.1016853496907
 20
185.7954275519453
 30
0.0
 10
362.1455666236918
 20
185.0087535607903
 30
0.0
 10
362.1430990903222
 20
184.622954190935
 30
0.0
 10
362.1423377585643
 20
184.5039198078435
 30
0.0
  0
LINE
  5
A4
330
1F
100
AcDbEntity
  8
0
  6
Continuous
 62
     7
370
    15
100
AcDbLine
 10
361.9005291653
 20
191.1082113065
 30
0.0
 11
361.9005291653
 21
188.5751442887
 31
0.0
  0
LINE
  5
A5
330
1F
100
AcDbEntity
  8
0
  6
Continuous
 62
     7
370
    15
100
AcDbLine
 10
471.400527556
 20
76.9509071388
 30
0.0
 11
296.4005325153
 21
76.9509071388
 31
0.0
  0
LINE
  5
A6
330
1F
100
AcDbEntity
  8
0
  6
Continuous
 62
     7
370
    15
100
AcDbLine
 10
299.4005326578
 20
92.9509097614
 30
0.0
 11
468.4005363775
 21
92.9509097614
 31
0.0
  0
SPLINE
  5
A7
330
1F
100
AcDbEntity
  8
0
  6
Continuous
 62
     7
370
    15
100
AcDbSpline
210
0.0
220
0.0
230
1.0
 70
     8
 71
     3
 72
    14
 73
    10
 74
     0
 42
0.00000001
 43
0.00000001
 12
1.0
 22
0.0
 32
0.0
 13
1.0
 23
0.0
 33
0.0
 40
0.0
 40
0.0
 40
0.0
 40
0.0
 40
0.1336948381187618
 40
0.2713013020581005
 40
0.4049866750188466
 40
0.542483585142758
 40
0.6773671059493304
 40
0.8161100849542439
 40
1.0
 40
1.0
 40
1.0
 40
1.0
 10
296.4005325152584
 20
409.9509114302915
 30
0.0
 10
296.407333026683
 20
409.9114886075818
 30
0.0
 10
296.4211330179924
 20
409.8314895344505
 30
0.0
 10
296.5292985359119
 20
409.1884867398311
 30
0.0
 10
296.6903480415161
 20
408.1724873482881
 30
0.0
 10
296.8914148405123
 20
406.7907915102493
 30
0.0
 10
297.1108208187414
 20
405.0591161140472
 30
0.0
 10
297.3531415934855
 20
402.8266734505183
 30
0.0
 10
297.4791384095579
 20
400.9949352992205
 30
0.0
 10
297.550952363531
 20
399.9509060658735
 30
0.0
  0
LINE
  5
A8
330
1F
100
AcDbEntity
  8
0
  6
Continuous
 62
     7
370
    15
100
AcDbLine
 10
471.400527556
 20
412.9509026088
 30
0.0
 11
296.4005325153
 21
412.9509026088
 31
0.0
  0
LINE
  5
A9
330
1F
100
AcDbEntity
  8
0
  6
Continuous
 62
     7
370
    15
100
AcDbLine
 10
468.4005363775
 20
396.9508999862
 30
0.0
 11
300.7185033453
 21
396.9508999862
 31
0.0
  0
SPLINE
  5
AA
330
1F
100
AcDbEntity
  8
0
  6
Continuous
 62
     7
370
    15
100
AcDbSpline
210
0.0
220
0.0
230
1.0
 70
     8
 71
     3
 72
    12
 73
     8
 74
     0
 42
0.00000001
 43
0.00000001
 12
1.0
 22
0.0
 32
0.0
 13
1.0
 23
0.0
 33
0.0
 40
0.0
 40
0.0
 40
0.0
 40
0.0
 40
0.181147709519893
 40
0.4103266201848337
 40
0.6343764012999
 40
0.853763289964686
 40
0.9999999999999999
 40
0.9999999999999999
 40
0.9999999999999999
 40
0.9999999999999999
 10
297.550952363531
 20
399.9509060658735
 30
0.0
 10
297.5891072839456
 20
399.673249275927
 30
0.0
 10
297.6755338779037
 20
399.0443151729676
 30
0.0
 10
298.1777818088766
 20
398.1393056025025
 30
0.0
 10
298.9888943465762
 20
397.4014554572124
 30
0.0
 10
299.8876223754608
 20
397.0077112858659
 30
0.0
 10
300.4811235418731
 20
396.9671307769335
 30
0.0
 10
300.7185033452743
 20
396.9508999861997
 30
0.0
  0
SPLINE
  5
AB
330
1F
100
AcDbEntity
  8
0
  6
Continuous
 62
     7
370
    15
100
AcDbSpline
210
0.0
220
0.0
230
1.0
 70
     8
 71
     3
 72
    11
 73
     7
 74
     0
 42
0.00000001
 43
0.00000001
 12
1.0
 22
0.0
 32
0.0
 13
1.0
 23
0.0
 33
0.0
 40
0.0
 40
0.0
 40
0.0
 40
0.0
 40
0.2783188750112747
 40
0.56073268483807
 40
0.7793707321912283
 40
1.0
 40
1.0
 40
1.0
 40
1.0
 10
404.615676302933
 20
325.5437755860609
 30
0.0
 10
404.734406919297
 20
325.1432854764024
 30
0.0
 10
404.9736150480434
 20
324.3364128040735
 30
0.0
 10
405.2916652430916
 20
321.836142299944
 30
0.0
 10
405.5517236932845
 20
318.7846507352219
 30
0.0
 10
405.6680047673573
 20
316.362686334243
 30
0.0
 10
405.7264088583224
 20
315.1462146915716
 30
0.0
  0
SPLINE
  5
AC
330
1F
100
AcDbEntity
  8
0
  6
Continuous
 62
     7
370
    15
100
AcDbSpline
210
0.0
220
0.0
230
1.0
 70
     8
 71
     3
 72
     9
 73
     5
 74
     0
 42
0.00000001
 43
0.00000001
 12
1.0
 22
0.0
 32
0.0
 13
1.0
 23
0.0
 33
0.0
 40
0.0
 40
0.0
 40
0.0
 40
0.0
 40
0.4942100336301402
 40
0.9999999999999999
 40
0.9999999999999999
 40
0.9999999999999999
 40
0.9999999999999999
 10
404.615676302933
 20
325.5437755860609
 30
0.0
 10
404.6254120827578
 20
325.6036370404874
 30
0.0
 10
404.6451117633839
 20
325.7247625748818
 30
0.0
 10
404.9585065049316
 20
325.8212889461358
 30
0.0
 10
405.1170184207194
 20
325.8701110162061
 30
0.0
  0
LINE
  5
AD
330
1F
100
AcDbEntity
  8
0
  6
Continuous
 62
     7
370
    15
100
AcDbLine
 10
405.9005289269
 20
325.9469414033
 30
0.0
 11
405.1170184207
 21
325.8701110162
 31
0.0
  0
LINE
  5
AE
330
1F
100
AcDbEntity
  8
0
  6
Continuous
 62
     7
370
    15
100
AcDbLine
 10
405.9005289269
 20
204.7610910513
 30
0.0
 11
405.9005289269
 21
325.9469414033
 31
0.0
  0
LINE
  5
AF
330
1F
100
AcDbEntity
  8
0
  6
Continuous
 62
     7
370
    15
100
AcDbLine
 10
412.3082294059
 20
239.9509049855
 30
0.0
 11
412.7394541097
 21
233.3590103217
 31
0.0
  0
LINE
  5
B0
330
1F
100
AcDbEntity
  8
0
  6
Continuous
 62
     7
370
    15
100
AcDbLine
 10
412.7394541097
 20
204.7721998669
 30
0.0
 11
412.7394541097
 21
233.3590103217
 31
0.0
  0
SPLINE
  5
B1
330
1F
100
AcDbEntity
  8
0
  6
Continuous
 62
     7
370
    15
100
AcDbSpline
210
0.0
220
0.0
230
1.0
 70
     8
 71
     3
 72
    25
 73
    21
 74
     0
 42
0.00000001
 43
0.00000001
 12
1.0
 22
0.0
 32
0.0
 13
1.0
 23
0.0
 33
0.0
 40
0.0
 40
0.0
 40
0.0
 40
0.0
 40
0.1129289725920319
 40
0.2259329459834628
 40
0.2823759243913339
 40
0.3105845910234046
 40
0.3246864289906941
 40
0.331759038933443
 40
0.3346030344909269
 40
0.3374741497425049
 40
0.3390583474398375
 40
0.3406484569368173
 40
0.3426097422675585
 40
0.3507824119939877
 40
0.3832632481791844
 40
0.4485529672023902
 40
0.5138979760841729
 40
0.6756272332990751
 40
0.8378640477998027
 40
1.0
 40
1.0
 40
1.0
 40
1.0
 10
412.7394541096919
 20
204.7721998669427
 30
0.0
 10
412.6635464043787
 20
203.5817925581795
 30
0.0
 10
412.5116805803071
 20
201.2001873419455
 30
0.0
 10
412.306797927337
 20
198.686575781616
 30
0.0
 10
412.1801958899684
 20
197.2139642279741
 30
0.0
 10
412.1194183666889
 20
196.5511122853339
 30
0.0
 10
412.0950721965851
 20
196.2633970968477
 30
0.0
 10
412.0718478785296
 20
196.0730026796002
 30
0.0
 10
412.0518971721891
 20
195.938457378037
 30
0.0
 10
412.0358076663478
 20
195.8413704343657
 30
0.0
 10
412.0181624439823
 20
195.745723089075
 30
0.0
 10
412.0015666690426
 20
195.6622274656972
 30
0.0
 10
411.9659605287854
 20
195.4976671406439
 30
0.0
 10
411.8563297396325
 20
195.034285101662
 30
0.0
 10
411.5552507820727
 20
193.7020195134701
 30
0.0
 10
411.0806257973294
 20
191.5969370500733
 30
0.0
 10
410.1889714804445
 20
187.5416752695714
 30
0.0
 10
408.9745305578609
 20
181.8860722565525
 30
0.0
 10
407.438505205564
 20
174.5573682812582
 30
0.0
 10
406.4130814027463
 20
169.5462765514252
 30
0.0
 10
405.9005289268725
 20
167.0415097750944
 30
0.0
  0
LINE
  5
B2
330
1F
100
AcDbEntity
  8
0
  6
Continuous
 62
     7
370
    15
100
AcDbLine
 10
411.8842392159
 20
295.6534692921
 30
0.0
 11
405.9005289269
 21
325.9469414033
 31
0.0
  0
SPLINE
  5
B3
330
1F
100
AcDbEntity
  8
0
  6
Continuous
 62
     7
370
    15
100
AcDbSpline
210
0.0
220
0.0
230
1.0
 70
     8
 71
     3
 72
    19
 73
    15
 74
     0
 42
0.00000001
 43
0.00000001
 12
1.0
 22
0.0
 32
0.0
 13
1.0
 23
0.0
 33
0.0
 40
0.0
 40
0.0
 40
0.0
 40
0.0
 40
0.0876289744566001
 40
0.1752579442717007
 40
0.2575798521301018
 40
0.3401642457632406
 40
0.4224861689546869
 40
0.5048096839519931
 40
0.587395728172277
 40
0.6697192831611971
 40
0.7520453320702201
 40
0.8346338928639012
 40
0.9169599759407562
 40
1.0
 40
1.0
 40
1.0
 40
1.0
 10
412.2429250669711
 20
249.9509047620219
 30
0.0
 10
412.2407460903925
 20
251.9668575863506
 30
0.0
 10
412.2363881373507
 20
255.9987631282279
 30
0.0
 10
412.2228598937647
 20
261.7531164528615
 30
0.0
 10
412.2047873675113
 20
267.1701296124702
 30
0.0
 10
412.1823987853709
 20
272.1933029201752
 30
0.0
 10
412.1557740421154
 20
276.8779726928758
 30
0.0
 10
412.1250851702359
 20
281.1495027482461
 30
0.0
 10
412.0909371246669
 20
284.9686341703478
 30
0.0
 10
412.0537308348229
 20
288.2882437174908
 30
0.0
 10
412.0139361073565
 20
291.0504416216596
 30
0.0
 10
411.9721108240891
 20
293.2249595322864
 30
0.0
 10
411.9287368625859
 20
294.8458498489439
 30
0.0
 10
411.8991143948229
 20
295.3834890880356
 30
0.0
 10
411.884239215874
 20
295.6534692920965
 30
0.0
  0
SPLINE
  5
B4
330
1F
100
AcDbEntity
  8
0
  6
Continuous
 62
     7
370
    15
100
AcDbSpline
210
0.0
220
0.0
230
1.0
 70
     8
 71
     3
 72
    12
 73
     8
 74
     0
 42
0.00000001
 43
0.00000001
 12
1.0
 22
0.0
 32
0.0
 13
1.0
 23
0.0
 33
0.0
 40
0.0
 40
0.0
 40
0.0
 40
0.0
 40
0.2074891453215057
 40
0.4148302926342823
 40
0.6263133697137975
 40
0.8469669075852863
 40
1.0
 40
1.0
 40
1.0
 40
1.0
 10
406.100852687382
 20
248.0228372287226
 30
0.0
 10
406.1048764180541
 20
248.2394077689502
 30
0.0
 10
406.1129210093486
 20
248.6723943738128
 30
0.0
 10
406.1765875670195
 20
249.2421518289653
 30
0.0
 10
406.2717423173553
 20
249.6770794290704
 30
0.0
 10
406.3810467861286
 20
249.9153647368013
 30
0.0
 10
406.4563547756352
 20
249.9405789668606
 30
0.0
 10
406.4871950936549
 20
249.9509047620219
 30
0.0
  0
LINE
  5
B5
330
1F
100
AcDbEntity
  8
0
  6
Continuous
 62
     7
370
    15
100
AcDbLine
 10
406.1125202966
 20
244.9509048738
 30
0.0
 11
406.1008526874
 21
248.0228372287
 31
0.0
  0
SPLINE
  5
B6
330
1F
100
AcDbEntity
  8
0
  6
Continuous
 62
     7
370
    15
100
AcDbSpline
210
0.0
220
0.0
230
1.0
 70
     8
 71
     3
 72
     9
 73
     5
 74
     0
 42
0.00000001
 43
0.00000001
 12
1.0
 22
0.0
 32
0.0
 13
1.0
 23
0.0
 33
0.0
 40
0.0
 40
0.0
 40
0.0
 40
0.0
 40
0.1891513527191422
 40
1.0
 40
1.0
 40
1.0
 40
1.0
 10
406.100852687382
 20
241.8789725188386
 30
0.0
 10
406.1022560914566
 20
242.0726559123514
 30
0.0
 10
406.1096755682638
 20
243.0966157769174
 30
0.0
 10
406.1112465048174
 20
244.1206047776813
 30
0.0
 10
406.1125202965968
 20
244.9509048737812
 30
0.0
  0
SPLINE
  5
B7
330
1F
100
AcDbEntity
  8
0
  6
Continuous
 62
     7
370
    15
100
AcDbSpline
210
0.0
220
0.0
230
1.0
 70
     8
 71
     3
 72
    12
 73
     8
 74
     0
 42
0.00000001
 43
0.00000001
 12
1.0
 22
0.0
 32
0.0
 13
1.0
 23
0.0
 33
0.0
 40
0.0
 40
0.0
 40
0.0
 40
0.0
 40
0.2329805178183209
 40
0.4661638563212467
 40
0.6933146324052561
 40
0.9100163613558788
 40
1.0
 40
1.0
 40
1.0
 40
1.0
 10
406.4871950936549
 20
239.9509049855393
 30
0.0
 10
406.4402159776594
 20
239.974503006828
 30
0.0
 10
406.3462168481008
 20
240.0217195926116
 30
0.0
 10
406.2253256211078
 20
240.3924493827295
 30
0.0
 10
406.1396735318733
 20
240.9326974543496
 30
0.0
 10
406.1041958143912
 20
241.466141119216
 30
0.0
 10
406.1016110696303
 20
241.7853224708129
 30
0.0
 10
406.100852687382
 20
241.8789725188386
 30
0.0
  0
LINE
  5
B8
330
1F
100
AcDbEntity
  8
0
  6
Continuous
 62
     7
370
    15
100
AcDbLine
 10
361.9005291653
 20
195.5407814957
 30
0.0
 11
343.9005336654
 21
195.5407814957
 31
0.0
  0
LINE
  5
B9
330
1F
100
AcDbEntity
  8
0
  6
Continuous
 62
     7
370
    15
100
AcDbLine
 10
361.9005291653
 20
294.3610282518
 30
0.0
 11
343.9005336654
 21
294.3610282518
 31
0.0
  0
LINE
  5
BA
330
1F
100
AcDbEntity
  8
0
  6
Continuous
 62
     7
370
    15
100
AcDbLine
 10
343.9005336654
 20
287.886138437
 30
0.0
 11
343.9005336654
 21
202.0156713106
 31
0.0
  0
ELLIPSE
  5
BB
330
1F
100
AcDbEntity
  8
0
  6
Continuous
 62
     7
370
    15
100
AcDbEllipse
 10
388.0860224002
 20
241.9509048738
 30
0.0
 11
-18.02649671414582
 21
0.0
 31
0.0
210
0.0
220
7.105427357601002E-15
230
1.0
 40
0.1109477916
 41
3.105618686772763
 42
3.141592653588948
  0
ELLIPSE
  5
BC
330
1F
100
AcDbEntity
  8
0
  6
Continuous
 62
     7
370
    15
100
AcDbEllipse
 10
450.7892412281
 20
241.9509048738
 30
0.0
 11
0.0
 21
2.0
 31
0.0
210
0.0
220
0.0
230
1.0
 40
0.0556456674
 41
3.141592652856847
 42
4.712388980384705
  0
LINE
  5
BD
330
1F
100
AcDbEntity
  8
0
  6
Continuous
 62
     7
370
    15
100
AcDbLine
 10
450.7892413926
 20
239.9509049855
 30
0.0
 11
406.4871950937
 21
239.9509049855
 31
0.0
  0
ELLIPSE
  5
BE
330
1F
100
AcDbEntity
  8
0
  6
Continuous
 62
     7
370
    15
100
AcDbEllipse
 10
388.0860224002
 20
247.9509048738
 30
0.0
 11
-18.02649671414582
 21
0.0
 31
0.0
210
0.0
220
7.105427357601002E-15
230
1.0
 40
0.1109477916
 41
3.141592653589792
 42
3.177566620297104
  0
LINE
  5
BF
330
1F
100
AcDbEntity
  8
0
  6
Continuous
 62
     7
370
    15
100
AcDbLine
 10
406.4871950937
 20
249.950904762
 30
0.0
 11
450.7892413926
 21
249.950904762
 31
0.0
  0
ELLIPSE
  5
C0
330
1F
100
AcDbEntity
  8
0
  6
Continuous
 62
     7
370
    15
100
AcDbEllipse
 10
450.789241228
 20
247.9509048738
 30
0.0
 11
0.0
 21
2.0
 31
0.0
210
0.0
220
0.0
230
1.0
 40
0.0556456674
 41
4.712388980384705
 42
6.283185307179586
  0
LINE
  5
C1
330
1F
100
AcDbEntity
  8
0
  6
Continuous
 62
     7
370
    15
100
AcDbLine
 10
406.1125202966
 20
244.9509048738
 30
0.0
 11
406.1125202966
 21
241.9509048477
 31
0.0
  0
LINE
  5
C2
330
1F
100
AcDbEntity
  8
0
  6
Continuous
 62
     7
370
    15
100
AcDbLine
 10
406.1125202966
 20
247.9509048999
 30
0.0
 11
406.1125202966
 21
244.9509048738
 31
0.0
  0
LINE
  5
C3
330
1F
100
AcDbEntity
  8
0
  6
Continuous
 62
     7
370
    15
100
AcDbLine
 10
450.9005381656
 20
247.9509048999
 30
0.0
 11
450.9005381656
 21
241.9509048477
 31
0.0
  0
LINE
  5
C4
330
1F
100
AcDbEntity
  8
0
  6
Continuous
 62
     7
370
    15
100
AcDbLine
 10
475.9005292249
 20
247.9509048999
 30
0.0
 11
475.9005292249
 21
241.9509048477
 31
0.0
  0
LINE
  5
C5
330
1F
100
AcDbEntity
  8
0
  6
Continuous
 62
     7
370
    15
100
AcDbLine
 10
475.9005292249
 20
241.9509048477
 30
0.0
 11
475.9005292249
 21
239.9509049855
 31
0.0
  0
LINE
  5
C6
330
1F
100
AcDbEntity
  8
0
  6
Continuous
 62
     7
370
    15
100
AcDbLine
 10
475.9005292249
 20
239.9509049855
 30
0.0
 11
450.7892413926
 21
239.9509049855
 31
0.0
  0
LINE
  5
C7
330
1F
100
AcDbEntity
  8
0
  6
Continuous
 62
     7
370
    15
100
AcDbLine
 10
475.9005292249
 20
249.950904762
 30
0.0
 11
475.9005292249
 21
247.9509048999
 31
0.0
  0
LINE
  5
C8
330
1F
100
AcDbEntity
  8
0
  6
Continuous
 62
     7
370
    15
100
AcDbLine
 10
450.7892413926
 20
249.950904762
 30
0.0
 11
475.9005292249
 21
249.950904762
 31
0.0
  0
LINE
  5
C9
330
1F
100
AcDbEntity
  8
0
  6
Continuous
 62
     7
370
    15
100
AcDbLine
 10
343.9005336654
 20
184.5039198078
 30
0.0
 11
343.9005336654
 21
188.5751442887
 31
0.0
  0
LINE
  5
CA
330
1F
100
AcDbEntity
  8
0
  6
Continuous
 62
     7
370
    15
100
AcDbLine
 10
343.9005336654
 20
301.3266654589
 30
0.0
 11
343.9005336654
 21
305.3978899397
 31
0.0
  0
LINE
  5
CB
330
1F
100
AcDbEntity
  8
0
  6
Continuous
 62
     7
370
    15
100
AcDbLine
 10
383.9005290461
 20
315.6273657359
 30
0.0
 11
383.9005290461
 21
308.3122664966
 31
0.0
  0
LINE
  5
CC
330
1F
100
AcDbEntity
  8
0
  6
Continuous
 62
     7
370
    15
100
AcDbLine
 10
343.9005336654
 20
315.6273657359
 30
0.0
 11
343.9005336654
 21
305.3978899397
 31
0.0
  0
LINE
  5
CD
330
1F
100
AcDbEntity
  8
0
  6
Continuous
 62
     7
370
    15
100
AcDbLine
 10
343.9005336654
 20
184.5039198078
 30
0.0
 11
343.9005336654
 21
174.2744440116
 31
0.0
  0
LINE
  5
CE
330
1F
100
AcDbEntity
  8
0
  6
Continuous
 62
     7
370
    15
100
AcDbLine
 10
343.9005336654
 20
189.611035762
 30
0.0
 11
343.9005336654
 21
188.5751442887
 31
0.0
  0
LINE
  5
CF
330
1F
100
AcDbEntity
  8
0
  6
Continuous
 62
     7
370
    15
100
AcDbLine
 10
343.9005336654
 20
301.3266654589
 30
0.0
 11
343.9005336654
 21
300.2907739856
 31
0.0
  0
LINE
  5
D0
330
1F
100
AcDbEntity
  8
0
  6
Continuous
 62
     7
370
    15
100
AcDbLine
 10
387.400536139
 20
92.9509097614
 30
0.0
 11
387.400536139
 21
145.4117813982
 31
0.0
  0
LINE
  5
D1
330
1F
100
AcDbEntity
  8
0
  6
Continuous
 62
     7
370
    15
100
AcDbLine
 10
380.4005294037
 20
92.9509097614
 30
0.0
 11
380.4005294037
 21
145.4117813982
 31
0.0
  0
LINE
  5
D2
330
1F
100
AcDbEntity
  8
0
  6
Continuous
 62
     7
370
    15
100
AcDbLine
 10
380.4005294037
 20
329.770519761
 30
0.0
 11
387.400536139
 21
329.770519761
 31
0.0
  0
LINE
  5
D3
330
1F
100
AcDbEntity
  8
0
  6
Continuous
 62
     7
370
    15
100
AcDbLine
 10
380.4005294037
 20
396.9508999862
 30
0.0
 11
380.4005294037
 21
329.770519761
 31
0.0
  0
LINE
  5
D4
330
1F
100
AcDbEntity
  8
0
  6
Continuous
 62
     7
370
    15
100
AcDbLine
 10
387.400536139
 20
396.9508999862
 30
0.0
 11
387.400536139
 21
329.770519761
 31
0.0
  0
LINE
  5
D5
330
1F
100
AcDbEntity
  8
0
  6
Continuous
 62
     7
370
    15
100
AcDbLine
 10
343.9005336654
 20
173.5543304958
 30
0.0
 11
343.9005336654
 21
174.2744440116
 31
0.0
  0
LINE
  5
D6
330
1F
100
AcDbEntity
  8
0
  6
Continuous
 62
     7
370
    15
100
AcDbLine
 10
383.9005290461
 20
316.3474792518
 30
0.0
 11
383.9005290461
 21
315.6273657359
 31
0.0
  0
LINE
  5
D7
330
1F
100
AcDbEntity
  8
0
  6
Continuous
 62
     7
370
    15
100
AcDbLine
 10
343.9005336654
 20
315.6273657359
 30
0.0
 11
343.9005336654
 21
316.3474792518
 31
0.0
  0
LINE
  5
D8
330
1F
100
AcDbEntity
  8
0
  6
Continuous
 62
     7
370
    15
100
AcDbLine
 10
323.9005322498
 20
74.9509030856
 30
0.0
 11
443.9005388808
 21
74.9509030856
 31
0.0
  0
LINE
  5
D9
330
1F
100
AcDbEntity
  8
0
  6
Continuous
 62
     7
370
    15
100
AcDbLine
 10
323.9005322498
 20
414.9509066619
 30
0.0
 11
443.9005388808
 21
414.9509066619
 31
0.0
  0
LINE
  5
DA
330
1F
100
AcDbEntity
  8
0
  6
Continuous
 62
     7
370
    15
100
AcDbLine
 10
475.9005292249
 20
268.9509050824
 30
0.0
 11
475.9005292249
 21
249.950904762
 31
0.0
  0
LINE
  5
DB
330
1F
100
AcDbEntity
  8
0
  6
Continuous
 62
     7
370
    15
100
AcDbLine
 10
353.9255953324
 20
325.1007640638
 30
0.0
 11
362.973345716
 21
325.1007640638
 31
0.0
  0
SPLINE
  5
DC
330
1F
100
AcDbEntity
  8
0
  6
Continuous
 62
     7
370
    15
100
AcDbSpline
210
0.0
220
0.0
230
1.0
 70
     8
 71
     3
 72
    11
 73
     7
 74
     0
 42
0.00000001
 43
0.00000001
 12
1.0
 22
0.0
 32
0.0
 13
1.0
 23
0.0
 33
0.0
 40
0.0
 40
0.0
 40
0.0
 40
0.0
 40
0.3156927119071516
 40
0.6361582524774094
 40
0.876170950062685
 40
1.0
 40
1.0
 40
1.0
 40
1.0
 10
362.9733457160228
 20
325.1007640637678
 30
0.0
 10
362.8603286557309
 20
324.685709986932
 30
0.0
 10
362.6325858765546
 20
323.8493268008636
 30
0.0
 10
362.3474492831871
 20
321.2760050865336
 30
0.0
 10
362.154010161129
 20
318.7214798066594
 30
0.0
 10
362.0858898579197
 20
316.9502839200065
 30
0.0
 10
362.0627059531444
 20
316.3474792517942
 30
0.0
  0
SPLINE
  5
DD
330
1F
100
AcDbEntity
  8
0
  6
Continuous
 62
     7
370
    15
100
AcDbSpline
210
0.0
220
0.0
230
1.0
 70
     8
 71
     3
 72
    11
 73
     7
 74
     0
 42
0.00000001
 43
0.00000001
 12
1.0
 22
0.0
 32
0.0
 13
1.0
 23
0.0
 33
0.0
 40
0.0
 40
0.0
 40
0.0
 40
0.0
 40
0.0285880141620941
 40
0.3686933389017483
 40
0.7089389208350629
 40
1.0
 40
1.0
 40
1.0
 40
1.0
 10
349.9394900095695
 20
325.4466423668188
 30
0.0
 10
349.9266631132421
 20
325.448043993721
 30
0.0
 10
349.7612374489109
 20
325.4661204679924
 30
0.0
 10
350.4029387773344
 20
325.3951528302024
 30
0.0
 10
351.7695564091421
 20
325.2531666933831
 30
0.0
 10
353.2452386933643
 20
325.1488560252568
 30
0.0
 10
353.9255953324073
 20
325.1007640637678
 30
0.0
  0
LINE
  5
DE
330
1F
100
AcDbEntity
  8
0
  6
Continuous
 62
     7
370
    15
100
AcDbLine
 10
343.9005336654
 20
325.4509040989
 30
0.0
 11
343.9005336654
 21
316.3474792518
 31
0.0
  0
SPLINE
  5
DF
330
1F
100
AcDbEntity
  8
0
  6
Continuous
 62
     7
370
    15
100
AcDbSpline
210
0.0
220
0.0
230
1.0
 70
     8
 71
     3
 72
    11
 73
     7
 74
     0
 42
0.00000001
 43
0.00000001
 12
1.0
 22
0.0
 32
0.0
 13
1.0
 23
0.0
 33
0.0
 40
0.0
 40
0.0
 40
0.0
 40
0.0
 40
0.0285880141620941
 40
0.3686933389017483
 40
0.7089389208350629
 40
1.0
 40
1.0
 40
1.0
 40
1.0
 10
349.9394900095695
 20
164.4551673807424
 30
0.0
 10
349.9266631132421
 20
164.4537657538402
 30
0.0
 10
349.7612374489109
 20
164.4356892795687
 30
0.0
 10
350.4029387773344
 20
164.5066569173588
 30
0.0
 10
351.7695564091421
 20
164.6486430541781
 30
0.0
 10
353.2452386933643
 20
164.7529537223044
 30
0.0
 10
353.9255953324073
 20
164.8010456837934
 30
0.0
  0
LINE
  5
E0
330
1F
100
AcDbEntity
  8
0
  6
Continuous
 62
     7
370
    15
100
AcDbLine
 10
353.9255953324
 20
164.8010456838
 30
0.0
 11
361.9005291653
 21
164.8010456838
 31
0.0
  0
LINE
  5
E1
330
1F
100
AcDbEntity
  8
0
  6
Continuous
 62
     7
370
    15
100
AcDbLine
 10
343.9005336654
 20
173.5543304958
 30
0.0
 11
343.9005336654
 21
164.4509056486
 31
0.0
  0
LINE
  5
E2
330
1F
100
AcDbEntity
  8
0
  6
Continuous
 62
     7
370
    15
100
AcDbLine
 10
411.8842392159
 20
295.6534692921
 30
0.0
 11
437.2745885444
 21
295.6534692921
 31
0.0
  0
SPLINE
  5
E3
330
1F
100
AcDbEntity
  8
0
  6
Continuous
 62
     7
370
    15
100
AcDbSpline
210
0.0
220
0.0
230
1.0
 70
     8
 71
     3
 72
    25
 73
    21
 74
     0
 42
0.00000001
 43
0.00000001
 12
1.0
 22
0.0
 32
0.0
 13
1.0
 23
0.0
 33
0.0
 40
0.0
 40
0.0
 40
0.0
 40
0.0
 40
0.0718864806241793
 40
0.1437729761485833
 40
0.2156594693934882
 40
0.2875459649178921
 40
0.3593743960087007
 40
0.4296616520103815
 40
0.5225447349956654
 40
0.6154013124558275
 40
0.69711511961651
 40
0.7292169359101951
 40
0.7613101978561786
 40
0.7813887136886888
 40
0.7999321290258351
 40
0.818149965056345
 40
0.8364350590465216
 40
0.8943692995179572
 40
0.9467922020104583
 40
0.9999999999999999
 40
0.9999999999999999
 40
0.9999999999999999
 40
0.9999999999999999
 10
412.3114555073016
 20
239.9509049855393
 30
0.0
 10
412.5500753262093
 20
237.0558436309084
 30
0.0
 10
413.0273150134842
 20
231.2657203215746
 30
0.0
 10
413.7306562489237
 20
222.5809060684213
 30
0.0
 10
414.4841146019704
 20
213.8946127520986
 30
0.0
 10
415.0494708683549
 20
205.216197933503
 30
0.0
 10
416.3066421813259
 20
196.5816380501831
 30
0.0
 10
414.5858628873257
 20
187.1610715976457
 30
0.0
 10
413.1006427475027
 20
176.9498681580371
 30
0.0
 10
410.998101357498
 20
166.3379582519682
 30
0.0
 10
409.5509743607874
 20
158.1210923200518
 30
0.0
 10
408.3893875017529
 20
152.3318158932005
 30
0.0
 10
407.9739383221733
 20
148.967226180344
 30
0.0
 10
406.9435229288075
 20
146.2011784928694
 30
0.0
 10
405.0924194683528
 20
144.7430431394637
 30
0.0
 10
403.2294701727363
 20
143.5568773523907
 30
0.0
 10
400.1540463102756
 20
141.2927162115624
 30
0.0
 10
396.1578523143799
 20
137.9718638358143
 30
0.0
 10
391.4791740671885
 20
133.2950869587259
 30
0.0
 10
388.7668002692166
 20
130.0017438012416
 30
0.0
 10
387.4005361390346
 20
128.3428365268034
 30
0.0
  0
LINE
  5
E4
330
1F
100
AcDbEntity
  8
0
  6
Continuous
 62
     7
370
    15
100
AcDbLine
 10
470.4867138458
 20
167.4509042777
 30
0.0
 11
471.1860700441
 21
169.9509018935
 31
0.0
  0
LINE
  5
E5
330
1F
100
AcDbEntity
  8
0
  6
Continuous
 62
     7
370
    15
100
AcDbLine
 10
466.4445205522
 20
152.4509036817
 30
0.0
 11
470.5039991927
 21
167.4509042777
 31
0.0
  0
LINE
  5
E6
330
1F
100
AcDbEntity
  8
0
  6
Continuous
 62
     7
370
    15
100
AcDbLine
 10
466.0844190908
 20
151.2009048738
 30
0.0
 11
466.4445205522
 21
152.4509036817
 31
0.0
  0
LINE
  5
E7
330
1F
100
AcDbEntity
  8
0
  6
Continuous
 62
     7
370
    15
100
AcDbLine
 10
461.6678639245
 20
134.9509054698
 30
0.0
 11
466.0844190908
 21
151.2009048738
 31
0.0
  0
SPLINE
  5
E8
330
1F
100
AcDbEntity
  8
0
  6
Continuous
 62
     7
370
    15
100
AcDbSpline
210
0.0
220
0.0
230
1.0
 70
     8
 71
     3
 72
    10
 73
     6
 74
     0
 42
0.00000001
 43
0.00000001
 12
1.0
 22
0.0
 32
0.0
 13
1.0
 23
0.0
 33
0.0
 40
0.0
 40
0.0
 40
0.0
 40
0.0
 40
0.2487548314675678
 40
0.4978959091706027
 40
1.0
 40
1.0
 40
1.0
 40
1.0
 10
394.6087195468181
 20
141.7465502299589
 30
0.0
 10
393.9622093383869
 20
141.5214914561766
 30
0.0
 10
392.6681850731463
 20
141.0710244556843
 30
0.0
 10
390.261181480084
 20
140.2993489770643
 30
0.0
 10
388.546538913141
 20
139.7356218384725
 30
0.0
 10
387.4005361390346
 20
139.3588477649015
 30
0.0
  0
SPLINE
  5
E9
330
1F
100
AcDbEntity
  8
0
  6
Continuous
 62
     7
370
    15
100
AcDbSpline
210
0.0
220
0.0
230
1.0
 70
     8
 71
     3
 72
    12
 73
     8
 74
     0
 42
0.00000001
 43
0.00000001
 12
1.0
 22
0.0
 32
0.0
 13
1.0
 23
0.0
 33
0.0
 40
0.0
 40
0.0
 40
0.0
 40
0.0
 40
0.2073159478616994
 40
0.420611943627201
 40
0.6279463352756469
 40
0.8413118768870205
 40
1.0
 40
1.0
 40
1.0
 40
1.0
 10
412.7394541096919
 20
233.359010321669
 30
0.0
 10
412.8876872592726
 20
230.9290997829555
 30
0.0
 10
413.1884293574961
 20
225.9991877087996
 30
0.0
 10
413.3811306736546
 20
219.2258095528974
 30
0.0
 10
413.3268003111716
 20
213.0998962803143
 30
0.0
 10
413.0712981447758
 20
208.2533331742299
 30
0.0
 10
412.8386731806233
 20
205.8130346447929
 30
0.0
 10
412.7394541096919
 20
204.7721998669427
 30
0.0
  0
LINE
  5
EA
330
1F
100
AcDbEntity
  8
0
  6
Continuous
 62
     7
370
    15
100
AcDbLine
 10
363.171724875
 20
325.5173856296
 30
0.0
 11
362.973345716
 21
325.1007640638
 31
0.0
  0
SPLINE
  5
EB
330
1F
100
AcDbEntity
  8
0
  6
Continuous
 62
     7
370
    15
100
AcDbSpline
210
0.0
220
0.0
230
1.0
 70
     8
 71
     3
 72
    11
 73
     7
 74
     0
 42
0.00000001
 43
0.00000001
 12
1.0
 22
0.0
 32
0.0
 13
1.0
 23
0.0
 33
0.0
 40
0.0
 40
0.0
 40
0.0
 40
0.0
 40
0.0730706541496335
 40
0.3826694078761817
 40
0.6925683394764119
 40
0.9999999999999999
 40
0.9999999999999999
 40
0.9999999999999999
 40
0.9999999999999999
 10
380.4005294037097
 20
118.6892682589811
 30
0.0
 10
380.0175196951232
 20
118.0987957421443
 30
0.0
 10
378.0117062793091
 20
115.0065041647023
 30
0.0
 10
374.6537324147255
 20
109.2367585155737
 30
0.0
 10
370.6374699105886
 20
101.250268071856
 30
0.0
 10
368.4714953438525
 20
95.7099816194214
 30
0.0
 10
367.3928364110225
 20
92.95090976136147
 30
0.0
  0
SPLINE
  5
EC
330
1F
100
AcDbEntity
  8
0
  6
Continuous
 62
     7
370
    15
100
AcDbSpline
210
0.0
220
0.0
230
1.0
 70
     8
 71
     3
 72
    14
 73
    10
 74
     0
 42
0.00000001
 43
0.00000001
 12
1.0
 22
0.0
 32
0.0
 13
1.0
 23
0.0
 33
0.0
 40
0.0
 40
0.0
 40
0.0
 40
0.0
 40
0.1355480379010776
 40
0.2688882794800191
 40
0.4022294230099947
 40
0.5394448437473812
 40
0.6766589149064416
 40
0.837477364685939
 40
1.0
 40
1.0
 40
1.0
 40
1.0
 10
349.4952230644458
 20
92.95090976136147
 30
0.0
 10
350.0917281296613
 20
95.0027108859198
 30
0.0
 10
351.2750224301217
 20
99.0728935514947
 30
0.0
 10
353.7267446217431
 20
104.9286616460341
 30
0.0
 10
356.6202294302729
 20
110.6006737763377
 30
0.0
 10
360.0253940826874
 20
116.0586313528442
 30
0.0
 10
364.1467076674173
 20
121.5447929835075
 30
0.0
 10
369.0021381766052
 20
126.9621282342807
 30
0.0
 10
372.8709156514162
 20
130.2821478614897
 30
0.0
 10
374.8154996824496
 20
131.9509068407339
 30
0.0
  0
LINE
  5
ED
330
1F
100
AcDbEntity
  8
0
  6
Continuous
 62
     7
370
    15
100
AcDbLine
 10
373.1436639023
 20
131.9509068407
 30
0.0
 11
380.4005294037
 21
136.9183877386
 31
0.0
  0
SPLINE
  5
EE
330
1F
100
AcDbEntity
  8
0
  6
Continuous
 62
     7
370
    15
100
AcDbSpline
210
0.0
220
0.0
230
1.0
 70
     8
 71
     3
 72
    16
 73
    12
 74
     0
 42
0.00000001
 43
0.00000001
 12
1.0
 22
0.0
 32
0.0
 13
1.0
 23
0.0
 33
0.0
 40
0.0
 40
0.0
 40
0.0
 40
0.0
 40
0.1196504556034005
 40
0.2370492636530115
 40
0.3518644203744273
 40
0.4645465238073075
 40
0.5754683883033872
 40
0.6830050553560334
 40
0.7894213408744999
 40
0.8949876713772383
 40
1.0
 40
1.0
 40
1.0
 40
1.0
 10
411.3270177436107
 20
396.9508999861997
 30
0.0
 10
411.1753326993756
 20
394.1398501207776
 30
0.0
 10
410.8748171028261
 20
388.5706502599849
 30
0.0
 10
410.4185655567954
 20
380.2646799232549
 30
0.0
 10
409.9608738121609
 20
372.1887636551679
 30
0.0
 10
409.5034078124697
 20
364.4229573634806
 30
0.0
 10
409.0486614846239
 20
357.0726522653555
 30
0.0
 10
408.5967072082151
 20
350.1865561493246
 30
0.0
 10
408.147502625737
 20
343.8293325907472
 30
0.0
 10
407.698295789543
 20
337.957358441082
 30
0.0
 10
407.398115962161
 20
334.545090201577
 30
0.0
 10
407.2484209132426
 20
332.843444672994
 30
0.0
  0
SPLINE
  5
EF
330
1F
100
AcDbEntity
  8
0
  6
Continuous
 62
     7
370
    15
100
AcDbSpline
210
0.0
220
0.0
230
1.0
 70
     8
 71
     3
 72
    16
 73
    12
 74
     0
 42
0.00000001
 43
0.00000001
 12
1.0
 22
0.0
 32
0.0
 13
1.0
 23
0.0
 33
0.0
 40
0.0
 40
0.0
 40
0.0
 40
0.0
 40
0.1195227054978397
 40
0.2368872834937154
 40
0.3517118459621643
 40
0.4644299454974214
 40
0.5754006276084587
 40
0.6829865105480762
 40
0.7894419093203816
 40
0.8950217227939162
 40
1.0
 40
1.0
 40
1.0
 40
1.0
 10
356.4740477991336
 20
396.9508999861997
 30
0.0
 10
356.6219473509954
 20
394.2101801729179
 30
0.0
 10
356.9150759488176
 20
388.7782275687538
 30
0.0
 10
357.3597317240253
 20
380.6754629836545
 30
0.0
 10
357.8058996934732
 20
372.7866510153613
 30
0.0
 10
358.2518332260752
 20
365.1882065755182
 30
0.0
 10
358.695128144484
 20
357.9799915931399
 30
0.0
 10
359.1356821335066
 20
351.2072064440561
 30
0.0
 10
359.5735665122133
 20
344.929721386981
 30
0.0
 10
360.0114198766219
 20
339.1047783507401
 30
0.0
 10
360.3041486132506
 20
335.6870965873201
 30
0.0
 10
360.4500948381656
 20
333.9831376351636
 30
0.0
  0
LINE
  5
F0
330
1F
100
AcDbEntity
  8
0
  6
Continuous
 62
     7
370
    15
100
AcDbLine
 10
360.4500948382
 20
333.9831376352
 30
0.0
 11
361.2727432442
 21
333.7309205808
 31
0.0
  0
SPLINE
  5
F1
330
1F
100
AcDbEntity
  8
0
  6
Continuous
 62
     7
370
    15
100
AcDbSpline
210
0.0
220
0.0
230
1.0
 70
     8
 71
     3
 72
    10
 73
     6
 74
     0
 42
0.00000001
 43
0.00000001
 12
1.0
 22
0.0
 32
0.0
 13
1.0
 23
0.0
 33
0.0
 40
0.0
 40
0.0
 40
0.0
 40
0.0
 40
0.3971446433549571
 40
0.8187503828061138
 40
1.0
 40
1.0
 40
1.0
 40
1.0
 10
406.9495259714358
 20
330.1072934545797
 30
0.0
 10
407.9408882088713
 20
334.7874248914853
 30
0.0
 10
409.9846730741108
 20
344.4359483442479
 30
0.0
 10
412.7168938534285
 20
356.1704360450084
 30
0.0
 10
414.0925554032263
 20
363.3013195381208
 30
0.0
 10
414.5061506819957
 20
365.4452333130163
 30
0.0
  0
LINE
  5
F2
330
1F
100
AcDbEntity
  8
0
  6
Continuous
 62
     7
370
    15
100
AcDbLine
 10
417.938543756
 20
383.9956665315
 30
0.0
 11
420.2049433184
 21
396.9508999862
 31
0.0
  0
LINE
  5
F3
330
1F
100
AcDbEntity
  8
0
  6
Continuous
 62
     7
370
    15
100
AcDbLine
 10
407.2484209132
 20
332.843444673
 30
0.0
 11
406.9495259714
 21
330.1072934546
 31
0.0
  0
SPLINE
  5
F4
330
1F
100
AcDbEntity
  8
0
  6
Continuous
 62
     7
370
    15
100
AcDbSpline
210
0.0
220
0.0
230
1.0
 70
     8
 71
     3
 72
    11
 73
     7
 74
     0
 42
0.00000001
 43
0.00000001
 12
1.0
 22
0.0
 32
0.0
 13
1.0
 23
0.0
 33
0.0
 40
0.0
 40
0.0
 40
0.0
 40
0.0
 40
0.0217453495369855
 40
0.4460302601533867
 40
0.8833695486403434
 40
1.0
 40
1.0
 40
1.0
 40
1.0
 10
349.3854462099307
 20
396.9508999861997
 30
0.0
 10
349.392187289524
 20
396.9088901749976
 30
0.0
 10
349.5304571057718
 20
396.0472049219004
 30
0.0
 10
349.7619803822869
 20
394.3119690362491
 30
0.0
 10
349.9298382892169
 20
392.3915169891075
 30
0.0
 10
350.0008701787885
 20
391.3331536111003
 30
0.0
 10
350.0158249330752
 20
391.1103302516264
 30
0.0
  0
SPLINE
  5
F5
330
1F
100
AcDbEntity
  8
0
  6
Continuous
 62
     7
370
    15
100
AcDbSpline
210
0.0
220
0.0
230
1.0
 70
     8
 71
     3
 72
     9
 73
     5
 74
     0
 42
0.00000001
 43
0.00000001
 12
1.0
 22
0.0
 32
0.0
 13
1.0
 23
0.0
 33
0.0
 40
0.0
 40
0.0
 40
0.0
 40
0.0
 40
0.7134319464055361
 40
1.0
 40
1.0
 40
1.0
 40
1.0
 10
355.0681865704291
 20
357.9509029068273
 30
0.0
 10
356.3693760528262
 20
352.2558714320175
 30
0.0
 10
358.1932213248984
 20
344.2732859822027
 30
0.0
 10
359.9474025413229
 20
336.2751483646161
 30
0.0
 10
360.4500948381656
 20
333.9831376351636
 30
0.0
  0
SPLINE
  5
F6
330
1F
100
AcDbEntity
  8
0
  6
Continuous
 62
     7
370
    15
100
AcDbSpline
210
0.0
220
0.0
230
1.0
 70
     8
 71
     3
 72
    11
 73
     7
 74
     0
 42
0.00000001
 43
0.00000001
 12
1.0
 22
0.0
 32
0.0
 13
1.0
 23
0.0
 33
0.0
 40
0.0
 40
0.0
 40
0.0
 40
0.0
 40
0.155379492539875
 40
0.2772353380676235
 40
0.7971156492271231
 40
1.0
 40
1.0
 40
1.0
 40
1.0
 10
350.0158249330752
 20
391.1103302516264
 30
0.0
 10
350.2557612390545
 20
389.3805322956757
 30
0.0
 10
350.6838667877052
 20
386.2941460984522
 30
0.0
 10
352.1012148948725
 20
377.4479421982201
 30
0.0
 10
353.86018415343
 20
368.115998057833
 30
0.0
 10
355.5884515718489
 20
360.1788950528234
 30
0.0
 10
356.0735865426295
 20
357.9509029068273
 30
0.0
  0
SPLINE
  5
F7
330
1F
100
AcDbEntity
  8
0
  6
Continuous
 62
     7
370
    15
100
AcDbSpline
210
0.0
220
0.0
230
1.0
 70
     8
 71
     3
 72
    18
 73
    14
 74
     0
 42
0.00000001
 43
0.00000001
 12
1.0
 22
0.0
 32
0.0
 13
1.0
 23
0.0
 33
0.0
 40
0.0
 40
0.0
 40
0.0
 40
0.0
 40
0.1630315217671054
 40
0.2448057620237647
 40
0.3262978849933338
 40
0.4040196360639823
 40
0.484032714558098
 40
0.5617534372027724
 40
0.641734469713284
 40
0.7983767344231363
 40
0.8763800631930315
 40
0.9566247623325899
 40
1.0
 40
1.0
 40
1.0
 40
1.0
 10
380.4005294037097
 20
137.1589148320478
 30
0.0
 10
379.0017971220221
 20
137.1663735247463
 30
0.0
 10
376.9014810704126
 20
137.1775733892264
 30
0.0
 10
374.1038827163782
 20
137.1252539326493
 30
0.0
 10
372.0322411103654
 20
137.240701656666
 30
0.0
 10
370.0305161356474
 20
137.7436651863981
 30
0.0
 10
368.1713554950408
 20
138.5560903476021
 30
0.0
 10
366.4605379907285
 20
139.6845004370716
 30
0.0
 10
364.4820352582421
 20
141.5312228689
 30
0.0
 10
363.001600648324
 20
143.8616932802647
 30
0.0
 10
362.1694820345807
 20
146.4397297047885
 30
0.0
 10
361.904143706199
 20
148.1603364436091
 30
0.0
 10
361.9035362682567
 20
149.2213017688591
 30
0.0
 10
361.903323133015
 20
149.5935687698644
 30
0.0
  0
SPLINE
  5
F8
330
1F
100
AcDbEntity
  8
0
  6
Continuous
 62
     7
370
    15
100
AcDbSpline
210
0.0
220
0.0
230
1.0
 70
     8
 71
     3
 72
    13
 73
     9
 74
     0
 42
0.00000001
 43
0.00000001
 12
1.0
 22
0.0
 32
0.0
 13
1.0
 23
0.0
 33
0.0
 40
0.0
 40
0.0
 40
0.0
 40
0.0
 40
0.3220155550391026
 40
0.5319282359926958
 40
0.6917705063949949
 40
0.8263964467564292
 40
0.9612712990078536
 40
1.0
 40
1.0
 40
1.0
 40
1.0
 10
363.1717248749965
 20
325.5173856295866
 30
0.0
 10
363.5516244378346
 20
326.4832475510975
 30
0.0
 10
364.1791696018885
 20
328.0787270864245
 30
0.0
 10
364.1408537475584
 20
330.3313837835195
 30
0.0
 10
363.6301860074498
 20
331.8847544146302
 30
0.0
 10
362.7701839761274
 20
332.9833063829254
 30
0.0
 10
361.9160309296713
 20
333.5184708159707
 30
0.0
 10
361.39007679068
 20
333.6921704462613
 30
0.0
 10
361.2727432441943
 20
333.7309205807966
 30
0.0
  0
SPLINE
  5
F9
330
1F
100
AcDbEntity
  8
0
  6
Continuous
 62
     7
370
    15
100
AcDbSpline
210
0.0
220
0.0
230
1.0
 70
     8
 71
     3
 72
    11
 73
     7
 74
     0
 42
0.00000001
 43
0.00000001
 12
1.0
 22
0.0
 32
0.0
 13
1.0
 23
0.0
 33
0.0
 40
0.0
 40
0.0
 40
0.0
 40
0.0
 40
0.1970352864376489
 40
0.4924109291245376
 40
0.9418431945187739
 40
1.0
 40
1.0
 40
1.0
 40
1.0
 10
406.9495259714358
 20
330.1072934545797
 30
0.0
 10
406.7206707225254
 20
329.8938400781244
 30
0.0
 10
406.148738517952
 20
329.3603986965045
 30
0.0
 10
405.4211592847134
 20
328.0291573321019
 30
0.0
 10
405.1502317839267
 20
326.7642742880277
 30
0.0
 10
405.1204326446389
 20
325.9620280440467
 30
0.0
 10
405.1170184207194
 20
325.8701110162061
 30
0.0
  0
LINE
  5
FA
330
1F
100
AcDbEntity
  8
0
  6
Continuous
 62
     7
370
    15
100
AcDbLine
 10
296.4005325153
 20
379.9509102382
 30
0.0
 11
296.4005325153
 21
409.9509114303
 31
0.0
  0
LINE
  5
FB
330
1F
100
AcDbEntity
  8
0
  6
Continuous
 62
     7
370
    15
100
AcDbLine
 10
347.1581808222
 20
391.1103302516
 30
0.0
 11
350.0158249331
 21
391.1103302516
 31
0.0
  0
SPLINE
  5
FC
330
1F
100
AcDbEntity
  8
0
  6
Continuous
 62
     7
370
    15
100
AcDbSpline
210
0.0
220
0.0
230
1.0
 70
     8
 71
     3
 72
    14
 73
    10
 74
     0
 42
0.00000001
 43
0.00000001
 12
1.0
 22
0.0
 32
0.0
 13
1.0
 23
0.0
 33
0.0
 40
0.0
 40
0.0
 40
0.0
 40
0.0
 40
0.112077604989695
 40
0.2587450541524948
 40
0.4054483464144105
 40
0.5606878839818866
 40
0.7159204174067139
 40
0.8579804259540161
 40
1.0
 40
1.0
 40
1.0
 40
1.0
 10
344.5558941853278
 20
380.3649539031309
 30
0.0
 10
344.6159424079603
 20
380.5279619182361
 30
0.0
 10
344.7545711787858
 20
380.9042861419698
 30
0.0
 10
345.0877790754611
 20
381.8511650884171
 30
0.0
 10
345.5240623320018
 20
383.1960191717631
 30
0.0
 10
346.0121099429751
 20
384.8827864533898
 30
0.0
 10
346.4814975501019
 20
386.8194413810053
 30
0.0
 10
346.8877884063351
 20
388.90607474842
 30
0.0
 10
347.0680585698083
 20
390.3756481411924
 30
0.0
 10
347.1581808221572
 20
391.1103302516264
 30
0.0
  0
LINE
  5
FD
330
1F
100
AcDbEntity
  8
0
  6
Continuous
 62
     7
370
    15
100
AcDbLine
 10
344.5558941853
 20
380.3649539031
 30
0.0
 11
326.1614817125
 21
380.3649539031
 31
0.0
  0
LINE
  5
FE
330
1F
100
AcDbEntity
  8
0
  6
Continuous
 62
     7
370
    15
100
AcDbLine
 10
347.1581808222
 20
131.9509068407
 30
0.0
 11
347.1581808222
 21
92.9509097614
 31
0.0
  0
LINE
  5
FF
330
1F
100
AcDbEntity
  8
0
  6
Continuous
 62
     7
370
    15
100
AcDbLine
 10
374.8154996824
 20
131.9509068407
 30
0.0
 11
347.1581808222
 21
131.9509068407
 31
0.0
  0
LINE
  5
100
330
1F
100
AcDbEntity
  8
0
  6
Continuous
 62
     7
370
    15
100
AcDbLine
 10
347.1581808222
 20
131.9509068407
 30
0.0
 11
344.4005272281
 21
131.9509068407
 31
0.0
  0
LINE
  5
101
330
1F
100
AcDbEntity
  8
0
  6
Continuous
 62
     7
370
    15
100
AcDbLine
 10
347.1581808222
 20
357.9509029068
 30
0.0
 11
347.1581808222
 21
391.1103302516
 31
0.0
  0
LINE
  5
102
330
1F
100
AcDbEntity
  8
0
  6
Continuous
 62
     7
370
    15
100
AcDbLine
 10
356.0735865426
 20
357.9509029068
 30
0.0
 11
347.1581808222
 21
357.9509029068
 31
0.0
  0
LINE
  5
103
330
1F
100
AcDbEntity
  8
0
  6
Continuous
 62
     7
370
    15
100
AcDbLine
 10
344.5558941853
 20
357.9509029068
 30
0.0
 11
344.5558941853
 21
380.3649539031
 31
0.0
  0
LINE
  5
104
330
1F
100
AcDbEntity
  8
0
  6
Continuous
 62
     7
370
    15
100
AcDbLine
 10
347.1581808222
 20
357.9509029068
 30
0.0
 11
344.5558941853
 21
357.9509029068
 31
0.0
  0
LINE
  5
105
330
1F
100
AcDbEntity
  8
0
  6
Continuous
 62
     7
370
    15
100
AcDbLine
 10
353.9255953324
 20
164.8010456838
 30
0.0
 11
353.9255953324
 21
131.9509068407
 31
0.0
  0
LINE
  5
106
330
1F
100
AcDbEntity
  8
0
  6
Continuous
 62
     7
370
    15
100
AcDbLine
 10
353.9255953324
 20
325.1007640638
 30
0.0
 11
353.9255953324
 21
357.9509029068
 31
0.0
  0
LINE
  5
107
330
1F
100
AcDbEntity
  8
0
  6
Continuous
 62
     7
370
    15
100
AcDbLine
 10
350.6089693797
 20
357.9509029068
 30
0.0
 11
350.6089693797
 21
338.0206594147
 31
0.0
  0
SPLINE
  5
108
330
1F
100
AcDbEntity
  8
0
  6
Continuous
 62
     7
370
    15
100
AcDbSpline
210
0.0
220
0.0
230
1.0
 70
     8
 71
     3
 72
    13
 73
     9
 74
     0
 42
0.00000001
 43
0.00000001
 12
1.0
 22
0.0
 32
0.0
 13
1.0
 23
0.0
 33
0.0
 40
0.0
 40
0.0
 40
0.0
 40
0.0
 40
0.1827079499890174
 40
0.3654139105201537
 40
0.5482763675099944
 40
0.7320268445259094
 40
0.9167997813219141
 40
1.0
 40
1.0
 40
1.0
 40
1.0
 10
437.2745885443919
 20
295.6534692920965
 30
0.0
 10
436.1565904472146
 20
295.7633495796716
 30
0.0
 10
433.9206064264412
 20
295.9831089583648
 30
0.0
 10
430.9451134786901
 20
297.6975006599311
 30
0.0
 10
428.6742697116813
 20
300.2259766779939
 30
0.0
 10
427.3753498840205
 20
303.3875345764231
 30
0.0
 10
427.1848966351216
 20
306.1986640190619
 30
0.0
 10
427.5352955364838
 20
307.7950057855446
 30
0.0
 10
427.6440872740977
 20
308.2906374611181
 30
0.0
  0
LINE
  5
109
330
1F
100
AcDbEntity
  8
0
  6
Continuous
 62
     7
370
    15
100
AcDbLine
 10
451.4005317283
 20
396.9508999862
 30
0.0
 11
427.6440872741
 21
308.2906374611
 31
0.0
  0
LINE
  5
10A
330
1F
100
AcDbEntity
  8
0
  6
Continuous
 62
     7
370
    15
100
AcDbLine
 10
326.1614817125
 20
380.3649539031
 30
0.0
 11
350.6089693797
 21
338.0206594147
 31
0.0
  0
LINE
  5
10B
330
1F
100
AcDbEntity
  8
0
  6
Continuous
 62
     7
370
    15
100
AcDbLine
 10
463.4291811776
 20
137.4509030856
 30
0.0
 11
462.7056999994
 21
134.9509054698
 31
0.0
  0
LINE
  5
10C
330
1F
100
AcDbEntity
  8
0
  6
Continuous
 62
     7
370
    15
100
AcDbLine
 10
462.7048655343
 20
134.9509054698
 30
0.0
 11
463.4291811776
 21
137.4509030856
 31
0.0
  0
LINE
  5
10D
330
1F
100
AcDbEntity
  8
0
  6
Continuous
 62
     7
370
    15
100
AcDbLine
 10
467.1208246541
 20
151.2009048738
 30
0.0
 11
462.7048655343
 21
134.9509054698
 31
0.0
  0
LINE
  5
10E
330
1F
100
AcDbEntity
  8
0
  6
Continuous
 62
     7
370
    15
100
AcDbLine
 10
467.4805535865
 20
152.4509036817
 30
0.0
 11
467.1208246541
 21
151.2009048738
 31
0.0
  0
LINE
  5
10F
330
1F
100
AcDbEntity
  8
0
  6
Continuous
 62
     7
370
    15
100
AcDbLine
 10
471.5400173259
 20
167.4509042777
 30
0.0
 11
467.4805535865
 21
152.4509036817
 31
0.0
  0
LINE
  5
110
330
1F
100
AcDbEntity
  8
0
  6
Continuous
 62
     7
370
    15
100
AcDbLine
 10
471.5229107929
 20
167.4509042777
 30
0.0
 11
471.5400173259
 21
167.4509042777
 31
0.0
  0
LINE
  5
111
330
1F
100
AcDbEntity
  8
0
  6
Continuous
 62
     7
370
    15
100
AcDbLine
 10
472.2220285726
 20
169.9509018935
 30
0.0
 11
471.5229107929
 21
167.4509042777
 31
0.0
  0
LINE
  5
112
330
1F
100
AcDbEntity
  8
0
  6
Continuous
 62
     7
370
    15
100
AcDbLine
 10
467.1208246541
 20
151.2009048738
 30
0.0
 11
466.0844190908
 21
151.2009048738
 31
0.0
  0
LINE
  5
113
330
1F
100
AcDbEntity
  8
0
  6
Continuous
 62
     7
370
    15
100
AcDbLine
 10
462.7048655343
 20
134.9509054698
 30
0.0
 11
461.6678639245
 21
134.9509054698
 31
0.0
  0
LINE
  5
114
330
1F
100
AcDbEntity
  8
0
  6
Continuous
 62
     7
370
    15
100
AcDbLine
 10
467.4805535865
 20
152.4509036817
 30
0.0
 11
466.4445205522
 21
152.4509036817
 31
0.0
  0
LINE
  5
115
330
1F
100
AcDbEntity
  8
0
  6
Continuous
 62
     7
370
    15
100
AcDbLine
 10
472.2220285726
 20
169.9509018935
 30
0.0
 11
471.1860700441
 21
169.9509018935
 31
0.0
  0
LINE
  5
116
330
1F
100
AcDbEntity
  8
0
  6
Continuous
 62
     7
370
    15
100
AcDbLine
 10
471.5229107929
 20
167.4509042777
 30
0.0
 11
470.4867138458
 21
167.4509042777
 31
0.0
  0
LINE
  5
117
330
1F
100
AcDbEntity
  8
0
  6
Continuous
 62
     7
370
    15
100
AcDbLine
 10
188.0005358649
 20
262.6431373783
 30
0.0
 11
188.0005358649
 21
221.8818733372
 31
0.0
  0
LINE
  5
118
330
1F
100
AcDbEntity
  8
0
  6
Continuous
 62
     7
370
    15
100
AcDbLine
 10
130.8005287242
 20
221.8818733372
 30
0.0
 11
130.8005287242
 21
262.6431373783
 31
0.0
  0
SPLINE
  5
119
330
1F
100
AcDbEntity
  8
0
  6
Continuous
 62
     7
370
    15
100
AcDbSpline
210
0.0
220
0.0
230
1.0
 70
     8
 71
     3
 72
     9
 73
     5
 74
     0
 42
0.00000001
 43
0.00000001
 12
1.0
 22
0.0
 32
0.0
 13
1.0
 23
0.0
 33
0.0
 40
0.0
 40
0.0
 40
0.0
 40
0.0
 40
0.8120142874130091
 40
1.0
 40
1.0
 40
1.0
 40
1.0
 10
130.8005287242168
 20
217.869772938661
 30
0.0
 10
130.8418021752284
 20
217.2333101747223
 30
0.0
 10
130.8926306540511
 20
216.4495028282206
 30
0.0
 10
131.1537571288492
 20
215.6803257237898
 30
0.0
 10
131.2028451752894
 20
215.5357314177078
 30
0.0
  0
LINE
  5
11A
330
1F
100
AcDbEntity
  8
0
  6
Continuous
 62
     7
370
    15
100
AcDbLine
 10
130.8005287242
 20
217.8697729387
 30
0.0
 11
130.8005287242
 21
221.8818733372
 31
0.0
  0
ARC
  5
11B
330
1F
100
AcDbEntity
  8
0
  6
Continuous
 62
     7
370
    15
100
AcDbCircle
 10
163.1024421272
 20
200.1320768765
 30
0.0
 40
14.85670001744013
100
AcDbArc
 50
82.2196829363
 51
90.5059892206
  0
LINE
  5
11C
330
1F
100
AcDbEntity
  8
0
  6
Continuous
 62
     7
370
    15
100
AcDbLine
 10
155.8298154664
 20
214.9881975629
 30
0.0
 11
162.9712416721
 21
214.9881975629
 31
0.0
  0
ARC
  5
11D
330
1F
100
AcDbEntity
  8
0
  6
Continuous
 62
     7
370
    15
100
AcDbCircle
 10
155.6986456212
 20
200.1315953307
 30
0.0
 40
14.85718127414267
100
AcDbArc
 50
89.4941452196
 51
97.7801826234
  0
LWPOLYLINE
  5
11E
330
1F
100
AcDbEntity
  8
0
  6
Continuous
 62
     7
370
    15
100
AcDbPolyline
 90
       23
 70
   128
 43
0.0
 10
165.1136710239
 20
214.8520121254
 10
166.1695971084
 20
214.6498145439
 10
166.9187529874
 20
214.4183790215
 10
167.3271789146
 20
214.1681903877
 10
167.3763527465
 20
213.9105902888
 10
167.0640691114
 20
213.6572519221
 10
166.4044692111
 20
213.4196566321
 10
165.4274447751
 20
213.2085742332
 10
164.1772671533
 20
213.0335675456
 10
162.7106203628
 20
212.9025714375
 10
161.0939486814
 20
212.8215202965
 10
159.4005360198
 20
212.794090984
 10
157.7071233583
 20
212.8215202965
 10
156.0904516769
 20
212.9025714375
 10
154.6237899852
 20
213.0335675456
 10
153.3736272645
 20
213.2085742332
 10
152.3966028285
 20
213.4196566321
 10
151.7370029283
 20
213.6572519221
 10
151.424704392
 20
213.9105902888
 10
151.4738931251
 20
214.1681903877
 10
151.8823041511
 20
214.4183790215
 10
152.6314600301
 20
214.6498145439
 10
153.6873861146
 20
214.8520121254
  0
LINE
  5
11F
330
1F
100
AcDbEntity
  8
0
  6
Continuous
 62
     7
370
    15
100
AcDbLine
 10
188.0005358649
 20
221.8818733372
 30
0.0
 11
188.0005358649
 21
217.8697729387
 31
0.0
  0
SPLINE
  5
120
330
1F
100
AcDbEntity
  8
0
  6
Continuous
 62
     7
370
    15
100
AcDbSpline
210
0.0
220
0.0
230
1.0
 70
     8
 71
     3
 72
    18
 73
    14
 74
     0
 42
0.00000001
 43
0.00000001
 12
1.0
 22
0.0
 32
0.0
 13
1.0
 23
0.0
 33
0.0
 40
0.0
 40
0.0
 40
0.0
 40
0.0
 40
0.0621886224469212
 40
0.1472522150058624
 40
0.235488213233222
 40
0.3282913524104589
 40
0.4257048470241444
 40
0.5157470883242136
 40
0.6121849448347171
 40
0.7140459331178335
 40
0.8133421135608838
 40
0.9084034375106177
 40
1.0
 40
1.0
 40
1.0
 40
1.0
 10
154.7616555285686
 20
260.4646071695012
 30
0.0
 10
154.7507278568732
 20
260.162433703037
 30
0.0
 10
154.7248529653145
 20
259.4469376765602
 30
0.0
 10
155.0663952281539
 20
258.3274039112815
 30
0.0
 10
155.7975538841687
 20
257.2213471395529
 30
0.0
 10
156.8924434734431
 20
256.331643377247
 30
0.0
 10
158.223809024351
 20
255.7988820598834
 30
0.0
 10
159.6729608796167
 20
255.6673483913997
 30
0.0
 10
161.1238413075226
 20
255.9555430018887
 30
0.0
 10
162.456124428649
 20
256.6919793426666
 30
0.0
 10
163.4556334776755
 20
257.7953464584911
 30
0.0
 10
164.0458130943887
 20
259.1049391992556
 30
0.0
 10
164.0415221559147
 20
260.0170279387611
 30
0.0
 10
164.039416511082
 20
260.4646071695012
 30
0.0
  0
ARC
  5
121
330
1F
100
AcDbEntity
  8
0
  6
Continuous
 62
     7
370
    15
100
AcDbCircle
 10
159.4005360198
 20
260.4066441285
 30
0.0
 40
3.500134067164442
100
AcDbArc
 50
180.5021533536
 51
359.4978466464
  0
ARC
  5
122
330
1F
100
AcDbEntity
  8
0
  6
Continuous
 62
     7
370
    15
100
AcDbCircle
 10
163.0001777356
 20
266.4565315208
 30
0.0
 40
6.081379338979809
100
AcDbArc
 50
269.0611791464
 51
279.8394917239
  0
ARC
  5
123
330
1F
100
AcDbEntity
  8
0
  6
Continuous
 62
     7
370
    15
100
AcDbCircle
 10
155.8008794993
 20
266.4563413008
 30
0.0
 40
6.081189387059795
100
AcDbArc
 50
260.1603394423
 51
270.9389896874
  0
CIRCLE
  5
124
330
1F
100
AcDbEntity
  8
0
  6
Continuous
 62
     7
370
    15
100
AcDbCircle
 10
159.4181511493
 20
260.3688787785
 30
0.0
 40
2.382391342834316
  0
ARC
  5
125
330
1F
100
AcDbEntity
  8
0
  6
Continuous
 62
     7
370
    15
100
AcDbCircle
 10
159.4005285692
 20
260.2628045026
 30
0.0
 40
2.400107662573871
100
AcDbArc
 50
0.5341251042
 51
179.4658748958
  0
LWPOLYLINE
  5
126
330
1F
100
AcDbEntity
  8
0
  6
Continuous
 62
     7
370
    15
100
AcDbPolyline
 90
       15
 70
   128
 43
0.0
 10
167.1567841363
 20
214.3011776634
 10
167.0640691114
 20
214.250342352
 10
166.4044692111
 20
214.0127489247
 10
165.4274447751
 20
213.8016646631
 10
164.1772671533
 20
213.6266598381
 10
162.7106203628
 20
213.4956637301
 10
161.0939486814
 20
213.4146125891
 10
159.4005360198
 20
213.3871795513
 10
157.7071233583
 20
213.4146125891
 10
156.0904516769
 20
213.4956637301
 10
154.6237899852
 20
213.6266598381
 10
153.3736272645
 20
213.8016646631
 10
152.3966028285
 20
214.0127489247
 10
151.7370029283
 20
214.250342352
 10
151.6442879033
 20
214.3011776634
  0
LINE
  5
127
330
1F
100
AcDbEntity
  8
0
  6
Continuous
 62
     7
370
    15
100
AcDbLine
 10
129.4005348277
 20
260.2214770295
 30
0.0
 11
129.4005348277
 21
218.8937881865
 31
0.0
  0
LINE
  5
128
330
1F
100
AcDbEntity
  8
0
  6
Continuous
 62
     7
370
    15
100
AcDbLine
 10
189.4005297613
 20
260.2214770295
 30
0.0
 11
189.4005297613
 21
218.8937881865
 31
0.0
  0
SPLINE
  5
129
330
1F
100
AcDbEntity
  8
0
  6
Continuous
 62
     7
370
    15
100
AcDbSpline
210
0.0
220
0.0
230
1.0
 70
     8
 71
     3
 72
    10
 73
     6
 74
     0
 42
0.00000001
 43
0.00000001
 12
1.0
 22
0.0
 32
0.0
 13
1.0
 23
0.0
 33
0.0
 40
0.0
 40
0.0
 40
0.0
 40
0.0
 40
0.3125097406435775
 40
0.7243722006115255
 40
0.9999999999999999
 40
0.9999999999999999
 40
0.9999999999999999
 40
0.9999999999999999
 10
131.6488518309825
 20
265.3909543432516
 30
0.0
 10
131.2263055400656
 20
264.9949388741305
 30
0.0
 10
130.2468775517367
 20
264.077007176217
 30
0.0
 10
129.5276077490787
 20
262.3290827664273
 30
0.0
 10
129.4369009090809
 20
261.075869825884
 30
0.0
 10
129.4005348277324
 20
260.5734331436676
 30
0.0
  0
SPLINE
  5
12A
330
1F
100
AcDbEntity
  8
0
  6
Continuous
 62
     7
370
    15
100
AcDbSpline
210
0.0
220
0.0
230
1.0
 70
     8
 71
     3
 72
    10
 73
     6
 74
     0
 42
0.00000001
 43
0.00000001
 12
1.0
 22
0.0
 32
0.0
 13
1.0
 23
0.0
 33
0.0
 40
0.0
 40
0.0
 40
0.0
 40
0.0
 40
0.4304630499115618
 40
0.8610025469939782
 40
1.0
 40
1.0
 40
1.0
 40
1.0
 10
189.4005297613376
 20
260.5734331436676
 30
0.0
 10
189.3171219512029
 20
261.3227878549
 30
0.0
 10
189.1502915183007
 20
262.8216303574228
 30
0.0
 10
188.303062374633
 20
264.4494664256316
 30
0.0
 10
187.5056783527086
 20
265.0747739745657
 30
0.0
 10
187.3110740375751
 20
265.2273824341815
 30
0.0
  0
LINE
  5
12B
330
1F
100
AcDbEntity
  8
0
  6
Continuous
 62
     7
370
    15
100
AcDbLine
 10
129.4005348277
 20
260.5734331437
 30
0.0
 11
129.4005348277
 21
260.2214770295
 31
0.0
  0
LINE
  5
12C
330
1F
100
AcDbEntity
  8
0
  6
Continuous
 62
     7
370
    15
100
AcDbLine
 10
189.4005297613
 20
260.5734331437
 30
0.0
 11
189.4005297613
 21
260.2214770295
 31
0.0
  0
LINE
  5
12D
330
1F
100
AcDbEntity
  8
0
  6
Continuous
 62
     7
370
    15
100
AcDbLine
 10
189.4005297613
 20
218.8937881865
 30
0.0
 11
189.4005297613
 21
215.7196042963
 31
0.0
  0
LINE
  5
12E
330
1F
100
AcDbEntity
  8
0
  6
Continuous
 62
     7
370
    15
100
AcDbLine
 10
129.4005348277
 20
218.8937881865
 30
0.0
 11
129.4005348277
 21
215.7196042963
 31
0.0
  0
SPLINE
  5
12F
330
1F
100
AcDbEntity
  8
0
  6
Continuous
 62
     7
370
    15
100
AcDbSpline
210
0.0
220
0.0
230
1.0
 70
     8
 71
     3
 72
     9
 73
     5
 74
     0
 42
0.00000001
 43
0.00000001
 12
1.0
 22
0.0
 32
0.0
 13
1.0
 23
0.0
 33
0.0
 40
0.0
 40
0.0
 40
0.0
 40
0.0
 40
0.5024599328844022
 40
1.0
 40
1.0
 40
1.0
 40
1.0
 10
188.7047721934551
 20
213.033317951135
 30
0.0
 10
188.9076655012269
 20
213.4615307958017
 30
0.0
 10
189.3114654751016
 20
214.3137636140656
 30
0.0
 10
189.3709392001736
 20
215.2525302708412
 30
0.0
 10
189.4005297613376
 20
215.7196042962593
 30
0.0
  0
SPLINE
  5
130
330
1F
100
AcDbEntity
  8
0
  6
Continuous
 62
     7
370
    15
100
AcDbSpline
210
0.0
220
0.0
230
1.0
 70
     8
 71
     3
 72
     9
 73
     5
 74
     0
 42
0.00000001
 43
0.00000001
 12
1.0
 22
0.0
 32
0.0
 13
1.0
 23
0.0
 33
0.0
 40
0.0
 40
0.0
 40
0.0
 40
0.0
 40
0.7463498082125715
 40
1.0
 40
1.0
 40
1.0
 40
1.0
 10
129.4005348277324
 20
215.7196042962593
 30
0.0
 10
129.4678394274586
 20
215.0191821801754
 30
0.0
 10
129.5580177848263
 20
214.0807185959733
 30
0.0
 10
129.987389602336
 20
213.2452378121791
 30
0.0
 10
130.0962998461955
 20
213.033317951135
 30
0.0
  0
SPLINE
  5
131
330
1F
100
AcDbEntity
  8
0
  6
Continuous
 62
     7
370
    15
100
AcDbSpline
210
0.0
220
0.0
230
1.0
 70
     8
 71
     3
 72
    11
 73
     7
 74
     0
 42
0.00000001
 43
0.00000001
 12
1.0
 22
0.0
 32
0.0
 13
1.0
 23
0.0
 33
0.0
 40
0.0
 40
0.0
 40
0.0
 40
0.0
 40
0.300672901170373
 40
0.6013499826639563
 40
0.901858372487403
 40
1.0
 40
1.0
 40
1.0
 40
1.0
 10
182.4005304765933
 20
209.6617216147703
 30
0.0
 10
183.1879739183194
 20
209.7260416374425
 30
0.0
 10
184.7628717497756
 20
209.8546825770428
 30
0.0
 10
186.8515739316072
 20
210.8691554987925
 30
0.0
 10
188.1037242233179
 20
212.0394125818758
 30
0.0
 10
188.5860346369481
 20
212.8369710690084
 30
0.0
 10
188.7047721934551
 20
213.033317951135
 30
0.0
  0
SPLINE
  5
132
330
1F
100
AcDbEntity
  8
0
  6
Continuous
 62
     7
370
    15
100
AcDbSpline
210
0.0
220
0.0
230
1.0
 70
     8
 71
     3
 72
    11
 73
     7
 74
     0
 42
0.00000001
 43
0.00000001
 12
1.0
 22
0.0
 32
0.0
 13
1.0
 23
0.0
 33
0.0
 40
0.0
 40
0.0
 40
0.0
 40
0.0
 40
0.1992996395343527
 40
0.4987359436396595
 40
0.7985995305083873
 40
1.0
 40
1.0
 40
1.0
 40
1.0
 10
130.0962998461955
 20
213.033317951135
 30
0.0
 10
130.3532191070215
 20
212.640755844132
 30
0.0
 10
130.9961448558418
 20
211.6583916344889
 30
0.0
 10
132.6060205465315
 20
210.4771524088666
 30
0.0
 10
134.5645114106151
 20
209.7637000614347
 30
0.0
 10
135.874286065866
 20
209.6909510781637
 30
0.0
 10
136.4005341124767
 20
209.6617216147703
 30
0.0
  0
LINE
  5
133
330
1F
100
AcDbEntity
  8
0
  6
Continuous
 62
     7
370
    15
100
AcDbLine
 10
182.4005304766
 20
209.6617216148
 30
0.0
 11
136.4005341125
 21
209.6617216148
 31
0.0
  0
SPLINE
  5
134
330
1F
100
AcDbEntity
  8
0
  6
Continuous
 62
     7
370
    15
100
AcDbSpline
210
0.0
220
0.0
230
1.0
 70
     8
 71
     3
 72
    11
 73
     7
 74
     0
 42
0.00000001
 43
0.00000001
 12
1.0
 22
0.0
 32
0.0
 13
1.0
 23
0.0
 33
0.0
 40
0.0
 40
0.0
 40
0.0
 40
0.0
 40
0.2849372319424747
 40
0.5709016752898823
 40
0.8302704677843016
 40
0.9999999999999999
 40
0.9999999999999999
 40
0.9999999999999999
 40
0.9999999999999999
 10
110.6291248393291
 20
300.7361249901575
 30
0.0
 10
110.9649162496873
 20
301.7261443978241
 30
0.0
 10
111.6377096133857
 20
303.7097522771918
 30
0.0
 10
113.7790696756503
 20
305.956661702599
 30
0.0
 10
116.16585122741
 20
307.1603642503837
 30
0.0
 10
117.7289345882973
 20
307.2796131215295
 30
0.0
 10
118.3472110820049
 20
307.3267819263261
 30
0.0
  0
LINE
  5
135
330
1F
100
AcDbEntity
  8
0
  6
Continuous
 62
     7
370
    15
100
AcDbLine
 10
118.347211082
 20
307.3267819263
 30
0.0
 11
93.4005363775
 21
307.3267819263
 31
0.0
  0
LINE
  5
136
330
1F
100
AcDbEntity
  8
0
  6
Continuous
 62
     7
370
    15
100
AcDbLine
 10
122.400535543
 20
313.9509031452
 30
0.0
 11
122.400535543
 21
175.9509066023
 31
0.0
  0
LINE
  5
137
330
1F
100
AcDbEntity
  8
0
  6
Continuous
 62
     7
370
    15
100
AcDbLine
 10
106.4005329204
 20
265.9509045907
 30
0.0
 11
106.4005329204
 21
213.4208934285
 31
0.0
  0
SPLINE
  5
138
330
1F
100
AcDbEntity
  8
0
  6
Continuous
 62
     7
370
    15
100
AcDbSpline
210
0.0
220
0.0
230
1.0
 70
     8
 71
     3
 72
    11
 73
     7
 74
     0
 42
0.00000001
 43
0.00000001
 12
1.0
 22
0.0
 32
0.0
 13
1.0
 23
0.0
 33
0.0
 40
0.0
 40
0.0
 40
0.0
 40
0.0
 40
0.2978940980159581
 40
0.5966517106241731
 40
0.7980710480837327
 40
1.0
 40
1.0
 40
1.0
 40
1.0
 10
106.491877038502
 20
265.9509045906585
 30
0.0
 10
106.6079156629259
 20
269.4347530297894
 30
0.0
 10
106.8403292764285
 20
276.4125486444291
 30
0.0
 10
107.8013626086977
 20
285.7071718105096
 30
0.0
 10
109.0751039278833
 20
293.8260294012878
 30
0.0
 10
110.11068173178
 20
298.4308204706566
 30
0.0
 10
110.6291248393291
 20
300.7361249901575
 30
0.0
  0
LINE
  5
139
330
1F
100
AcDbEntity
  8
0
  6
Continuous
 62
     7
370
    15
100
AcDbLine
 10
90.4005302978
 20
268.9509050824
 30
0.0
 11
90.4005302978
 21
305.3971635081
 31
0.0
  0
SPLINE
  5
13A
330
1F
100
AcDbEntity
  8
0
  6
Continuous
 62
     7
370
    15
100
AcDbSpline
210
0.0
220
0.0
230
1.0
 70
     8
 71
     3
 72
    13
 73
     9
 74
     0
 42
0.00000001
 43
0.00000001
 12
1.0
 22
0.0
 32
0.0
 13
1.0
 23
0.0
 33
0.0
 40
0.0
 40
0.0
 40
0.0
 40
0.0
 40
0.1734723474018044
 40
0.3465413381039568
 40
0.5297011293469039
 40
0.7399608988753599
 40
0.9977766169364706
 40
1.0
 40
1.0
 40
1.0
 40
1.0
 10
93.40053637745316
 20
307.3267819263261
 30
0.0
 10
93.1014373495713
 20
307.3100867333746
 30
0.0
 10
92.50393475679373
 20
307.2767351670185
 30
0.0
 10
91.70039526783913
 20
307.0219838134732
 30
0.0
 10
91.02991655731088
 20
306.6360186910306
 30
0.0
 10
90.52942830502609
 20
306.0861620169859
 30
0.0
 10
90.4009130304889
 20
305.6432373109058
 30
0.0
 10
90.4005335424731
 20
305.3992496483639
 30
0.0
 10
90.4005302977794
 20
305.3971635081094
 30
0.0
  0
ARC
  5
13B
330
1F
100
AcDbEntity
  8
0
  6
Continuous
 62
     7
370
    15
100
AcDbCircle
 10
93.4005325628
 20
268.9509048738
 30
0.0
 40
3.0
100
AcDbArc
 50
180.0
 51
270.0000000022
  0
LINE
  5
13C
330
1F
100
AcDbEntity
  8
0
  6
Continuous
 62
     7
370
    15
100
AcDbLine
 10
90.4005302978
 20
305.3971635081
 30
0.0
 11
90.4005302978
 21
310.9509045162
 31
0.0
  0
LINE
  5
13D
330
1F
100
AcDbEntity
  8
0
  6
Continuous
 62
     7
370
    15
100
AcDbLine
 10
106.4918770385
 20
265.9509045907
 30
0.0
 11
93.4005363775
 21
265.9509045907
 31
0.0
  0
LINE
  5
13E
330
1F
100
AcDbEntity
  8
0
  6
Continuous
 62
     7
370
    15
100
AcDbLine
 10
98.4005316091
 20
244.9509048738
 30
0.0
 11
98.4005316091
 21
265.9509045907
 31
0.0
  0
LINE
  5
13F
330
1F
100
AcDbEntity
  8
0
  6
Continuous
 62
     7
370
    15
100
AcDbLine
 10
95.4005255294
 20
244.9509048738
 30
0.0
 11
98.4005316091
 21
244.9509048738
 31
0.0
  0
LINE
  5
140
330
1F
100
AcDbEntity
  8
0
  6
Continuous
 62
     7
370
    15
100
AcDbLine
 10
95.4005255294
 20
221.9509048291
 30
0.0
 11
95.4005255294
 21
244.9509048738
 31
0.0
  0
SPLINE
  5
141
330
1F
100
AcDbEntity
  8
0
  6
Continuous
 62
     7
370
    15
100
AcDbSpline
210
0.0
220
0.0
230
1.0
 70
     8
 71
     3
 72
    12
 73
     8
 74
     0
 42
0.00000001
 43
0.00000001
 12
1.0
 22
0.0
 32
0.0
 13
1.0
 23
0.0
 33
0.0
 40
0.0
 40
0.0
 40
0.0
 40
0.0
 40
0.2146534307306551
 40
0.4293098833170723
 40
0.6438952001706171
 40
0.8585108121572924
 40
1.0
 40
1.0
 40
1.0
 40
1.0
 10
137.4005361390346
 20
194.7078363873285
 30
0.0
 10
137.4281344143687
 20
194.8999481162914
 30
0.0
 10
137.4833313535608
 20
195.2841742787347
 30
0.0
 10
137.9140331584006
 20
195.8047827554749
 30
0.0
 10
138.548095536691
 20
196.2012447499471
 30
0.0
 10
139.2510839307241
 20
196.4131123151969
 30
0.0
 10
139.7158648672887
 20
196.4347723090419
 30
0.0
 10
139.9005337548488
 20
196.4433783568662
 30
0.0
  0
LINE
  5
142
330
1F
100
AcDbEntity
  8
0
  6
Continuous
 62
     7
370
    15
100
AcDbLine
 10
137.400536139
 20
193.3261746444
 30
0.0
 11
137.400536139
 21
194.7078363873
 31
0.0
  0
SPLINE
  5
143
330
1F
100
AcDbEntity
  8
0
  6
Continuous
 62
     7
370
    15
100
AcDbSpline
210
0.0
220
0.0
230
1.0
 70
     8
 71
     3
 72
    12
 73
     8
 74
     0
 42
0.00000001
 43
0.00000001
 12
1.0
 22
0.0
 32
0.0
 13
1.0
 23
0.0
 33
0.0
 40
0.0
 40
0.0
 40
0.0
 40
0.0
 40
0.2146632592119342
 40
0.4293260775099551
 40
0.6439754205633206
 40
0.8585768982442451
 40
1.0
 40
1.0
 40
1.0
 40
1.0
 10
139.9005337548488
 20
191.7141223229688
 30
0.0
 10
139.6194769188401
 20
191.7315305591151
 30
0.0
 10
139.0573638241075
 20
191.7663469956515
 30
0.0
 10
138.3081958625299
 20
192.0391555526969
 30
0.0
 10
137.7428968683077
 20
192.4447999792527
 30
0.0
 10
137.4432357295552
 20
192.8997935557303
 30
0.0
 10
137.4126755232622
 20
193.2049555928927
 30
0.0
 10
137.4005361390346
 20
193.3261746444028
 30
0.0
  0
LINE
  5
144
330
1F
100
AcDbEntity
  8
0
  6
Continuous
 62
     7
370
    15
100
AcDbLine
 10
159.9005295825
 20
191.714122323
 30
0.0
 11
139.9005337548
 21
191.714122323
 31
0.0
  0
SPLINE
  5
145
330
1F
100
AcDbEntity
  8
0
  6
Continuous
 62
     7
370
    15
100
AcDbSpline
210
0.0
220
0.0
230
1.0
 70
     8
 71
     3
 72
    12
 73
     8
 74
     0
 42
0.00000001
 43
0.00000001
 12
1.0
 22
0.0
 32
0.0
 13
1.0
 23
0.0
 33
0.0
 40
0.0
 40
0.0
 40
0.0
 40
0.0
 40
0.21465410969632
 40
0.4293104089624739
 40
0.6438955144779069
 40
0.8585107969224071
 40
1.0
 40
1.0
 40
1.0
 40
1.0
 10
162.4005271983379
 20
193.3261746444028
 30
0.0
 10
162.3729290828651
 20
193.1418732873992
 30
0.0
 10
162.3177325704062
 20
192.7732686934341
 30
0.0
 10
161.887030194474
 20
192.2908242908257
 30
0.0
 10
161.2529681612651
 20
191.9305434695204
 30
0.0
 10
160.5499787156598
 20
191.7411070069815
 30
0.0
 10
160.0851984044805
 20
191.7217953331451
 30
0.0
 10
159.9005295825237
 20
191.7141223229688
 30
0.0
  0
LINE
  5
146
330
1F
100
AcDbEntity
  8
0
  6
Continuous
 62
     7
370
    15
100
AcDbLine
 10
162.4005271983
 20
194.7078363873
 30
0.0
 11
162.4005271983
 21
193.3261746444
 31
0.0
  0
SPLINE
  5
147
330
1F
100
AcDbEntity
  8
0
  6
Continuous
 62
     7
370
    15
100
AcDbSpline
210
0.0
220
0.0
230
1.0
 70
     8
 71
     3
 72
    12
 73
     8
 74
     0
 42
0.00000001
 43
0.00000001
 12
1.0
 22
0.0
 32
0.0
 13
1.0
 23
0.0
 33
0.0
 40
0.0
 40
0.0
 40
0.0
 40
0.0
 40
0.2146633372284492
 40
0.4293267868648215
 40
0.6439760945621423
 40
0.8585774485843579
 40
1.0
 40
1.0
 40
1.0
 40
1.0
 10
159.9005295825237
 20
196.4433783568662
 30
0.0
 10
160.1815866296103
 20
196.423819653302
 30
0.0
 10
160.7437008709585
 20
196.3847022359315
 30
0.0
 10
161.4928660571271
 20
196.0808283998952
 30
0.0
 10
162.0581665854009
 20
195.637464217684
 30
0.0
 10
162.3578273208769
 20
195.1510406954218
 30
0.0
 10
162.3883877498958
 20
194.8338380568256
 30
0.0
 10
162.4005271983379
 20
194.7078363873285
 30
0.0
  0
LINE
  5
148
330
1F
100
AcDbEntity
  8
0
  6
Continuous
 62
     7
370
    15
100
AcDbLine
 10
159.9005295825
 20
196.4433783569
 30
0.0
 11
139.9005337548
 21
196.4433783569
 31
0.0
  0
SPLINE
  5
149
330
1F
100
AcDbEntity
  8
0
  6
Continuous
 62
     7
370
    15
100
AcDbSpline
210
0.0
220
0.0
230
1.0
 70
     8
 71
     3
 72
    12
 73
     8
 74
     0
 42
0.00000001
 43
0.00000001
 12
1.0
 22
0.0
 32
0.0
 13
1.0
 23
0.0
 33
0.0
 40
0.0
 40
0.0
 40
0.0
 40
0.0
 40
0.2146537792376935
 40
0.4293117714660613
 40
0.6438955851159947
 40
0.8585121931982115
 40
1.0
 40
1.0
 40
1.0
 40
1.0
 10
282.400532898032
 20
178.0393863000196
 30
0.0
 10
282.372935541649
 20
177.9784236648653
 30
0.0
 10
282.317740287232
 20
177.8564971980485
 30
0.0
 10
281.8870241758636
 20
177.705400232086
 30
0.0
 10
281.2529705968477
 20
177.596237467672
 30
0.0
 10
280.5499789134892
 20
177.5404877567784
 30
0.0
 10
280.0851992622423
 20
177.5348252783683
 30
0.0
 10
279.9005324882501
 20
177.5325754560751
 30
0.0
  0
LINE
  5
14A
330
1F
100
AcDbEntity
  8
0
  6
Continuous
 62
     7
370
    15
100
AcDbLine
 10
282.400532898
 20
178.0393863
 30
0.0
 11
282.400532898
 21
178.5244488992
 31
0.0
  0
SPLINE
  5
14B
330
1F
100
AcDbEntity
  8
0
  6
Continuous
 62
     7
370
    15
100
AcDbSpline
210
0.0
220
0.0
230
1.0
 70
     8
 71
     3
 72
    12
 73
     8
 74
     0
 42
0.00000001
 43
0.00000001
 12
1.0
 22
0.0
 32
0.0
 13
1.0
 23
0.0
 33
0.0
 40
0.0
 40
0.0
 40
0.0
 40
0.0
 40
0.2146627474390656
 40
0.4293261725457076
 40
0.64397648778412
 40
0.8585769403144461
 40
1.0
 40
1.0
 40
1.0
 40
1.0
 10
279.9005324882501
 20
179.1929000891965
 30
0.0
 10
280.1815888821192
 20
179.1850035531716
 30
0.0
 10
280.7437025571226
 20
179.1692104561931
 30
0.0
 10
281.4928687577604
 20
179.0476475576205
 30
0.0
 10
282.0581778848766
 20
178.8739261325924
 30
0.0
 10
282.3578195577483
 20
178.6881069096853
 30
0.0
 10
282.3883895813152
 20
178.5709765423538
 30
0.0
 10
282.400532898032
 20
178.5244488992017
 30
0.0
  0
LINE
  5
14C
330
1F
100
AcDbEntity
  8
0
  6
Continuous
 62
     7
370
    15
100
AcDbLine
 10
271.9005330396
 20
179.1929000892
 30
0.0
 11
279.9005324883
 21
179.1929000892
 31
0.0
  0
SPLINE
  5
14D
330
1F
100
AcDbEntity
  8
0
  6
Continuous
 62
     7
370
    15
100
AcDbSpline
210
0.0
220
0.0
230
1.0
 70
     8
 71
     3
 72
    12
 73
     8
 74
     0
 42
0.00000001
 43
0.00000001
 12
1.0
 22
0.0
 32
0.0
 13
1.0
 23
0.0
 33
0.0
 40
0.0
 40
0.0
 40
0.0
 40
0.0
 40
0.2146538486941063
 40
0.429311600719957
 40
0.6438950579514854
 40
0.8585117888480215
 40
1.0
 40
1.0
 40
1.0
 40
1.0
 10
269.4005316984885
 20
178.5244488992017
 30
0.0
 10
269.4281298537499
 20
178.5956349638674
 30
0.0
 10
269.4833266661258
 20
178.7380083876679
 30
0.0
 10
269.9140412272834
 20
178.9390602216778
 30
0.0
 10
270.5480935971317
 20
179.0955779195256
 30
0.0
 10
271.2510849216721
 20
179.1807028523679
 30
0.0
 10
271.7158656022507
 20
179.1894318637823
 30
0.0
 10
271.900533039593
 20
179.1929000891965
 30
0.0
  0
LINE
  5
14E
330
1F
100
AcDbEntity
  8
0
  6
Continuous
 62
     7
370
    15
100
AcDbLine
 10
269.4005316985
 20
178.0393863
 30
0.0
 11
269.4005316985
 21
178.5244488992
 31
0.0
  0
SPLINE
  5
14F
330
1F
100
AcDbEntity
  8
0
  6
Continuous
 62
     7
370
    15
100
AcDbSpline
210
0.0
220
0.0
230
1.0
 70
     8
 71
     3
 72
    12
 73
     8
 74
     0
 42
0.00000001
 43
0.00000001
 12
1.0
 22
0.0
 32
0.0
 13
1.0
 23
0.0
 33
0.0
 40
0.0
 40
0.0
 40
0.0
 40
0.0
 40
0.2146627986876214
 40
0.4293261751341234
 40
0.6439764011367441
 40
0.8585772669645739
 40
1.0
 40
1.0
 40
1.0
 40
1.0
 10
271.900533039593
 20
177.5325754560751
 30
0.0
 10
271.6194766300752
 20
177.5376572578782
 30
0.0
 10
271.0573630545841
 20
177.5478208751621
 30
0.0
 10
270.3081973464584
 20
177.6287251743137
 30
0.0
 10
269.7428852189118
 20
177.7530572777881
 30
0.0
 10
269.4432470137805
 20
177.8977555564011
 30
0.0
 10
269.4126755545062
 20
177.999121038101
 30
0.0
 10
269.4005316984885
 20
178.0393863000196
 30
0.0
  0
LINE
  5
150
330
1F
100
AcDbEntity
  8
0
  6
Continuous
 62
     7
370
    15
100
AcDbLine
 10
271.9005330396
 20
177.5325754561
 30
0.0
 11
279.9005324883
 21
177.5325754561
 31
0.0
  0
SPLINE
  5
151
330
1F
100
AcDbEntity
  8
0
  6
Continuous
 62
     7
370
    15
100
AcDbSpline
210
0.0
220
0.0
230
1.0
 70
     8
 71
     3
 72
    12
 73
     8
 74
     0
 42
0.00000001
 43
0.00000001
 12
1.0
 22
0.0
 32
0.0
 13
1.0
 23
0.0
 33
0.0
 40
0.0
 40
0.0
 40
0.0
 40
0.0
 40
0.2146625976369015
 40
0.4293254594788258
 40
0.6439766960243523
 40
0.8585773720739098
 40
1.0
 40
1.0
 40
1.0
 40
1.0
 10
259.9005310726398
 20
218.6988213934225
 30
0.0
 10
259.6194753905531
 20
218.7243430100306
 30
0.0
 10
259.0573636804586
 20
218.7753862746586
 30
0.0
 10
258.3081971233707
 20
219.1740728295248
 30
0.0
 10
257.7428865574366
 20
219.7628232114415
 30
0.0
 10
257.4432460186185
 20
220.4180158486421
 30
0.0
 10
257.4126765307695
 20
220.8531216382152
 30
0.0
 10
257.4005334568255
 20
221.0259580888074
 30
0.0
  0
LINE
  5
152
330
1F
100
AcDbEntity
  8
0
  6
Continuous
 62
     7
370
    15
100
AcDbLine
 10
259.9005310726
 20
218.6988213934
 30
0.0
 11
279.9005324883
 21
218.6988213934
 31
0.0
  0
SPLINE
  5
153
330
1F
100
AcDbEntity
  8
0
  6
Continuous
 62
     7
370
    15
100
AcDbSpline
210
0.0
220
0.0
230
1.0
 70
     8
 71
     3
 72
    12
 73
     8
 74
     0
 42
0.00000001
 43
0.00000001
 12
1.0
 22
0.0
 32
0.0
 13
1.0
 23
0.0
 33
0.0
 40
0.0
 40
0.0
 40
0.0
 40
0.0
 40
0.2146536462805685
 40
0.429311858208906
 40
0.6438952853802714
 40
0.8585121147141749
 40
1.0
 40
1.0
 40
1.0
 40
1.0
 10
282.400532898032
 20
221.0259580888074
 30
0.0
 10
282.3729354150069
 20
220.7629187656715
 30
0.0
 10
282.3177398619628
 20
220.2368345245966
 30
0.0
 10
281.8870252979584
 20
219.539816133029
 30
0.0
 10
281.2529692083137
 20
219.0156094772353
 30
0.0
 10
280.5499792024374
 20
218.7383610807415
 30
0.0
 10
280.0851993064737
 20
218.7100642992549
 30
0.0
 10
279.9005324882501
 20
218.6988213934225
 30
0.0
  0
LINE
  5
154
330
1F
100
AcDbEntity
  8
0
  6
Continuous
 62
     7
370
    15
100
AcDbLine
 10
282.400532898
 20
221.0259580888
 30
0.0
 11
282.400532898
 21
222.9698946603
 31
0.0
  0
SPLINE
  5
155
330
1F
100
AcDbEntity
  8
0
  6
Continuous
 62
     7
370
    15
100
AcDbSpline
210
0.0
220
0.0
230
1.0
 70
     8
 71
     3
 72
    12
 73
     8
 74
     0
 42
0.00000001
 43
0.00000001
 12
1.0
 22
0.0
 32
0.0
 13
1.0
 23
0.0
 33
0.0
 40
0.0
 40
0.0
 40
0.0
 40
0.0
 40
0.2146628340000021
 40
0.429326521978313
 40
0.6439762918209642
 40
0.8585775106320231
 40
1.0
 40
1.0
 40
1.0
 40
1.0
 10
279.9005324882501
 20
225.35268346744
 30
0.0
 10
280.1815889993179
 20
225.3261919329472
 30
0.0
 10
280.7437031395613
 20
225.2732087585721
 30
0.0
 10
281.492867013582
 20
224.860528287726
 30
0.0
 10
282.058179860874
 20
224.2547704744636
 30
0.0
 10
282.3578187593939
 20
223.585421771021
 30
0.0
 10
282.3883893941773
 20
223.1448872056165
 30
0.0
 10
282.400532898032
 20
222.9698946602863
 30
0.0
  0
LINE
  5
156
330
1F
100
AcDbEntity
  8
0
  6
Continuous
 62
     7
370
    15
100
AcDbLine
 10
259.9005310726
 20
225.3526834674
 30
0.0
 11
279.9005324883
 21
225.3526834674
 31
0.0
  0
SPLINE
  5
157
330
1F
100
AcDbEntity
  8
0
  6
Continuous
 62
     7
370
    15
100
AcDbSpline
210
0.0
220
0.0
230
1.0
 70
     8
 71
     3
 72
    12
 73
     8
 74
     0
 42
0.00000001
 43
0.00000001
 12
1.0
 22
0.0
 32
0.0
 13
1.0
 23
0.0
 33
0.0
 40
0.0
 40
0.0
 40
0.0
 40
0.0
 40
0.2146537127600479
 40
0.4293113481956417
 40
0.6438953844902983
 40
0.8585125868174399
 40
1.0
 40
1.0
 40
1.0
 40
1.0
 10
257.4005334568255
 20
222.9698946602863
 30
0.0
 10
257.4281310293553
 20
223.2364543065834
 30
0.0
 10
257.4833266787448
 20
223.7695784704048
 30
0.0
 10
257.9140393121141
 20
224.4837960033925
 30
0.0
 10
258.5480933774899
 20
225.0243111084817
 30
0.0
 10
259.2510853348072
 20
225.3116616092184
 30
0.0
 10
259.715864936227
 20
225.3410191394985
 30
0.0
 10
259.9005310726398
 20
225.35268346744
 30
0.0
  0
LINE
  5
158
330
1F
100
AcDbEntity
  8
0
  6
Continuous
 62
     7
370
    15
100
AcDbLine
 10
257.4005334568
 20
222.9698946603
 30
0.0
 11
257.4005334568
 21
221.0259580888
 31
0.0
  0
SPLINE
  5
159
330
1F
100
AcDbEntity
  8
0
  6
Continuous
 62
     7
370
    15
100
AcDbSpline
210
0.0
220
0.0
230
1.0
 70
     8
 71
     3
 72
    12
 73
     8
 74
     0
 42
0.00000001
 43
0.00000001
 12
1.0
 22
0.0
 32
0.0
 13
1.0
 23
0.0
 33
0.0
 40
0.0
 40
0.0
 40
0.0
 40
0.0
 40
0.2146624234764083
 40
0.4293254154246995
 40
0.6439765228503826
 40
0.8585770294890643
 40
1.0
 40
1.0
 40
1.0
 40
1.0
 10
259.9005310726398
 20
203.953820643596
 30
0.0
 10
259.619475281183
 20
203.9759627082279
 30
0.0
 10
259.0573629539738
 20
204.0202468961286
 30
0.0
 10
258.3081976976665
 20
204.3665752875836
 30
0.0
 10
257.7428865202056
 20
204.8794408397714
 30
0.0
 10
257.4432457737773
 20
205.4520330858081
 30
0.0
 10
257.4126764779871
 20
205.8338317560947
 30
0.0
 10
257.4005334568255
 20
205.9854933895391
 30
0.0
  0
LINE
  5
15A
330
1F
100
AcDbEntity
  8
0
  6
Continuous
 62
     7
370
    15
100
AcDbLine
 10
259.9005310726
 20
203.9538206436
 30
0.0
 11
279.9005324883
 21
203.9538206436
 31
0.0
  0
SPLINE
  5
15B
330
1F
100
AcDbEntity
  8
0
  6
Continuous
 62
     7
370
    15
100
AcDbSpline
210
0.0
220
0.0
230
1.0
 70
     8
 71
     3
 72
    12
 73
     8
 74
     0
 42
0.00000001
 43
0.00000001
 12
1.0
 22
0.0
 32
0.0
 13
1.0
 23
0.0
 33
0.0
 40
0.0
 40
0.0
 40
0.0
 40
0.0
 40
0.214654643435431
 40
0.4293117912416345
 40
0.6438956834187439
 40
0.8585123132650225
 40
1.0
 40
1.0
 40
1.0
 40
1.0
 10
282.400532898032
 20
205.9854933895391
 30
0.0
 10
282.3729359337528
 20
205.7547719019688
 30
0.0
 10
282.3177416832212
 20
205.2933262350057
 30
0.0
 10
281.8870227439213
 20
204.6850118646884
 30
0.0
 10
281.2529707861254
 20
204.2288272873398
 30
0.0
 10
280.5499792755741
 20
203.9881332533234
 30
0.0
 10
280.0851992895321
 20
203.9635772549238
 30
0.0
 10
279.9005324882501
 20
203.953820643596
 30
0.0
  0
LINE
  5
15C
330
1F
100
AcDbEntity
  8
0
  6
Continuous
 62
     7
370
    15
100
AcDbLine
 10
282.400532898
 20
205.9854933895
 30
0.0
 11
282.400532898
 21
207.7006989993
 31
0.0
  0
SPLINE
  5
15D
330
1F
100
AcDbEntity
  8
0
  6
Continuous
 62
     7
370
    15
100
AcDbSpline
210
0.0
220
0.0
230
1.0
 70
     8
 71
     3
 72
    12
 73
     8
 74
     0
 42
0.00000001
 43
0.00000001
 12
1.0
 22
0.0
 32
0.0
 13
1.0
 23
0.0
 33
0.0
 40
0.0
 40
0.0
 40
0.0
 40
0.0
 40
0.2146628193045357
 40
0.4293261767577288
 40
0.6439765173508291
 40
0.8585776013677859
 40
1.0
 40
1.0
 40
1.0
 40
1.0
 10
279.9005324882501
 20
209.8247626699728
 30
0.0
 10
280.1815888395027
 20
209.8010124273712
 30
0.0
 10
280.7437022466017
 20
209.7535118826275
 30
0.0
 10
281.4928689006076
 20
209.383943889039
 30
0.0
 10
282.0581786582828
 20
208.8428511101049
 30
0.0
 10
282.3578188860153
 20
208.2467454694596
 30
0.0
 10
282.388389430246
 20
207.8559384022057
 30
0.0
 10
282.400532898032
 20
207.7006989993375
 30
0.0
  0
LINE
  5
15E
330
1F
100
AcDbEntity
  8
0
  6
Continuous
 62
     7
370
    15
100
AcDbLine
 10
259.9005310726
 20
209.82476267
 30
0.0
 11
279.9005324883
 21
209.82476267
 31
0.0
  0
SPLINE
  5
15F
330
1F
100
AcDbEntity
  8
0
  6
Continuous
 62
     7
370
    15
100
AcDbSpline
210
0.0
220
0.0
230
1.0
 70
     8
 71
     3
 72
    12
 73
     8
 74
     0
 42
0.00000001
 43
0.00000001
 12
1.0
 22
0.0
 32
0.0
 13
1.0
 23
0.0
 33
0.0
 40
0.0
 40
0.0
 40
0.0
 40
0.0
 40
0.2146535112357896
 40
0.4293112203184922
 40
0.6438951319607682
 40
0.8585126496374867
 40
1.0
 40
1.0
 40
1.0
 40
1.0
 10
257.4005334568255
 20
207.7006989993375
 30
0.0
 10
257.4281311099696
 20
207.9372623541735
 30
0.0
 10
257.4833269559682
 20
208.4103936901697
 30
0.0
 10
257.9140388386888
 20
209.0472639700695
 30
0.0
 10
258.5480944633404
 20
209.5305203288882
 30
0.0
 10
259.2510844851355
 20
209.7879971579611
 30
0.0
 10
259.7158648470241
 20
209.8143086180666
 30
0.0
 10
259.9005310726398
 20
209.8247626699728
 30
0.0
  0
LINE
  5
160
330
1F
100
AcDbEntity
  8
0
  6
Continuous
 62
     7
370
    15
100
AcDbLine
 10
257.4005334568
 20
207.7006989993
 30
0.0
 11
257.4005334568
 21
205.9854933895
 31
0.0
  0
SPLINE
  5
161
330
1F
100
AcDbEntity
  8
0
  6
Continuous
 62
     7
370
    15
100
AcDbSpline
210
0.0
220
0.0
230
1.0
 70
     8
 71
     3
 72
    12
 73
     8
 74
     0
 42
0.00000001
 43
0.00000001
 12
1.0
 22
0.0
 32
0.0
 13
1.0
 23
0.0
 33
0.0
 40
0.0
 40
0.0
 40
0.0
 40
0.0
 40
0.2146624378156496
 40
0.4293253738571824
 40
0.6439761014979271
 40
0.8585766101708537
 40
1.0
 40
1.0
 40
1.0
 40
1.0
 10
259.9005310726398
 20
191.7141223229688
 30
0.0
 10
259.6194752793269
 20
191.7315305695111
 30
0.0
 10
259.0573630403779
 20
191.7663471029999
 30
0.0
 10
258.308198336755
 20
192.0391573189911
 30
0.0
 10
257.742885938108
 20
192.4447963942532
 30
0.0
 10
257.4432455987875
 20
192.8997955314752
 30
0.0
 10
257.4126764437205
 20
193.2049558119415
 30
0.0
 10
257.4005334568255
 20
193.3261746444028
 30
0.0
  0
LINE
  5
162
330
1F
100
AcDbEntity
  8
0
  6
Continuous
 62
     7
370
    15
100
AcDbLine
 10
259.9005310726
 20
191.714122323
 30
0.0
 11
279.9005324883
 21
191.714122323
 31
0.0
  0
SPLINE
  5
163
330
1F
100
AcDbEntity
  8
0
  6
Continuous
 62
     7
370
    15
100
AcDbSpline
210
0.0
220
0.0
230
1.0
 70
     8
 71
     3
 72
    12
 73
     8
 74
     0
 42
0.00000001
 43
0.00000001
 12
1.0
 22
0.0
 32
0.0
 13
1.0
 23
0.0
 33
0.0
 40
0.0
 40
0.0
 40
0.0
 40
0.0
 40
0.2146541638371009
 40
0.4293117864996634
 40
0.6438955234128005
 40
0.858512181450387
 40
1.0
 40
1.0
 40
1.0
 40
1.0
 10
282.400532898032
 20
193.3261746444028
 30
0.0
 10
282.3729357031756
 20
193.1418729127407
 30
0.0
 10
282.317740868776
 20
192.7732664796743
 30
0.0
 10
281.8870237589435
 20
192.2908280195466
 30
0.0
 10
281.2529703682605
 20
191.9305406130157
 30
0.0
 10
280.5499789845841
 20
191.7411081149424
 30
0.0
 10
280.0851992705316
 20
191.721795594592
 30
0.0
 10
279.9005324882501
 20
191.7141223229688
 30
0.0
  0
LINE
  5
164
330
1F
100
AcDbEntity
  8
0
  6
Continuous
 62
     7
370
    15
100
AcDbLine
 10
282.400532898
 20
193.3261746444
 30
0.0
 11
282.400532898
 21
194.7078363873
 31
0.0
  0
SPLINE
  5
165
330
1F
100
AcDbEntity
  8
0
  6
Continuous
 62
     7
370
    15
100
AcDbSpline
210
0.0
220
0.0
230
1.0
 70
     8
 71
     3
 72
    12
 73
     8
 74
     0
 42
0.00000001
 43
0.00000001
 12
1.0
 22
0.0
 32
0.0
 13
1.0
 23
0.0
 33
0.0
 40
0.0
 40
0.0
 40
0.0
 40
0.0
 40
0.2146628720591996
 40
0.4293267427257991
 40
0.6439768466057982
 40
0.8585772088669581
 40
1.0
 40
1.0
 40
1.0
 40
1.0
 10
279.9005324882501
 20
196.4433783568662
 30
0.0
 10
280.1815890228344
 20
196.4238195903733
 30
0.0
 10
280.7437033994722
 20
196.3847019664003
 30
0.0
 10
281.4928674016682
 20
196.0808275547912
 30
0.0
 10
282.0581782532151
 20
195.6374671562831
 30
0.0
 10
282.3578193941642
 20
195.1510387435885
 30
0.0
 10
282.3883895425528
 20
194.833837845273
 30
0.0
 10
282.400532898032
 20
194.7078363873285
 30
0.0
  0
LINE
  5
166
330
1F
100
AcDbEntity
  8
0
  6
Continuous
 62
     7
370
    15
100
AcDbLine
 10
259.9005310726
 20
196.4433783569
 30
0.0
 11
279.9005324883
 21
196.4433783569
 31
0.0
  0
SPLINE
  5
167
330
1F
100
AcDbEntity
  8
0
  6
Continuous
 62
     7
370
    15
100
AcDbSpline
210
0.0
220
0.0
230
1.0
 70
     8
 71
     3
 72
    12
 73
     8
 74
     0
 42
0.00000001
 43
0.00000001
 12
1.0
 22
0.0
 32
0.0
 13
1.0
 23
0.0
 33
0.0
 40
0.0
 40
0.0
 40
0.0
 40
0.0
 40
0.2146535662427733
 40
0.4293110774360244
 40
0.6438951070324217
 40
0.8585126164568747
 40
1.0
 40
1.0
 40
1.0
 40
1.0
 10
257.4005334568255
 20
194.7078363873285
 30
0.0
 10
257.4281310353966
 20
194.8999484384629
 30
0.0
 10
257.4833266997331
 20
195.2841760714094
 30
0.0
 10
257.9140393689429
 20
195.8047791923505
 30
0.0
 10
258.5480941331879
 20
196.2012482231757
 30
0.0
 10
259.25108462126
 20
196.4131107559842
 30
0.0
 10
259.7158648639891
 20
196.4347719458404
 30
0.0
 10
259.9005310726398
 20
196.4433783568662
 30
0.0
  0
LINE
  5
168
330
1F
100
AcDbEntity
  8
0
  6
Continuous
 62
     7
370
    15
100
AcDbLine
 10
257.4005334568
 20
194.7078363873
 30
0.0
 11
257.4005334568
 21
193.3261746444
 31
0.0
  0
SPLINE
  5
169
330
1F
100
AcDbEntity
  8
0
  6
Continuous
 62
     7
370
    15
100
AcDbSpline
210
0.0
220
0.0
230
1.0
 70
     8
 71
     3
 72
    12
 73
     8
 74
     0
 42
0.00000001
 43
0.00000001
 12
1.0
 22
0.0
 32
0.0
 13
1.0
 23
0.0
 33
0.0
 40
0.0
 40
0.0
 40
0.0
 40
0.0
 40
0.2146531764798919
 40
0.4293117221178919
 40
0.6438953285869745
 40
0.858512162344359
 40
1.0
 40
1.0
 40
1.0
 40
1.0
 10
282.400532898032
 20
183.8216068126482
 30
0.0
 10
282.3729352544536
 20
183.6949872632416
 30
0.0
 10
282.317739276992
 20
183.4417449972712
 30
0.0
 10
281.8870254982916
 20
183.1146592143994
 30
0.0
 10
281.2529695198853
 20
182.8722976463711
 30
0.0
 10
280.5499793307256
 20
182.7456995626786
 30
0.0
 10
280.0851993144974
 20
182.732808415074
 30
0.0
 10
279.9005324882501
 20
182.7276864923757
 30
0.0
  0
LINE
  5
16A
330
1F
100
AcDbEntity
  8
0
  6
Continuous
 62
     7
370
    15
100
AcDbLine
 10
282.400532898
 20
183.8216068126
 30
0.0
 11
282.400532898
 21
184.7852909841
 31
0.0
  0
SPLINE
  5
16B
330
1F
100
AcDbEntity
  8
0
  6
Continuous
 62
     7
370
    15
100
AcDbSpline
210
0.0
220
0.0
230
1.0
 70
     8
 71
     3
 72
    12
 73
     8
 74
     0
 42
0.00000001
 43
0.00000001
 12
1.0
 22
0.0
 32
0.0
 13
1.0
 23
0.0
 33
0.0
 40
0.0
 40
0.0
 40
0.0
 40
0.0
 40
0.2146629199714794
 40
0.4293264162009244
 40
0.6439761471182267
 40
0.8585770850671621
 40
1.0
 40
1.0
 40
1.0
 40
1.0
 10
279.9005324882501
 20
186.0262559630197
 30
0.0
 10
280.1815889016742
 20
186.0120816026867
 30
0.0
 10
280.7437024830122
 20
185.98373284397
 30
0.0
 10
281.4928674140874
 20
185.7641366812459
 30
0.0
 10
282.0581794717112
 20
185.4455889420126
 30
0.0
 10
282.3578191408225
 20
185.0985691980275
 30
0.0
 10
282.3883894799959
 20
184.8743552238545
 30
0.0
 10
282.400532898032
 20
184.7852909840864
 30
0.0
  0
LINE
  5
16C
330
1F
100
AcDbEntity
  8
0
  6
Continuous
 62
     7
370
    15
100
AcDbLine
 10
271.9005330396
 20
186.026255963
 30
0.0
 11
279.9005324883
 21
186.026255963
 31
0.0
  0
SPLINE
  5
16D
330
1F
100
AcDbEntity
  8
0
  6
Continuous
 62
     7
370
    15
100
AcDbSpline
210
0.0
220
0.0
230
1.0
 70
     8
 71
     3
 72
    12
 73
     8
 74
     0
 42
0.00000001
 43
0.00000001
 12
1.0
 22
0.0
 32
0.0
 13
1.0
 23
0.0
 33
0.0
 40
0.0
 40
0.0
 40
0.0
 40
0.0
 40
0.2146533435568679
 40
0.4293119018992886
 40
0.6438948104130258
 40
0.8585116061177483
 40
1.0
 40
1.0
 40
1.0
 40
1.0
 10
269.4005316984885
 20
184.7852909840864
 30
0.0
 10
269.4281302149918
 20
184.9212117717815
 30
0.0
 10
269.4833279184764
 20
185.1930566492294
 30
0.0
 10
269.9140389723365
 20
185.5655796328873
 30
0.0
 10
270.5480950031047
 20
185.8510328109851
 30
0.0
 10
271.2510852180635
 20
186.0043320303545
 30
0.0
 10
271.7158656077144
 20
186.0200219959361
 30
0.0
 10
271.900533039593
 20
186.0262559630197
 30
0.0
  0
LINE
  5
16E
330
1F
100
AcDbEntity
  8
0
  6
Continuous
 62
     7
370
    15
100
AcDbLine
 10
269.4005316985
 20
183.8216068126
 30
0.0
 11
269.4005316985
 21
184.7852909841
 31
0.0
  0
SPLINE
  5
16F
330
1F
100
AcDbEntity
  8
0
  6
Continuous
 62
     7
370
    15
100
AcDbSpline
210
0.0
220
0.0
230
1.0
 70
     8
 71
     3
 72
    12
 73
     8
 74
     0
 42
0.00000001
 43
0.00000001
 12
1.0
 22
0.0
 32
0.0
 13
1.0
 23
0.0
 33
0.0
 40
0.0
 40
0.0
 40
0.0
 40
0.0
 40
0.2146628527269726
 40
0.4293262329250006
 40
0.6439767854770977
 40
0.8585777937760879
 40
1.0
 40
1.0
 40
1.0
 40
1.0
 10
271.900533039593
 20
182.7276864923757
 30
0.0
 10
271.6194766670969
 20
182.7392965705408
 30
0.0
 10
271.0573632314909
 20
182.7625167553994
 30
0.0
 10
270.308196698516
 20
182.9451409283722
 30
0.0
 10
269.7428855474981
 20
183.2187626392968
 30
0.0
 10
269.4432473250138
 20
183.5283662003328
 30
0.0
 10
269.4126756199952
 20
183.7382394066605
 30
0.0
 10
269.4005316984885
 20
183.8216068126482
 30
0.0
  0
LINE
  5
170
330
1F
100
AcDbEntity
  8
0
  6
Continuous
 62
     7
370
    15
100
AcDbLine
 10
271.9005330396
 20
182.7276864924
 30
0.0
 11
279.9005324883
 21
182.7276864924
 31
0.0
  0
SPLINE
  5
171
330
1F
100
AcDbEntity
  8
0
  6
Continuous
 62
     7
370
    15
100
AcDbSpline
210
0.0
220
0.0
230
1.0
 70
     8
 71
     3
 72
    12
 73
     8
 74
     0
 42
0.00000001
 43
0.00000001
 12
1.0
 22
0.0
 32
0.0
 13
1.0
 23
0.0
 33
0.0
 40
0.0
 40
0.0
 40
0.0
 40
0.0
 40
0.2146537323107924
 40
0.4293102939806304
 40
0.6438954931384487
 40
0.8585108660903074
 40
1.0
 40
1.0
 40
1.0
 40
1.0
 10
137.4005361390346
 20
178.5244488992017
 30
0.0
 10
137.428134390003
 20
178.5956348155859
 30
0.0
 10
137.4833312557134
 20
178.7380075866587
 30
0.0
 10
137.9140328608468
 20
178.9390619208037
 30
0.0
 10
138.548095263947
 20
179.0955765345213
 30
0.0
 10
139.2510842430115
 20
179.1807032828993
 30
0.0
 10
139.7158648977358
 20
179.1894319669818
 30
0.0
 10
139.9005337548488
 20
179.1929000891965
 30
0.0
  0
LINE
  5
172
330
1F
100
AcDbEntity
  8
0
  6
Continuous
 62
     7
370
    15
100
AcDbLine
 10
137.400536139
 20
178.0393863
 30
0.0
 11
137.400536139
 21
178.5244488992
 31
0.0
  0
SPLINE
  5
173
330
1F
100
AcDbEntity
  8
0
  6
Continuous
 62
     7
370
    15
100
AcDbSpline
210
0.0
220
0.0
230
1.0
 70
     8
 71
     3
 72
    12
 73
     8
 74
     0
 42
0.00000001
 43
0.00000001
 12
1.0
 22
0.0
 32
0.0
 13
1.0
 23
0.0
 33
0.0
 40
0.0
 40
0.0
 40
0.0
 40
0.0
 40
0.214663284059954
 40
0.4293262596792805
 40
0.643975551345627
 40
0.8585775196865931
 40
1.0
 40
1.0
 40
1.0
 40
1.0
 10
139.9005337548488
 20
177.5325754560751
 30
0.0
 10
139.6194768595889
 20
177.5376572464815
 30
0.0
 10
139.0573634729078
 20
177.5478208199926
 30
0.0
 10
138.3081963636504
 20
177.6287248648678
 30
0.0
 10
137.742896076174
 20
177.7530582573663
 30
0.0
 10
137.4432363353263
 20
177.8977548930766
 30
0.0
 10
137.4126756604946
 20
177.999120969803
 30
0.0
 10
137.4005361390346
 20
178.0393863000196
 30
0.0
  0
LINE
  5
174
330
1F
100
AcDbEntity
  8
0
  6
Continuous
 62
     7
370
    15
100
AcDbLine
 10
147.9005350662
 20
177.5325754561
 30
0.0
 11
139.9005337548
 21
177.5325754561
 31
0.0
  0
SPLINE
  5
175
330
1F
100
AcDbEntity
  8
0
  6
Continuous
 62
     7
370
    15
100
AcDbSpline
210
0.0
220
0.0
230
1.0
 70
     8
 71
     3
 72
    12
 73
     8
 74
     0
 42
0.00000001
 43
0.00000001
 12
1.0
 22
0.0
 32
0.0
 13
1.0
 23
0.0
 33
0.0
 40
0.0
 40
0.0
 40
0.0
 40
0.0
 40
0.2146539395893365
 40
0.4293126691142298
 40
0.6438952203445923
 40
0.8585106672870995
 40
1.0
 40
1.0
 40
1.0
 40
1.0
 10
150.4005326819652
 20
178.0393863000196
 30
0.0
 10
150.3729357856041
 20
177.9784236054459
 30
0.0
 10
150.317741377066
 20
177.8564968559349
 30
0.0
 10
149.8870184641702
 20
177.7054010223522
 30
0.0
 10
149.2529742066708
 20
177.5962373251472
 30
0.0
 10
148.5499835388381
 20
177.5404875391777
 30
0.0
 10
148.085203712238
 20
177.5348252322094
 30
0.0
 10
147.900535066151
 20
177.5325754560751
 30
0.0
  0
LINE
  5
176
330
1F
100
AcDbEntity
  8
0
  6
Continuous
 62
     7
370
    15
100
AcDbLine
 10
150.400532682
 20
178.0393863
 30
0.0
 11
150.400532682
 21
178.5244488992
 31
0.0
  0
SPLINE
  5
177
330
1F
100
AcDbEntity
  8
0
  6
Continuous
 62
     7
370
    15
100
AcDbSpline
210
0.0
220
0.0
230
1.0
 70
     8
 71
     3
 72
    12
 73
     8
 74
     0
 42
0.00000001
 43
0.00000001
 12
1.0
 22
0.0
 32
0.0
 13
1.0
 23
0.0
 33
0.0
 40
0.0
 40
0.0
 40
0.0
 40
0.0
 40
0.2146634332645011
 40
0.429326657997058
 40
0.6439763976972547
 40
0.8585766136289028
 40
1.0
 40
1.0
 40
1.0
 40
1.0
 10
147.900535066151
 20
179.1929000891965
 30
0.0
 10
148.181592127822
 20
179.1850035925923
 30
0.0
 10
148.743705978135
 20
179.1692106070549
 30
0.0
 10
149.4928710332916
 20
179.047647724596
 30
0.0
 10
150.0581774157794
 20
178.8739259918856
 30
0.0
 10
150.3578095153055
 20
178.6881065638624
 30
0.0
 10
150.3883865537484
 20
178.5709765125332
 30
0.0
 10
150.4005326819652
 20
178.5244488992017
 30
0.0
  0
LINE
  5
178
330
1F
100
AcDbEntity
  8
0
  6
Continuous
 62
     7
370
    15
100
AcDbLine
 10
147.9005350662
 20
179.1929000892
 30
0.0
 11
139.9005337548
 21
179.1929000892
 31
0.0
  0
SPLINE
  5
179
330
1F
100
AcDbEntity
  8
0
  6
Continuous
 62
     7
370
    15
100
AcDbSpline
210
0.0
220
0.0
230
1.0
 70
     8
 71
     3
 72
    12
 73
     8
 74
     0
 42
0.00000001
 43
0.00000001
 12
1.0
 22
0.0
 32
0.0
 13
1.0
 23
0.0
 33
0.0
 40
0.0
 40
0.0
 40
0.0
 40
0.0
 40
0.2146532271716299
 40
0.4293105951591908
 40
0.6438952456041529
 40
0.8585106833613512
 40
1.0
 40
1.0
 40
1.0
 40
1.0
 10
137.4005361390346
 20
184.7852909840864
 30
0.0
 10
137.4281347512399
 20
184.9212114995369
 30
0.0
 10
137.4833325080477
 20
185.1930551524429
 30
0.0
 10
137.914030605914
 20
185.5655827612201
 30
0.0
 10
138.5480966698956
 20
185.8510302864103
 30
0.0
 10
139.2510845393999
 20
186.0043328101392
 30
0.0
 10
139.7158649031996
 20
186.0200221831172
 30
0.0
 10
139.9005337548488
 20
186.0262559630197
 30
0.0
  0
LINE
  5
17A
330
1F
100
AcDbEntity
  8
0
  6
Continuous
 62
     7
370
    15
100
AcDbLine
 10
137.400536139
 20
183.8216068126
 30
0.0
 11
137.400536139
 21
184.7852909841
 31
0.0
  0
SPLINE
  5
17B
330
1F
100
AcDbEntity
  8
0
  6
Continuous
 62
     7
370
    15
100
AcDbSpline
210
0.0
220
0.0
230
1.0
 70
     8
 71
     3
 72
    12
 73
     8
 74
     0
 42
0.00000001
 43
0.00000001
 12
1.0
 22
0.0
 32
0.0
 13
1.0
 23
0.0
 33
0.0
 40
0.0
 40
0.0
 40
0.0
 40
0.0
 40
0.2146633380996388
 40
0.4293263174702729
 40
0.643975935686934
 40
0.8585780464992664
 40
1.0
 40
1.0
 40
1.0
 40
1.0
 10
139.9005337548488
 20
182.7276864923757
 30
0.0
 10
139.619476896611
 20
182.7392965426562
 30
0.0
 10
139.0573636498162
 20
182.7625166238154
 30
0.0
 10
138.3081957157053
 20
182.9451402560575
 30
0.0
 10
137.7428964047791
 20
183.2187647509354
 30
0.0
 10
137.4432366465524
 20
183.528364805208
 30
0.0
 10
137.4126757259895
 20
183.7382392590734
 30
0.0
 10
137.4005361390346
 20
183.8216068126482
 30
0.0
  0
LINE
  5
17C
330
1F
100
AcDbEntity
  8
0
  6
Continuous
 62
     7
370
    15
100
AcDbLine
 10
147.9005350662
 20
182.7276864924
 30
0.0
 11
139.9005337548
 21
182.7276864924
 31
0.0
  0
SPLINE
  5
17D
330
1F
100
AcDbEntity
  8
0
  6
Continuous
 62
     7
370
    15
100
AcDbSpline
210
0.0
220
0.0
230
1.0
 70
     8
 71
     3
 72
    12
 73
     8
 74
     0
 42
0.00000001
 43
0.00000001
 12
1.0
 22
0.0
 32
0.0
 13
1.0
 23
0.0
 33
0.0
 40
0.0
 40
0.0
 40
0.0
 40
0.0
 40
0.2146533368316005
 40
0.4293126197660487
 40
0.6438949638133628
 40
0.8585106364320108
 40
1.0
 40
1.0
 40
1.0
 40
1.0
 10
150.4005326819652
 20
183.8216068126482
 30
0.0
 10
150.3729354984059
 20
183.6949871328551
 30
0.0
 10
150.3177403668189
 20
183.4417442657828
 30
0.0
 10
149.8870197866006
 20
183.1146609390509
 30
0.0
 10
149.2529731297066
 20
182.8722973378893
 30
0.0
 10
148.5499839560773
 20
182.7456990659265
 30
0.0
 10
148.0852037644943
 20
182.7328083096011
 30
0.0
 10
147.900535066151
 20
182.7276864923757
 30
0.0
  0
LINE
  5
17E
330
1F
100
AcDbEntity
  8
0
  6
Continuous
 62
     7
370
    15
100
AcDbLine
 10
150.400532682
 20
183.8216068126
 30
0.0
 11
150.400532682
 21
184.7852909841
 31
0.0
  0
SPLINE
  5
17F
330
1F
100
AcDbEntity
  8
0
  6
Continuous
 62
     7
370
    15
100
AcDbSpline
210
0.0
220
0.0
230
1.0
 70
     8
 71
     3
 72
    12
 73
     8
 74
     0
 42
0.00000001
 43
0.00000001
 12
1.0
 22
0.0
 32
0.0
 13
1.0
 23
0.0
 33
0.0
 40
0.0
 40
0.0
 40
0.0
 40
0.0
 40
0.2146636057974652
 40
0.4293269016531424
 40
0.6439760570293188
 40
0.8585767583811706
 40
1.0
 40
1.0
 40
1.0
 40
1.0
 10
147.900535066151
 20
186.0262559630197
 30
0.0
 10
148.1815921473773
 20
186.0120816737169
 30
0.0
 10
148.7437059040259
 20
185.9837331155767
 30
0.0
 10
149.4928696896169
 20
185.7641369852392
 30
0.0
 10
150.0581790026063
 20
185.44558868647
 30
0.0
 10
150.3578090983708
 20
185.0985685408758
 30
0.0
 10
150.3883864524303
 20
184.8743551681448
 30
0.0
 10
150.4005326819652
 20
184.7852909840864
 30
0.0
  0
LINE
  5
180
330
1F
100
AcDbEntity
  8
0
  6
Continuous
 62
     7
370
    15
100
AcDbLine
 10
147.9005350662
 20
186.026255963
 30
0.0
 11
139.9005337548
 21
186.026255963
 31
0.0
  0
SPLINE
  5
181
330
1F
100
AcDbEntity
  8
0
  6
Continuous
 62
     7
370
    15
100
AcDbSpline
210
0.0
220
0.0
230
1.0
 70
     8
 71
     3
 72
    11
 73
     7
 74
     0
 42
0.00000001
 43
0.00000001
 12
1.0
 22
0.0
 32
0.0
 13
1.0
 23
0.0
 33
0.0
 40
0.0
 40
0.0
 40
0.0
 40
0.0
 40
0.2780750663818481
 40
0.5561543750781913
 40
0.8341411210474834
 40
0.9999999999999999
 40
0.9999999999999999
 40
0.9999999999999999
 40
0.9999999999999999
 10
137.4005361390346
 20
207.7006989993375
 30
0.0
 10
137.4278999323055
 20
207.9378295484692
 30
0.0
 10
137.4826279363096
 20
208.4120942643974
 30
0.0
 10
137.9168469817982
 20
209.0404580600725
 30
0.0
 10
138.4540748968509
 20
209.4867111482208
 30
0.0
 10
138.8788248215918
 20
209.6141132412018
 30
0.0
 10
139.0375479054683
 20
209.6617216147703
 30
0.0
  0
LINE
  5
182
330
1F
100
AcDbEntity
  8
0
  6
Continuous
 62
     7
370
    15
100
AcDbLine
 10
137.400536139
 20
205.9854933895
 30
0.0
 11
137.400536139
 21
207.7006989993
 31
0.0
  0
SPLINE
  5
183
330
1F
100
AcDbEntity
  8
0
  6
Continuous
 62
     7
370
    15
100
AcDbSpline
210
0.0
220
0.0
230
1.0
 70
     8
 71
     3
 72
    12
 73
     8
 74
     0
 42
0.00000001
 43
0.00000001
 12
1.0
 22
0.0
 32
0.0
 13
1.0
 23
0.0
 33
0.0
 40
0.0
 40
0.0
 40
0.0
 40
0.0
 40
0.21466324487262
 40
0.4293261190769741
 40
0.6439758419165788
 40
0.8585773175631658
 40
1.0
 40
1.0
 40
1.0
 40
1.0
 10
139.9005337548488
 20
203.953820643596
 30
0.0
 10
139.6194769206964
 20
203.9759626941599
 30
0.0
 10
139.0573637377047
 20
204.0202467570539
 30
0.0
 10
138.3081952234345
 20
204.3665730558386
 30
0.0
 10
137.7428974504242
 20
204.8794453582815
 30
0.0
 10
137.4432359045436
 20
205.4520306063563
 30
0.0
 10
137.4126755575328
 20
205.8338314798986
 30
0.0
 10
137.4005361390346
 20
205.9854933895391
 30
0.0
  0
LINE
  5
184
330
1F
100
AcDbEntity
  8
0
  6
Continuous
 62
     7
370
    15
100
AcDbLine
 10
159.9005295825
 20
203.9538206436
 30
0.0
 11
139.9005337548
 21
203.9538206436
 31
0.0
  0
SPLINE
  5
185
330
1F
100
AcDbEntity
  8
0
  6
Continuous
 62
     7
370
    15
100
AcDbSpline
210
0.0
220
0.0
230
1.0
 70
     8
 71
     3
 72
    12
 73
     8
 74
     0
 42
0.00000001
 43
0.00000001
 12
1.0
 22
0.0
 32
0.0
 13
1.0
 23
0.0
 33
0.0
 40
0.0
 40
0.0
 40
0.0
 40
0.0
 40
0.2146545892951422
 40
0.4293104137037071
 40
0.6438956744817095
 40
0.8585109287362279
 40
1.0
 40
1.0
 40
1.0
 40
1.0
 10
162.4005271983378
 20
205.9854933895391
 30
0.0
 10
162.3729293134379
 20
205.7547723753781
 30
0.0
 10
162.317733384841
 20
205.2933290194973
 30
0.0
 10
161.8870291794539
 20
204.6850071560938
 30
0.0
 10
161.2529685791218
 20
204.2288309043579
 30
0.0
 10
160.5499790066455
 20
203.9881318473035
 30
0.0
 10
160.085198423481
 20
203.9635769232772
 30
0.0
 10
159.9005295825237
 20
203.953820643596
 30
0.0
  0
LINE
  5
186
330
1F
100
AcDbEntity
  8
0
  6
Continuous
 62
     7
370
    15
100
AcDbLine
 10
162.4005271983
 20
207.7006989993
 30
0.0
 11
162.4005271983
 21
205.9854933895
 31
0.0
  0
SPLINE
  5
187
330
1F
100
AcDbEntity
  8
0
  6
Continuous
 62
     7
370
    15
100
AcDbSpline
210
0.0
220
0.0
230
1.0
 70
     8
 71
     3
 72
    11
 73
     7
 74
     0
 42
0.00000001
 43
0.00000001
 12
1.0
 22
0.0
 32
0.0
 13
1.0
 23
0.0
 33
0.0
 40
0.0
 40
0.0
 40
0.0
 40
0.0
 40
0.2485392115670116
 40
0.5311888124206446
 40
0.8137759067760715
 40
1.0
 40
1.0
 40
1.0
 40
1.0
 10
160.8166827750438
 20
209.6617216147703
 30
0.0
 10
161.041469504979
 20
209.5711474740119
 30
0.0
 10
161.5218934806139
 20
209.3775684811354
 30
0.0
 10
162.0563801306961
 20
208.8384598626519
 30
0.0
 10
162.3581010003467
 20
208.2474211381053
 30
0.0
 10
162.3884655880989
 20
207.856130069268
 30
0.0
 10
162.4005271983379
 20
207.7006989993375
 30
0.0
  0
SPLINE
  5
188
330
1F
100
AcDbEntity
  8
0
  6
Continuous
 62
     7
370
    15
100
AcDbSpline
210
0.0
220
0.0
230
1.0
 70
     8
 71
     3
 72
    10
 73
     6
 74
     0
 42
0.00000001
 43
0.00000001
 12
1.0
 22
0.0
 32
0.0
 13
1.0
 23
0.0
 33
0.0
 40
0.0
 40
0.0
 40
0.0
 40
0.0
 40
0.4754952751519471
 40
0.9509833029481147
 40
1.0
 40
1.0
 40
1.0
 40
1.0
 10
159.4005360198253
 20
258.9149664990824
 30
0.0
 10
159.6221708876066
 20
258.8903956999279
 30
0.0
 10
160.0654372450774
 20
258.8412544761197
 30
0.0
 10
160.5187028611321
 20
258.6353078716203
 30
0.0
 10
160.6805184426867
 20
258.4521094208176
 30
0.0
 10
160.6956406426662
 20
258.4349889211577
 30
0.0
  0
SPLINE
  5
189
330
1F
100
AcDbEntity
  8
0
  6
Continuous
 62
     7
370
    15
100
AcDbSpline
210
0.0
220
0.0
230
1.0
 70
     8
 71
     3
 72
    10
 73
     6
 74
     0
 42
0.00000001
 43
0.00000001
 12
1.0
 22
0.0
 32
0.0
 13
1.0
 23
0.0
 33
0.0
 40
0.0
 40
0.0
 40
0.0
 40
0.0
 40
0.2248443663901965
 40
0.7008475023915011
 40
1.0
 40
1.0
 40
1.0
 40
1.0
 10
158.1180675816768
 20
258.4225250311416
 30
0.0
 10
158.1948036783907
 20
258.4945350758977
 30
0.0
 10
158.4339926898328
 20
258.7189928233815
 30
0.0
 10
158.8973609476207
 20
258.8806656490926
 30
0.0
 10
159.2604215822536
 20
258.9054150634688
 30
0.0
 10
159.4005360198253
 20
258.9149664990824
 30
0.0
  0
SPLINE
  5
18A
330
1F
100
AcDbEntity
  8
0
  6
Continuous
 62
     7
370
    15
100
AcDbSpline
210
0.0
220
0.0
230
1.0
 70
     8
 71
     3
 72
     9
 73
     5
 74
     0
 42
0.00000001
 43
0.00000001
 12
1.0
 22
0.0
 32
0.0
 13
1.0
 23
0.0
 33
0.0
 40
0.0
 40
0.0
 40
0.0
 40
0.0
 40
0.5742556635561118
 40
1.0
 40
1.0
 40
1.0
 40
1.0
 10
159.4005360198253
 20
258.6349615730566
 30
0.0
 10
159.17277804293
 20
258.6181225950149
 30
0.0
 10
158.7761637971341
 20
258.5887994570637
 30
0.0
 10
158.4445159922585
 20
258.37796220911
 30
0.0
 10
158.3033188176387
 20
258.2881994448823
 30
0.0
  0
SPLINE
  5
18B
330
1F
100
AcDbEntity
  8
0
  6
Continuous
 62
     7
370
    15
100
AcDbSpline
210
0.0
220
0.0
230
1.0
 70
     8
 71
     3
 72
    10
 73
     6
 74
     0
 42
0.00000001
 43
0.00000001
 12
1.0
 22
0.0
 32
0.0
 13
1.0
 23
0.0
 33
0.0
 40
0.0
 40
0.0
 40
0.0
 40
0.0
 40
0.0548735152698306
 40
0.6352106290369802
 40
1.0
 40
1.0
 40
1.0
 40
1.0
 10
160.4918970656627
 20
258.3061497561854
 30
0.0
 10
160.4761126257238
 20
258.3200122999222
 30
0.0
 10
160.2933934400969
 20
258.4804837966681
 30
0.0
 10
159.9014646282315
 20
258.5976699520942
 30
0.0
 10
159.5400361496723
 20
258.6245764884774
 30
0.0
 10
159.4005360198253
 20
258.6349615730566
 30
0.0
  0
SPLINE
  5
18C
330
1F
100
AcDbEntity
  8
0
  6
Continuous
 62
     7
370
    15
100
AcDbSpline
210
0.0
220
0.0
230
1.0
 70
     8
 71
     3
 72
    12
 73
     8
 74
     0
 42
0.00000001
 43
0.00000001
 12
1.0
 22
0.0
 32
0.0
 13
1.0
 23
0.0
 33
0.0
 40
0.0
 40
0.0
 40
0.0
 40
0.0
 40
0.2146510064090178
 40
0.4293073500733303
 40
0.643885116908924
 40
0.8585000149933417
 40
1.0
 40
1.0
 40
1.0
 40
1.0
 10
137.4005361390346
 20
194.5686930693906
 30
0.0
 10
137.428128356371
 20
194.3842250212456
 30
0.0
 10
137.4833134771189
 20
194.0152843381935
 30
0.0
 10
137.914016741179
 20
193.532614749405
 30
0.0
 10
138.548054888818
 20
193.172235063874
 30
0.0
 10
139.2510536741688
 20
192.9827900707449
 30
0.0
 10
139.7158499208836
 20
192.9634712984304
 30
0.0
 10
139.9005337548488
 20
192.9557951070589
 30
0.0
  0
SPLINE
  5
18D
330
1F
100
AcDbEntity
  8
0
  6
Continuous
 62
     7
370
    15
100
AcDbSpline
210
0.0
220
0.0
230
1.0
 70
     8
 71
     3
 72
    12
 73
     8
 74
     0
 42
0.00000001
 43
0.00000001
 12
1.0
 22
0.0
 32
0.0
 13
1.0
 23
0.0
 33
0.0
 40
0.0
 40
0.0
 40
0.0
 40
0.0
 40
0.2146620385223183
 40
0.4293237345908226
 40
0.643971711711028
 40
0.8585681244863275
 40
1.0
 40
1.0
 40
1.0
 40
1.0
 10
159.9005295825237
 20
192.9557951070589
 30
0.0
 10
160.181586594637
 20
192.9732032342306
 30
0.0
 10
160.7437001704888
 20
193.0080194608026
 30
0.0
 10
161.4928654144851
 20
193.2808520343858
 30
0.0
 10
162.0581691774499
 20
193.68662095193
 30
0.0
 10
162.3578104338855
 20
194.141900918458
 30
0.0
 10
162.3883824829375
 20
194.4473526711977
 30
0.0
 10
162.4005271983379
 20
194.5686930693906
 30
0.0
  0
LINE
  5
18E
330
1F
100
AcDbEntity
  8
0
  6
Continuous
 62
     7
370
    15
100
AcDbLine
 10
159.9005295825
 20
192.9557951071
 30
0.0
 11
139.9005337548
 21
192.9557951071
 31
0.0
  0
SPLINE
  5
18F
330
1F
100
AcDbEntity
  8
0
  6
Continuous
 62
     7
370
    15
100
AcDbSpline
210
0.0
220
0.0
230
1.0
 70
     8
 71
     3
 72
     9
 73
     5
 74
     0
 42
0.00000001
 43
0.00000001
 12
1.0
 22
0.0
 32
0.0
 13
1.0
 23
0.0
 33
0.0
 40
0.0
 40
0.0
 40
0.0
 40
0.0
 40
0.9307277057756892
 40
1.0
 40
1.0
 40
1.0
 40
1.0
 10
279.9005324882501
 20
179.1050204910558
 30
0.0
 10
280.1908383041765
 20
179.105840189168
 30
0.0
 10
280.5027510302347
 20
179.1067208958528
 30
0.0
 10
280.7645478287194
 20
179.1349950630643
 30
0.0
 10
280.782683093571
 20
179.1369536794942
 30
0.0
  0
LINE
  5
190
330
1F
100
AcDbEntity
  8
0
  6
Continuous
 62
     7
370
    15
100
AcDbLine
 10
271.9005330396
 20
179.1050204911
 30
0.0
 11
279.9005324883
 21
179.1050204911
 31
0.0
  0
SPLINE
  5
191
330
1F
100
AcDbEntity
  8
0
  6
Continuous
 62
     7
370
    15
100
AcDbSpline
210
0.0
220
0.0
230
1.0
 70
     8
 71
     3
 72
     9
 73
     5
 74
     0
 42
0.00000001
 43
0.00000001
 12
1.0
 22
0.0
 32
0.0
 13
1.0
 23
0.0
 33
0.0
 40
0.0
 40
0.0
 40
0.0
 40
0.0
 40
0.4008160206597563
 40
1.0
 40
1.0
 40
1.0
 40
1.0
 10
271.0083148372405
 20
179.142854539327
 30
0.0
 10
271.1207016100316
 20
179.1327599681715
 30
0.0
 10
271.4010965219068
 20
179.1075749190835
 30
0.0
 10
271.7134036261165
 20
179.1059775869062
 30
0.0
 10
271.900533039593
 20
179.1050204910558
 30
0.0
  0
SPLINE
  5
192
330
1F
100
AcDbEntity
  8
0
  6
Continuous
 62
     7
370
    15
100
AcDbSpline
210
0.0
220
0.0
230
1.0
 70
     8
 71
     3
 72
    11
 73
     7
 74
     0
 42
0.00000001
 43
0.00000001
 12
1.0
 22
0.0
 32
0.0
 13
1.0
 23
0.0
 33
0.0
 40
0.0
 40
0.0
 40
0.0
 40
0.0
 40
0.2657979207704857
 40
0.5315957327941246
 40
0.7973776261316488
 40
1.0
 40
1.0
 40
1.0
 40
1.0
 10
279.9005324882501
 20
184.1789552845281
 30
0.0
 10
280.1820991046038
 20
184.190484086871
 30
0.0
 10
280.7452322221131
 20
184.21354168684
 30
0.0
 10
281.4867439238633
 20
184.397429105853
 30
0.0
 10
282.0340939541912
 20
184.6451953433227
 30
0.0
 10
282.1943393216752
 20
184.854142243048
 30
0.0
 10
282.2636582818859
 20
184.9445285178941
 30
0.0
  0
LINE
  5
193
330
1F
100
AcDbEntity
  8
0
  6
Continuous
 62
     7
370
    15
100
AcDbLine
 10
271.9005330396
 20
184.1789552845
 30
0.0
 11
279.9005324883
 21
184.1789552845
 31
0.0
  0
SPLINE
  5
194
330
1F
100
AcDbEntity
  8
0
  6
Continuous
 62
     7
370
    15
100
AcDbSpline
210
0.0
220
0.0
230
1.0
 70
     8
 71
     3
 72
    12
 73
     8
 74
     0
 42
0.00000001
 43
0.00000001
 12
1.0
 22
0.0
 32
0.0
 13
1.0
 23
0.0
 33
0.0
 40
0.0
 40
0.0
 40
0.0
 40
0.0
 40
0.0180912157881289
 40
0.2864726001545747
 40
0.5547562161137386
 40
0.8230834837929285
 40
1.0
 40
1.0
 40
1.0
 40
1.0
 10
269.5318221044772
 20
184.9273065008443
 30
0.0
 10
269.5348098863439
 20
184.9189301192102
 30
0.0
 10
269.5821211146256
 20
184.7862909503058
 30
0.0
 10
269.9295519532864
 20
184.5684219149895
 30
0.0
 10
270.5438590492576
 20
184.3229424700658
 30
0.0
 10
271.2516974439127
 20
184.1970720204978
 30
0.0
 10
271.7160311786391
 20
184.1841069308359
 30
0.0
 10
271.900533039593
 20
184.1789552845281
 30
0.0
  0
SPLINE
  5
195
330
1F
100
AcDbEntity
  8
0
  6
Continuous
 62
     7
370
    15
100
AcDbSpline
210
0.0
220
0.0
230
1.0
 70
     8
 71
     3
 72
    12
 73
     8
 74
     0
 42
0.00000001
 43
0.00000001
 12
1.0
 22
0.0
 32
0.0
 13
1.0
 23
0.0
 33
0.0
 40
0.0
 40
0.0
 40
0.0
 40
0.0
 40
0.2146613780075144
 40
0.4293229514263506
 40
0.6439716047553143
 40
0.8585676609022552
 40
1.0
 40
1.0
 40
1.0
 40
1.0
 10
279.9005324882501
 20
219.3111156948131
 30
0.0
 10
280.181588914664
 20
219.3366365730253
 30
0.0
 10
280.7437020233442
 20
219.387678352682
 30
0.0
 10
281.4928669400177
 20
219.7863750448296
 30
0.0
 10
282.0581729070325
 20
220.3751909731943
 30
0.0
 10
282.3578181947668
 20
221.0305173825008
 30
0.0
 10
282.3883887427658
 20
221.4657667422978
 30
0.0
 10
282.400532898032
 20
221.6386696227115
 30
0.0
  0
LINE
  5
196
330
1F
100
AcDbEntity
  8
0
  6
Continuous
 62
     7
370
    15
100
AcDbLine
 10
259.9005310726
 20
219.3111156948
 30
0.0
 11
279.9005324883
 21
219.3111156948
 31
0.0
  0
SPLINE
  5
197
330
1F
100
AcDbEntity
  8
0
  6
Continuous
 62
     7
370
    15
100
AcDbSpline
210
0.0
220
0.0
230
1.0
 70
     8
 71
     3
 72
    12
 73
     8
 74
     0
 42
0.00000001
 43
0.00000001
 12
1.0
 22
0.0
 32
0.0
 13
1.0
 23
0.0
 33
0.0
 40
0.0
 40
0.0
 40
0.0
 40
0.0
 40
0.2146519766013363
 40
0.4293083689649178
 40
0.6438865192210564
 40
0.8584999443190398
 40
1.0
 40
1.0
 40
1.0
 40
1.0
 10
257.4005334568255
 20
221.6386696227115
 30
0.0
 10
257.4281286290267
 20
221.3755523831666
 30
0.0
 10
257.4833195411093
 20
220.8493124913003
 30
0.0
 10
257.9140214300203
 20
220.1521816700358
 30
0.0
 10
258.548058173661
 20
219.6279262178264
 30
0.0
 10
259.2510526729167
 20
219.3506617642526
 30
0.0
 10
259.7158471302009
 20
219.3223609094579
 30
0.0
 10
259.9005310726398
 20
219.3111156948131
 30
0.0
  0
SPLINE
  5
198
330
1F
100
AcDbEntity
  8
0
  6
Continuous
 62
     7
370
    15
100
AcDbSpline
210
0.0
220
0.0
230
1.0
 70
     8
 71
     3
 72
    12
 73
     8
 74
     0
 42
0.00000001
 43
0.00000001
 12
1.0
 22
0.0
 32
0.0
 13
1.0
 23
0.0
 33
0.0
 40
0.0
 40
0.0
 40
0.0
 40
0.0
 40
0.2146615005521732
 40
0.4293231282176988
 40
0.6439716703601603
 40
0.8585681958697319
 40
1.0
 40
1.0
 40
1.0
 40
1.0
 10
279.9005324882501
 20
192.9557951070589
 30
0.0
 10
280.1815889096239
 20
192.9732032554839
 30
0.0
 10
280.7437019188012
 20
193.0080195626423
 30
0.0
 10
281.4928665746693
 20
193.2808527249569
 30
0.0
 10
282.0581737211657
 20
193.6866203383065
 30
0.0
 10
282.3578176448523
 20
194.1419006876467
 30
0.0
 10
282.3883886176948
 20
194.4473526594936
 30
0.0
 10
282.400532898032
 20
194.5686930693906
 30
0.0
  0
LINE
  5
199
330
1F
100
AcDbEntity
  8
0
  6
Continuous
 62
     7
370
    15
100
AcDbLine
 10
259.9005310726
 20
192.9557951071
 30
0.0
 11
279.9005324883
 21
192.9557951071
 31
0.0
  0
SPLINE
  5
19A
330
1F
100
AcDbEntity
  8
0
  6
Continuous
 62
     7
370
    15
100
AcDbSpline
210
0.0
220
0.0
230
1.0
 70
     8
 71
     3
 72
    12
 73
     8
 74
     0
 42
0.00000001
 43
0.00000001
 12
1.0
 22
0.0
 32
0.0
 13
1.0
 23
0.0
 33
0.0
 40
0.0
 40
0.0
 40
0.0
 40
0.0
 40
0.2146516355638335
 40
0.429308288844872
 40
0.643886365183854
 40
0.8584998108961259
 40
1.0
 40
1.0
 40
1.0
 40
1.0
 10
257.4005334568255
 20
194.5686930693906
 30
0.0
 10
257.4281287688278
 20
194.3842250957344
 30
0.0
 10
257.4833200379028
 20
194.0152848362809
 30
0.0
 10
257.914020899102
 20
193.532614556655
 30
0.0
 10
258.5480583584526
 20
193.1722365624491
 30
0.0
 10
259.2510530015367
 20
192.9827895201329
 30
0.0
 10
259.7158471561924
 20
192.9634711690393
 30
0.0
 10
259.9005310726398
 20
192.9557951070589
 30
0.0
  0
SPLINE
  5
19B
330
1F
100
AcDbEntity
  8
0
  6
Continuous
 62
     7
370
    15
100
AcDbSpline
210
0.0
220
0.0
230
1.0
 70
     8
 71
     3
 72
    12
 73
     8
 74
     0
 42
0.00000001
 43
0.00000001
 12
1.0
 22
0.0
 32
0.0
 13
1.0
 23
0.0
 33
0.0
 40
0.0
 40
0.0
 40
0.0
 40
0.0
 40
0.2146613986416847
 40
0.429322949772229
 40
0.6439715885430711
 40
0.858567821175537
 40
1.0
 40
1.0
 40
1.0
 40
1.0
 10
279.9005324882501
 20
204.9100207068246
 30
0.0
 10
280.1815889028687
 20
204.9321613663323
 30
0.0
 10
280.7437019317599
 20
204.9764427010756
 30
0.0
 10
281.4928669438824
 20
205.322790897559
 30
0.0
 10
282.058173156149
 20
205.8357553090516
 30
0.0
 10
282.3578180173877
 20
206.4085611604175
 30
0.0
 10
282.3883887025806
 20
206.7905834243981
 30
0.0
 10
282.400532898032
 20
206.9423416532796
 30
0.0
  0
LINE
  5
19C
330
1F
100
AcDbEntity
  8
0
  6
Continuous
 62
     7
370
    15
100
AcDbLine
 10
259.9005310726
 20
204.9100207068
 30
0.0
 11
279.9005324883
 21
204.9100207068
 31
0.0
  0
SPLINE
  5
19D
330
1F
100
AcDbEntity
  8
0
  6
Continuous
 62
     7
370
    15
100
AcDbSpline
210
0.0
220
0.0
230
1.0
 70
     8
 71
     3
 72
    12
 73
     8
 74
     0
 42
0.00000001
 43
0.00000001
 12
1.0
 22
0.0
 32
0.0
 13
1.0
 23
0.0
 33
0.0
 40
0.0
 40
0.0
 40
0.0
 40
0.0
 40
0.2146517997433769
 40
0.4293082900179384
 40
0.6438862551364773
 40
0.858499847514266
 40
1.0
 40
1.0
 40
1.0
 40
1.0
 10
257.4005334568255
 20
206.9423416532796
 30
0.0
 10
257.428128710582
 20
206.7114967302187
 30
0.0
 10
257.4833198211012
 20
206.2498018397165
 30
0.0
 10
257.9140208877017
 20
205.6413062900158
 30
0.0
 10
258.5480589553031
 20
205.1850490487533
 30
0.0
 10
259.2510525813775
 20
204.9443407240894
 30
0.0
 10
259.7158471117629
 20
204.9197798548351
 30
0.0
 10
259.9005310726398
 20
204.9100207068246
 30
0.0
  0
SPLINE
  5
19E
330
1F
100
AcDbEntity
  8
0
  6
Continuous
 62
     7
370
    15
100
AcDbSpline
210
0.0
220
0.0
230
1.0
 70
     8
 71
     3
 72
     9
 73
     5
 74
     0
 42
0.00000001
 43
0.00000001
 12
1.0
 22
0.0
 32
0.0
 13
1.0
 23
0.0
 33
0.0
 40
0.0
 40
0.0
 40
0.0
 40
0.0
 40
0.4008220980267772
 40
1.0
 40
1.0
 40
1.0
 40
1.0
 10
139.008311827206
 20
179.142854539327
 30
0.0
 10
139.120701099934
 20
179.1327599618424
 30
0.0
 10
139.4010979974138
 20
179.1075752788265
 30
0.0
 10
139.713405813085
 20
179.1059777156239
 30
0.0
 10
139.9005337548488
 20
179.1050204910558
 30
0.0
  0
SPLINE
  5
19F
330
1F
100
AcDbEntity
  8
0
  6
Continuous
 62
     7
370
    15
100
AcDbSpline
210
0.0
220
0.0
230
1.0
 70
     8
 71
     3
 72
     9
 73
     5
 74
     0
 42
0.00000001
 43
0.00000001
 12
1.0
 22
0.0
 32
0.0
 13
1.0
 23
0.0
 33
0.0
 40
0.0
 40
0.0
 40
0.0
 40
0.0
 40
0.9307312093654031
 40
1.0
 40
1.0
 40
1.0
 40
1.0
 10
147.900535066151
 20
179.1050204910558
 30
0.0
 10
148.1908434215666
 20
179.1058395087631
 30
0.0
 10
148.5027577019673
 20
179.1067194810892
 30
0.0
 10
148.7645497876536
 20
179.1349950640576
 30
0.0
 10
148.7826838088268
 20
179.1369536794942
 30
0.0
  0
LINE
  5
1A0
330
1F
100
AcDbEntity
  8
0
  6
Continuous
 62
     7
370
    15
100
AcDbLine
 10
147.9005350662
 20
179.1050204911
 30
0.0
 11
139.9005337548
 21
179.1050204911
 31
0.0
  0
SPLINE
  5
1A1
330
1F
100
AcDbEntity
  8
0
  6
Continuous
 62
     7
370
    15
100
AcDbSpline
210
0.0
220
0.0
230
1.0
 70
     8
 71
     3
 72
    12
 73
     8
 74
     0
 42
0.00000001
 43
0.00000001
 12
1.0
 22
0.0
 32
0.0
 13
1.0
 23
0.0
 33
0.0
 40
0.0
 40
0.0
 40
0.0
 40
0.0
 40
0.0180912854756778
 40
0.2864722217104235
 40
0.5547553897011368
 40
0.8230849629716351
 40
1.0
 40
1.0
 40
1.0
 40
1.0
 10
137.5318153691524
 20
184.9273065008443
 30
0.0
 10
137.5348037917524
 20
184.9189301205064
 30
0.0
 10
137.5821249211863
 20
184.7862916582732
 30
0.0
 10
137.9295433107408
 20
184.5684217367696
 30
0.0
 10
138.5438569767699
 20
184.3229412929576
 30
0.0
 10
139.2516980116728
 20
184.1970726908075
 30
0.0
 10
139.7160332009757
 20
184.1841070837754
 30
0.0
 10
139.9005337548488
 20
184.1789552845281
 30
0.0
  0
SPLINE
  5
1A2
330
1F
100
AcDbEntity
  8
0
  6
Continuous
 62
     7
370
    15
100
AcDbSpline
210
0.0
220
0.0
230
1.0
 70
     8
 71
     3
 72
    11
 73
     7
 74
     0
 42
0.00000001
 43
0.00000001
 12
1.0
 22
0.0
 32
0.0
 13
1.0
 23
0.0
 33
0.0
 40
0.0
 40
0.0
 40
0.0
 40
0.0
 40
0.2657988243595487
 40
0.5315969585447872
 40
0.7973783897102749
 40
1.0
 40
1.0
 40
1.0
 40
1.0
 10
147.900535066151
 20
184.1789552845281
 30
0.0
 10
148.182102324739
 20
184.1904840631157
 30
0.0
 10
148.7452361107962
 20
184.2135415903553
 30
0.0
 10
149.4867476570039
 20
184.3974287533555
 30
0.0
 10
150.0340964592799
 20
184.6451950253249
 30
0.0
 10
150.1943347821941
 20
184.8541422196854
 30
0.0
 10
150.2636506152385
 20
184.9445285178941
 30
0.0
  0
LINE
  5
1A3
330
1F
100
AcDbEntity
  8
0
  6
Continuous
 62
     7
370
    15
100
AcDbLine
 10
147.9005350662
 20
184.1789552845
 30
0.0
 11
139.9005337548
 21
184.1789552845
 31
0.0
  0
SPLINE
  5
1A4
330
1F
100
AcDbEntity
  8
0
  6
Continuous
 62
     7
370
    15
100
AcDbSpline
210
0.0
220
0.0
230
1.0
 70
     8
 71
     3
 72
    12
 73
     8
 74
     0
 42
0.00000001
 43
0.00000001
 12
1.0
 22
0.0
 32
0.0
 13
1.0
 23
0.0
 33
0.0
 40
0.0
 40
0.0
 40
0.0
 40
0.0
 40
0.2146511705884934
 40
0.4293073512466313
 40
0.64388500686201
 40
0.8585000516113845
 40
1.0
 40
1.0
 40
1.0
 40
1.0
 10
137.4005361390346
 20
206.9423416532796
 30
0.0
 10
137.4281282981247
 20
206.7114966361435
 30
0.0
 10
137.4833132603204
 20
206.2498012138287
 30
0.0
 10
137.9140167297783
 20
205.6413065337567
 30
0.0
 10
138.5480554856675
 20
205.185047149212
 30
0.0
 10
139.2510532540104
 20
204.9443414230615
 30
0.0
 10
139.7158498764545
 20
204.9197800190376
 30
0.0
 10
139.9005337548488
 20
204.9100207068246
 30
0.0
  0
SPLINE
  5
1A5
330
1F
100
AcDbEntity
  8
0
  6
Continuous
 62
     7
370
    15
100
AcDbSpline
210
0.0
220
0.0
230
1.0
 70
     8
 71
     3
 72
    12
 73
     8
 74
     0
 42
0.00000001
 43
0.00000001
 12
1.0
 22
0.0
 32
0.0
 13
1.0
 23
0.0
 33
0.0
 40
0.0
 40
0.0
 40
0.0
 40
0.0
 40
0.214661936612047
 40
0.4293235561455132
 40
0.643971629894303
 40
0.858567749792101
 40
1.0
 40
1.0
 40
1.0
 40
1.0
 10
159.9005295825237
 20
204.9100207068246
 30
0.0
 10
160.1815865878816
 20
204.9321613391308
 30
0.0
 10
160.7437001834465
 20
204.9764425710392
 30
0.0
 10
161.4928657836981
 20
205.3227900236152
 30
0.0
 10
162.0581686124347
 20
205.8357560838233
 30
0.0
 10
162.3578108064216
 20
206.4085614491045
 30
0.0
 10
162.3883825678229
 20
206.7905834390408
 30
0.0
 10
162.4005271983379
 20
206.9423416532796
 30
0.0
  0
LINE
  5
1A6
330
1F
100
AcDbEntity
  8
0
  6
Continuous
 62
     7
370
    15
100
AcDbLine
 10
159.9005295825
 20
204.9100207068
 30
0.0
 11
139.9005337548
 21
204.9100207068
 31
0.0
  0
LINE
  5
1A7
330
1F
100
AcDbEntity
  8
0
  6
Continuous
 62
     7
370
    15
100
AcDbLine
 10
335.9005323541
 20
202.0156713106
 30
0.0
 11
335.9005323541
 21
287.886138437
 31
0.0
  0
LINE
  5
1A8
330
1F
100
AcDbEntity
  8
0
  6
Continuous
 62
     7
370
    15
100
AcDbLine
 10
335.9005323541
 20
301.3266654589
 30
0.0
 11
335.9005323541
 21
305.3978899397
 31
0.0
  0
LINE
  5
1A9
330
1F
100
AcDbEntity
  8
0
  6
Continuous
 62
     7
370
    15
100
AcDbLine
 10
335.9005323541
 20
184.5039198078
 30
0.0
 11
335.9005323541
 21
188.5751442887
 31
0.0
  0
LINE
  5
1AA
330
1F
100
AcDbEntity
  8
0
  6
Continuous
 62
     7
370
    15
100
AcDbLine
 10
335.9005323541
 20
305.3978899397
 30
0.0
 11
335.9005323541
 21
315.6273657359
 31
0.0
  0
LINE
  5
1AB
330
1F
100
AcDbEntity
  8
0
  6
Continuous
 62
     7
370
    15
100
AcDbLine
 10
335.9005323541
 20
174.2744440116
 30
0.0
 11
335.9005323541
 21
184.5039198078
 31
0.0
  0
LINE
  5
1AC
330
1F
100
AcDbEntity
  8
0
  6
Continuous
 62
     7
370
    15
100
AcDbLine
 10
335.9005323541
 20
300.2907739856
 30
0.0
 11
335.9005323541
 21
301.3266654589
 31
0.0
  0
LINE
  5
1AD
330
1F
100
AcDbEntity
  8
0
  6
Continuous
 62
     7
370
    15
100
AcDbLine
 10
335.9005323541
 20
188.5751442887
 30
0.0
 11
335.9005323541
 21
189.611035762
 31
0.0
  0
LINE
  5
1AE
330
1F
100
AcDbEntity
  8
0
  6
Continuous
 62
     7
370
    15
100
AcDbLine
 10
297.4005325628
 20
244.9509048738
 30
0.0
 11
297.4005325628
 21
314.9509051718
 31
0.0
  0
LINE
  5
1AF
330
1F
100
AcDbEntity
  8
0
  6
Continuous
 62
     7
370
    15
100
AcDbLine
 10
297.4005325628
 20
174.9509045758
 30
0.0
 11
297.4005325628
 21
244.9509048738
 31
0.0
  0
LINE
  5
1B0
330
1F
100
AcDbEntity
  8
0
  6
Continuous
 62
     7
370
    15
100
AcDbLine
 10
314.4005334866
 20
263.0990533062
 30
0.0
 11
314.4005334866
 21
312.5574508585
 31
0.0
  0
LINE
  5
1B1
330
1F
100
AcDbEntity
  8
0
  6
Continuous
 62
     7
370
    15
100
AcDbLine
 10
314.4005334866
 20
177.344358889
 30
0.0
 11
314.4005334866
 21
226.8027564414
 31
0.0
  0
LINE
  5
1B2
330
1F
100
AcDbEntity
  8
0
  6
Continuous
 62
     7
370
    15
100
AcDbLine
 10
343.9005336654
 20
300.2907739856
 30
0.0
 11
343.9005336654
 21
287.886138437
 31
0.0
  0
LINE
  5
1B3
330
1F
100
AcDbEntity
  8
0
  6
Continuous
 62
     7
370
    15
100
AcDbLine
 10
335.9005323541
 20
287.886138437
 30
0.0
 11
335.9005323541
 21
300.2907739856
 31
0.0
  0
LINE
  5
1B4
330
1F
100
AcDbEntity
  8
0
  6
Continuous
 62
     7
370
    15
100
AcDbLine
 10
343.9005336654
 20
202.0156713106
 30
0.0
 11
343.9005336654
 21
189.611035762
 31
0.0
  0
LINE
  5
1B5
330
1F
100
AcDbEntity
  8
0
  6
Continuous
 62
     7
370
    15
100
AcDbLine
 10
335.9005323541
 20
189.611035762
 30
0.0
 11
335.9005323541
 21
202.0156713106
 31
0.0
  0
LINE
  5
1B6
330
1F
100
AcDbEntity
  8
0
  6
Continuous
 62
     7
370
    15
100
AcDbLine
 10
295.4005324678
 20
244.9509048738
 30
0.0
 11
295.4005324678
 21
313.9509031452
 31
0.0
  0
LINE
  5
1B7
330
1F
100
AcDbEntity
  8
0
  6
Continuous
 62
     7
370
    15
100
AcDbLine
 10
295.4005324678
 20
175.9509066023
 30
0.0
 11
295.4005324678
 21
244.9509048738
 31
0.0
  0
LINE
  5
1B8
330
1F
100
AcDbEntity
  8
0
  6
Continuous
 62
     7
370
    15
100
AcDbLine
 10
335.9005323541
 20
315.6273657359
 30
0.0
 11
335.9005323541
 21
316.3474792518
 31
0.0
  0
LINE
  5
1B9
330
1F
100
AcDbEntity
  8
0
  6
Continuous
 62
     7
370
    15
100
AcDbLine
 10
335.9005323541
 20
173.5543304958
 30
0.0
 11
335.9005323541
 21
174.2744440116
 31
0.0
  0
LINE
  5
1BA
330
1F
100
AcDbEntity
  8
0
  6
Continuous
 62
     7
370
    15
100
AcDbLine
 10
335.9005323541
 20
316.3474792518
 30
0.0
 11
335.9005323541
 21
325.4509040989
 31
0.0
  0
LINE
  5
1BB
330
1F
100
AcDbEntity
  8
0
  6
Continuous
 62
     7
370
    15
100
AcDbLine
 10
335.9005323541
 20
164.4509056486
 30
0.0
 11
335.9005323541
 21
173.5543304958
 31
0.0
  0
LINE
  5
1BC
330
1F
100
AcDbEntity
  8
0
  6
Continuous
 62
     7
370
    15
100
AcDbLine
 10
335.9005323541
 20
302.9509032049
 30
0.0
 11
314.4005334866
 21
302.9509032049
 31
0.0
  0
LINE
  5
1BD
330
1F
100
AcDbEntity
  8
0
  6
Continuous
 62
     7
370
    15
100
AcDbLine
 10
335.9005323541
 20
186.9509065427
 30
0.0
 11
314.4005334866
 21
186.9509065427
 31
0.0
  0
LINE
  5
1BE
330
1F
100
AcDbEntity
  8
SLD-0
  6
CENTERX2
370
     0
100
AcDbLine
 10
456.9240135572
 20
244.9509048738
 30
0.0
 11
88.4227304898
 21
244.9509048738
 31
0.0
  0
LINE
  5
1BF
330
1F
100
AcDbEntity
  8
SLD-0
  6
CENTERX2
370
     0
100
AcDbLine
 10
383.9005325628
 20
338.1710827805
 30
0.0
 11
383.9005325628
 21
424.2095193428
 31
0.0
  0
LINE
  5
1C0
330
1F
100
AcDbEntity
  8
SLD-0
  6
CENTERX2
370
     0
100
AcDbLine
 10
383.9005325628
 20
54.4052557518
 30
0.0
 11
383.9005325628
 21
129.1873858033
 31
0.0
  0
LINE
  5
1C1
330
1F
100
AcDbEntity
  8
0
  6
Continuous
 62
     7
370
    15
100
AcDbLine
 10
546.5148552191
 20
252.9509052538
 30
0.0
 11
540.5148579609
 21
252.9509052538
 31
0.0
  0
LINE
  5
1C2
330
1F
100
AcDbEntity
  8
0
  6
Continuous
 62
     7
370
    15
100
AcDbLine
 10
540.5148579609
 20
236.9509044938
 30
0.0
 11
546.5148552191
 21
236.9509044938
 31
0.0
  0
LINE
  5
1C3
330
1F
100
AcDbEntity
  8
0
  6
Continuous
 62
     7
370
    15
100
AcDbLine
 10
547.5148572456
 20
251.4509050079
 30
0.0
 11
546.5148552191
 21
251.4509050079
 31
0.0
  0
LINE
  5
1C4
330
1F
100
AcDbEntity
  8
0
  6
Continuous
 62
     7
370
    15
100
AcDbLine
 10
546.5148552191
 20
238.4509047397
 30
0.0
 11
547.5148572456
 21
238.4509047397
 31
0.0
  0
SPLINE
  5
1C5
330
1F
100
AcDbEntity
  8
0
  6
Continuous
 62
     7
370
    15
100
AcDbSpline
210
0.0
220
0.0
230
1.0
 70
     8
 71
     3
 72
    34
 73
    30
 74
     0
 42
0.00000001
 43
0.00000001
 12
1.0
 22
0.0
 32
0.0
 13
1.0
 23
0.0
 33
0.0
 40
0.0
 40
0.0
 40
0.0
 40
0.0
 40
0.0010556056569346
 40
0.0408221165294797
 40
0.0745048385252373
 40
0.1016209334665768
 40
0.1221460103385718
 40
0.1381698312999232
 40
0.1575823072171297
 40
0.1891329608982471
 40
0.2272692864318696
 40
0.2717072383541411
 40
0.287452309614848
 40
0.3038163259252702
 40
0.3207821183907944
 40
0.3383313764209147
 40
0.3564445957144416
 40
0.3752363432025976
 40
0.3964154556217283
 40
0.4270355944460444
 40
0.4590887406136872
 40
0.4925293958432059
 40
0.5768432715423171
 40
0.645831678175116
 40
0.719064791014775
 40
0.7971643432176861
 40
0.8801789775559333
 40
0.9676435437990183
 40
1.0
 40
1.0
 40
1.0
 40
1.0
 10
691.4146630894588
 20
103.375508812837
 30
0.0
 10
691.4183652088232
 20
103.4172576303836
 30
0.0
 10
691.5615326379672
 20
105.0317574046676
 30
0.0
 10
691.8193687226955
 20
107.972411338933
 30
0.0
 10
692.1688536100478
 20
111.9449758901208
 30
0.0
 10
692.4521968211991
 20
115.1616124831698
 30
0.0
 10
692.6755632813226
 20
117.6867794536691
 30
0.0
 10
692.8742424997674
 20
119.9229341143456
 30
0.0
 10
693.1122932408608
 20
122.5893389118843
 30
0.0
 10
693.4311208527201
 20
126.1254044939646
 30
0.0
 10
693.8462279472227
 20
130.6699675202601
 30
0.0
 10
694.2099502106262
 20
134.4905568769329
 30
0.0
 10
694.4960949355792
 20
137.3789960537921
 30
0.0
 10
694.6807643830348
 20
139.2027559087487
 30
0.0
 10
694.8734610789131
 20
141.0633154757878
 30
0.0
 10
695.0745497974608
 20
142.9455203600652
 30
0.0
 10
695.2831810420664
 20
144.8793139925021
 30
0.0
 10
695.5120831637634
 20
146.7885608935146
 30
0.0
 10
695.7588614940679
 20
149.8501650817308
 30
0.0
 10
696.034532700189
 20
153.7680084949631
 30
0.0
 10
696.3560871333958
 20
158.1685980197246
 30
0.0
 10
696.8549167137174
 20
165.0647421717701
 30
0.0
 10
697.4777860416561
 20
173.6445530410872
 30
0.0
 10
698.2321280325839
 20
184.0676412764546
 30
0.0
 10
698.9703604658444
 20
194.3843532421426
 30
0.0
 10
699.7489160630009
 20
205.4749669575424
 30
0.0
 10
700.5692309943721
 20
217.1944246924362
 30
0.0
 10
701.2401130112798
 20
226.767791305286
 30
0.0
 10
701.6364710665714
 20
232.4215898441483
 30
0.0
 10
701.7435035538124
 20
233.9483410023373
 30
0.0
  0
SPLINE
  5
1C6
330
1F
100
AcDbEntity
  8
0
  6
Continuous
 62
     7
370
    15
100
AcDbSpline
210
0.0
220
0.0
230
1.0
 70
     8
 71
     3
 72
    27
 73
    23
 74
     0
 42
0.00000001
 43
0.00000001
 12
1.0
 22
0.0
 32
0.0
 13
1.0
 23
0.0
 33
0.0
 40
0.0
 40
0.0
 40
0.0
 40
0.0
 40
0.04058162249003
 40
0.0957820527761822
 40
0.1504053004330297
 40
0.2044509755491494
 40
0.2579186922932623
 40
0.3101339799574437
 40
0.3710240580780098
 40
0.4311859712693297
 40
0.4905456439100486
 40
0.5491016852803976
 40
0.5764896214120253
 40
0.6010867444011312
 40
0.6245468565271554
 40
0.6481347492811813
 40
0.6718360716602988
 40
0.6956360174427544
 40
0.7521076657099681
 40
0.8092388541770508
 40
0.9105082496371426
 40
1.0
 40
1.0
 40
1.0
 40
1.0
 10
600.7612286936687
 20
239.9504281483811
 30
0.0
 10
600.8676837752419
 20
237.7896695413929
 30
0.0
 10
601.1189424883214
 20
232.6897774663045
 30
0.0
 10
601.5134270366017
 20
224.6817092428749
 30
0.0
 10
601.9429595903566
 20
215.9565418233381
 30
0.0
 10
602.3685913258313
 20
207.3249887603611
 30
0.0
 10
602.7852648773161
 20
198.8172520195103
 30
0.0
 10
603.229677915374
 20
189.9623728947542
 30
0.0
 10
603.6882399741487
 20
180.8439688054985
 30
0.0
 10
604.1663262786852
 20
171.5067678921796
 30
0.0
 10
604.6365276242669
 20
162.2188584090401
 30
0.0
 10
605.0252593593273
 20
154.7804949709306
 30
0.0
 10
605.3105109257788
 20
148.8386475974594
 30
0.0
 10
605.5363073198338
 20
145.5763376703994
 30
0.0
 10
605.7582383229707
 20
142.8530548090783
 30
0.0
 10
605.9720929680741
 20
139.9524700546808
 30
0.0
 10
606.1852486382564
 20
136.9871825038198
 30
0.0
 10
606.4933065646082
 20
132.5284922098874
 30
0.0
 10
606.8938210502963
 20
126.3744764202273
 30
0.0
 10
607.5006420858874
 20
116.7628998106084
 30
0.0
 10
608.1836933661983
 20
105.6315313244453
 30
0.0
 10
608.7274446395975
 20
96.99379956058391
 30
0.0
 10
608.9825346004413
 20
92.94158163445412
 30
0.0
  0
ARC
  5
1C7
330
1F
100
AcDbEntity
  8
0
  6
Continuous
 62
     7
370
    15
100
AcDbCircle
 10
565.0148553383
 20
89.9509048738
 30
0.0
 40
3.0
100
AcDbArc
 50
90.0
 51
180.0
  0
LINE
  5
1C8
330
1F
100
AcDbEntity
  8
0
  6
Continuous
 62
     7
370
    15
100
AcDbLine
 10
737.0148538482
 20
76.9509071388
 30
0.0
 11
737.0148538482
 21
81.9509023704
 31
0.0
  0
LINE
  5
1C9
330
1F
100
AcDbEntity
  8
0
  6
Continuous
 62
     7
370
    15
100
AcDbLine
 10
562.0148568284
 20
89.9509036817
 30
0.0
 11
562.0148568284
 21
76.9509071388
 31
0.0
  0
LINE
  5
1CA
330
1F
100
AcDbEntity
  8
0
  6
Continuous
 62
     7
370
    15
100
AcDbLine
 10
562.0148568284
 20
412.9509026088
 30
0.0
 11
562.0148568284
 21
399.9509060659
 31
0.0
  0
LINE
  5
1CB
330
1F
100
AcDbEntity
  8
0
  6
Continuous
 62
     7
370
    15
100
AcDbLine
 10
737.0148538482
 20
407.9509073772
 30
0.0
 11
737.0148538482
 21
412.9509026088
 31
0.0
  0
ARC
  5
1CC
330
1F
100
AcDbEntity
  8
0
  6
Continuous
 62
     7
370
    15
100
AcDbCircle
 10
565.0148553383
 20
399.9509048738
 30
0.0
 40
3.0
100
AcDbArc
 50
180.0
 51
270.0
  0
LINE
  5
1CD
330
1F
100
AcDbEntity
  8
0
  6
Continuous
 62
     7
370
    15
100
AcDbLine
 10
589.5148566794
 20
414.9509066619
 30
0.0
 11
589.5148566794
 21
412.9509026088
 31
0.0
  0
LINE
  5
1CE
330
1F
100
AcDbEntity
  8
0
  6
Continuous
 62
     7
370
    15
100
AcDbLine
 10
709.5148539972
 20
412.9509026088
 30
0.0
 11
709.5148539972
 21
414.9509066619
 31
0.0
  0
LINE
  5
1CF
330
1F
100
AcDbEntity
  8
0
  6
Continuous
 62
     7
370
    15
100
AcDbLine
 10
709.5148539972
 20
74.9509030856
 30
0.0
 11
709.5148539972
 21
76.9509071388
 31
0.0
  0
LINE
  5
1D0
330
1F
100
AcDbEntity
  8
0
  6
Continuous
 62
     7
370
    15
100
AcDbLine
 10
589.5148566794
 20
76.9509071388
 30
0.0
 11
589.5148566794
 21
74.9509030856
 31
0.0
  0
SPLINE
  5
1D1
330
1F
100
AcDbEntity
  8
0
  6
Continuous
 62
     7
370
    15
100
AcDbSpline
210
0.0
220
0.0
230
1.0
 70
     8
 71
     3
 72
    12
 73
     8
 74
     0
 42
0.00000001
 43
0.00000001
 12
1.0
 22
0.0
 32
0.0
 13
1.0
 23
0.0
 33
0.0
 40
0.0
 40
0.0
 40
0.0
 40
0.0
 40
0.2157688169225856
 40
0.429374601409342
 40
0.6414636432768843
 40
0.8525908811155846
 40
1.0
 40
1.0
 40
1.0
 40
1.0
 10
756.1577646862911
 20
306.2368439413827
 30
0.0
 10
753.8681370184445
 20
310.0150778789063
 30
0.0
 10
749.3118346700369
 20
317.5336698334493
 30
0.0
 10
741.1330654533728
 20
327.8430502819407
 30
0.0
 10
732.0922619032748
 20
337.2366176451217
 30
0.0
 10
723.2697352730398
 20
344.9349712918998
 30
0.0
 10
717.1797073522405
 20
349.0317506582863
 30
0.0
 10
714.6758450996327
 20
350.7161060251516
 30
0.0
  0
SPLINE
  5
1D2
330
1F
100
AcDbEntity
  8
0
  6
Continuous
 62
     7
370
    15
100
AcDbSpline
210
0.0
220
0.0
230
1.0
 70
     8
 71
     3
 72
    13
 73
     9
 74
     0
 42
0.00000001
 43
0.00000001
 12
1.0
 22
0.0
 32
0.0
 13
1.0
 23
0.0
 33
0.0
 40
0.0
 40
0.0
 40
0.0
 40
0.0
 40
0.037448417114897
 40
0.2060588461983186
 40
0.3862239775374579
 40
0.5782644759280691
 40
0.7826400234290856
 40
1.0
 40
1.0
 40
1.0
 40
1.0
 10
551.7426072489666
 20
238.452781354658
 30
0.0
 10
551.726647526481
 20
237.888414066758
 30
0.0
 10
551.638829609078
 20
234.7829991751236
 30
0.0
 10
552.0273738924654
 20
228.9613591862381
 30
0.0
 10
553.0204107075318
 20
220.8652416157952
 30
0.0
 10
554.8527323102941
 20
212.3583404756842
 30
0.0
 10
557.5206383796631
 20
203.4793479069924
 30
0.0
 10
560.0661706124911
 20
197.6481278947166
 30
0.0
 10
561.3781227600025
 20
194.6427518405241
 30
0.0
  0
SPLINE
  5
1D3
330
1F
100
AcDbEntity
  8
0
  6
Continuous
 62
     7
370
    15
100
AcDbSpline
210
0.0
220
0.0
230
1.0
 70
     8
 71
     3
 72
    23
 73
    19
 74
     0
 42
0.00000001
 43
0.00000001
 12
1.0
 22
0.0
 32
0.0
 13
1.0
 23
0.0
 33
0.0
 40
0.0
 40
0.0
 40
0.0
 40
0.0
 40
0.0919993748836157
 40
0.1778111040404337
 40
0.2577085038186537
 40
0.3318813302341957
 40
0.4004586326828142
 40
0.4635244696331293
 40
0.5319927581075669
 40
0.5926342713036189
 40
0.6454463629900593
 40
0.6903981439127893
 40
0.7352950187531304
 40
0.7885512701354019
 40
0.8500054914153368
 40
0.9193400822198257
 40
0.9964875952934499
 40
1.0
 40
1.0
 40
1.0
 40
1.0
 10
604.004995418732
 20
323.7762967027944
 30
0.0
 10
601.4824695631613
 20
322.469115022179
 30
0.0
 10
596.6070765736218
 20
319.9426694011552
 30
0.0
 10
589.9965343690151
 20
315.4936831871291
 30
0.0
 10
584.1873048593545
 20
310.8959756391861
 30
0.0
 10
579.1486202937785
 20
306.214483259029
 30
0.0
 10
574.8126281681112
 20
301.5667808889914
 30
0.0
 10
570.9060074157375
 20
296.7789517960725
 30
0.0
 10
567.465901898347
 20
291.9422948039357
 30
0.0
 10
564.5142120416721
 20
287.1628159952915
 30
0.0
 10
562.1861149384222
 20
282.8618453397598
 30
0.0
 10
560.282984106733
 20
278.8904206075904
 30
0.0
 10
558.5553786941364
 20
274.8244929099847
 30
0.0
 10
556.8573594145234
 20
270.1989890070786
 30
0.0
 10
555.1957659271229
 20
264.7627156032617
 30
0.0
 10
553.7361550524329
 20
258.515424097312
 30
0.0
 10
552.8321675555225
 20
253.9625941324806
 30
0.0
 10
552.5973627836588
 20
251.4844860786195
 30
0.0
 10
552.5871380102085
 20
251.3765747562271
 30
0.0
  0
SPLINE
  5
1D4
330
1F
100
AcDbEntity
  8
0
  6
Continuous
 62
     7
370
    15
100
AcDbSpline
210
0.0
220
0.0
230
1.0
 70
     8
 71
     3
 72
    15
 73
    11
 74
     0
 42
0.00000001
 43
0.00000001
 12
1.0
 22
0.0
 32
0.0
 13
1.0
 23
0.0
 33
0.0
 40
0.0
 40
0.0
 40
0.0
 40
0.0
 40
0.1260222428679726
 40
0.251151558966229
 40
0.3757134204776377
 40
0.4999999980771145
 40
0.6242865820959178
 40
0.7488484375053017
 40
0.8739777524109347
 40
1.0
 40
1.0
 40
1.0
 40
1.0
 10
762.8881274592327
 20
214.1301831133884
 30
0.0
 10
764.0148958313646
 20
217.9476308551228
 30
0.0
 10
766.2604488925906
 20
225.5554779286998
 30
0.0
 10
768.193408969737
 20
237.2825883564489
 30
0.0
 10
769.0589339057757
 20
249.0674495369327
 30
0.0
 10
768.76186918949
 20
260.858614991898
 30
0.0
 10
767.3417275397271
 20
272.5677141832355
 30
0.0
 10
764.7722875628012
 20
284.1015800681438
 30
0.0
 10
761.1551247852241
 20
295.4231346461202
 30
0.0
 10
757.8274950197404
 20
302.623740608834
 30
0.0
 10
756.1577646862911
 20
306.2368439413827
 30
0.0
  0
SPLINE
  5
1D5
330
1F
100
AcDbEntity
  8
0
  6
Continuous
 62
     7
370
    15
100
AcDbSpline
210
0.0
220
0.0
230
1.0
 70
     8
 71
     3
 72
    23
 73
    19
 74
     0
 42
0.00000001
 43
0.00000001
 12
1.0
 22
0.0
 32
0.0
 13
1.0
 23
0.0
 33
0.0
 40
0.0
 40
0.0
 40
0.0
 40
0.0
 40
0.0024712083926502
 40
0.0618159200038042
 40
0.1144450472215356
 40
0.1601339305251342
 40
0.1987965189825674
 40
0.2371816120825351
 40
0.2947982352326455
 40
0.3630697177179503
 40
0.4419681941318426
 40
0.5315156153821763
 40
0.5971837185284703
 40
0.6676782068960726
 40
0.7430758727940846
 40
0.8234856382320559
 40
0.9090583509487313
 40
1.0
 40
1.0
 40
1.0
 40
1.0
 10
695.1295151245045
 20
143.4438073910993
 30
0.0
 10
695.2082850342646
 20
143.470806192462
 30
0.0
 10
697.1786710425478
 20
144.1461663726049
 30
0.0
 10
700.7234283736292
 20
145.680022408339
 30
0.0
 10
705.5449461734157
 20
147.9109734941472
 30
0.0
 10
709.6042147565108
 20
150.1132974876446
 30
0.0
 10
713.1714406468664
 20
152.2063765506553
 30
0.0
 10
717.0054485368939
 20
154.6348280458716
 30
0.0
 10
721.5571048603583
 20
157.7885068279933
 30
0.0
 10
727.0097604375698
 20
162.0237884360617
 30
0.0
 10
732.9898647866764
 20
167.3109162290721
 30
0.0
 10
738.5099495634222
 20
172.9579016523513
 30
0.0
 10
743.45257517001
 20
178.743053198166
 30
0.0
 10
747.7586522458115
 20
184.4294066118219
 30
0.0
 10
751.9754944813506
 20
190.7896231954758
 30
0.0
 10
755.9961141888947
 20
197.86518019602
 30
0.0
 10
759.770081403178
 20
205.6699243295989
 30
0.0
 10
761.827914793655
 20
211.2534861835207
 30
0.0
 10
762.8881274592327
 20
214.1301831133884
 30
0.0
  0
SPLINE
  5
1D6
330
1F
100
AcDbEntity
  8
0
  6
Continuous
 62
     7
370
    15
100
AcDbSpline
210
0.0
220
0.0
230
1.0
 70
     8
 71
     3
 72
    14
 73
    10
 74
     0
 42
0.00000001
 43
0.00000001
 12
1.0
 22
0.0
 32
0.0
 13
1.0
 23
0.0
 33
0.0
 40
0.0
 40
0.0
 40
0.0
 40
0.0
 40
0.1606722466845393
 40
0.320235403151574
 40
0.4790928918964514
 40
0.6376077111721669
 40
0.7961225557755753
 40
0.9549799931486358
 40
1.0
 40
1.0
 40
1.0
 40
1.0
 10
561.3781227600025
 20
194.6427518405241
 30
0.0
 10
563.0081961101444
 20
191.6074073276781
 30
0.0
 10
566.2570907215093
 20
185.5576707127192
 30
0.0
 10
572.191977928168
 20
177.1516914297155
 30
0.0
 10
578.8146936257309
 20
169.355087664952
 30
0.0
 10
586.1405199104526
 20
162.2321208739637
 30
0.0
 10
594.1398577435577
 20
155.9014777560859
 30
0.0
 10
600.5675244732082
 20
151.4948259018288
 30
0.0
 10
604.4542408363843
 20
149.4977228668876
 30
0.0
 10
605.3125015329765
 20
149.0567246355337
 30
0.0
  0
SPLINE
  5
1D7
330
1F
100
AcDbEntity
  8
0
  6
Continuous
 62
     7
370
    15
100
AcDbSpline
210
0.0
220
0.0
230
1.0
 70
     8
 71
     3
 72
    11
 73
     7
 74
     0
 42
0.00000001
 43
0.00000001
 12
1.0
 22
0.0
 32
0.0
 13
1.0
 23
0.0
 33
0.0
 40
0.0
 40
0.0
 40
0.0
 40
0.0
 40
0.0441122660725206
 40
0.3931951749505709
 40
0.7126984121657479
 40
1.0
 40
1.0
 40
1.0
 40
1.0
 10
620.80299247617
 20
329.7636503257078
 30
0.0
 10
620.5463554043587
 20
329.7077125344418
 30
0.0
 10
618.2588180063974
 20
329.2091104089693
 30
0.0
 10
614.2117015386102
 20
327.9035600050995
 30
0.0
 10
608.8533914854606
 20
325.9804288106336
 30
0.0
 10
605.5629217106685
 20
324.4845464650753
 30
0.0
 10
604.004995418732
 20
323.7762967027944
 30
0.0
  0
LINE
  5
1D8
330
1F
100
AcDbEntity
  8
0
  6
Continuous
 62
     7
370
    15
100
AcDbLine
 10
717.0148580205
 20
377.9509061851
 30
0.0
 11
737.0148538482
 21
377.9509061851
 31
0.0
  0
LINE
  5
1D9
330
1F
100
AcDbEntity
  8
0
  6
Continuous
 62
     7
370
    15
100
AcDbLine
 10
737.0148538482
 20
111.9509035625
 30
0.0
 11
707.0148563814
 21
111.9509035625
 31
0.0
  0
LINE
  5
1DA
330
1F
100
AcDbEntity
  8
0
  6
Continuous
 62
     7
370
    15
100
AcDbLine
 10
547.5148572456
 20
233.4509048514
 30
0.0
 11
551.7988069784
 21
233.4509048514
 31
0.0
  0
LINE
  5
1DB
330
1F
100
AcDbEntity
  8
0
  6
Continuous
 62
     7
370
    15
100
AcDbLine
 10
553.3492504489
 20
256.4509048961
 30
0.0
 11
547.5148572456
 21
256.4509048961
 31
0.0
  0
LINE
  5
1DC
330
1F
100
AcDbEntity
  8
0
  6
Continuous
 62
     7
370
    15
100
AcDbLine
 10
540.5148579609
 20
243.7009049017
 30
0.0
 11
540.5148579609
 21
236.9509044938
 31
0.0
  0
LINE
  5
1DD
330
1F
100
AcDbEntity
  8
0
  6
Continuous
 62
     7
370
    15
100
AcDbLine
 10
543.51485659
 20
243.7009049017
 30
0.0
 11
540.5148579609
 21
243.7009049017
 31
0.0
  0
LINE
  5
1DE
330
1F
100
AcDbEntity
  8
0
  6
Continuous
 62
     7
370
    15
100
AcDbLine
 10
543.51485659
 20
243.7009049017
 30
0.0
 11
543.51485659
 21
246.2009048458
 31
0.0
  0
LINE
  5
1DF
330
1F
100
AcDbEntity
  8
0
  6
Continuous
 62
     7
370
    15
100
AcDbLine
 10
540.5148579609
 20
246.2009048458
 30
0.0
 11
543.51485659
 21
246.2009048458
 31
0.0
  0
LINE
  5
1E0
330
1F
100
AcDbEntity
  8
0
  6
Continuous
 62
     7
370
    15
100
AcDbLine
 10
540.5148579609
 20
252.9509052538
 30
0.0
 11
540.5148579609
 21
246.2009048458
 31
0.0
  0
LINE
  5
1E1
330
1F
100
AcDbEntity
  8
0
  6
Continuous
 62
     7
370
    15
100
AcDbLine
 10
546.5148552191
 20
244.9509048738
 30
0.0
 11
546.5148552191
 21
236.9509044938
 31
0.0
  0
LINE
  5
1E2
330
1F
100
AcDbEntity
  8
0
  6
Continuous
 62
     7
370
    15
100
AcDbLine
 10
546.5148552191
 20
252.9509052538
 30
0.0
 11
546.5148552191
 21
244.9509048738
 31
0.0
  0
ARC
  5
1E3
330
1F
100
AcDbEntity
  8
0
  6
Continuous
 62
     7
370
    15
100
AcDbCircle
 10
651.5148553383
 20
244.9509048738
 30
0.0
 40
38.14213562373101
100
AcDbArc
 50
5.2649838186
 51
16.7618895007
  0
ARC
  5
1E4
330
1F
100
AcDbEntity
  8
0
  6
Continuous
 62
     7
370
    15
100
AcDbCircle
 10
651.5148553383
 20
244.9509048738
 30
0.0
 40
51.00000000000009
100
AcDbArc
 50
12.4557926259
 51
174.3737290539
  0
ARC
  5
1E5
330
1F
100
AcDbEntity
  8
0
  6
Continuous
 62
     7
370
    15
100
AcDbCircle
 10
722.5148553383
 20
246.4509048738
 30
0.0
 40
2.000000000000028
100
AcDbArc
 50
0.0
 51
90.0
  0
LINE
  5
1E6
330
1F
100
AcDbEntity
  8
0
  6
Continuous
 62
     7
370
    15
100
AcDbLine
 10
724.5148583185
 20
246.4509048868
 30
0.0
 11
724.5148583185
 21
243.4509048607
 31
0.0
  0
ARC
  5
1E7
330
1F
100
AcDbEntity
  8
0
  6
Continuous
 62
     7
370
    15
100
AcDbCircle
 10
722.5148553383
 20
243.4509048738
 30
0.0
 40
2.0
100
AcDbArc
 50
270.0
 51
0.0
  0
LINE
  5
1E8
330
1F
100
AcDbEntity
  8
0
  6
Continuous
 62
     7
370
    15
100
AcDbLine
 10
649.5148553383
 20
241.4509047657
 30
0.0
 11
722.5148542654
 21
241.4509047657
 31
0.0
  0
ARC
  5
1E9
330
1F
100
AcDbEntity
  8
0
  6
Continuous
 62
     7
370
    15
100
AcDbCircle
 10
576.5148553383
 20
241.9509048738
 30
0.0
 40
2.0
100
AcDbArc
 50
179.9999999996
 51
270.0
  0
LINE
  5
1EA
330
1F
100
AcDbEntity
  8
0
  6
Continuous
 62
     7
370
    15
100
AcDbLine
 10
574.514852358
 20
247.9509048999
 30
0.0
 11
574.514852358
 21
241.9509048477
 31
0.0
  0
ARC
  5
1EB
330
1F
100
AcDbEntity
  8
0
  6
Continuous
 62
     7
370
    15
100
AcDbCircle
 10
576.5148553383
 20
247.9509048738
 30
0.0
 40
2.0
100
AcDbArc
 50
90.0
 51
180.0
  0
LINE
  5
1EC
330
1F
100
AcDbEntity
  8
0
  6
Continuous
 62
     7
370
    15
100
AcDbLine
 10
628.0414662194
 20
249.950904762
 30
0.0
 11
576.5148564112
 21
249.950904762
 31
0.0
  0
LINE
  5
1ED
330
1F
100
AcDbEntity
  8
0
  6
Continuous
 62
     7
370
    15
100
AcDbLine
 10
722.5148542654
 20
248.4509049818
 30
0.0
 11
675.2582746428
 21
248.4509049818
 31
0.0
  0
LINE
  5
1EE
330
1F
100
AcDbEntity
  8
0
  6
Continuous
 62
     7
370
    15
100
AcDbLine
 10
576.5148564112
 20
239.9509049855
 30
0.0
 11
649.5148553383
 21
239.9509049855
 31
0.0
  0
SPLINE
  5
1EF
330
1F
100
AcDbEntity
  8
0
  6
Continuous
 62
     7
370
    15
100
AcDbSpline
210
0.0
220
0.0
230
1.0
 70
     8
 71
     3
 72
    12
 73
     8
 74
     0
 42
0.00000001
 43
0.00000001
 12
1.0
 22
0.0
 32
0.0
 13
1.0
 23
0.0
 33
0.0
 40
0.0
 40
0.0
 40
0.0
 40
0.0
 40
0.2259801237291875
 40
0.4608568817409253
 40
0.7025405501209941
 40
0.9370464908356853
 40
0.9999999999999999
 40
0.9999999999999999
 40
0.9999999999999999
 40
0.9999999999999999
 10
690.0204061400341
 20
92.95090976136147
 30
0.0
 10
690.1389690618231
 20
93.73653954846361
 30
0.0
 10
690.3807626210267
 20
95.3387286609918
 30
0.0
 10
690.7575189874872
 20
97.85783952117491
 30
0.0
 10
691.0930745259376
 20
100.3649127271672
 30
0.0
 10
691.320261309845
 20
102.24102008324
 30
0.0
 10
691.3912099331992
 20
103.1779251306698
 30
0.0
 10
691.4062253069328
 20
103.3762091674131
 30
0.0
  0
LINE
  5
1F0
330
1F
100
AcDbEntity
  8
0
  6
Continuous
 62
     7
370
    15
100
AcDbLine
 10
688.4306981098
 20
233.9509049334
 30
0.0
 11
689.2686276566
 21
241.4509047657
 31
0.0
  0
LINE
  5
1F1
330
1F
100
AcDbEntity
  8
0
  6
Continuous
 62
     7
370
    15
100
AcDbLine
 10
649.5148553383
 20
137.4509030856
 30
0.0
 11
652.0148552824
 21
134.9509054698
 31
0.0
  0
LINE
  5
1F2
330
1F
100
AcDbEntity
  8
0
  6
Continuous
 62
     7
370
    15
100
AcDbLine
 10
647.0148553942
 20
134.9509054698
 30
0.0
 11
649.5148553383
 21
137.4509030856
 31
0.0
  0
LINE
  5
1F3
330
1F
100
AcDbEntity
  8
0
  6
Continuous
 62
     7
370
    15
100
AcDbLine
 10
647.0148553942
 20
151.2009048738
 30
0.0
 11
647.0148553942
 21
134.9509054698
 31
0.0
  0
LINE
  5
1F4
330
1F
100
AcDbEntity
  8
0
  6
Continuous
 62
     7
370
    15
100
AcDbLine
 10
648.2648553662
 20
152.4509036817
 30
0.0
 11
647.0148553942
 21
151.2009048738
 31
0.0
  0
LINE
  5
1F5
330
1F
100
AcDbEntity
  8
0
  6
Continuous
 62
     7
370
    15
100
AcDbLine
 10
648.2648553662
 20
167.4509042777
 30
0.0
 11
648.2648553662
 21
152.4509036817
 31
0.0
  0
LINE
  5
1F6
330
1F
100
AcDbEntity
  8
0
  6
Continuous
 62
     7
370
    15
100
AcDbLine
 10
647.0148553942
 20
167.4509042777
 30
0.0
 11
648.2648553662
 21
167.4509042777
 31
0.0
  0
LINE
  5
1F7
330
1F
100
AcDbEntity
  8
0
  6
Continuous
 62
     7
370
    15
100
AcDbLine
 10
650.7648553103
 20
167.4509042777
 30
0.0
 11
652.0148552824
 21
167.4509042777
 31
0.0
  0
LINE
  5
1F8
330
1F
100
AcDbEntity
  8
0
  6
Continuous
 62
     7
370
    15
100
AcDbLine
 10
650.7648553103
 20
152.4509036817
 30
0.0
 11
650.7648553103
 21
167.4509042777
 31
0.0
  0
LINE
  5
1F9
330
1F
100
AcDbEntity
  8
0
  6
Continuous
 62
     7
370
    15
100
AcDbLine
 10
652.0148552824
 20
151.2009048738
 30
0.0
 11
650.7648553103
 21
152.4509036817
 31
0.0
  0
LINE
  5
1FA
330
1F
100
AcDbEntity
  8
0
  6
Continuous
 62
     7
370
    15
100
AcDbLine
 10
652.0148552824
 20
134.9509054698
 30
0.0
 11
652.0148552824
 21
151.2009048738
 31
0.0
  0
LINE
  5
1FB
330
1F
100
AcDbEntity
  8
0
  6
Continuous
 62
     7
370
    15
100
AcDbLine
 10
649.5148553383
 20
169.9509018935
 30
0.0
 11
647.0148553942
 21
167.4509042777
 31
0.0
  0
LINE
  5
1FC
330
1F
100
AcDbEntity
  8
0
  6
Continuous
 62
     7
370
    15
100
AcDbLine
 10
652.0148552824
 20
167.4509042777
 30
0.0
 11
649.5148553383
 21
169.9509018935
 31
0.0
  0
ARC
  5
1FD
330
1F
100
AcDbEntity
  8
0
  6
Continuous
 62
     7
370
    15
100
AcDbCircle
 10
722.5148553383
 20
235.9509048738
 30
0.0
 40
2.0
100
AcDbArc
 50
270.0
 51
0.0
  0
LINE
  5
1FE
330
1F
100
AcDbEntity
  8
0
  6
Continuous
 62
     7
370
    15
100
AcDbLine
 10
722.5148542654
 20
233.9509049334
 30
0.0
 11
688.4306981098
 21
233.9509049334
 31
0.0
  0
LINE
  5
1FF
330
1F
100
AcDbEntity
  8
0
  6
Continuous
 62
     7
370
    15
100
AcDbLine
 10
724.5148583185
 20
235.9509052612
 30
0.0
 11
724.5148583185
 21
243.4509048607
 31
0.0
  0
ARC
  5
200
330
1F
100
AcDbEntity
  8
0
  6
Continuous
 62
     7
370
    15
100
AcDbCircle
 10
722.5148553383
 20
253.9509048738
 30
0.0
 40
2.0
100
AcDbArc
 50
359.9999999994
 51
90.0
  0
LINE
  5
201
330
1F
100
AcDbEntity
  8
0
  6
Continuous
 62
     7
370
    15
100
AcDbLine
 10
688.0363910329
 20
255.9509048142
 30
0.0
 11
722.5148542654
 21
255.9509048142
 31
0.0
  0
LINE
  5
202
330
1F
100
AcDbEntity
  8
0
  6
Continuous
 62
     7
370
    15
100
AcDbLine
 10
724.5148583185
 20
253.9509044864
 30
0.0
 11
724.5148583185
 21
246.4509048868
 31
0.0
  0
LINE
  5
203
330
1F
100
AcDbEntity
  8
0
  6
Continuous
 62
     7
370
    15
100
AcDbLine
 10
565.0148554575
 20
92.9509097614
 30
0.0
 11
732.7689840328
 21
92.9509097614
 31
0.0
  0
SPLINE
  5
204
330
1F
100
AcDbEntity
  8
0
  6
Continuous
 62
     7
370
    15
100
AcDbSpline
210
0.0
220
0.0
230
1.0
 70
     8
 71
     3
 72
    12
 73
     8
 74
     0
 42
0.00000001
 43
0.00000001
 12
1.0
 22
0.0
 32
0.0
 13
1.0
 23
0.0
 33
0.0
 40
0.0
 40
0.0
 40
0.0
 40
0.0
 40
0.2061165396291673
 40
0.411973116309356
 40
0.6244293500700401
 40
0.8467538356742296
 40
1.0
 40
1.0
 40
1.0
 40
1.0
 10
732.7689840328144
 20
92.95090976136147
 30
0.0
 10
733.1150020720996
 20
92.91696633555068
 30
0.0
 10
733.8066017379975
 20
92.84912229482192
 30
0.0
 10
734.7358380562151
 20
92.33373758641467
 30
0.0
 10
735.4660733170765
 20
91.57883176762263
 30
0.0
 10
735.8888142296611
 20
90.73460798638445
 30
0.0
 10
735.9701202337033
 20
90.17801385561322
 30
0.0
 10
736.0032959711003
 20
89.95090368168768
 30
0.0
  0
SPLINE
  5
205
330
1F
100
AcDbEntity
  8
0
  6
Continuous
 62
     7
370
    15
100
AcDbSpline
210
0.0
220
0.0
230
1.0
 70
     8
 71
     3
 72
    15
 73
    11
 74
     0
 42
0.00000001
 43
0.00000001
 12
1.0
 22
0.0
 32
0.0
 13
1.0
 23
0.0
 33
0.0
 40
0.0
 40
0.0
 40
0.0
 40
0.0
 40
0.0570321486378174
 40
0.2092547615177418
 40
0.3657957103179475
 40
0.5196366588763733
 40
0.677975049434918
 40
0.8310603074610793
 40
0.9886993079122333
 40
1.0
 40
1.0
 40
1.0
 40
1.0
 10
736.0032959711002
 20
89.9509036816877
 30
0.0
 10
736.0259839495307
 20
89.68035407951075
 30
0.0
 10
736.1092276573196
 20
88.68768952391451
 30
0.0
 10
736.275892501425
 20
87.08421552471127
 30
0.0
 10
736.4950147309955
 20
85.32503651973047
 30
0.0
 10
736.7027454262112
 20
83.87441105626326
 30
0.0
 10
736.8714049900037
 20
82.80324346230802
 30
0.0
 10
736.9840863793945
 20
82.12939702012339
 30
0.0
 10
737.014184667681
 20
81.95483230278478
 30
0.0
 10
737.0148118919587
 20
81.95114876886086
 30
0.0
 10
737.014853848164
 20
81.95090237038552
 30
0.0
  0
LINE
  5
206
330
1F
100
AcDbEntity
  8
0
  6
Continuous
 62
     7
370
    15
100
AcDbLine
 10
737.0148538482
 20
76.9509071388
 30
0.0
 11
562.0148568284
 21
76.9509071388
 31
0.0
  0
SPLINE
  5
207
330
1F
100
AcDbEntity
  8
0
  6
Continuous
 62
     7
370
    15
100
AcDbSpline
210
0.0
220
0.0
230
1.0
 70
     8
 71
     3
 72
    14
 73
    10
 74
     0
 42
0.00000001
 43
0.00000001
 12
1.0
 22
0.0
 32
0.0
 13
1.0
 23
0.0
 33
0.0
 40
0.0
 40
0.0
 40
0.0
 40
0.0
 40
0.1002536766362793
 40
0.2510611145282446
 40
0.4062044878851689
 40
0.5577825452254656
 40
0.7136464625038871
 40
0.8551009369336949
 40
1.0
 40
1.0
 40
1.0
 40
1.0
 10
737.014853848164
 20
407.9509073771757
 30
0.0
 10
737.0118257334289
 20
407.933257302603
 30
0.0
 10
737.0042425515857
 20
407.8890569546215
 30
0.0
 10
736.9298524710866
 20
407.4518619355755
 30
0.0
 10
736.7889752317155
 20
406.5845099163922
 30
0.0
 10
736.5991190790616
 20
405.3249401806232
 30
0.0
 10
736.3907986401794
 20
403.7673972958661
 30
0.0
 10
736.1810530295418
 20
401.9697033136703
 30
0.0
 10
736.0630215963788
 20
400.6292134647045
 30
0.0
 10
736.0032959711002
 20
399.9509060658735
 30
0.0
  0
LINE
  5
208
330
1F
100
AcDbEntity
  8
0
  6
Continuous
 62
     7
370
    15
100
AcDbLine
 10
649.5148553383
 20
412.9509026088
 30
0.0
 11
562.0148568284
 21
412.9509026088
 31
0.0
  0
LINE
  5
209
330
1F
100
AcDbEntity
  8
0
  6
Continuous
 62
     7
370
    15
100
AcDbLine
 10
737.0148538482
 20
412.9509026088
 30
0.0
 11
649.5148553383
 21
412.9509026088
 31
0.0
  0
LINE
  5
20A
330
1F
100
AcDbEntity
  8
0
  6
Continuous
 62
     7
370
    15
100
AcDbLine
 10
732.7689840328
 20
396.9508999862
 30
0.0
 11
565.0148554575
 21
396.9508999862
 31
0.0
  0
SPLINE
  5
20B
330
1F
100
AcDbEntity
  8
0
  6
Continuous
 62
     7
370
    15
100
AcDbSpline
210
0.0
220
0.0
230
1.0
 70
     8
 71
     3
 72
    12
 73
     8
 74
     0
 42
0.00000001
 43
0.00000001
 12
1.0
 22
0.0
 32
0.0
 13
1.0
 23
0.0
 33
0.0
 40
0.0
 40
0.0
 40
0.0
 40
0.0
 40
0.2436585659126032
 40
0.4878398415757016
 40
0.7178166158517748
 40
0.9349814504183617
 40
1.0
 40
1.0
 40
1.0
 40
1.0
 10
736.0032959711002
 20
399.9509060658735
 30
0.0
 10
735.9370988564957
 20
399.5878605840959
 30
0.0
 10
735.804562617597
 20
398.8609907954151
 30
0.0
 10
735.1250647695928
 20
397.8925988110121
 30
0.0
 10
734.1892826374941
 20
397.2183032371465
 30
0.0
 10
733.3487925310183
 20
396.9698415240218
 30
0.0
 10
732.8775615029435
 20
396.9544470612486
 30
0.0
 10
732.7689840328144
 20
396.9508999861997
 30
0.0
  0
LINE
  5
20C
330
1F
100
AcDbEntity
  8
0
  6
Continuous
 62
     7
370
    15
100
AcDbLine
 10
646.0148552302
 20
396.9508999862
 30
0.0
 11
646.0148552302
 21
308.2906374611
 31
0.0
  0
LINE
  5
20D
330
1F
100
AcDbEntity
  8
0
  6
Continuous
 62
     7
370
    15
100
AcDbLine
 10
653.0148554463
 20
396.9508999862
 30
0.0
 11
653.0148554463
 21
308.5206517853
 31
0.0
  0
LINE
  5
20E
330
1F
100
AcDbEntity
  8
0
  6
Continuous
 62
     7
370
    15
100
AcDbLine
 10
569.5148571264
 20
241.8789725188
 30
0.0
 11
569.5148571264
 21
241.9509048477
 31
0.0
  0
SPLINE
  5
20F
330
1F
100
AcDbEntity
  8
0
  6
Continuous
 62
     7
370
    15
100
AcDbSpline
210
0.0
220
0.0
230
1.0
 70
     8
 71
     3
 72
    12
 73
     8
 74
     0
 42
0.00000001
 43
0.00000001
 12
1.0
 22
0.0
 32
0.0
 13
1.0
 23
0.0
 33
0.0
 40
0.0
 40
0.0
 40
0.0
 40
0.0
 40
0.2329805178183209
 40
0.4661638563212467
 40
0.6933146324052561
 40
0.9100163613558788
 40
1.0
 40
1.0
 40
1.0
 40
1.0
 10
571.5691088568615
 20
239.9509049855393
 30
0.0
 10
571.3295974817472
 20
239.974503006828
 30
0.0
 10
570.8503662254101
 20
240.0217195926116
 30
0.0
 10
570.2154744218997
 20
240.3924493827295
 30
0.0
 10
569.7525243585015
 20
240.9326974543496
 30
0.0
 10
569.5480546567978
 20
241.466141119216
 30
0.0
 10
569.5223879254747
 20
241.7853224708129
 30
0.0
 10
569.5148571264194
 20
241.8789725188386
 30
0.0
  0
LINE
  5
210
330
1F
100
AcDbEntity
  8
0
  6
Continuous
 62
     7
370
    15
100
AcDbLine
 10
576.5148564112
 20
239.9509049855
 30
0.0
 11
571.5691088569
 21
239.9509049855
 31
0.0
  0
SPLINE
  5
211
330
1F
100
AcDbEntity
  8
0
  6
Continuous
 62
     7
370
    15
100
AcDbSpline
210
0.0
220
0.0
230
1.0
 70
     8
 71
     3
 72
    12
 73
     8
 74
     0
 42
0.00000001
 43
0.00000001
 12
1.0
 22
0.0
 32
0.0
 13
1.0
 23
0.0
 33
0.0
 40
0.0
 40
0.0
 40
0.0
 40
0.0
 40
0.2181727999278203
 40
0.4361795358152203
 40
0.6587896641363614
 40
0.8911397269013772
 40
1.0
 40
1.0
 40
1.0
 40
1.0
 10
729.5148535501407
 20
235.7357157297653
 30
0.0
 10
729.4700117048234
 20
235.5214295131087
 30
0.0
 10
729.3803621459318
 20
235.0930201855309
 30
0.0
 10
728.9878510196079
 20
234.5490854782051
 30
0.0
 10
728.4498092593622
 20
234.1500179971446
 30
0.0
 10
727.9136689288149
 20
233.9709409813008
 30
0.0
 10
727.5806647991056
 20
233.9557511277478
 30
0.0
 10
727.474422646706
 20
233.9509049333852
 30
0.0
  0
LINE
  5
212
330
1F
100
AcDbEntity
  8
0
  6
Continuous
 62
     7
370
    15
100
AcDbLine
 10
729.5148535501
 20
235.9509052612
 30
0.0
 11
729.5148535501
 21
235.7357157298
 31
0.0
  0
LINE
  5
213
330
1F
100
AcDbEntity
  8
0
  6
Continuous
 62
     7
370
    15
100
AcDbLine
 10
727.4744226467
 20
233.9509049334
 30
0.0
 11
722.5148542654
 21
233.9509049334
 31
0.0
  0
LINE
  5
214
330
1F
100
AcDbEntity
  8
0
  6
Continuous
 62
     7
370
    15
100
AcDbLine
 10
729.5148535501
 20
254.1660940178
 30
0.0
 11
729.5148535501
 21
253.9509044864
 31
0.0
  0
SPLINE
  5
215
330
1F
100
AcDbEntity
  8
0
  6
Continuous
 62
     7
370
    15
100
AcDbSpline
210
0.0
220
0.0
230
1.0
 70
     8
 71
     3
 72
    12
 73
     8
 74
     0
 42
0.00000001
 43
0.00000001
 12
1.0
 22
0.0
 32
0.0
 13
1.0
 23
0.0
 33
0.0
 40
0.0
 40
0.0
 40
0.0
 40
0.0
 40
0.2435858530486666
 40
0.4874045774055116
 40
0.7244220364307334
 40
0.9505052485644409
 40
0.9999999999999999
 40
0.9999999999999999
 40
0.9999999999999999
 40
0.9999999999999999
 10
727.4744226467061
 20
255.9509048141759
 30
0.0
 10
727.7131179330154
 20
255.9274776140883
 30
0.0
 10
728.1907367014954
 20
255.8806008171988
 30
0.0
 10
728.8237152227155
 20
255.5117046493274
 30
0.0
 10
729.2863058544777
 20
254.9742568980116
 30
0.0
 10
729.4723102049154
 20
254.486227798462
 30
0.0
 10
729.5083760077327
 20
254.2148367795499
 30
0.0
 10
729.5148535501407
 20
254.1660940177959
 30
0.0
  0
LINE
  5
216
330
1F
100
AcDbEntity
  8
0
  6
Continuous
 62
     7
370
    15
100
AcDbLine
 10
722.5148542654
 20
255.9509048142
 30
0.0
 11
727.4744226467
 21
255.9509048142
 31
0.0
  0
LINE
  5
217
330
1F
100
AcDbEntity
  8
0
  6
Continuous
 62
     7
370
    15
100
AcDbLine
 10
729.5148535501
 20
244.9509048738
 30
0.0
 11
729.5148535501
 21
235.9509052612
 31
0.0
  0
LINE
  5
218
330
1F
100
AcDbEntity
  8
0
  6
Continuous
 62
     7
370
    15
100
AcDbLine
 10
729.5148535501
 20
253.9509044864
 30
0.0
 11
729.5148535501
 21
244.9509048738
 31
0.0
  0
LINE
  5
219
330
1F
100
AcDbEntity
  8
0
  6
Continuous
 62
     7
370
    15
100
AcDbLine
 10
569.5148571264
 20
247.9509048999
 30
0.0
 11
569.5148571264
 21
248.0228372287
 31
0.0
  0
SPLINE
  5
21A
330
1F
100
AcDbEntity
  8
0
  6
Continuous
 62
     7
370
    15
100
AcDbSpline
210
0.0
220
0.0
230
1.0
 70
     8
 71
     3
 72
    12
 73
     8
 74
     0
 42
0.00000001
 43
0.00000001
 12
1.0
 22
0.0
 32
0.0
 13
1.0
 23
0.0
 33
0.0
 40
0.0
 40
0.0
 40
0.0
 40
0.0
 40
0.2074891453215057
 40
0.4148302926342823
 40
0.6263133697137975
 40
0.8469669075852863
 40
1.0
 40
1.0
 40
1.0
 40
1.0
 10
569.5148571264194
 20
248.0228372287226
 30
0.0
 10
569.5440437554777
 20
248.2394077689502
 30
0.0
 10
569.6023961953338
 20
248.6723943738128
 30
0.0
 10
569.9538900922532
 20
249.2421518289653
 30
0.0
 10
570.4605626144796
 20
249.6770794290704
 30
0.0
 10
571.0291301588902
 20
249.9153647368013
 30
0.0
 10
571.4122235031768
 20
249.9405789668606
 30
0.0
 10
571.5691088568615
 20
249.9509047620219
 30
0.0
  0
LINE
  5
21B
330
1F
100
AcDbEntity
  8
0
  6
Continuous
 62
     7
370
    15
100
AcDbLine
 10
571.5691088569
 20
249.950904762
 30
0.0
 11
576.5148564112
 21
249.950904762
 31
0.0
  0
LINE
  5
21C
330
1F
100
AcDbEntity
  8
0
  6
Continuous
 62
     7
370
    15
100
AcDbLine
 10
569.5148571264
 20
244.9509048738
 30
0.0
 11
569.5148571264
 21
241.9509048477
 31
0.0
  0
LINE
  5
21D
330
1F
100
AcDbEntity
  8
0
  6
Continuous
 62
     7
370
    15
100
AcDbLine
 10
569.5148571264
 20
247.9509048999
 30
0.0
 11
569.5148571264
 21
244.9509048738
 31
0.0
  0
LINE
  5
21E
330
1F
100
AcDbEntity
  8
0
  6
Continuous
 62
     7
370
    15
100
AcDbLine
 10
649.5148553383
 20
414.9509066619
 30
0.0
 11
709.5148539972
 21
414.9509066619
 31
0.0
  0
LINE
  5
21F
330
1F
100
AcDbEntity
  8
0
  6
Continuous
 62
     7
370
    15
100
AcDbLine
 10
589.5148566794
 20
414.9509066619
 30
0.0
 11
649.5148553383
 21
414.9509066619
 31
0.0
  0
LINE
  5
220
330
1F
100
AcDbEntity
  8
0
  6
Continuous
 62
     7
370
    15
100
AcDbLine
 10
649.5148553383
 20
74.9509030856
 30
0.0
 11
709.5148539972
 21
74.9509030856
 31
0.0
  0
LINE
  5
221
330
1F
100
AcDbEntity
  8
0
  6
Continuous
 62
     7
370
    15
100
AcDbLine
 10
589.5148566794
 20
74.9509030856
 30
0.0
 11
649.5148553383
 21
74.9509030856
 31
0.0
  0
SPLINE
  5
222
330
1F
100
AcDbEntity
  8
0
  6
Continuous
 62
     7
370
    15
100
AcDbSpline
210
0.0
220
0.0
230
1.0
 70
    24
 71
     3
 72
    13
 73
     9
 74
     0
 42
0.00000001
 43
0.00000001
 12
1.0
 22
0.0
 32
0.0
 13
1.0
 23
0.0
 33
0.0
 40
0.0
 40
0.0
 40
0.0
 40
0.0
 40
0.1827079499890174
 40
0.3654139105201537
 40
0.5482763675099944
 40
0.7320268445259094
 40
0.9167997813219141
 40
1.0
 40
1.0
 40
1.0
 40
1.0
 10
646.0148552302468
 20
295.6534692920965
 30
0.0
 10
646.0148552302468
 20
295.7633495796716
 30
0.0
 10
646.0148552302468
 20
295.9831089583648
 30
0.0
 10
646.0148552302468
 20
297.6975006599311
 30
0.0
 10
646.0148552302467
 20
300.2259766779939
 30
0.0
 10
646.0148552302468
 20
303.3875345764231
 30
0.0
 10
646.0148552302467
 20
306.1986640190619
 30
0.0
 10
646.0148552302468
 20
307.7950057855446
 30
0.0
 10
646.0148552302468
 20
308.2906374611181
 30
0.0
  0
SPLINE
  5
223
330
1F
100
AcDbEntity
  8
0
  6
Continuous
 62
     7
370
    15
100
AcDbSpline
210
0.0
220
0.0
230
1.0
 70
    24
 71
     3
 72
    13
 73
     9
 74
     0
 42
0.00000001
 43
0.00000001
 12
1.0
 22
0.0
 32
0.0
 13
1.0
 23
0.0
 33
0.0
 40
0.0
 40
0.0
 40
0.0
 40
0.0
 40
0.1841374675240851
 40
0.368275365241276
 40
0.5523955056788801
 40
0.736451268160978
 40
0.9204306207464332
 40
1.0
 40
1.0
 40
1.0
 40
1.0
 10
653.0148554463136
 20
308.5206517853063
 30
0.0
 10
653.0148554463136
 20
307.4051032978962
 30
0.0
 10
653.0148554463136
 20
305.174003716864
 30
0.0
 10
653.0148554463136
 20
301.8354019764321
 30
0.0
 10
653.0148554463136
 20
298.9764702179152
 30
0.0
 10
653.0148554463135
 20
296.9100763110425
 30
0.0
 10
653.0148554463136
 20
296.021101259519
 30
0.0
 10
653.0148554463136
 20
295.9502375768793
 30
0.0
 10
653.0148554463136
 20
295.9288427509588
 30
0.0
  0
SPLINE
  5
224
330
1F
100
AcDbEntity
  8
0
  6
Continuous
 62
     7
370
    15
100
AcDbSpline
210
0.0
220
0.0
230
1.0
 70
     8
 71
     3
 72
     9
 73
     5
 74
     0
 42
0.00000001
 43
0.00000001
 12
1.0
 22
0.0
 32
0.0
 13
1.0
 23
0.0
 33
0.0
 40
0.0
 40
0.0
 40
0.0
 40
0.0
 40
0.5574476022540145
 40
0.9999999999999999
 40
0.9999999999999999
 40
0.9999999999999999
 40
0.9999999999999999
 10
705.6866376530575
 20
358.329854337148
 30
0.0
 10
707.2695125935272
 20
356.8111566100745
 30
0.0
 10
710.1090170313781
 20
354.0867790704945
 30
0.0
 10
713.3275834123763
 20
351.8257787410358
 30
0.0
 10
714.7519676815914
 20
350.8251676239294
 30
0.0
  0
SPLINE
  5
225
330
1F
100
AcDbEntity
  8
0
  6
Continuous
 62
     7
370
    15
100
AcDbSpline
210
0.0
220
0.0
230
1.0
 70
     8
 71
     3
 72
     9
 73
     5
 74
     0
 42
0.00000001
 43
0.00000001
 12
1.0
 22
0.0
 32
0.0
 13
1.0
 23
0.0
 33
0.0
 40
0.0
 40
0.0
 40
0.0
 40
0.0
 40
0.4985436427922754
 40
1.0
 40
1.0
 40
1.0
 40
1.0
 10
667.2155498396802
 20
324.066601125173
 30
0.0
 10
664.857850866509
 20
323.9251348625176
 30
0.0
 10
660.128678190741
 20
323.6413758281771
 30
0.0
 10
655.3907297913237
 20
323.8767484371411
 30
0.0
 10
653.0148554463136
 20
323.9947775282186
 30
0.0
  0
SPLINE
  5
226
330
1F
100
AcDbEntity
  8
0
  6
Continuous
 62
     7
370
    15
100
AcDbSpline
210
0.0
220
0.0
230
1.0
 70
     8
 71
     3
 72
    17
 73
    13
 74
     0
 42
0.00000001
 43
0.00000001
 12
1.0
 22
0.0
 32
0.0
 13
1.0
 23
0.0
 33
0.0
 40
0.0
 40
0.0
 40
0.0
 40
0.0
 40
0.0210488989288774
 40
0.1179553875501956
 40
0.2148555023067688
 40
0.2985505862245514
 40
0.3823061918056073
 40
0.4950815012478653
 40
0.6079234607293097
 40
0.7217661006769468
 40
0.835538693275841
 40
1.0
 40
1.0
 40
1.0
 40
1.0
 10
686.4527626764225
 20
396.9508999861997
 30
0.0
 10
686.4418241179994
 20
396.7814621039122
 30
0.0
 10
686.3805258095986
 20
395.8319534793305
 30
0.0
 10
686.3943585308879
 20
394.045616483415
 30
0.0
 10
686.6585483015679
 20
391.7314186688448
 30
0.0
 10
687.1455231308156
 20
389.5973986489388
 30
0.0
 10
687.8329444928465
 20
387.449250451383
 30
0.0
 10
688.761111072703
 20
385.266488070951
 30
0.0
 10
689.8391289666913
 20
383.1237826766134
 30
0.0
 10
690.8540733654268
 20
381.2724854545373
 30
0.0
 10
691.9384317290051
 20
379.4868170544563
 30
0.0
 10
692.4139727002366
 20
378.7817236119466
 30
0.0
 10
692.6950602662014
 20
378.364949850015
 30
0.0
  0
SPLINE
  5
227
330
1F
100
AcDbEntity
  8
0
  6
Continuous
 62
     7
370
    15
100
AcDbSpline
210
0.0
220
0.0
230
1.0
 70
     8
 71
     3
 72
    10
 73
     6
 74
     0
 42
0.00000001
 43
0.00000001
 12
1.0
 22
0.0
 32
0.0
 13
1.0
 23
0.0
 33
0.0
 40
0.0
 40
0.0
 40
0.0
 40
0.0
 40
0.2650509208310995
 40
0.6282232375672241
 40
1.0
 40
1.0
 40
1.0
 40
1.0
 10
692.6950602662014
 20
378.364949850015
 30
0.0
 10
693.5222842188675
 20
376.40665856415
 30
0.0
 10
695.4829690114633
 20
371.7651199199971
 30
0.0
 10
699.7017795492152
 20
364.8788714865052
 30
0.0
 10
703.660854128646
 20
360.5032974802493
 30
0.0
 10
705.6635669302391
 20
358.2898968734067
 30
0.0
  0
SPLINE
  5
228
330
1F
100
AcDbEntity
  8
0
  6
Continuous
 62
     7
370
    15
100
AcDbSpline
210
0.0
220
0.0
230
1.0
 70
     8
 71
     3
 72
    16
 73
    12
 74
     0
 42
0.00000001
 43
0.00000001
 12
1.0
 22
0.0
 32
0.0
 13
1.0
 23
0.0
 33
0.0
 40
0.0
 40
0.0
 40
0.0
 40
0.0
 40
0.1196504556034005
 40
0.2370492636530115
 40
0.3518644203744273
 40
0.4645465238073075
 40
0.5754683883033872
 40
0.6830050553560334
 40
0.7894213408744999
 40
0.8949876713772383
 40
1.0
 40
1.0
 40
1.0
 40
1.0
 10
620.7943628411936
 20
396.9508999861997
 30
0.0
 10
620.5735103842244
 20
394.1398501207776
 30
0.0
 10
620.1359615923161
 20
388.5706502599849
 30
0.0
 10
620.2355953708695
 20
380.2646799232549
 30
0.0
 10
621.2697977194911
 20
372.1887636551679
 30
0.0
 10
623.1377987169632
 20
364.4229573634806
 30
0.0
 10
625.7932166822054
 20
357.0726522653555
 30
0.0
 10
629.1669543826907
 20
350.1865561493246
 30
0.0
 10
633.215486322901
 20
343.8293325907472
 30
0.0
 10
637.8644909505944
 20
337.957358441082
 30
0.0
 10
641.4706097688611
 20
334.545090201577
 30
0.0
 10
643.2689255904603
 20
332.843444672994
 30
0.0
  0
LINE
  5
229
330
1F
100
AcDbEntity
  8
0
  6
Continuous
 62
     7
370
    15
100
AcDbLine
 10
643.2689255905
 20
332.843444673
 30
0.0
 11
646.0148552302
 21
330.1072934546
 31
0.0
  0
ARC
  5
22A
330
1F
100
AcDbEntity
  8
0
  6
Continuous
 62
     7
370
    15
100
AcDbCircle
 10
649.5148553383
 20
244.9509048738
 30
0.0
 40
81.07161918449167
100
AcDbArc
 50
209.7180465263
 51
235.6128107596
  0
ARC
  5
22B
330
1F
100
AcDbEntity
  8
0
  6
Continuous
 62
     7
370
    15
100
AcDbCircle
 10
649.5148553383
 20
244.9509048738
 30
0.0
 40
81.07161918449167
100
AcDbArc
 50
92.4743254842
 51
209.7180465263
  0
ARC
  5
22C
330
1F
100
AcDbEntity
  8
0
  6
Continuous
 62
     7
370
    15
100
AcDbCircle
 10
649.5148553383
 20
244.9509048738
 30
0.0
 40
81.07161918449167
100
AcDbArc
 50
29.880443352
 51
77.3886126788
  0
ARC
  5
22D
330
1F
100
AcDbEntity
  8
0
  6
Continuous
 62
     7
370
    15
100
AcDbCircle
 10
649.5148553383
 20
244.9509048738
 30
0.0
 40
81.07161918449168
100
AcDbArc
 50
344.7921753998
 51
29.880443352
  0
ARC
  5
22E
330
1F
100
AcDbEntity
  8
0
  6
Continuous
 62
     7
370
    15
100
AcDbCircle
 10
649.5148553383
 20
244.9509048738
 30
0.0
 40
81.07161918449174
100
AcDbArc
 50
306.6928629197
 51
344.7921753998
  0
SPLINE
  5
22F
330
1F
100
AcDbEntity
  8
0
  6
Continuous
 62
     7
370
    15
100
AcDbSpline
210
0.0
220
0.0
230
1.0
 70
     8
 71
     3
 72
    17
 73
    13
 74
     0
 42
0.00000001
 43
0.00000001
 12
1.0
 22
0.0
 32
0.0
 13
1.0
 23
0.0
 33
0.0
 40
0.0
 40
0.0
 40
0.0
 40
0.0
 40
0.0953634123499379
 40
0.1913878418646593
 40
0.2869876838253803
 40
0.3825872632133507
 40
0.4809654433271299
 40
0.5793432324944531
 40
0.683090895392375
 40
0.786839356394161
 40
0.8933637015385764
 40
1.0
 40
1.0
 40
1.0
 40
1.0
 10
631.0516348909782
 20
339.7710913695615
 30
0.0
 10
629.6824487232799
 20
341.2215511777766
 30
0.0
 10
626.9345857925247
 20
344.1325247426387
 30
0.0
 10
623.2906793662186
 20
348.9115794964242
 30
0.0
 10
620.0274834875856
 20
353.9578689768685
 30
0.0
 10
617.1759544852042
 20
359.3060991800731
 30
0.0
 10
614.7630140979416
 20
364.9288635301469
 30
0.0
 10
612.7834891534602
 20
370.8990502562447
 30
0.0
 10
611.3206780641266
 20
377.1316153695086
 30
0.0
 10
610.3799687922487
 20
383.6393040500894
 30
0.0
 10
610.1171409651179
 20
390.2663252206205
 30
0.0
 10
610.1403092655522
 20
394.7219283606984
 30
0.0
 10
610.1518994998382
 20
396.9508999861997
 30
0.0
  0
LINE
  5
230
330
1F
100
AcDbEntity
  8
0
  6
Continuous
 62
     7
370
    15
100
AcDbLine
 10
682.0148541462
 20
301.2425558545
 30
0.0
 11
682.8108555507
 21
297.7252000846
 31
0.0
  0
LINE
  5
231
330
1F
100
AcDbEntity
  8
0
  6
Continuous
 62
     7
370
    15
100
AcDbLine
 10
685.5322099161
 20
302.038557259
 30
0.0
 11
682.0148541462
 21
301.2425558545
 31
0.0
  0
LINE
  5
232
330
1F
100
AcDbEntity
  8
0
  6
Continuous
 62
     7
370
    15
100
AcDbLine
 10
684.8652227652
 20
300.981379477
 30
0.0
 11
685.5322099161
 21
302.038557259
 31
0.0
  0
ARC
  5
233
330
1F
100
AcDbEntity
  8
0
  6
Continuous
 62
     7
370
    15
100
AcDbCircle
 10
649.5148553383
 20
244.9509048738
 30
0.0
 40
66.25000000000009
100
AcDbArc
 50
46.0703581215
 51
57.7516301839
  0
LINE
  5
234
330
1F
100
AcDbEntity
  8
0
  6
Continuous
 62
     7
370
    15
100
AcDbLine
 10
697.244530065
 20
292.6806466557
 30
0.0
 11
695.4774162602
 21
292.6636444308
 31
0.0
  0
ARC
  5
235
330
1F
100
AcDbEntity
  8
0
  6
Continuous
 62
     7
370
    15
100
AcDbCircle
 10
649.5148553383
 20
244.9509048738
 30
0.0
 40
67.50000000000026
100
AcDbArc
 50
30.0
 51
45.0000392285
  0
LINE
  5
236
330
1F
100
AcDbEntity
  8
0
  6
Continuous
 62
     7
370
    15
100
AcDbLine
 10
704.5151009094
 20
279.591529993
 30
0.0
 11
707.9715705347
 21
278.7009062149
 31
0.0
  0
LINE
  5
237
330
1F
100
AcDbEntity
  8
0
  6
Continuous
 62
     7
370
    15
100
AcDbLine
 10
703.6414421033
 20
276.2009048738
 30
0.0
 11
704.5151009094
 21
279.591529993
 31
0.0
  0
ARC
  5
238
330
1F
100
AcDbEntity
  8
0
  6
Continuous
 62
     7
370
    15
100
AcDbCircle
 10
649.5148553383
 20
244.9509048738
 30
0.0
 40
62.50000000000023
100
AcDbArc
 50
30.0
 51
45.0
  0
LINE
  5
239
330
1F
100
AcDbEntity
  8
0
  6
Continuous
 62
     7
370
    15
100
AcDbLine
 10
693.6920261812
 20
290.9121917464
 30
0.0
 11
693.7090284061
 21
289.1450779416
 31
0.0
  0
ARC
  5
23A
330
1F
100
AcDbEntity
  8
0
  6
Continuous
 62
     7
370
    15
100
AcDbCircle
 10
649.5148553383
 20
244.9509048738
 30
0.0
 40
63.75000000000016
100
AcDbArc
 50
46.1339102698
 51
57.7516301839
  0
LINE
  5
23B
330
1F
100
AcDbEntity
  8
0
  6
Continuous
 62
     7
370
    15
100
AcDbLine
 10
682.8108555507
 20
297.7252000846
 30
0.0
 11
683.5312484633
 21
298.8670201875
 31
0.0
  0
SPLINE
  5
23C
330
1F
100
AcDbEntity
  8
0
  6
Continuous
 62
     7
370
    15
100
AcDbSpline
210
0.0
220
0.0
230
1.0
 70
     8
 71
     3
 72
    14
 73
    10
 74
     0
 42
0.00000001
 43
0.00000001
 12
1.0
 22
0.0
 32
0.0
 13
1.0
 23
0.0
 33
0.0
 40
0.0
 40
0.0
 40
0.0
 40
0.0
 40
0.154043514785536
 40
0.3080982237998837
 40
0.4618963307088026
 40
0.6155671279559962
 40
0.7694170250057137
 40
0.9236476410088551
 40
1.0
 40
1.0
 40
1.0
 40
1.0
 10
631.0516348909782
 20
339.7710913695615
 30
0.0
 10
631.4079438868413
 20
339.3329327858858
 30
0.0
 10
632.1205877712796
 20
338.4565837778726
 30
0.0
 10
632.5610973745535
 20
336.7879932738479
 30
0.0
 10
632.4590088794622
 20
335.0897074555468
 30
0.0
 10
631.7911896205985
 20
333.5145290737764
 30
0.0
 10
630.6421881747649
 20
332.2561192747638
 30
0.0
 10
629.3919008181931
 20
331.5599875128712
 30
0.0
 10
628.5719340043836
 20
331.382829024592
 30
0.0
 10
628.3004204612421
 20
331.3241669811529
 30
0.0
  0
SPLINE
  5
23D
330
1F
100
AcDbEntity
  8
0
  6
Continuous
 62
     7
370
    15
100
AcDbSpline
210
0.0
220
0.0
230
1.0
 70
     8
 71
     3
 72
     9
 73
     5
 74
     0
 42
0.00000001
 43
0.00000001
 12
1.0
 22
0.0
 32
0.0
 13
1.0
 23
0.0
 33
0.0
 40
0.0
 40
0.0
 40
0.0
 40
0.0
 40
0.562905636254923
 40
1.0
 40
1.0
 40
1.0
 40
1.0
 10
552.0272492300915
 20
244.9509048737813
 30
0.0
 10
552.105335269293
 20
246.2612842325423
 30
0.0
 10
552.2440548595267
 20
248.5891688269819
 30
0.0
 10
552.4859616645198
 20
250.5284755843951
 30
0.0
 10
552.5916977655338
 20
251.3761356376332
 30
0.0
  0
SPLINE
  5
23E
330
1F
100
AcDbEntity
  8
0
  6
Continuous
 62
     7
370
    15
100
AcDbSpline
210
0.0
220
0.0
230
1.0
 70
     8
 71
     3
 72
    10
 73
     6
 74
     0
 42
0.00000001
 43
0.00000001
 12
1.0
 22
0.0
 32
0.0
 13
1.0
 23
0.0
 33
0.0
 40
0.0
 40
0.0
 40
0.0
 40
0.0
 40
0.0717163036101146
 40
0.62714909259106
 40
1.0
 40
1.0
 40
1.0
 40
1.0
 10
551.7021803986477
 20
238.4536917224747
 30
0.0
 10
551.7010277029485
 20
238.5756075810319
 30
0.0
 10
551.6909475395073
 20
239.6417447941589
 30
0.0
 10
551.8167247027955
 20
241.9723352474457
 30
0.0
 10
551.9669216815004
 20
244.0973710543618
 30
0.0
 10
552.0272492300915
 20
244.9509048737819
 30
0.0
  0
SPLINE
  5
23F
330
1F
100
AcDbEntity
  8
0
  6
Continuous
 62
     7
370
    15
100
AcDbSpline
210
0.0
220
0.0
230
1.0
 70
     8
 71
     3
 72
     9
 73
     5
 74
     0
 42
0.00000001
 43
0.00000001
 12
1.0
 22
0.0
 32
0.0
 13
1.0
 23
0.0
 33
0.0
 40
0.0
 40
0.0
 40
0.0
 40
0.0
 40
0.8148281373508396
 40
0.9999999999999999
 40
0.9999999999999999
 40
0.9999999999999999
 40
0.9999999999999999
 10
620.801470695083
 20
329.7705197610181
 30
0.0
 10
622.828535651468
 20
330.2427136175285
 30
0.0
 10
625.3162565136552
 20
330.8222147845421
 30
0.0
 10
627.834173148055
 20
331.2457417112519
 30
0.0
 10
628.3004204612421
 20
331.3241669811529
 30
0.0
  0
LINE
  5
240
330
1F
100
AcDbEntity
  8
0
  6
Continuous
 62
     7
370
    15
100
AcDbLine
 10
717.2539024484
 20
378.36494985
 30
0.0
 11
692.6950602662
 21
378.36494985
 31
0.0
  0
LINE
  5
241
330
1F
100
AcDbEntity
  8
0
  6
Continuous
 62
     7
370
    15
100
AcDbLine
 10
737.0148538482
 20
407.9509073772
 30
0.0
 11
737.0148538482
 21
377.9509061851
 31
0.0
  0
LINE
  5
242
330
1F
100
AcDbEntity
  8
0
  6
Continuous
 62
     7
370
    15
100
AcDbLine
 10
707.2539045345
 20
111.5368598975
 30
0.0
 11
692.1330480706
 21
111.5368598975
 31
0.0
  0
LINE
  5
243
330
1F
100
AcDbEntity
  8
0
  6
Continuous
 62
     7
370
    15
100
AcDbLine
 10
737.0148538482
 20
81.9509023704
 30
0.0
 11
737.0148538482
 21
111.9509035625
 31
0.0
  0
LINE
  5
244
330
1F
100
AcDbEntity
  8
0
  6
Continuous
 62
     7
370
    15
100
AcDbLine
 10
547.5148572456
 20
256.4509048961
 30
0.0
 11
547.5148572456
 21
233.4509048514
 31
0.0
  0
LINE
  5
245
330
1F
100
AcDbEntity
  8
0
  6
Continuous
 62
     7
370
    15
100
AcDbLine
 10
717.2539024484
 20
378.36494985
 30
0.0
 11
705.6635669302
 21
358.2898968734
 31
0.0
  0
LINE
  5
246
330
1F
100
AcDbEntity
  8
0
  6
Continuous
 62
     7
370
    15
100
AcDbLine
 10
707.2539045345
 20
111.5368598975
 30
0.0
 11
694.1843046677
 21
134.1740706839
 31
0.0
  0
LINE
  5
247
330
1F
100
AcDbEntity
  8
0
  6
Continuous
 62
     7
370
    15
100
AcDbLine
 10
582.0148526561
 20
396.9508999862
 30
0.0
 11
620.8014706951
 21
329.770519761
 31
0.0
  0
LINE
  5
248
330
1F
100
AcDbEntity
  8
0
  6
Continuous
 62
     7
370
    15
100
AcDbLine
 10
582.0148526561
 20
92.9509097614
 30
0.0
 11
606.3181026709
 21
135.0453639306
 31
0.0
  0
ARC
  5
249
330
1F
100
AcDbEntity
  8
0
  6
Continuous
 62
     7
370
    15
100
AcDbCircle
 10
591.0177746747
 20
313.347480474
 30
0.0
 40
2.999999999999956
100
AcDbArc
 50
83.8564009154
 51
130.5391563021
  0
ARC
  5
24A
330
1F
100
AcDbEntity
  8
0
  6
Continuous
 62
     7
370
    15
100
AcDbCircle
 10
649.5148553383
 20
244.9509048738
 30
0.0
 40
92.99999999999999
100
AcDbArc
 50
130.5391563021
 51
137.0542955031
  0
LWPOLYLINE
  5
24B
330
1F
100
AcDbEntity
  8
0
  6
Continuous
 62
     7
370
    15
100
AcDbPolyline
 90
        3
 70
   128
 43
0.0
 10
550.8281155359
 20
222.1455754616
 10
551.2508465778
 20
227.7722893186
 10
551.8410070669
 20
232.4289021917
  0
ARC
  5
24C
330
1F
100
AcDbEntity
  8
0
  6
Continuous
 62
     7
370
    15
100
AcDbCircle
 10
556.4219027686
 20
221.8818741805
 30
0.0
 40
5.600000000000049
100
AcDbArc
 50
177.3009662613
 51
243.9634984999
  0
LWPOLYLINE
  5
24D
330
1F
100
AcDbEntity
  8
0
  6
Continuous
 62
     7
370
    15
100
AcDbPolyline
 90
        3
 70
   128
 43
0.0
 10
581.438885523
 20
308.3122664966
 10
581.2444402706
 20
308.1027040161
 10
580.8976008427
 20
307.7256822862
  0
LINE
  5
24E
330
1F
100
AcDbEntity
  8
SLD-0
  6
CENTERX2
370
     0
100
AcDbLine
 10
534.637930124
 20
244.9509048738
 30
0.0
 11
787.2571408323
 21
244.9509048738
 31
0.0
  0
LINE
  5
24F
330
1F
100
AcDbEntity
  8
SLD-0
  6
CENTERX2
370
     0
100
AcDbLine
 10
649.5148553383
 20
427.2134544706
 30
0.0
 11
649.5148553383
 21
51.4839448903
 31
0.0
  0
SPLINE
  5
250
330
1F
100
AcDbEntity
  8
0
  6
Continuous
 62
     7
370
    15
100
AcDbSpline
210
0.0
220
0.0
230
1.0
 70
     8
 71
     3
 72
    16
 73
    12
 74
     0
 42
0.00000001
 43
0.00000001
 12
1.0
 22
0.0
 32
0.0
 13
1.0
 23
0.0
 33
0.0
 40
0.0
 40
0.0
 40
0.0
 40
0.0
 40
0.0270747612949127
 40
0.0954396472398513
 40
0.1632692369980703
 40
0.2399728753667414
 40
0.3305402466554701
 40
0.4487495387306053
 40
0.61400262522541
 40
0.8219161949357351
 40
1.0
 40
1.0
 40
1.0
 40
1.0
 10
673.1579747736967
 20
461.8786366950794
 30
0.0
 10
673.1941380127769
 20
461.843663918338
 30
0.0
 10
673.3216149180491
 20
461.7203834417772
 30
0.0
 10
673.5768707215774
 20
461.5542917504957
 30
0.0
 10
673.8885771657643
 20
461.3118715123551
 30
0.0
 10
674.2319674720599
 20
461.0424487566111
 30
0.0
 10
674.6323271500854
 20
460.6953256840284
 30
0.0
 10
675.1552381954261
 20
460.2387018719794
 30
0.0
 10
675.8682177371078
 20
459.6700053713966
 30
0.0
 10
676.5955991433319
 20
458.9436019552706
 30
0.0
 10
677.0192387966665
 20
458.3650965411731
 30
0.0
 10
677.2146892488515
 20
458.0981971990391
 30
0.0
  0
SPLINE
  5
251
330
1F
100
AcDbEntity
  8
0
  6
Continuous
 62
     7
370
    15
100
AcDbSpline
210
0.0
220
0.0
230
1.0
 70
     8
 71
     3
 72
    28
 73
    24
 74
     0
 42
0.00000001
 43
0.00000001
 12
1.0
 22
0.0
 32
0.0
 13
1.0
 23
0.0
 33
0.0
 40
0.0
 40
0.0
 40
0.0
 40
0.0
 40
0.0601996814014926
 40
0.1517370488592678
 40
0.2364193789226184
 40
0.3131551407711021
 40
0.3814127148862159
 40
0.4382114483610393
 40
0.4825410497738985
 40
0.5000580058548751
 40
0.5149712959148868
 40
0.5223286515983591
 40
0.5297304590927048
 40
0.5447287146666276
 40
0.5680963051630687
 40
0.593454936896897
 40
0.6223197697807253
 40
0.656659667609251
 40
0.7019977318257599
 40
0.7595648084838569
 40
0.8330485745297723
 40
0.9261201697765324
 40
1.0
 40
1.0
 40
1.0
 40
1.0
 10
768.8988760799682
 20
441.2709081839844
 30
0.0
 10
768.8994010314166
 20
442.0751812747117
 30
0.0
 10
768.900724204259
 20
444.102401725431
 30
0.0
 10
768.888450309497
 20
447.2628942829627
 30
0.0
 10
768.9333488356842
 20
450.6365811187487
 30
0.0
 10
768.788294628769
 20
453.7248678750246
 30
0.0
 10
767.8874719937901
 20
456.3009677999192
 30
0.0
 10
766.7303795004896
 20
458.258292606576
 30
0.0
 10
765.6979464048251
 20
459.4702181759673
 30
0.0
 10
764.9560377185345
 20
460.1788713148808
 30
0.0
 10
764.552128853551
 20
460.5249333091804
 30
0.0
 10
764.240981172868
 20
460.7706917798149
 30
0.0
 10
763.9224446229607
 20
461.0087067700837
 30
0.0
 10
763.4173740622879
 20
461.354023351775
 30
0.0
 10
762.6780559463182
 20
461.7792578313311
 30
0.0
 10
761.72802613759
 20
462.199249895524
 30
0.0
 10
760.5982047072606
 20
462.5582477134196
 30
0.0
 10
759.1775272181404
 20
462.8592135395775
 30
0.0
 10
757.3564813735806
 20
463.0884012946242
 30
0.0
 10
755.0032634181983
 20
463.2366389022695
 30
0.0
 10
752.0084738609751
 20
463.2827800642723
 30
0.0
 10
748.7960671531159
 20
463.2684235808456
 30
0.0
 10
746.5653927580978
 20
463.2701484818553
 30
0.0
 10
745.5782682389533
 20
463.2709117900654
 30
0.0
  0
LINE
  5
252
330
1F
100
AcDbEntity
  8
0
  6
Continuous
 62
     7
370
     0
100
AcDbLine
 10
540.5148581356
 20
441.270908184
 30
0.0
 11
768.89887608
 21
441.270908184
 31
0.0
  0
SPLINE
  5
253
330
1F
100
AcDbEntity
  8
0
  6
Continuous
 62
     7
370
    15
100
AcDbSpline
210
0.0
220
0.0
230
1.0
 70
     8
 71
     3
 72
    21
 73
    17
 74
     0
 42
0.00000001
 43
0.00000001
 12
1.0
 22
0.0
 32
0.0
 13
1.0
 23
0.0
 33
0.0
 40
0.0
 40
0.0
 40
0.0
 40
0.0
 40
0.0711946853716011
 40
0.1444529087090716
 40
0.2156459459870714
 40
0.2889169438720245
 40
0.3597341556426712
 40
0.4299804742323733
 40
0.5022268176629956
 40
0.5732001505958128
 40
0.6461351403977025
 40
0.7186668561394294
 40
0.7933355042808815
 40
0.8651809267505538
 40
0.9392046541130771
 40
1.0
 40
1.0
 40
1.0
 40
1.0
 10
682.014854320935
 20
441.270915634565
 30
0.0
 10
681.9277671690689
 20
443.0725676132285
 30
0.0
 10
681.7510686931565
 20
446.72809144118
 30
0.0
 10
680.3341274856862
 20
452.0334388371446
 30
0.0
 10
678.0906867024114
 20
457.0803390231659
 30
0.0
 10
675.0450880142082
 20
461.6255339993778
 30
0.0
 10
671.2928833247103
 20
465.5689900841071
 30
0.0
 10
666.9493791163387
 20
468.8059645814273
 30
0.0
 10
662.1283909555899
 20
471.2854227389185
 30
0.0
 10
656.9015812831815
 20
472.9578212927173
 30
0.0
 10
651.4628908738416
 20
473.7555486967402
 30
0.0
 10
645.874533594438
 20
473.6355372340217
 30
0.0
 10
640.4086831436498
 20
472.5778600494637
 30
0.0
 10
635.181696846553
 20
470.5802499421764
 30
0.0
 10
630.6338509927549
 20
467.9308306799789
 30
0.0
 10
628.0816949699039
 20
465.6638931641614
 30
0.0
 10
626.930825108341
 20
464.641639805965
 30
0.0
  0
ARC
  5
254
330
1F
100
AcDbEntity
  8
0
  6
Continuous
 62
     7
370
    15
100
AcDbCircle
 10
649.514855513
 20
441.3149249578
 30
0.0
 40
59.95598561034934
100
AcDbArc
 50
359.9579362166
 51
180.0420637834
  0
CIRCLE
  5
255
330
1F
100
AcDbEntity
  8
0
  6
Continuous
 62
     7
370
    15
100
AcDbCircle
 10
699.0123298854
 20
490.7683843494
 30
0.0
 40
7.500000295075057
  0
CIRCLE
  5
256
330
1F
100
AcDbEntity
  8
0
  6
Continuous
 62
     7
370
    15
100
AcDbCircle
 10
600.0173798732
 20
490.7683840657
 30
0.0
 40
7.500000223862274
  0
ARC
  5
257
330
1F
100
AcDbEntity
  8
0
  6
Continuous
 62
     7
370
    15
100
AcDbCircle
 10
649.514855513
 20
441.3039647627
 30
0.0
 40
87.46696143150905
100
AcDbArc
 50
359.9783460811
 51
180.0216539189
  0
ARC
  5
258
330
1F
100
AcDbEntity
  8
SLD-0
  6
CENTERX2
370
     0
100
AcDbCircle
 10
649.5148553383
 20
441.2709098055
 30
0.0
 40
70.00000000000011
100
AcDbArc
 50
0.0
 51
180.0
  0
ENDSEC
  0
SECTION
  2
OBJECTS
  0
DICTIONARY
  5
C
330
0
100
AcDbDictionary
281
     1
  3
ACAD_GROUP
350
D
  3
ACAD_LAYOUT
350
1A
  3
ACAD_MLINESTYLE
350
17
  3
ACAD_PLOTSETTINGS
350
19
  3
ACAD_PLOTSTYLENAME
350
E
  0
DICTIONARY
  5
D
102
{ACAD_REACTORS
330
C
102
}
330
C
100
AcDbDictionary
281
     1
  0
DICTIONARY
  5
1A
102
{ACAD_REACTORS
330
C
102
}
330
C
100
AcDbDictionary
281
     1
  3
Layout1
350
1E
  3
Layout2
350
26
  3
Model
350
22
  0
DICTIONARY
  5
17
102
{ACAD_REACTORS
330
C
102
}
330
C
100
AcDbDictionary
281
     1
  3
Standard
350
18
  0
DICTIONARY
  5
19
102
{ACAD_REACTORS
330
C
102
}
330
C
100
AcDbDictionary
281
     1
  0
ACDBDICTIONARYWDFLT
  5
E
102
{ACAD_REACTORS
330
C
102
}
330
C
100
AcDbDictionary
281
     1
  3
Normal
350
F
100
AcDbDictionaryWithDefault
340
F
  0
LAYOUT
  5
1E
102
{ACAD_REACTORS
330
1A
102
}
330
1A
100
AcDbPlotSettings
  1

  2
none_device
  4

  6

 40
0.0
 41
0.0
 42
0.0
 43
0.0
 44
0.0
 45
0.0
 46
0.0
 47
0.0
 48
0.0
 49
0.0
140
0.0
141
0.0
142
1.0
143
1.0
 70
   688
 72
     0
 73
     0
 74
     5
  7

 75
    16
147
1.0
148
0.0
149
0.0
100
AcDbLayout
  1
Layout1
 70
     1
 71
     1
 10
0.0
 20
0.0
 11
420.0
 21
297.0
 12
0.0
 22
0.0
 32
0.0
 14
1.0000000000E+20
 24
1.0000000000E+20
 34
1.0000000000E+20
 15
-1.0000000000E+20
 25
-1.0000000000E+20
 35
-1.0000000000E+20
146
0.0
 13
0.0
 23
0.0
 33
0.0
 16
1.0
 26
0.0
 36
0.0
 17
0.0
 27
1.0
 37
0.0
 76
     0
330
1B
  0
LAYOUT
  5
26
102
{ACAD_REACTORS
330
1A
102
}
330
1A
100
AcDbPlotSettings
  1

  2
none_device
  4

  6

 40
0.0
 41
0.0
 42
0.0
 43
0.0
 44
0.0
 45
0.0
 46
0.0
 47
0.0
 48
0.0
 49
0.0
140
0.0
141
0.0
142
1.0
143
1.0
 70
   688
 72
     0
 73
     0
 74
     5
  7

 75
    16
147
1.0
148
0.0
149
0.0
100
AcDbLayout
  1
Layout2
 70
     1
 71
     2
 10
0.0
 20
0.0
 11
0.0
 21
0.0
 12
0.0
 22
0.0
 32
0.0
 14
0.0
 24
0.0
 34
0.0
 15
0.0
 25
0.0
 35
0.0
146
0.0
 13
0.0
 23
0.0
 33
0.0
 16
1.0
 26
0.0
 36
0.0
 17
0.0
 27
1.0
 37
0.0
 76
     0
330
23
  0
LAYOUT
  5
22
102
{ACAD_REACTORS
330
1A
102
}
330
1A
100
AcDbPlotSettings
  1

  2
none_device
  4

  6

 40
0.0
 41
0.0
 42
0.0
 43
0.0
 44
0.0
 45
0.0
 46
0.0
 47
0.0
 48
0.0
 49
0.0
140
0.0
141
0.0
142
1.0
143
1.0
 70
  1712
 72
     0
 73
     0
 74
     0
  7

 75
     0
147
1.0
148
0.0
149
0.0
100
AcDbLayout
  1
Model
 70
     1
 71
     0
 10
0.0
 20
0.0
 11
841.0
 21
594.0
 12
0.0
 22
0.0
 32
0.0
 14
0.0
 24
0.0
 34
0.0
 15
841.0
 25
594.0
 35
0.0
146
0.0
 13
0.0
 23
0.0
 33
0.0
 16
1.0
 26
0.0
 36
0.0
 17
0.0
 27
1.0
 37
0.0
 76
     0
330
1F
331
29
  0
MLINESTYLE
  5
18
102
{ACAD_REACTORS
330
17
102
}
330
17
100
AcDbMlineStyle
  2
Standard
 70
     0
  3

 62
   256
 51
90.0
 52
90.0
 71
     2
 49
0.5
 62
   256
  6
BYLAYER
 49
-0.5
 62
   256
  6
BYLAYER
  0
ACDBPLACEHOLDER
  5
F
102
{ACAD_REACTORS
330
E
102
}
330
E
  0
ENDSEC
  0
EOF
