  0
SECTION
  2
HEADER
  9
$ACADVER
  1
AC1009
  9
$DWGCODEPAGE
  3
dos932
  9
$INSBASE
 10
0.0
 20
0.0
 30
0.0
  9
$EXTMIN
 10
0.0
 20
0.0
 30
0.0
  9
$EXTMAX
 10
1050.0
 20
1485.0
 30
0.0
  9
$LIMMIN
 10
0.0
 20
0.0
  9
$LIMMAX
 10
1050.0
 20
1485.0
  9
$ORTHOMODE
 70
     0
  9
$REGENMODE
 70
     1
  9
$FILLMODE
 70
     1
  9
$QTEXTMODE
 70
     0
  9
$MIRRTEXT
 70
     1
  9
$DRAGMODE
 70
     2
  9
$LTSCALE
 40
5.0
  9
$OSMODE
 70
    37
  9
$ATTMODE
 70
     1
  9
$TEXTSIZE
 40
17.5
  9
$TRACEWID
 40
1.0
  9
$TEXTSTYLE
  7
STANDARD
  9
$CLAYER
  8
0
  9
$CELTYPE
  6
BYLAYER
  9
$CECOLOR
 62
   256
  9
$DIMSCALE
 40
1.0
  9
$DIMASZ
 40
12.5
  9
$DIMEXO
 40
5.0
  9
$DIMDLI
 40
3.75
  9
$DIMRND
 40
0.0
  9
$DIMDLE
 40
0.0
  9
$DIMEXE
 40
5.0
  9
$DIMTP
 40
0.0
  9
$DIMTM
 40
0.0
  9
$DIMTXT
 40
17.5
  9
$DIMCEN
 40
2.5
  9
$DIMTSZ
 40
0.0
  9
$DIMTOL
 70
     0
  9
$DIMLIM
 70
     0
  9
$DIMTIH
 70
     1
  9
$DIMTOH
 70
     1
  9
$DIMSE1
 70
     0
  9
$DIMSE2
 70
     0
  9
$DIMTAD
 70
     1
  9
$DIMZIN
 70
     1
  9
$DIMBLK
  1

  9
$DIMASO
 70
     1
  9
$DIMSHO
 70
     1
  9
$DIMPOST
  1

  9
$DIMAPOST
  1

  9
$DIMALT
 70
     0
  9
$DIMALTD
 70
     3
  9
$DIMALTF
 40
0.0393700787
  9
$DIMLFAC
 40
1.0
  9
$DIMTOFL
 70
     1
  9
$DIMTVP
 40
0.0
  9
$DIMTIX
 70
     0
  9
$DIMSOXD
 70
     0
  9
$DIMSAH
 70
     0
  9
$DIMBLK1
  1

  9
$DIMBLK2
  1

  9
$DIMSTYLE
  2
ISO-25
  9
$DIMCLRD
 70
     0
  9
$DIMCLRE
 70
     0
  9
$DIMCLRT
 70
     0
  9
$DIMTFAC
 40
1.0
  9
$DIMGAP
 40
7.62
  9
$LUNITS
 70
     2
  9
$LUPREC
 70
     0
  9
$SKETCHINC
 40
1.0
  9
$FILLETRAD
 40
10.0
  9
$AUNITS
 70
     0
  9
$AUPREC
 70
     0
  9
$MENU
  1
.
  9
$ELEVATION
 40
0.0
  9
$PELEVATION
 40
0.0
  9
$THICKNESS
 40
0.0
  9
$LIMCHECK
 70
     0
  9
$CHAMFERA
 40
0.0
  9
$CHAMFERB
 40
0.0
  9
$SKPOLY
 70
     0
  9
$TDCREATE
 40
2458088.761154444
  9
$TDUPDATE
 40
2458088.761155162
  9
$TDINDWG
 40
0.0000000116
  9
$TDUSRTIMER
 40
0.0000000116
  9
$USRTIMER
 70
     1
  9
$ANGBASE
 50
0.0
  9
$ANGDIR
 70
     0
  9
$PDMODE
 70
     0
  9
$PDSIZE
 40
-1.0
  9
$PLINEWID
 40
0.0
  9
$COORDS
 70
     1
  9
$SPLFRAME
 70
     0
  9
$SPLINETYPE
 70
     6
  9
$SPLINESEGS
 70
     8
  9
$ATTDIA
 70
     0
  9
$ATTREQ
 70
     1
  9
$HANDLING
 70
     1
  9
$HANDSEED
  5
A37
  9
$SURFTAB1
 70
     6
  9
$SURFTAB2
 70
     6
  9
$SURFTYPE
 70
     6
  9
$SURFU
 70
     6
  9
$SURFV
 70
     6
  9
$UCSNAME
  2

  9
$UCSORG
 10
0.0
 20
0.0
 30
0.0
  9
$UCSXDIR
 10
1.0
 20
0.0
 30
0.0
  9
$UCSYDIR
 10
0.0
 20
1.0
 30
0.0
  9
$PUCSNAME
  2

  9
$PUCSORG
 10
0.0
 20
0.0
 30
0.0
  9
$PUCSXDIR
 10
1.0
 20
0.0
 30
0.0
  9
$PUCSYDIR
 10
0.0
 20
1.0
 30
0.0
  9
$USERI1
 70
     0
  9
$USERI2
 70
     0
  9
$USERI3
 70
     0
  9
$USERI4
 70
     0
  9
$USERI5
 70
     0
  9
$USERR1
 40
0.0
  9
$USERR2
 40
0.0
  9
$USERR3
 40
0.0
  9
$USERR4
 40
0.0
  9
$USERR5
 40
0.0
  9
$WORLDVIEW
 70
     1
  9
$SHADEDGE
 70
     3
  9
$SHADEDIF
 70
    70
  9
$TILEMODE
 70
     1
  9
$MAXACTVP
 70
    64
  9
$PLIMCHECK
 70
     0
  9
$PEXTMIN
 10
1.0000000000E+20
 20
1.0000000000E+20
 30
1.0000000000E+20
  9
$PEXTMAX
 10
-1.0000000000E+20
 20
-1.0000000000E+20
 30
-1.0000000000E+20
  9
$PLIMMIN
 10
0.0
 20
0.0
  9
$PLIMMAX
 10
420.0
 20
297.0
  9
$UNITMODE
 70
     0
  9
$VISRETAIN
 70
     1
  9
$PLINEGEN
 70
     0
  9
$PSLTSCALE
 70
     1
  0
ENDSEC
  0
SECTION
  2
TABLES
  0
TABLE
  2
VPORT
 70
     1
  0
VPORT
  2
*ACTIVE
 70
     0
 10
0.0
 20
0.0
 11
1.0
 21
1.0
 12
525.0
 22
742.5
 13
0.0
 23
0.0
 14
10.0
 24
10.0
 15
10.0
 25
10.0
 16
0.0
 26
0.0
 36
1.0
 17
0.0
 27
0.0
 37
0.0
 40
1485.0
 41
0.7070707071
 42
50.0
 43
0.0
 44
0.0
 50
0.0
 51
0.0
 71
     0
 72
  2000
 73
     1
 74
     3
 75
     0
 76
     0
 77
     0
 78
     0
  0
ENDTAB
  0
TABLE
  2
LTYPE
 70
     6
  0
LTYPE
  2
CONTINUOUS
 70
     0
  3
Solid line
 72
    65
 73
     0
 40
0.0
  0
LTYPE
  2
HIDDEN
 70
     0
  3
Hidden __ __ __ __ __ __ __ __ __ __ __ __ __ __
 72
    65
 73
     2
 40
1.905
 49
1.27
 49
-0.635
  0
LTYPE
  2
PHANTOM
 70
     0
  3
Phantom ______  __  __  ______  __  __  ______
 72
    65
 73
     6
 40
12.7
 49
6.35
 49
-1.27
 49
1.27
 49
-1.27
 49
1.27
 49
-1.27
  0
LTYPE
  2
CENTER
 70
     0
  3
Center ____ _ ____ _ ____ _ ____ _ ____ _ ____
 72
    65
 73
     4
 40
10.16
 49
6.35
 49
-1.27
 49
1.27
 49
-1.27
  0
LTYPE
  2
CENTERX2
 70
     0
  3
Center (2x) ________  __  ________  __  _____
 72
    65
 73
     4
 40
20.32
 49
12.7
 49
-2.54
 49
2.54
 49
-2.54
  0
LTYPE
  2
DOT2
 70
     0
  3
Dot (.5x) ........................................
 72
    65
 73
     2
 40
0.635
 49
0.0
 49
-0.635
  0
ENDTAB
  0
TABLE
  2
LAYER
 70
    11
  0
LAYER
  2
0
 70
     0
 62
     7
  6
CONTINUOUS
  0
LAYER
  2
SLD-0
 70
     0
 62
   179
  6
CONTINUOUS
  0
LAYER
  2
AM_6
 70
     0
 62
     2
  6
CONTINUOUS
  0
LAYER
  2
AM_5
 70
     0
 62
     3
  6
CONTINUOUS
  0
LAYER
  2
AM_7
 70
     0
 62
     4
  6
CONTINUOUS
  0
LAYER
  2
SLD-DEFPOINTS
 70
     0
 62
   179
  6
CONTINUOUS
  0
LAYER
  2
AM_0
 70
     0
 62
   179
  6
CONTINUOUS
  0
LAYER
  2
AM_CL
 70
     0
 62
     1
  6
CONTINUOUS
  0
LAYER
  2
6
 70
     0
 62
     2
  6
CONTINUOUS
  0
LAYER
  2
AM_4
 70
     0
 62
     3
  6
CONTINUOUS
  0
LAYER
  2
AM_8
 70
     0
 62
     1
  6
CONTINUOUS
  0
ENDTAB
  0
TABLE
  2
STYLE
 70
     1
  0
STYLE
  2
STANDARD
 70
     0
 40
0.0
 41
1.0
 50
0.0
 71
     0
 42
17.5
  3
txt
  4
bigfont
  0
ENDTAB
  0
TABLE
  2
VIEW
 70
     0
  0
ENDTAB
  0
TABLE
  2
UCS
 70
     0
  0
ENDTAB
  0
TABLE
  2
APPID
 70
     1
  0
APPID
  2
ACAD
 70
     0
  0
ENDTAB
  0
TABLE
  2
DIMSTYLE
 70
     1
  0
DIMSTYLE
  2
ISO-25
 70
     0
  3

  4

  5

  6

  7

 40
1.0
 41
2.5
 42
0.625
 43
3.75
 44
1.25
 45
0.0
 46
0.0
 47
0.0
 48
0.0
140
2.5
141
2.5
142
0.0
143
0.0393700787
144
1.0
145
0.0
146
1.0
147
0.625
 71
     0
 72
     0
 73
     0
 74
     0
 75
     0
 76
     0
 77
     1
 78
     8
170
     0
171
     3
172
     1
173
     0
174
     0
175
     0
176
     0
177
     0
178
     0
  0
ENDTAB
  0
ENDSEC
  0
SECTION
  2
BLOCKS
  0
BLOCK
  8
0
  2
$MODEL_SPACE
 70
     0
 10
0.0
 20
0.0
 30
0.0
  3
$MODEL_SPACE
  1

  0
ENDBLK
  5
21
  8
0
  0
BLOCK
 67
     1
  8
0
  2
$PAPER_SPACE
 70
     0
 10
0.0
 20
0.0
 30
0.0
  3
$PAPER_SPACE
  1

  0
ENDBLK
  5
1D
 67
     1
  8
0
  0
BLOCK
  8
0
  2
SW_CENTERMARKSYMBOL_0
 70
     0
 10
0.0
 20
0.0
 30
0.0
  3
SW_CENTERMARKSYMBOL_0
  1

  0
LINE
  5
3F8
  8
SLD-0
 62
     0
 10
0.0
 20
0.0
 30
0.0
 11
0.0
 21
2.5
 31
0.0
  0
LINE
  5
3F9
  8
SLD-0
 62
     0
 10
0.0
 20
0.0
 30
0.0
 11
-2.5
 21
0.0
 31
0.0
  0
LINE
  5
3FA
  8
SLD-0
 62
     0
 10
0.0
 20
0.0
 30
0.0
 11
0.0
 21
-2.5
 31
0.0
  0
LINE
  5
3FB
  8
SLD-0
 62
     0
 10
0.0
 20
0.0
 30
0.0
 11
2.5
 21
0.0
 31
0.0
  0
LINE
  5
3FC
  8
SLD-0
 62
     0
 10
0.0
 20
5.0
 30
0.0
 11
0.0
 21
278.4253365796
 31
0.0
  0
LINE
  5
3FD
  8
SLD-0
 62
     0
 10
-5.0
 20
0.0
 30
0.0
 11
-95.0012856868
 21
0.0
 31
0.0
  0
LINE
  5
3FE
  8
SLD-0
 62
     0
 10
0.0
 20
-5.0
 30
0.0
 11
0.0
 21
-228.1013604276
 31
0.0
  0
LINE
  5
3FF
  8
SLD-0
 62
     0
 10
5.0
 20
0.0
 30
0.0
 11
95.1538185995
 21
0.0
 31
0.0
  0
ENDBLK
  5
3F7
  8
0
  0
BLOCK
  8
0
  2
SW_CENTERMARKSYMBOL_1
 70
     0
 10
0.0
 20
0.0
 30
0.0
  3
SW_CENTERMARKSYMBOL_1
  1

  0
ARC
  5
500
  8
SLD-0
 62
     0
 10
0.0
 20
-39.0
 30
0.0
 40
39.00000000000003
 50
90.0
 51
93.672806379
  0
ARC
  5
501
  8
SLD-0
 62
     0
 10
0.0
 20
-39.0
 30
0.0
 40
39.00000000000001
 50
86.327193621
 51
90.0
  0
ARC
  5
502
  8
SLD-0
 62
     0
 10
0.0
 20
-39.0
 30
0.0
 40
38.99999999999996
 50
330.0
 51
333.672806379
  0
ARC
  5
503
  8
SLD-0
 62
     0
 10
0.0
 20
-39.0
 30
0.0
 40
39.00000000000001
 50
326.327193621
 51
330.0
  0
ARC
  5
504
  8
SLD-0
 62
     0
 10
0.0
 20
-39.0
 30
0.0
 40
38.99999999999999
 50
210.0
 51
213.672806379
  0
ARC
  5
505
  8
SLD-0
 62
     0
 10
0.0
 20
-39.0
 30
0.0
 40
39.0
 50
206.327193621
 51
210.0
  0
ARC
  5
506
  8
SLD-0
 62
     0
 10
0.0
 20
-39.0
 30
0.0
 40
107.5000000000001
 50
135.0
 51
136.3324599887
  0
ARC
  5
507
  8
SLD-0
 62
     0
 10
0.0
 20
-39.0
 30
0.0
 40
107.5000000000001
 50
133.6675400113
 51
135.0
  0
ARC
  5
508
  8
SLD-0
 62
     0
 10
0.0
 20
-39.0
 30
0.0
 40
107.5
 50
45.0
 51
46.3324599887
  0
ARC
  5
509
  8
SLD-0
 62
     0
 10
0.0
 20
-39.0
 30
0.0
 40
107.5
 50
43.6675400113
 51
45.0
  0
ARC
  5
50A
  8
SLD-0
 62
     0
 10
0.0
 20
-39.0
 30
0.0
 40
107.5
 50
315.0
 51
316.3324599887
  0
ARC
  5
50B
  8
SLD-0
 62
     0
 10
0.0
 20
-39.0
 30
0.0
 40
107.4999999999999
 50
313.6675400113
 51
315.0
  0
ARC
  5
50C
  8
SLD-0
 62
     0
 10
0.0
 20
-39.0
 30
0.0
 40
107.5
 50
225.0
 51
226.3324599887
  0
ARC
  5
50D
  8
SLD-0
 62
     0
 10
0.0
 20
-39.0
 30
0.0
 40
107.5
 50
223.6675400113
 51
225.0
  0
ARC
  5
50E
  8
SLD-0
 62
     0
 10
0.0
 20
-39.0
 30
0.0
 40
39.00000000000001
 50
97.3456127581
 51
202.6543872419
  0
ARC
  5
50F
  8
SLD-0
 62
     0
 10
0.0
 20
-39.0
 30
0.0
 40
39.0
 50
217.3456127581
 51
322.6543872419
  0
ARC
  5
510
  8
SLD-0
 62
     0
 10
0.0
 20
-39.0
 30
0.0
 40
38.99999999999999
 50
337.3456127581
 51
82.6543872419
  0
ARC
  5
511
  8
SLD-0
 62
     0
 10
0.0
 20
-39.0
 30
0.0
 40
107.5
 50
47.6649199774
 51
132.3350800226
  0
ARC
  5
512
  8
SLD-0
 62
     0
 10
0.0
 20
-39.0
 30
0.0
 40
107.5
 50
317.6649199774
 51
42.3350800226
  0
ARC
  5
513
  8
SLD-0
 62
     0
 10
0.0
 20
-39.0
 30
0.0
 40
107.5
 50
137.6649199774
 51
222.3350800226
  0
ARC
  5
514
  8
SLD-0
 62
     0
 10
0.0
 20
-39.0
 30
0.0
 40
107.4999999999999
 50
227.6649199774
 51
312.3350800226
  0
LINE
  5
515
  8
SLD-0
 62
     0
 10
0.0
 20
0.0
 30
0.0
 11
0.0
 21
2.5
 31
0.0
  0
LINE
  5
516
  8
SLD-0
 62
     0
 10
0.0
 20
0.0
 30
0.0
 11
0.0
 21
-2.5
 31
0.0
  0
LINE
  5
517
  8
SLD-0
 62
     0
 10
0.0
 20
2.5
 30
0.0
 11
0.0
 21
5.0
 31
0.0
  0
LINE
  5
518
  8
SLD-0
 62
     0
 10
0.0
 20
-2.5
 30
0.0
 11
0.0
 21
-5.0
 31
0.0
  0
LINE
  5
519
  8
SLD-0
 62
     0
 10
33.7749907476
 20
-58.5
 30
0.0
 11
35.9400542571
 21
-59.75
 31
0.0
  0
LINE
  5
51A
  8
SLD-0
 62
     0
 10
33.7749907476
 20
-58.5
 30
0.0
 11
31.6099272381
 21
-57.25
 31
0.0
  0
LINE
  5
51B
  8
SLD-0
 62
     0
 10
35.9400542571
 20
-59.75
 30
0.0
 11
38.1051177665
 21
-61.0
 31
0.0
  0
LINE
  5
51C
  8
SLD-0
 62
     0
 10
31.6099272381
 20
-57.25
 30
0.0
 11
29.4448637287
 21
-56.0
 31
0.0
  0
LINE
  5
51D
  8
SLD-0
 62
     0
 10
-33.7749907476
 20
-58.5
 30
0.0
 11
-35.9400542571
 21
-59.75
 31
0.0
  0
LINE
  5
51E
  8
SLD-0
 62
     0
 10
-33.7749907476
 20
-58.5
 30
0.0
 11
-31.6099272381
 21
-57.25
 31
0.0
  0
LINE
  5
51F
  8
SLD-0
 62
     0
 10
-35.9400542571
 20
-59.75
 30
0.0
 11
-38.1051177665
 21
-61.0
 31
0.0
  0
LINE
  5
520
  8
SLD-0
 62
     0
 10
-31.6099272381
 20
-57.25
 30
0.0
 11
-29.4448637287
 21
-56.0
 31
0.0
  0
LINE
  5
521
  8
SLD-0
 62
     0
 10
0.0
 20
-39.0
 30
0.0
 11
0.0
 21
-36.5
 31
0.0
  0
LINE
  5
522
  8
SLD-0
 62
     0
 10
0.0
 20
-39.0
 30
0.0
 11
-2.5
 21
-39.0
 31
0.0
  0
LINE
  5
523
  8
SLD-0
 62
     0
 10
0.0
 20
-39.0
 30
0.0
 11
0.0
 21
-41.5
 31
0.0
  0
LINE
  5
524
  8
SLD-0
 62
     0
 10
0.0
 20
-39.0
 30
0.0
 11
2.5
 21
-39.0
 31
0.0
  0
LINE
  5
525
  8
SLD-0
 62
     0
 10
0.0
 20
-34.0
 30
0.0
 11
0.0
 21
78.405578857
 31
0.0
  0
LINE
  5
526
  8
SLD-0
 62
     0
 10
-5.0
 20
-39.0
 30
0.0
 11
-128.7525153263
 21
-39.0
 31
0.0
  0
LINE
  5
527
  8
SLD-0
 62
     0
 10
0.0
 20
-44.0
 30
0.0
 11
0.0
 21
-157.8379128578
 31
0.0
  0
LINE
  5
528
  8
SLD-0
 62
     0
 10
5.0
 20
-39.0
 30
0.0
 11
157.4655611743
 21
-39.0
 31
0.0
  0
LINE
  5
529
  8
SLD-0
 62
     0
 10
-76.0139789776
 20
37.0139789776
 30
0.0
 11
-77.7817459305
 21
38.7817459305
 31
0.0
  0
LINE
  5
52A
  8
SLD-0
 62
     0
 10
-76.0139789776
 20
37.0139789776
 30
0.0
 11
-74.2462120246
 21
35.2462120246
 31
0.0
  0
LINE
  5
52B
  8
SLD-0
 62
     0
 10
-79.5495128835
 20
40.5495128835
 30
0.0
 11
-82.0243866176
 21
43.0243866176
 31
0.0
  0
LINE
  5
52C
  8
SLD-0
 62
     0
 10
-72.4784450716
 20
33.4784450716
 30
0.0
 11
-70.0035713375
 21
31.0035713375
 31
0.0
  0
LINE
  5
52D
  8
SLD-0
 62
     0
 10
76.0139789776
 20
37.0139789776
 30
0.0
 11
77.7817459305
 21
38.7817459305
 31
0.0
  0
LINE
  5
52E
  8
SLD-0
 62
     0
 10
76.0139789776
 20
37.0139789776
 30
0.0
 11
74.2462120246
 21
35.2462120246
 31
0.0
  0
LINE
  5
52F
  8
SLD-0
 62
     0
 10
79.5495128835
 20
40.5495128835
 30
0.0
 11
82.0243866176
 21
43.0243866176
 31
0.0
  0
LINE
  5
530
  8
SLD-0
 62
     0
 10
72.4784450716
 20
33.4784450716
 30
0.0
 11
70.0035713375
 21
31.0035713375
 31
0.0
  0
LINE
  5
531
  8
SLD-0
 62
     0
 10
76.0139789776
 20
-115.0139789776
 30
0.0
 11
77.7817459305
 21
-116.7817459305
 31
0.0
  0
LINE
  5
532
  8
SLD-0
 62
     0
 10
76.0139789776
 20
-115.0139789776
 30
0.0
 11
74.2462120246
 21
-113.2462120246
 31
0.0
  0
LINE
  5
533
  8
SLD-0
 62
     0
 10
79.5495128835
 20
-118.5495128835
 30
0.0
 11
82.0243866176
 21
-121.0243866176
 31
0.0
  0
LINE
  5
534
  8
SLD-0
 62
     0
 10
72.4784450716
 20
-111.4784450716
 30
0.0
 11
70.0035713375
 21
-109.0035713375
 31
0.0
  0
LINE
  5
535
  8
SLD-0
 62
     0
 10
-76.0139789776
 20
-115.0139789776
 30
0.0
 11
-77.7817459305
 21
-116.7817459305
 31
0.0
  0
LINE
  5
536
  8
SLD-0
 62
     0
 10
-76.0139789776
 20
-115.0139789776
 30
0.0
 11
-74.2462120246
 21
-113.2462120246
 31
0.0
  0
LINE
  5
537
  8
SLD-0
 62
     0
 10
-79.5495128835
 20
-118.5495128835
 30
0.0
 11
-82.0243866176
 21
-121.0243866176
 31
0.0
  0
LINE
  5
538
  8
SLD-0
 62
     0
 10
-72.4784450716
 20
-111.4784450716
 30
0.0
 11
-70.0035713375
 21
-109.0035713375
 31
0.0
  0
ENDBLK
  5
4FF
  8
0
  0
BLOCK
  8
0
  2
SW_CENTERMARKSYMBOL_2
 70
     0
 10
0.0
 20
0.0
 30
0.0
  3
SW_CENTERMARKSYMBOL_2
  1

  0
LINE
  5
53D
  8
SLD-0
 62
     0
 10
0.0
 20
0.0
 30
0.0
 11
0.0
 21
2.5
 31
0.0
  0
LINE
  5
53E
  8
SLD-0
 62
     0
 10
0.0
 20
0.0
 30
0.0
 11
-2.5
 21
0.0
 31
0.0
  0
LINE
  5
53F
  8
SLD-0
 62
     0
 10
0.0
 20
0.0
 30
0.0
 11
0.0
 21
-2.5
 31
0.0
  0
LINE
  5
540
  8
SLD-0
 62
     0
 10
0.0
 20
0.0
 30
0.0
 11
2.5
 21
0.0
 31
0.0
  0
LINE
  5
541
  8
SLD-0
 62
     0
 10
0.0
 20
5.0
 30
0.0
 11
0.0
 21
13.5
 31
0.0
  0
LINE
  5
542
  8
SLD-0
 62
     0
 10
-5.0
 20
0.0
 30
0.0
 11
-13.5
 21
0.0
 31
0.0
  0
LINE
  5
543
  8
SLD-0
 62
     0
 10
0.0
 20
-5.0
 30
0.0
 11
0.0
 21
-13.5
 31
0.0
  0
LINE
  5
544
  8
SLD-0
 62
     0
 10
5.0
 20
0.0
 30
0.0
 11
13.5
 21
0.0
 31
0.0
  0
ENDBLK
  5
53C
  8
0
  0
ENDSEC
  0
SECTION
  2
ENTITIES
  0
LINE
  5
7D
  8
0
  6
CONTINUOUS
 62
     7
 10
578.3200605015
 20
1011.8710554557
 30
0.0
 11
578.3200605015
 21
1021.8710559307
 31
0.0
  0
LINE
  5
7E
  8
0
  6
CONTINUOUS
 62
     7
 10
412.3200668196
 20
1021.8710559307
 30
0.0
 11
412.3200668196
 21
1011.8710554557
 31
0.0
  0
LINE
  5
7F
  8
0
  6
CONTINUOUS
 62
     7
 10
450.6725451151
 20
1181.3710597231
 30
0.0
 11
450.6725451151
 21
1021.8710559307
 31
0.0
  0
LINE
  5
80
  8
0
  6
CONTINUOUS
 62
     7
 10
539.9675822059
 20
1021.8710559307
 30
0.0
 11
539.9675822059
 21
1181.3710597231
 31
0.0
  0
LINE
  5
81
  8
0
  6
CONTINUOUS
 62
     7
 10
442.9845927457
 20
1181.3710597231
 30
0.0
 11
442.9845927457
 21
1021.8710559307
 31
0.0
  0
LINE
  5
82
  8
0
  6
CONTINUOUS
 62
     7
 10
547.6555345753
 20
1021.8710559307
 30
0.0
 11
547.6555345753
 21
1181.3710597231
 31
0.0
  0
LINE
  5
83
  8
0
  6
CONTINUOUS
 62
     7
 10
435.8590772549
 20
1181.3710597231
 30
0.0
 11
435.8590772549
 21
1021.8710559307
 31
0.0
  0
LINE
  5
84
  8
0
  6
CONTINUOUS
 62
     7
 10
554.7810500661
 20
1021.8710559307
 30
0.0
 11
554.7810500661
 21
1181.3710597231
 31
0.0
  0
LINE
  5
85
  8
0
  6
CONTINUOUS
 62
     7
 10
429.3740732769
 20
1181.3710597231
 30
0.0
 11
429.3740732769
 21
1021.8710559307
 31
0.0
  0
LINE
  5
86
  8
0
  6
CONTINUOUS
 62
     7
 10
561.2660540441
 20
1021.8710559307
 30
0.0
 11
561.2660540441
 21
1181.3710597231
 31
0.0
  0
LINE
  5
87
  8
0
  6
CONTINUOUS
 62
     7
 10
423.6006332735
 20
1181.3710597231
 30
0.0
 11
423.6006332735
 21
1021.8710559307
 31
0.0
  0
LINE
  5
88
  8
0
  6
CONTINUOUS
 62
     7
 10
567.0394940475
 20
1021.8710559307
 30
0.0
 11
567.0394940475
 21
1181.3710597231
 31
0.0
  0
LINE
  5
89
  8
0
  6
CONTINUOUS
 62
     7
 10
418.6020089487
 20
1181.3710597231
 30
0.0
 11
418.6020089487
 21
1021.8710559307
 31
0.0
  0
LINE
  5
8A
  8
0
  6
CONTINUOUS
 62
     7
 10
572.0381183723
 20
1021.8710559307
 30
0.0
 11
572.0381183723
 21
1181.3710597231
 31
0.0
  0
LINE
  5
8B
  8
0
  6
CONTINUOUS
 62
     7
 10
414.4329695205
 20
1181.3710597231
 30
0.0
 11
414.4329695205
 21
1021.8710559307
 31
0.0
  0
LINE
  5
8C
  8
0
  6
CONTINUOUS
 62
     7
 10
576.2071578006
 20
1021.8710559307
 30
0.0
 11
576.2071578006
 21
1181.3710597231
 31
0.0
  0
LINE
  5
8D
  8
0
  6
CONTINUOUS
 62
     7
 10
411.1391870478
 20
1181.3710597231
 30
0.0
 11
411.1391870478
 21
1021.8710559307
 31
0.0
  0
LINE
  5
8E
  8
0
  6
CONTINUOUS
 62
     7
 10
579.5009402732
 20
1021.8710559307
 30
0.0
 11
579.5009402732
 21
1181.3710597231
 31
0.0
  0
LINE
  5
8F
  8
0
  6
CONTINUOUS
 62
     7
 10
408.7567521433
 20
1181.3710597231
 30
0.0
 11
408.7567521433
 21
1021.8710559307
 31
0.0
  0
LINE
  5
90
  8
0
  6
CONTINUOUS
 62
     7
 10
507.8200638468
 20
1241.3710621072
 30
0.0
 11
507.8200638468
 21
1241.4210555031
 31
0.0
  0
LINE
  5
91
  8
0
  6
CONTINUOUS
 62
     7
 10
482.8200634742
 20
1241.4210555031
 30
0.0
 11
482.8200634742
 21
1241.3710621072
 31
0.0
  0
LINE
  5
92
  8
0
  6
CONTINUOUS
 62
     7
 10
504.3200632731
 20
1241.4210555031
 30
0.0
 11
504.3200632731
 21
1241.4710488989
 31
0.0
  0
LINE
  5
93
  8
0
  6
CONTINUOUS
 62
     7
 10
486.3200640479
 20
1241.4710488989
 30
0.0
 11
486.3200640479
 21
1241.4210555031
 31
0.0
  0
ARC
  5
94
  8
0
  6
CONTINUOUS
 62
     7
 10
582.0200636605
 20
1178.3710555507
 30
0.0
 40
0.5
 50
90.0
 51
180.0
  0
ARC
  5
95
  8
0
  6
CONTINUOUS
 62
     7
 10
582.0200636605
 20
1139.3710555507
 30
0.0
 40
0.5
 50
180.0
 51
270.0
  0
LINE
  5
96
  8
0
  6
CONTINUOUS
 62
     7
 10
582.0200635294
 20
1138.8710555507
 30
0.0
 11
591.0200668672
 21
1138.8710555507
 31
0.0
  0
LINE
  5
97
  8
0
  6
CONTINUOUS
 62
     7
 10
591.0200668672
 20
1178.8710621072
 30
0.0
 11
582.0200635294
 21
1178.8710621072
 31
0.0
  0
ARC
  5
98
  8
0
  6
CONTINUOUS
 62
     7
 10
591.0200636605
 20
1178.3710555507
 30
0.0
 40
0.5
 50
0.0
 51
90.0
  0
ARC
  5
99
  8
0
  6
CONTINUOUS
 62
     7
 10
591.0200636605
 20
1139.3710555507
 30
0.0
 40
0.5
 50
270.0
 51
0.0
  0
LINE
  5
9A
  8
0
  6
CONTINUOUS
 62
     7
 10
591.5200604299
 20
1142.3710551931
 30
0.0
 11
591.7200638155
 21
1142.3710551931
 31
0.0
  0
LINE
  5
9B
  8
0
  6
CONTINUOUS
 62
     7
 10
591.7200638155
 20
1175.3710624649
 30
0.0
 11
591.5200604299
 21
1175.3710624649
 31
0.0
  0
LINE
  5
9C
  8
0
  6
CONTINUOUS
 62
     7
 10
581.3200665811
 20
1142.3710551931
 30
0.0
 11
581.5200625161
 21
1142.3710551931
 31
0.0
  0
LINE
  5
9D
  8
0
  6
CONTINUOUS
 62
     7
 10
581.5200625161
 20
1175.3710624649
 30
0.0
 11
581.3200665811
 21
1175.3710624649
 31
0.0
  0
LINE
  5
9E
  8
0
  6
CONTINUOUS
 62
     7
 10
598.7869171599
 20
1188.5627177431
 30
0.0
 11
597.3353801469
 21
1188.034397073
 31
0.0
  0
LINE
  5
9F
  8
0
  6
CONTINUOUS
 62
     7
 10
600.0715388159
 20
1180.5168655588
 30
0.0
 11
601.5230758289
 21
1181.0451862289
 31
0.0
  0
ARC
  5
A0
  8
0
  6
CONTINUOUS
 62
     7
 10
598.9100431496
 20
1188.2244304298
 30
0.0
 40
0.3600000000000481
 50
56.3583676093
 51
110.0
  0
ARC
  5
A1
  8
0
  6
CONTINUOUS
 62
     7
 10
601.399949793
 20
1181.3834681505
 30
0.0
 40
0.3600000000000128
 50
290.0
 51
343.6416323907
  0
ARC
  5
A2
  8
0
  6
CONTINUOUS
 62
     7
 10
595.508503889
 20
1183.1127642964
 30
0.0
 40
6.500000000000007
 50
343.6416323907
 51
2.1374195081
  0
ARC
  5
A3
  8
0
  6
CONTINUOUS
 62
     7
 10
595.508503889
 20
1183.1127642964
 30
0.0
 40
6.499999999999973
 50
37.8625804919
 51
56.3583676093
  0
LINE
  5
A4
  8
0
  6
CONTINUOUS
 62
     7
 10
629.9107490281
 20
1103.0506905987
 30
0.0
 11
628.459212015
 21
1102.5223773791
 31
0.0
  0
LINE
  5
A5
  8
0
  6
CONTINUOUS
 62
     7
 10
631.1953781346
 20
1095.0048309638
 30
0.0
 11
632.6469151477
 21
1095.5331516339
 31
0.0
  0
ARC
  5
A6
  8
0
  6
CONTINUOUS
 62
     7
 10
630.0338761922
 20
1102.7124019383
 30
0.0
 40
0.3600000000000481
 50
56.3583676093
 51
110.0
  0
ARC
  5
A7
  8
0
  6
CONTINUOUS
 62
     7
 10
632.5237828356
 20
1095.871439659
 30
0.0
 40
0.3600000000000769
 50
290.0
 51
343.6416323907
  0
ARC
  5
A8
  8
0
  6
CONTINUOUS
 62
     7
 10
626.6323369316
 20
1097.6007358049
 30
0.0
 40
6.500000000000066
 50
343.6416323907
 51
2.1374195081
  0
ARC
  5
A9
  8
0
  6
CONTINUOUS
 62
     7
 10
626.6323369316
 20
1097.6007358049
 30
0.0
 40
6.499999999999932
 50
37.8625804919
 51
56.3583676093
  0
LINE
  5
AA
  8
0
  6
CONTINUOUS
 62
     7
 10
633.0248831013
 20
1156.7896422817
 30
0.0
 11
632.9748748044
 21
1156.7896422817
 31
0.0
  0
LINE
  5
AB
  8
0
  6
CONTINUOUS
 62
     7
 10
402.5200648407
 20
1224.6683058216
 30
0.0
 11
402.5200648407
 21
1206.3549873306
 31
0.0
  0
LINE
  5
AC
  8
0
  6
CONTINUOUS
 62
     7
 10
588.1200624803
 20
1181.3710597231
 30
0.0
 11
588.1200624803
 21
1224.6683058216
 31
0.0
  0
ARC
  5
AD
  8
0
  6
CONTINUOUS
 62
     7
 10
585.3200636605
 20
1224.6683022725
 30
0.0
 40
2.800000000000068
 50
0.0
 51
62.60975803
  0
ARC
  5
AE
  8
0
  6
CONTINUOUS
 62
     7
 10
405.3200636605
 20
1224.6683022725
 30
0.0
 40
2.800000000000011
 50
117.39024197
 51
180.0
  0
LINE
  5
AF
  8
0
  6
CONTINUOUS
 62
     7
 10
586.6081981162
 20
1227.154400654
 30
0.0
 11
569.4680033425
 21
1236.0353288128
 31
0.0
  0
LINE
  5
B0
  8
0
  6
CONTINUOUS
 62
     7
 10
421.1721239785
 20
1236.0353288128
 30
0.0
 11
404.0319292048
 21
1227.154400654
 31
0.0
  0
ARC
  5
B1
  8
0
  6
CONTINUOUS
 62
     7
 10
420.6200636605
 20
1237.1008069557
 30
0.0
 40
1.199999999999989
 50
297.39024197
 51
0.0
  0
ARC
  5
B2
  8
0
  6
CONTINUOUS
 62
     7
 10
570.0200636605
 20
1237.1008069557
 30
0.0
 40
1.199999999999932
 50
180.0
 51
242.60975803
  0
ARC
  5
B3
  8
0
  6
CONTINUOUS
 62
     7
 10
567.0200636605
 20
1239.5710555507
 30
0.0
 40
1.800000000000068
 50
0.0
 51
90.0
  0
ARC
  5
B4
  8
0
  6
CONTINUOUS
 62
     7
 10
423.6200636605
 20
1239.5710555507
 30
0.0
 40
1.799999999999955
 50
90.0
 51
180.0
  0
LINE
  5
B5
  8
0
  6
CONTINUOUS
 62
     7
 10
421.8200637201
 20
1239.5710614397
 30
0.0
 11
421.8200637201
 21
1237.1008065416
 31
0.0
  0
LINE
  5
B6
  8
0
  6
CONTINUOUS
 62
     7
 10
568.8200636009
 20
1237.1008065416
 30
0.0
 11
568.8200636009
 21
1239.5710614397
 31
0.0
  0
ARC
  5
B7
  8
0
  6
CONTINUOUS
 62
     7
 10
565.8334779188
 20
1203.3710555507
 30
0.0
 40
3.000000000000114
 50
0.0
 51
84.753415462
  0
LINE
  5
B8
  8
0
  6
CONTINUOUS
 62
     7
 10
568.833474646
 20
1181.3710597231
 30
0.0
 11
568.833474646
 21
1203.3710596039
 31
0.0
  0
ARC
  5
B9
  8
0
  6
CONTINUOUS
 62
     7
 10
402.8301932685
 20
1203.3710555507
 30
0.0
 40
3.000000000000057
 50
94.0450781816
 51
180.0
  0
POLYLINE
  5
BA
  8
0
  6
CONTINUOUS
 62
     7
 66
     1
 10
0.0
 20
0.0
 30
0.0
 70
   128
  0
VERTEX
  5
546
  8
0
  6
CONTINUOUS
 62
     7
 10
403.8232458929
 20
1207.0150789692
 30
0.0
  0
VERTEX
  5
547
  8
0
  6
CONTINUOUS
 62
     7
 10
403.8250638346
 20
1207.0198473407
 30
0.0
  0
VERTEX
  5
548
  8
0
  6
CONTINUOUS
 62
     7
 10
403.7425784568
 20
1206.9008913709
 30
0.0
  0
VERTEX
  5
549
  8
0
  6
CONTINUOUS
 62
     7
 10
403.4430725673
 20
1206.6353377773
 30
0.0
  0
VERTEX
  5
54A
  8
0
  6
CONTINUOUS
 62
     7
 10
403.1808866361
 20
1206.5282729341
 30
0.0
  0
SEQEND
  5
9A1
  8
0
  6
CONTINUOUS
 62
     7
  0
LINE
  5
BB
  8
0
  6
CONTINUOUS
 62
     7
 10
399.8301966289
 20
1203.3710596039
 30
0.0
 11
399.8301966289
 21
1181.3710597231
 31
0.0
  0
LINE
  5
BC
  8
0
  6
CONTINUOUS
 62
     7
 10
454.4268032709
 20
781.3710537626
 30
0.0
 11
454.4268032709
 21
782.3710557892
 31
0.0
  0
LINE
  5
BD
  8
0
  6
CONTINUOUS
 62
     7
 10
440.0468027393
 20
782.3710557892
 30
0.0
 11
440.0468027393
 21
781.3710537626
 31
0.0
  0
LINE
  5
BE
  8
0
  6
CONTINUOUS
 62
     7
 10
451.2368036608
 20
797.3710563852
 30
0.0
 11
451.2368036608
 21
861.8710604383
 31
0.0
  0
LINE
  5
BF
  8
0
  6
CONTINUOUS
 62
     7
 10
443.2368023495
 20
861.8710604383
 30
0.0
 11
443.2368023495
 21
797.3710563852
 31
0.0
  0
LINE
  5
C0
  8
0
  6
CONTINUOUS
 62
     7
 10
550.5933245817
 20
781.3710537626
 30
0.0
 11
550.5933245817
 21
782.3710557892
 31
0.0
  0
LINE
  5
C1
  8
0
  6
CONTINUOUS
 62
     7
 10
536.2133240501
 20
782.3710557892
 30
0.0
 11
536.2133240501
 21
781.3710537626
 31
0.0
  0
LINE
  5
C2
  8
0
  6
CONTINUOUS
 62
     7
 10
547.4033249716
 20
797.3710563852
 30
0.0
 11
547.4033249716
 21
861.8710604383
 31
0.0
  0
LINE
  5
C3
  8
0
  6
CONTINUOUS
 62
     7
 10
539.4033236603
 20
861.8710604383
 30
0.0
 11
539.4033236603
 21
797.3710563852
 31
0.0
  0
LINE
  5
C4
  8
0
  6
CONTINUOUS
 62
     7
 10
434.3200629751
 20
822.3710623457
 30
0.0
 11
434.3200629751
 21
797.3710563852
 31
0.0
  0
LINE
  5
C5
  8
0
  6
CONTINUOUS
 62
     7
 10
556.320064346
 20
797.3710563852
 30
0.0
 11
556.320064346
 21
822.3710623457
 31
0.0
  0
LINE
  5
C6
  8
0
  6
CONTINUOUS
 62
     7
 10
434.1049125592
 20
797.3710563852
 30
0.0
 11
434.1049125592
 21
784.3710598423
 31
0.0
  0
ARC
  5
C7
  8
0
  6
CONTINUOUS
 62
     7
 10
436.1049138479
 20
784.3710555507
 30
0.0
 40
2.000000000000057
 50
180.0
 51
270.0
  0
LINE
  5
C8
  8
0
  6
CONTINUOUS
 62
     7
 10
556.5352147619
 20
784.3710598423
 30
0.0
 11
556.5352147619
 21
797.3710563852
 31
0.0
  0
ARC
  5
C9
  8
0
  6
CONTINUOUS
 62
     7
 10
554.5352134731
 20
784.3710555507
 30
0.0
 40
2.0
 50
270.0
 51
0.0
  0
ARC
  5
CA
  8
0
  6
CONTINUOUS
 62
     7
 10
454.3200636605
 20
777.3710555507
 30
0.0
 40
5.0
 50
0.0
 51
88.7767696191
  0
ARC
  5
CB
  8
0
  6
CONTINUOUS
 62
     7
 10
536.3200636605
 20
777.3710555507
 30
0.0
 40
5.0
 50
91.2232303809
 51
180.0
  0
LINE
  5
CC
  8
0
  6
CONTINUOUS
 62
     7
 10
459.3200652102
 20
777.3710605575
 30
0.0
 11
459.3200652102
 21
759.3710538818
 31
0.0
  0
ARC
  5
CD
  8
0
  6
CONTINUOUS
 62
     7
 10
461.3200636605
 20
759.3710555507
 30
0.0
 40
2.0
 50
180.0
 51
270.0
  0
LINE
  5
CE
  8
0
  6
CONTINUOUS
 62
     7
 10
531.3200621108
 20
759.3710538818
 30
0.0
 11
531.3200621108
 21
777.3710605575
 31
0.0
  0
ARC
  5
CF
  8
0
  6
CONTINUOUS
 62
     7
 10
529.3200636605
 20
759.3710555507
 30
0.0
 40
2.000000000000114
 50
270.0
 51
0.0
  0
ARC
  5
D0
  8
0
  6
CONTINUOUS
 62
     7
 10
450.5450729129
 20
777.3710555507
 30
0.0
 40
5.0
 50
0.0
 51
53.1301023542
  0
ARC
  5
D1
  8
0
  6
CONTINUOUS
 62
     7
 10
540.0950544081
 20
777.3710555507
 30
0.0
 40
5.000000000000114
 50
140.8779358329
 51
180.0
  0
LINE
  5
D2
  8
0
  6
CONTINUOUS
 62
     7
 10
455.5450720886
 20
777.3710605575
 30
0.0
 11
455.5450720886
 21
759.3710538818
 31
0.0
  0
ARC
  5
D3
  8
0
  6
CONTINUOUS
 62
     7
 10
457.5450729129
 20
759.3710555507
 30
0.0
 40
2.0
 50
180.0
 51
270.0
  0
LINE
  5
D4
  8
0
  6
CONTINUOUS
 62
     7
 10
535.0950552324
 20
759.3710538818
 30
0.0
 11
535.0950552324
 21
777.3710605575
 31
0.0
  0
ARC
  5
D5
  8
0
  6
CONTINUOUS
 62
     7
 10
533.0950544081
 20
759.3710555507
 30
0.0
 40
2.0
 50
270.0
 51
0.0
  0
LINE
  5
D6
  8
0
  6
CONTINUOUS
 62
     7
 10
556.320064346
 20
822.3710623457
 30
0.0
 11
556.320064346
 21
858.8710543586
 31
0.0
  0
LINE
  5
D7
  8
0
  6
CONTINUOUS
 62
     7
 10
434.3200629751
 20
858.8710543586
 30
0.0
 11
434.3200629751
 21
822.3710623457
 31
0.0
  0
LINE
  5
D8
  8
0
  6
CONTINUOUS
 62
     7
 10
580.3200645546
 20
949.3710589482
 30
0.0
 11
580.3200645546
 21
1011.8710554557
 31
0.0
  0
LINE
  5
D9
  8
0
  6
CONTINUOUS
 62
     7
 10
410.3200627664
 20
1011.8710554557
 30
0.0
 11
410.3200627664
 21
962.3710554911
 31
0.0
  0
LINE
  5
DA
  8
0
  6
CONTINUOUS
 62
     7
 10
410.3200627664
 20
932.371054299
 30
0.0
 11
410.3200627664
 21
929.3710556699
 31
0.0
  0
LINE
  5
DB
  8
0
  6
CONTINUOUS
 62
     7
 10
580.3200645546
 20
929.3710556699
 30
0.0
 11
580.3200645546
 21
932.371054299
 31
0.0
  0
LINE
  5
DC
  8
0
  6
CONTINUOUS
 62
     7
 10
464.3200641671
 20
883.5579422189
 30
0.0
 11
464.3200641671
 21
880.1718768551
 31
0.0
  0
LINE
  5
DD
  8
0
  6
CONTINUOUS
 62
     7
 10
526.3200631539
 20
880.178522773
 30
0.0
 11
526.3200631539
 21
883.5579422189
 31
0.0
  0
ARC
  5
DE
  8
0
  6
CONTINUOUS
 62
     7
 10
585.3200636605
 20
949.3710555507
 30
0.0
 40
5.0
 50
180.0
 51
270.0
  0
ARC
  5
DF
  8
0
  6
CONTINUOUS
 62
     7
 10
436.1049138479
 20
874.8710555507
 30
0.0
 40
2.0
 50
90.0
 51
180.0
  0
LINE
  5
E0
  8
0
  6
CONTINUOUS
 62
     7
 10
434.1049125592
 20
874.8710569812
 30
0.0
 11
434.1049125592
 21
863.8710495903
 31
0.0
  0
ARC
  5
E1
  8
0
  6
CONTINUOUS
 62
     7
 10
436.1049138479
 20
863.8710555507
 30
0.0
 40
2.0
 50
180.0
 51
270.0
  0
ARC
  5
E2
  8
0
  6
CONTINUOUS
 62
     7
 10
554.5352134731
 20
874.8710555507
 30
0.0
 40
2.000000000000114
 50
0.0
 51
90.0
  0
LINE
  5
E3
  8
0
  6
CONTINUOUS
 62
     7
 10
556.5352147619
 20
863.8710495903
 30
0.0
 11
556.5352147619
 21
874.8710569812
 31
0.0
  0
ARC
  5
E4
  8
0
  6
CONTINUOUS
 62
     7
 10
554.5352134731
 20
863.8710555507
 30
0.0
 40
2.000000000000114
 50
270.0
 51
0.0
  0
ARC
  5
E5
  8
0
  6
CONTINUOUS
 62
     7
 10
436.3200636605
 20
884.8710555507
 30
0.0
 40
1.999999999999943
 50
90.0
 51
180.0
  0
LINE
  5
E6
  8
0
  6
CONTINUOUS
 62
     7
 10
434.3200629751
 20
884.8710623457
 30
0.0
 11
434.3200629751
 21
875.7734415008
 31
0.0
  0
LINE
  5
E7
  8
0
  6
CONTINUOUS
 62
     7
 10
434.3200629751
 20
862.9686650707
 30
0.0
 11
434.3200629751
 21
858.8710543586
 31
0.0
  0
ARC
  5
E8
  8
0
  6
CONTINUOUS
 62
     7
 10
554.3200636605
 20
884.8710555507
 30
0.0
 40
2.0
 50
0.0
 51
90.0
  0
LINE
  5
E9
  8
0
  6
CONTINUOUS
 62
     7
 10
556.320064346
 20
858.8710543586
 30
0.0
 11
556.320064346
 21
862.9686650707
 31
0.0
  0
LINE
  5
EA
  8
0
  6
CONTINUOUS
 62
     7
 10
556.320064346
 20
875.7734415008
 30
0.0
 11
556.320064346
 21
884.8710623457
 31
0.0
  0
POLYLINE
  5
EB
  8
0
  6
CONTINUOUS
 62
     7
 66
     1
 10
0.0
 20
0.0
 30
0.0
 70
   128
  0
VERTEX
  5
54B
  8
0
  6
CONTINUOUS
 62
     7
 10
548.2619783083
 20
876.8991050197
 30
0.0
  0
VERTEX
  5
54C
  8
0
  6
CONTINUOUS
 62
     7
 10
547.8501176635
 20
876.929816313
 30
0.0
  0
VERTEX
  5
54D
  8
0
  6
CONTINUOUS
 62
     7
 10
547.3355246881
 20
877.1453616096
 30
0.0
  0
VERTEX
  5
54E
  8
0
  6
CONTINUOUS
 62
     7
 10
547.1496028999
 20
877.289426036
 30
0.0
  0
VERTEX
  5
54F
  8
0
  6
CONTINUOUS
 62
     7
 10
547.1577985386
 20
877.2765961363
 30
0.0
  0
SEQEND
  5
9A2
  8
0
  6
CONTINUOUS
 62
     7
  0
ARC
  5
EC
  8
0
  6
CONTINUOUS
 62
     7
 10
442.4621905091
 20
878.3727909739
 30
0.0
 40
1.492281138587255
 50
264.0588789017
 51
313.8582433081
  0
ARC
  5
ED
  8
0
  6
CONTINUOUS
 62
     7
 10
538.584307834
 20
888.4003785858
 30
0.0
 40
1.574450322264959
 50
216.5848294948
 51
256.6382410096
  0
ARC
  5
EE
  8
0
  6
CONTINUOUS
 62
     7
 10
452.0777790722
 20
888.3592224525
 30
0.0
 40
1.529422098112482
 50
283.0537848081
 51
324.3171228797
  0
LINE
  5
EF
  8
0
  6
CONTINUOUS
 62
     7
 10
451.073576341
 20
1021.8710559307
 30
0.0
 11
452.3202223877
 21
1021.8710559307
 31
0.0
  0
LINE
  5
F0
  8
0
  6
CONTINUOUS
 62
     7
 10
451.073576341
 20
1021.8710559307
 30
0.0
 11
451.073576341
 21
1181.3710597231
 31
0.0
  0
LINE
  5
F1
  8
0
  6
CONTINUOUS
 62
     7
 10
539.56655098
 20
1021.8710559307
 30
0.0
 11
539.56655098
 21
1181.3710597231
 31
0.0
  0
LINE
  5
F2
  8
0
  6
CONTINUOUS
 62
     7
 10
538.3199049333
 20
1021.8710559307
 30
0.0
 11
539.56655098
 21
1021.8710559307
 31
0.0
  0
LINE
  5
F3
  8
0
  6
CONTINUOUS
 62
     7
 10
450.6725451151
 20
1021.8710559307
 30
0.0
 11
451.073576341
 21
1021.8710559307
 31
0.0
  0
LINE
  5
F4
  8
0
  6
CONTINUOUS
 62
     7
 10
539.56655098
 20
1021.8710559307
 30
0.0
 11
539.9675822059
 21
1021.8710559307
 31
0.0
  0
LINE
  5
F5
  8
0
  6
CONTINUOUS
 62
     7
 10
452.3202223877
 20
1021.8710559307
 30
0.0
 11
454.1890887717
 21
1021.8710559307
 31
0.0
  0
LINE
  5
F6
  8
0
  6
CONTINUOUS
 62
     7
 10
536.4510385493
 20
1021.8710559307
 30
0.0
 11
538.3199049333
 21
1021.8710559307
 31
0.0
  0
LINE
  5
F7
  8
0
  6
CONTINUOUS
 62
     7
 10
455.521233956
 20
1021.8710559307
 30
0.0
 11
454.1890887717
 21
1021.8710559307
 31
0.0
  0
LINE
  5
F8
  8
0
  6
CONTINUOUS
 62
     7
 10
536.4510385493
 20
1021.8710559307
 30
0.0
 11
535.118893365
 21
1021.8710559307
 31
0.0
  0
LINE
  5
F9
  8
0
  6
CONTINUOUS
 62
     7
 10
443.3051986793
 20
1021.8710559307
 30
0.0
 11
444.5864712993
 21
1021.8710559307
 31
0.0
  0
LINE
  5
FA
  8
0
  6
CONTINUOUS
 62
     7
 10
443.3051986793
 20
1021.8710559307
 30
0.0
 11
443.3051986793
 21
1181.3710597231
 31
0.0
  0
LINE
  5
FB
  8
0
  6
CONTINUOUS
 62
     7
 10
547.3349286417
 20
1021.8710559307
 30
0.0
 11
547.3349286417
 21
1181.3710597231
 31
0.0
  0
LINE
  5
FC
  8
0
  6
CONTINUOUS
 62
     7
 10
546.0536560217
 20
1021.8710559307
 30
0.0
 11
547.3349286417
 21
1021.8710559307
 31
0.0
  0
LINE
  5
FD
  8
0
  6
CONTINUOUS
 62
     7
 10
442.9845927457
 20
1021.8710559307
 30
0.0
 11
443.3051986793
 21
1021.8710559307
 31
0.0
  0
LINE
  5
FE
  8
0
  6
CONTINUOUS
 62
     7
 10
547.3349286417
 20
1021.8710559307
 30
0.0
 11
547.6555345753
 21
1021.8710559307
 31
0.0
  0
LINE
  5
FF
  8
0
  6
CONTINUOUS
 62
     7
 10
444.5864712993
 20
1021.8710559307
 30
0.0
 11
446.7638848523
 21
1021.8710559307
 31
0.0
  0
LINE
  5
100
  8
0
  6
CONTINUOUS
 62
     7
 10
543.8762424687
 20
1021.8710559307
 30
0.0
 11
546.0536560217
 21
1021.8710559307
 31
0.0
  0
LINE
  5
101
  8
0
  6
CONTINUOUS
 62
     7
 10
448.1258435348
 20
1021.8710559307
 30
0.0
 11
446.7638848523
 21
1021.8710559307
 31
0.0
  0
LINE
  5
102
  8
0
  6
CONTINUOUS
 62
     7
 10
543.8762424687
 20
1021.8710559307
 30
0.0
 11
542.5142837862
 21
1021.8710559307
 31
0.0
  0
LINE
  5
103
  8
0
  6
CONTINUOUS
 62
     7
 10
436.1067084769
 20
1021.8710559307
 30
0.0
 11
437.4085670511
 21
1021.8710559307
 31
0.0
  0
LINE
  5
104
  8
0
  6
CONTINUOUS
 62
     7
 10
436.1067084769
 20
1021.8710559307
 30
0.0
 11
436.1067084769
 21
1181.3710597231
 31
0.0
  0
LINE
  5
105
  8
0
  6
CONTINUOUS
 62
     7
 10
554.5334188441
 20
1021.8710559307
 30
0.0
 11
554.5334188441
 21
1181.3710597231
 31
0.0
  0
LINE
  5
106
  8
0
  6
CONTINUOUS
 62
     7
 10
553.23156027
 20
1021.8710559307
 30
0.0
 11
554.5334188441
 21
1021.8710559307
 31
0.0
  0
LINE
  5
107
  8
0
  6
CONTINUOUS
 62
     7
 10
435.8590772549
 20
1021.8710559307
 30
0.0
 11
436.1067084769
 21
1021.8710559307
 31
0.0
  0
LINE
  5
108
  8
0
  6
CONTINUOUS
 62
     7
 10
554.5334188441
 20
1021.8710559307
 30
0.0
 11
554.7810500661
 21
1021.8710559307
 31
0.0
  0
LINE
  5
109
  8
0
  6
CONTINUOUS
 62
     7
 10
437.4085670511
 20
1021.8710559307
 30
0.0
 11
439.8706672887
 21
1021.8710559307
 31
0.0
  0
LINE
  5
10A
  8
0
  6
CONTINUOUS
 62
     7
 10
550.7694600323
 20
1021.8710559307
 30
0.0
 11
553.23156027
 21
1021.8710559307
 31
0.0
  0
LINE
  5
10B
  8
0
  6
CONTINUOUS
 62
     7
 10
441.2475196818
 20
1021.8710559307
 30
0.0
 11
439.8706672887
 21
1021.8710559307
 31
0.0
  0
LINE
  5
10C
  8
0
  6
CONTINUOUS
 62
     7
 10
550.7694600323
 20
1021.8710559307
 30
0.0
 11
549.3926076392
 21
1021.8710559307
 31
0.0
  0
LINE
  5
10D
  8
0
  6
CONTINUOUS
 62
     7
 10
429.5569701294
 20
1021.8710559307
 30
0.0
 11
430.8651579717
 21
1021.8710559307
 31
0.0
  0
LINE
  5
10E
  8
0
  6
CONTINUOUS
 62
     7
 10
429.5569701294
 20
1021.8710559307
 30
0.0
 11
429.5569701294
 21
1181.3710597231
 31
0.0
  0
LINE
  5
10F
  8
0
  6
CONTINUOUS
 62
     7
 10
561.0831571916
 20
1021.8710559307
 30
0.0
 11
561.0831571916
 21
1181.3710597231
 31
0.0
  0
LINE
  5
110
  8
0
  6
CONTINUOUS
 62
     7
 10
559.7749693493
 20
1021.8710559307
 30
0.0
 11
561.0831571916
 21
1021.8710559307
 31
0.0
  0
LINE
  5
111
  8
0
  6
CONTINUOUS
 62
     7
 10
430.8651579717
 20
1021.8710559307
 30
0.0
 11
433.5849700669
 21
1021.8710559307
 31
0.0
  0
LINE
  5
112
  8
0
  6
CONTINUOUS
 62
     7
 10
557.0551572541
 20
1021.8710559307
 30
0.0
 11
559.7749693493
 21
1021.8710559307
 31
0.0
  0
LINE
  5
113
  8
0
  6
CONTINUOUS
 62
     7
 10
429.3740732769
 20
1021.8710559307
 30
0.0
 11
429.5569701294
 21
1021.8710559307
 31
0.0
  0
LINE
  5
114
  8
0
  6
CONTINUOUS
 62
     7
 10
561.0831571916
 20
1021.8710559307
 30
0.0
 11
561.2660540441
 21
1021.8710559307
 31
0.0
  0
LINE
  5
115
  8
0
  6
CONTINUOUS
 62
     7
 10
434.961628745
 20
1021.8710559307
 30
0.0
 11
433.5849700669
 21
1021.8710559307
 31
0.0
  0
LINE
  5
116
  8
0
  6
CONTINUOUS
 62
     7
 10
557.0551572541
 20
1021.8710559307
 30
0.0
 11
555.6784985761
 21
1021.8710559307
 31
0.0
  0
LINE
  5
117
  8
0
  6
CONTINUOUS
 62
     7
 10
423.7277476291
 20
1021.8710559307
 30
0.0
 11
425.0279260973
 21
1021.8710559307
 31
0.0
  0
LINE
  5
118
  8
0
  6
CONTINUOUS
 62
     7
 10
423.7277476291
 20
1021.8710559307
 30
0.0
 11
423.7277476291
 21
1181.3710597231
 31
0.0
  0
LINE
  5
119
  8
0
  6
CONTINUOUS
 62
     7
 10
566.912379692
 20
1021.8710559307
 30
0.0
 11
566.912379692
 21
1181.3710597231
 31
0.0
  0
LINE
  5
11A
  8
0
  6
CONTINUOUS
 62
     7
 10
565.6122012237
 20
1021.8710559307
 30
0.0
 11
566.912379692
 21
1021.8710559307
 31
0.0
  0
LINE
  5
11B
  8
0
  6
CONTINUOUS
 62
     7
 10
425.0279260973
 20
1021.8710559307
 30
0.0
 11
427.9756514529
 21
1021.8710559307
 31
0.0
  0
LINE
  5
11C
  8
0
  6
CONTINUOUS
 62
     7
 10
562.6644758681
 20
1021.8710559307
 30
0.0
 11
565.6122012237
 21
1021.8710559307
 31
0.0
  0
LINE
  5
11D
  8
0
  6
CONTINUOUS
 62
     7
 10
423.6006332735
 20
1021.8710559307
 30
0.0
 11
423.7277476291
 21
1021.8710559307
 31
0.0
  0
LINE
  5
11E
  8
0
  6
CONTINUOUS
 62
     7
 10
566.912379692
 20
1021.8710559307
 30
0.0
 11
567.0394940475
 21
1021.8710559307
 31
0.0
  0
LINE
  5
11F
  8
0
  6
CONTINUOUS
 62
     7
 10
429.3370364407
 20
1021.8710559307
 30
0.0
 11
427.9756514529
 21
1021.8710559307
 31
0.0
  0
LINE
  5
120
  8
0
  6
CONTINUOUS
 62
     7
 10
562.6644758681
 20
1021.8710559307
 30
0.0
 11
561.3030908803
 21
1021.8710559307
 31
0.0
  0
LINE
  5
121
  8
0
  6
CONTINUOUS
 62
     7
 10
418.6828999022
 20
1021.8710559307
 30
0.0
 11
419.9608309368
 21
1021.8710559307
 31
0.0
  0
LINE
  5
122
  8
0
  6
CONTINUOUS
 62
     7
 10
418.6828999022
 20
1021.8710559307
 30
0.0
 11
418.6828999022
 21
1181.3710597231
 31
0.0
  0
LINE
  5
123
  8
0
  6
CONTINUOUS
 62
     7
 10
571.9572274188
 20
1021.8710559307
 30
0.0
 11
571.9572274188
 21
1181.3710597231
 31
0.0
  0
LINE
  5
124
  8
0
  6
CONTINUOUS
 62
     7
 10
570.6792963842
 20
1021.8710559307
 30
0.0
 11
571.9572274188
 21
1021.8710559307
 31
0.0
  0
LINE
  5
125
  8
0
  6
CONTINUOUS
 62
     7
 10
419.9608309368
 20
1021.8710559307
 30
0.0
 11
423.1041787366
 21
1021.8710559307
 31
0.0
  0
LINE
  5
126
  8
0
  6
CONTINUOUS
 62
     7
 10
567.5359485844
 20
1021.8710559307
 30
0.0
 11
570.6792963842
 21
1021.8710559307
 31
0.0
  0
LINE
  5
127
  8
0
  6
CONTINUOUS
 62
     7
 10
418.6020089487
 20
1021.8710559307
 30
0.0
 11
418.6828999022
 21
1021.8710559307
 31
0.0
  0
LINE
  5
128
  8
0
  6
CONTINUOUS
 62
     7
 10
571.9572274188
 20
1021.8710559307
 30
0.0
 11
572.0381183723
 21
1021.8710559307
 31
0.0
  0
LINE
  5
129
  8
0
  6
CONTINUOUS
 62
     7
 10
423.6006332735
 20
1021.8710559307
 30
0.0
 11
423.1041787366
 21
1021.8710559307
 31
0.0
  0
LINE
  5
12A
  8
0
  6
CONTINUOUS
 62
     7
 10
567.5359485844
 20
1021.8710559307
 30
0.0
 11
567.0394940475
 21
1021.8710559307
 31
0.0
  0
LINE
  5
12B
  8
0
  6
CONTINUOUS
 62
     7
 10
414.4777102569
 20
1021.8710559307
 30
0.0
 11
415.7193867663
 21
1021.8710559307
 31
0.0
  0
LINE
  5
12C
  8
0
  6
CONTINUOUS
 62
     7
 10
414.4777102569
 20
1021.8710559307
 30
0.0
 11
414.4777102569
 21
1181.3710597231
 31
0.0
  0
LINE
  5
12D
  8
0
  6
CONTINUOUS
 62
     7
 10
576.1624170641
 20
1021.8710559307
 30
0.0
 11
576.1624170641
 21
1181.3710597231
 31
0.0
  0
LINE
  5
12E
  8
0
  6
CONTINUOUS
 62
     7
 10
574.9207405547
 20
1021.8710559307
 30
0.0
 11
576.1624170641
 21
1021.8710559307
 31
0.0
  0
LINE
  5
12F
  8
0
  6
CONTINUOUS
 62
     7
 10
415.7193867663
 20
1021.8710559307
 30
0.0
 11
418.6020089487
 21
1021.8710559307
 31
0.0
  0
LINE
  5
130
  8
0
  6
CONTINUOUS
 62
     7
 10
572.0381183723
 20
1021.8710559307
 30
0.0
 11
574.9207405547
 21
1021.8710559307
 31
0.0
  0
LINE
  5
131
  8
0
  6
CONTINUOUS
 62
     7
 10
414.4329695205
 20
1021.8710559307
 30
0.0
 11
414.4777102569
 21
1021.8710559307
 31
0.0
  0
LINE
  5
132
  8
0
  6
CONTINUOUS
 62
     7
 10
576.1624170641
 20
1021.8710559307
 30
0.0
 11
576.2071578006
 21
1021.8710559307
 31
0.0
  0
LINE
  5
133
  8
0
  6
CONTINUOUS
 62
     7
 10
411.158245633
 20
1021.8710559307
 30
0.0
 11
412.350062857
 21
1021.8710559307
 31
0.0
  0
LINE
  5
134
  8
0
  6
CONTINUOUS
 62
     7
 10
411.158245633
 20
1021.8710559307
 30
0.0
 11
411.158245633
 21
1181.3710597231
 31
0.0
  0
LINE
  5
135
  8
0
  6
CONTINUOUS
 62
     7
 10
579.481881688
 20
1021.8710559307
 30
0.0
 11
579.481881688
 21
1181.3710597231
 31
0.0
  0
LINE
  5
136
  8
0
  6
CONTINUOUS
 62
     7
 10
578.290064464
 20
1021.8710559307
 30
0.0
 11
579.481881688
 21
1021.8710559307
 31
0.0
  0
LINE
  5
137
  8
0
  6
CONTINUOUS
 62
     7
 10
412.350062857
 20
1021.8710559307
 30
0.0
 11
414.4329695205
 21
1021.8710559307
 31
0.0
  0
LINE
  5
138
  8
0
  6
CONTINUOUS
 62
     7
 10
576.2071578006
 20
1021.8710559307
 30
0.0
 11
578.290064464
 21
1021.8710559307
 31
0.0
  0
LINE
  5
139
  8
0
  6
CONTINUOUS
 62
     7
 10
411.1391870478
 20
1021.8710559307
 30
0.0
 11
411.158245633
 21
1021.8710559307
 31
0.0
  0
LINE
  5
13A
  8
0
  6
CONTINUOUS
 62
     7
 10
579.481881688
 20
1021.8710559307
 30
0.0
 11
579.5009402732
 21
1021.8710559307
 31
0.0
  0
LINE
  5
13B
  8
0
  6
CONTINUOUS
 62
     7
 10
581.3200665811
 20
1181.3710597231
 30
0.0
 11
581.3200665811
 21
1021.8710559307
 31
0.0
  0
LINE
  5
13C
  8
0
  6
CONTINUOUS
 62
     7
 10
581.3200665811
 20
1021.8710559307
 30
0.0
 11
579.5009402732
 21
1021.8710559307
 31
0.0
  0
LINE
  5
13D
  8
0
  6
CONTINUOUS
 62
     7
 10
408.7608723143
 20
1021.8710559307
 30
0.0
 11
408.7608723143
 21
1181.3710597231
 31
0.0
  0
LINE
  5
13E
  8
0
  6
CONTINUOUS
 62
     7
 10
408.7608723143
 20
1021.8710559307
 30
0.0
 11
409.8897768358
 21
1021.8710559307
 31
0.0
  0
LINE
  5
13F
  8
0
  6
CONTINUOUS
 62
     7
 10
409.8897768358
 20
1021.8710559307
 30
0.0
 11
411.1391870478
 21
1021.8710559307
 31
0.0
  0
LINE
  5
140
  8
0
  6
CONTINUOUS
 62
     7
 10
408.7567521433
 20
1021.8710559307
 30
0.0
 11
408.7608723143
 21
1021.8710559307
 31
0.0
  0
LINE
  5
141
  8
0
  6
CONTINUOUS
 62
     7
 10
407.3118610481
 20
1021.8710559307
 30
0.0
 11
407.3118610481
 21
1181.3710597231
 31
0.0
  0
LINE
  5
142
  8
0
  6
CONTINUOUS
 62
     7
 10
407.3118610481
 20
1021.8710559307
 30
0.0
 11
408.3654849032
 21
1021.8710559307
 31
0.0
  0
LINE
  5
143
  8
0
  6
CONTINUOUS
 62
     7
 10
408.3654849032
 20
1021.8710559307
 30
0.0
 11
408.7567521433
 21
1021.8710559307
 31
0.0
  0
LINE
  5
144
  8
0
  6
CONTINUOUS
 62
     7
 10
406.8270890216
 20
1021.8710559307
 30
0.0
 11
406.8270890216
 21
1181.3710597231
 31
0.0
  0
LINE
  5
145
  8
0
  6
CONTINUOUS
 62
     7
 10
406.8270890216
 20
1021.8710559307
 30
0.0
 11
407.3118610481
 21
1021.8710559307
 31
0.0
  0
POLYLINE
  5
146
  8
0
  6
CONTINUOUS
 62
     7
 66
     1
 10
0.0
 20
0.0
 30
0.0
 70
   128
  0
VERTEX
  5
550
  8
0
  6
CONTINUOUS
 62
     7
 10
562.3891396622
 20
1196.8710538818
 30
0.0
  0
VERTEX
  5
551
  8
0
  6
CONTINUOUS
 62
     7
 10
562.4779505829
 20
1196.2396320774
 30
0.0
  0
VERTEX
  5
552
  8
0
  6
CONTINUOUS
 62
     7
 10
562.7308679918
 20
1195.7043227627
 30
0.0
  0
VERTEX
  5
553
  8
0
  6
CONTINUOUS
 62
     7
 10
563.1093798379
 20
1195.3466501905
 30
0.0
  0
VERTEX
  5
554
  8
0
  6
CONTINUOUS
 62
     7
 10
563.5558707813
 20
1195.2210483028
 30
0.0
  0
VERTEX
  5
555
  8
0
  6
CONTINUOUS
 62
     7
 10
564.0023542742
 20
1195.3466501905
 30
0.0
  0
VERTEX
  5
556
  8
0
  6
CONTINUOUS
 62
     7
 10
564.3808661202
 20
1195.7043227627
 30
0.0
  0
VERTEX
  5
557
  8
0
  6
CONTINUOUS
 62
     7
 10
564.6337835292
 20
1196.2396320774
 30
0.0
  0
VERTEX
  5
558
  8
0
  6
CONTINUOUS
 62
     7
 10
564.7225944499
 20
1196.8710538818
 30
0.0
  0
VERTEX
  5
559
  8
0
  6
CONTINUOUS
 62
     7
 10
564.6337835292
 20
1197.5024905874
 30
0.0
  0
VERTEX
  5
55A
  8
0
  6
CONTINUOUS
 62
     7
 10
564.3808661202
 20
1198.037785001
 30
0.0
  0
VERTEX
  5
55B
  8
0
  6
CONTINUOUS
 62
     7
 10
564.0023542742
 20
1198.3954575731
 30
0.0
  0
VERTEX
  5
55C
  8
0
  6
CONTINUOUS
 62
     7
 10
563.5558707813
 20
1198.5210594608
 30
0.0
  0
VERTEX
  5
55D
  8
0
  6
CONTINUOUS
 62
     7
 10
563.1093798379
 20
1198.3954575731
 30
0.0
  0
VERTEX
  5
55E
  8
0
  6
CONTINUOUS
 62
     7
 10
562.7308679918
 20
1198.037785001
 30
0.0
  0
VERTEX
  5
55F
  8
0
  6
CONTINUOUS
 62
     7
 10
562.4779505829
 20
1197.5024905874
 30
0.0
  0
VERTEX
  5
560
  8
0
  6
CONTINUOUS
 62
     7
 10
562.3891396622
 20
1196.8710538818
 30
0.0
  0
SEQEND
  5
9A3
  8
0
  6
CONTINUOUS
 62
     7
  0
ARC
  5
147
  8
0
  6
CONTINUOUS
 62
     7
 10
405.4399816225
 20
1196.7034452082
 30
0.0
 40
3.762549953315031
 50
177.4468249771
 51
199.6639153219
  0
ARC
  5
148
  8
0
  6
CONTINUOUS
 62
     7
 10
405.4399182223
 20
1197.0386720933
 30
0.0
 40
3.762487040879535
 50
160.3358965695
 51
182.5533631315
  0
LINE
  5
149
  8
0
  6
CONTINUOUS
 62
     7
 10
482.8200634742
 20
1241.4210555031
 30
0.0
 11
507.8200638468
 21
1241.4210555031
 31
0.0
  0
LINE
  5
14A
  8
0
  6
CONTINUOUS
 62
     7
 10
486.3200640479
 20
1241.4710488989
 30
0.0
 11
504.3200632731
 21
1241.4710488989
 31
0.0
  0
LINE
  5
14B
  8
0
  6
CONTINUOUS
 62
     7
 10
485.7937839056
 20
1241.4710488989
 30
0.0
 11
485.7937839056
 21
1241.4210555031
 31
0.0
  0
LINE
  5
14C
  8
0
  6
CONTINUOUS
 62
     7
 10
485.7937839056
 20
1241.4710488989
 30
0.0
 11
486.3200640479
 21
1241.4710488989
 31
0.0
  0
LINE
  5
14D
  8
0
  6
CONTINUOUS
 62
     7
 10
581.5200625161
 20
1139.3710491134
 30
0.0
 11
581.5200625161
 21
1178.3710536434
 31
0.0
  0
LINE
  5
14E
  8
0
  6
CONTINUOUS
 62
     7
 10
591.5200604299
 20
1178.3710536434
 30
0.0
 11
591.5200604299
 21
1139.3710491134
 31
0.0
  0
ARC
  5
14F
  8
0
  6
CONTINUOUS
 62
     7
 10
595.508503889
 20
1183.1127642964
 30
0.0
 40
6.479565957685798
 50
2.1648678204
 51
12.3032352969
  0
ARC
  5
150
  8
0
  6
CONTINUOUS
 62
     7
 10
602.621012842
 20
1188.8622087543
 30
0.0
 40
5.541474475037367
 50
263.3932932616
 51
263.6069750355
  0
ARC
  5
151
  8
0
  6
CONTINUOUS
 62
     7
 10
604.1559440461
 20
1183.7504711829
 30
0.0
 40
4.857498733150767
 50
136.3678617866
 51
136.6116652075
  0
ARC
  5
152
  8
0
  6
CONTINUOUS
 62
     7
 10
595.508503889
 20
1183.1127642964
 30
0.0
 40
6.479565957685774
 50
27.6967647031
 51
37.8351321796
  0
POLYLINE
  5
153
  8
0
  6
CONTINUOUS
 62
     7
 66
     1
 10
0.0
 20
0.0
 30
0.0
 70
   128
  0
VERTEX
  5
561
  8
0
  6
CONTINUOUS
 62
     7
 10
601.2456385592
 20
1186.1244109346
 30
0.0
  0
VERTEX
  5
562
  8
0
  6
CONTINUOUS
 62
     7
 10
601.2572093109
 20
1186.0926267578
 30
0.0
  0
VERTEX
  5
563
  8
0
  6
CONTINUOUS
 62
     7
 10
601.2698976497
 20
1186.0577729418
 30
0.0
  0
VERTEX
  5
564
  8
0
  6
CONTINUOUS
 62
     7
 10
601.2836439709
 20
1186.0199984981
 30
0.0
  0
VERTEX
  5
565
  8
0
  6
CONTINUOUS
 62
     7
 10
601.2983961204
 20
1185.9794673397
 30
0.0
  0
VERTEX
  5
566
  8
0
  6
CONTINUOUS
 62
     7
 10
601.3141093949
 20
1185.9363135769
 30
0.0
  0
VERTEX
  5
567
  8
0
  6
CONTINUOUS
 62
     7
 10
601.3307018379
 20
1185.8907011224
 30
0.0
  0
VERTEX
  5
568
  8
0
  6
CONTINUOUS
 62
     7
 10
601.3481287459
 20
1185.8428385927
 30
0.0
  0
VERTEX
  5
569
  8
0
  6
CONTINUOUS
 62
     7
 10
601.3663081626
 20
1185.7928749992
 30
0.0
  0
SEQEND
  5
9A4
  8
0
  6
CONTINUOUS
 62
     7
  0
POLYLINE
  5
154
  8
0
  6
CONTINUOUS
 62
     7
 66
     1
 10
0.0
 20
0.0
 30
0.0
 70
   128
  0
VERTEX
  5
56A
  8
0
  6
CONTINUOUS
 62
     7
 10
601.3663081626
 20
1185.7928749992
 30
0.0
  0
VERTEX
  5
56B
  8
0
  6
CONTINUOUS
 62
     7
 10
601.346795092
 20
1185.7857820465
 30
0.0
  0
VERTEX
  5
56C
  8
0
  6
CONTINUOUS
 62
     7
 10
601.3243464927
 20
1185.777601309
 30
0.0
  0
VERTEX
  5
56D
  8
0
  6
CONTINUOUS
 62
     7
 10
601.298954914
 20
1185.768362589
 30
0.0
  0
VERTEX
  5
56E
  8
0
  6
CONTINUOUS
 62
     7
 10
601.2706501583
 20
1185.7580658867
 30
0.0
  0
VERTEX
  5
56F
  8
0
  6
CONTINUOUS
 62
     7
 10
601.2394471268
 20
1185.7467112018
 30
0.0
  0
VERTEX
  5
570
  8
0
  6
CONTINUOUS
 62
     7
 10
601.2053458194
 20
1185.7342985346
 30
0.0
  0
VERTEX
  5
571
  8
0
  6
CONTINUOUS
 62
     7
 10
601.1683760384
 20
1185.720842786
 30
0.0
  0
VERTEX
  5
572
  8
0
  6
CONTINUOUS
 62
     7
 10
601.1285452346
 20
1185.7063439562
 30
0.0
  0
SEQEND
  5
9A5
  8
0
  6
CONTINUOUS
 62
     7
  0
ARC
  5
155
  8
0
  6
CONTINUOUS
 62
     7
 10
594.576852875
 20
1182.7736487929
 30
0.0
 40
7.178117698571127
 50
15.8858383591
 51
24.1144380041
  0
POLYLINE
  5
156
  8
0
  6
CONTINUOUS
 62
     7
 66
     1
 10
0.0
 20
0.0
 30
0.0
 70
   128
  0
VERTEX
  5
573
  8
0
  6
CONTINUOUS
 62
     7
 10
601.4808310369
 20
1184.738453932
 30
0.0
  0
VERTEX
  5
574
  8
0
  6
CONTINUOUS
 62
     7
 10
601.5206543902
 20
1184.7529527618
 30
0.0
  0
VERTEX
  5
575
  8
0
  6
CONTINUOUS
 62
     7
 10
601.5576241711
 20
1184.7664085104
 30
0.0
  0
VERTEX
  5
576
  8
0
  6
CONTINUOUS
 62
     7
 10
601.5917254785
 20
1184.7788211776
 30
0.0
  0
VERTEX
  5
577
  8
0
  6
CONTINUOUS
 62
     7
 10
601.6229359607
 20
1184.7901907636
 30
0.0
  0
VERTEX
  5
578
  8
0
  6
CONTINUOUS
 62
     7
 10
601.6512407163
 20
1184.800487466
 30
0.0
  0
VERTEX
  5
579
  8
0
  6
CONTINUOUS
 62
     7
 10
601.6766248444
 20
1184.809726186
 30
0.0
  0
VERTEX
  5
57A
  8
0
  6
CONTINUOUS
 62
     7
 10
601.6990808944
 20
1184.8178920223
 30
0.0
  0
VERTEX
  5
57B
  8
0
  6
CONTINUOUS
 62
     7
 10
601.7185865144
 20
1184.8249998762
 30
0.0
  0
SEQEND
  5
9A6
  8
0
  6
CONTINUOUS
 62
     7
  0
POLYLINE
  5
157
  8
0
  6
CONTINUOUS
 62
     7
 66
     1
 10
0.0
 20
0.0
 30
0.0
 70
   128
  0
VERTEX
  5
57C
  8
0
  6
CONTINUOUS
 62
     7
 10
601.7185865144
 20
1184.8249998762
 30
0.0
  0
VERTEX
  5
57D
  8
0
  6
CONTINUOUS
 62
     7
 10
601.7367733816
 20
1184.7750511839
 30
0.0
  0
VERTEX
  5
57E
  8
0
  6
CONTINUOUS
 62
     7
 10
601.754192839
 20
1184.7271737529
 30
0.0
  0
VERTEX
  5
57F
  8
0
  6
CONTINUOUS
 62
     7
 10
601.7707927326
 20
1184.6815761997
 30
0.0
  0
VERTEX
  5
580
  8
0
  6
CONTINUOUS
 62
     7
 10
601.7864985565
 20
1184.6384224369
 30
0.0
  0
VERTEX
  5
581
  8
0
  6
CONTINUOUS
 62
     7
 10
601.8012581567
 20
1184.5978763773
 30
0.0
  0
VERTEX
  5
582
  8
0
  6
CONTINUOUS
 62
     7
 10
601.8150044779
 20
1184.5601019336
 30
0.0
  0
VERTEX
  5
583
  8
0
  6
CONTINUOUS
 62
     7
 10
601.827685366
 20
1184.5252630188
 30
0.0
  0
VERTEX
  5
584
  8
0
  6
CONTINUOUS
 62
     7
 10
601.8392561177
 20
1184.4934639408
 30
0.0
  0
SEQEND
  5
9A7
  8
0
  6
CONTINUOUS
 62
     7
  0
POLYLINE
  5
158
  8
0
  6
CONTINUOUS
 62
     7
 66
     1
 10
0.0
 20
0.0
 30
0.0
 70
   128
  0
VERTEX
  5
585
  8
0
  6
CONTINUOUS
 62
     7
 10
629.8272876242
 20
1098.7636041714
 30
0.0
  0
VERTEX
  5
586
  8
0
  6
CONTINUOUS
 62
     7
 10
630.031195114
 20
1098.2033875658
 30
0.0
  0
VERTEX
  5
587
  8
0
  6
CONTINUOUS
 62
     7
 10
630.4208753804
 20
1097.1327316834
 30
0.0
  0
VERTEX
  5
588
  8
0
  6
CONTINUOUS
 62
     7
 10
630.7578204373
 20
1096.2069895937
 30
0.0
  0
VERTEX
  5
589
  8
0
  6
CONTINUOUS
 62
     7
 10
631.0120789508
 20
1095.5084157063
 30
0.0
  0
VERTEX
  5
58A
  8
0
  6
CONTINUOUS
 62
     7
 10
631.1610756615
 20
1095.0990733577
 30
0.0
  0
VERTEX
  5
58B
  8
0
  6
CONTINUOUS
 62
     7
 10
631.1953781346
 20
1095.0048309638
 30
0.0
  0
SEQEND
  5
9A8
  8
0
  6
CONTINUOUS
 62
     7
  0
ARC
  5
159
  8
0
  6
CONTINUOUS
 62
     7
 10
626.6323369316
 20
1097.6007358049
 30
0.0
 40
6.479565957685685
 50
2.1648678204
 51
12.3032352969
  0
ARC
  5
15A
  8
0
  6
CONTINUOUS
 62
     7
 10
631.4352105701
 20
1083.0676379781
 30
0.0
 40
14.87215392537105
 50
83.4649691154
 51
83.5446455228
  0
POLYLINE
  5
15B
  8
0
  6
CONTINUOUS
 62
     7
 66
     1
 10
0.0
 20
0.0
 30
0.0
 70
   128
  0
VERTEX
  5
58C
  8
0
  6
CONTINUOUS
 62
     7
 10
631.7497609357
 20
1101.5752446725
 30
0.0
  0
VERTEX
  5
58D
  8
0
  6
CONTINUOUS
 62
     7
 10
631.755989621
 20
1101.5818011834
 30
0.0
  0
VERTEX
  5
58E
  8
0
  6
CONTINUOUS
 62
     7
 10
631.7604301671
 20
1101.5864875986
 30
0.0
  0
VERTEX
  5
58F
  8
0
  6
CONTINUOUS
 62
     7
 10
631.7630974749
 20
1101.589303918
 30
0.0
  0
VERTEX
  5
590
  8
0
  6
CONTINUOUS
 62
     7
 10
631.7639915446
 20
1101.5902426912
 30
0.0
  0
SEQEND
  5
9A9
  8
0
  6
CONTINUOUS
 62
     7
  0
ARC
  5
15C
  8
0
  6
CONTINUOUS
 62
     7
 10
626.6323369316
 20
1097.6007358049
 30
0.0
 40
6.479565957685774
 50
27.6967647031
 51
37.8351321796
  0
POLYLINE
  5
15D
  8
0
  6
CONTINUOUS
 62
     7
 66
     1
 10
0.0
 20
0.0
 30
0.0
 70
   128
  0
VERTEX
  5
591
  8
0
  6
CONTINUOUS
 62
     7
 10
632.3694704274
 20
1100.6123837902
 30
0.0
  0
VERTEX
  5
592
  8
0
  6
CONTINUOUS
 62
     7
 10
632.3810486296
 20
1100.5805921628
 30
0.0
  0
VERTEX
  5
593
  8
0
  6
CONTINUOUS
 62
     7
 10
632.3937295178
 20
1100.5457457973
 30
0.0
  0
VERTEX
  5
594
  8
0
  6
CONTINUOUS
 62
     7
 10
632.4074832896
 20
1100.5079713537
 30
0.0
  0
VERTEX
  5
595
  8
0
  6
CONTINUOUS
 62
     7
 10
632.4222354392
 20
1100.4674327447
 30
0.0
  0
VERTEX
  5
596
  8
0
  6
CONTINUOUS
 62
     7
 10
632.4379412631
 20
1100.4242789818
 30
0.0
  0
VERTEX
  5
597
  8
0
  6
CONTINUOUS
 62
     7
 10
632.4545411567
 20
1100.378673978
 30
0.0
  0
VERTEX
  5
598
  8
0
  6
CONTINUOUS
 62
     7
 10
632.4719606141
 20
1100.3308039977
 30
0.0
  0
VERTEX
  5
599
  8
0
  6
CONTINUOUS
 62
     7
 10
632.4901400307
 20
1100.2808553054
 30
0.0
  0
SEQEND
  5
9AA
  8
0
  6
CONTINUOUS
 62
     7
  0
POLYLINE
  5
15E
  8
0
  6
CONTINUOUS
 62
     7
 66
     1
 10
0.0
 20
0.0
 30
0.0
 70
   128
  0
VERTEX
  5
59A
  8
0
  6
CONTINUOUS
 62
     7
 10
632.4901400307
 20
1100.2808553054
 30
0.0
  0
VERTEX
  5
59B
  8
0
  6
CONTINUOUS
 62
     7
 10
632.4706344107
 20
1100.273754902
 30
0.0
  0
VERTEX
  5
59C
  8
0
  6
CONTINUOUS
 62
     7
 10
632.4481783608
 20
1100.2655816151
 30
0.0
  0
VERTEX
  5
59D
  8
0
  6
CONTINUOUS
 62
     7
 10
632.4227867822
 20
1100.2563428952
 30
0.0
  0
VERTEX
  5
59E
  8
0
  6
CONTINUOUS
 62
     7
 10
632.394489477
 20
1100.2460387422
 30
0.0
  0
VERTEX
  5
59F
  8
0
  6
CONTINUOUS
 62
     7
 10
632.3632715443
 20
1100.2346766068
 30
0.0
  0
VERTEX
  5
5A0
  8
0
  6
CONTINUOUS
 62
     7
 10
632.3291776875
 20
1100.2222713901
 30
0.0
  0
VERTEX
  5
5A1
  8
0
  6
CONTINUOUS
 62
     7
 10
632.2922079066
 20
1100.208808191
 30
0.0
  0
VERTEX
  5
5A2
  8
0
  6
CONTINUOUS
 62
     7
 10
632.2523771027
 20
1100.1943168117
 30
0.0
  0
SEQEND
  5
9AB
  8
0
  6
CONTINUOUS
 62
     7
  0
ARC
  5
15F
  8
0
  6
CONTINUOUS
 62
     7
 10
625.7015337899
 20
1097.2619686952
 30
0.0
 40
7.177200957562412
 50
15.885102445
 51
24.1146785054
  0
POLYLINE
  5
160
  8
0
  6
CONTINUOUS
 62
     7
 66
     1
 10
0.0
 20
0.0
 30
0.0
 70
   128
  0
VERTEX
  5
5A3
  8
0
  6
CONTINUOUS
 62
     7
 10
632.6046554545
 20
1099.2264342381
 30
0.0
  0
VERTEX
  5
5A4
  8
0
  6
CONTINUOUS
 62
     7
 10
632.6444862584
 20
1099.2409256174
 30
0.0
  0
VERTEX
  5
5A5
  8
0
  6
CONTINUOUS
 62
     7
 10
632.6814560393
 20
1099.2543813659
 30
0.0
  0
VERTEX
  5
5A6
  8
0
  6
CONTINUOUS
 62
     7
 10
632.7155647973
 20
1099.2667940332
 30
0.0
  0
VERTEX
  5
5A7
  8
0
  6
CONTINUOUS
 62
     7
 10
632.7467678288
 20
1099.2781561686
 30
0.0
  0
VERTEX
  5
5A8
  8
0
  6
CONTINUOUS
 62
     7
 10
632.7750651339
 20
1099.2884603216
 30
0.0
  0
VERTEX
  5
5A9
  8
0
  6
CONTINUOUS
 62
     7
 10
632.8004567126
 20
1099.2976990415
 30
0.0
  0
VERTEX
  5
5AA
  8
0
  6
CONTINUOUS
 62
     7
 10
632.8229127625
 20
1099.3058723284
 30
0.0
  0
VERTEX
  5
5AB
  8
0
  6
CONTINUOUS
 62
     7
 10
632.8424183825
 20
1099.3129727318
 30
0.0
  0
SEQEND
  5
9AC
  8
0
  6
CONTINUOUS
 62
     7
  0
POLYLINE
  5
161
  8
0
  6
CONTINUOUS
 62
     7
 66
     1
 10
0.0
 20
0.0
 30
0.0
 70
   128
  0
VERTEX
  5
5AC
  8
0
  6
CONTINUOUS
 62
     7
 10
632.8424183825
 20
1099.3129727318
 30
0.0
  0
VERTEX
  5
5AD
  8
0
  6
CONTINUOUS
 62
     7
 10
632.8605977992
 20
1099.2630165889
 30
0.0
  0
VERTEX
  5
5AE
  8
0
  6
CONTINUOUS
 62
     7
 10
632.8780321578
 20
1099.2151466085
 30
0.0
  0
VERTEX
  5
5AF
  8
0
  6
CONTINUOUS
 62
     7
 10
632.8946171502
 20
1099.1695490553
 30
0.0
  0
VERTEX
  5
5B0
  8
0
  6
CONTINUOUS
 62
     7
 10
632.9103378753
 20
1099.1263878419
 30
0.0
  0
VERTEX
  5
5B1
  8
0
  6
CONTINUOUS
 62
     7
 10
632.9250900248
 20
1099.0858492328
 30
0.0
  0
VERTEX
  5
5B2
  8
0
  6
CONTINUOUS
 62
     7
 10
632.9388288955
 20
1099.0480822398
 30
0.0
  0
VERTEX
  5
5B3
  8
0
  6
CONTINUOUS
 62
     7
 10
632.9515246848
 20
1099.0132284238
 30
0.0
  0
VERTEX
  5
5B4
  8
0
  6
CONTINUOUS
 62
     7
 10
632.9630879859
 20
1098.9814367964
 30
0.0
  0
SEQEND
  5
9AD
  8
0
  6
CONTINUOUS
 62
     7
  0
LINE
  5
162
  8
0
  6
CONTINUOUS
 62
     7
 10
633.0248831013
 20
1137.8710535242
 30
0.0
 11
632.9748748044
 21
1137.8710535242
 31
0.0
  0
LINE
  5
163
  8
0
  6
CONTINUOUS
 62
     7
 10
632.9748748044
 20
1139.3710491134
 30
0.0
 11
633.0248831013
 21
1139.3710491134
 31
0.0
  0
LINE
  5
164
  8
0
  6
CONTINUOUS
 62
     7
 10
633.0248831013
 20
1139.3710491134
 30
0.0
 11
633.0248831013
 21
1137.8710535242
 31
0.0
  0
LINE
  5
165
  8
0
  6
CONTINUOUS
 62
     7
 10
633.0248831013
 20
1156.2896338178
 30
0.0
 11
632.9748748044
 21
1156.2896338178
 31
0.0
  0
LINE
  5
166
  8
0
  6
CONTINUOUS
 62
     7
 10
633.0248831013
 20
1156.2896338178
 30
0.0
 11
633.0248831013
 21
1139.3710491134
 31
0.0
  0
LINE
  5
167
  8
0
  6
CONTINUOUS
 62
     7
 10
633.0748764972
 20
1154.7896382286
 30
0.0
 11
633.0248831013
 21
1154.7896382286
 31
0.0
  0
LINE
  5
168
  8
0
  6
CONTINUOUS
 62
     7
 10
633.0748764972
 20
1154.7896382286
 30
0.0
 11
633.0748764972
 21
1139.3710491134
 31
0.0
  0
LINE
  5
169
  8
0
  6
CONTINUOUS
 62
     7
 10
633.0748764972
 20
1139.3710491134
 30
0.0
 11
633.0248831013
 21
1139.3710491134
 31
0.0
  0
LINE
  5
16A
  8
0
  6
CONTINUOUS
 62
     7
 10
633.0248831013
 20
1156.7896422817
 30
0.0
 11
633.0248831013
 21
1156.2896338178
 31
0.0
  0
LINE
  5
16B
  8
0
  6
CONTINUOUS
 62
     7
 10
590.7737655739
 20
1188.5194596721
 30
0.0
 11
594.8144463996
 21
1189.9901446773
 31
0.0
  0
POLYLINE
  5
16C
  8
0
  6
CONTINUOUS
 62
     7
 66
     1
 10
0.0
 20
0.0
 30
0.0
 70
   128
  0
VERTEX
  5
5B5
  8
0
  6
CONTINUOUS
 62
     7
 10
596.763957868
 20
1184.6338924839
 30
0.0
  0
VERTEX
  5
5B6
  8
0
  6
CONTINUOUS
 62
     7
 10
596.3836280803
 20
1185.6788364126
 30
0.0
  0
VERTEX
  5
5B7
  8
0
  6
CONTINUOUS
 62
     7
 10
596.0179163317
 20
1186.6836366131
 30
0.0
  0
VERTEX
  5
5B8
  8
0
  6
CONTINUOUS
 62
     7
 10
595.6808669666
 20
1187.6096692754
 30
0.0
  0
VERTEX
  5
5B9
  8
0
  6
CONTINUOUS
 62
     7
 10
595.3854439954
 20
1188.4213355257
 30
0.0
  0
VERTEX
  5
5BA
  8
0
  6
CONTINUOUS
 62
     7
 10
595.1430021027
 20
1189.0874472334
 30
0.0
  0
VERTEX
  5
5BB
  8
0
  6
CONTINUOUS
 62
     7
 10
594.9628470639
 20
1189.5824191047
 30
0.0
  0
VERTEX
  5
5BC
  8
0
  6
CONTINUOUS
 62
     7
 10
594.8519079188
 20
1189.887222357
 30
0.0
  0
VERTEX
  5
5BD
  8
0
  6
CONTINUOUS
 62
     7
 10
594.8144463996
 20
1189.9901446773
 30
0.0
  0
SEQEND
  5
9AE
  8
0
  6
CONTINUOUS
 62
     7
  0
LINE
  5
16D
  8
0
  6
CONTINUOUS
 62
     7
 10
596.763957868
 20
1184.6338924839
 30
0.0
 11
592.7232844929
 21
1183.1632074787
 31
0.0
  0
POLYLINE
  5
16E
  8
0
  6
CONTINUOUS
 62
     7
 66
     1
 10
0.0
 20
0.0
 30
0.0
 70
   128
  0
VERTEX
  5
5BE
  8
0
  6
CONTINUOUS
 62
     7
 10
592.7232844929
 20
1183.1632074787
 30
0.0
  0
VERTEX
  5
5BF
  8
0
  6
CONTINUOUS
 62
     7
 10
592.3429547051
 20
1184.2081514074
 30
0.0
  0
VERTEX
  5
5C0
  8
0
  6
CONTINUOUS
 62
     7
 10
591.9772355059
 20
1185.2129516079
 30
0.0
  0
VERTEX
  5
5C1
  8
0
  6
CONTINUOUS
 62
     7
 10
591.6401935915
 20
1186.1389693691
 30
0.0
  0
VERTEX
  5
5C2
  8
0
  6
CONTINUOUS
 62
     7
 10
591.3447706202
 20
1186.9506505205
 30
0.0
  0
VERTEX
  5
5C3
  8
0
  6
CONTINUOUS
 62
     7
 10
591.102321277
 20
1187.6167622282
 30
0.0
  0
VERTEX
  5
5C4
  8
0
  6
CONTINUOUS
 62
     7
 10
590.9221662382
 20
1188.1117340996
 30
0.0
  0
VERTEX
  5
5C5
  8
0
  6
CONTINUOUS
 62
     7
 10
590.8112270931
 20
1188.4165373518
 30
0.0
  0
VERTEX
  5
5C6
  8
0
  6
CONTINUOUS
 62
     7
 10
590.7737655739
 20
1188.5194596721
 30
0.0
  0
SEQEND
  5
9AF
  8
0
  6
CONTINUOUS
 62
     7
  0
LINE
  5
16F
  8
0
  6
CONTINUOUS
 62
     7
 10
628.2298086385
 20
1098.1821683122
 30
0.0
 11
596.763957868
 21
1184.6338924839
 31
0.0
  0
LINE
  5
170
  8
0
  6
CONTINUOUS
 62
     7
 10
624.1891352633
 20
1096.711483307
 30
0.0
 11
628.2298086385
 21
1098.1821683122
 31
0.0
  0
LINE
  5
171
  8
0
  6
CONTINUOUS
 62
     7
 10
624.1891352633
 20
1096.711483307
 30
0.0
 11
592.7232844929
 21
1183.1632074787
 31
0.0
  0
ARC
  5
172
  8
0
  6
CONTINUOUS
 62
     7
 10
595.3958806277
 20
1188.392661644
 30
0.0
 40
1.70000000000006
 50
20.0
 51
110.0
  0
POLYLINE
  5
173
  8
0
  6
CONTINUOUS
 62
     7
 66
     1
 10
0.0
 20
0.0
 30
0.0
 70
   128
  0
VERTEX
  5
5C7
  8
0
  6
CONTINUOUS
 62
     7
 10
596.9933612446
 20
1188.9740941002
 30
0.0
  0
VERTEX
  5
5C8
  8
0
  6
CONTINUOUS
 62
     7
 10
597.0196468929
 20
1188.9018681719
 30
0.0
  0
VERTEX
  5
5C9
  8
0
  6
CONTINUOUS
 62
     7
 10
597.0974980096
 20
1188.6879769041
 30
0.0
  0
VERTEX
  5
5CA
  8
0
  6
CONTINUOUS
 62
     7
 10
597.2239194611
 20
1188.3406308366
 30
0.0
  0
VERTEX
  5
5CB
  8
0
  6
CONTINUOUS
 62
     7
 10
597.3940609196
 20
1187.87318141
 30
0.0
  0
VERTEX
  5
5CC
  8
0
  6
CONTINUOUS
 62
     7
 10
597.6013733248
 20
1187.3035845234
 30
0.0
  0
VERTEX
  5
5CD
  8
0
  6
CONTINUOUS
 62
     7
 10
597.8378994564
 20
1186.6537448837
 30
0.0
  0
VERTEX
  5
5CE
  8
0
  6
CONTINUOUS
 62
     7
 10
598.0945421556
 20
1185.948621936
 30
0.0
  0
VERTEX
  5
5CF
  8
0
  6
CONTINUOUS
 62
     7
 10
598.3614368538
 20
1185.2153208925
 30
0.0
  0
SEQEND
  5
9B0
  8
0
  6
CONTINUOUS
 62
     7
  0
POLYLINE
  5
174
  8
0
  6
CONTINUOUS
 62
     7
 66
     1
 10
0.0
 20
0.0
 30
0.0
 70
   128
  0
VERTEX
  5
5D0
  8
0
  6
CONTINUOUS
 62
     7
 10
596.763957868
 20
1184.6338924839
 30
0.0
  0
VERTEX
  5
5D1
  8
0
  6
CONTINUOUS
 62
     7
 10
597.0756156544
 20
1184.7473201229
 30
0.0
  0
VERTEX
  5
5D2
  8
0
  6
CONTINUOUS
 62
     7
 10
597.3752929071
 20
1184.8563966228
 30
0.0
  0
VERTEX
  5
5D3
  8
0
  6
CONTINUOUS
 62
     7
 10
597.6514710287
 20
1184.9569198562
 30
0.0
  0
VERTEX
  5
5D4
  8
0
  6
CONTINUOUS
 62
     7
 10
597.8935478429
 20
1185.0450304224
 30
0.0
  0
VERTEX
  5
5D5
  8
0
  6
CONTINUOUS
 62
     7
 10
598.0922175745
 20
1185.1173308565
 30
0.0
  0
VERTEX
  5
5D6
  8
0
  6
CONTINUOUS
 62
     7
 10
598.2398359278
 20
1185.1710644438
 30
0.0
  0
VERTEX
  5
5D7
  8
0
  6
CONTINUOUS
 62
     7
 10
598.3307404617
 20
1185.2041599228
 30
0.0
  0
VERTEX
  5
5D8
  8
0
  6
CONTINUOUS
 62
     7
 10
598.3614368538
 20
1185.2153208925
 30
0.0
  0
SEQEND
  5
9B1
  8
0
  6
CONTINUOUS
 62
     7
  0
LINE
  5
175
  8
0
  6
CONTINUOUS
 62
     7
 10
598.3614368538
 20
1185.2153208925
 30
0.0
 11
629.8272876242
 21
1098.7636041714
 31
0.0
  0
POLYLINE
  5
176
  8
0
  6
CONTINUOUS
 62
     7
 66
     1
 10
0.0
 20
0.0
 30
0.0
 70
   128
  0
VERTEX
  5
5D9
  8
0
  6
CONTINUOUS
 62
     7
 10
628.2298086385
 20
1098.1821683122
 30
0.0
  0
VERTEX
  5
5DA
  8
0
  6
CONTINUOUS
 62
     7
 10
628.5414664248
 20
1098.2956034018
 30
0.0
  0
VERTEX
  5
5DB
  8
0
  6
CONTINUOUS
 62
     7
 10
628.8411436776
 20
1098.4046724512
 30
0.0
  0
VERTEX
  5
5DC
  8
0
  6
CONTINUOUS
 62
     7
 10
629.1173217992
 20
1098.5051956846
 30
0.0
  0
VERTEX
  5
5DD
  8
0
  6
CONTINUOUS
 62
     7
 10
629.3594060639
 20
1098.5933062507
 30
0.0
  0
VERTEX
  5
5DE
  8
0
  6
CONTINUOUS
 62
     7
 10
629.558068345
 20
1098.6656141354
 30
0.0
  0
VERTEX
  5
5DF
  8
0
  6
CONTINUOUS
 62
     7
 10
629.7056941489
 20
1098.7193477227
 30
0.0
  0
VERTEX
  5
5E0
  8
0
  6
CONTINUOUS
 62
     7
 10
629.7965912322
 20
1098.7524357511
 30
0.0
  0
VERTEX
  5
5E1
  8
0
  6
CONTINUOUS
 62
     7
 10
629.8272876242
 20
1098.7636041714
 30
0.0
  0
SEQEND
  5
9B2
  8
0
  6
CONTINUOUS
 62
     7
  0
POLYLINE
  5
177
  8
0
  6
CONTINUOUS
 62
     7
 66
     1
 10
0.0
 20
0.0
 30
0.0
 70
   128
  0
VERTEX
  5
5E2
  8
0
  6
CONTINUOUS
 62
     7
 10
630.1793275574
 20
1092.8259235694
 30
0.0
  0
VERTEX
  5
5E3
  8
0
  6
CONTINUOUS
 62
     7
 10
630.1418660382
 20
1092.9288384392
 30
0.0
  0
VERTEX
  5
5E4
  8
0
  6
CONTINUOUS
 62
     7
 10
630.0309268931
 20
1093.2336416914
 30
0.0
  0
VERTEX
  5
5E5
  8
0
  6
CONTINUOUS
 62
     7
 10
629.8507718543
 20
1093.7286135627
 30
0.0
  0
VERTEX
  5
5E6
  8
0
  6
CONTINUOUS
 62
     7
 10
629.6083299617
 20
1094.394732721
 30
0.0
  0
VERTEX
  5
5E7
  8
0
  6
CONTINUOUS
 62
     7
 10
629.3128995398
 20
1095.2063989712
 30
0.0
  0
VERTEX
  5
5E8
  8
0
  6
CONTINUOUS
 62
     7
 10
628.975865076
 20
1096.1324241831
 30
0.0
  0
VERTEX
  5
5E9
  8
0
  6
CONTINUOUS
 62
     7
 10
628.6101458768
 20
1097.1372169329
 30
0.0
  0
VERTEX
  5
5EA
  8
0
  6
CONTINUOUS
 62
     7
 10
628.2298086385
 20
1098.1821683122
 30
0.0
  0
SEQEND
  5
9B3
  8
0
  6
CONTINUOUS
 62
     7
  0
LINE
  5
178
  8
0
  6
CONTINUOUS
 62
     7
 10
630.1793275574
 20
1092.8259235694
 30
0.0
 11
626.1386541823
 21
1091.3552385642
 31
0.0
  0
POLYLINE
  5
179
  8
0
  6
CONTINUOUS
 62
     7
 66
     1
 10
0.0
 20
0.0
 30
0.0
 70
   128
  0
VERTEX
  5
5EB
  8
0
  6
CONTINUOUS
 62
     7
 10
626.1386541823
 20
1091.3552385642
 30
0.0
  0
VERTEX
  5
5EC
  8
0
  6
CONTINUOUS
 62
     7
 10
626.1011926631
 20
1091.458153434
 30
0.0
  0
VERTEX
  5
5ED
  8
0
  6
CONTINUOUS
 62
     7
 10
625.990253518
 20
1091.7629566862
 30
0.0
  0
VERTEX
  5
5EE
  8
0
  6
CONTINUOUS
 62
     7
 10
625.8100984792
 20
1092.2579285576
 30
0.0
  0
VERTEX
  5
5EF
  8
0
  6
CONTINUOUS
 62
     7
 10
625.5676565865
 20
1092.9240477158
 30
0.0
  0
VERTEX
  5
5F0
  8
0
  6
CONTINUOUS
 62
     7
 10
625.2722261647
 20
1093.7357139661
 30
0.0
  0
VERTEX
  5
5F1
  8
0
  6
CONTINUOUS
 62
     7
 10
624.9351767997
 20
1094.6617391779
 30
0.0
  0
VERTEX
  5
5F2
  8
0
  6
CONTINUOUS
 62
     7
 10
624.5694725016
 20
1095.6665319277
 30
0.0
  0
VERTEX
  5
5F3
  8
0
  6
CONTINUOUS
 62
     7
 10
624.1891352633
 20
1096.711483307
 30
0.0
  0
SEQEND
  5
9B4
  8
0
  6
CONTINUOUS
 62
     7
  0
POLYLINE
  5
17A
  8
0
  6
CONTINUOUS
 62
     7
 66
     1
 10
0.0
 20
0.0
 30
0.0
 70
   128
  0
VERTEX
  5
5F4
  8
0
  6
CONTINUOUS
 62
     7
 10
629.8272876242
 20
1098.7636041714
 30
0.0
  0
VERTEX
  5
5F5
  8
0
  6
CONTINUOUS
 62
     7
 10
630.0941972235
 20
1098.0303031279
 30
0.0
  0
VERTEX
  5
5F6
  8
0
  6
CONTINUOUS
 62
     7
 10
630.3508399228
 20
1097.3251876308
 30
0.0
  0
VERTEX
  5
5F7
  8
0
  6
CONTINUOUS
 62
     7
 10
630.5873511533
 20
1096.6753405406
 30
0.0
  0
VERTEX
  5
5F8
  8
0
  6
CONTINUOUS
 62
     7
 10
630.7946710089
 20
1096.1057511045
 30
0.0
  0
VERTEX
  5
5F9
  8
0
  6
CONTINUOUS
 62
     7
 10
630.9648124675
 20
1095.6383016779
 30
0.0
  0
VERTEX
  5
5FA
  8
0
  6
CONTINUOUS
 62
     7
 10
631.091233919
 20
1095.2909556104
 30
0.0
  0
VERTEX
  5
5FB
  8
0
  6
CONTINUOUS
 62
     7
 10
631.1690924863
 20
1095.0770568921
 30
0.0
  0
VERTEX
  5
5FC
  8
0
  6
CONTINUOUS
 62
     7
 10
631.1953781346
 20
1095.0048309638
 30
0.0
  0
SEQEND
  5
9B5
  8
0
  6
CONTINUOUS
 62
     7
  0
ARC
  5
17B
  8
0
  6
CONTINUOUS
 62
     7
 10
629.5978949603
 20
1094.4233995654
 30
0.0
 40
1.700000000000021
 50
290.0
 51
20.0
  0
POLYLINE
  5
17C
  8
0
  6
CONTINUOUS
 62
     7
 66
     1
 10
0.0
 20
0.0
 30
0.0
 70
   128
  0
VERTEX
  5
5FD
  8
0
  6
CONTINUOUS
 62
     7
 10
602.6690198282
 20
1176.3041433765
 30
0.0
  0
VERTEX
  5
5FE
  8
0
  6
CONTINUOUS
 62
     7
 10
602.485690842
 20
1176.2374308778
 30
0.0
  0
VERTEX
  5
5FF
  8
0
  6
CONTINUOUS
 62
     7
 10
602.3094175557
 20
1176.1732664777
 30
0.0
  0
VERTEX
  5
600
  8
0
  6
CONTINUOUS
 62
     7
 10
602.1469576458
 20
1176.1141386701
 30
0.0
  0
VERTEX
  5
601
  8
0
  6
CONTINUOUS
 62
     7
 10
602.0045546988
 20
1176.0622975303
 30
0.0
  0
VERTEX
  5
602
  8
0
  6
CONTINUOUS
 62
     7
 10
601.8876923422
 20
1176.0197696163
 30
0.0
  0
VERTEX
  5
603
  8
0
  6
CONTINUOUS
 62
     7
 10
601.8008558253
 20
1175.9881642534
 30
0.0
  0
VERTEX
  5
604
  8
0
  6
CONTINUOUS
 62
     7
 10
601.7473830084
 20
1175.9687033369
 30
0.0
  0
VERTEX
  5
605
  8
0
  6
CONTINUOUS
 62
     7
 10
601.7293302516
 20
1175.9621319248
 30
0.0
  0
SEQEND
  5
9B6
  8
0
  6
CONTINUOUS
 62
     7
  0
LINE
  5
17D
  8
0
  6
CONTINUOUS
 62
     7
 10
602.6690198282
 20
1176.3041433765
 30
0.0
 11
627.75720341
 21
1107.3749181701
 31
0.0
  0
POLYLINE
  5
17E
  8
0
  6
CONTINUOUS
 62
     7
 66
     1
 10
0.0
 20
0.0
 30
0.0
 70
   128
  0
VERTEX
  5
606
  8
0
  6
CONTINUOUS
 62
     7
 10
627.75720341
 20
1107.3749181701
 30
0.0
  0
VERTEX
  5
607
  8
0
  6
CONTINUOUS
 62
     7
 10
627.573889325
 20
1107.3081982209
 30
0.0
  0
VERTEX
  5
608
  8
0
  6
CONTINUOUS
 62
     7
 10
627.3976085881
 20
1107.2440338208
 30
0.0
  0
VERTEX
  5
609
  8
0
  6
CONTINUOUS
 62
     7
 10
627.2351412276
 20
1107.1849060132
 30
0.0
  0
VERTEX
  5
60A
  8
0
  6
CONTINUOUS
 62
     7
 10
627.0927457312
 20
1107.133072324
 30
0.0
  0
VERTEX
  5
60B
  8
0
  6
CONTINUOUS
 62
     7
 10
626.975875924
 20
1107.0905369593
 30
0.0
  0
VERTEX
  5
60C
  8
0
  6
CONTINUOUS
 62
     7
 10
626.8890468577
 20
1107.0589315964
 30
0.0
  0
VERTEX
  5
60D
  8
0
  6
CONTINUOUS
 62
     7
 10
626.8355665902
 20
1107.0394706799
 30
0.0
  0
VERTEX
  5
60E
  8
0
  6
CONTINUOUS
 62
     7
 10
626.817521284
 20
1107.0328992678
 30
0.0
  0
SEQEND
  5
9B7
  8
0
  6
CONTINUOUS
 62
     7
  0
LINE
  5
17F
  8
0
  6
CONTINUOUS
 62
     7
 10
601.7518161038
 20
1181.3041535093
 30
0.0
 11
630.9748707513
 21
1181.3041535093
 31
0.0
  0
LINE
  5
180
  8
0
  6
CONTINUOUS
 62
     7
 10
630.9748707513
 20
1176.3041433765
 30
0.0
 11
630.9748707513
 21
1181.3041535093
 31
0.0
  0
LINE
  5
181
  8
0
  6
CONTINUOUS
 62
     7
 10
630.9748707513
 20
1176.3041433765
 30
0.0
 11
602.6690198282
 21
1176.3041433765
 31
0.0
  0
LINE
  5
182
  8
0
  6
CONTINUOUS
 62
     7
 10
630.9748707513
 20
1108.5460525824
 30
0.0
 11
630.9748707513
 21
1176.3041433765
 31
0.0
  0
LINE
  5
183
  8
0
  6
CONTINUOUS
 62
     7
 10
627.75720341
 20
1107.3749181701
 30
0.0
 11
630.9748707513
 21
1108.5460525824
 31
0.0
  0
LINE
  5
184
  8
0
  6
CONTINUOUS
 62
     7
 10
632.9748748044
 20
1179.3041494562
 30
0.0
 11
632.9748748044
 21
1176.3041433765
 31
0.0
  0
LINE
  5
185
  8
0
  6
CONTINUOUS
 62
     7
 10
630.9748707513
 20
1176.3041433765
 30
0.0
 11
632.9748748044
 21
1176.3041433765
 31
0.0
  0
ARC
  5
186
  8
0
  6
CONTINUOUS
 62
     7
 10
630.9748756887
 20
1179.3041492767
 30
0.0
 40
2.0
 50
0.0
 51
90.0
  0
LINE
  5
187
  8
0
  6
CONTINUOUS
 62
     7
 10
632.9748748044
 20
1176.3041433765
 30
0.0
 11
632.9748748044
 21
1108.5460525824
 31
0.0
  0
LINE
  5
188
  8
0
  6
CONTINUOUS
 62
     7
 10
630.9748707513
 20
1108.5460525824
 30
0.0
 11
632.9748748044
 21
1108.5460525824
 31
0.0
  0
POLYLINE
  5
189
  8
0
  6
CONTINUOUS
 62
     7
 66
     1
 10
0.0
 20
0.0
 30
0.0
 70
   128
  0
VERTEX
  5
60F
  8
0
  6
CONTINUOUS
 62
     7
 10
631.6589085559
 20
1103.4741368963
 30
0.0
  0
VERTEX
  5
610
  8
0
  6
CONTINUOUS
 62
     7
 10
631.6485224465
 20
1103.5511908008
 30
0.0
  0
VERTEX
  5
611
  8
0
  6
CONTINUOUS
 62
     7
 10
631.6176621417
 20
1103.7800130321
 30
0.0
  0
VERTEX
  5
612
  8
0
  6
CONTINUOUS
 62
     7
 10
631.5672664145
 20
1104.1536447479
 30
0.0
  0
VERTEX
  5
613
  8
0
  6
CONTINUOUS
 62
     7
 10
631.4988849858
 20
1104.6607387139
 30
0.0
  0
VERTEX
  5
614
  8
0
  6
CONTINUOUS
 62
     7
 10
631.4145742158
 20
1105.2858871295
 30
0.0
  0
VERTEX
  5
615
  8
0
  6
CONTINUOUS
 62
     7
 10
631.3168971041
 20
1106.0100984647
 30
0.0
  0
VERTEX
  5
616
  8
0
  6
CONTINUOUS
 62
     7
 10
631.2088338832
 20
1106.8113562538
 30
0.0
  0
VERTEX
  5
617
  8
0
  6
CONTINUOUS
 62
     7
 10
631.0936628083
 20
1107.6653269006
 30
0.0
  0
VERTEX
  5
618
  8
0
  6
CONTINUOUS
 62
     7
 10
630.9748707513
 20
1108.5460525824
 30
0.0
  0
SEQEND
  5
9B8
  8
0
  6
CONTINUOUS
 62
     7
  0
LINE
  5
18A
  8
0
  6
CONTINUOUS
 62
     7
 10
631.6589085559
 20
1103.4741368963
 30
0.0
 11
630.2881507376
 21
1102.9752162172
 31
0.0
  0
LINE
  5
18B
  8
0
  6
CONTINUOUS
 62
     7
 10
632.9748748044
 20
1108.5460525824
 30
0.0
 11
632.9748748044
 21
1105.3535235001
 31
0.0
  0
ARC
  5
18C
  8
0
  6
CONTINUOUS
 62
     7
 10
630.9748756887
 20
1105.353521734
 30
0.0
 40
2.0
 50
290.0
 51
0.0
  0
POLYLINE
  5
18D
  8
0
  6
CONTINUOUS
 62
     7
 66
     1
 10
0.0
 20
0.0
 30
0.0
 70
   128
  0
VERTEX
  5
619
  8
0
  6
CONTINUOUS
 62
     7
 10
593.0360226134
 20
1178.7010696603
 30
0.0
  0
VERTEX
  5
61A
  8
0
  6
CONTINUOUS
 62
     7
 10
593.0491654376
 20
1178.6036160661
 30
0.0
  0
VERTEX
  5
61B
  8
0
  6
CONTINUOUS
 62
     7
 10
593.0880947212
 20
1178.314995475
 30
0.0
  0
VERTEX
  5
61C
  8
0
  6
CONTINUOUS
 62
     7
 10
593.151305447
 20
1177.8462943508
 30
0.0
  0
VERTEX
  5
61D
  8
0
  6
CONTINUOUS
 62
     7
 10
593.2363761762
 20
1177.2155430986
 30
0.0
  0
VERTEX
  5
61E
  8
0
  6
CONTINUOUS
 62
     7
 10
593.3400286535
 20
1176.4469561054
 30
0.0
  0
VERTEX
  5
61F
  8
0
  6
CONTINUOUS
 62
     7
 10
593.4582917193
 20
1175.5700823738
 30
0.0
  0
VERTEX
  5
620
  8
0
  6
CONTINUOUS
 62
     7
 10
593.5866130689
 20
1174.6186283304
 30
0.0
  0
VERTEX
  5
621
  8
0
  6
CONTINUOUS
 62
     7
 10
593.720060418
 20
1173.6291465236
 30
0.0
  0
SEQEND
  5
9B9
  8
0
  6
CONTINUOUS
 62
     7
  0
LINE
  5
18E
  8
0
  6
CONTINUOUS
 62
     7
 10
593.720060418
 20
1173.6291465236
 30
0.0
 11
591.7200638155
 21
1173.6291465236
 31
0.0
  0
LINE
  5
18F
  8
0
  6
CONTINUOUS
 62
     7
 10
591.7200638155
 20
1173.6291465236
 30
0.0
 11
591.7200638155
 21
1176.8216905071
 31
0.0
  0
ARC
  5
190
  8
0
  6
CONTINUOUS
 62
     7
 10
593.7200636605
 20
1176.8216830934
 30
0.0
 40
2.0
 50
110.0
 51
180.0
  0
LINE
  5
191
  8
0
  6
CONTINUOUS
 62
     7
 10
593.0360226134
 20
1178.7010696603
 30
0.0
 11
594.193969498
 21
1179.1225192024
 31
0.0
  0
LINE
  5
192
  8
0
  6
CONTINUOUS
 62
     7
 10
593.720060418
 20
1173.6291465236
 30
0.0
 11
593.720060418
 21
1105.8710557296
 31
0.0
  0
LINE
  5
193
  8
0
  6
CONTINUOUS
 62
     7
 10
593.720060418
 20
1105.8710557296
 30
0.0
 11
591.7200638155
 21
1105.8710557296
 31
0.0
  0
LINE
  5
194
  8
0
  6
CONTINUOUS
 62
     7
 10
591.7200638155
 20
1105.8710557296
 30
0.0
 11
591.7200638155
 21
1173.6291465236
 31
0.0
  0
ARC
  5
195
  8
0
  6
CONTINUOUS
 62
     7
 10
599.5200636605
 20
1134.3710555507
 30
0.0
 40
0.5
 50
180.0
 51
270.0
  0
LINE
  5
196
  8
0
  6
CONTINUOUS
 62
     7
 10
599.5200617412
 20
1133.8710528685
 30
0.0
 11
599.9200610617
 21
1133.8710528685
 31
0.0
  0
ARC
  5
197
  8
0
  6
CONTINUOUS
 62
     7
 10
599.9200636605
 20
1134.3710555507
 30
0.0
 40
0.5
 50
270.0
 51
0.0
  0
LINE
  5
198
  8
0
  6
CONTINUOUS
 62
     7
 10
600.420062075
 20
1134.3710538818
 30
0.0
 11
600.420062075
 21
1141.3710531666
 31
0.0
  0
ARC
  5
199
  8
0
  6
CONTINUOUS
 62
     7
 10
599.9200636605
 20
1141.3710555507
 30
0.0
 40
0.5
 50
0.0
 51
90.0
  0
LINE
  5
19A
  8
0
  6
CONTINUOUS
 62
     7
 10
599.9200610617
 20
1141.8710616304
 30
0.0
 11
599.5200617412
 21
1141.8710616304
 31
0.0
  0
ARC
  5
19B
  8
0
  6
CONTINUOUS
 62
     7
 10
599.5200636605
 20
1141.3710555507
 30
0.0
 40
0.5
 50
90.0
 51
180.0
  0
LINE
  5
19C
  8
0
  6
CONTINUOUS
 62
     7
 10
599.020060728
 20
1141.3710531666
 30
0.0
 11
599.020060728
 21
1134.3710538818
 31
0.0
  0
LINE
  5
19D
  8
0
  6
CONTINUOUS
 62
     7
 10
591.7200638155
 20
1102.8710571005
 30
0.0
 11
591.7200638155
 21
1105.8710557296
 31
0.0
  0
LINE
  5
19E
  8
0
  6
CONTINUOUS
 62
     7
 10
593.720060418
 20
1105.8710557296
 30
0.0
 11
593.720060418
 21
1100.8710530473
 31
0.0
  0
ARC
  5
19F
  8
0
  6
CONTINUOUS
 62
     7
 10
593.7200636605
 20
1102.8710555507
 30
0.0
 40
2.0
 50
180.0
 51
270.0
  0
LINE
  5
1A0
  8
0
  6
CONTINUOUS
 62
     7
 10
622.675177286
 20
1100.8710530473
 30
0.0
 11
593.720060418
 21
1100.8710530473
 31
0.0
  0
LINE
  5
1A1
  8
0
  6
CONTINUOUS
 62
     7
 10
599.5200617412
 20
1141.8710616304
 30
0.0
 11
599.5200617412
 21
1141.3710531666
 31
0.0
  0
LINE
  5
1A2
  8
0
  6
CONTINUOUS
 62
     7
 10
599.020060728
 20
1141.3710531666
 30
0.0
 11
599.5200617412
 21
1141.3710531666
 31
0.0
  0
LINE
  5
1A3
  8
0
  6
CONTINUOUS
 62
     7
 10
599.5200617412
 20
1141.3710531666
 30
0.0
 11
599.5200617412
 21
1134.3710538818
 31
0.0
  0
LINE
  5
1A4
  8
0
  6
CONTINUOUS
 62
     7
 10
599.020060728
 20
1134.3710538818
 30
0.0
 11
599.5200617412
 21
1134.3710538818
 31
0.0
  0
LINE
  5
1A5
  8
0
  6
CONTINUOUS
 62
     7
 10
599.9200610617
 20
1141.3710531666
 30
0.0
 11
599.9200610617
 21
1141.8710616304
 31
0.0
  0
LINE
  5
1A6
  8
0
  6
CONTINUOUS
 62
     7
 10
599.9200610617
 20
1141.3710531666
 30
0.0
 11
599.5200617412
 21
1141.3710531666
 31
0.0
  0
LINE
  5
1A7
  8
0
  6
CONTINUOUS
 62
     7
 10
599.9200610617
 20
1141.3710531666
 30
0.0
 11
600.420062075
 21
1141.3710531666
 31
0.0
  0
LINE
  5
1A8
  8
0
  6
CONTINUOUS
 62
     7
 10
599.9200610617
 20
1134.3710538818
 30
0.0
 11
599.9200610617
 21
1141.3710531666
 31
0.0
  0
LINE
  5
1A9
  8
0
  6
CONTINUOUS
 62
     7
 10
599.9200610617
 20
1134.3710538818
 30
0.0
 11
600.420062075
 21
1134.3710538818
 31
0.0
  0
LINE
  5
1AA
  8
0
  6
CONTINUOUS
 62
     7
 10
599.5200617412
 20
1133.8710528685
 30
0.0
 11
599.5200617412
 21
1134.3710538818
 31
0.0
  0
LINE
  5
1AB
  8
0
  6
CONTINUOUS
 62
     7
 10
599.5200617412
 20
1134.3710538818
 30
0.0
 11
599.9200610617
 21
1134.3710538818
 31
0.0
  0
LINE
  5
1AC
  8
0
  6
CONTINUOUS
 62
     7
 10
599.9200610617
 20
1134.3710538818
 30
0.0
 11
599.9200610617
 21
1133.8710528685
 31
0.0
  0
LINE
  5
1AD
  8
0
  6
CONTINUOUS
 62
     7
 10
564.5845724443
 20
1208.3591488077
 30
0.0
 11
564.8852406243
 21
1208.3395537807
 31
0.0
  0
POLYLINE
  5
1AE
  8
0
  6
CONTINUOUS
 62
     7
 66
     1
 10
0.0
 20
0.0
 30
0.0
 70
   128
  0
VERTEX
  5
622
  8
0
  6
CONTINUOUS
 62
     7
 10
557.0798224012
 20
1208.3591488077
 30
0.0
  0
VERTEX
  5
623
  8
0
  6
CONTINUOUS
 62
     7
 10
560.9395696024
 20
1208.3459910824
 30
0.0
  0
VERTEX
  5
624
  8
0
  6
CONTINUOUS
 62
     7
 10
564.5845724443
 20
1208.3591488077
 30
0.0
  0
SEQEND
  5
9BA
  8
0
  6
CONTINUOUS
 62
     7
  0
LINE
  5
1AF
  8
0
  6
CONTINUOUS
 62
     7
 10
556.740962545
 20
1208.3395537807
 30
0.0
 11
557.0798224012
 21
1208.3591488077
 31
0.0
  0
ARC
  5
1B0
  8
0
  6
CONTINUOUS
 62
     7
 10
557.4249056356
 20
1203.3506241534
 30
0.0
 40
5.035593011497499
 50
97.80614079
 51
179.7674815509
  0
LINE
  5
1B1
  8
0
  6
CONTINUOUS
 62
     7
 10
552.3893540899
 20
1181.3710597231
 30
0.0
 11
552.3893540899
 21
1203.3710596039
 31
0.0
  0
LINE
  5
1B2
  8
0
  6
CONTINUOUS
 62
     7
 10
409.3078939418
 20
1203.3710596039
 30
0.0
 11
409.3078939418
 21
1181.3710597231
 31
0.0
  0
POLYLINE
  5
1B3
  8
0
  6
CONTINUOUS
 62
     7
 66
     1
 10
0.0
 20
0.0
 30
0.0
 70
   128
  0
VERTEX
  5
625
  8
0
  6
CONTINUOUS
 62
     7
 10
407.3454184631
 20
1208.3395537807
 30
0.0
  0
VERTEX
  5
626
  8
0
  6
CONTINUOUS
 62
     7
 10
407.732513378
 20
1208.1357655002
 30
0.0
  0
VERTEX
  5
627
  8
0
  6
CONTINUOUS
 62
     7
 10
408.474226127
 20
1207.1883198692
 30
0.0
  0
VERTEX
  5
628
  8
0
  6
CONTINUOUS
 62
     7
 10
408.9676631788
 20
1205.9303787424
 30
0.0
  0
VERTEX
  5
629
  8
0
  6
CONTINUOUS
 62
     7
 10
409.2154843906
 20
1204.7330704405
 30
0.0
  0
VERTEX
  5
62A
  8
0
  6
CONTINUOUS
 62
     7
 10
409.3078939418
 20
1203.3710596039
 30
0.0
  0
SEQEND
  5
9BB
  8
0
  6
CONTINUOUS
 62
     7
  0
LINE
  5
1B4
  8
0
  6
CONTINUOUS
 62
     7
 10
407.2022853593
 20
1208.3591488077
 30
0.0
 11
407.3454184631
 21
1208.3395537807
 31
0.0
  0
POLYLINE
  5
1B5
  8
0
  6
CONTINUOUS
 62
     7
 66
     1
 10
0.0
 20
0.0
 30
0.0
 70
   128
  0
VERTEX
  5
62B
  8
0
  6
CONTINUOUS
 62
     7
 10
404.4553606013
 20
1208.3591488077
 30
0.0
  0
VERTEX
  5
62C
  8
0
  6
CONTINUOUS
 62
     7
 10
405.6821434001
 20
1208.3459910824
 30
0.0
  0
VERTEX
  5
62D
  8
0
  6
CONTINUOUS
 62
     7
 10
407.2022853593
 20
1208.3591488077
 30
0.0
  0
SEQEND
  5
9BC
  8
0
  6
CONTINUOUS
 62
     7
  0
LINE
  5
1B6
  8
0
  6
CONTINUOUS
 62
     7
 10
404.3644039134
 20
1208.3395537807
 30
0.0
 11
404.4553606013
 21
1208.3591488077
 31
0.0
  0
LINE
  5
1B7
  8
0
  6
CONTINUOUS
 62
     7
 10
568.833474646
 20
1181.3710597231
 30
0.0
 11
588.1200624803
 21
1181.3710597231
 31
0.0
  0
LINE
  5
1B8
  8
0
  6
CONTINUOUS
 62
     7
 10
409.3078939418
 20
1181.3710597231
 30
0.0
 11
552.3893540899
 21
1181.3710597231
 31
0.0
  0
LINE
  5
1B9
  8
0
  6
CONTINUOUS
 62
     7
 10
423.6200643877
 20
1241.3710621072
 30
0.0
 11
567.0200629333
 21
1241.3710621072
 31
0.0
  0
ARC
  5
1BA
  8
0
  6
CONTINUOUS
 62
     7
 10
558.7148108665
 20
1208.2326799865
 30
0.0
 40
1.976739538764274
 50
176.9007527883
 51
252.0500479031
  0
POLYLINE
  5
1BB
  8
0
  6
CONTINUOUS
 62
     7
 66
     1
 10
0.0
 20
0.0
 30
0.0
 70
   128
  0
VERTEX
  5
62E
  8
0
  6
CONTINUOUS
 62
     7
 10
558.1056071619
 20
1206.35215611
 30
0.0
  0
VERTEX
  5
62F
  8
0
  6
CONTINUOUS
 62
     7
 10
557.2562745014
 20
1206.2298771812
 30
0.0
  0
VERTEX
  5
630
  8
0
  6
CONTINUOUS
 62
     7
 10
555.6823766033
 20
1205.6614127828
 30
0.0
  0
VERTEX
  5
631
  8
0
  6
CONTINUOUS
 62
     7
 10
554.669134895
 20
1204.9066540672
 30
0.0
  0
VERTEX
  5
632
  8
0
  6
CONTINUOUS
 62
     7
 10
554.1693126956
 20
1204.188269086
 30
0.0
  0
VERTEX
  5
633
  8
0
  6
CONTINUOUS
 62
     7
 10
553.9992792705
 20
1203.6047992183
 30
0.0
  0
VERTEX
  5
634
  8
0
  6
CONTINUOUS
 62
     7
 10
553.9843781093
 20
1203.3710596039
 30
0.0
  0
SEQEND
  5
9BD
  8
0
  6
CONTINUOUS
 62
     7
  0
LINE
  5
1BC
  8
0
  6
CONTINUOUS
 62
     7
 10
552.3893540899
 20
1203.3710596039
 30
0.0
 11
553.9843781093
 21
1203.3710596039
 31
0.0
  0
LINE
  5
1BD
  8
0
  6
CONTINUOUS
 62
     7
 10
557.6193636457
 20
1203.3710596039
 30
0.0
 11
553.9843781093
 21
1203.3710596039
 31
0.0
  0
ARC
  5
1BE
  8
0
  6
CONTINUOUS
 62
     7
 10
563.2187967533
 20
1203.9879455454
 30
0.0
 40
5.63331158304778
 50
155.1853632483
 51
186.2868857108
  0
LINE
  5
1BF
  8
0
  6
CONTINUOUS
 62
     7
 10
557.6193636457
 20
1181.3710597231
 30
0.0
 11
557.6193636457
 21
1203.3710596039
 31
0.0
  0
LINE
  5
1C0
  8
0
  6
CONTINUOUS
 62
     7
 10
553.9843781093
 20
1203.3710596039
 30
0.0
 11
553.9843781093
 21
1181.3710597231
 31
0.0
  0
LINE
  5
1C1
  8
0
  6
CONTINUOUS
 62
     7
 10
557.6193636457
 20
1181.3710597231
 30
0.0
 11
553.9843781093
 21
1181.3710597231
 31
0.0
  0
LINE
  5
1C2
  8
0
  6
CONTINUOUS
 62
     7
 10
557.6193636457
 20
1203.3710596039
 30
0.0
 11
560.2883069018
 21
1203.3710596039
 31
0.0
  0
LINE
  5
1C3
  8
0
  6
CONTINUOUS
 62
     7
 10
558.3133069972
 20
1206.3639131262
 30
0.0
 11
558.1056071619
 21
1206.35215611
 31
0.0
  0
ARC
  5
1C4
  8
0
  6
CONTINUOUS
 62
     7
 10
557.5490746271
 20
1203.7115089194
 30
0.0
 40
2.760307807347572
 50
352.9152444829
 51
73.9268185532
  0
LINE
  5
1C5
  8
0
  6
CONTINUOUS
 62
     7
 10
560.2883069018
 20
1203.3710596039
 30
0.0
 11
560.2883069018
 21
1181.3710597231
 31
0.0
  0
LINE
  5
1C6
  8
0
  6
CONTINUOUS
 62
     7
 10
560.2883069018
 20
1181.3710597231
 30
0.0
 11
557.6193636457
 21
1181.3710597231
 31
0.0
  0
LINE
  5
1C7
  8
0
  6
CONTINUOUS
 62
     7
 10
553.9843781093
 20
1181.3710597231
 30
0.0
 11
552.3893540899
 21
1181.3710597231
 31
0.0
  0
LINE
  5
1C8
  8
0
  6
CONTINUOUS
 62
     7
 10
567.9547978739
 20
1203.3710596039
 30
0.0
 11
560.2883069018
 21
1203.3710596039
 31
0.0
  0
LINE
  5
1C9
  8
0
  6
CONTINUOUS
 62
     7
 10
567.9547978739
 20
1181.3710597231
 30
0.0
 11
567.9547978739
 21
1203.3710596039
 31
0.0
  0
POLYLINE
  5
1CA
  8
0
  6
CONTINUOUS
 62
     7
 66
     1
 10
0.0
 20
0.0
 30
0.0
 70
   128
  0
VERTEX
  5
635
  8
0
  6
CONTINUOUS
 62
     7
 10
562.2830731968
 20
1196.8710538818
 30
0.0
  0
VERTEX
  5
636
  8
0
  6
CONTINUOUS
 62
     7
 10
562.4072222213
 20
1195.9318336918
 30
0.0
  0
VERTEX
  5
637
  8
0
  6
CONTINUOUS
 62
     7
 10
562.7629054884
 20
1195.1194521858
 30
0.0
  0
VERTEX
  5
638
  8
0
  6
CONTINUOUS
 62
     7
 10
563.3020742039
 20
1194.5436266138
 30
0.0
  0
VERTEX
  5
639
  8
0
  6
CONTINUOUS
 62
     7
 10
563.9519212941
 20
1194.2821410372
 30
0.0
  0
VERTEX
  5
63A
  8
0
  6
CONTINUOUS
 62
     7
 10
564.6246789197
 20
1194.3703112079
 30
0.0
  0
VERTEX
  5
63B
  8
0
  6
CONTINUOUS
 62
     7
 10
565.2294872502
 20
1194.7962161972
 30
0.0
  0
VERTEX
  5
63C
  8
0
  6
CONTINUOUS
 62
     7
 10
565.68465812
 20
1195.5023375227
 30
0.0
  0
VERTEX
  5
63D
  8
0
  6
CONTINUOUS
 62
     7
 10
565.9287242392
 20
1196.3933077528
 30
0.0
  0
VERTEX
  5
63E
  8
0
  6
CONTINUOUS
 62
     7
 10
565.9287242392
 20
1197.3488000108
 30
0.0
  0
VERTEX
  5
63F
  8
0
  6
CONTINUOUS
 62
     7
 10
565.68465812
 20
1198.2397851421
 30
0.0
  0
VERTEX
  5
640
  8
0
  6
CONTINUOUS
 62
     7
 10
565.2294872502
 20
1198.9459064676
 30
0.0
  0
VERTEX
  5
641
  8
0
  6
CONTINUOUS
 62
     7
 10
564.6246789197
 20
1199.3717965557
 30
0.0
  0
VERTEX
  5
642
  8
0
  6
CONTINUOUS
 62
     7
 10
563.9519212941
 20
1199.4599667265
 30
0.0
  0
VERTEX
  5
643
  8
0
  6
CONTINUOUS
 62
     7
 10
563.3020742039
 20
1199.1984811498
 30
0.0
  0
VERTEX
  5
644
  8
0
  6
CONTINUOUS
 62
     7
 10
562.7629054884
 20
1198.622670479
 30
0.0
  0
VERTEX
  5
645
  8
0
  6
CONTINUOUS
 62
     7
 10
562.4072222213
 20
1197.810288973
 30
0.0
  0
VERTEX
  5
646
  8
0
  6
CONTINUOUS
 62
     7
 10
562.2830731968
 20
1196.8710538818
 30
0.0
  0
SEQEND
  5
9BE
  8
0
  6
CONTINUOUS
 62
     7
  0
LINE
  5
1CB
  8
0
  6
CONTINUOUS
 62
     7
 10
567.9547978739
 20
1181.3710597231
 30
0.0
 11
560.2883069018
 21
1181.3710597231
 31
0.0
  0
POLYLINE
  5
1CC
  8
0
  6
CONTINUOUS
 62
     7
 66
     1
 10
0.0
 20
0.0
 30
0.0
 70
   128
  0
VERTEX
  5
647
  8
0
  6
CONTINUOUS
 62
     7
 10
565.9797979692
 20
1206.3639131262
 30
0.0
  0
VERTEX
  5
648
  8
0
  6
CONTINUOUS
 62
     7
 10
562.2123671869
 20
1206.3560155107
 30
0.0
  0
VERTEX
  5
649
  8
0
  6
CONTINUOUS
 62
     7
 10
558.3133069972
 20
1206.3639131262
 30
0.0
  0
SEQEND
  5
9BF
  8
0
  6
CONTINUOUS
 62
     7
  0
ARC
  5
1CD
  8
0
  6
CONTINUOUS
 62
     7
 10
565.2155586883
 20
1203.7115043589
 30
0.0
 40
2.760314102945633
 50
352.9153561149
 51
73.9267069213
  0
ARC
  5
1CE
  8
0
  6
CONTINUOUS
 62
     7
 10
558.8913285288
 20
1208.1001518694
 30
0.0
 40
1.829927283913035
 50
171.8633777359
 51
251.586577904
  0
ARC
  5
1CF
  8
0
  6
CONTINUOUS
 62
     7
 10
566.4292279338
 20
1208.163633348
 30
0.0
 40
1.854987916360679
 50
173.9497955291
 51
255.9787418519
  0
POLYLINE
  5
1D0
  8
0
  6
CONTINUOUS
 62
     7
 66
     1
 10
0.0
 20
0.0
 30
0.0
 70
   128
  0
VERTEX
  5
64A
  8
0
  6
CONTINUOUS
 62
     7
 10
563.8387097219
 20
1199.4401034786
 30
0.0
  0
VERTEX
  5
64B
  8
0
  6
CONTINUOUS
 62
     7
 10
564.0589935879
 20
1199.3717965557
 30
0.0
  0
VERTEX
  5
64C
  8
0
  6
CONTINUOUS
 62
     7
 10
564.6638019184
 20
1198.9459064676
 30
0.0
  0
VERTEX
  5
64D
  8
0
  6
CONTINUOUS
 62
     7
 10
565.1189727882
 20
1198.2397851421
 30
0.0
  0
VERTEX
  5
64E
  8
0
  6
CONTINUOUS
 62
     7
 10
565.3630389074
 20
1197.3488000108
 30
0.0
  0
VERTEX
  5
64F
  8
0
  6
CONTINUOUS
 62
     7
 10
565.3630389074
 20
1196.3933077528
 30
0.0
  0
VERTEX
  5
650
  8
0
  6
CONTINUOUS
 62
     7
 10
565.1189727882
 20
1195.5023375227
 30
0.0
  0
VERTEX
  5
651
  8
0
  6
CONTINUOUS
 62
     7
 10
564.6638019184
 20
1194.7962161972
 30
0.0
  0
VERTEX
  5
652
  8
0
  6
CONTINUOUS
 62
     7
 10
564.0589935879
 20
1194.3703112079
 30
0.0
  0
VERTEX
  5
653
  8
0
  6
CONTINUOUS
 62
     7
 10
563.8387097219
 20
1194.302004285
 30
0.0
  0
SEQEND
  5
9C0
  8
0
  6
CONTINUOUS
 62
     7
  0
LINE
  5
1D1
  8
0
  6
CONTINUOUS
 62
     7
 10
566.1077765921
 20
1206.3557472898
 30
0.0
 11
565.9797979692
 21
1206.3639131262
 31
0.0
  0
LINE
  5
1D2
  8
0
  6
CONTINUOUS
 62
     7
 10
568.833474646
 20
1181.3710597231
 30
0.0
 11
567.9547978739
 21
1181.3710597231
 31
0.0
  0
ARC
  5
1D3
  8
0
  6
CONTINUOUS
 62
     7
 10
405.0809106475
 20
1203.3442237646
 30
0.0
 40
3.040417954082189
 50
0.5057200406
 51
81.6169136706
  0
ARC
  5
1D4
  8
0
  6
CONTINUOUS
 62
     7
 10
405.3242245247
 20
1208.3635788583
 30
0.0
 40
2.021336721297148
 50
275.6770122184
 51
359.3189813732
  0
LINE
  5
1D5
  8
0
  6
CONTINUOUS
 62
     7
 10
408.1212101678
 20
1203.3710596039
 30
0.0
 11
409.3078939418
 21
1203.3710596039
 31
0.0
  0
ARC
  5
1D6
  8
0
  6
CONTINUOUS
 62
     7
 10
408.1784737088
 20
1203.938230162
 30
0.0
 40
3.587803478371632
 50
137.7153428304
 51
189.0956412684
  0
LINE
  5
1D7
  8
0
  6
CONTINUOUS
 62
     7
 10
408.1212101678
 20
1203.3710596039
 30
0.0
 11
404.635783861
 21
1203.3710596039
 31
0.0
  0
LINE
  5
1D8
  8
0
  6
CONTINUOUS
 62
     7
 10
408.1212101678
 20
1181.3710597231
 30
0.0
 11
408.1212101678
 21
1203.3710596039
 31
0.0
  0
LINE
  5
1D9
  8
0
  6
CONTINUOUS
 62
     7
 10
409.3078939418
 20
1181.3710597231
 30
0.0
 11
408.1212101678
 21
1181.3710597231
 31
0.0
  0
LINE
  5
1DA
  8
0
  6
CONTINUOUS
 62
     7
 10
404.635783861
 20
1203.3710596039
 30
0.0
 11
404.635783861
 21
1181.3710597231
 31
0.0
  0
LINE
  5
1DB
  8
0
  6
CONTINUOUS
 62
     7
 10
408.1212101678
 20
1181.3710597231
 30
0.0
 11
404.635783861
 21
1181.3710597231
 31
0.0
  0
LINE
  5
1DC
  8
0
  6
CONTINUOUS
 62
     7
 10
402.7385456661
 20
1203.3710596039
 30
0.0
 11
404.635783861
 21
1203.3710596039
 31
0.0
  0
ARC
  5
1DD
  8
0
  6
CONTINUOUS
 62
     7
 10
405.6969273647
 20
1203.4166683644
 30
0.0
 40
2.958733248093402
 50
95.0507602961
 51
180.8832472455
  0
LINE
  5
1DE
  8
0
  6
CONTINUOUS
 62
     7
 10
405.5241761903
 20
1206.35215611
 30
0.0
 11
405.4364456037
 21
1206.3639131262
 31
0.0
  0
LINE
  5
1DF
  8
0
  6
CONTINUOUS
 62
     7
 10
402.7385456661
 20
1181.3710597231
 30
0.0
 11
402.7385456661
 21
1203.3710596039
 31
0.0
  0
LINE
  5
1E0
  8
0
  6
CONTINUOUS
 62
     7
 10
404.635783861
 20
1181.3710597231
 30
0.0
 11
402.7385456661
 21
1181.3710597231
 31
0.0
  0
LINE
  5
1E1
  8
0
  6
CONTINUOUS
 62
     7
 10
402.7385456661
 20
1203.3710596039
 30
0.0
 11
399.9324185947
 21
1203.3710596039
 31
0.0
  0
ARC
  5
1E2
  8
0
  6
CONTINUOUS
 62
     7
 10
402.8907915382
 20
1203.4166762566
 30
0.0
 40
2.958724615740715
 50
95.0506048675
 51
180.883402674
  0
POLYLINE
  5
1E3
  8
0
  6
CONTINUOUS
 62
     7
 66
     1
 10
0.0
 20
0.0
 30
0.0
 70
   128
  0
VERTEX
  5
654
  8
0
  6
CONTINUOUS
 62
     7
 10
405.4364456037
 20
1206.3639131262
 30
0.0
  0
VERTEX
  5
655
  8
0
  6
CONTINUOUS
 62
     7
 10
403.9434833626
 20
1206.3560155107
 30
0.0
  0
VERTEX
  5
656
  8
0
  6
CONTINUOUS
 62
     7
 10
402.6303185324
 20
1206.3639131262
 30
0.0
  0
SEQEND
  5
9C1
  8
0
  6
CONTINUOUS
 62
     7
  0
ARC
  5
1E4
  8
0
  6
CONTINUOUS
 62
     7
 10
405.2458537109
 20
1208.3116191095
 30
0.0
 40
1.957008908294445
 50
275.5888593234
 51
1.3916742474
  0
LINE
  5
1E5
  8
0
  6
CONTINUOUS
 62
     7
 10
399.9324185947
 20
1203.3710596039
 30
0.0
 11
399.9324185947
 21
1181.3710597231
 31
0.0
  0
POLYLINE
  5
1E6
  8
0
  6
CONTINUOUS
 62
     7
 66
     1
 10
0.0
 20
0.0
 30
0.0
 70
   128
  0
VERTEX
  5
657
  8
0
  6
CONTINUOUS
 62
     7
 10
400.6625531415
 20
1196.8710538818
 30
0.0
  0
VERTEX
  5
658
  8
0
  6
CONTINUOUS
 62
     7
 10
400.7079942325
 20
1195.9318336918
 30
0.0
  0
VERTEX
  5
659
  8
0
  6
CONTINUOUS
 62
     7
 10
400.8381782273
 20
1195.1194521858
 30
0.0
  0
VERTEX
  5
65A
  8
0
  6
CONTINUOUS
 62
     7
 10
401.0355292062
 20
1194.5436266138
 30
0.0
  0
VERTEX
  5
65B
  8
0
  6
CONTINUOUS
 62
     7
 10
401.2733889917
 20
1194.2821410372
 30
0.0
  0
VERTEX
  5
65C
  8
0
  6
CONTINUOUS
 62
     7
 10
401.519638131
 20
1194.3703112079
 30
0.0
  0
VERTEX
  5
65D
  8
0
  6
CONTINUOUS
 62
     7
 10
401.7410097817
 20
1194.7962161972
 30
0.0
  0
VERTEX
  5
65E
  8
0
  6
CONTINUOUS
 62
     7
 10
401.907619665
 20
1195.5023375227
 30
0.0
  0
VERTEX
  5
65F
  8
0
  6
CONTINUOUS
 62
     7
 10
401.9969521264
 20
1196.3933077528
 30
0.0
  0
VERTEX
  5
660
  8
0
  6
CONTINUOUS
 62
     7
 10
401.9969521264
 20
1197.3488000108
 30
0.0
  0
VERTEX
  5
661
  8
0
  6
CONTINUOUS
 62
     7
 10
401.907619665
 20
1198.2397851421
 30
0.0
  0
VERTEX
  5
662
  8
0
  6
CONTINUOUS
 62
     7
 10
401.7410097817
 20
1198.9459064676
 30
0.0
  0
VERTEX
  5
663
  8
0
  6
CONTINUOUS
 62
     7
 10
401.519638131
 20
1199.3717965557
 30
0.0
  0
VERTEX
  5
664
  8
0
  6
CONTINUOUS
 62
     7
 10
401.2733889917
 20
1199.4599667265
 30
0.0
  0
VERTEX
  5
665
  8
0
  6
CONTINUOUS
 62
     7
 10
401.0355292062
 20
1199.1984811498
 30
0.0
  0
VERTEX
  5
666
  8
0
  6
CONTINUOUS
 62
     7
 10
400.8381782273
 20
1198.622670479
 30
0.0
  0
VERTEX
  5
667
  8
0
  6
CONTINUOUS
 62
     7
 10
400.7079942325
 20
1197.810288973
 30
0.0
  0
VERTEX
  5
668
  8
0
  6
CONTINUOUS
 62
     7
 10
400.6625531415
 20
1196.8710538818
 30
0.0
  0
SEQEND
  5
9C2
  8
0
  6
CONTINUOUS
 62
     7
  0
LINE
  5
1E7
  8
0
  6
CONTINUOUS
 62
     7
 10
402.7385456661
 20
1181.3710597231
 30
0.0
 11
399.9324185947
 21
1181.3710597231
 31
0.0
  0
ARC
  5
1E8
  8
0
  6
CONTINUOUS
 62
     7
 10
402.4706166024
 20
1208.3422933077
 30
0.0
 40
1.984815570578114
 50
274.6151132941
 51
0.4865744873
  0
ARC
  5
1E9
  8
0
  6
CONTINUOUS
 62
     7
 10
407.8865394898
 20
1197.0862609955
 30
0.0
 40
6.454837928814445
 50
162.7555741343
 51
181.910620376
  0
ARC
  5
1EA
  8
0
  6
CONTINUOUS
 62
     7
 10
407.8865263106
 20
1196.6558583887
 30
0.0
 40
6.454824369471374
 50
178.0894788156
 51
197.2444327349
  0
POLYLINE
  5
1EB
  8
0
  6
CONTINUOUS
 62
     7
 66
     1
 10
0.0
 20
0.0
 30
0.0
 70
   128
  0
VERTEX
  5
669
  8
0
  6
CONTINUOUS
 62
     7
 10
402.5745732883
 20
1206.35215611
 30
0.0
  0
VERTEX
  5
66A
  8
0
  6
CONTINUOUS
 62
     7
 10
402.9360531071
 20
1206.4127442314
 30
0.0
  0
VERTEX
  5
66B
  8
0
  6
CONTINUOUS
 62
     7
 10
403.1898347834
 20
1206.500348158
 30
0.0
  0
SEQEND
  5
9C3
  8
0
  6
CONTINUOUS
 62
     7
  0
LINE
  5
1EC
  8
0
  6
CONTINUOUS
 62
     7
 10
399.9324185947
 20
1181.3710597231
 30
0.0
 11
399.8301966289
 21
1181.3710597231
 31
0.0
  0
LINE
  5
1ED
  8
0
  6
CONTINUOUS
 62
     7
 10
453.3624431292
 20
781.3710537626
 30
0.0
 11
454.4268032709
 21
781.3710537626
 31
0.0
  0
LINE
  5
1EE
  8
0
  6
CONTINUOUS
 62
     7
 10
447.039332817
 20
781.3710537626
 30
0.0
 11
453.3624431292
 21
781.3710537626
 31
0.0
  0
LINE
  5
1EF
  8
0
  6
CONTINUOUS
 62
     7
 10
440.9136926929
 20
781.3710537626
 30
0.0
 11
447.039332817
 21
781.3710537626
 31
0.0
  0
LINE
  5
1F0
  8
0
  6
CONTINUOUS
 62
     7
 10
440.0468027393
 20
781.3710537626
 30
0.0
 11
440.9136926929
 21
781.3710537626
 31
0.0
  0
LINE
  5
1F1
  8
0
  6
CONTINUOUS
 62
     7
 10
447.039332817
 20
781.3710537626
 30
0.0
 11
447.039332817
 21
776.0710534527
 31
0.0
  0
LINE
  5
1F2
  8
0
  6
CONTINUOUS
 62
     7
 10
453.3624431292
 20
781.3710537626
 30
0.0
 11
453.3624431292
 21
776.0710534527
 31
0.0
  0
LINE
  5
1F3
  8
0
  6
CONTINUOUS
 62
     7
 10
447.039332817
 20
776.0710534527
 30
0.0
 11
453.3624431292
 21
776.0710534527
 31
0.0
  0
LINE
  5
1F4
  8
0
  6
CONTINUOUS
 62
     7
 10
440.9136926929
 20
781.3710537626
 30
0.0
 11
440.9136926929
 21
776.0710534527
 31
0.0
  0
LINE
  5
1F5
  8
0
  6
CONTINUOUS
 62
     7
 10
440.9136926929
 20
776.0710534527
 30
0.0
 11
447.039332817
 21
776.0710534527
 31
0.0
  0
LINE
  5
1F6
  8
0
  6
CONTINUOUS
 62
     7
 10
453.559909592
 20
781.3710537626
 30
0.0
 11
453.559909592
 21
776.0710534527
 31
0.0
  0
LINE
  5
1F7
  8
0
  6
CONTINUOUS
 62
     7
 10
453.3624431292
 20
776.0710534527
 30
0.0
 11
453.559909592
 21
776.0710534527
 31
0.0
  0
LINE
  5
1F8
  8
0
  6
CONTINUOUS
 62
     7
 10
454.4240912596
 20
780.5259344055
 30
0.0
 11
454.4240912596
 21
776.0710534527
 31
0.0
  0
LINE
  5
1F9
  8
0
  6
CONTINUOUS
 62
     7
 10
453.559909592
 20
776.0710534527
 30
0.0
 11
454.4240912596
 21
776.0710534527
 31
0.0
  0
LINE
  5
1FA
  8
0
  6
CONTINUOUS
 62
     7
 10
440.0495147506
 20
781.3710537626
 30
0.0
 11
440.0495147506
 21
776.0710534527
 31
0.0
  0
LINE
  5
1FB
  8
0
  6
CONTINUOUS
 62
     7
 10
440.0495147506
 20
776.0710534527
 30
0.0
 11
440.9136926929
 21
776.0710534527
 31
0.0
  0
LINE
  5
1FC
  8
0
  6
CONTINUOUS
 62
     7
 10
550.5906125704
 20
781.3710537626
 30
0.0
 11
550.5933245817
 21
781.3710537626
 31
0.0
  0
LINE
  5
1FD
  8
0
  6
CONTINUOUS
 62
     7
 10
546.8259534041
 20
781.3710537626
 30
0.0
 11
550.5906125704
 21
781.3710537626
 31
0.0
  0
LINE
  5
1FE
  8
0
  6
CONTINUOUS
 62
     7
 10
539.6386651496
 20
781.3710537626
 30
0.0
 11
546.8259534041
 21
781.3710537626
 31
0.0
  0
LINE
  5
1FF
  8
0
  6
CONTINUOUS
 62
     7
 10
536.2133240501
 20
781.3710537626
 30
0.0
 11
539.6386651496
 21
781.3710537626
 31
0.0
  0
LINE
  5
200
  8
0
  6
CONTINUOUS
 62
     7
 10
546.8259534041
 20
781.3710537626
 30
0.0
 11
546.8259534041
 21
776.0710534527
 31
0.0
  0
LINE
  5
201
  8
0
  6
CONTINUOUS
 62
     7
 10
550.5906125704
 20
781.3710537626
 30
0.0
 11
550.5906125704
 21
776.0710534527
 31
0.0
  0
LINE
  5
202
  8
0
  6
CONTINUOUS
 62
     7
 10
546.8259534041
 20
776.0710534527
 30
0.0
 11
550.5906125704
 21
776.0710534527
 31
0.0
  0
LINE
  5
203
  8
0
  6
CONTINUOUS
 62
     7
 10
539.6386651496
 20
781.3710537626
 30
0.0
 11
539.6386651496
 21
776.0710534527
 31
0.0
  0
LINE
  5
204
  8
0
  6
CONTINUOUS
 62
     7
 10
539.6386651496
 20
776.0710534527
 30
0.0
 11
546.8259534041
 21
776.0710534527
 31
0.0
  0
LINE
  5
205
  8
0
  6
CONTINUOUS
 62
     7
 10
536.2160360614
 20
781.3710537626
 30
0.0
 11
536.2160360614
 21
776.0710534527
 31
0.0
  0
LINE
  5
206
  8
0
  6
CONTINUOUS
 62
     7
 10
536.2160360614
 20
776.0710534527
 30
0.0
 11
539.6386651496
 21
776.0710534527
 31
0.0
  0
LINE
  5
207
  8
0
  6
CONTINUOUS
 62
     7
 10
445.5023823479
 20
797.3710563852
 30
0.0
 11
445.5023823479
 21
784.3710598423
 31
0.0
  0
LINE
  5
208
  8
0
  6
CONTINUOUS
 62
     7
 10
445.5023823479
 20
784.3710598423
 30
0.0
 11
443.2485407392
 21
784.3710598423
 31
0.0
  0
LINE
  5
209
  8
0
  6
CONTINUOUS
 62
     7
 10
443.2485407392
 20
784.3710598423
 30
0.0
 11
443.2485407392
 21
797.3710563852
 31
0.0
  0
LINE
  5
20A
  8
0
  6
CONTINUOUS
 62
     7
 10
443.2485407392
 20
797.3710563852
 30
0.0
 11
445.5023823479
 21
797.3710563852
 31
0.0
  0
POLYLINE
  5
20B
  8
0
  6
CONTINUOUS
 62
     7
 66
     1
 10
0.0
 20
0.0
 30
0.0
 70
   128
  0
VERTEX
  5
66C
  8
0
  6
CONTINUOUS
 62
     7
 10
444.5503285328
 20
782.3710557892
 30
0.0
  0
VERTEX
  5
66D
  8
0
  6
CONTINUOUS
 62
     7
 10
444.296360592
 20
782.4094858839
 30
0.0
  0
VERTEX
  5
66E
  8
0
  6
CONTINUOUS
 62
     7
 10
444.0521566371
 20
782.5233009531
 30
0.0
  0
VERTEX
  5
66F
  8
0
  6
CONTINUOUS
 62
     7
 10
443.8270932237
 20
782.7081200554
 30
0.0
  0
VERTEX
  5
670
  8
0
  6
CONTINUOUS
 62
     7
 10
443.6298242012
 20
782.9568353368
 30
0.0
  0
VERTEX
  5
671
  8
0
  6
CONTINUOUS
 62
     7
 10
443.4679305354
 20
783.2599100544
 30
0.0
  0
VERTEX
  5
672
  8
0
  6
CONTINUOUS
 62
     7
 10
443.3476334611
 20
783.6056914999
 30
0.0
  0
VERTEX
  5
673
  8
0
  6
CONTINUOUS
 62
     7
 10
443.2735523382
 20
783.9808729364
 30
0.0
  0
VERTEX
  5
674
  8
0
  6
CONTINUOUS
 62
     7
 10
443.2485407392
 20
784.3710598423
 30
0.0
  0
SEQEND
  5
9C4
  8
0
  6
CONTINUOUS
 62
     7
  0
POLYLINE
  5
20C
  8
0
  6
CONTINUOUS
 62
     7
 66
     1
 10
0.0
 20
0.0
 30
0.0
 70
   128
  0
VERTEX
  5
675
  8
0
  6
CONTINUOUS
 62
     7
 10
444.5503285328
 20
782.3710557892
 30
0.0
  0
VERTEX
  5
676
  8
0
  6
CONTINUOUS
 62
     7
 10
444.7360640565
 20
782.4094858839
 30
0.0
  0
VERTEX
  5
677
  8
0
  6
CONTINUOUS
 62
     7
 10
444.914661924
 20
782.5233009531
 30
0.0
  0
VERTEX
  5
678
  8
0
  6
CONTINUOUS
 62
     7
 10
445.0792601506
 20
782.7081200554
 30
0.0
  0
VERTEX
  5
679
  8
0
  6
CONTINUOUS
 62
     7
 10
445.2235294679
 20
782.9568353368
 30
0.0
  0
VERTEX
  5
67A
  8
0
  6
CONTINUOUS
 62
     7
 10
445.3419303695
 20
783.2599100544
 30
0.0
  0
VERTEX
  5
67B
  8
0
  6
CONTINUOUS
 62
     7
 10
445.4299105505
 20
783.6056914999
 30
0.0
  0
VERTEX
  5
67C
  8
0
  6
CONTINUOUS
 62
     7
 10
445.4840874473
 20
783.9808729364
 30
0.0
  0
VERTEX
  5
67D
  8
0
  6
CONTINUOUS
 62
     7
 10
445.5023823479
 20
784.3710598423
 30
0.0
  0
SEQEND
  5
9C5
  8
0
  6
CONTINUOUS
 62
     7
  0
LINE
  5
20D
  8
0
  6
CONTINUOUS
 62
     7
 10
547.3915865818
 20
797.3710563852
 30
0.0
 11
547.3915865818
 21
784.3710598423
 31
0.0
  0
LINE
  5
20E
  8
0
  6
CONTINUOUS
 62
     7
 10
545.1377449731
 20
784.3710598423
 30
0.0
 11
547.3915865818
 21
784.3710598423
 31
0.0
  0
LINE
  5
20F
  8
0
  6
CONTINUOUS
 62
     7
 10
545.1377449731
 20
784.3710598423
 30
0.0
 11
545.1377449731
 21
797.3710563852
 31
0.0
  0
LINE
  5
210
  8
0
  6
CONTINUOUS
 62
     7
 10
545.1377449731
 20
797.3710563852
 30
0.0
 11
547.3915865818
 21
797.3710563852
 31
0.0
  0
POLYLINE
  5
211
  8
0
  6
CONTINUOUS
 62
     7
 66
     1
 10
0.0
 20
0.0
 30
0.0
 70
   128
  0
VERTEX
  5
67E
  8
0
  6
CONTINUOUS
 62
     7
 10
546.0897987882
 20
782.3710557892
 30
0.0
  0
VERTEX
  5
67F
  8
0
  6
CONTINUOUS
 62
     7
 10
546.343766729
 20
782.4094858839
 30
0.0
  0
VERTEX
  5
680
  8
0
  6
CONTINUOUS
 62
     7
 10
546.5879706839
 20
782.5233009531
 30
0.0
  0
VERTEX
  5
681
  8
0
  6
CONTINUOUS
 62
     7
 10
546.8130340973
 20
782.7081200554
 30
0.0
  0
VERTEX
  5
682
  8
0
  6
CONTINUOUS
 62
     7
 10
547.0103031198
 20
782.9568353368
 30
0.0
  0
VERTEX
  5
683
  8
0
  6
CONTINUOUS
 62
     7
 10
547.1721967856
 20
783.2599100544
 30
0.0
  0
VERTEX
  5
684
  8
0
  6
CONTINUOUS
 62
     7
 10
547.2924938599
 20
783.6056914999
 30
0.0
  0
VERTEX
  5
685
  8
0
  6
CONTINUOUS
 62
     7
 10
547.3665749828
 20
783.9808729364
 30
0.0
  0
VERTEX
  5
686
  8
0
  6
CONTINUOUS
 62
     7
 10
547.3915865818
 20
784.3710598423
 30
0.0
  0
SEQEND
  5
9C6
  8
0
  6
CONTINUOUS
 62
     7
  0
POLYLINE
  5
212
  8
0
  6
CONTINUOUS
 62
     7
 66
     1
 10
0.0
 20
0.0
 30
0.0
 70
   128
  0
VERTEX
  5
687
  8
0
  6
CONTINUOUS
 62
     7
 10
545.1377449731
 20
784.3710598423
 30
0.0
  0
VERTEX
  5
688
  8
0
  6
CONTINUOUS
 62
     7
 10
545.1560398737
 20
783.9808729364
 30
0.0
  0
VERTEX
  5
689
  8
0
  6
CONTINUOUS
 62
     7
 10
545.2102167705
 20
783.6056914999
 30
0.0
  0
VERTEX
  5
68A
  8
0
  6
CONTINUOUS
 62
     7
 10
545.2981969515
 20
783.2599100544
 30
0.0
  0
VERTEX
  5
68B
  8
0
  6
CONTINUOUS
 62
     7
 10
545.4165978531
 20
782.9568353368
 30
0.0
  0
VERTEX
  5
68C
  8
0
  6
CONTINUOUS
 62
     7
 10
545.5608671705
 20
782.7081200554
 30
0.0
  0
VERTEX
  5
68D
  8
0
  6
CONTINUOUS
 62
     7
 10
545.725465397
 20
782.5233009531
 30
0.0
  0
VERTEX
  5
68E
  8
0
  6
CONTINUOUS
 62
     7
 10
545.9040632645
 20
782.4094858839
 30
0.0
  0
VERTEX
  5
68F
  8
0
  6
CONTINUOUS
 62
     7
 10
546.0897987882
 20
782.3710557892
 30
0.0
  0
SEQEND
  5
9C7
  8
0
  6
CONTINUOUS
 62
     7
  0
LINE
  5
213
  8
0
  6
CONTINUOUS
 62
     7
 10
527.8380630711
 20
797.3710563852
 30
0.0
 11
527.8380630711
 21
787.3710510208
 31
0.0
  0
LINE
  5
214
  8
0
  6
CONTINUOUS
 62
     7
 10
462.8020642499
 20
787.3710510208
 30
0.0
 11
527.8380630711
 21
787.3710510208
 31
0.0
  0
LINE
  5
215
  8
0
  6
CONTINUOUS
 62
     7
 10
462.8020642499
 20
797.3710563852
 30
0.0
 11
462.8020642499
 21
787.3710510208
 31
0.0
  0
LINE
  5
216
  8
0
  6
CONTINUOUS
 62
     7
 10
434.3200629751
 20
822.3710623457
 30
0.0
 11
443.2368023495
 21
822.3710623457
 31
0.0
  0
LINE
  5
217
  8
0
  6
CONTINUOUS
 62
     7
 10
451.2368036608
 20
822.3710623457
 30
0.0
 11
539.4033236603
 21
822.3710623457
 31
0.0
  0
LINE
  5
218
  8
0
  6
CONTINUOUS
 62
     7
 10
547.4033249716
 20
822.3710623457
 30
0.0
 11
556.320064346
 21
822.3710623457
 31
0.0
  0
ARC
  5
219
  8
0
  6
CONTINUOUS
 62
     7
 10
522.8840580073
 20
787.3711399497
 30
0.0
 40
4.954005064607429
 50
322.728920128
 51
359.9989714886
  0
ARC
  5
21A
  8
0
  6
CONTINUOUS
 62
     7
 10
523.23793471
 20
786.0322094723
 30
0.0
 40
3.954258466685389
 50
292.1991530914
 51
335.1596474245
  0
LINE
  5
21B
  8
0
  6
CONTINUOUS
 62
     7
 10
524.7319607238
 20
782.3710557892
 30
0.0
 11
465.9081665973
 21
782.3710557892
 31
0.0
  0
POLYLINE
  5
21C
  8
0
  6
CONTINUOUS
 62
     7
 66
     1
 10
0.0
 20
0.0
 30
0.0
 70
   128
  0
VERTEX
  5
690
  8
0
  6
CONTINUOUS
 62
     7
 10
463.8137748638
 20
784.3710598423
 30
0.0
  0
VERTEX
  5
691
  8
0
  6
CONTINUOUS
 62
     7
 10
464.3554208974
 20
783.6454179956
 30
0.0
  0
VERTEX
  5
692
  8
0
  6
CONTINUOUS
 62
     7
 10
464.9177404294
 20
782.9537507965
 30
0.0
  0
VERTEX
  5
693
  8
0
  6
CONTINUOUS
 62
     7
 10
465.4943091968
 20
782.4800875856
 30
0.0
  0
VERTEX
  5
694
  8
0
  6
CONTINUOUS
 62
     7
 10
465.9020645717
 20
782.3710855915
 30
0.0
  0
VERTEX
  5
695
  8
0
  6
CONTINUOUS
 62
     7
 10
465.9081665973
 20
782.3710557892
 30
0.0
  0
SEQEND
  5
9C8
  8
0
  6
CONTINUOUS
 62
     7
  0
POLYLINE
  5
21D
  8
0
  6
CONTINUOUS
 62
     7
 66
     1
 10
0.0
 20
0.0
 30
0.0
 70
   128
  0
VERTEX
  5
696
  8
0
  6
CONTINUOUS
 62
     7
 10
463.8137748638
 20
784.3710598423
 30
0.0
  0
VERTEX
  5
697
  8
0
  6
CONTINUOUS
 62
     7
 10
463.1009256641
 20
785.6763568594
 30
0.0
  0
VERTEX
  5
698
  8
0
  6
CONTINUOUS
 62
     7
 10
462.8020642499
 20
787.3710510208
 30
0.0
  0
SEQEND
  5
9C9
  8
0
  6
CONTINUOUS
 62
     7
  0
LINE
  5
21E
  8
0
  6
CONTINUOUS
 62
     7
 10
445.5023823479
 20
784.3710598423
 30
0.0
 11
463.8137748638
 21
784.3710598423
 31
0.0
  0
LINE
  5
21F
  8
0
  6
CONTINUOUS
 62
     7
 10
445.5023823479
 20
797.3710563852
 30
0.0
 11
462.8020642499
 21
797.3710563852
 31
0.0
  0
LINE
  5
220
  8
0
  6
CONTINUOUS
 62
     7
 10
465.9081665973
 20
782.3710557892
 30
0.0
 11
444.5503285328
 21
782.3710557892
 31
0.0
  0
LINE
  5
221
  8
0
  6
CONTINUOUS
 62
     7
 10
526.8263524572
 20
784.3710598423
 30
0.0
 11
545.1377449731
 21
784.3710598423
 31
0.0
  0
LINE
  5
222
  8
0
  6
CONTINUOUS
 62
     7
 10
527.8380630711
 20
797.3710563852
 30
0.0
 11
545.1377449731
 21
797.3710563852
 31
0.0
  0
LINE
  5
223
  8
0
  6
CONTINUOUS
 62
     7
 10
546.0897987882
 20
782.3710557892
 30
0.0
 11
524.7319607238
 21
782.3710557892
 31
0.0
  0
LINE
  5
224
  8
0
  6
CONTINUOUS
 62
     7
 10
434.5865776936
 20
784.3710598423
 30
0.0
 11
443.2485407392
 21
784.3710598423
 31
0.0
  0
LINE
  5
225
  8
0
  6
CONTINUOUS
 62
     7
 10
434.5865776936
 20
797.3710563852
 30
0.0
 11
434.5865776936
 21
784.3710598423
 31
0.0
  0
LINE
  5
226
  8
0
  6
CONTINUOUS
 62
     7
 10
434.5865776936
 20
797.3710563852
 30
0.0
 11
443.2485407392
 21
797.3710563852
 31
0.0
  0
LINE
  5
227
  8
0
  6
CONTINUOUS
 62
     7
 10
444.5503285328
 20
782.3710557892
 30
0.0
 11
436.104912887
 21
782.3710557892
 31
0.0
  0
ARC
  5
228
  8
0
  6
CONTINUOUS
 62
     7
 10
436.3839484968
 20
784.1592264516
 30
0.0
 40
1.809810815966489
 50
173.2782782048
 51
261.1307906907
  0
LINE
  5
229
  8
0
  6
CONTINUOUS
 62
     7
 10
556.0535496274
 20
784.3710598423
 30
0.0
 11
556.0535496274
 21
797.3710563852
 31
0.0
  0
LINE
  5
22A
  8
0
  6
CONTINUOUS
 62
     7
 10
547.3915865818
 20
784.3710598423
 30
0.0
 11
556.0535496274
 21
784.3710598423
 31
0.0
  0
LINE
  5
22B
  8
0
  6
CONTINUOUS
 62
     7
 10
547.3915865818
 20
797.3710563852
 30
0.0
 11
556.0535496274
 21
797.3710563852
 31
0.0
  0
LINE
  5
22C
  8
0
  6
CONTINUOUS
 62
     7
 10
554.535214434
 20
782.3710557892
 30
0.0
 11
546.0897987882
 21
782.3710557892
 31
0.0
  0
ARC
  5
22D
  8
0
  6
CONTINUOUS
 62
     7
 10
554.2561788242
 20
784.1592264516
 30
0.0
 40
1.809810815966602
 50
278.8692093093
 51
6.7217217952
  0
LINE
  5
22E
  8
0
  6
CONTINUOUS
 62
     7
 10
434.1049125592
 20
797.3710563852
 30
0.0
 11
434.5865776936
 21
797.3710563852
 31
0.0
  0
LINE
  5
22F
  8
0
  6
CONTINUOUS
 62
     7
 10
556.0535496274
 20
797.3710563852
 30
0.0
 11
556.5352147619
 21
797.3710563852
 31
0.0
  0
LINE
  5
230
  8
0
  6
CONTINUOUS
 62
     7
 10
501.3138620356
 20
777.3710605575
 30
0.0
 11
489.3262652854
 21
777.3710605575
 31
0.0
  0
ARC
  5
231
  8
0
  6
CONTINUOUS
 62
     7
 10
484.328841743
 20
777.3736322571
 30
0.0
 40
4.99742420406058
 50
359.9705153035
 51
89.9702875667
  0
ARC
  5
232
  8
0
  6
CONTINUOUS
 62
     7
 10
506.311285578
 20
777.3736322571
 30
0.0
 40
4.997424204060595
 50
90.0297124333
 51
180.0294846965
  0
LINE
  5
233
  8
0
  6
CONTINUOUS
 62
     7
 10
501.3138620356
 20
759.3710538818
 30
0.0
 11
501.3138620356
 21
777.3710605575
 31
0.0
  0
LINE
  5
234
  8
0
  6
CONTINUOUS
 62
     7
 10
489.3262652854
 20
759.3710538818
 30
0.0
 11
501.3138620356
 21
759.3710538818
 31
0.0
  0
LINE
  5
235
  8
0
  6
CONTINUOUS
 62
     7
 10
489.3262652854
 20
777.3710605575
 30
0.0
 11
489.3262652854
 21
759.3710538818
 31
0.0
  0
LINE
  5
236
  8
0
  6
CONTINUOUS
 62
     7
 10
499.3159292439
 20
757.3710498287
 30
0.0
 11
491.3241980771
 21
757.3710498287
 31
0.0
  0
ARC
  5
237
  8
0
  6
CONTINUOUS
 62
     7
 10
491.3252631239
 20
759.3700476368
 30
0.0
 40
1.998998091806234
 50
179.9711587539
 51
269.9694733617
  0
ARC
  5
238
  8
0
  6
CONTINUOUS
 62
     7
 10
499.3148641971
 20
759.3700476368
 30
0.0
 40
1.998998091805893
 50
270.0305266383
 51
0.0288412461
  0
POLYLINE
  5
239
  8
0
  6
CONTINUOUS
 62
     7
 66
     1
 10
0.0
 20
0.0
 30
0.0
 70
   128
  0
VERTEX
  5
699
  8
0
  6
CONTINUOUS
 62
     7
 10
485.6715096334
 20
777.3710605575
 30
0.0
  0
VERTEX
  5
69A
  8
0
  6
CONTINUOUS
 62
     7
 10
485.6457604269
 20
778.3465054704
 30
0.0
  0
VERTEX
  5
69B
  8
0
  6
CONTINUOUS
 62
     7
 10
485.5695028032
 20
779.2844739629
 30
0.0
  0
VERTEX
  5
69C
  8
0
  6
CONTINUOUS
 62
     7
 10
485.4456667031
 20
780.148905225
 30
0.0
  0
VERTEX
  5
69D
  8
0
  6
CONTINUOUS
 62
     7
 10
485.2790102536
 20
780.9065845682
 30
0.0
  0
VERTEX
  5
69E
  8
0
  6
CONTINUOUS
 62
     7
 10
485.0759400228
 20
781.5284100248
 30
0.0
  0
VERTEX
  5
69F
  8
0
  6
CONTINUOUS
 62
     7
 10
484.8442586312
 20
781.9904503299
 30
0.0
  0
VERTEX
  5
6A0
  8
0
  6
CONTINUOUS
 62
     7
 10
484.5928695226
 20
782.2749880029
 30
0.0
  0
VERTEX
  5
6A1
  8
0
  6
CONTINUOUS
 62
     7
 10
484.3314333061
 20
782.3710557892
 30
0.0
  0
SEQEND
  5
9CA
  8
0
  6
CONTINUOUS
 62
     7
  0
LINE
  5
23A
  8
0
  6
CONTINUOUS
 62
     7
 10
485.6715096334
 20
777.3710605575
 30
0.0
 11
489.3262652854
 21
777.3710605575
 31
0.0
  0
POLYLINE
  5
23B
  8
0
  6
CONTINUOUS
 62
     7
 66
     1
 10
0.0
 20
0.0
 30
0.0
 70
   128
  0
VERTEX
  5
6A2
  8
0
  6
CONTINUOUS
 62
     7
 10
506.3086940149
 20
782.3710557892
 30
0.0
  0
VERTEX
  5
6A3
  8
0
  6
CONTINUOUS
 62
     7
 10
506.0472577984
 20
782.2749880029
 30
0.0
  0
VERTEX
  5
6A4
  8
0
  6
CONTINUOUS
 62
     7
 10
505.7958686898
 20
781.9904503299
 30
0.0
  0
VERTEX
  5
6A5
  8
0
  6
CONTINUOUS
 62
     7
 10
505.5641872982
 20
781.5284100248
 30
0.0
  0
VERTEX
  5
6A6
  8
0
  6
CONTINUOUS
 62
     7
 10
505.3611170674
 20
780.9065845682
 30
0.0
  0
VERTEX
  5
6A7
  8
0
  6
CONTINUOUS
 62
     7
 10
505.194460618
 20
780.148905225
 30
0.0
  0
VERTEX
  5
6A8
  8
0
  6
CONTINUOUS
 62
     7
 10
505.0706245179
 20
779.2844739629
 30
0.0
  0
VERTEX
  5
6A9
  8
0
  6
CONTINUOUS
 62
     7
 10
504.9943668941
 20
778.3465054704
 30
0.0
  0
VERTEX
  5
6AA
  8
0
  6
CONTINUOUS
 62
     7
 10
504.9686176876
 20
777.3710605575
 30
0.0
  0
SEQEND
  5
9CB
  8
0
  6
CONTINUOUS
 62
     7
  0
LINE
  5
23C
  8
0
  6
CONTINUOUS
 62
     7
 10
501.3138620356
 20
777.3710605575
 30
0.0
 11
504.9686176876
 21
777.3710605575
 31
0.0
  0
LINE
  5
23D
  8
0
  6
CONTINUOUS
 62
     7
 10
485.6715096334
 20
759.3710538818
 30
0.0
 11
489.3262652854
 21
759.3710538818
 31
0.0
  0
LINE
  5
23E
  8
0
  6
CONTINUOUS
 62
     7
 10
485.6715096334
 20
759.3710538818
 30
0.0
 11
485.6715096334
 21
777.3710605575
 31
0.0
  0
ARC
  5
23F
  8
0
  6
CONTINUOUS
 62
     7
 10
487.9391765565
 20
758.9069884228
 30
0.0
 40
2.31466412776627
 50
168.4344248589
 51
221.5726110498
  0
LINE
  5
240
  8
0
  6
CONTINUOUS
 62
     7
 10
491.3241980771
 20
757.3710498287
 30
0.0
 11
486.2075407232
 21
757.3710498287
 31
0.0
  0
LINE
  5
241
  8
0
  6
CONTINUOUS
 62
     7
 10
504.9686176876
 20
777.3710605575
 30
0.0
 11
504.9686176876
 21
759.3710538818
 31
0.0
  0
LINE
  5
242
  8
0
  6
CONTINUOUS
 62
     7
 10
501.3138620356
 20
759.3710538818
 30
0.0
 11
504.9686176876
 21
759.3710538818
 31
0.0
  0
ARC
  5
243
  8
0
  6
CONTINUOUS
 62
     7
 10
502.7009507645
 20
758.9069884228
 30
0.0
 40
2.3146641277661
 50
318.4273889502
 51
11.5655751411
  0
LINE
  5
244
  8
0
  6
CONTINUOUS
 62
     7
 10
504.4325865979
 20
757.3710498287
 30
0.0
 11
499.3159292439
 21
757.3710498287
 31
0.0
  0
LINE
  5
245
  8
0
  6
CONTINUOUS
 62
     7
 10
486.2075407232
 20
757.3710498287
 30
0.0
 11
461.3200618128
 21
757.3710498287
 31
0.0
  0
LINE
  5
246
  8
0
  6
CONTINUOUS
 62
     7
 10
529.3200655083
 20
757.3710498287
 30
0.0
 11
504.4325865979
 21
757.3710498287
 31
0.0
  0
POLYLINE
  5
247
  8
0
  6
CONTINUOUS
 62
     7
 66
     1
 10
0.0
 20
0.0
 30
0.0
 70
   128
  0
VERTEX
  5
6AB
  8
0
  6
CONTINUOUS
 62
     7
 10
459.38967971
 20
757.3710498287
 30
0.0
  0
VERTEX
  5
6AC
  8
0
  6
CONTINUOUS
 62
     7
 10
459.1794317762
 20
757.4094948246
 30
0.0
  0
VERTEX
  5
6AD
  8
0
  6
CONTINUOUS
 62
     7
 10
458.977263997
 20
757.5233098938
 30
0.0
  0
VERTEX
  5
6AE
  8
0
  6
CONTINUOUS
 62
     7
 10
458.7909436027
 20
757.7081140949
 30
0.0
  0
VERTEX
  5
6AF
  8
0
  6
CONTINUOUS
 62
     7
 10
458.6276343266
 20
757.9568442775
 30
0.0
  0
VERTEX
  5
6B0
  8
0
  6
CONTINUOUS
 62
     7
 10
458.4936095575
 20
758.2599040939
 30
0.0
  0
VERTEX
  5
6B1
  8
0
  6
CONTINUOUS
 62
     7
 10
458.394021372
 20
758.6057004406
 30
0.0
  0
VERTEX
  5
6B2
  8
0
  6
CONTINUOUS
 62
     7
 10
458.3326919178
 20
758.9808818771
 30
0.0
  0
VERTEX
  5
6B3
  8
0
  6
CONTINUOUS
 62
     7
 10
458.3119867543
 20
759.3710538818
 30
0.0
  0
SEQEND
  5
9CC
  8
0
  6
CONTINUOUS
 62
     7
  0
LINE
  5
248
  8
0
  6
CONTINUOUS
 62
     7
 10
461.3200618128
 20
757.3710498287
 30
0.0
 11
459.38967971
 21
757.3710498287
 31
0.0
  0
POLYLINE
  5
249
  8
0
  6
CONTINUOUS
 62
     7
 66
     1
 10
0.0
 20
0.0
 30
0.0
 70
   128
  0
VERTEX
  5
6B4
  8
0
  6
CONTINUOUS
 62
     7
 10
532.3281405667
 20
759.3710538818
 30
0.0
  0
VERTEX
  5
6B5
  8
0
  6
CONTINUOUS
 62
     7
 10
532.3074354032
 20
758.9808818771
 30
0.0
  0
VERTEX
  5
6B6
  8
0
  6
CONTINUOUS
 62
     7
 10
532.246105949
 20
758.6057004406
 30
0.0
  0
VERTEX
  5
6B7
  8
0
  6
CONTINUOUS
 62
     7
 10
532.1465177635
 20
758.2599040939
 30
0.0
  0
VERTEX
  5
6B8
  8
0
  6
CONTINUOUS
 62
     7
 10
532.0124929944
 20
757.9568442775
 30
0.0
  0
VERTEX
  5
6B9
  8
0
  6
CONTINUOUS
 62
     7
 10
531.8491837183
 20
757.7081140949
 30
0.0
  0
VERTEX
  5
6BA
  8
0
  6
CONTINUOUS
 62
     7
 10
531.6628633241
 20
757.5233098938
 30
0.0
  0
VERTEX
  5
6BB
  8
0
  6
CONTINUOUS
 62
     7
 10
531.4606955448
 20
757.4094948246
 30
0.0
  0
VERTEX
  5
6BC
  8
0
  6
CONTINUOUS
 62
     7
 10
531.250447611
 20
757.3710498287
 30
0.0
  0
SEQEND
  5
9CD
  8
0
  6
CONTINUOUS
 62
     7
  0
LINE
  5
24A
  8
0
  6
CONTINUOUS
 62
     7
 10
531.250447611
 20
757.3710498287
 30
0.0
 11
529.3200655083
 21
757.3710498287
 31
0.0
  0
LINE
  5
24B
  8
0
  6
CONTINUOUS
 62
     7
 10
458.3119867543
 20
759.3710538818
 30
0.0
 11
458.3119867543
 21
777.3710605575
 31
0.0
  0
LINE
  5
24C
  8
0
  6
CONTINUOUS
 62
     7
 10
532.3281405667
 20
777.3710605575
 30
0.0
 11
532.3281405667
 21
759.3710538818
 31
0.0
  0
LINE
  5
24D
  8
0
  6
CONTINUOUS
 62
     7
 10
459.38967971
 20
757.3710498287
 30
0.0
 11
457.5450724164
 21
757.3710498287
 31
0.0
  0
LINE
  5
24E
  8
0
  6
CONTINUOUS
 62
     7
 10
533.0950549046
 20
757.3710498287
 30
0.0
 11
531.250447611
 21
757.3710498287
 31
0.0
  0
LINE
  5
24F
  8
0
  6
CONTINUOUS
 62
     7
 10
556.320064346
 20
858.8710543586
 30
0.0
 11
547.4033249716
 21
858.8710543586
 31
0.0
  0
LINE
  5
250
  8
0
  6
CONTINUOUS
 62
     7
 10
539.4033236603
 20
858.8710543586
 30
0.0
 11
451.2368036608
 21
858.8710543586
 31
0.0
  0
LINE
  5
251
  8
0
  6
CONTINUOUS
 62
     7
 10
443.2368023495
 20
858.8710543586
 30
0.0
 11
434.3200629751
 21
858.8710543586
 31
0.0
  0
POLYLINE
  5
252
  8
0
  6
CONTINUOUS
 62
     7
 66
     1
 10
0.0
 20
0.0
 30
0.0
 70
   128
  0
VERTEX
  5
6BD
  8
0
  6
CONTINUOUS
 62
     7
 10
456.3200628558
 20
943.4549775793
 30
0.0
  0
VERTEX
  5
6BE
  8
0
  6
CONTINUOUS
 62
     7
 10
456.2875485221
 20
943.6473366691
 30
0.0
  0
VERTEX
  5
6BF
  8
0
  6
CONTINUOUS
 62
     7
 10
456.2562821606
 20
943.832304783
 30
0.0
  0
VERTEX
  5
6C0
  8
0
  6
CONTINUOUS
 62
     7
 10
456.2274670402
 20
944.0027740671
 30
0.0
  0
VERTEX
  5
6C1
  8
0
  6
CONTINUOUS
 62
     7
 10
456.2022132973
 20
944.152195461
 30
0.0
  0
VERTEX
  5
6C2
  8
0
  6
CONTINUOUS
 62
     7
 10
456.181485782
 20
944.2748171164
 30
0.0
  0
VERTEX
  5
6C3
  8
0
  6
CONTINUOUS
 62
     7
 10
456.1660854319
 20
944.3659302665
 30
0.0
  0
VERTEX
  5
6C4
  8
0
  6
CONTINUOUS
 62
     7
 10
456.1566008428
 20
944.422040589
 30
0.0
  0
VERTEX
  5
6C5
  8
0
  6
CONTINUOUS
 62
     7
 10
456.1533970932
 20
944.4409874155
 30
0.0
  0
SEQEND
  5
9CE
  8
0
  6
CONTINUOUS
 62
     7
  0
ARC
  5
253
  8
0
  6
CONTINUOUS
 62
     7
 10
455.3200408588
 20
949.3710850591
 30
0.0
 40
5.000034538764249
 50
279.5942674755
 51
335.7861542159
  0
ARC
  5
254
  8
0
  6
CONTINUOUS
 62
     7
 10
460.2843785737
 20
947.2456730443
 30
0.0
 40
0.4110422133248958
 50
169.5320151788
 51
234.698048429
  0
ARC
  5
255
  8
0
  6
CONTINUOUS
 62
     7
 10
455.0028584047
 20
948.6131505215
 30
0.0
 40
5.32369943439304
 50
284.325057132
 51
341.344429591
  0
LINE
  5
256
  8
0
  6
CONTINUOUS
 62
     7
 10
456.3200628558
 20
932.371054299
 30
0.0
 11
456.3200628558
 21
943.4549775793
 31
0.0
  0
LINE
  5
257
  8
0
  6
CONTINUOUS
 62
     7
 10
460.0468432704
 20
932.371054299
 30
0.0
 11
460.0468432704
 21
946.9102141334
 31
0.0
  0
LINE
  5
258
  8
0
  6
CONTINUOUS
 62
     7
 10
460.0468432704
 20
932.371054299
 30
0.0
 11
456.3200628558
 21
932.371054299
 31
0.0
  0
LINE
  5
259
  8
0
  6
CONTINUOUS
 62
     7
 10
530.5932840506
 20
946.9102141334
 30
0.0
 11
530.5932840506
 21
932.371054299
 31
0.0
  0
ARC
  5
25A
  8
0
  6
CONTINUOUS
 62
     7
 10
535.6372689164
 20
948.6131505215
 30
0.0
 40
5.323699434393179
 50
198.655570409
 51
255.674942868
  0
LINE
  5
25B
  8
0
  6
CONTINUOUS
 62
     7
 10
534.3200644652
 20
943.4549775793
 30
0.0
 11
534.3200644652
 21
932.371054299
 31
0.0
  0
LINE
  5
25C
  8
0
  6
CONTINUOUS
 62
     7
 10
534.3200644652
 20
932.371054299
 30
0.0
 11
530.5932840506
 21
932.371054299
 31
0.0
  0
POLYLINE
  5
25D
  8
0
  6
CONTINUOUS
 62
     7
 66
     1
 10
0.0
 20
0.0
 30
0.0
 70
   128
  0
VERTEX
  5
6C6
  8
0
  6
CONTINUOUS
 62
     7
 10
534.4867302278
 20
944.4409874155
 30
0.0
  0
VERTEX
  5
6C7
  8
0
  6
CONTINUOUS
 62
     7
 10
534.4835264782
 20
944.422040589
 30
0.0
  0
VERTEX
  5
6C8
  8
0
  6
CONTINUOUS
 62
     7
 10
534.4740418891
 20
944.3659302665
 30
0.0
  0
VERTEX
  5
6C9
  8
0
  6
CONTINUOUS
 62
     7
 10
534.458641539
 20
944.2748171164
 30
0.0
  0
VERTEX
  5
6CA
  8
0
  6
CONTINUOUS
 62
     7
 10
534.4379140238
 20
944.152195461
 30
0.0
  0
VERTEX
  5
6CB
  8
0
  6
CONTINUOUS
 62
     7
 10
534.4126602808
 20
944.0027740671
 30
0.0
  0
VERTEX
  5
6CC
  8
0
  6
CONTINUOUS
 62
     7
 10
534.3838451604
 20
943.832304783
 30
0.0
  0
VERTEX
  5
6CD
  8
0
  6
CONTINUOUS
 62
     7
 10
534.3525787989
 20
943.6473366691
 30
0.0
  0
VERTEX
  5
6CE
  8
0
  6
CONTINUOUS
 62
     7
 10
534.3200644652
 20
943.4549775793
 30
0.0
  0
SEQEND
  5
9CF
  8
0
  6
CONTINUOUS
 62
     7
  0
ARC
  5
25E
  8
0
  6
CONTINUOUS
 62
     7
 10
530.3557487474
 20
947.2456730443
 30
0.0
 40
0.4110422133246163
 50
305.301951571
 51
10.4679848212
  0
ARC
  5
25F
  8
0
  6
CONTINUOUS
 62
     7
 10
535.3200968523
 20
949.371098507
 30
0.0
 40
5.000049530320206
 50
204.2139374952
 51
260.4056408135
  0
ARC
  5
260
  8
0
  6
CONTINUOUS
 62
     7
 10
495.3200636605
 20
971.8710555507
 30
0.0
 40
34.0
 50
0.0
 51
180.0
  0
LINE
  5
261
  8
0
  6
CONTINUOUS
 62
     7
 10
461.3200618128
 20
971.871056117
 30
0.0
 11
460.3200635115
 21
971.871056117
 31
0.0
  0
ARC
  5
262
  8
0
  6
CONTINUOUS
 62
     7
 10
495.3200636605
 20
971.8710555507
 30
0.0
 40
35.00000000000006
 50
0.0000000009
 51
179.9999999991
  0
LINE
  5
263
  8
0
  6
CONTINUOUS
 62
     7
 10
529.3200655083
 20
971.871056117
 30
0.0
 11
530.3200638095
 21
971.871056117
 31
0.0
  0
ARC
  5
264
  8
0
  6
CONTINUOUS
 62
     7
 10
455.3200636605
 20
949.3710555507
 30
0.0
 40
6.000000000000085
 50
335.7863818359
 51
0.0
  0
LINE
  5
265
  8
0
  6
CONTINUOUS
 62
     7
 10
461.3200618128
 20
971.871056117
 30
0.0
 11
461.3200618128
 21
949.3710589482
 31
0.0
  0
LINE
  5
266
  8
0
  6
CONTINUOUS
 62
     7
 10
529.3200655083
 20
949.3710589482
 30
0.0
 11
529.3200655083
 21
971.871056117
 31
0.0
  0
ARC
  5
267
  8
0
  6
CONTINUOUS
 62
     7
 10
535.3200636605
 20
949.3710555507
 30
0.0
 40
6.000000000005681
 50
180.0
 51
204.2136181642
  0
LINE
  5
268
  8
0
  6
CONTINUOUS
 62
     7
 10
529.8479279677
 20
932.371054299
 30
0.0
 11
529.8479279677
 21
946.9102141334
 31
0.0
  0
LINE
  5
269
  8
0
  6
CONTINUOUS
 62
     7
 10
460.7921993533
 20
946.9102141334
 30
0.0
 11
460.7921993533
 21
932.371054299
 31
0.0
  0
CIRCLE
  5
26A
  8
0
  6
CONTINUOUS
 62
     7
 10
495.3200636605
 20
972.3710555507
 30
0.0
 40
24.76414700000021
  0
LINE
  5
26B
  8
0
  6
CONTINUOUS
 62
     7
 10
460.7921993533
 20
932.371054299
 30
0.0
 11
529.8479279677
 21
932.371054299
 31
0.0
  0
CIRCLE
  5
26C
  8
0
  6
CONTINUOUS
 62
     7
 10
495.3200636605
 20
972.3710555507
 30
0.0
 40
23.73192450140652
  0
LINE
  5
26D
  8
0
  6
CONTINUOUS
 62
     7
 10
461.3200618128
 20
949.3710589482
 30
0.0
 11
460.3200635115
 21
949.3710589482
 31
0.0
  0
LINE
  5
26E
  8
0
  6
CONTINUOUS
 62
     7
 10
460.3200635115
 20
949.3710589482
 30
0.0
 11
460.3200635115
 21
971.871056117
 31
0.0
  0
POLYLINE
  5
26F
  8
0
  6
CONTINUOUS
 62
     7
 66
     1
 10
0.0
 20
0.0
 30
0.0
 70
   128
  0
VERTEX
  5
6CF
  8
0
  6
CONTINUOUS
 62
     7
 10
459.8801775078
 20
947.3203536941
 30
0.0
  0
VERTEX
  5
6D0
  8
0
  6
CONTINUOUS
 62
     7
 10
459.8977012733
 20
947.3124784304
 30
0.0
  0
VERTEX
  5
6D1
  8
0
  6
CONTINUOUS
 62
     7
 10
459.9496020178
 20
947.2891357614
 30
0.0
  0
VERTEX
  5
6D2
  8
0
  6
CONTINUOUS
 62
     7
 10
460.0338792602
 20
947.2512346579
 30
0.0
  0
VERTEX
  5
6D3
  8
0
  6
CONTINUOUS
 62
     7
 10
460.1473031739
 20
947.2002279832
 30
0.0
  0
VERTEX
  5
6D4
  8
0
  6
CONTINUOUS
 62
     7
 10
460.2855077187
 20
947.1380752398
 30
0.0
  0
VERTEX
  5
6D5
  8
0
  6
CONTINUOUS
 62
     7
 10
460.4431843559
 20
947.0671680643
 30
0.0
  0
VERTEX
  5
6D6
  8
0
  6
CONTINUOUS
 62
     7
 10
460.6142720381
 20
946.990233369
 30
0.0
  0
VERTEX
  5
6D7
  8
0
  6
CONTINUOUS
 62
     7
 10
460.7921993533
 20
946.9102141334
 30
0.0
  0
SEQEND
  5
9D0
  8
0
  6
CONTINUOUS
 62
     7
  0
ARC
  5
270
  8
0
  6
CONTINUOUS
 62
     7
 10
455.3200636605
 20
949.3710555507
 30
0.0
 40
5.000000000000003
 50
335.7863818358
 51
0.0
  0
LINE
  5
271
  8
0
  6
CONTINUOUS
 62
     7
 10
460.0468432704
 20
946.9102141334
 30
0.0
 11
460.7921993533
 21
946.9102141334
 31
0.0
  0
LINE
  5
272
  8
0
  6
CONTINUOUS
 62
     7
 10
460.0468432704
 20
932.371054299
 30
0.0
 11
460.7921993533
 21
932.371054299
 31
0.0
  0
LINE
  5
273
  8
0
  6
CONTINUOUS
 62
     7
 10
530.3200638095
 20
971.871056117
 30
0.0
 11
530.3200638095
 21
949.3710589482
 31
0.0
  0
LINE
  5
274
  8
0
  6
CONTINUOUS
 62
     7
 10
529.3200655083
 20
949.3710589482
 30
0.0
 11
530.3200638095
 21
949.3710589482
 31
0.0
  0
ARC
  5
275
  8
0
  6
CONTINUOUS
 62
     7
 10
535.3200636605
 20
949.3710555507
 30
0.0
 40
5.000000000000071
 50
180.0
 51
204.2136181641
  0
POLYLINE
  5
276
  8
0
  6
CONTINUOUS
 62
     7
 66
     1
 10
0.0
 20
0.0
 30
0.0
 70
   128
  0
VERTEX
  5
6D8
  8
0
  6
CONTINUOUS
 62
     7
 10
529.8479279677
 20
946.9102141334
 30
0.0
  0
VERTEX
  5
6D9
  8
0
  6
CONTINUOUS
 62
     7
 10
530.0258552829
 20
946.990233369
 30
0.0
  0
VERTEX
  5
6DA
  8
0
  6
CONTINUOUS
 62
     7
 10
530.1969429652
 20
947.0671680643
 30
0.0
  0
VERTEX
  5
6DB
  8
0
  6
CONTINUOUS
 62
     7
 10
530.3546196023
 20
947.1380752398
 30
0.0
  0
VERTEX
  5
6DC
  8
0
  6
CONTINUOUS
 62
     7
 10
530.4928241471
 20
947.2002279832
 30
0.0
  0
VERTEX
  5
6DD
  8
0
  6
CONTINUOUS
 62
     7
 10
530.6062480608
 20
947.2512346579
 30
0.0
  0
VERTEX
  5
6DE
  8
0
  6
CONTINUOUS
 62
     7
 10
530.6905253032
 20
947.2891357614
 30
0.0
  0
VERTEX
  5
6DF
  8
0
  6
CONTINUOUS
 62
     7
 10
530.7424260477
 20
947.3124784304
 30
0.0
  0
VERTEX
  5
6E0
  8
0
  6
CONTINUOUS
 62
     7
 10
530.7599498133
 20
947.3203536941
 30
0.0
  0
SEQEND
  5
9D1
  8
0
  6
CONTINUOUS
 62
     7
  0
LINE
  5
277
  8
0
  6
CONTINUOUS
 62
     7
 10
529.8479279677
 20
946.9102141334
 30
0.0
 11
530.5932840506
 21
946.9102141334
 31
0.0
  0
LINE
  5
278
  8
0
  6
CONTINUOUS
 62
     7
 10
529.8479279677
 20
932.371054299
 30
0.0
 11
530.5932840506
 21
932.371054299
 31
0.0
  0
LINE
  5
279
  8
0
  6
CONTINUOUS
 62
     7
 10
432.0172188977
 20
944.371056266
 30
0.0
 11
432.0172188977
 21
943.3710542394
 31
0.0
  0
LINE
  5
27A
  8
0
  6
CONTINUOUS
 62
     7
 10
432.0172188977
 20
943.3710542394
 30
0.0
 11
429.203760455
 21
943.3710542394
 31
0.0
  0
POLYLINE
  5
27B
  8
0
  6
CONTINUOUS
 62
     7
 66
     1
 10
0.0
 20
0.0
 30
0.0
 70
   128
  0
VERTEX
  5
6E1
  8
0
  6
CONTINUOUS
 62
     7
 10
429.203760455
 20
943.3710542394
 30
0.0
  0
VERTEX
  5
6E2
  8
0
  6
CONTINUOUS
 62
     7
 10
429.2145712475
 20
943.5661476924
 30
0.0
  0
VERTEX
  5
6E3
  8
0
  6
CONTINUOUS
 62
     7
 10
429.2465938429
 20
943.7537384106
 30
0.0
  0
VERTEX
  5
6E4
  8
0
  6
CONTINUOUS
 62
     7
 10
429.2985914449
 20
943.9266291334
 30
0.0
  0
VERTEX
  5
6E5
  8
0
  6
CONTINUOUS
 62
     7
 10
429.3685672978
 20
944.0781590416
 30
0.0
  0
VERTEX
  5
6E6
  8
0
  6
CONTINUOUS
 62
     7
 10
429.4538391928
 20
944.2025241329
 30
0.0
  0
VERTEX
  5
6E7
  8
0
  6
CONTINUOUS
 62
     7
 10
429.5511214236
 20
944.294933684
 30
0.0
  0
VERTEX
  5
6E8
  8
0
  6
CONTINUOUS
 62
     7
 10
429.6566737989
 20
944.3518412186
 30
0.0
  0
VERTEX
  5
6E9
  8
0
  6
CONTINUOUS
 62
     7
 10
429.7664506534
 20
944.371056266
 30
0.0
  0
SEQEND
  5
9D2
  8
0
  6
CONTINUOUS
 62
     7
  0
LINE
  5
27C
  8
0
  6
CONTINUOUS
 62
     7
 10
432.0172188977
 20
944.371056266
 30
0.0
 11
429.7664506534
 21
944.371056266
 31
0.0
  0
LINE
  5
27D
  8
0
  6
CONTINUOUS
 62
     7
 10
455.3200645546
 20
944.371056266
 30
0.0
 11
455.3200645546
 21
943.3710542394
 31
0.0
  0
LINE
  5
27E
  8
0
  6
CONTINUOUS
 62
     7
 10
455.3200645546
 20
943.3710542394
 30
0.0
 11
432.0172188977
 21
943.3710542394
 31
0.0
  0
LINE
  5
27F
  8
0
  6
CONTINUOUS
 62
     7
 10
432.0172188977
 20
944.371056266
 30
0.0
 11
455.3200645546
 21
944.371056266
 31
0.0
  0
LINE
  5
280
  8
0
  6
CONTINUOUS
 62
     7
 10
432.0172188977
 20
943.3710542394
 30
0.0
 11
432.0172188977
 21
932.371054299
 31
0.0
  0
LINE
  5
281
  8
0
  6
CONTINUOUS
 62
     7
 10
429.203760455
 20
932.371054299
 30
0.0
 11
429.203760455
 21
943.3710542394
 31
0.0
  0
LINE
  5
282
  8
0
  6
CONTINUOUS
 62
     7
 10
429.203760455
 20
932.371054299
 30
0.0
 11
432.0172188977
 21
932.371054299
 31
0.0
  0
ARC
  5
283
  8
0
  6
CONTINUOUS
 62
     7
 10
455.3200636605
 20
949.3710555507
 30
0.0
 40
6.000000000000033
 50
270.0
 51
279.5940682267
  0
LINE
  5
284
  8
0
  6
CONTINUOUS
 62
     7
 10
432.0172188977
 20
932.371054299
 30
0.0
 11
456.3200628558
 21
932.371054299
 31
0.0
  0
ARC
  5
285
  8
0
  6
CONTINUOUS
 62
     7
 10
455.3200636605
 20
949.3710555507
 30
0.0
 40
5.0
 50
270.0
 51
279.5940682267
  0
ARC
  5
286
  8
0
  6
CONTINUOUS
 62
     7
 10
535.3200636605
 20
949.3710555507
 30
0.0
 40
6.000000000000052
 50
260.4059317733
 51
270.0
  0
LINE
  5
287
  8
0
  6
CONTINUOUS
 62
     7
 10
558.6229084233
 20
943.3710542394
 30
0.0
 11
535.3200627664
 21
943.3710542394
 31
0.0
  0
LINE
  5
288
  8
0
  6
CONTINUOUS
 62
     7
 10
558.6229084233
 20
932.371054299
 30
0.0
 11
558.6229084233
 21
943.3710542394
 31
0.0
  0
LINE
  5
289
  8
0
  6
CONTINUOUS
 62
     7
 10
534.3200644652
 20
932.371054299
 30
0.0
 11
558.6229084233
 21
932.371054299
 31
0.0
  0
LINE
  5
28A
  8
0
  6
CONTINUOUS
 62
     7
 10
535.3200627664
 20
944.371056266
 30
0.0
 11
535.3200627664
 21
943.3710542394
 31
0.0
  0
LINE
  5
28B
  8
0
  6
CONTINUOUS
 62
     7
 10
535.3200627664
 20
944.371056266
 30
0.0
 11
558.6229084233
 21
944.371056266
 31
0.0
  0
LINE
  5
28C
  8
0
  6
CONTINUOUS
 62
     7
 10
558.6229084233
 20
943.3710542394
 30
0.0
 11
558.6229084233
 21
944.371056266
 31
0.0
  0
ARC
  5
28D
  8
0
  6
CONTINUOUS
 62
     7
 10
535.3200636605
 20
949.3710555507
 30
0.0
 40
5.0
 50
260.4059317733
 51
270.0
  0
LINE
  5
28E
  8
0
  6
CONTINUOUS
 62
     7
 10
561.436366866
 20
943.3710542394
 30
0.0
 11
558.6229084233
 21
943.3710542394
 31
0.0
  0
LINE
  5
28F
  8
0
  6
CONTINUOUS
 62
     7
 10
561.436366866
 20
943.3710542394
 30
0.0
 11
561.436366866
 21
932.371054299
 31
0.0
  0
LINE
  5
290
  8
0
  6
CONTINUOUS
 62
     7
 10
558.6229084233
 20
932.371054299
 30
0.0
 11
561.436366866
 21
932.371054299
 31
0.0
  0
POLYLINE
  5
291
  8
0
  6
CONTINUOUS
 62
     7
 66
     1
 10
0.0
 20
0.0
 30
0.0
 70
   128
  0
VERTEX
  5
6EA
  8
0
  6
CONTINUOUS
 62
     7
 10
560.8736766676
 20
944.371056266
 30
0.0
  0
VERTEX
  5
6EB
  8
0
  6
CONTINUOUS
 62
     7
 10
560.9834535221
 20
944.3518412186
 30
0.0
  0
VERTEX
  5
6EC
  8
0
  6
CONTINUOUS
 62
     7
 10
561.0890058974
 20
944.294933684
 30
0.0
  0
VERTEX
  5
6ED
  8
0
  6
CONTINUOUS
 62
     7
 10
561.1862881283
 20
944.2025241329
 30
0.0
  0
VERTEX
  5
6EE
  8
0
  6
CONTINUOUS
 62
     7
 10
561.2715600232
 20
944.0781590416
 30
0.0
  0
VERTEX
  5
6EF
  8
0
  6
CONTINUOUS
 62
     7
 10
561.3415358762
 20
943.9266291334
 30
0.0
  0
VERTEX
  5
6F0
  8
0
  6
CONTINUOUS
 62
     7
 10
561.3935334781
 20
943.7537384106
 30
0.0
  0
VERTEX
  5
6F1
  8
0
  6
CONTINUOUS
 62
     7
 10
561.4255560736
 20
943.5661476924
 30
0.0
  0
VERTEX
  5
6F2
  8
0
  6
CONTINUOUS
 62
     7
 10
561.436366866
 20
943.3710542394
 30
0.0
  0
SEQEND
  5
9D3
  8
0
  6
CONTINUOUS
 62
     7
  0
LINE
  5
292
  8
0
  6
CONTINUOUS
 62
     7
 10
560.8736766676
 20
944.371056266
 30
0.0
 11
558.6229084233
 21
944.371056266
 31
0.0
  0
ARC
  5
293
  8
0
  6
CONTINUOUS
 62
     7
 10
399.1091560036
 20
943.4502085931
 30
0.0
 40
0.9258132841419604
 50
95.9368569931
 51
184.9046108322
  0
LINE
  5
294
  8
0
  6
CONTINUOUS
 62
     7
 10
399.0133969287
 20
944.371056266
 30
0.0
 11
429.7664506534
 21
944.371056266
 31
0.0
  0
LINE
  5
295
  8
0
  6
CONTINUOUS
 62
     7
 10
429.203760455
 20
943.3710542394
 30
0.0
 11
398.1867326597
 21
943.3710542394
 31
0.0
  0
LINE
  5
296
  8
0
  6
CONTINUOUS
 62
     7
 10
398.1867326597
 20
943.3710542394
 30
0.0
 11
398.1867326597
 21
932.371054299
 31
0.0
  0
LINE
  5
297
  8
0
  6
CONTINUOUS
 62
     7
 10
398.1867326597
 20
932.371054299
 30
0.0
 11
429.203760455
 21
932.371054299
 31
0.0
  0
LINE
  5
298
  8
0
  6
CONTINUOUS
 62
     7
 10
560.8736766676
 20
944.371056266
 30
0.0
 11
591.6267303923
 21
944.371056266
 31
0.0
  0
ARC
  5
299
  8
0
  6
CONTINUOUS
 62
     7
 10
591.5309713174
 20
943.4502085931
 30
0.0
 40
0.9258132841420794
 50
355.0953891678
 51
84.0631430069
  0
LINE
  5
29A
  8
0
  6
CONTINUOUS
 62
     7
 10
592.4533946613
 20
943.3710542394
 30
0.0
 11
561.436366866
 21
943.3710542394
 31
0.0
  0
LINE
  5
29B
  8
0
  6
CONTINUOUS
 62
     7
 10
592.4533946613
 20
932.371054299
 30
0.0
 11
592.4533946613
 21
943.3710542394
 31
0.0
  0
LINE
  5
29C
  8
0
  6
CONTINUOUS
 62
     7
 10
561.436366866
 20
932.371054299
 30
0.0
 11
592.4533946613
 21
932.371054299
 31
0.0
  0
POLYLINE
  5
29D
  8
0
  6
CONTINUOUS
 62
     7
 66
     1
 10
0.0
 20
0.0
 30
0.0
 70
   128
  0
VERTEX
  5
6F3
  8
0
  6
CONTINUOUS
 62
     7
 10
457.5422858993
 20
971.871056117
 30
0.0
  0
VERTEX
  5
6F4
  8
0
  6
CONTINUOUS
 62
     7
 10
457.7273732225
 20
975.825749792
 30
0.0
  0
VERTEX
  5
6F5
  8
0
  6
CONTINUOUS
 62
     7
 10
458.2881858746
 20
979.7804471924
 30
0.0
  0
VERTEX
  5
6F6
  8
0
  6
CONTINUOUS
 62
     7
 10
460.1204438309
 20
986.3945995344
 30
0.0
  0
VERTEX
  5
6F7
  8
0
  6
CONTINUOUS
 62
     7
 10
463.0978001455
 20
992.7512691243
 30
0.0
  0
VERTEX
  5
6F8
  8
0
  6
CONTINUOUS
 62
     7
 10
466.7317910293
 20
998.0193064435
 30
0.0
  0
VERTEX
  5
6F9
  8
0
  6
CONTINUOUS
 62
     7
 10
471.2871840397
 20
1002.7331956549
 30
0.0
  0
VERTEX
  5
6FA
  8
0
  6
CONTINUOUS
 62
     7
 10
475.9707195858
 20
1006.2259770817
 30
0.0
  0
VERTEX
  5
6FB
  8
0
  6
CONTINUOUS
 62
     7
 10
481.3134005467
 20
1009.0201306044
 30
0.0
  0
VERTEX
  5
6FC
  8
0
  6
CONTINUOUS
 62
     7
 10
486.7724241862
 20
1010.8337234593
 30
0.0
  0
VERTEX
  5
6FD
  8
0
  6
CONTINUOUS
 62
     7
 10
492.6587057939
 20
1011.7716744895
 30
0.0
  0
VERTEX
  5
6FE
  8
0
  6
CONTINUOUS
 62
     7
 10
495.3200636605
 20
1011.8710554557
 30
0.0
  0
SEQEND
  5
9D4
  8
0
  6
CONTINUOUS
 62
     7
  0
POLYLINE
  5
29E
  8
0
  6
CONTINUOUS
 62
     7
 66
     1
 10
0.0
 20
0.0
 30
0.0
 70
   128
  0
VERTEX
  5
6FF
  8
0
  6
CONTINUOUS
 62
     7
 10
495.3200636605
 20
1011.8710554557
 30
0.0
  0
VERTEX
  5
700
  8
0
  6
CONTINUOUS
 62
     7
 10
500.2319520513
 20
1011.5315073522
 30
0.0
  0
VERTEX
  5
701
  8
0
  6
CONTINUOUS
 62
     7
 10
505.1438404421
 20
1010.4949569682
 30
0.0
  0
VERTEX
  5
702
  8
0
  6
CONTINUOUS
 62
     7
 10
511.2837931315
 20
1008.1242797783
 30
0.0
  0
VERTEX
  5
703
  8
0
  6
CONTINUOUS
 62
     7
 10
517.0495329598
 20
1004.5917979328
 30
0.0
  0
VERTEX
  5
704
  8
0
  6
CONTINUOUS
 62
     7
 10
521.7841869394
 20
1000.4163305162
 30
0.0
  0
VERTEX
  5
705
  8
0
  6
CONTINUOUS
 62
     7
 10
525.8742502133
 20
995.3951057865
 30
0.0
  0
VERTEX
  5
706
  8
0
  6
CONTINUOUS
 62
     7
 10
528.9189597765
 20
990.1576046719
 30
0.0
  0
VERTEX
  5
707
  8
0
  6
CONTINUOUS
 62
     7
 10
531.21296374
 20
984.3481187596
 30
0.0
  0
VERTEX
  5
708
  8
0
  6
CONTINUOUS
 62
     7
 10
532.6096011499
 20
978.2811743094
 30
0.0
  0
VERTEX
  5
709
  8
0
  6
CONTINUOUS
 62
     7
 10
533.0978414217
 20
971.871056117
 30
0.0
  0
SEQEND
  5
9D5
  8
0
  6
CONTINUOUS
 62
     7
  0
LINE
  5
29F
  8
0
  6
CONTINUOUS
 62
     7
 10
533.0978414217
 20
971.871056117
 30
0.0
 11
530.3200638095
 21
971.871056117
 31
0.0
  0
LINE
  5
2A0
  8
0
  6
CONTINUOUS
 62
     7
 10
457.5422858993
 20
971.871056117
 30
0.0
 11
460.3200635115
 21
971.871056117
 31
0.0
  0
LINE
  5
2A1
  8
0
  6
CONTINUOUS
 62
     7
 10
533.0978414217
 20
971.871056117
 30
0.0
 11
533.0978414217
 21
949.3710589482
 31
0.0
  0
LINE
  5
2A2
  8
0
  6
CONTINUOUS
 62
     7
 10
495.3200636605
 20
1011.8710554557
 30
0.0
 11
580.3200645546
 21
1011.8710554557
 31
0.0
  0
LINE
  5
2A3
  8
0
  6
CONTINUOUS
 62
     7
 10
410.3200627664
 20
1011.8710554557
 30
0.0
 11
495.3200636605
 21
1011.8710554557
 31
0.0
  0
LINE
  5
2A4
  8
0
  6
CONTINUOUS
 62
     7
 10
457.5422858993
 20
949.3710589482
 30
0.0
 11
457.5422858993
 21
971.871056117
 31
0.0
  0
LINE
  5
2A5
  8
0
  6
CONTINUOUS
 62
     7
 10
410.9103499154
 20
949.3710589482
 30
0.0
 11
457.5422858993
 21
949.3710589482
 31
0.0
  0
LINE
  5
2A6
  8
0
  6
CONTINUOUS
 62
     7
 10
410.9103499154
 20
952.371053852
 30
0.0
 11
410.9103499154
 21
949.3710589482
 31
0.0
  0
ARC
  5
2A7
  8
0
  6
CONTINUOUS
 62
     7
 10
325.3306792039
 20
952.3368194594
 30
0.0
 40
85.57967755890213
 50
0.0229200006
 51
6.733431386
  0
LINE
  5
2A8
  8
0
  6
CONTINUOUS
 62
     7
 10
470.3291604469
 20
929.3710556699
 30
0.0
 11
410.3200627664
 21
929.3710556699
 31
0.0
  0
LINE
  5
2A9
  8
0
  6
CONTINUOUS
 62
     7
 10
580.3200645546
 20
929.3710556699
 30
0.0
 11
520.3109668741
 21
929.3710556699
 31
0.0
  0
ARC
  5
2AA
  8
0
  6
CONTINUOUS
 62
     7
 10
508.8716793309
 20
1156.942893101
 30
0.0
 40
227.8591637201176
 50
269.1069007779
 51
272.8776482689
  0
POLYLINE
  5
2AB
  8
0
  6
CONTINUOUS
 62
     7
 66
     1
 10
0.0
 20
0.0
 30
0.0
 70
   128
  0
VERTEX
  5
70A
  8
0
  6
CONTINUOUS
 62
     7
 10
485.320063884
 20
929.1114103867
 30
0.0
  0
VERTEX
  5
70B
  8
0
  6
CONTINUOUS
 62
     7
 10
495.3215994334
 20
929.2700332476
 30
0.0
  0
VERTEX
  5
70C
  8
0
  6
CONTINUOUS
 62
     7
 10
505.320063437
 20
929.1114103867
 30
0.0
  0
SEQEND
  5
9D6
  8
0
  6
CONTINUOUS
 62
     7
  0
POLYLINE
  5
2AC
  8
0
  6
CONTINUOUS
 62
     7
 66
     1
 10
0.0
 20
0.0
 30
0.0
 70
   128
  0
VERTEX
  5
70D
  8
0
  6
CONTINUOUS
 62
     7
 10
470.3291604469
 20
929.3710556699
 30
0.0
  0
VERTEX
  5
70E
  8
0
  6
CONTINUOUS
 62
     7
 10
477.7224907825
 20
929.0988859607
 30
0.0
  0
VERTEX
  5
70F
  8
0
  6
CONTINUOUS
 62
     7
 10
485.320063884
 20
929.1114103867
 30
0.0
  0
SEQEND
  5
9D7
  8
0
  6
CONTINUOUS
 62
     7
  0
LINE
  5
2AD
  8
0
  6
CONTINUOUS
 62
     7
 10
505.320063437
 20
924.3710529877
 30
0.0
 11
505.320063437
 21
929.1114103867
 31
0.0
  0
LINE
  5
2AE
  8
0
  6
CONTINUOUS
 62
     7
 10
505.320063437
 20
924.3710529877
 30
0.0
 11
485.320063884
 21
924.3710529877
 31
0.0
  0
LINE
  5
2AF
  8
0
  6
CONTINUOUS
 62
     7
 10
485.320063884
 20
929.1114103867
 30
0.0
 11
485.320063884
 21
924.3710529877
 31
0.0
  0
LINE
  5
2B0
  8
0
  6
CONTINUOUS
 62
     7
 10
485.320063884
 20
924.3710529877
 30
0.0
 11
464.3200641671
 21
924.3710529877
 31
0.0
  0
ARC
  5
2B1
  8
0
  6
CONTINUOUS
 62
     7
 10
459.3200636605
 20
924.3710555507
 30
0.0
 40
5.0
 50
0.0
 51
90.0
  0
ARC
  5
2B2
  8
0
  6
CONTINUOUS
 62
     7
 10
531.3200636605
 20
924.3710555507
 30
0.0
 40
5.0
 50
90.0
 51
180.0
  0
LINE
  5
2B3
  8
0
  6
CONTINUOUS
 62
     7
 10
526.3200631539
 20
924.3710529877
 30
0.0
 11
505.320063437
 21
924.3710529877
 31
0.0
  0
POLYLINE
  5
2B4
  8
0
  6
CONTINUOUS
 62
     7
 66
     1
 10
0.0
 20
0.0
 30
0.0
 70
   128
  0
VERTEX
  5
710
  8
0
  6
CONTINUOUS
 62
     7
 10
464.3996102909
 20
869.5758846475
 30
0.0
  0
VERTEX
  5
711
  8
0
  6
CONTINUOUS
 62
     7
 10
465.0415150622
 20
872.3292169048
 30
0.0
  0
VERTEX
  5
712
  8
0
  6
CONTINUOUS
 62
     7
 10
466.2589715967
 20
875.4086163713
 30
0.0
  0
VERTEX
  5
713
  8
0
  6
CONTINUOUS
 62
     7
 10
467.4695512453
 20
877.8506037666
 30
0.0
  0
VERTEX
  5
714
  8
0
  6
CONTINUOUS
 62
     7
 10
468.8873781065
 20
880.384859152
 30
0.0
  0
VERTEX
  5
715
  8
0
  6
CONTINUOUS
 62
     7
 10
472.3157404164
 20
885.8347800447
 30
0.0
  0
VERTEX
  5
716
  8
0
  6
CONTINUOUS
 62
     7
 10
474.8779466549
 20
889.5875629856
 30
0.0
  0
VERTEX
  5
717
  8
0
  6
CONTINUOUS
 62
     7
 10
477.5929084221
 20
893.4051138236
 30
0.0
  0
VERTEX
  5
718
  8
0
  6
CONTINUOUS
 62
     7
 10
480.5103760386
 20
897.4000182821
 30
0.0
  0
VERTEX
  5
719
  8
0
  6
CONTINUOUS
 62
     7
 10
483.4940076048
 20
901.4225494935
 30
0.0
  0
VERTEX
  5
71A
  8
0
  6
CONTINUOUS
 62
     7
 10
484.7839638764
 20
903.1525817587
 30
0.0
  0
VERTEX
  5
71B
  8
0
  6
CONTINUOUS
 62
     7
 10
485.1625306705
 20
903.6599439456
 30
0.0
  0
VERTEX
  5
71C
  8
0
  6
CONTINUOUS
 62
     7
 10
485.2949572901
 20
903.8374093248
 30
0.0
  0
VERTEX
  5
71D
  8
0
  6
CONTINUOUS
 62
     7
 10
485.320063884
 20
903.8710561468
 30
0.0
  0
SEQEND
  5
9D8
  8
0
  6
CONTINUOUS
 62
     7
  0
LINE
  5
2B5
  8
0
  6
CONTINUOUS
 62
     7
 10
464.3996102909
 20
875.6936457826
 30
0.0
 11
464.3996102909
 21
869.5758846475
 31
0.0
  0
ARC
  5
2B6
  8
0
  6
CONTINUOUS
 62
     7
 10
342.3548942108
 20
875.9458020476
 30
0.0
 40
122.0449765695425
 50
359.88162151
 51
1.9843886403
  0
LINE
  5
2B7
  8
0
  6
CONTINUOUS
 62
     7
 10
464.3200641671
 20
883.5579422189
 30
0.0
 11
464.3200641671
 21
924.3710529877
 31
0.0
  0
LINE
  5
2B8
  8
0
  6
CONTINUOUS
 62
     7
 10
485.320063884
 20
924.3710529877
 30
0.0
 11
485.320063884
 21
903.8710561468
 31
0.0
  0
POLYLINE
  5
2B9
  8
0
  6
CONTINUOUS
 62
     7
 66
     1
 10
0.0
 20
0.0
 30
0.0
 70
   128
  0
VERTEX
  5
71E
  8
0
  6
CONTINUOUS
 62
     7
 10
485.320063884
 20
903.8710561468
 30
0.0
  0
VERTEX
  5
71F
  8
0
  6
CONTINUOUS
 62
     7
 10
485.297786648
 20
903.8338479473
 30
0.0
  0
VERTEX
  5
720
  8
0
  6
CONTINUOUS
 62
     7
 10
485.1450078363
 20
903.5786953642
 30
0.0
  0
VERTEX
  5
721
  8
0
  6
CONTINUOUS
 62
     7
 10
483.7548729206
 20
901.2556117846
 30
0.0
  0
VERTEX
  5
722
  8
0
  6
CONTINUOUS
 62
     7
 10
480.4164055908
 20
895.6377995087
 30
0.0
  0
VERTEX
  5
723
  8
0
  6
CONTINUOUS
 62
     7
 10
477.1848773757
 20
890.0606599523
 30
0.0
  0
VERTEX
  5
724
  8
0
  6
CONTINUOUS
 62
     7
 10
474.1734998474
 20
884.605046816
 30
0.0
  0
VERTEX
  5
725
  8
0
  6
CONTINUOUS
 62
     7
 10
471.2806554685
 20
878.8846549465
 30
0.0
  0
VERTEX
  5
726
  8
0
  6
CONTINUOUS
 62
     7
 10
468.9819855789
 20
873.4680083467
 30
0.0
  0
VERTEX
  5
727
  8
0
  6
CONTINUOUS
 62
     7
 10
467.8929528395
 20
870.0007763578
 30
0.0
  0
VERTEX
  5
728
  8
0
  6
CONTINUOUS
 62
     7
 10
467.3523089091
 20
866.8243852331
 30
0.0
  0
SEQEND
  5
9D9
  8
0
  6
CONTINUOUS
 62
     7
  0
LINE
  5
2BA
  8
0
  6
CONTINUOUS
 62
     7
 10
485.320063884
 20
903.8710561468
 30
0.0
 11
505.320063437
 21
903.8710561468
 31
0.0
  0
POLYLINE
  5
2BB
  8
0
  6
CONTINUOUS
 62
     7
 66
     1
 10
0.0
 20
0.0
 30
0.0
 70
   128
  0
VERTEX
  5
729
  8
0
  6
CONTINUOUS
 62
     7
 10
523.287818412
 20
866.8243852331
 30
0.0
  0
VERTEX
  5
72A
  8
0
  6
CONTINUOUS
 62
     7
 10
522.7471744815
 20
870.0007763578
 30
0.0
  0
VERTEX
  5
72B
  8
0
  6
CONTINUOUS
 62
     7
 10
521.6581417421
 20
873.4680083467
 30
0.0
  0
VERTEX
  5
72C
  8
0
  6
CONTINUOUS
 62
     7
 10
519.3594718525
 20
878.8846549465
 30
0.0
  0
VERTEX
  5
72D
  8
0
  6
CONTINUOUS
 62
     7
 10
516.4666274736
 20
884.605046816
 30
0.0
  0
VERTEX
  5
72E
  8
0
  6
CONTINUOUS
 62
     7
 10
513.4552499453
 20
890.0606599523
 30
0.0
  0
VERTEX
  5
72F
  8
0
  6
CONTINUOUS
 62
     7
 10
510.2237217302
 20
895.6377995087
 30
0.0
  0
VERTEX
  5
730
  8
0
  6
CONTINUOUS
 62
     7
 10
506.8852544004
 20
901.2556117846
 30
0.0
  0
VERTEX
  5
731
  8
0
  6
CONTINUOUS
 62
     7
 10
505.4951194847
 20
903.5786953642
 30
0.0
  0
VERTEX
  5
732
  8
0
  6
CONTINUOUS
 62
     7
 10
505.342340673
 20
903.8338479473
 30
0.0
  0
VERTEX
  5
733
  8
0
  6
CONTINUOUS
 62
     7
 10
505.320063437
 20
903.8710561468
 30
0.0
  0
SEQEND
  5
9DA
  8
0
  6
CONTINUOUS
 62
     7
  0
LINE
  5
2BC
  8
0
  6
CONTINUOUS
 62
     7
 10
467.3523089091
 20
866.8243852331
 30
0.0
 11
523.287818412
 21
866.8243852331
 31
0.0
  0
ARC
  5
2BD
  8
0
  6
CONTINUOUS
 62
     7
 10
467.2606856176
 20
869.8727508797
 30
0.0
 40
3.049742274862543
 50
202.5559329294
 51
271.7215939759
  0
POLYLINE
  5
2BE
  8
0
  6
CONTINUOUS
 62
     7
 66
     1
 10
0.0
 20
0.0
 30
0.0
 70
   128
  0
VERTEX
  5
734
  8
0
  6
CONTINUOUS
 62
     7
 10
464.3996102909
 20
869.5758846475
 30
0.0
  0
VERTEX
  5
735
  8
0
  6
CONTINUOUS
 62
     7
 10
464.4100057135
 20
869.0706458761
 30
0.0
  0
VERTEX
  5
736
  8
0
  6
CONTINUOUS
 62
     7
 10
464.4442318181
 20
868.7029150202
 30
0.0
  0
SEQEND
  5
9DB
  8
0
  6
CONTINUOUS
 62
     7
  0
LINE
  5
2BF
  8
0
  6
CONTINUOUS
 62
     7
 10
505.320063437
 20
903.8710561468
 30
0.0
 11
505.320063437
 21
924.3710529877
 31
0.0
  0
POLYLINE
  5
2C0
  8
0
  6
CONTINUOUS
 62
     7
 66
     1
 10
0.0
 20
0.0
 30
0.0
 70
   128
  0
VERTEX
  5
737
  8
0
  6
CONTINUOUS
 62
     7
 10
526.2405170301
 20
875.6936457826
 30
0.0
  0
VERTEX
  5
738
  8
0
  6
CONTINUOUS
 62
     7
 10
526.2445477942
 20
876.413804002
 30
0.0
  0
VERTEX
  5
739
  8
0
  6
CONTINUOUS
 62
     7
 10
526.2825532059
 20
878.2124784662
 30
0.0
  0
VERTEX
  5
73A
  8
0
  6
CONTINUOUS
 62
     7
 10
526.3152854691
 20
879.5851138307
 30
0.0
  0
VERTEX
  5
73B
  8
0
  6
CONTINUOUS
 62
     7
 10
526.3144137511
 20
880.178522773
 30
0.0
  0
SEQEND
  5
9DC
  8
0
  6
CONTINUOUS
 62
     7
  0
LINE
  5
2C1
  8
0
  6
CONTINUOUS
 62
     7
 10
526.2405170301
 20
869.5758846475
 30
0.0
 11
526.2405170301
 21
875.6936457826
 31
0.0
  0
POLYLINE
  5
2C2
  8
0
  6
CONTINUOUS
 62
     7
 66
     1
 10
0.0
 20
0.0
 30
0.0
 70
   128
  0
VERTEX
  5
73C
  8
0
  6
CONTINUOUS
 62
     7
 10
505.320063437
 20
903.8710561468
 30
0.0
  0
VERTEX
  5
73D
  8
0
  6
CONTINUOUS
 62
     7
 10
505.345170031
 20
903.8374093248
 30
0.0
  0
VERTEX
  5
73E
  8
0
  6
CONTINUOUS
 62
     7
 10
505.4775966505
 20
903.6599439456
 30
0.0
  0
VERTEX
  5
73F
  8
0
  6
CONTINUOUS
 62
     7
 10
505.8561634446
 20
903.1525817587
 30
0.0
  0
VERTEX
  5
740
  8
0
  6
CONTINUOUS
 62
     7
 10
507.1461197162
 20
901.4225494935
 30
0.0
  0
VERTEX
  5
741
  8
0
  6
CONTINUOUS
 62
     7
 10
510.0335335532
 20
897.5304704978
 30
0.0
  0
VERTEX
  5
742
  8
0
  6
CONTINUOUS
 62
     7
 10
512.8603695134
 20
893.6636862232
 30
0.0
  0
VERTEX
  5
743
  8
0
  6
CONTINUOUS
 62
     7
 10
515.6730940739
 20
889.7150200679
 30
0.0
  0
VERTEX
  5
744
  8
0
  6
CONTINUOUS
 62
     7
 10
518.3243869046
 20
885.8347800447
 30
0.0
  0
VERTEX
  5
745
  8
0
  6
CONTINUOUS
 62
     7
 10
521.6599708597
 20
880.5427965595
 30
0.0
  0
VERTEX
  5
746
  8
0
  6
CONTINUOUS
 62
     7
 10
523.1300113896
 20
877.9269871189
 30
0.0
  0
VERTEX
  5
747
  8
0
  6
CONTINUOUS
 62
     7
 10
524.3811557243
 20
875.4086163713
 30
0.0
  0
VERTEX
  5
748
  8
0
  6
CONTINUOUS
 62
     7
 10
525.5765268753
 20
872.3972407057
 30
0.0
  0
VERTEX
  5
749
  8
0
  6
CONTINUOUS
 62
     7
 10
526.2405170301
 20
869.5758846475
 30
0.0
  0
SEQEND
  5
9DD
  8
0
  6
CONTINUOUS
 62
     7
  0
LINE
  5
2C3
  8
0
  6
CONTINUOUS
 62
     7
 10
526.3200631539
 20
924.3710529877
 30
0.0
 11
526.3200631539
 21
883.5579422189
 31
0.0
  0
LINE
  5
2C4
  8
0
  6
CONTINUOUS
 62
     7
 10
526.1958955029
 20
868.7029150202
 30
0.0
 11
526.2405170301
 21
869.5758846475
 31
0.0
  0
ARC
  5
2C5
  8
0
  6
CONTINUOUS
 62
     7
 10
523.3794417034
 20
869.8727508797
 30
0.0
 40
3.049742274862235
 50
268.2784060241
 51
337.4440670706
  0
POLYLINE
  5
2C6
  8
0
  6
CONTINUOUS
 62
     7
 66
     1
 10
0.0
 20
0.0
 30
0.0
 70
   128
  0
VERTEX
  5
74A
  8
0
  6
CONTINUOUS
 62
     7
 10
535.3200627664
 20
944.371056266
 30
0.0
  0
VERTEX
  5
74B
  8
0
  6
CONTINUOUS
 62
     7
 10
534.8865283827
 20
944.4671315028
 30
0.0
  0
VERTEX
  5
74C
  8
0
  6
CONTINUOUS
 62
     7
 10
534.4696572224
 20
944.7516542746
 30
0.0
  0
VERTEX
  5
74D
  8
0
  6
CONTINUOUS
 62
     7
 10
534.0854643086
 20
945.2137094809
 30
0.0
  0
VERTEX
  5
74E
  8
0
  6
CONTINUOUS
 62
     7
 10
533.7487166921
 20
945.8355200364
 30
0.0
  0
VERTEX
  5
74F
  8
0
  6
CONTINUOUS
 62
     7
 10
533.472352306
 20
946.5932068302
 30
0.0
  0
VERTEX
  5
750
  8
0
  6
CONTINUOUS
 62
     7
 10
533.2669994036
 20
947.4576380922
 30
0.0
  0
VERTEX
  5
751
  8
0
  6
CONTINUOUS
 62
     7
 10
533.1405406991
 20
948.3956065847
 30
0.0
  0
VERTEX
  5
752
  8
0
  6
CONTINUOUS
 62
     7
 10
533.0978414217
 20
949.3710589482
 30
0.0
  0
SEQEND
  5
9DE
  8
0
  6
CONTINUOUS
 62
     7
  0
LINE
  5
2C7
  8
0
  6
CONTINUOUS
 62
     7
 10
410.3200627664
 20
947.0219057872
 30
0.0
 11
410.3200627664
 21
947.3378253056
 31
0.0
  0
POLYLINE
  5
2C8
  8
0
  6
CONTINUOUS
 62
     7
 66
     1
 10
0.0
 20
0.0
 30
0.0
 70
   128
  0
VERTEX
  5
753
  8
0
  6
CONTINUOUS
 62
     7
 10
410.9103499154
 20
949.3710589482
 30
0.0
  0
VERTEX
  5
754
  8
0
  6
CONTINUOUS
 62
     7
 10
410.7937781314
 20
948.3710569216
 30
0.0
  0
VERTEX
  5
755
  8
0
  6
CONTINUOUS
 62
     7
 10
410.6297685007
 20
947.8457239343
 30
0.0
  0
VERTEX
  5
756
  8
0
  6
CONTINUOUS
 62
     7
 10
410.485957394
 20
947.5308027937
 30
0.0
  0
VERTEX
  5
757
  8
0
  6
CONTINUOUS
 62
     7
 10
410.3889210323
 20
947.3710399939
 30
0.0
  0
VERTEX
  5
758
  8
0
  6
CONTINUOUS
 62
     7
 10
410.3294803003
 20
947.3147881104
 30
0.0
  0
VERTEX
  5
759
  8
0
  6
CONTINUOUS
 62
     7
 10
410.3200627664
 20
947.3378253056
 30
0.0
  0
SEQEND
  5
9DF
  8
0
  6
CONTINUOUS
 62
     7
  0
POLYLINE
  5
2C9
  8
0
  6
CONTINUOUS
 62
     7
 66
     1
 10
0.0
 20
0.0
 30
0.0
 70
   128
  0
VERTEX
  5
75A
  8
0
  6
CONTINUOUS
 62
     7
 10
455.3200645546
 20
944.371056266
 30
0.0
  0
VERTEX
  5
75B
  8
0
  6
CONTINUOUS
 62
     7
 10
455.7535989384
 20
944.4671315028
 30
0.0
  0
VERTEX
  5
75C
  8
0
  6
CONTINUOUS
 62
     7
 10
456.1704700986
 20
944.7516542746
 30
0.0
  0
VERTEX
  5
75D
  8
0
  6
CONTINUOUS
 62
     7
 10
456.5546630124
 20
945.2137094809
 30
0.0
  0
VERTEX
  5
75E
  8
0
  6
CONTINUOUS
 62
     7
 10
456.8914106289
 20
945.8355200364
 30
0.0
  0
VERTEX
  5
75F
  8
0
  6
CONTINUOUS
 62
     7
 10
457.167775015
 20
946.5932068302
 30
0.0
  0
VERTEX
  5
760
  8
0
  6
CONTINUOUS
 62
     7
 10
457.3731279174
 20
947.4576380922
 30
0.0
  0
VERTEX
  5
761
  8
0
  6
CONTINUOUS
 62
     7
 10
457.4995866219
 20
948.3956065847
 30
0.0
  0
VERTEX
  5
762
  8
0
  6
CONTINUOUS
 62
     7
 10
457.5422858993
 20
949.3710589482
 30
0.0
  0
SEQEND
  5
9E0
  8
0
  6
CONTINUOUS
 62
     7
  0
ARC
  5
2CA
  8
0
  6
CONTINUOUS
 62
     7
 10
405.8825925693
 20
949.4105949391
 30
0.0
 40
5.039541409157746
 50
269.9402954443
 51
331.706430395
  0
LINE
  5
2CB
  8
0
  6
CONTINUOUS
 62
     7
 10
457.5422858993
 20
949.3710589482
 30
0.0
 11
460.3200635115
 21
949.3710589482
 31
0.0
  0
LINE
  5
2CC
  8
0
  6
CONTINUOUS
 62
     7
 10
530.3200638095
 20
949.3710589482
 30
0.0
 11
533.0978414217
 21
949.3710589482
 31
0.0
  0
LINE
  5
2CD
  8
0
  6
CONTINUOUS
 62
     7
 10
398.1867326597
 20
943.3710542394
 30
0.0
 11
397.3200662235
 21
943.3710542394
 31
0.0
  0
ARC
  5
2CE
  8
0
  6
CONTINUOUS
 62
     7
 10
398.3200636605
 20
943.3710555507
 30
0.0
 40
1.000000000000057
 50
90.0
 51
180.0
  0
LINE
  5
2CF
  8
0
  6
CONTINUOUS
 62
     7
 10
399.0133969287
 20
944.371056266
 30
0.0
 11
398.3200607995
 21
944.371056266
 31
0.0
  0
LINE
  5
2D0
  8
0
  6
CONTINUOUS
 62
     7
 10
397.3200662235
 20
932.371054299
 30
0.0
 11
397.3200662235
 21
943.3710542394
 31
0.0
  0
LINE
  5
2D1
  8
0
  6
CONTINUOUS
 62
     7
 10
397.3200662235
 20
932.371054299
 30
0.0
 11
398.1867326597
 21
932.371054299
 31
0.0
  0
ARC
  5
2D2
  8
0
  6
CONTINUOUS
 62
     7
 10
592.3200636605
 20
943.3710555507
 30
0.0
 40
1.0
 50
0.0
 51
90.0
  0
LINE
  5
2D3
  8
0
  6
CONTINUOUS
 62
     7
 10
593.3200610975
 20
943.3710542394
 30
0.0
 11
592.4533946613
 21
943.3710542394
 31
0.0
  0
LINE
  5
2D4
  8
0
  6
CONTINUOUS
 62
     7
 10
592.3200665215
 20
944.371056266
 30
0.0
 11
591.6267303923
 21
944.371056266
 31
0.0
  0
LINE
  5
2D5
  8
0
  6
CONTINUOUS
 62
     7
 10
593.3200610975
 20
943.3710542394
 30
0.0
 11
593.3200610975
 21
932.371054299
 31
0.0
  0
LINE
  5
2D6
  8
0
  6
CONTINUOUS
 62
     7
 10
592.4533946613
 20
932.371054299
 30
0.0
 11
593.3200610975
 21
932.371054299
 31
0.0
  0
LINE
  5
2D7
  8
0
  6
CONTINUOUS
 62
     7
 10
467.3523089091
 20
866.8243852331
 30
0.0
 11
467.3200627962
 21
866.1904451324
 31
0.0
  0
ARC
  5
2D8
  8
0
  6
CONTINUOUS
 62
     7
 10
467.1759938646
 20
869.7359329251
 30
0.0
 40
3.548413665991632
 50
227.5794083075
 51
272.3269021178
  0
LINE
  5
2D9
  8
0
  6
CONTINUOUS
 62
     7
 10
464.4442318181
 20
868.7029150202
 30
0.0
 11
464.7823484788
 21
867.1164479925
 31
0.0
  0
LINE
  5
2DA
  8
0
  6
CONTINUOUS
 62
     7
 10
523.3200645248
 20
866.1904451324
 30
0.0
 11
523.287818412
 21
866.8243852331
 31
0.0
  0
LINE
  5
2DB
  8
0
  6
CONTINUOUS
 62
     7
 10
525.8577788422
 20
867.1164479925
 30
0.0
 11
526.1958955029
 21
868.7029150202
 31
0.0
  0
ARC
  5
2DC
  8
0
  6
CONTINUOUS
 62
     7
 10
523.4641334564
 20
869.7359329251
 30
0.0
 40
3.548413665991387
 50
267.6730978822
 51
312.4205916925
  0
ARC
  5
2DD
  8
0
  6
CONTINUOUS
 62
     7
 10
479.346773038
 20
788.8971945288
 30
0.0
 40
74.69539874103418
 50
82.0975323731
 51
89.4242160933
  0
LINE
  5
2DE
  8
0
  6
CONTINUOUS
 62
     7
 10
466.6252328256
 20
863.5888215973
 30
0.0
 11
480.097398738
 21
863.5888215973
 31
0.0
  0
POLYLINE
  5
2DF
  8
0
  6
CONTINUOUS
 62
     7
 66
     1
 10
0.0
 20
0.0
 30
0.0
 70
   128
  0
VERTEX
  5
763
  8
0
  6
CONTINUOUS
 62
     7
 10
467.3200627962
 20
866.1904451324
 30
0.0
  0
VERTEX
  5
764
  8
0
  6
CONTINUOUS
 62
     7
 10
467.3200609336
 20
866.1872711851
 30
0.0
  0
VERTEX
  5
765
  8
0
  6
CONTINUOUS
 62
     7
 10
467.0967577199
 20
865.1437130644
 30
0.0
  0
VERTEX
  5
766
  8
0
  6
CONTINUOUS
 62
     7
 10
466.6279951284
 20
863.6032310201
 30
0.0
  0
VERTEX
  5
767
  8
0
  6
CONTINUOUS
 62
     7
 10
466.6252328256
 20
863.5888215973
 30
0.0
  0
SEQEND
  5
9E1
  8
0
  6
CONTINUOUS
 62
     7
  0
POLYLINE
  5
2E0
  8
0
  6
CONTINUOUS
 62
     7
 66
     1
 10
0.0
 20
0.0
 30
0.0
 70
   128
  0
VERTEX
  5
768
  8
0
  6
CONTINUOUS
 62
     7
 10
524.0148944954
 20
863.5888215973
 30
0.0
  0
VERTEX
  5
769
  8
0
  6
CONTINUOUS
 62
     7
 10
524.0121321926
 20
863.6032310201
 30
0.0
  0
VERTEX
  5
76A
  8
0
  6
CONTINUOUS
 62
     7
 10
523.5433696011
 20
865.1437130644
 30
0.0
  0
VERTEX
  5
76B
  8
0
  6
CONTINUOUS
 62
     7
 10
523.3200645248
 20
866.1904451324
 30
0.0
  0
SEQEND
  5
9E2
  8
0
  6
CONTINUOUS
 62
     7
  0
LINE
  5
2E1
  8
0
  6
CONTINUOUS
 62
     7
 10
510.542728583
 20
863.5888215973
 30
0.0
 11
524.0148944954
 21
863.5888215973
 31
0.0
  0
ARC
  5
2E2
  8
0
  6
CONTINUOUS
 62
     7
 10
511.6348565258
 20
784.2898951834
 30
0.0
 40
79.30644660953247
 50
90.7890443012
 51
97.6892072324
  0
LINE
  5
2E3
  8
0
  6
CONTINUOUS
 62
     7
 10
501.023692655
 20
862.8832516147
 30
0.0
 11
489.616434666
 21
862.8832516147
 31
0.0
  0
ARC
  5
2E4
  8
0
  6
CONTINUOUS
 62
     7
 10
469.7289994351
 20
898.8652457512
 30
0.0
 40
35.41270207507269
 50
261.9384843976
 51
264.9718269098
  0
LINE
  5
2E5
  8
0
  6
CONTINUOUS
 62
     7
 10
464.7674957464
 20
863.9517840816
 30
0.0
 11
464.7628558973
 21
863.8024893476
 31
0.0
  0
POLYLINE
  5
2E6
  8
0
  6
CONTINUOUS
 62
     7
 66
     1
 10
0.0
 20
0.0
 30
0.0
 70
   128
  0
VERTEX
  5
76C
  8
0
  6
CONTINUOUS
 62
     7
 10
464.7823484788
 20
867.1164479925
 30
0.0
  0
VERTEX
  5
76D
  8
0
  6
CONTINUOUS
 62
     7
 10
464.8098429838
 20
866.1713865473
 30
0.0
  0
VERTEX
  5
76E
  8
0
  6
CONTINUOUS
 62
     7
 10
464.7674957464
 20
863.9517840816
 30
0.0
  0
SEQEND
  5
9E3
  8
0
  6
CONTINUOUS
 62
     7
  0
ARC
  5
2E7
  8
0
  6
CONTINUOUS
 62
     7
 10
558.2109364286
 20
865.6859244136
 30
0.0
 40
32.38476807885855
 50
177.4682652796
 51
183.0695438892
  0
LINE
  5
2E8
  8
0
  6
CONTINUOUS
 62
     7
 10
525.8772714237
 20
863.8024893476
 30
0.0
 11
525.8726315746
 21
863.9517840816
 31
0.0
  0
ARC
  5
2E9
  8
0
  6
CONTINUOUS
 62
     7
 10
520.996358167
 20
898.1223591488
 30
0.0
 40
34.66520989969167
 50
274.9954609444
 51
278.0942277483
  0
POLYLINE
  5
2EA
  8
0
  6
CONTINUOUS
 62
     7
 66
     1
 10
0.0
 20
0.0
 30
0.0
 70
   128
  0
VERTEX
  5
76F
  8
0
  6
CONTINUOUS
 62
     7
 10
526.3628406624
 20
882.1858432962
 30
0.0
  0
VERTEX
  5
770
  8
0
  6
CONTINUOUS
 62
     7
 10
526.3559339742
 20
881.7898747398
 30
0.0
  0
VERTEX
  5
771
  8
0
  6
CONTINUOUS
 62
     7
 10
526.3806773523
 20
881.2890616132
 30
0.0
  0
VERTEX
  5
772
  8
0
  6
CONTINUOUS
 62
     7
 10
526.5368694613
 20
880.2952733709
 30
0.0
  0
VERTEX
  5
773
  8
0
  6
CONTINUOUS
 62
     7
 10
526.9974662164
 20
878.8207140638
 30
0.0
  0
VERTEX
  5
774
  8
0
  6
CONTINUOUS
 62
     7
 10
527.5923280219
 20
877.3864027931
 30
0.0
  0
VERTEX
  5
775
  8
0
  6
CONTINUOUS
 62
     7
 10
528.0804379085
 20
876.136016555
 30
0.0
  0
VERTEX
  5
776
  8
0
  6
CONTINUOUS
 62
     7
 10
528.2329438428
 20
875.6936457826
 30
0.0
  0
SEQEND
  5
9E4
  8
0
  6
CONTINUOUS
 62
     7
  0
LINE
  5
2EB
  8
0
  6
CONTINUOUS
 62
     7
 10
528.2329438428
 20
875.6936457826
 30
0.0
 11
526.2405170301
 21
875.6936457826
 31
0.0
  0
LINE
  5
2EC
  8
0
  6
CONTINUOUS
 62
     7
 10
462.4071834782
 20
875.6936457826
 30
0.0
 11
464.3996102909
 21
875.6936457826
 31
0.0
  0
POLYLINE
  5
2ED
  8
0
  6
CONTINUOUS
 62
     7
 66
     1
 10
0.0
 20
0.0
 30
0.0
 70
   128
  0
VERTEX
  5
777
  8
0
  6
CONTINUOUS
 62
     7
 10
462.4071834782
 20
875.6936457826
 30
0.0
  0
VERTEX
  5
778
  8
0
  6
CONTINUOUS
 62
     7
 10
462.8094403247
 20
876.8012490942
 30
0.0
  0
VERTEX
  5
779
  8
0
  6
CONTINUOUS
 62
     7
 10
463.5059764782
 20
878.4764972402
 30
0.0
  0
VERTEX
  5
77A
  8
0
  6
CONTINUOUS
 62
     7
 10
464.0893606643
 20
880.2347001507
 30
0.0
  0
VERTEX
  5
77B
  8
0
  6
CONTINUOUS
 62
     7
 10
464.2148209909
 20
880.8998283817
 30
0.0
  0
VERTEX
  5
77C
  8
0
  6
CONTINUOUS
 62
     7
 10
464.2767800192
 20
881.5457043125
 30
0.0
  0
VERTEX
  5
77D
  8
0
  6
CONTINUOUS
 62
     7
 10
464.2820382664
 20
882.059272833
 30
0.0
  0
VERTEX
  5
77E
  8
0
  6
CONTINUOUS
 62
     7
 10
464.2772866586
 20
882.1858432962
 30
0.0
  0
SEQEND
  5
9E5
  8
0
  6
CONTINUOUS
 62
     7
  0
LINE
  5
2EE
  8
0
  6
CONTINUOUS
 62
     7
 10
462.4071834782
 20
869.5758846475
 30
0.0
 11
462.4071834782
 21
875.6936457826
 31
0.0
  0
LINE
  5
2EF
  8
0
  6
CONTINUOUS
 62
     7
 10
462.4071834782
 20
869.5758846475
 30
0.0
 11
464.3996102909
 21
869.5758846475
 31
0.0
  0
POLYLINE
  5
2F0
  8
0
  6
CONTINUOUS
 62
     7
 66
     1
 10
0.0
 20
0.0
 30
0.0
 70
   128
  0
VERTEX
  5
77F
  8
0
  6
CONTINUOUS
 62
     7
 10
462.5055125157
 20
868.3788147642
 30
0.0
  0
VERTEX
  5
780
  8
0
  6
CONTINUOUS
 62
     7
 10
462.4395338992
 20
868.884738989
 30
0.0
  0
VERTEX
  5
781
  8
0
  6
CONTINUOUS
 62
     7
 10
462.4071834782
 20
869.5758846475
 30
0.0
  0
SEQEND
  5
9E6
  8
0
  6
CONTINUOUS
 62
     7
  0
POLYLINE
  5
2F1
  8
0
  6
CONTINUOUS
 62
     7
 66
     1
 10
0.0
 20
0.0
 30
0.0
 70
   128
  0
VERTEX
  5
782
  8
0
  6
CONTINUOUS
 62
     7
 10
462.5055125157
 20
868.3788147642
 30
0.0
  0
VERTEX
  5
783
  8
0
  6
CONTINUOUS
 62
     7
 10
462.8453483979
 20
868.4356328918
 30
0.0
  0
VERTEX
  5
784
  8
0
  6
CONTINUOUS
 62
     7
 10
463.1750216881
 20
868.4907373859
 30
0.0
  0
VERTEX
  5
785
  8
0
  6
CONTINUOUS
 62
     7
 10
463.4846752683
 20
868.5425040199
 30
0.0
  0
VERTEX
  5
786
  8
0
  6
CONTINUOUS
 62
     7
 10
463.765051792
 20
868.589383073
 30
0.0
  0
VERTEX
  5
787
  8
0
  6
CONTINUOUS
 62
     7
 10
464.0077619056
 20
868.6299589349
 30
0.0
  0
VERTEX
  5
788
  8
0
  6
CONTINUOUS
 62
     7
 10
464.205550606
 20
868.6630246116
 30
0.0
  0
VERTEX
  5
789
  8
0
  6
CONTINUOUS
 62
     7
 10
464.3525058577
 20
868.6875817253
 30
0.0
  0
VERTEX
  5
78A
  8
0
  6
CONTINUOUS
 62
     7
 10
464.4442318181
 20
868.7029150202
 30
0.0
  0
SEQEND
  5
9E7
  8
0
  6
CONTINUOUS
 62
     7
  0
LINE
  5
2F2
  8
0
  6
CONTINUOUS
 62
     7
 10
528.2329438428
 20
875.6936457826
 30
0.0
 11
528.2329438428
 21
869.5758846475
 31
0.0
  0
LINE
  5
2F3
  8
0
  6
CONTINUOUS
 62
     7
 10
528.2329438428
 20
869.5758846475
 30
0.0
 11
526.2405170301
 21
869.5758846475
 31
0.0
  0
LINE
  5
2F4
  8
0
  6
CONTINUOUS
 62
     7
 10
528.2329438428
 20
869.5758846475
 30
0.0
 11
528.1346148053
 21
868.3788147642
 31
0.0
  0
POLYLINE
  5
2F5
  8
0
  6
CONTINUOUS
 62
     7
 66
     1
 10
0.0
 20
0.0
 30
0.0
 70
   128
  0
VERTEX
  5
78B
  8
0
  6
CONTINUOUS
 62
     7
 10
528.1346148053
 20
868.3788147642
 30
0.0
  0
VERTEX
  5
78C
  8
0
  6
CONTINUOUS
 62
     7
 10
527.7947789232
 20
868.4356328918
 30
0.0
  0
VERTEX
  5
78D
  8
0
  6
CONTINUOUS
 62
     7
 10
527.4651056329
 20
868.4907373859
 30
0.0
  0
VERTEX
  5
78E
  8
0
  6
CONTINUOUS
 62
     7
 10
527.1554520527
 20
868.5425040199
 30
0.0
  0
VERTEX
  5
78F
  8
0
  6
CONTINUOUS
 62
     7
 10
526.875075529
 20
868.589383073
 30
0.0
  0
VERTEX
  5
790
  8
0
  6
CONTINUOUS
 62
     7
 10
526.6323654155
 20
868.6299589349
 30
0.0
  0
VERTEX
  5
791
  8
0
  6
CONTINUOUS
 62
     7
 10
526.434576715
 20
868.6630246116
 30
0.0
  0
VERTEX
  5
792
  8
0
  6
CONTINUOUS
 62
     7
 10
526.2876214633
 20
868.6875817253
 30
0.0
  0
VERTEX
  5
793
  8
0
  6
CONTINUOUS
 62
     7
 10
526.1958955029
 20
868.7029150202
 30
0.0
  0
SEQEND
  5
9E8
  8
0
  6
CONTINUOUS
 62
     7
  0
LINE
  5
2F6
  8
0
  6
CONTINUOUS
 62
     7
 10
463.0905395547
 20
866.4109227134
 30
0.0
 11
462.5055125157
 21
868.3788147642
 31
0.0
  0
POLYLINE
  5
2F7
  8
0
  6
CONTINUOUS
 62
     7
 66
     1
 10
0.0
 20
0.0
 30
0.0
 70
   128
  0
VERTEX
  5
794
  8
0
  6
CONTINUOUS
 62
     7
 10
463.0905395547
 20
866.4109227134
 30
0.0
  0
VERTEX
  5
795
  8
0
  6
CONTINUOUS
 62
     7
 10
463.3570952514
 20
866.5220853759
 30
0.0
  0
VERTEX
  5
796
  8
0
  6
CONTINUOUS
 62
     7
 10
463.6180630127
 20
866.6309085561
 30
0.0
  0
VERTEX
  5
797
  8
0
  6
CONTINUOUS
 62
     7
 10
463.8679741124
 20
866.7351272775
 30
0.0
  0
VERTEX
  5
798
  8
0
  6
CONTINUOUS
 62
     7
 10
464.101587067
 20
866.8325510694
 30
0.0
  0
VERTEX
  5
799
  8
0
  6
CONTINUOUS
 62
     7
 10
464.3140087078
 20
866.9211384727
 30
0.0
  0
VERTEX
  5
79A
  8
0
  6
CONTINUOUS
 62
     7
 10
464.5007817248
 20
866.9990268423
 30
0.0
  0
VERTEX
  5
79B
  8
0
  6
CONTINUOUS
 62
     7
 10
464.6579927007
 20
867.0645919515
 30
0.0
  0
VERTEX
  5
79C
  8
0
  6
CONTINUOUS
 62
     7
 10
464.7823484788
 20
867.1164479925
 30
0.0
  0
SEQEND
  5
9E9
  8
0
  6
CONTINUOUS
 62
     7
  0
LINE
  5
2F8
  8
0
  6
CONTINUOUS
 62
     7
 10
528.1346148053
 20
868.3788147642
 30
0.0
 11
527.5495877663
 21
866.4109227134
 31
0.0
  0
POLYLINE
  5
2F9
  8
0
  6
CONTINUOUS
 62
     7
 66
     1
 10
0.0
 20
0.0
 30
0.0
 70
   128
  0
VERTEX
  5
79D
  8
0
  6
CONTINUOUS
 62
     7
 10
527.5495877663
 20
866.4109227134
 30
0.0
  0
VERTEX
  5
79E
  8
0
  6
CONTINUOUS
 62
     7
 10
527.2830320696
 20
866.5220853759
 30
0.0
  0
VERTEX
  5
79F
  8
0
  6
CONTINUOUS
 62
     7
 10
527.0220643083
 20
866.6309085561
 30
0.0
  0
VERTEX
  5
7A0
  8
0
  6
CONTINUOUS
 62
     7
 10
526.7721532086
 20
866.7351272775
 30
0.0
  0
VERTEX
  5
7A1
  8
0
  6
CONTINUOUS
 62
     7
 10
526.538540254
 20
866.8325510694
 30
0.0
  0
VERTEX
  5
7A2
  8
0
  6
CONTINUOUS
 62
     7
 10
526.3261186132
 20
866.9211384727
 30
0.0
  0
VERTEX
  5
7A3
  8
0
  6
CONTINUOUS
 62
     7
 10
526.1393455962
 20
866.9990268423
 30
0.0
  0
VERTEX
  5
7A4
  8
0
  6
CONTINUOUS
 62
     7
 10
525.9821346203
 20
867.0645919515
 30
0.0
  0
VERTEX
  5
7A5
  8
0
  6
CONTINUOUS
 62
     7
 10
525.8577788422
 20
867.1164479925
 30
0.0
  0
SEQEND
  5
9EA
  8
0
  6
CONTINUOUS
 62
     7
  0
POLYLINE
  5
2FA
  8
0
  6
CONTINUOUS
 62
     7
 66
     1
 10
0.0
 20
0.0
 30
0.0
 70
   128
  0
VERTEX
  5
7A6
  8
0
  6
CONTINUOUS
 62
     7
 10
489.616434666
 20
862.8832516147
 30
0.0
  0
VERTEX
  5
7A7
  8
0
  6
CONTINUOUS
 62
     7
 10
489.6028587768
 20
862.8004607631
 30
0.0
  0
VERTEX
  5
7A8
  8
0
  6
CONTINUOUS
 62
     7
 10
489.5893066364
 20
862.7178189232
 30
0.0
  0
VERTEX
  5
7A9
  8
0
  6
CONTINUOUS
 62
     7
 10
489.575802459
 20
862.6354602052
 30
0.0
  0
VERTEX
  5
7AA
  8
0
  6
CONTINUOUS
 62
     7
 10
489.5623699935
 20
862.5535485222
 30
0.0
  0
VERTEX
  5
7AB
  8
0
  6
CONTINUOUS
 62
     7
 10
489.549032523
 20
862.4722179844
 30
0.0
  0
VERTEX
  5
7AC
  8
0
  6
CONTINUOUS
 62
     7
 10
489.5358133303
 20
862.3916027023
 30
0.0
  0
VERTEX
  5
7AD
  8
0
  6
CONTINUOUS
 62
     7
 10
489.5227366301
 20
862.3118516876
 30
0.0
  0
VERTEX
  5
7AE
  8
0
  6
CONTINUOUS
 62
     7
 10
489.5098243082
 20
862.2331139518
 30
0.0
  0
SEQEND
  5
9EB
  8
0
  6
CONTINUOUS
 62
     7
  0
POLYLINE
  5
2FB
  8
0
  6
CONTINUOUS
 62
     7
 66
     1
 10
0.0
 20
0.0
 30
0.0
 70
   128
  0
VERTEX
  5
7AF
  8
0
  6
CONTINUOUS
 62
     7
 10
480.097398738
 20
862.2997072412
 30
0.0
  0
VERTEX
  5
7B0
  8
0
  6
CONTINUOUS
 62
     7
 10
484.0875702152
 20
862.4185589029
 30
0.0
  0
VERTEX
  5
7B1
  8
0
  6
CONTINUOUS
 62
     7
 10
489.5098243082
 20
862.2331139518
 30
0.0
  0
SEQEND
  5
9EC
  8
0
  6
CONTINUOUS
 62
     7
  0
LINE
  5
2FC
  8
0
  6
CONTINUOUS
 62
     7
 10
480.097398738
 20
863.5888215973
 30
0.0
 11
480.097398738
 21
862.2997072412
 31
0.0
  0
POLYLINE
  5
2FD
  8
0
  6
CONTINUOUS
 62
     7
 66
     1
 10
0.0
 20
0.0
 30
0.0
 70
   128
  0
VERTEX
  5
7B2
  8
0
  6
CONTINUOUS
 62
     7
 10
463.5240851144
 20
863.8710495903
 30
0.0
  0
VERTEX
  5
7B3
  8
0
  6
CONTINUOUS
 62
     7
 10
463.3458187977
 20
865.3856483175
 30
0.0
  0
VERTEX
  5
7B4
  8
0
  6
CONTINUOUS
 62
     7
 10
463.0905395547
 20
866.4109227134
 30
0.0
  0
SEQEND
  5
9ED
  8
0
  6
CONTINUOUS
 62
     7
  0
POLYLINE
  5
2FE
  8
0
  6
CONTINUOUS
 62
     7
 66
     1
 10
0.0
 20
0.0
 30
0.0
 70
   128
  0
VERTEX
  5
7B5
  8
0
  6
CONTINUOUS
 62
     7
 10
463.5240851144
 20
863.8710495903
 30
0.0
  0
VERTEX
  5
7B6
  8
0
  6
CONTINUOUS
 62
     7
 10
463.6916821996
 20
863.8819423391
 30
0.0
  0
VERTEX
  5
7B7
  8
0
  6
CONTINUOUS
 62
     7
 10
463.8580946425
 20
863.892745681
 30
0.0
  0
VERTEX
  5
7B8
  8
0
  6
CONTINUOUS
 62
     7
 10
464.0221489767
 20
863.9034000112
 30
0.0
  0
VERTEX
  5
7B9
  8
0
  6
CONTINUOUS
 62
     7
 10
464.1826829115
 20
863.9138159229
 30
0.0
  0
VERTEX
  5
7BA
  8
0
  6
CONTINUOUS
 62
     7
 10
464.3385658214
 20
863.9239338114
 30
0.0
  0
VERTEX
  5
7BB
  8
0
  6
CONTINUOUS
 62
     7
 10
464.4886950204
 20
863.9336940719
 30
0.0
  0
VERTEX
  5
7BC
  8
0
  6
CONTINUOUS
 62
     7
 10
464.6320088009
 20
863.9429923965
 30
0.0
  0
VERTEX
  5
7BD
  8
0
  6
CONTINUOUS
 62
     7
 10
464.7674957464
 20
863.9517840816
 30
0.0
  0
SEQEND
  5
9EE
  8
0
  6
CONTINUOUS
 62
     7
  0
ARC
  5
2FF
  8
0
  6
CONTINUOUS
 62
     7
 10
537.9783472404
 20
863.3238389894
 30
0.0
 40
10.87607972059432
 50
163.510382909
 51
177.1160471688
  0
POLYLINE
  5
300
  8
0
  6
CONTINUOUS
 62
     7
 66
     1
 10
0.0
 20
0.0
 30
0.0
 70
   128
  0
VERTEX
  5
7BE
  8
0
  6
CONTINUOUS
 62
     7
 10
527.1160422067
 20
863.8710495903
 30
0.0
  0
VERTEX
  5
7BF
  8
0
  6
CONTINUOUS
 62
     7
 10
526.9484451214
 20
863.8819423391
 30
0.0
  0
VERTEX
  5
7C0
  8
0
  6
CONTINUOUS
 62
     7
 10
526.7820326785
 20
863.892745681
 30
0.0
  0
VERTEX
  5
7C1
  8
0
  6
CONTINUOUS
 62
     7
 10
526.6179783443
 20
863.9034000112
 30
0.0
  0
VERTEX
  5
7C2
  8
0
  6
CONTINUOUS
 62
     7
 10
526.4574444095
 20
863.9138159229
 30
0.0
  0
VERTEX
  5
7C3
  8
0
  6
CONTINUOUS
 62
     7
 10
526.3015614996
 20
863.9239338114
 30
0.0
  0
VERTEX
  5
7C4
  8
0
  6
CONTINUOUS
 62
     7
 10
526.1514323006
 20
863.9336940719
 30
0.0
  0
VERTEX
  5
7C5
  8
0
  6
CONTINUOUS
 62
     7
 10
526.0081185201
 20
863.9429923965
 30
0.0
  0
VERTEX
  5
7C6
  8
0
  6
CONTINUOUS
 62
     7
 10
525.8726315746
 20
863.9517840816
 30
0.0
  0
SEQEND
  5
9EF
  8
0
  6
CONTINUOUS
 62
     7
  0
LINE
  5
301
  8
0
  6
CONTINUOUS
 62
     7
 10
510.542728583
 20
863.5888215973
 30
0.0
 11
510.542728583
 21
862.2997072412
 31
0.0
  0
POLYLINE
  5
302
  8
0
  6
CONTINUOUS
 62
     7
 66
     1
 10
0.0
 20
0.0
 30
0.0
 70
   128
  0
VERTEX
  5
7C7
  8
0
  6
CONTINUOUS
 62
     7
 10
501.1303030128
 20
862.2331139518
 30
0.0
  0
VERTEX
  5
7C8
  8
0
  6
CONTINUOUS
 62
     7
 10
505.12300955
 20
862.39786119
 30
0.0
  0
VERTEX
  5
7C9
  8
0
  6
CONTINUOUS
 62
     7
 10
510.542728583
 20
862.2997072412
 30
0.0
  0
SEQEND
  5
9F0
  8
0
  6
CONTINUOUS
 62
     7
  0
POLYLINE
  5
303
  8
0
  6
CONTINUOUS
 62
     7
 66
     1
 10
0.0
 20
0.0
 30
0.0
 70
   128
  0
VERTEX
  5
7CA
  8
0
  6
CONTINUOUS
 62
     7
 10
501.023692655
 20
862.8832516147
 30
0.0
  0
VERTEX
  5
7CB
  8
0
  6
CONTINUOUS
 62
     7
 10
501.0372685442
 20
862.8004607631
 30
0.0
  0
VERTEX
  5
7CC
  8
0
  6
CONTINUOUS
 62
     7
 10
501.0508206846
 20
862.7178189232
 30
0.0
  0
VERTEX
  5
7CD
  8
0
  6
CONTINUOUS
 62
     7
 10
501.064324862
 20
862.6354602052
 30
0.0
  0
VERTEX
  5
7CE
  8
0
  6
CONTINUOUS
 62
     7
 10
501.0777573275
 20
862.5535485222
 30
0.0
  0
VERTEX
  5
7CF
  8
0
  6
CONTINUOUS
 62
     7
 10
501.0910947981
 20
862.4722179844
 30
0.0
  0
VERTEX
  5
7D0
  8
0
  6
CONTINUOUS
 62
     7
 10
501.1043139907
 20
862.3916027023
 30
0.0
  0
VERTEX
  5
7D1
  8
0
  6
CONTINUOUS
 62
     7
 10
501.117390691
 20
862.3118516876
 30
0.0
  0
VERTEX
  5
7D2
  8
0
  6
CONTINUOUS
 62
     7
 10
501.1303030128
 20
862.2331139518
 30
0.0
  0
SEQEND
  5
9F1
  8
0
  6
CONTINUOUS
 62
     7
  0
LINE
  5
304
  8
0
  6
CONTINUOUS
 62
     7
 10
524.0148944954
 20
863.5888215973
 30
0.0
 11
524.0148944954
 21
861.8710604383
 31
0.0
  0
POLYLINE
  5
305
  8
0
  6
CONTINUOUS
 62
     7
 66
     1
 10
0.0
 20
0.0
 30
0.0
 70
   128
  0
VERTEX
  5
7D3
  8
0
  6
CONTINUOUS
 62
     7
 10
525.0345213512
 20
861.8710604383
 30
0.0
  0
VERTEX
  5
7D4
  8
0
  6
CONTINUOUS
 62
     7
 10
525.0405470083
 20
861.8710604383
 30
0.0
  0
VERTEX
  5
7D5
  8
0
  6
CONTINUOUS
 62
     7
 10
525.416719372
 20
861.9755622818
 30
0.0
  0
VERTEX
  5
7D6
  8
0
  6
CONTINUOUS
 62
     7
 10
525.6129509012
 20
862.2407433464
 30
0.0
  0
VERTEX
  5
7D7
  8
0
  6
CONTINUOUS
 62
     7
 10
525.7544597784
 20
862.6580950691
 30
0.0
  0
VERTEX
  5
7D8
  8
0
  6
CONTINUOUS
 62
     7
 10
525.8429540495
 20
863.193046756
 30
0.0
  0
VERTEX
  5
7D9
  8
0
  6
CONTINUOUS
 62
     7
 10
525.8772714237
 20
863.8024893476
 30
0.0
  0
SEQEND
  5
9F2
  8
0
  6
CONTINUOUS
 62
     7
  0
LINE
  5
306
  8
0
  6
CONTINUOUS
 62
     7
 10
525.0345213512
 20
861.8710604383
 30
0.0
 11
524.0148944954
 21
861.8710604383
 31
0.0
  0
ARC
  5
307
  8
0
  6
CONTINUOUS
 62
     7
 10
519.0215498635
 20
858.4463136905
 30
0.0
 40
9.313380275871417
 50
155.5594958502
 51
170.7542637675
  0
POLYLINE
  5
308
  8
0
  6
CONTINUOUS
 62
     7
 66
     1
 10
0.0
 20
0.0
 30
0.0
 70
   128
  0
VERTEX
  5
7DA
  8
0
  6
CONTINUOUS
 62
     7
 10
509.8291659901
 20
859.9426862671
 30
0.0
  0
VERTEX
  5
7DB
  8
0
  6
CONTINUOUS
 62
     7
 10
503.0440996575
 20
861.0119190885
 30
0.0
  0
VERTEX
  5
7DC
  8
0
  6
CONTINUOUS
 62
     7
 10
501.010366826
 20
861.2579074575
 30
0.0
  0
SEQEND
  5
9F3
  8
0
  6
CONTINUOUS
 62
     7
  0
ARC
  5
309
  8
0
  6
CONTINUOUS
 62
     7
 10
531.7696193106
 20
857.9699461146
 30
0.0
 40
30.93448404625667
 50
172.078697937
 51
173.8986269494
  0
LINE
  5
30A
  8
0
  6
CONTINUOUS
 62
     7
 10
466.6252328256
 20
863.5888215973
 30
0.0
 11
466.6252328256
 21
861.8710604383
 31
0.0
  0
LINE
  5
30B
  8
0
  6
CONTINUOUS
 62
     7
 10
466.6252328256
 20
861.8710604383
 30
0.0
 11
465.6056059698
 21
861.8710604383
 31
0.0
  0
POLYLINE
  5
30C
  8
0
  6
CONTINUOUS
 62
     7
 66
     1
 10
0.0
 20
0.0
 30
0.0
 70
   128
  0
VERTEX
  5
7DD
  8
0
  6
CONTINUOUS
 62
     7
 10
464.7628558973
 20
863.8024893476
 30
0.0
  0
VERTEX
  5
7DE
  8
0
  6
CONTINUOUS
 62
     7
 10
464.7971732715
 20
863.193046756
 30
0.0
  0
VERTEX
  5
7DF
  8
0
  6
CONTINUOUS
 62
     7
 10
464.8856675426
 20
862.6580950691
 30
0.0
  0
VERTEX
  5
7E0
  8
0
  6
CONTINUOUS
 62
     7
 10
465.0271764199
 20
862.2407433464
 30
0.0
  0
VERTEX
  5
7E1
  8
0
  6
CONTINUOUS
 62
     7
 10
465.223407949
 20
861.9755622818
 30
0.0
  0
VERTEX
  5
7E2
  8
0
  6
CONTINUOUS
 62
     7
 10
465.5995803127
 20
861.8710604383
 30
0.0
  0
VERTEX
  5
7E3
  8
0
  6
CONTINUOUS
 62
     7
 10
465.6056059698
 20
861.8710604383
 30
0.0
  0
SEQEND
  5
9F4
  8
0
  6
CONTINUOUS
 62
     7
  0
POLYLINE
  5
30D
  8
0
  6
CONTINUOUS
 62
     7
 66
     1
 10
0.0
 20
0.0
 30
0.0
 70
   128
  0
VERTEX
  5
7E4
  8
0
  6
CONTINUOUS
 62
     7
 10
489.629760495
 20
861.2579074575
 30
0.0
  0
VERTEX
  5
7E5
  8
0
  6
CONTINUOUS
 62
     7
 10
487.5054923991
 20
861.000311084
 30
0.0
  0
VERTEX
  5
7E6
  8
0
  6
CONTINUOUS
 62
     7
 10
480.8109613309
 20
859.9426862671
 30
0.0
  0
SEQEND
  5
9F5
  8
0
  6
CONTINUOUS
 62
     7
  0
ARC
  5
30E
  8
0
  6
CONTINUOUS
 62
     7
 10
471.6185774575
 20
858.4463136905
 30
0.0
 40
9.31338027587922
 50
9.2457362325
 51
24.4405041498
  0
ARC
  5
30F
  8
0
  6
CONTINUOUS
 62
     7
 10
458.8705080103
 20
857.9699461146
 30
0.0
 40
30.93448404633343
 50
6.1013730506
 51
7.921302063
  0
POLYLINE
  5
310
  8
0
  6
CONTINUOUS
 62
     7
 66
     1
 10
0.0
 20
0.0
 30
0.0
 70
   128
  0
VERTEX
  5
7E7
  8
0
  6
CONTINUOUS
 62
     7
 10
489.616434666
 20
862.8832516147
 30
0.0
  0
VERTEX
  5
7E8
  8
0
  6
CONTINUOUS
 62
     7
 10
493.5569262538
 20
862.1945646478
 30
0.0
  0
VERTEX
  5
7E9
  8
0
  6
CONTINUOUS
 62
     7
 10
495.2722868524
 20
861.8798521234
 30
0.0
  0
VERTEX
  5
7EA
  8
0
  6
CONTINUOUS
 62
     7
 10
495.3200636605
 20
861.8710604383
 30
0.0
  0
SEQEND
  5
9F6
  8
0
  6
CONTINUOUS
 62
     7
  0
POLYLINE
  5
311
  8
0
  6
CONTINUOUS
 62
     7
 66
     1
 10
0.0
 20
0.0
 30
0.0
 70
   128
  0
VERTEX
  5
7EB
  8
0
  6
CONTINUOUS
 62
     7
 10
489.5098243082
 20
862.2331139518
 30
0.0
  0
VERTEX
  5
7EC
  8
0
  6
CONTINUOUS
 62
     7
 10
493.5017228067
 20
861.9918641521
 30
0.0
  0
VERTEX
  5
7ED
  8
0
  6
CONTINUOUS
 62
     7
 10
495.1794865715
 20
861.880463071
 30
0.0
  0
VERTEX
  5
7EE
  8
0
  6
CONTINUOUS
 62
     7
 10
495.2687602249
 20
861.8744877054
 30
0.0
  0
VERTEX
  5
7EF
  8
0
  6
CONTINUOUS
 62
     7
 10
495.3200636605
 20
861.8710604383
 30
0.0
  0
SEQEND
  5
9F7
  8
0
  6
CONTINUOUS
 62
     7
  0
POLYLINE
  5
312
  8
0
  6
CONTINUOUS
 62
     7
 66
     1
 10
0.0
 20
0.0
 30
0.0
 70
   128
  0
VERTEX
  5
7F0
  8
0
  6
CONTINUOUS
 62
     7
 10
495.3200636605
 20
861.8710604383
 30
0.0
  0
VERTEX
  5
7F1
  8
0
  6
CONTINUOUS
 62
     7
 10
495.2700962435
 20
861.8658152296
 30
0.0
  0
VERTEX
  5
7F2
  8
0
  6
CONTINUOUS
 62
     7
 10
494.868386007
 20
861.8236151411
 30
0.0
  0
VERTEX
  5
7F3
  8
0
  6
CONTINUOUS
 62
     7
 10
489.629760495
 20
861.2579074575
 30
0.0
  0
SEQEND
  5
9F8
  8
0
  6
CONTINUOUS
 62
     7
  0
POLYLINE
  5
313
  8
0
  6
CONTINUOUS
 62
     7
 66
     1
 10
0.0
 20
0.0
 30
0.0
 70
   128
  0
VERTEX
  5
7F4
  8
0
  6
CONTINUOUS
 62
     7
 10
470.6881834368
 20
861.8710604383
 30
0.0
  0
VERTEX
  5
7F5
  8
0
  6
CONTINUOUS
 62
     7
 10
474.6435048232
 20
861.9629111959
 30
0.0
  0
VERTEX
  5
7F6
  8
0
  6
CONTINUOUS
 62
     7
 10
480.097398738
 20
862.2997072412
 30
0.0
  0
SEQEND
  5
9F9
  8
0
  6
CONTINUOUS
 62
     7
  0
LINE
  5
314
  8
0
  6
CONTINUOUS
 62
     7
 10
470.6881834368
 20
861.8710604383
 30
0.0
 11
466.6252328256
 21
861.8710604383
 31
0.0
  0
LINE
  5
315
  8
0
  6
CONTINUOUS
 62
     7
 10
524.0148944954
 20
861.8710604383
 30
0.0
 11
519.9519438843
 21
861.8710604383
 31
0.0
  0
POLYLINE
  5
316
  8
0
  6
CONTINUOUS
 62
     7
 66
     1
 10
0.0
 20
0.0
 30
0.0
 70
   128
  0
VERTEX
  5
7F7
  8
0
  6
CONTINUOUS
 62
     7
 10
510.542728583
 20
862.2997072412
 30
0.0
  0
VERTEX
  5
7F8
  8
0
  6
CONTINUOUS
 62
     7
 10
514.5099038432
 20
862.0354649498
 30
0.0
  0
VERTEX
  5
7F9
  8
0
  6
CONTINUOUS
 62
     7
 10
519.9519438843
 20
861.8710604383
 30
0.0
  0
SEQEND
  5
9FA
  8
0
  6
CONTINUOUS
 62
     7
  0
POLYLINE
  5
317
  8
0
  6
CONTINUOUS
 62
     7
 66
     1
 10
0.0
 20
0.0
 30
0.0
 70
   128
  0
VERTEX
  5
7FA
  8
0
  6
CONTINUOUS
 62
     7
 10
495.3200636605
 20
861.8710604383
 30
0.0
  0
VERTEX
  5
7FB
  8
0
  6
CONTINUOUS
 62
     7
 10
495.3713672198
 20
861.8744877054
 30
0.0
  0
VERTEX
  5
7FC
  8
0
  6
CONTINUOUS
 62
     7
 10
495.5902499437
 20
861.8891206457
 30
0.0
  0
VERTEX
  5
7FD
  8
0
  6
CONTINUOUS
 62
     7
 10
499.0066756668
 20
862.1109244301
 30
0.0
  0
VERTEX
  5
7FE
  8
0
  6
CONTINUOUS
 62
     7
 10
501.1303030128
 20
862.2331139518
 30
0.0
  0
SEQEND
  5
9FB
  8
0
  6
CONTINUOUS
 62
     7
  0
ARC
  5
318
  8
0
  6
CONTINUOUS
 62
     7
 10
567.707314622
 20
470.5496625594
 30
0.0
 40
397.9602373852062
 50
99.646187617
 51
100.4801977478
  0
POLYLINE
  5
319
  8
0
  6
CONTINUOUS
 62
     7
 66
     1
 10
0.0
 20
0.0
 30
0.0
 70
   128
  0
VERTEX
  5
7FF
  8
0
  6
CONTINUOUS
 62
     7
 10
501.010366826
 20
861.2579074575
 30
0.0
  0
VERTEX
  5
800
  8
0
  6
CONTINUOUS
 62
     7
 10
495.771741314
 20
861.8236151411
 30
0.0
  0
VERTEX
  5
801
  8
0
  6
CONTINUOUS
 62
     7
 10
495.3700312194
 20
861.8658152296
 30
0.0
  0
VERTEX
  5
802
  8
0
  6
CONTINUOUS
 62
     7
 10
495.3200636605
 20
861.8710604383
 30
0.0
  0
SEQEND
  5
9FC
  8
0
  6
CONTINUOUS
 62
     7
  0
POLYLINE
  5
31A
  8
0
  6
CONTINUOUS
 62
     7
 66
     1
 10
0.0
 20
0.0
 30
0.0
 70
   128
  0
VERTEX
  5
803
  8
0
  6
CONTINUOUS
 62
     7
 10
480.8109613309
 20
859.9426862671
 30
0.0
  0
VERTEX
  5
804
  8
0
  6
CONTINUOUS
 62
     7
 10
476.3245215813
 20
859.1864672376
 30
0.0
  0
VERTEX
  5
805
  8
0
  6
CONTINUOUS
 62
     7
 10
471.8428036372
 20
858.8710543586
 30
0.0
  0
SEQEND
  5
9FD
  8
0
  6
CONTINUOUS
 62
     7
  0
POLYLINE
  5
31B
  8
0
  6
CONTINUOUS
 62
     7
 66
     1
 10
0.0
 20
0.0
 30
0.0
 70
   128
  0
VERTEX
  5
806
  8
0
  6
CONTINUOUS
 62
     7
 10
518.7973236839
 20
858.8710543586
 30
0.0
  0
VERTEX
  5
807
  8
0
  6
CONTINUOUS
 62
     7
 10
514.3838474701
 20
859.1777649595
 30
0.0
  0
VERTEX
  5
808
  8
0
  6
CONTINUOUS
 62
     7
 10
509.8291659901
 20
859.9426862671
 30
0.0
  0
SEQEND
  5
9FE
  8
0
  6
CONTINUOUS
 62
     7
  0
LINE
  5
31C
  8
0
  6
CONTINUOUS
 62
     7
 10
471.8428036372
 20
858.8710543586
 30
0.0
 11
518.7973236839
 21
858.8710543586
 31
0.0
  0
ARC
  5
31D
  8
0
  6
CONTINUOUS
 62
     7
 10
464.1461117367
 20
816.3942884516
 30
0.0
 40
47.41221240945652
 50
89.2546681057
 51
90.7453318943
  0
POLYLINE
  5
31E
  8
0
  6
CONTINUOUS
 62
     7
 66
     1
 10
0.0
 20
0.0
 30
0.0
 70
   128
  0
VERTEX
  5
809
  8
0
  6
CONTINUOUS
 62
     7
 10
465.6056059698
 20
861.8710604383
 30
0.0
  0
VERTEX
  5
80A
  8
0
  6
CONTINUOUS
 62
     7
 10
465.5940929601
 20
861.8710604383
 30
0.0
  0
VERTEX
  5
80B
  8
0
  6
CONTINUOUS
 62
     7
 10
465.4077949176
 20
861.8737277462
 30
0.0
  0
VERTEX
  5
80C
  8
0
  6
CONTINUOUS
 62
     7
 10
465.2292752812
 20
861.8823704197
 30
0.0
  0
VERTEX
  5
80D
  8
0
  6
CONTINUOUS
 62
     7
 10
464.8982906888
 20
861.9233635141
 30
0.0
  0
VERTEX
  5
80E
  8
0
  6
CONTINUOUS
 62
     7
 10
464.3608300189
 20
862.1145603134
 30
0.0
  0
VERTEX
  5
80F
  8
0
  6
CONTINUOUS
 62
     7
 10
464.2212359408
 20
862.2066047861
 30
0.0
  0
VERTEX
  5
810
  8
0
  6
CONTINUOUS
 62
     7
 10
463.8830429117
 20
862.5665125324
 30
0.0
  0
VERTEX
  5
811
  8
0
  6
CONTINUOUS
 62
     7
 10
463.6250665585
 20
863.1420698835
 30
0.0
  0
VERTEX
  5
812
  8
0
  6
CONTINUOUS
 62
     7
 10
463.5299226443
 20
863.7822088672
 30
0.0
  0
VERTEX
  5
813
  8
0
  6
CONTINUOUS
 62
     7
 10
463.529367576
 20
863.8024893476
 30
0.0
  0
SEQEND
  5
9FF
  8
0
  6
CONTINUOUS
 62
     7
  0
ARC
  5
31F
  8
0
  6
CONTINUOUS
 62
     7
 10
526.4940155844
 20
816.3942884516
 30
0.0
 40
47.41221240947619
 50
89.2546681057
 51
90.7453318943
  0
POLYLINE
  5
320
  8
0
  6
CONTINUOUS
 62
     7
 66
     1
 10
0.0
 20
0.0
 30
0.0
 70
   128
  0
VERTEX
  5
814
  8
0
  6
CONTINUOUS
 62
     7
 10
527.110759745
 20
863.8024893476
 30
0.0
  0
VERTEX
  5
815
  8
0
  6
CONTINUOUS
 62
     7
 10
527.1102344791
 20
863.7831923439
 30
0.0
  0
VERTEX
  5
816
  8
0
  6
CONTINUOUS
 62
     7
 10
527.0153252581
 20
863.1430235578
 30
0.0
  0
VERTEX
  5
817
  8
0
  6
CONTINUOUS
 62
     7
 10
526.7576022247
 20
862.5672873928
 30
0.0
  0
VERTEX
  5
818
  8
0
  6
CONTINUOUS
 62
     7
 10
526.4188913802
 20
862.2066047861
 30
0.0
  0
VERTEX
  5
819
  8
0
  6
CONTINUOUS
 62
     7
 10
526.280258427
 20
862.1151116564
 30
0.0
  0
VERTEX
  5
81A
  8
0
  6
CONTINUOUS
 62
     7
 10
525.7429337302
 20
861.9235721304
 30
0.0
  0
VERTEX
  5
81B
  8
0
  6
CONTINUOUS
 62
     7
 10
525.4114629874
 20
861.8824151231
 30
0.0
  0
VERTEX
  5
81C
  8
0
  6
CONTINUOUS
 62
     7
 10
525.2326527784
 20
861.8737426473
 30
0.0
  0
VERTEX
  5
81D
  8
0
  6
CONTINUOUS
 62
     7
 10
525.0460343609
 20
861.8710604383
 30
0.0
  0
VERTEX
  5
81E
  8
0
  6
CONTINUOUS
 62
     7
 10
525.0345213512
 20
861.8710604383
 30
0.0
  0
SEQEND
  5
A00
  8
0
  6
CONTINUOUS
 62
     7
  0
LINE
  5
321
  8
0
  6
CONTINUOUS
 62
     7
 10
463.529367576
 20
863.8024893476
 30
0.0
 11
463.5240851144
 21
863.8710495903
 31
0.0
  0
LINE
  5
322
  8
0
  6
CONTINUOUS
 62
     7
 10
527.1160422067
 20
863.8710495903
 30
0.0
 11
527.110759745
 21
863.8024893476
 31
0.0
  0
ARC
  5
323
  8
0
  6
CONTINUOUS
 62
     7
 10
531.3200636605
 20
881.8710555507
 30
0.0
 40
4.932743400441382
 50
180.0
 51
269.7739585912
  0
POLYLINE
  5
324
  8
0
  6
CONTINUOUS
 62
     7
 66
     1
 10
0.0
 20
0.0
 30
0.0
 70
   128
  0
VERTEX
  5
81F
  8
0
  6
CONTINUOUS
 62
     7
 10
531.2928190628
 20
874.9652621223
 30
0.0
  0
VERTEX
  5
820
  8
0
  6
CONTINUOUS
 62
     7
 10
531.2941974202
 20
875.3151115848
 30
0.0
  0
VERTEX
  5
821
  8
0
  6
CONTINUOUS
 62
     7
 10
531.2955385248
 20
875.6541577055
 30
0.0
  0
VERTEX
  5
822
  8
0
  6
CONTINUOUS
 62
     7
 10
531.2967902223
 20
875.9719547703
 30
0.0
  0
VERTEX
  5
823
  8
0
  6
CONTINUOUS
 62
     7
 10
531.2979227105
 20
876.2587276174
 30
0.0
  0
VERTEX
  5
824
  8
0
  6
CONTINUOUS
 62
     7
 10
531.2988950113
 20
876.5056100561
 30
0.0
  0
VERTEX
  5
825
  8
0
  6
CONTINUOUS
 62
     7
 10
531.2996810476
 20
876.705002494
 30
0.0
  0
VERTEX
  5
826
  8
0
  6
CONTINUOUS
 62
     7
 10
531.3002584676
 20
876.8507507517
 30
0.0
  0
VERTEX
  5
827
  8
0
  6
CONTINUOUS
 62
     7
 10
531.3006049196
 20
876.9383546783
 30
0.0
  0
SEQEND
  5
A01
  8
0
  6
CONTINUOUS
 62
     7
  0
ARC
  5
325
  8
0
  6
CONTINUOUS
 62
     7
 10
531.3200636605
 20
881.8710555507
 30
0.0
 40
6.905840760617816
 50
243.4466763546
 51
269.7739585912
  0
POLYLINE
  5
326
  8
0
  6
CONTINUOUS
 62
     7
 66
     1
 10
0.0
 20
0.0
 30
0.0
 70
   128
  0
VERTEX
  5
828
  8
0
  6
CONTINUOUS
 62
     7
 10
526.3628406624
 20
882.1858432962
 30
0.0
  0
VERTEX
  5
829
  8
0
  6
CONTINUOUS
 62
     7
 10
526.3862354854
 20
881.8835285379
 30
0.0
  0
VERTEX
  5
82A
  8
0
  6
CONTINUOUS
 62
     7
 10
526.3873195449
 20
881.871056266
 30
0.0
  0
SEQEND
  5
A02
  8
0
  6
CONTINUOUS
 62
     7
  0
POLYLINE
  5
327
  8
0
  6
CONTINUOUS
 62
     7
 66
     1
 10
0.0
 20
0.0
 30
0.0
 70
   128
  0
VERTEX
  5
82B
  8
0
  6
CONTINUOUS
 62
     7
 10
471.8428036372
 20
858.8710543586
 30
0.0
  0
VERTEX
  5
82C
  8
0
  6
CONTINUOUS
 62
     7
 10
471.8206176708
 20
859.4563272669
 30
0.0
  0
VERTEX
  5
82D
  8
0
  6
CONTINUOUS
 62
     7
 10
471.7549128631
 20
860.0190994217
 30
0.0
  0
VERTEX
  5
82E
  8
0
  6
CONTINUOUS
 62
     7
 10
471.6482149611
 20
860.5377641393
 30
0.0
  0
VERTEX
  5
82F
  8
0
  6
CONTINUOUS
 62
     7
 10
471.5046236465
 20
860.992368765
 30
0.0
  0
VERTEX
  5
830
  8
0
  6
CONTINUOUS
 62
     7
 10
471.3296560744
 20
861.365464039
 30
0.0
  0
VERTEX
  5
831
  8
0
  6
CONTINUOUS
 62
     7
 10
471.1300363938
 20
861.642700143
 30
0.0
  0
VERTEX
  5
832
  8
0
  6
CONTINUOUS
 62
     7
 10
470.9134387026
 20
861.8134078457
 30
0.0
  0
VERTEX
  5
833
  8
0
  6
CONTINUOUS
 62
     7
 10
470.6881834368
 20
861.8710604383
 30
0.0
  0
SEQEND
  5
A03
  8
0
  6
CONTINUOUS
 62
     7
  0
POLYLINE
  5
328
  8
0
  6
CONTINUOUS
 62
     7
 66
     1
 10
0.0
 20
0.0
 30
0.0
 70
   128
  0
VERTEX
  5
834
  8
0
  6
CONTINUOUS
 62
     7
 10
519.9519438843
 20
861.8710604383
 30
0.0
  0
VERTEX
  5
835
  8
0
  6
CONTINUOUS
 62
     7
 10
519.7266886184
 20
861.8134078457
 30
0.0
  0
VERTEX
  5
836
  8
0
  6
CONTINUOUS
 62
     7
 10
519.5100909272
 20
861.642700143
 30
0.0
  0
VERTEX
  5
837
  8
0
  6
CONTINUOUS
 62
     7
 10
519.3104712466
 20
861.365464039
 30
0.0
  0
VERTEX
  5
838
  8
0
  6
CONTINUOUS
 62
     7
 10
519.1355036745
 20
860.992368765
 30
0.0
  0
VERTEX
  5
839
  8
0
  6
CONTINUOUS
 62
     7
 10
518.99191236
 20
860.5377641393
 30
0.0
  0
VERTEX
  5
83A
  8
0
  6
CONTINUOUS
 62
     7
 10
518.8852144579
 20
860.0190994217
 30
0.0
  0
VERTEX
  5
83B
  8
0
  6
CONTINUOUS
 62
     7
 10
518.8195096502
 20
859.4563272669
 30
0.0
  0
VERTEX
  5
83C
  8
0
  6
CONTINUOUS
 62
     7
 10
518.7973236839
 20
858.8710543586
 30
0.0
  0
SEQEND
  5
A04
  8
0
  6
CONTINUOUS
 62
     7
  0
POLYLINE
  5
329
  8
0
  6
CONTINUOUS
 62
     7
 66
     1
 10
0.0
 20
0.0
 30
0.0
 70
   128
  0
VERTEX
  5
83D
  8
0
  6
CONTINUOUS
 62
     7
 10
459.3395224015
 20
876.9383546783
 30
0.0
  0
VERTEX
  5
83E
  8
0
  6
CONTINUOUS
 62
     7
 10
459.3398688535
 20
876.8507507517
 30
0.0
  0
VERTEX
  5
83F
  8
0
  6
CONTINUOUS
 62
     7
 10
459.3404462735
 20
876.705002494
 30
0.0
  0
VERTEX
  5
840
  8
0
  6
CONTINUOUS
 62
     7
 10
459.3412323097
 20
876.5056100561
 30
0.0
  0
VERTEX
  5
841
  8
0
  6
CONTINUOUS
 62
     7
 10
459.3422046105
 20
876.2587276174
 30
0.0
  0
VERTEX
  5
842
  8
0
  6
CONTINUOUS
 62
     7
 10
459.3433370987
 20
875.9719547703
 30
0.0
  0
VERTEX
  5
843
  8
0
  6
CONTINUOUS
 62
     7
 10
459.3445887963
 20
875.6541577055
 30
0.0
  0
VERTEX
  5
844
  8
0
  6
CONTINUOUS
 62
     7
 10
459.3459299008
 20
875.3151115848
 30
0.0
  0
VERTEX
  5
845
  8
0
  6
CONTINUOUS
 62
     7
 10
459.3473082582
 20
874.9652621223
 30
0.0
  0
SEQEND
  5
A05
  8
0
  6
CONTINUOUS
 62
     7
  0
ARC
  5
32A
  8
0
  6
CONTINUOUS
 62
     7
 10
459.3200636605
 20
881.8710555507
 30
0.0
 40
4.932743400441333
 50
270.2260414088
 51
0.0
  0
POLYLINE
  5
32B
  8
0
  6
CONTINUOUS
 62
     7
 66
     1
 10
0.0
 20
0.0
 30
0.0
 70
   128
  0
VERTEX
  5
846
  8
0
  6
CONTINUOUS
 62
     7
 10
464.2528077761
 20
881.871056266
 30
0.0
  0
VERTEX
  5
847
  8
0
  6
CONTINUOUS
 62
     7
 10
464.2538918356
 20
881.8835285379
 30
0.0
  0
VERTEX
  5
848
  8
0
  6
CONTINUOUS
 62
     7
 10
464.2772866586
 20
882.1858432962
 30
0.0
  0
SEQEND
  5
A06
  8
0
  6
CONTINUOUS
 62
     7
  0
ARC
  5
32C
  8
0
  6
CONTINUOUS
 62
     7
 10
459.3200636605
 20
881.8710555507
 30
0.0
 40
6.905840760617816
 50
270.2260414088
 51
296.5533236454
  0
LINE
  5
32D
  8
0
  6
CONTINUOUS
 62
     7
 10
441.8291716079
 20
874.8710569812
 30
0.0
 11
443.1664427916
 21
874.8710569812
 31
0.0
  0
ARC
  5
32E
  8
0
  6
CONTINUOUS
 62
     7
 10
443.5799285393
 20
875.1475156318
 30
0.0
 40
1.772450060908702
 50
103.4905421301
 51
188.9733720423
  0
LINE
  5
32F
  8
0
  6
CONTINUOUS
 62
     7
 10
443.1664427916
 20
876.8710610344
 30
0.0
 11
443.1664427916
 21
874.8710569812
 31
0.0
  0
LINE
  5
330
  8
0
  6
CONTINUOUS
 62
     7
 10
441.8291716079
 20
863.8710495903
 30
0.0
 11
441.8291716079
 21
874.8710569812
 31
0.0
  0
LINE
  5
331
  8
0
  6
CONTINUOUS
 62
     7
 10
443.1664427916
 20
874.8710569812
 30
0.0
 11
443.1664427916
 21
863.8710495903
 31
0.0
  0
LINE
  5
332
  8
0
  6
CONTINUOUS
 62
     7
 10
441.8291716079
 20
863.8710495903
 30
0.0
 11
443.1664427916
 21
863.8710495903
 31
0.0
  0
LINE
  5
333
  8
0
  6
CONTINUOUS
 62
     7
 10
451.6373468736
 20
876.8710610344
 30
0.0
 11
451.6373468736
 21
874.8710569812
 31
0.0
  0
LINE
  5
334
  8
0
  6
CONTINUOUS
 62
     7
 10
451.6373468736
 20
874.8710569812
 30
0.0
 11
443.1664427916
 21
874.8710569812
 31
0.0
  0
LINE
  5
335
  8
0
  6
CONTINUOUS
 62
     7
 10
443.1664427916
 20
876.8710610344
 30
0.0
 11
451.6373468736
 21
876.8710610344
 31
0.0
  0
POLYLINE
  5
336
  8
0
  6
CONTINUOUS
 62
     7
 66
     1
 10
0.0
 20
0.0
 30
0.0
 70
   128
  0
VERTEX
  5
849
  8
0
  6
CONTINUOUS
 62
     7
 10
455.1783284346
 20
874.9495562984
 30
0.0
  0
VERTEX
  5
84A
  8
0
  6
CONTINUOUS
 62
     7
 10
455.137346516
 20
874.9493774845
 30
0.0
  0
VERTEX
  5
84B
  8
0
  6
CONTINUOUS
 62
     7
 10
451.6373468736
 20
874.8710569812
 30
0.0
  0
SEQEND
  5
A07
  8
0
  6
CONTINUOUS
 62
     7
  0
LINE
  5
337
  8
0
  6
CONTINUOUS
 62
     7
 10
459.3473082582
 20
874.9652621223
 30
0.0
 11
455.1783284346
 21
874.9495562984
 31
0.0
  0
LINE
  5
338
  8
0
  6
CONTINUOUS
 62
     7
 10
443.1664427916
 20
863.8710495903
 30
0.0
 11
463.5240851144
 21
863.8710495903
 31
0.0
  0
LINE
  5
339
  8
0
  6
CONTINUOUS
 62
     7
 10
443.1664427916
 20
863.8710495903
 30
0.0
 11
443.1664427916
 21
861.8710604383
 31
0.0
  0
ARC
  5
33A
  8
0
  6
CONTINUOUS
 62
     7
 10
443.5798913079
 20
863.5945788868
 30
0.0
 40
1.772415165213268
 50
171.0260553722
 51
256.5104249515
  0
LINE
  5
33B
  8
0
  6
CONTINUOUS
 62
     7
 10
465.6056059698
 20
861.8710604383
 30
0.0
 11
443.1664427916
 21
861.8710604383
 31
0.0
  0
LINE
  5
33C
  8
0
  6
CONTINUOUS
 62
     7
 10
451.6373468736
 20
876.8710610344
 30
0.0
 11
455.1712168554
 21
876.9271192028
 31
0.0
  0
POLYLINE
  5
33D
  8
0
  6
CONTINUOUS
 62
     7
 66
     1
 10
0.0
 20
0.0
 30
0.0
 70
   128
  0
VERTEX
  5
84C
  8
0
  6
CONTINUOUS
 62
     7
 10
455.1712168554
 20
876.9271192028
 30
0.0
  0
VERTEX
  5
84D
  8
0
  6
CONTINUOUS
 62
     7
 10
455.1715186039
 20
876.8432554676
 30
0.0
  0
VERTEX
  5
84E
  8
0
  6
CONTINUOUS
 62
     7
 10
455.1720364193
 20
876.6998019888
 30
0.0
  0
VERTEX
  5
84F
  8
0
  6
CONTINUOUS
 62
     7
 10
455.1727479497
 20
876.5012738182
 30
0.0
  0
VERTEX
  5
850
  8
0
  6
CONTINUOUS
 62
     7
 10
455.1736382941
 20
876.2539294435
 30
0.0
  0
VERTEX
  5
851
  8
0
  6
CONTINUOUS
 62
     7
 10
455.1746739248
 20
875.9655323698
 30
0.0
  0
VERTEX
  5
852
  8
0
  6
CONTINUOUS
 62
     7
 10
455.1758250395
 20
875.6451723053
 30
0.0
  0
VERTEX
  5
853
  8
0
  6
CONTINUOUS
 62
     7
 10
455.1770581106
 20
875.302922435
 30
0.0
  0
VERTEX
  5
854
  8
0
  6
CONTINUOUS
 62
     7
 10
455.1783284346
 20
874.9495562984
 30
0.0
  0
SEQEND
  5
A08
  8
0
  6
CONTINUOUS
 62
     7
  0
LINE
  5
33E
  8
0
  6
CONTINUOUS
 62
     7
 10
455.1712168554
 20
876.9271192028
 30
0.0
 11
459.3395224015
 21
876.9383546783
 31
0.0
  0
LINE
  5
33F
  8
0
  6
CONTINUOUS
 62
     7
 10
535.4617988864
 20
874.9495562984
 30
0.0
 11
531.2928190628
 21
874.9652621223
 31
0.0
  0
LINE
  5
340
  8
0
  6
CONTINUOUS
 62
     7
 10
539.0027804474
 20
874.8710569812
 30
0.0
 11
535.4617988864
 21
874.9495562984
 31
0.0
  0
LINE
  5
341
  8
0
  6
CONTINUOUS
 62
     7
 10
547.4736845294
 20
874.8710569812
 30
0.0
 11
539.0027804474
 21
874.8710569812
 31
0.0
  0
LINE
  5
342
  8
0
  6
CONTINUOUS
 62
     7
 10
547.4736845294
 20
863.8710495903
 30
0.0
 11
547.4736845294
 21
874.8710569812
 31
0.0
  0
LINE
  5
343
  8
0
  6
CONTINUOUS
 62
     7
 10
527.1160422067
 20
863.8710495903
 30
0.0
 11
547.4736845294
 21
863.8710495903
 31
0.0
  0
LINE
  5
344
  8
0
  6
CONTINUOUS
 62
     7
 10
531.3006049196
 20
876.9383546783
 30
0.0
 11
535.4689104656
 21
876.9271192028
 31
0.0
  0
POLYLINE
  5
345
  8
0
  6
CONTINUOUS
 62
     7
 66
     1
 10
0.0
 20
0.0
 30
0.0
 70
   128
  0
VERTEX
  5
855
  8
0
  6
CONTINUOUS
 62
     7
 10
535.4617988864
 20
874.9495562984
 30
0.0
  0
VERTEX
  5
856
  8
0
  6
CONTINUOUS
 62
     7
 10
535.4630692104
 20
875.302922435
 30
0.0
  0
VERTEX
  5
857
  8
0
  6
CONTINUOUS
 62
     7
 10
535.4643022815
 20
875.6451723053
 30
0.0
  0
VERTEX
  5
858
  8
0
  6
CONTINUOUS
 62
     7
 10
535.4654533962
 20
875.9655323698
 30
0.0
  0
VERTEX
  5
859
  8
0
  6
CONTINUOUS
 62
     7
 10
535.4664890269
 20
876.2539294435
 30
0.0
  0
VERTEX
  5
85A
  8
0
  6
CONTINUOUS
 62
     7
 10
535.4673793713
 20
876.5012738182
 30
0.0
  0
VERTEX
  5
85B
  8
0
  6
CONTINUOUS
 62
     7
 10
535.4680909017
 20
876.6998019888
 30
0.0
  0
VERTEX
  5
85C
  8
0
  6
CONTINUOUS
 62
     7
 10
535.4686087171
 20
876.8432554676
 30
0.0
  0
VERTEX
  5
85D
  8
0
  6
CONTINUOUS
 62
     7
 10
535.4689104656
 20
876.9271192028
 30
0.0
  0
SEQEND
  5
A09
  8
0
  6
CONTINUOUS
 62
     7
  0
LINE
  5
346
  8
0
  6
CONTINUOUS
 62
     7
 10
547.4736845294
 20
861.8710604383
 30
0.0
 11
547.4736845294
 21
863.8710495903
 31
0.0
  0
LINE
  5
347
  8
0
  6
CONTINUOUS
 62
     7
 10
547.4736845294
 20
861.8710604383
 30
0.0
 11
525.0345213512
 21
861.8710604383
 31
0.0
  0
POLYLINE
  5
348
  8
0
  6
CONTINUOUS
 62
     7
 66
     1
 10
0.0
 20
0.0
 30
0.0
 70
   128
  0
VERTEX
  5
85E
  8
0
  6
CONTINUOUS
 62
     7
 10
535.4689104656
 20
876.9271192028
 30
0.0
  0
VERTEX
  5
85F
  8
0
  6
CONTINUOUS
 62
     7
 10
535.5119338433
 20
876.9269999935
 30
0.0
  0
VERTEX
  5
860
  8
0
  6
CONTINUOUS
 62
     7
 10
539.0027804474
 20
876.8710610344
 30
0.0
  0
SEQEND
  5
A0A
  8
0
  6
CONTINUOUS
 62
     7
  0
LINE
  5
349
  8
0
  6
CONTINUOUS
 62
     7
 10
539.0027804474
 20
874.8710569812
 30
0.0
 11
539.0027804474
 21
876.8710610344
 31
0.0
  0
LINE
  5
34A
  8
0
  6
CONTINUOUS
 62
     7
 10
539.0027804474
 20
876.8710610344
 30
0.0
 11
547.4736845294
 21
876.8710610344
 31
0.0
  0
LINE
  5
34B
  8
0
  6
CONTINUOUS
 62
     7
 10
547.4736845294
 20
874.8710569812
 30
0.0
 11
547.4736845294
 21
876.8710610344
 31
0.0
  0
ARC
  5
34C
  8
0
  6
CONTINUOUS
 62
     7
 10
547.0601987817
 20
875.1475156318
 30
0.0
 40
1.772450060908702
 50
351.0266279578
 51
76.5094578699
  0
LINE
  5
34D
  8
0
  6
CONTINUOUS
 62
     7
 10
547.4736845294
 20
874.8710569812
 30
0.0
 11
548.8109557132
 21
874.8710569812
 31
0.0
  0
LINE
  5
34E
  8
0
  6
CONTINUOUS
 62
     7
 10
548.8109557132
 20
874.8710569812
 30
0.0
 11
548.8109557132
 21
863.8710495903
 31
0.0
  0
LINE
  5
34F
  8
0
  6
CONTINUOUS
 62
     7
 10
547.4736845294
 20
863.8710495903
 30
0.0
 11
548.8109557132
 21
863.8710495903
 31
0.0
  0
ARC
  5
350
  8
0
  6
CONTINUOUS
 62
     7
 10
547.0602360131
 20
863.5945788868
 30
0.0
 40
1.772415165213268
 50
283.4895750485
 51
8.9739446278
  0
ARC
  5
351
  8
0
  6
CONTINUOUS
 62
     7
 10
436.383957993
 20
875.0828831627
 30
0.0
 40
1.809819403085182
 50
98.8694711592
 51
186.7214599453
  0
LINE
  5
352
  8
0
  6
CONTINUOUS
 62
     7
 10
436.104912887
 20
876.8710610344
 30
0.0
 11
443.1664427916
 21
876.8710610344
 31
0.0
  0
LINE
  5
353
  8
0
  6
CONTINUOUS
 62
     7
 10
441.8291716079
 20
874.8710569812
 30
0.0
 11
434.5865776936
 21
874.8710569812
 31
0.0
  0
LINE
  5
354
  8
0
  6
CONTINUOUS
 62
     7
 10
434.5865776936
 20
874.8710569812
 30
0.0
 11
434.5865776936
 21
863.8710495903
 31
0.0
  0
LINE
  5
355
  8
0
  6
CONTINUOUS
 62
     7
 10
434.5865776936
 20
863.8710495903
 30
0.0
 11
441.8291716079
 21
863.8710495903
 31
0.0
  0
ARC
  5
356
  8
0
  6
CONTINUOUS
 62
     7
 10
436.3839237374
 20
863.6592107259
 30
0.0
 40
1.809786867435901
 50
173.278014356
 51
261.1314657202
  0
LINE
  5
357
  8
0
  6
CONTINUOUS
 62
     7
 10
443.1664427916
 20
861.8710604383
 30
0.0
 11
436.104912887
 21
861.8710604383
 31
0.0
  0
LINE
  5
358
  8
0
  6
CONTINUOUS
 62
     7
 10
547.4736845294
 20
876.8710610344
 30
0.0
 11
554.535214434
 21
876.8710610344
 31
0.0
  0
ARC
  5
359
  8
0
  6
CONTINUOUS
 62
     7
 10
554.256169328
 20
875.0828831627
 30
0.0
 40
1.809819403085239
 50
353.2785400547
 51
81.1305288408
  0
LINE
  5
35A
  8
0
  6
CONTINUOUS
 62
     7
 10
556.0535496274
 20
874.8710569812
 30
0.0
 11
548.8109557132
 21
874.8710569812
 31
0.0
  0
LINE
  5
35B
  8
0
  6
CONTINUOUS
 62
     7
 10
556.0535496274
 20
863.8710495903
 30
0.0
 11
556.0535496274
 21
874.8710569812
 31
0.0
  0
LINE
  5
35C
  8
0
  6
CONTINUOUS
 62
     7
 10
548.8109557132
 20
863.8710495903
 30
0.0
 11
556.0535496274
 21
863.8710495903
 31
0.0
  0
ARC
  5
35D
  8
0
  6
CONTINUOUS
 62
     7
 10
554.2562035837
 20
863.6592107259
 30
0.0
 40
1.80978686743607
 50
278.8685342798
 51
6.721985644
  0
LINE
  5
35E
  8
0
  6
CONTINUOUS
 62
     7
 10
554.535214434
 20
861.8710604383
 30
0.0
 11
547.4736845294
 21
861.8710604383
 31
0.0
  0
ARC
  5
35F
  8
0
  6
CONTINUOUS
 62
     7
 10
406.8330932802
 20
925.6203243005
 30
0.0
 40
52.62081535084058
 50
358.6396125013
 51
4.0874217786
  0
LINE
  5
360
  8
0
  6
CONTINUOUS
 62
     7
 10
459.4390770594
 20
924.3710529877
 30
0.0
 11
455.2724590699
 21
924.3710529877
 31
0.0
  0
ARC
  5
361
  8
0
  6
CONTINUOUS
 62
     7
 10
402.6692209233
 20
925.6203505492
 30
0.0
 40
52.61807111530195
 50
358.6395129482
 51
4.0876066606
  0
LINE
  5
362
  8
0
  6
CONTINUOUS
 62
     7
 10
464.3200641671
 20
924.3710529877
 30
0.0
 11
459.4390770594
 21
924.3710529877
 31
0.0
  0
LINE
  5
363
  8
0
  6
CONTINUOUS
 62
     7
 10
459.4390770594
 20
881.871056266
 30
0.0
 11
464.2528077761
 21
881.871056266
 31
0.0
  0
LINE
  5
364
  8
0
  6
CONTINUOUS
 62
     7
 10
459.4390770594
 20
881.871056266
 30
0.0
 11
459.4390770594
 21
924.3710529877
 31
0.0
  0
LINE
  5
365
  8
0
  6
CONTINUOUS
 62
     7
 10
464.3200641671
 20
883.5579422189
 30
0.0
 11
464.3200641671
 21
882.8370091392
 31
0.0
  0
ARC
  5
366
  8
0
  6
CONTINUOUS
 62
     7
 10
583.8070340409
 20
925.6203243005
 30
0.0
 40
52.62081535093918
 50
175.9125782214
 51
181.3603874987
  0
LINE
  5
367
  8
0
  6
CONTINUOUS
 62
     7
 10
531.2010502616
 20
924.3710529877
 30
0.0
 11
526.3200631539
 21
924.3710529877
 31
0.0
  0
LINE
  5
368
  8
0
  6
CONTINUOUS
 62
     7
 10
526.3873195449
 20
881.871056266
 30
0.0
 11
531.2010502616
 21
881.871056266
 31
0.0
  0
LINE
  5
369
  8
0
  6
CONTINUOUS
 62
     7
 10
531.2010502616
 20
924.3710529877
 30
0.0
 11
531.2010502616
 21
881.871056266
 31
0.0
  0
LINE
  5
36A
  8
0
  6
CONTINUOUS
 62
     7
 10
526.3200631539
 20
882.8370091392
 30
0.0
 11
526.3200631539
 21
883.5579422189
 31
0.0
  0
LINE
  5
36B
  8
0
  6
CONTINUOUS
 62
     7
 10
535.3676682512
 20
924.3710529877
 30
0.0
 11
531.2010502616
 21
924.3710529877
 31
0.0
  0
ARC
  5
36C
  8
0
  6
CONTINUOUS
 62
     7
 10
587.9709063975
 20
925.6203505492
 30
0.0
 40
52.61807111511055
 50
175.9123933393
 51
181.3604870518
  0
LINE
  5
36D
  8
0
  6
CONTINUOUS
 62
     7
 10
471.8428036372
 20
858.8710543586
 30
0.0
 11
451.2368036608
 21
858.8710543586
 31
0.0
  0
LINE
  5
36E
  8
0
  6
CONTINUOUS
 62
     7
 10
539.4033236603
 20
858.8710543586
 30
0.0
 11
518.7973236839
 21
858.8710543586
 31
0.0
  0
LINE
  5
36F
  8
0
  6
CONTINUOUS
 62
     7
 10
455.2724590699
 20
924.3710529877
 30
0.0
 11
453.3200642268
 21
924.3710529877
 31
0.0
  0
ARC
  5
370
  8
0
  6
CONTINUOUS
 62
     7
 10
448.3200636605
 20
924.3710555507
 30
0.0
 40
5.0
 50
0.0
 51
90.0
  0
LINE
  5
371
  8
0
  6
CONTINUOUS
 62
     7
 10
537.3200630943
 20
924.3710529877
 30
0.0
 11
535.3676682512
 21
924.3710529877
 31
0.0
  0
ARC
  5
372
  8
0
  6
CONTINUOUS
 62
     7
 10
542.3200636605
 20
924.3710555507
 30
0.0
 40
5.000000000000114
 50
90.0
 51
180.0
  0
LINE
  5
373
  8
0
  6
CONTINUOUS
 62
     7
 10
535.3676682512
 20
881.871056266
 30
0.0
 11
537.3200630943
 21
881.871056266
 31
0.0
  0
ARC
  5
374
  8
0
  6
CONTINUOUS
 62
     7
 10
542.3200636605
 20
881.8710555507
 30
0.0
 40
5.000000000000114
 50
180.0
 51
270.0
  0
ARC
  5
375
  8
0
  6
CONTINUOUS
 62
     7
 10
607.1995365968
 20
880.8690280538
 30
0.0
 40
71.83885696863484
 50
179.2007967314
 51
183.1454875663
  0
ARC
  5
376
  8
0
  6
CONTINUOUS
 62
     7
 10
448.3200636605
 20
881.8710555507
 30
0.0
 40
5.0
 50
270.0
 51
0.0
  0
LINE
  5
377
  8
0
  6
CONTINUOUS
 62
     7
 10
453.3200642268
 20
881.871056266
 30
0.0
 11
455.2724590699
 21
881.871056266
 31
0.0
  0
ARC
  5
378
  8
0
  6
CONTINUOUS
 62
     7
 10
383.4405907244
 20
880.8690280538
 30
0.0
 40
71.83885696842236
 50
356.8545124337
 51
0.7992032686
  0
LINE
  5
379
  8
0
  6
CONTINUOUS
 62
     7
 10
455.2724590699
 20
881.871056266
 30
0.0
 11
459.4390770594
 21
881.871056266
 31
0.0
  0
ARC
  5
37A
  8
0
  6
CONTINUOUS
 62
     7
 10
385.6982893308
 20
880.8919803869
 30
0.0
 40
73.74728716641016
 50
356.9268738525
 51
0.7606864723
  0
ARC
  5
37B
  8
0
  6
CONTINUOUS
 62
     7
 10
604.9418379903
 20
880.8919803869
 30
0.0
 40
73.74728716650569
 50
179.2393135277
 51
183.0731261475
  0
LINE
  5
37C
  8
0
  6
CONTINUOUS
 62
     7
 10
531.2010502616
 20
881.871056266
 30
0.0
 11
535.3676682512
 21
881.871056266
 31
0.0
  0
LINE
  5
37D
  8
0
  6
CONTINUOUS
 62
     7
 10
455.2724590699
 20
924.3710529877
 30
0.0
 11
455.2724590699
 21
881.871056266
 31
0.0
  0
LINE
  5
37E
  8
0
  6
CONTINUOUS
 62
     7
 10
535.3676682512
 20
881.871056266
 30
0.0
 11
535.3676682512
 21
924.3710529877
 31
0.0
  0
LINE
  5
37F
  8
0
  6
CONTINUOUS
 62
     7
 10
453.3200642268
 20
881.871056266
 30
0.0
 11
453.3200642268
 21
924.3710529877
 31
0.0
  0
LINE
  5
380
  8
0
  6
CONTINUOUS
 62
     7
 10
537.3200630943
 20
924.3710529877
 30
0.0
 11
537.3200630943
 21
881.871056266
 31
0.0
  0
ARC
  5
381
  8
0
  6
CONTINUOUS
 62
     7
 10
453.4255419253
 20
830.8861581034
 30
0.0
 40
46.53353842628137
 50
94.359541549
 51
98.8069223247
  0
POLYLINE
  5
382
  8
0
  6
CONTINUOUS
 62
     7
 66
     1
 10
0.0
 20
0.0
 30
0.0
 70
   128
  0
VERTEX
  5
861
  8
0
  6
CONTINUOUS
 62
     7
 10
540.7518303195
 20
877.2850599958
 30
0.0
  0
VERTEX
  5
862
  8
0
  6
CONTINUOUS
 62
     7
 10
541.3739575247
 20
877.2317138387
 30
0.0
  0
VERTEX
  5
863
  8
0
  6
CONTINUOUS
 62
     7
 10
542.5103796819
 20
877.0577427818
 30
0.0
  0
VERTEX
  5
864
  8
0
  6
CONTINUOUS
 62
     7
 10
543.8461942772
 20
876.8890169336
 30
0.0
  0
VERTEX
  5
865
  8
0
  6
CONTINUOUS
 62
     7
 10
544.3391135136
 20
876.8710610344
 30
0.0
  0
SEQEND
  5
A0B
  8
0
  6
CONTINUOUS
 62
     7
  0
ARC
  5
383
  8
0
  6
CONTINUOUS
 62
     7
 10
446.686160255
 20
881.5656792756
 30
0.0
 40
5.345781623054036
 50
306.7984928662
 51
3.2747957219
  0
LINE
  5
384
  8
0
  6
CONTINUOUS
 62
     7
 10
452.0232124428
 20
881.871056266
 30
0.0
 11
452.0232124428
 21
884.8710623457
 31
0.0
  0
LINE
  5
385
  8
0
  6
CONTINUOUS
 62
     7
 10
538.6169148783
 20
884.8710623457
 30
0.0
 11
538.6169148783
 21
881.871056266
 31
0.0
  0
ARC
  5
386
  8
0
  6
CONTINUOUS
 62
     7
 10
543.953967066
 20
881.5656792756
 30
0.0
 40
5.345781623053286
 50
176.7252042781
 51
233.2015071338
  0
LINE
  5
387
  8
0
  6
CONTINUOUS
 62
     7
 10
538.6169148783
 20
881.871056266
 30
0.0
 11
544.3177303473
 21
881.871056266
 31
0.0
  0
ARC
  5
388
  8
0
  6
CONTINUOUS
 62
     7
 10
548.8860532223
 20
881.4275342481
 30
0.0
 40
4.589802356382762
 50
174.4547382899
 51
263.0909893127
  0
ARC
  5
389
  8
0
  6
CONTINUOUS
 62
     7
 10
441.7540740987
 20
881.4275342481
 30
0.0
 40
4.589802356382769
 50
276.9090106873
 51
5.5452617101
  0
LINE
  5
38A
  8
0
  6
CONTINUOUS
 62
     7
 10
446.3223969737
 20
881.871056266
 30
0.0
 11
452.0232124428
 21
881.871056266
 31
0.0
  0
LINE
  5
38B
  8
0
  6
CONTINUOUS
 62
     7
 10
436.3200633029
 20
886.8710514976
 30
0.0
 11
453.4427827398
 21
886.8710514976
 31
0.0
  0
LINE
  5
38C
  8
0
  6
CONTINUOUS
 62
     7
 10
537.1973445813
 20
886.8710514976
 30
0.0
 11
554.3200640181
 21
886.8710514976
 31
0.0
  0
LINE
  5
38D
  8
0
  6
CONTINUOUS
 62
     7
 10
410.3200627664
 20
947.3378253056
 30
0.0
 11
410.3200627664
 21
952.371053852
 31
0.0
  0
LINE
  5
38E
  8
0
  6
CONTINUOUS
 62
     7
 10
410.9103499154
 20
952.371053852
 30
0.0
 11
410.3200627664
 21
952.371053852
 31
0.0
  0
LINE
  5
38F
  8
0
  6
CONTINUOUS
 62
     7
 10
410.3200627664
 20
952.371053852
 30
0.0
 11
410.3200627664
 21
962.3710554911
 31
0.0
  0
LINE
  5
390
  8
0
  6
CONTINUOUS
 62
     7
 10
429.3370364407
 20
1181.3710597231
 30
0.0
 11
429.3370364407
 21
1021.8710559307
 31
0.0
  0
LINE
  5
391
  8
0
  6
CONTINUOUS
 62
     7
 10
434.961628745
 20
1181.3710597231
 30
0.0
 11
434.961628745
 21
1021.8710559307
 31
0.0
  0
LINE
  5
392
  8
0
  6
CONTINUOUS
 62
     7
 10
441.2475196818
 20
1181.3710597231
 30
0.0
 11
441.2475196818
 21
1021.8710559307
 31
0.0
  0
LINE
  5
393
  8
0
  6
CONTINUOUS
 62
     7
 10
448.1258435348
 20
1181.3710597231
 30
0.0
 11
448.1258435348
 21
1021.8710559307
 31
0.0
  0
LINE
  5
394
  8
0
  6
CONTINUOUS
 62
     7
 10
455.521233956
 20
1181.3710597231
 30
0.0
 11
455.521233956
 21
1021.8710559307
 31
0.0
  0
LINE
  5
395
  8
0
  6
CONTINUOUS
 62
     7
 10
535.118893365
 20
1021.8710559307
 30
0.0
 11
535.118893365
 21
1181.3710597231
 31
0.0
  0
LINE
  5
396
  8
0
  6
CONTINUOUS
 62
     7
 10
542.5142837862
 20
1021.8710559307
 30
0.0
 11
542.5142837862
 21
1181.3710597231
 31
0.0
  0
LINE
  5
397
  8
0
  6
CONTINUOUS
 62
     7
 10
549.3926076392
 20
1021.8710559307
 30
0.0
 11
549.3926076392
 21
1181.3710597231
 31
0.0
  0
LINE
  5
398
  8
0
  6
CONTINUOUS
 62
     7
 10
555.6784985761
 20
1021.8710559307
 30
0.0
 11
555.6784985761
 21
1181.3710597231
 31
0.0
  0
LINE
  5
399
  8
0
  6
CONTINUOUS
 62
     7
 10
561.3030908803
 20
1021.8710559307
 30
0.0
 11
561.3030908803
 21
1181.3710597231
 31
0.0
  0
LINE
  5
39A
  8
0
  6
CONTINUOUS
 62
     7
 10
452.3202223877
 20
1181.3710597231
 30
0.0
 11
452.3202223877
 21
1021.8710559307
 31
0.0
  0
LINE
  5
39B
  8
0
  6
CONTINUOUS
 62
     7
 10
538.3199049333
 20
1021.8710559307
 30
0.0
 11
538.3199049333
 21
1181.3710597231
 31
0.0
  0
LINE
  5
39C
  8
0
  6
CONTINUOUS
 62
     7
 10
454.1890887717
 20
1021.8710559307
 30
0.0
 11
454.1890887717
 21
1181.3710597231
 31
0.0
  0
LINE
  5
39D
  8
0
  6
CONTINUOUS
 62
     7
 10
536.4510385493
 20
1181.3710597231
 30
0.0
 11
536.4510385493
 21
1021.8710559307
 31
0.0
  0
LINE
  5
39E
  8
0
  6
CONTINUOUS
 62
     7
 10
444.5864712993
 20
1181.3710597231
 30
0.0
 11
444.5864712993
 21
1021.8710559307
 31
0.0
  0
LINE
  5
39F
  8
0
  6
CONTINUOUS
 62
     7
 10
546.0536560217
 20
1021.8710559307
 30
0.0
 11
546.0536560217
 21
1181.3710597231
 31
0.0
  0
LINE
  5
3A0
  8
0
  6
CONTINUOUS
 62
     7
 10
446.7638848523
 20
1021.8710559307
 30
0.0
 11
446.7638848523
 21
1181.3710597231
 31
0.0
  0
LINE
  5
3A1
  8
0
  6
CONTINUOUS
 62
     7
 10
543.8762424687
 20
1181.3710597231
 30
0.0
 11
543.8762424687
 21
1021.8710559307
 31
0.0
  0
LINE
  5
3A2
  8
0
  6
CONTINUOUS
 62
     7
 10
437.4085670511
 20
1181.3710597231
 30
0.0
 11
437.4085670511
 21
1021.8710559307
 31
0.0
  0
LINE
  5
3A3
  8
0
  6
CONTINUOUS
 62
     7
 10
553.23156027
 20
1021.8710559307
 30
0.0
 11
553.23156027
 21
1181.3710597231
 31
0.0
  0
LINE
  5
3A4
  8
0
  6
CONTINUOUS
 62
     7
 10
439.8706672887
 20
1021.8710559307
 30
0.0
 11
439.8706672887
 21
1181.3710597231
 31
0.0
  0
LINE
  5
3A5
  8
0
  6
CONTINUOUS
 62
     7
 10
550.7694600323
 20
1181.3710597231
 30
0.0
 11
550.7694600323
 21
1021.8710559307
 31
0.0
  0
LINE
  5
3A6
  8
0
  6
CONTINUOUS
 62
     7
 10
430.8651579717
 20
1181.3710597231
 30
0.0
 11
430.8651579717
 21
1021.8710559307
 31
0.0
  0
LINE
  5
3A7
  8
0
  6
CONTINUOUS
 62
     7
 10
559.7749693493
 20
1021.8710559307
 30
0.0
 11
559.7749693493
 21
1181.3710597231
 31
0.0
  0
LINE
  5
3A8
  8
0
  6
CONTINUOUS
 62
     7
 10
433.5849700669
 20
1021.8710559307
 30
0.0
 11
433.5849700669
 21
1181.3710597231
 31
0.0
  0
LINE
  5
3A9
  8
0
  6
CONTINUOUS
 62
     7
 10
557.0551572541
 20
1181.3710597231
 30
0.0
 11
557.0551572541
 21
1021.8710559307
 31
0.0
  0
LINE
  5
3AA
  8
0
  6
CONTINUOUS
 62
     7
 10
425.0279260973
 20
1181.3710597231
 30
0.0
 11
425.0279260973
 21
1021.8710559307
 31
0.0
  0
LINE
  5
3AB
  8
0
  6
CONTINUOUS
 62
     7
 10
565.6122012237
 20
1021.8710559307
 30
0.0
 11
565.6122012237
 21
1181.3710597231
 31
0.0
  0
LINE
  5
3AC
  8
0
  6
CONTINUOUS
 62
     7
 10
427.9756514529
 20
1021.8710559307
 30
0.0
 11
427.9756514529
 21
1181.3710597231
 31
0.0
  0
LINE
  5
3AD
  8
0
  6
CONTINUOUS
 62
     7
 10
562.6644758681
 20
1181.3710597231
 30
0.0
 11
562.6644758681
 21
1021.8710559307
 31
0.0
  0
LINE
  5
3AE
  8
0
  6
CONTINUOUS
 62
     7
 10
419.9608309368
 20
1181.3710597231
 30
0.0
 11
419.9608309368
 21
1021.8710559307
 31
0.0
  0
LINE
  5
3AF
  8
0
  6
CONTINUOUS
 62
     7
 10
570.6792963842
 20
1021.8710559307
 30
0.0
 11
570.6792963842
 21
1181.3710597231
 31
0.0
  0
LINE
  5
3B0
  8
0
  6
CONTINUOUS
 62
     7
 10
423.1041787366
 20
1021.8710559307
 30
0.0
 11
423.1041787366
 21
1181.3710597231
 31
0.0
  0
LINE
  5
3B1
  8
0
  6
CONTINUOUS
 62
     7
 10
567.5359485844
 20
1181.3710597231
 30
0.0
 11
567.5359485844
 21
1021.8710559307
 31
0.0
  0
LINE
  5
3B2
  8
0
  6
CONTINUOUS
 62
     7
 10
415.7193867663
 20
1181.3710597231
 30
0.0
 11
415.7193867663
 21
1021.8710559307
 31
0.0
  0
LINE
  5
3B3
  8
0
  6
CONTINUOUS
 62
     7
 10
574.9207405547
 20
1021.8710559307
 30
0.0
 11
574.9207405547
 21
1181.3710597231
 31
0.0
  0
LINE
  5
3B4
  8
0
  6
CONTINUOUS
 62
     7
 10
412.350062857
 20
1181.3710597231
 30
0.0
 11
412.350062857
 21
1021.8710559307
 31
0.0
  0
LINE
  5
3B5
  8
0
  6
CONTINUOUS
 62
     7
 10
578.290064464
 20
1021.8710559307
 30
0.0
 11
578.290064464
 21
1181.3710597231
 31
0.0
  0
LINE
  5
3B6
  8
0
  6
CONTINUOUS
 62
     7
 10
409.8897768358
 20
1181.3710597231
 30
0.0
 11
409.8897768358
 21
1021.8710559307
 31
0.0
  0
LINE
  5
3B7
  8
0
  6
CONTINUOUS
 62
     7
 10
408.3654849032
 20
1181.3710597231
 30
0.0
 11
408.3654849032
 21
1021.8710559307
 31
0.0
  0
LINE
  5
3B8
  8
0
  6
CONTINUOUS
 62
     7
 10
582.0200635294
 20
1178.8710621072
 30
0.0
 11
582.0200635294
 21
1138.8710555507
 31
0.0
  0
LINE
  5
3B9
  8
0
  6
CONTINUOUS
 62
     7
 10
591.0200668672
 20
1138.8710555507
 30
0.0
 11
591.0200668672
 21
1178.8710621072
 31
0.0
  0
POLYLINE
  5
3BA
  8
0
  6
CONTINUOUS
 62
     7
 66
     1
 10
0.0
 20
0.0
 30
0.0
 70
   128
  0
VERTEX
  5
866
  8
0
  6
CONTINUOUS
 62
     7
 10
598.7869171599
 20
1188.5627177431
 30
0.0
  0
VERTEX
  5
867
  8
0
  6
CONTINUOUS
 62
     7
 10
598.821219633
 20
1188.4684827997
 30
0.0
  0
VERTEX
  5
868
  8
0
  6
CONTINUOUS
 62
     7
 10
598.9702014426
 20
1188.0591330005
 30
0.0
  0
VERTEX
  5
869
  8
0
  6
CONTINUOUS
 62
     7
 10
599.2244674066
 20
1187.3605665638
 30
0.0
  0
VERTEX
  5
86A
  8
0
  6
CONTINUOUS
 62
     7
 10
599.561405013
 20
1186.4348170234
 30
0.0
  0
VERTEX
  5
86B
  8
0
  6
CONTINUOUS
 62
     7
 10
599.9510927299
 20
1185.3641685917
 30
0.0
  0
VERTEX
  5
86C
  8
0
  6
CONTINUOUS
 62
     7
 10
600.3589002589
 20
1184.2437353803
 30
0.0
  0
VERTEX
  5
86D
  8
0
  6
CONTINUOUS
 62
     7
 10
600.7485879759
 20
1183.1730869486
 30
0.0
  0
VERTEX
  5
86E
  8
0
  6
CONTINUOUS
 62
     7
 10
601.0855255822
 20
1182.2473374082
 30
0.0
  0
VERTEX
  5
86F
  8
0
  6
CONTINUOUS
 62
     7
 10
601.3397915462
 20
1181.5487560703
 30
0.0
  0
VERTEX
  5
870
  8
0
  6
CONTINUOUS
 62
     7
 10
601.4887733558
 20
1181.1394211723
 30
0.0
  0
VERTEX
  5
871
  8
0
  6
CONTINUOUS
 62
     7
 10
601.5230758289
 20
1181.0451862289
 30
0.0
  0
SEQEND
  5
A0C
  8
0
  6
CONTINUOUS
 62
     7
  0
POLYLINE
  5
3BB
  8
0
  6
CONTINUOUS
 62
     7
 66
     1
 10
0.0
 20
0.0
 30
0.0
 70
   128
  0
VERTEX
  5
872
  8
0
  6
CONTINUOUS
 62
     7
 10
599.1094825963
 20
1188.5241386368
 30
0.0
  0
VERTEX
  5
873
  8
0
  6
CONTINUOUS
 62
     7
 10
599.1739897231
 20
1188.3469042255
 30
0.0
  0
VERTEX
  5
874
  8
0
  6
CONTINUOUS
 62
     7
 10
599.3611855606
 20
1187.8325757457
 30
0.0
  0
VERTEX
  5
875
  8
0
  6
CONTINUOUS
 62
     7
 10
599.6527565817
 20
1187.03148932
 30
0.0
  0
VERTEX
  5
876
  8
0
  6
CONTINUOUS
 62
     7
 10
600.0201596121
 20
1186.0220697595
 30
0.0
  0
VERTEX
  5
877
  8
0
  6
CONTINUOUS
 62
     7
 10
600.4274306992
 20
1184.9031117632
 30
0.0
  0
VERTEX
  5
878
  8
0
  6
CONTINUOUS
 62
     7
 10
600.8346943358
 20
1183.7841537668
 30
0.0
  0
VERTEX
  5
879
  8
0
  6
CONTINUOUS
 62
     7
 10
601.2020973662
 20
1182.7747193052
 30
0.0
  0
VERTEX
  5
87A
  8
0
  6
CONTINUOUS
 62
     7
 10
601.4936683873
 20
1181.9736328794
 30
0.0
  0
VERTEX
  5
87B
  8
0
  6
CONTINUOUS
 62
     7
 10
601.6808716754
 20
1181.4593043997
 30
0.0
  0
VERTEX
  5
87C
  8
0
  6
CONTINUOUS
 62
     7
 10
601.7453788022
 20
1181.2820699884
 30
0.0
  0
SEQEND
  5
A0D
  8
0
  6
CONTINUOUS
 62
     7
  0
POLYLINE
  5
3BC
  8
0
  6
CONTINUOUS
 62
     7
 66
     1
 10
0.0
 20
0.0
 30
0.0
 70
   128
  0
VERTEX
  5
87D
  8
0
  6
CONTINUOUS
 62
     7
 10
629.9107490281
 20
1103.0506905987
 30
0.0
  0
VERTEX
  5
87E
  8
0
  6
CONTINUOUS
 62
     7
 10
629.9450515012
 20
1102.9564482047
 30
0.0
  0
VERTEX
  5
87F
  8
0
  6
CONTINUOUS
 62
     7
 10
630.0940333108
 20
1102.5471133067
 30
0.0
  0
VERTEX
  5
880
  8
0
  6
CONTINUOUS
 62
     7
 10
630.3482918242
 20
1101.8485319688
 30
0.0
  0
VERTEX
  5
881
  8
0
  6
CONTINUOUS
 62
     7
 10
630.6852368811
 20
1100.922789879
 30
0.0
  0
VERTEX
  5
882
  8
0
  6
CONTINUOUS
 62
     7
 10
631.0749320487
 20
1099.8521339966
 30
0.0
  0
VERTEX
  5
883
  8
0
  6
CONTINUOUS
 62
     7
 10
631.4827321271
 20
1098.7317082359
 30
0.0
  0
VERTEX
  5
884
  8
0
  6
CONTINUOUS
 62
     7
 10
631.8724123935
 20
1097.6610523535
 30
0.0
  0
VERTEX
  5
885
  8
0
  6
CONTINUOUS
 62
     7
 10
632.2093574504
 20
1096.7353102638
 30
0.0
  0
VERTEX
  5
886
  8
0
  6
CONTINUOUS
 62
     7
 10
632.4636159638
 20
1096.0367289259
 30
0.0
  0
VERTEX
  5
887
  8
0
  6
CONTINUOUS
 62
     7
 10
632.6126126746
 20
1095.6273940279
 30
0.0
  0
VERTEX
  5
888
  8
0
  6
CONTINUOUS
 62
     7
 10
632.6469151477
 20
1095.5331516339
 30
0.0
  0
SEQEND
  5
A0E
  8
0
  6
CONTINUOUS
 62
     7
  0
POLYLINE
  5
3BD
  8
0
  6
CONTINUOUS
 62
     7
 66
     1
 10
0.0
 20
0.0
 30
0.0
 70
   128
  0
VERTEX
  5
889
  8
0
  6
CONTINUOUS
 62
     7
 10
630.2333144645
 20
1103.0121114923
 30
0.0
  0
VERTEX
  5
88A
  8
0
  6
CONTINUOUS
 62
     7
 10
630.2978215913
 20
1102.8348845317
 30
0.0
  0
VERTEX
  5
88B
  8
0
  6
CONTINUOUS
 62
     7
 10
630.4850248793
 20
1102.3205560519
 30
0.0
  0
VERTEX
  5
88C
  8
0
  6
CONTINUOUS
 62
     7
 10
630.7765959004
 20
1101.5194696261
 30
0.0
  0
VERTEX
  5
88D
  8
0
  6
CONTINUOUS
 62
     7
 10
631.1439989308
 20
1100.5100351645
 30
0.0
  0
VERTEX
  5
88E
  8
0
  6
CONTINUOUS
 62
     7
 10
631.5512625674
 20
1099.3910771682
 30
0.0
  0
VERTEX
  5
88F
  8
0
  6
CONTINUOUS
 62
     7
 10
631.958526204
 20
1098.2721191718
 30
0.0
  0
VERTEX
  5
890
  8
0
  6
CONTINUOUS
 62
     7
 10
632.3259292344
 20
1097.2626921608
 30
0.0
  0
VERTEX
  5
891
  8
0
  6
CONTINUOUS
 62
     7
 10
632.6175002555
 20
1096.461605735
 30
0.0
  0
VERTEX
  5
892
  8
0
  6
CONTINUOUS
 62
     7
 10
632.8047035435
 20
1095.9472772552
 30
0.0
  0
VERTEX
  5
893
  8
0
  6
CONTINUOUS
 62
     7
 10
632.8692106704
 20
1095.7700502946
 30
0.0
  0
VERTEX
  5
894
  8
0
  6
CONTINUOUS
 62
     7
 10
632.8692106704
 20
1095.7700502946
 30
0.0
  0
SEQEND
  5
A0F
  8
0
  6
CONTINUOUS
 62
     7
  0
POLYLINE
  5
3BE
  8
0
  6
CONTINUOUS
 62
     7
 66
     1
 10
0.0
 20
0.0
 30
0.0
 70
   128
  0
VERTEX
  5
895
  8
0
  6
CONTINUOUS
 62
     7
 10
600.7251558999
 20
1180.7547625972
 30
0.0
  0
VERTEX
  5
896
  8
0
  6
CONTINUOUS
 62
     7
 10
600.8532388309
 20
1180.4614928438
 30
0.0
  0
VERTEX
  5
897
  8
0
  6
CONTINUOUS
 62
     7
 10
601.1248273948
 20
1179.8396822883
 30
0.0
  0
VERTEX
  5
898
  8
0
  6
CONTINUOUS
 62
     7
 10
601.4557523826
 20
1179.0820029451
 30
0.0
  0
VERTEX
  5
899
  8
0
  6
CONTINUOUS
 62
     7
 10
601.8333105544
 20
1178.2175716831
 30
0.0
  0
VERTEX
  5
89A
  8
0
  6
CONTINUOUS
 62
     7
 10
602.2429732779
 20
1177.2796031906
 30
0.0
  0
VERTEX
  5
89B
  8
0
  6
CONTINUOUS
 62
     7
 10
602.6690198282
 20
1176.3041433765
 30
0.0
  0
SEQEND
  5
A10
  8
0
  6
CONTINUOUS
 62
     7
  0
POLYLINE
  5
3BF
  8
0
  6
CONTINUOUS
 62
     7
 66
     1
 10
0.0
 20
0.0
 30
0.0
 70
   128
  0
VERTEX
  5
89C
  8
0
  6
CONTINUOUS
 62
     7
 10
627.75720341
 20
1107.3749181701
 30
0.0
  0
VERTEX
  5
89D
  8
0
  6
CONTINUOUS
 62
     7
 10
628.090825508
 20
1106.458295591
 30
0.0
  0
VERTEX
  5
89E
  8
0
  6
CONTINUOUS
 62
     7
 10
628.4116326073
 20
1105.5768919064
 30
0.0
  0
VERTEX
  5
89F
  8
0
  6
CONTINUOUS
 62
     7
 10
628.7072865466
 20
1104.7645923568
 30
0.0
  0
VERTEX
  5
8A0
  8
0
  6
CONTINUOUS
 62
     7
 10
628.9664326409
 20
1104.0526074244
 30
0.0
  0
VERTEX
  5
8A1
  8
0
  6
CONTINUOUS
 62
     7
 10
629.1791020135
 20
1103.4682881905
 30
0.0
  0
VERTEX
  5
8A2
  8
0
  6
CONTINUOUS
 62
     7
 10
629.3371288279
 20
1103.0341056062
 30
0.0
  0
VERTEX
  5
8A3
  8
0
  6
CONTINUOUS
 62
     7
 10
629.3989090422
 20
1102.8643962814
 30
0.0
  0
SEQEND
  5
A11
  8
0
  6
CONTINUOUS
 62
     7
  0
LINE
  5
3C0
  8
0
  6
CONTINUOUS
 62
     7
 10
595.9040714601
 20
1174.4240638687
 30
0.0
 11
593.720060418
 21
1173.6291465236
 31
0.0
  0
LINE
  5
3C1
  8
0
  6
CONTINUOUS
 62
     7
 10
593.720060418
 20
1105.8710557296
 30
0.0
 11
620.8553282718
 21
1105.8710557296
 31
0.0
  0
LINE
  5
3C2
  8
0
  6
CONTINUOUS
 62
     7
 10
588.1200624803
 20
1224.6683058216
 30
0.0
 11
402.5200648407
 21
1224.6683058216
 31
0.0
  0
ARC
  5
3C3
  8
0
  6
CONTINUOUS
 62
     7
 10
564.1203700231
 20
1204.2170036827
 30
0.0
 40
4.192904285483116
 50
12.0235756018
 51
79.4892362801
  0
ARC
  5
3C4
  8
0
  6
CONTINUOUS
 62
     7
 10
405.6412260574
 20
1206.9142434395
 30
0.0
 40
1.913578939119435
 50
131.8546328526
 51
176.1551994702
  0
LINE
  5
3C5
  8
0
  6
CONTINUOUS
 62
     7
 10
430.7696042756
 20
1227.154400654
 30
0.0
 11
586.6081981162
 21
1227.154400654
 31
0.0
  0
LINE
  5
3C6
  8
0
  6
CONTINUOUS
 62
     7
 10
404.0319292048
 20
1227.154400654
 30
0.0
 11
430.7696042756
 21
1227.154400654
 31
0.0
  0
LINE
  5
3C7
  8
0
  6
CONTINUOUS
 62
     7
 10
569.4680033425
 20
1236.0353288128
 30
0.0
 11
421.1721239785
 21
1236.0353288128
 31
0.0
  0
LINE
  5
3C8
  8
0
  6
CONTINUOUS
 62
     7
 10
443.3477154175
 20
1237.1008065416
 30
0.0
 11
568.8200636009
 21
1237.1008065416
 31
0.0
  0
LINE
  5
3C9
  8
0
  6
CONTINUOUS
 62
     7
 10
421.8200637201
 20
1237.1008065416
 30
0.0
 11
443.3477154175
 21
1237.1008065416
 31
0.0
  0
LINE
  5
3CA
  8
0
  6
CONTINUOUS
 62
     7
 10
568.8200636009
 20
1239.5710614397
 30
0.0
 11
421.8200637201
 21
1239.5710614397
 31
0.0
  0
LINE
  5
3CB
  8
0
  6
CONTINUOUS
 62
     7
 10
567.9547978739
 20
1203.3710596039
 30
0.0
 11
568.833474646
 21
1203.3710596039
 31
0.0
  0
ARC
  5
3CC
  8
0
  6
CONTINUOUS
 62
     7
 10
566.5976156691
 20
1208.0296320144
 30
0.0
 40
1.740195332493923
 50
169.7411252703
 51
253.8775115217
  0
LINE
  5
3CD
  8
0
  6
CONTINUOUS
 62
     7
 10
399.8301966289
 20
1203.3710596039
 30
0.0
 11
399.9324185947
 21
1203.3710596039
 31
0.0
  0
ARC
  5
3CE
  8
0
  6
CONTINUOUS
 62
     7
 10
402.4128304489
 20
1208.2912247443
 30
0.0
 40
1.952171786300727
 50
293.4544867757
 51
1.4185907016
  0
LINE
  5
3CF
  8
0
  6
CONTINUOUS
 62
     7
 10
434.5865776936
 20
784.3710598423
 30
0.0
 11
434.1049125592
 21
784.3710598423
 31
0.0
  0
LINE
  5
3D0
  8
0
  6
CONTINUOUS
 62
     7
 10
556.5352147619
 20
784.3710598423
 30
0.0
 11
556.0535496274
 21
784.3710598423
 31
0.0
  0
LINE
  5
3D1
  8
0
  6
CONTINUOUS
 62
     7
 10
485.6715096334
 20
777.3710605575
 30
0.0
 11
459.3200652102
 21
777.3710605575
 31
0.0
  0
LINE
  5
3D2
  8
0
  6
CONTINUOUS
 62
     7
 10
531.3200621108
 20
777.3710605575
 30
0.0
 11
504.9686176876
 21
777.3710605575
 31
0.0
  0
LINE
  5
3D3
  8
0
  6
CONTINUOUS
 62
     7
 10
459.3200652102
 20
759.3710538818
 30
0.0
 11
485.6715096334
 21
759.3710538818
 31
0.0
  0
LINE
  5
3D4
  8
0
  6
CONTINUOUS
 62
     7
 10
504.9686176876
 20
759.3710538818
 30
0.0
 11
531.3200621108
 21
759.3710538818
 31
0.0
  0
LINE
  5
3D5
  8
0
  6
CONTINUOUS
 62
     7
 10
458.3119867543
 20
759.3710538818
 30
0.0
 11
459.3200652102
 21
759.3710538818
 31
0.0
  0
LINE
  5
3D6
  8
0
  6
CONTINUOUS
 62
     7
 10
531.3200621108
 20
759.3710538818
 30
0.0
 11
532.3281405667
 21
759.3710538818
 31
0.0
  0
ARC
  5
3D7
  8
0
  6
CONTINUOUS
 62
     7
 10
451.5457591847
 20
777.6769687903
 30
0.0
 40
6.773139255188516
 50
357.4113606177
 51
34.4045915403
  0
LINE
  5
3D8
  8
0
  6
CONTINUOUS
 62
     7
 10
458.3119867543
 20
777.3710605575
 30
0.0
 11
459.3200652102
 21
777.3710605575
 31
0.0
  0
ARC
  5
3D9
  8
0
  6
CONTINUOUS
 62
     7
 10
539.2520261045
 20
777.6320350075
 30
0.0
 40
6.92880210450973
 50
146.0254824706
 51
182.1585653714
  0
LINE
  5
3DA
  8
0
  6
CONTINUOUS
 62
     7
 10
531.3200621108
 20
777.3710605575
 30
0.0
 11
532.3281405667
 21
777.3710605575
 31
0.0
  0
LINE
  5
3DB
  8
0
  6
CONTINUOUS
 62
     7
 10
458.3119867543
 20
777.3710605575
 30
0.0
 11
455.5450720886
 21
777.3710605575
 31
0.0
  0
LINE
  5
3DC
  8
0
  6
CONTINUOUS
 62
     7
 10
535.0950552324
 20
777.3710605575
 30
0.0
 11
532.3281405667
 21
777.3710605575
 31
0.0
  0
LINE
  5
3DD
  8
0
  6
CONTINUOUS
 62
     7
 10
455.5450720886
 20
759.3710538818
 30
0.0
 11
458.3119867543
 21
759.3710538818
 31
0.0
  0
LINE
  5
3DE
  8
0
  6
CONTINUOUS
 62
     7
 10
532.3281405667
 20
759.3710538818
 30
0.0
 11
535.0950552324
 21
759.3710538818
 31
0.0
  0
LINE
  5
3DF
  8
0
  6
CONTINUOUS
 62
     7
 10
533.0978414217
 20
949.3710589482
 30
0.0
 11
580.3200645546
 21
949.3710589482
 31
0.0
  0
LINE
  5
3E0
  8
0
  6
CONTINUOUS
 62
     7
 10
434.1049125592
 20
874.8710569812
 30
0.0
 11
434.5865776936
 21
874.8710569812
 31
0.0
  0
LINE
  5
3E1
  8
0
  6
CONTINUOUS
 62
     7
 10
434.1049125592
 20
863.8710495903
 30
0.0
 11
434.5865776936
 21
863.8710495903
 31
0.0
  0
LINE
  5
3E2
  8
0
  6
CONTINUOUS
 62
     7
 10
556.0535496274
 20
874.8710569812
 30
0.0
 11
556.5352147619
 21
874.8710569812
 31
0.0
  0
LINE
  5
3E3
  8
0
  6
CONTINUOUS
 62
     7
 10
556.0535496274
 20
863.8710495903
 30
0.0
 11
556.5352147619
 21
863.8710495903
 31
0.0
  0
ARC
  5
3E4
  8
0
  6
CONTINUOUS
 62
     7
 10
536.7964200959
 20
885.1044595448
 30
0.0
 40
1.835395190421008
 50
352.6942270848
 51
73.4230634144
  0
LINE
  5
3E5
  8
0
  6
CONTINUOUS
 62
     7
 10
538.6169148783
 20
884.8710623457
 30
0.0
 11
537.3200630943
 21
884.8710623457
 31
0.0
  0
ARC
  5
3E6
  8
0
  6
CONTINUOUS
 62
     7
 10
453.8437072251
 20
885.1044595448
 30
0.0
 40
1.835395190420601
 50
106.5769365856
 51
187.3057729152
  0
LINE
  5
3E7
  8
0
  6
CONTINUOUS
 62
     7
 10
453.3200642268
 20
884.8710623457
 30
0.0
 11
452.0232124428
 21
884.8710623457
 31
0.0
  0
LINE
  5
3E8
  8
0
  6
CONTINUOUS
 62
     7
 10
452.0232124428
 20
881.871056266
 30
0.0
 11
453.3200642268
 21
881.871056266
 31
0.0
  0
LINE
  5
3E9
  8
0
  6
CONTINUOUS
 62
     7
 10
537.3200630943
 20
881.871056266
 30
0.0
 11
538.6169148783
 21
881.871056266
 31
0.0
  0
LINE
  5
3EA
  8
0
  6
CONTINUOUS
 62
     7
 10
452.0232124428
 20
884.8710623457
 30
0.0
 11
434.3200629751
 21
884.8710623457
 31
0.0
  0
POLYLINE
  5
3EB
  8
0
  6
CONTINUOUS
 62
     7
 66
     1
 10
0.0
 20
0.0
 30
0.0
 70
   128
  0
VERTEX
  5
8A4
  8
0
  6
CONTINUOUS
 62
     7
 10
442.467544804
 20
876.8800166322
 30
0.0
  0
VERTEX
  5
8A5
  8
0
  6
CONTINUOUS
 62
     7
 10
442.4728756944
 20
876.9451198055
 30
0.0
  0
VERTEX
  5
8A6
  8
0
  6
CONTINUOUS
 62
     7
 10
442.9528607229
 20
878.778767295
 30
0.0
  0
VERTEX
  5
8A7
  8
0
  6
CONTINUOUS
 62
     7
 10
443.7414040963
 20
880.3183403684
 30
0.0
  0
VERTEX
  5
8A8
  8
0
  6
CONTINUOUS
 62
     7
 10
444.9055573145
 20
881.4559993221
 30
0.0
  0
VERTEX
  5
8A9
  8
0
  6
CONTINUOUS
 62
     7
 10
446.3223969737
 20
881.871056266
 30
0.0
  0
SEQEND
  5
A12
  8
0
  6
CONTINUOUS
 62
     7
  0
POLYLINE
  5
3EC
  8
0
  6
CONTINUOUS
 62
     7
 66
     1
 10
0.0
 20
0.0
 30
0.0
 70
   128
  0
VERTEX
  5
8AA
  8
0
  6
CONTINUOUS
 62
     7
 10
443.2368023495
 20
861.1833271457
 30
0.0
  0
VERTEX
  5
8AB
  8
0
  6
CONTINUOUS
 62
     7
 10
443.0889828304
 20
861.5023014023
 30
0.0
  0
VERTEX
  5
8AC
  8
0
  6
CONTINUOUS
 62
     7
 10
442.9972959856
 20
861.7701497747
 30
0.0
  0
SEQEND
  5
A13
  8
0
  6
CONTINUOUS
 62
     7
  0
LINE
  5
3ED
  8
0
  6
CONTINUOUS
 62
     7
 10
556.320064346
 20
884.8710623457
 30
0.0
 11
538.6169148783
 21
884.8710623457
 31
0.0
  0
POLYLINE
  5
3EE
  8
0
  6
CONTINUOUS
 62
     7
 66
     1
 10
0.0
 20
0.0
 30
0.0
 70
   128
  0
VERTEX
  5
8AD
  8
0
  6
CONTINUOUS
 62
     7
 10
547.6841522554
 20
861.8710604383
 30
0.0
  0
VERTEX
  5
8AE
  8
0
  6
CONTINUOUS
 62
     7
 10
547.5511444906
 20
861.5023014023
 30
0.0
  0
VERTEX
  5
8AF
  8
0
  6
CONTINUOUS
 62
     7
 10
547.4033249716
 20
861.2306681349
 30
0.0
  0
SEQEND
  5
A14
  8
0
  6
CONTINUOUS
 62
     7
  0
POLYLINE
  5
3EF
  8
0
  6
CONTINUOUS
 62
     7
 66
     1
 10
0.0
 20
0.0
 30
0.0
 70
   128
  0
VERTEX
  5
8B0
  8
0
  6
CONTINUOUS
 62
     7
 10
544.3177303473
 20
881.871056266
 30
0.0
  0
VERTEX
  5
8B1
  8
0
  6
CONTINUOUS
 62
     7
 10
545.8396939734
 20
881.3883629514
 30
0.0
  0
VERTEX
  5
8B2
  8
0
  6
CONTINUOUS
 62
     7
 10
547.1122494141
 20
879.9896952583
 30
0.0
  0
VERTEX
  5
8B3
  8
0
  6
CONTINUOUS
 62
     7
 10
547.9787854651
 20
877.8400686456
 30
0.0
  0
VERTEX
  5
8B4
  8
0
  6
CONTINUOUS
 62
     7
 10
548.1149820784
 20
876.9100722744
 30
0.0
  0
SEQEND
  5
A15
  8
0
  6
CONTINUOUS
 62
     7
  0
ARC
  5
3F0
  8
0
  6
CONTINUOUS
 62
     7
 10
452.3878346052
 20
888.0797723015
 30
0.0
 40
1.21419552508091
 50
275.4429912874
 51
320.1545521148
  0
ARC
  5
3F1
  8
0
  6
CONTINUOUS
 62
     7
 10
538.2522927158
 20
888.0797723015
 30
0.0
 40
1.214195525081357
 50
219.8454478853
 51
264.5570087126
  0
LINE
  5
3F2
  8
SLD-0
 62
     7
 10
399.6660354778
 20
955.740477707
 30
0.0
 11
436.3657629282
 21
955.740477707
 31
0.0
  0
LINE
  5
3F3
  8
SLD-0
  6
HIDDEN
 62
     7
 10
410.3200636605
 20
962.3710555507
 30
0.0
 11
434.8553115546
 21
962.3710555507
 31
0.0
  0
LINE
  5
3F4
  8
SLD-0
  6
HIDDEN
 62
     7
 10
410.3200636605
 20
949.1098998633
 30
0.0
 11
432.0488048736
 21
949.1098998633
 31
0.0
  0
INSERT
  5
400
  8
SLD-0
 62
    11
  2
SW_CENTERMARKSYMBOL_0
 10
495.3200636605
 20
972.3710555507
 30
0.0
  0
LINE
  5
401
  8
0
  6
CONTINUOUS
 62
     7
 10
595.0386567215
 20
485.382988998
 30
0.0
 11
593.3200610975
 21
485.382988998
 31
0.0
  0
LINE
  5
402
  8
0
  6
CONTINUOUS
 62
     7
 10
593.3200610975
 20
481.382990205
 30
0.0
 11
595.0386567215
 21
481.382990205
 31
0.0
  0
LINE
  5
403
  8
0
  6
CONTINUOUS
 62
     7
 10
595.0386567215
 20
427.3829888043
 30
0.0
 11
593.3200610975
 21
427.3829888043
 31
0.0
  0
LINE
  5
404
  8
0
  6
CONTINUOUS
 62
     7
 10
593.3200610975
 20
423.3829900113
 30
0.0
 11
595.0386567215
 21
423.3829900113
 31
0.0
  0
LINE
  5
405
  8
0
  6
CONTINUOUS
 62
     7
 10
625.5678652028
 20
485.382988998
 30
0.0
 11
624.1891352633
 21
485.382988998
 31
0.0
  0
LINE
  5
406
  8
0
  6
CONTINUOUS
 62
     7
 10
624.1891352633
 20
481.382990205
 30
0.0
 11
625.7282314996
 21
481.382990205
 31
0.0
  0
LINE
  5
407
  8
0
  6
CONTINUOUS
 62
     7
 10
631.2788246373
 20
487.3829893258
 30
0.0
 11
630.5387435654
 21
487.3829893258
 31
0.0
  0
LINE
  5
408
  8
0
  6
CONTINUOUS
 62
     7
 10
631.4259139994
 20
487.3331263152
 30
0.0
 11
631.3083140353
 21
487.3573965814
 31
0.0
  0
LINE
  5
409
  8
0
  6
CONTINUOUS
 62
     7
 10
631.2788246373
 20
479.3829898771
 30
0.0
 11
631.4922539691
 21
479.4300198045
 31
0.0
  0
ARC
  5
40A
  8
0
  6
CONTINUOUS
 62
     7
 10
626.6323369316
 20
483.3829895046
 30
0.0
 40
6.499999999999992
 50
328.9823638146
 51
31.0176361854
  0
LINE
  5
40B
  8
0
  6
CONTINUOUS
 62
     7
 10
625.7282314996
 20
427.3829888043
 30
0.0
 11
624.1891352633
 21
427.3829888043
 31
0.0
  0
LINE
  5
40C
  8
0
  6
CONTINUOUS
 62
     7
 10
624.1891352633
 20
423.3829900113
 30
0.0
 11
625.6897418002
 21
423.3829900113
 31
0.0
  0
LINE
  5
40D
  8
0
  6
CONTINUOUS
 62
     7
 10
630.9228358964
 20
421.3829896834
 30
0.0
 11
631.2788246373
 21
421.3829896834
 31
0.0
  0
LINE
  5
40E
  8
0
  6
CONTINUOUS
 62
     7
 10
631.4259139994
 20
429.3331261214
 30
0.0
 11
631.3083140353
 21
429.3573982504
 31
0.0
  0
LINE
  5
40F
  8
0
  6
CONTINUOUS
 62
     7
 10
631.2788246373
 20
421.3829896834
 30
0.0
 11
631.4922539691
 21
421.4300214734
 31
0.0
  0
ARC
  5
410
  8
0
  6
CONTINUOUS
 62
     7
 10
626.6323369316
 20
425.3829895046
 30
0.0
 40
6.499999999999992
 50
328.9823638146
 51
31.0176361854
  0
LINE
  5
411
  8
0
  6
CONTINUOUS
 62
     7
 10
632.9748748044
 20
443.6150406909
 30
0.0
 11
633.0248831013
 21
443.6150406909
 31
0.0
  0
LINE
  5
412
  8
0
  6
CONTINUOUS
 62
     7
 10
633.0248831013
 20
465.1509383183
 30
0.0
 11
632.9748748044
 21
465.1509383183
 31
0.0
  0
POLYLINE
  5
413
  8
0
  6
CONTINUOUS
 62
     7
 66
     1
 10
0.0
 20
0.0
 30
0.0
 70
   128
  0
VERTEX
  5
8B5
  8
0
  6
CONTINUOUS
 62
     7
 10
631.2978981236
 20
483.3829886701
 30
0.0
  0
VERTEX
  5
8B6
  8
0
  6
CONTINUOUS
 62
     7
 10
631.2811343173
 20
484.0515590694
 30
0.0
  0
VERTEX
  5
8B7
  8
0
  6
CONTINUOUS
 62
     7
 10
631.1561880807
 20
485.2922986683
 30
0.0
  0
VERTEX
  5
8B8
  8
0
  6
CONTINUOUS
 62
     7
 10
630.9039263228
 20
486.4505752411
 30
0.0
  0
VERTEX
  5
8B9
  8
0
  6
CONTINUOUS
 62
     7
 10
630.4875878791
 20
487.5136054542
 30
0.0
  0
VERTEX
  5
8BA
  8
0
  6
CONTINUOUS
 62
     7
 10
629.9865810374
 20
488.2513358679
 30
0.0
  0
VERTEX
  5
8BB
  8
0
  6
CONTINUOUS
 62
     7
 10
629.4058827857
 20
488.7429922309
 30
0.0
  0
VERTEX
  5
8BC
  8
0
  6
CONTINUOUS
 62
     7
 10
628.697615693
 20
489.0320337799
 30
0.0
  0
VERTEX
  5
8BD
  8
0
  6
CONTINUOUS
 62
     7
 10
628.2298086385
 20
489.0829883006
 30
0.0
  0
SEQEND
  5
A16
  8
0
  6
CONTINUOUS
 62
     7
  0
LINE
  5
414
  8
0
  6
CONTINUOUS
 62
     7
 10
631.2978981236
 20
424.3829901752
 30
0.0
 11
631.2978981236
 21
483.3829886701
 31
0.0
  0
POLYLINE
  5
415
  8
0
  6
CONTINUOUS
 62
     7
 66
     1
 10
0.0
 20
0.0
 30
0.0
 70
   128
  0
VERTEX
  5
8BE
  8
0
  6
CONTINUOUS
 62
     7
 10
628.2298086385
 20
418.6829886821
 30
0.0
  0
VERTEX
  5
8BF
  8
0
  6
CONTINUOUS
 62
     7
 10
629.0065912703
 20
418.8259243455
 30
0.0
  0
VERTEX
  5
8C0
  8
0
  6
CONTINUOUS
 62
     7
 10
629.6380428771
 20
419.1855675962
 30
0.0
  0
VERTEX
  5
8C1
  8
0
  6
CONTINUOUS
 62
     7
 10
630.1346985797
 20
419.6935742584
 30
0.0
  0
VERTEX
  5
8C2
  8
0
  6
CONTINUOUS
 62
     7
 10
630.5551944474
 20
420.3874468294
 30
0.0
  0
VERTEX
  5
8C3
  8
0
  6
CONTINUOUS
 62
     7
 10
630.9245644311
 20
421.3876760986
 30
0.0
  0
VERTEX
  5
8C4
  8
0
  6
CONTINUOUS
 62
     7
 10
631.1767665843
 20
422.6124695924
 30
0.0
  0
VERTEX
  5
8C5
  8
0
  6
CONTINUOUS
 62
     7
 10
631.2886594037
 20
423.886153796
 30
0.0
  0
VERTEX
  5
8C6
  8
0
  6
CONTINUOUS
 62
     7
 10
631.2978981236
 20
424.3829901752
 30
0.0
  0
SEQEND
  5
A17
  8
0
  6
CONTINUOUS
 62
     7
  0
ARC
  5
416
  8
0
  6
CONTINUOUS
 62
     7
 10
590.0261458518
 20
483.3829886701
 30
0.0
 40
3.780879050845362
 50
330.5988022273
 51
29.4011977727
  0
ARC
  5
417
  8
0
  6
CONTINUOUS
 62
     7
 10
590.0261458518
 20
425.3829903391
 30
0.0
 40
3.780879050845263
 50
330.5988022273
 51
29.4011977727
  0
POLYLINE
  5
418
  8
0
  6
CONTINUOUS
 62
     7
 66
     1
 10
0.0
 20
0.0
 30
0.0
 70
   128
  0
VERTEX
  5
8C7
  8
0
  6
CONTINUOUS
 62
     7
 10
624.1891352633
 20
481.382990205
 30
0.0
  0
VERTEX
  5
8C8
  8
0
  6
CONTINUOUS
 62
     7
 10
623.9273665646
 20
481.5352297809
 30
0.0
  0
VERTEX
  5
8C9
  8
0
  6
CONTINUOUS
 62
     7
 10
623.705443571
 20
481.9687753406
 30
0.0
  0
VERTEX
  5
8CA
  8
0
  6
CONTINUOUS
 62
     7
 10
623.5571621159
 20
482.6176221904
 30
0.0
  0
VERTEX
  5
8CB
  8
0
  6
CONTINUOUS
 62
     7
 10
623.5050974587
 20
483.3829886701
 30
0.0
  0
VERTEX
  5
8CC
  8
0
  6
CONTINUOUS
 62
     7
 10
623.5571621159
 20
484.1483570125
 30
0.0
  0
VERTEX
  5
8CD
  8
0
  6
CONTINUOUS
 62
     7
 10
623.705443571
 20
484.7972038623
 30
0.0
  0
VERTEX
  5
8CE
  8
0
  6
CONTINUOUS
 62
     7
 10
623.9273665646
 20
485.230749422
 30
0.0
  0
VERTEX
  5
8CF
  8
0
  6
CONTINUOUS
 62
     7
 10
624.1891352633
 20
485.382988998
 30
0.0
  0
VERTEX
  5
8D0
  8
0
  6
CONTINUOUS
 62
     7
 10
624.450903962
 20
485.230749422
 30
0.0
  0
VERTEX
  5
8D1
  8
0
  6
CONTINUOUS
 62
     7
 10
624.6728269557
 20
484.7972038623
 30
0.0
  0
VERTEX
  5
8D2
  8
0
  6
CONTINUOUS
 62
     7
 10
624.8211084107
 20
484.1483570125
 30
0.0
  0
VERTEX
  5
8D3
  8
0
  6
CONTINUOUS
 62
     7
 10
624.8731730679
 20
483.3829886701
 30
0.0
  0
VERTEX
  5
8D4
  8
0
  6
CONTINUOUS
 62
     7
 10
624.8211084107
 20
482.6176221904
 30
0.0
  0
VERTEX
  5
8D5
  8
0
  6
CONTINUOUS
 62
     7
 10
624.6728269557
 20
481.9687753406
 30
0.0
  0
VERTEX
  5
8D6
  8
0
  6
CONTINUOUS
 62
     7
 10
624.450903962
 20
481.5352297809
 30
0.0
  0
VERTEX
  5
8D7
  8
0
  6
CONTINUOUS
 62
     7
 10
624.1891352633
 20
481.382990205
 30
0.0
  0
SEQEND
  5
A18
  8
0
  6
CONTINUOUS
 62
     7
  0
POLYLINE
  5
419
  8
0
  6
CONTINUOUS
 62
     7
 66
     1
 10
0.0
 20
0.0
 30
0.0
 70
   128
  0
VERTEX
  5
8D8
  8
0
  6
CONTINUOUS
 62
     7
 10
631.6352455119
 20
487.2285797682
 30
0.0
  0
VERTEX
  5
8D9
  8
0
  6
CONTINUOUS
 62
     7
 10
631.958526204
 20
487.0478100565
 30
0.0
  0
VERTEX
  5
8DA
  8
0
  6
CONTINUOUS
 62
     7
 10
632.3259292344
 20
486.5004717794
 30
0.0
  0
VERTEX
  5
8DB
  8
0
  6
CONTINUOUS
 62
     7
 10
632.6175002555
 20
485.6479726222
 30
0.0
  0
VERTEX
  5
8DC
  8
0
  6
CONTINUOUS
 62
     7
 10
632.8047035435
 20
484.5737609502
 30
0.0
  0
VERTEX
  5
8DD
  8
0
  6
CONTINUOUS
 62
     7
 10
632.8692106704
 20
483.3829886701
 30
0.0
  0
VERTEX
  5
8DE
  8
0
  6
CONTINUOUS
 62
     7
 10
632.8047035435
 20
482.1922163901
 30
0.0
  0
VERTEX
  5
8DF
  8
0
  6
CONTINUOUS
 62
     7
 10
632.6175002555
 20
481.1180065807
 30
0.0
  0
VERTEX
  5
8E0
  8
0
  6
CONTINUOUS
 62
     7
 10
632.3259292344
 20
480.2655074236
 30
0.0
  0
VERTEX
  5
8E1
  8
0
  6
CONTINUOUS
 62
     7
 10
631.958526204
 20
479.7181691465
 30
0.0
  0
VERTEX
  5
8E2
  8
0
  6
CONTINUOUS
 62
     7
 10
631.6764621238
 20
479.5469976452
 30
0.0
  0
SEQEND
  5
A19
  8
0
  6
CONTINUOUS
 62
     7
  0
POLYLINE
  5
41A
  8
0
  6
CONTINUOUS
 62
     7
 66
     1
 10
0.0
 20
0.0
 30
0.0
 70
   128
  0
VERTEX
  5
8E3
  8
0
  6
CONTINUOUS
 62
     7
 10
624.1891352633
 20
423.3829900113
 30
0.0
  0
VERTEX
  5
8E4
  8
0
  6
CONTINUOUS
 62
     7
 10
623.9273665646
 20
423.5352295872
 30
0.0
  0
VERTEX
  5
8E5
  8
0
  6
CONTINUOUS
 62
     7
 10
623.705443571
 20
423.9687751469
 30
0.0
  0
VERTEX
  5
8E6
  8
0
  6
CONTINUOUS
 62
     7
 10
623.5571621159
 20
424.6176219967
 30
0.0
  0
VERTEX
  5
8E7
  8
0
  6
CONTINUOUS
 62
     7
 10
623.5050974587
 20
425.3829903391
 30
0.0
  0
VERTEX
  5
8E8
  8
0
  6
CONTINUOUS
 62
     7
 10
623.5571621159
 20
426.1483568188
 30
0.0
  0
VERTEX
  5
8E9
  8
0
  6
CONTINUOUS
 62
     7
 10
623.705443571
 20
426.7972036686
 30
0.0
  0
VERTEX
  5
8EA
  8
0
  6
CONTINUOUS
 62
     7
 10
623.9273665646
 20
427.2307492283
 30
0.0
  0
VERTEX
  5
8EB
  8
0
  6
CONTINUOUS
 62
     7
 10
624.1891352633
 20
427.3829888043
 30
0.0
  0
VERTEX
  5
8EC
  8
0
  6
CONTINUOUS
 62
     7
 10
624.450903962
 20
427.2307492283
 30
0.0
  0
VERTEX
  5
8ED
  8
0
  6
CONTINUOUS
 62
     7
 10
624.6728269557
 20
426.7972036686
 30
0.0
  0
VERTEX
  5
8EE
  8
0
  6
CONTINUOUS
 62
     7
 10
624.8211084107
 20
426.1483568188
 30
0.0
  0
VERTEX
  5
8EF
  8
0
  6
CONTINUOUS
 62
     7
 10
624.8731730679
 20
425.3829903391
 30
0.0
  0
VERTEX
  5
8F0
  8
0
  6
CONTINUOUS
 62
     7
 10
624.8211084107
 20
424.6176219967
 30
0.0
  0
VERTEX
  5
8F1
  8
0
  6
CONTINUOUS
 62
     7
 10
624.6728269557
 20
423.9687751469
 30
0.0
  0
VERTEX
  5
8F2
  8
0
  6
CONTINUOUS
 62
     7
 10
624.450903962
 20
423.5352295872
 30
0.0
  0
VERTEX
  5
8F3
  8
0
  6
CONTINUOUS
 62
     7
 10
624.1891352633
 20
423.3829900113
 30
0.0
  0
SEQEND
  5
A1A
  8
0
  6
CONTINUOUS
 62
     7
  0
POLYLINE
  5
41B
  8
0
  6
CONTINUOUS
 62
     7
 66
     1
 10
0.0
 20
0.0
 30
0.0
 70
   128
  0
VERTEX
  5
8F4
  8
0
  6
CONTINUOUS
 62
     7
 10
631.6352455119
 20
429.2285777119
 30
0.0
  0
VERTEX
  5
8F5
  8
0
  6
CONTINUOUS
 62
     7
 10
631.958526204
 20
429.0478098628
 30
0.0
  0
VERTEX
  5
8F6
  8
0
  6
CONTINUOUS
 62
     7
 10
632.3259292344
 20
428.5004715857
 30
0.0
  0
VERTEX
  5
8F7
  8
0
  6
CONTINUOUS
 62
     7
 10
632.6175002555
 20
427.6479724285
 30
0.0
  0
VERTEX
  5
8F8
  8
0
  6
CONTINUOUS
 62
     7
 10
632.8047035435
 20
426.5737626192
 30
0.0
  0
VERTEX
  5
8F9
  8
0
  6
CONTINUOUS
 62
     7
 10
632.8692106704
 20
425.3829903391
 30
0.0
  0
VERTEX
  5
8FA
  8
0
  6
CONTINUOUS
 62
     7
 10
632.8047035435
 20
424.192218059
 30
0.0
  0
VERTEX
  5
8FB
  8
0
  6
CONTINUOUS
 62
     7
 10
632.6175002555
 20
423.118006387
 30
0.0
  0
VERTEX
  5
8FC
  8
0
  6
CONTINUOUS
 62
     7
 10
632.3259292344
 20
422.2655072298
 30
0.0
  0
VERTEX
  5
8FD
  8
0
  6
CONTINUOUS
 62
     7
 10
631.958526204
 20
421.7181689527
 30
0.0
  0
VERTEX
  5
8FE
  8
0
  6
CONTINUOUS
 62
     7
 10
631.6764621238
 20
421.5469955888
 30
0.0
  0
SEQEND
  5
A1B
  8
0
  6
CONTINUOUS
 62
     7
  0
LINE
  5
41C
  8
0
  6
CONTINUOUS
 62
     7
 10
633.0248831013
 20
444.6150399235
 30
0.0
 11
633.0248831013
 21
443.6150406909
 31
0.0
  0
LINE
  5
41D
  8
0
  6
CONTINUOUS
 62
     7
 10
633.0248831013
 20
465.1509383183
 30
0.0
 11
633.0248831013
 21
464.1509390858
 31
0.0
  0
LINE
  5
41E
  8
0
  6
CONTINUOUS
 62
     7
 10
633.0248831013
 20
464.1509390858
 30
0.0
 11
633.0248831013
 21
444.6150399235
 31
0.0
  0
LINE
  5
41F
  8
0
  6
CONTINUOUS
 62
     7
 10
633.0748764972
 20
463.2849133995
 30
0.0
 11
633.0248831013
 21
463.2849133995
 31
0.0
  0
LINE
  5
420
  8
0
  6
CONTINUOUS
 62
     7
 10
633.0748764972
 20
445.4810656097
 30
0.0
 11
633.0248831013
 21
445.4810656097
 31
0.0
  0
LINE
  5
421
  8
0
  6
CONTINUOUS
 62
     7
 10
633.0748764972
 20
463.2849133995
 30
0.0
 11
633.0748764972
 21
445.4810656097
 31
0.0
  0
POLYLINE
  5
422
  8
0
  6
CONTINUOUS
 62
     7
 66
     1
 10
0.0
 20
0.0
 30
0.0
 70
   128
  0
VERTEX
  5
8FF
  8
0
  6
CONTINUOUS
 62
     7
 10
626.1386541823
 20
483.3829886701
 30
0.0
  0
VERTEX
  5
900
  8
0
  6
CONTINUOUS
 62
     7
 10
626.1011926631
 20
484.495004588
 30
0.0
  0
VERTEX
  5
901
  8
0
  6
CONTINUOUS
 62
     7
 10
625.990253518
 20
485.5642858383
 30
0.0
  0
VERTEX
  5
902
  8
0
  6
CONTINUOUS
 62
     7
 10
625.8100984792
 20
486.5497387436
 30
0.0
  0
VERTEX
  5
903
  8
0
  6
CONTINUOUS
 62
     7
 10
625.5676565865
 20
487.4134994533
 30
0.0
  0
VERTEX
  5
904
  8
0
  6
CONTINUOUS
 62
     7
 10
625.2722261647
 20
488.1223663178
 30
0.0
  0
VERTEX
  5
905
  8
0
  6
CONTINUOUS
 62
     7
 10
624.9351767997
 20
488.6491037395
 30
0.0
  0
VERTEX
  5
906
  8
0
  6
CONTINUOUS
 62
     7
 10
624.5694725016
 20
488.9734647658
 30
0.0
  0
VERTEX
  5
907
  8
0
  6
CONTINUOUS
 62
     7
 10
624.1891352633
 20
489.0829883006
 30
0.0
  0
SEQEND
  5
A1C
  8
0
  6
CONTINUOUS
 62
     7
  0
LINE
  5
423
  8
0
  6
CONTINUOUS
 62
     7
 10
624.1891352633
 20
489.0829883006
 30
0.0
 11
628.2298086385
 21
489.0829883006
 31
0.0
  0
LINE
  5
424
  8
0
  6
CONTINUOUS
 62
     7
 10
624.1891352633
 20
489.0829883006
 30
0.0
 11
593.3200610975
 21
489.0829883006
 31
0.0
  0
LINE
  5
425
  8
0
  6
CONTINUOUS
 62
     7
 10
626.1386541823
 20
424.3829901752
 30
0.0
 11
626.1386541823
 21
483.3829886701
 31
0.0
  0
POLYLINE
  5
426
  8
0
  6
CONTINUOUS
 62
     7
 66
     1
 10
0.0
 20
0.0
 30
0.0
 70
   128
  0
VERTEX
  5
908
  8
0
  6
CONTINUOUS
 62
     7
 10
624.1891352633
 20
418.6829886821
 30
0.0
  0
VERTEX
  5
909
  8
0
  6
CONTINUOUS
 62
     7
 10
624.5694725016
 20
418.7925122168
 30
0.0
  0
VERTEX
  5
90A
  8
0
  6
CONTINUOUS
 62
     7
 10
624.9351767997
 20
419.1168769684
 30
0.0
  0
VERTEX
  5
90B
  8
0
  6
CONTINUOUS
 62
     7
 10
625.2722261647
 20
419.6436143902
 30
0.0
  0
VERTEX
  5
90C
  8
0
  6
CONTINUOUS
 62
     7
 10
625.5676565865
 20
420.3524812546
 30
0.0
  0
VERTEX
  5
90D
  8
0
  6
CONTINUOUS
 62
     7
 10
625.8100984792
 20
421.2162382391
 30
0.0
  0
VERTEX
  5
90E
  8
0
  6
CONTINUOUS
 62
     7
 10
625.990253518
 20
422.201693007
 30
0.0
  0
VERTEX
  5
90F
  8
0
  6
CONTINUOUS
 62
     7
 10
626.1011926631
 20
423.2709742573
 30
0.0
  0
VERTEX
  5
910
  8
0
  6
CONTINUOUS
 62
     7
 10
626.1386541823
 20
424.3829901752
 30
0.0
  0
SEQEND
  5
A1D
  8
0
  6
CONTINUOUS
 62
     7
  0
LINE
  5
427
  8
0
  6
CONTINUOUS
 62
     7
 10
593.3200610975
 20
418.6829886821
 30
0.0
 11
624.1891352633
 21
418.6829886821
 31
0.0
  0
LINE
  5
428
  8
0
  6
CONTINUOUS
 62
     7
 10
593.3200610975
 20
419.8829903689
 30
0.0
 11
624.1891352633
 21
419.8829903689
 31
0.0
  0
POLYLINE
  5
429
  8
0
  6
CONTINUOUS
 62
     7
 66
     1
 10
0.0
 20
0.0
 30
0.0
 70
   128
  0
VERTEX
  5
911
  8
0
  6
CONTINUOUS
 62
     7
 10
625.7282314996
 20
424.3829901752
 30
0.0
  0
VERTEX
  5
912
  8
0
  6
CONTINUOUS
 62
     7
 10
625.6986526946
 20
423.5050826755
 30
0.0
  0
VERTEX
  5
913
  8
0
  6
CONTINUOUS
 62
     7
 10
625.6110636691
 20
422.6609132674
 30
0.0
  0
VERTEX
  5
914
  8
0
  6
CONTINUOUS
 62
     7
 10
625.4688469867
 20
421.8829236415
 30
0.0
  0
VERTEX
  5
915
  8
0
  6
CONTINUOUS
 62
     7
 10
625.2774415711
 20
421.2010092523
 30
0.0
  0
VERTEX
  5
916
  8
0
  6
CONTINUOUS
 62
     7
 10
625.0442085961
 20
420.6413775173
 30
0.0
  0
VERTEX
  5
917
  8
0
  6
CONTINUOUS
 62
     7
 10
624.7781185607
 20
420.2255308118
 30
0.0
  0
VERTEX
  5
918
  8
0
  6
CONTINUOUS
 62
     7
 10
624.4893936614
 20
419.9694543567
 30
0.0
  0
VERTEX
  5
919
  8
0
  6
CONTINUOUS
 62
     7
 10
624.1891352633
 20
419.8829903689
 30
0.0
  0
SEQEND
  5
A1E
  8
0
  6
CONTINUOUS
 62
     7
  0
LINE
  5
42A
  8
0
  6
CONTINUOUS
 62
     7
 10
625.7282314996
 20
424.3829901752
 30
0.0
 11
625.7282314996
 21
483.3829886701
 31
0.0
  0
POLYLINE
  5
42B
  8
0
  6
CONTINUOUS
 62
     7
 66
     1
 10
0.0
 20
0.0
 30
0.0
 70
   128
  0
VERTEX
  5
91A
  8
0
  6
CONTINUOUS
 62
     7
 10
624.1891352633
 20
487.8829903391
 30
0.0
  0
VERTEX
  5
91B
  8
0
  6
CONTINUOUS
 62
     7
 10
624.4893936614
 20
487.796522626
 30
0.0
  0
VERTEX
  5
91C
  8
0
  6
CONTINUOUS
 62
     7
 10
624.7781185607
 20
487.5404461708
 30
0.0
  0
VERTEX
  5
91D
  8
0
  6
CONTINUOUS
 62
     7
 10
625.0442085961
 20
487.1246031907
 30
0.0
  0
VERTEX
  5
91E
  8
0
  6
CONTINUOUS
 62
     7
 10
625.2774415711
 20
486.5649714556
 30
0.0
  0
VERTEX
  5
91F
  8
0
  6
CONTINUOUS
 62
     7
 10
625.4688469867
 20
485.8830570665
 30
0.0
  0
VERTEX
  5
920
  8
0
  6
CONTINUOUS
 62
     7
 10
625.6110636691
 20
485.1050655779
 30
0.0
  0
VERTEX
  5
921
  8
0
  6
CONTINUOUS
 62
     7
 10
625.6986526946
 20
484.2608961698
 30
0.0
  0
VERTEX
  5
922
  8
0
  6
CONTINUOUS
 62
     7
 10
625.7282314996
 20
483.3829886701
 30
0.0
  0
SEQEND
  5
A1F
  8
0
  6
CONTINUOUS
 62
     7
  0
LINE
  5
42C
  8
0
  6
CONTINUOUS
 62
     7
 10
624.1891352633
 20
487.8829903391
 30
0.0
 11
593.3200610975
 21
487.8829903391
 31
0.0
  0
LINE
  5
42D
  8
0
  6
CONTINUOUS
 62
     7
 10
628.2298086385
 20
418.6829886821
 30
0.0
 11
624.1891352633
 21
418.6829886821
 31
0.0
  0
ARC
  5
42E
  8
0
  6
CONTINUOUS
 62
     7
 10
630.9748756887
 20
477.5829895046
 30
0.0
 40
2.000000000000016
 50
360.0
 51
77.937198034
  0
LINE
  5
42F
  8
0
  6
CONTINUOUS
 62
     7
 10
632.9748748044
 20
477.5829892096
 30
0.0
 11
632.9748748044
 21
474.5829887178
 31
0.0
  0
LINE
  5
430
  8
0
  6
CONTINUOUS
 62
     7
 10
632.9748748044
 20
474.5829887178
 30
0.0
 11
632.9748748044
 21
433.1829901275
 31
0.0
  0
LINE
  5
431
  8
0
  6
CONTINUOUS
 62
     7
 10
632.9748748044
 20
433.1829901275
 30
0.0
 11
632.9748748044
 21
430.1829896357
 31
0.0
  0
ARC
  5
432
  8
0
  6
CONTINUOUS
 62
     7
 10
630.9748756887
 20
430.1829895046
 30
0.0
 40
2.000000000000114
 50
309.765570255
 51
0.0
  0
POLYLINE
  5
433
  8
0
  6
CONTINUOUS
 62
     7
 66
     1
 10
0.0
 20
0.0
 30
0.0
 70
   128
  0
VERTEX
  5
923
  8
0
  6
CONTINUOUS
 62
     7
 10
596.8549071053
 20
425.8829894897
 30
0.0
  0
VERTEX
  5
924
  8
0
  6
CONTINUOUS
 62
     7
 10
596.7365173796
 20
425.905270451
 30
0.0
  0
VERTEX
  5
925
  8
0
  6
CONTINUOUS
 62
     7
 10
596.6200797061
 20
425.9717463937
 30
0.0
  0
VERTEX
  5
926
  8
0
  6
CONTINUOUS
 62
     7
 10
596.5075163344
 20
426.0813202199
 30
0.0
  0
VERTEX
  5
927
  8
0
  6
CONTINUOUS
 62
     7
 10
596.4006899098
 20
426.2321833011
 30
0.0
  0
VERTEX
  5
928
  8
0
  6
CONTINUOUS
 62
     7
 10
596.3013587693
 20
426.4218452808
 30
0.0
  0
VERTEX
  5
929
  8
0
  6
CONTINUOUS
 62
     7
 10
596.2111620406
 20
426.6471769151
 30
0.0
  0
VERTEX
  5
92A
  8
0
  6
CONTINUOUS
 62
     7
 10
596.1315972904
 20
426.904456639
 30
0.0
  0
VERTEX
  5
92B
  8
0
  6
CONTINUOUS
 62
     7
 10
596.0639609197
 20
427.1894413468
 30
0.0
  0
SEQEND
  5
A20
  8
0
  6
CONTINUOUS
 62
     7
  0
LINE
  5
434
  8
0
  6
CONTINUOUS
 62
     7
 10
623.5268233517
 20
425.8829894897
 30
0.0
 11
596.8549071053
 21
425.8829894897
 31
0.0
  0
ARC
  5
435
  8
0
  6
CONTINUOUS
 62
     7
 10
628.6383027403
 20
426.6650349309
 30
0.0
 40
3.531936332187201
 50
148.0573509404
 51
168.2714702335
  0
LINE
  5
436
  8
0
  6
CONTINUOUS
 62
     7
 10
625.7282314996
 20
428.6741762844
 30
0.0
 11
625.6411789159
 21
428.5336769607
 31
0.0
  0
LINE
  5
437
  8
0
  6
CONTINUOUS
 62
     7
 10
625.6411789159
 20
480.2323020485
 30
0.0
 11
625.7282314996
 21
480.0918027249
 31
0.0
  0
ARC
  5
438
  8
0
  6
CONTINUOUS
 62
     7
 10
628.6383027403
 20
482.1009440783
 30
0.0
 40
3.531936332187057
 50
191.7285297665
 51
211.9426490596
  0
LINE
  5
439
  8
0
  6
CONTINUOUS
 62
     7
 10
596.8549071053
 20
482.8829895195
 30
0.0
 11
623.5268233517
 21
482.8829895195
 31
0.0
  0
POLYLINE
  5
43A
  8
0
  6
CONTINUOUS
 62
     7
 66
     1
 10
0.0
 20
0.0
 30
0.0
 70
   128
  0
VERTEX
  5
92C
  8
0
  6
CONTINUOUS
 62
     7
 10
596.0639609197
 20
481.5765376624
 30
0.0
  0
VERTEX
  5
92D
  8
0
  6
CONTINUOUS
 62
     7
 10
596.1315972904
 20
481.8615223703
 30
0.0
  0
VERTEX
  5
92E
  8
0
  6
CONTINUOUS
 62
     7
 10
596.2111620406
 20
482.1188020941
 30
0.0
  0
VERTEX
  5
92F
  8
0
  6
CONTINUOUS
 62
     7
 10
596.3013587693
 20
482.3441337284
 30
0.0
  0
VERTEX
  5
930
  8
0
  6
CONTINUOUS
 62
     7
 10
596.4006899098
 20
482.5337957081
 30
0.0
  0
VERTEX
  5
931
  8
0
  6
CONTINUOUS
 62
     7
 10
596.5075163344
 20
482.6846587893
 30
0.0
  0
VERTEX
  5
932
  8
0
  6
CONTINUOUS
 62
     7
 10
596.6200797061
 20
482.7942326155
 30
0.0
  0
VERTEX
  5
933
  8
0
  6
CONTINUOUS
 62
     7
 10
596.7365173796
 20
482.8607085582
 30
0.0
  0
VERTEX
  5
934
  8
0
  6
CONTINUOUS
 62
     7
 10
596.8549071053
 20
482.8829895195
 30
0.0
  0
SEQEND
  5
A21
  8
0
  6
CONTINUOUS
 62
     7
  0
ARC
  5
43B
  8
0
  6
CONTINUOUS
 62
     7
 10
592.3970806294
 20
482.1847801549
 30
0.0
 40
3.716983991559456
 50
328.3125293882
 51
350.5818360842
  0
LINE
  5
43C
  8
0
  6
CONTINUOUS
 62
     7
 10
595.4681305388
 20
480.082988688
 30
0.0
 11
595.5599589447
 21
480.2323020485
 31
0.0
  0
LINE
  5
43D
  8
0
  6
CONTINUOUS
 62
     7
 10
595.5599589447
 20
428.5336769607
 30
0.0
 11
595.4681305388
 21
428.6829903212
 31
0.0
  0
ARC
  5
43E
  8
0
  6
CONTINUOUS
 62
     7
 10
592.3970806294
 20
426.5811988543
 30
0.0
 40
3.716983991559372
 50
9.4181639158
 51
31.6874706118
  0
POLYLINE
  5
43F
  8
0
  6
CONTINUOUS
 62
     7
 66
     1
 10
0.0
 20
0.0
 30
0.0
 70
   128
  0
VERTEX
  5
935
  8
0
  6
CONTINUOUS
 62
     7
 10
593.9790500501
 20
423.3829900113
 30
0.0
  0
VERTEX
  5
936
  8
0
  6
CONTINUOUS
 62
     7
 10
594.0145073632
 20
423.2162795451
 30
0.0
  0
VERTEX
  5
937
  8
0
  6
CONTINUOUS
 62
     7
 10
594.1421134571
 20
422.7616674688
 30
0.0
  0
VERTEX
  5
938
  8
0
  6
CONTINUOUS
 62
     7
 10
594.2975996236
 20
422.3885796454
 30
0.0
  0
VERTEX
  5
939
  8
0
  6
CONTINUOUS
 62
     7
 10
594.474990497
 20
422.111350992
 30
0.0
  0
VERTEX
  5
93A
  8
0
  6
CONTINUOUS
 62
     7
 10
594.6674762467
 20
421.9406321135
 30
0.0
  0
VERTEX
  5
93B
  8
0
  6
CONTINUOUS
 62
     7
 10
594.8676509956
 20
421.8829906967
 30
0.0
  0
SEQEND
  5
A22
  8
0
  6
CONTINUOUS
 62
     7
  0
LINE
  5
440
  8
0
  6
CONTINUOUS
 62
     7
 10
593.8415868381
 20
427.3829888043
 30
0.0
 11
593.8415868381
 21
428.6829903212
 31
0.0
  0
LINE
  5
441
  8
0
  6
CONTINUOUS
 62
     7
 10
593.8415868381
 20
480.082988688
 30
0.0
 11
593.8415868381
 21
481.382990205
 31
0.0
  0
POLYLINE
  5
442
  8
0
  6
CONTINUOUS
 62
     7
 66
     1
 10
0.0
 20
0.0
 30
0.0
 70
   128
  0
VERTEX
  5
93C
  8
0
  6
CONTINUOUS
 62
     7
 10
594.8676509956
 20
486.8829883125
 30
0.0
  0
VERTEX
  5
93D
  8
0
  6
CONTINUOUS
 62
     7
 10
594.6674762467
 20
486.8253468957
 30
0.0
  0
VERTEX
  5
93E
  8
0
  6
CONTINUOUS
 62
     7
 10
594.474990497
 20
486.6546280172
 30
0.0
  0
VERTEX
  5
93F
  8
0
  6
CONTINUOUS
 62
     7
 10
594.2975996236
 20
486.3773993638
 30
0.0
  0
VERTEX
  5
940
  8
0
  6
CONTINUOUS
 62
     7
 10
594.1421134571
 20
486.0043115404
 30
0.0
  0
VERTEX
  5
941
  8
0
  6
CONTINUOUS
 62
     7
 10
594.0145073632
 20
485.5496994641
 30
0.0
  0
VERTEX
  5
942
  8
0
  6
CONTINUOUS
 62
     7
 10
593.9790500501
 20
485.382988998
 30
0.0
  0
SEQEND
  5
A23
  8
0
  6
CONTINUOUS
 62
     7
  0
LINE
  5
443
  8
0
  6
CONTINUOUS
 62
     7
 10
594.8676509956
 20
486.8829883125
 30
0.0
 11
625.156518648
 21
486.8829883125
 31
0.0
  0
LINE
  5
444
  8
0
  6
CONTINUOUS
 62
     7
 10
625.4688618878
 20
421.8829906967
 30
0.0
 11
594.8676509956
 21
421.8829906967
 31
0.0
  0
POLYLINE
  5
445
  8
0
  6
CONTINUOUS
 62
     7
 66
     1
 10
0.0
 20
0.0
 30
0.0
 70
   128
  0
VERTEX
  5
943
  8
0
  6
CONTINUOUS
 62
     7
 10
595.7226945261
 20
483.3829886701
 30
0.0
  0
VERTEX
  5
944
  8
0
  6
CONTINUOUS
 62
     7
 10
595.6706298689
 20
482.6176221904
 30
0.0
  0
VERTEX
  5
945
  8
0
  6
CONTINUOUS
 62
     7
 10
595.5223484138
 20
481.9687753406
 30
0.0
  0
VERTEX
  5
946
  8
0
  6
CONTINUOUS
 62
     7
 10
595.3004254202
 20
481.5352297809
 30
0.0
  0
VERTEX
  5
947
  8
0
  6
CONTINUOUS
 62
     7
 10
595.0386567215
 20
481.382990205
 30
0.0
  0
SEQEND
  5
A24
  8
0
  6
CONTINUOUS
 62
     7
  0
POLYLINE
  5
446
  8
0
  6
CONTINUOUS
 62
     7
 66
     1
 10
0.0
 20
0.0
 30
0.0
 70
   128
  0
VERTEX
  5
948
  8
0
  6
CONTINUOUS
 62
     7
 10
595.0386567215
 20
485.382988998
 30
0.0
  0
VERTEX
  5
949
  8
0
  6
CONTINUOUS
 62
     7
 10
595.3004254202
 20
485.230749422
 30
0.0
  0
VERTEX
  5
94A
  8
0
  6
CONTINUOUS
 62
     7
 10
595.5223484138
 20
484.7972038623
 30
0.0
  0
VERTEX
  5
94B
  8
0
  6
CONTINUOUS
 62
     7
 10
595.6706298689
 20
484.1483570125
 30
0.0
  0
VERTEX
  5
94C
  8
0
  6
CONTINUOUS
 62
     7
 10
595.7226945261
 20
483.3829886701
 30
0.0
  0
SEQEND
  5
A25
  8
0
  6
CONTINUOUS
 62
     7
  0
POLYLINE
  5
447
  8
0
  6
CONTINUOUS
 62
     7
 66
     1
 10
0.0
 20
0.0
 30
0.0
 70
   128
  0
VERTEX
  5
94D
  8
0
  6
CONTINUOUS
 62
     7
 10
595.7226945261
 20
425.3829903391
 30
0.0
  0
VERTEX
  5
94E
  8
0
  6
CONTINUOUS
 62
     7
 10
595.6706298689
 20
424.6176219967
 30
0.0
  0
VERTEX
  5
94F
  8
0
  6
CONTINUOUS
 62
     7
 10
595.5223484138
 20
423.9687751469
 30
0.0
  0
VERTEX
  5
950
  8
0
  6
CONTINUOUS
 62
     7
 10
595.3004254202
 20
423.5352295872
 30
0.0
  0
VERTEX
  5
951
  8
0
  6
CONTINUOUS
 62
     7
 10
595.0386567215
 20
423.3829900113
 30
0.0
  0
SEQEND
  5
A26
  8
0
  6
CONTINUOUS
 62
     7
  0
POLYLINE
  5
448
  8
0
  6
CONTINUOUS
 62
     7
 66
     1
 10
0.0
 20
0.0
 30
0.0
 70
   128
  0
VERTEX
  5
952
  8
0
  6
CONTINUOUS
 62
     7
 10
595.0386567215
 20
427.3829888043
 30
0.0
  0
VERTEX
  5
953
  8
0
  6
CONTINUOUS
 62
     7
 10
595.3004254202
 20
427.2307492283
 30
0.0
  0
VERTEX
  5
954
  8
0
  6
CONTINUOUS
 62
     7
 10
595.5223484138
 20
426.7972036686
 30
0.0
  0
VERTEX
  5
955
  8
0
  6
CONTINUOUS
 62
     7
 10
595.6706298689
 20
426.1483568188
 30
0.0
  0
VERTEX
  5
956
  8
0
  6
CONTINUOUS
 62
     7
 10
595.7226945261
 20
425.3829903391
 30
0.0
  0
SEQEND
  5
A27
  8
0
  6
CONTINUOUS
 62
     7
  0
POLYLINE
  5
449
  8
0
  6
CONTINUOUS
 62
     7
 66
     1
 10
0.0
 20
0.0
 30
0.0
 70
   128
  0
VERTEX
  5
957
  8
0
  6
CONTINUOUS
 62
     7
 10
624.7580914
 20
481.382990205
 30
0.0
  0
VERTEX
  5
958
  8
0
  6
CONTINUOUS
 62
     7
 10
624.8016623954
 20
481.2398440626
 30
0.0
  0
VERTEX
  5
959
  8
0
  6
CONTINUOUS
 62
     7
 10
624.8442499141
 20
481.0604080048
 30
0.0
  0
SEQEND
  5
A28
  8
0
  6
CONTINUOUS
 62
     7
  0
ARC
  5
44A
  8
0
  6
CONTINUOUS
 62
     7
 10
629.5585391689
 20
481.842306213
 30
0.0
 40
4.778691032754569
 50
189.4171835704
 51
211.6878148288
  0
ARC
  5
44B
  8
0
  6
CONTINUOUS
 62
     7
 10
624.0038526303
 20
478.4064209521
 30
0.0
 40
1.752766944720458
 50
10.3259834566
 51
31.8789822001
  0
ARC
  5
44C
  8
0
  6
CONTINUOUS
 62
     7
 10
624.0038526303
 20
430.3595580571
 30
0.0
 40
1.752766944720437
 50
328.1210177999
 51
349.6740165434
  0
ARC
  5
44D
  8
0
  6
CONTINUOUS
 62
     7
 10
629.5585391689
 20
426.9236727962
 30
0.0
 40
4.778691032754231
 50
148.3121851712
 51
170.5828164296
  0
POLYLINE
  5
44E
  8
0
  6
CONTINUOUS
 62
     7
 66
     1
 10
0.0
 20
0.0
 30
0.0
 70
   128
  0
VERTEX
  5
95A
  8
0
  6
CONTINUOUS
 62
     7
 10
624.8442499141
 20
427.7055710044
 30
0.0
  0
VERTEX
  5
95B
  8
0
  6
CONTINUOUS
 62
     7
 10
624.8016623954
 20
427.5261349466
 30
0.0
  0
VERTEX
  5
95C
  8
0
  6
CONTINUOUS
 62
     7
 10
624.7580914
 20
427.3829888043
 30
0.0
  0
SEQEND
  5
A29
  8
0
  6
CONTINUOUS
 62
     7
  0
LINE
  5
44F
  8
0
  6
CONTINUOUS
 62
     7
 10
623.736691306
 20
426.8829896536
 30
0.0
 11
596.8549071053
 21
426.8829896536
 31
0.0
  0
POLYLINE
  5
450
  8
0
  6
CONTINUOUS
 62
     7
 66
     1
 10
0.0
 20
0.0
 30
0.0
 70
   128
  0
VERTEX
  5
95D
  8
0
  6
CONTINUOUS
 62
     7
 10
596.8549071053
 20
426.8829896536
 30
0.0
  0
VERTEX
  5
95E
  8
0
  6
CONTINUOUS
 62
     7
 10
596.7803640465
 20
426.8970190969
 30
0.0
  0
VERTEX
  5
95F
  8
0
  6
CONTINUOUS
 62
     7
 10
596.707057784
 20
426.938874596
 30
0.0
  0
VERTEX
  5
960
  8
0
  6
CONTINUOUS
 62
     7
 10
596.6361804107
 20
427.0078651097
 30
0.0
  0
VERTEX
  5
961
  8
0
  6
CONTINUOUS
 62
     7
 10
596.5689240197
 20
427.1028525617
 30
0.0
  0
VERTEX
  5
962
  8
0
  6
CONTINUOUS
 62
     7
 10
596.5063763956
 20
427.2222686049
 30
0.0
  0
VERTEX
  5
963
  8
0
  6
CONTINUOUS
 62
     7
 10
596.4495880703
 20
427.3641444233
 30
0.0
  0
VERTEX
  5
964
  8
0
  6
CONTINUOUS
 62
     7
 10
596.3994903663
 20
427.5261349466
 30
0.0
  0
VERTEX
  5
965
  8
0
  6
CONTINUOUS
 62
     7
 10
596.3569028477
 20
427.7055710044
 30
0.0
  0
SEQEND
  5
A2A
  8
0
  6
CONTINUOUS
 62
     7
  0
ARC
  5
451
  8
0
  6
CONTINUOUS
 62
     7
 10
589.6775544531
 20
426.3742625473
 30
0.0
 40
6.810732499814415
 50
11.2723060144
 51
19.8149718986
  0
ARC
  5
452
  8
0
  6
CONTINUOUS
 62
     7
 10
589.6775544531
 20
482.391716462
 30
0.0
 40
6.81073249981617
 50
340.1850281014
 51
348.7276939856
  0
POLYLINE
  5
453
  8
0
  6
CONTINUOUS
 62
     7
 66
     1
 10
0.0
 20
0.0
 30
0.0
 70
   128
  0
VERTEX
  5
966
  8
0
  6
CONTINUOUS
 62
     7
 10
596.3569028477
 20
481.0604080048
 30
0.0
  0
VERTEX
  5
967
  8
0
  6
CONTINUOUS
 62
     7
 10
596.3994903663
 20
481.2398440626
 30
0.0
  0
VERTEX
  5
968
  8
0
  6
CONTINUOUS
 62
     7
 10
596.4495880703
 20
481.4018345859
 30
0.0
  0
VERTEX
  5
969
  8
0
  6
CONTINUOUS
 62
     7
 10
596.5063763956
 20
481.5437104043
 30
0.0
  0
VERTEX
  5
96A
  8
0
  6
CONTINUOUS
 62
     7
 10
596.5689240197
 20
481.6631264475
 30
0.0
  0
VERTEX
  5
96B
  8
0
  6
CONTINUOUS
 62
     7
 10
596.6361804107
 20
481.7581138995
 30
0.0
  0
VERTEX
  5
96C
  8
0
  6
CONTINUOUS
 62
     7
 10
596.707057784
 20
481.8271044132
 30
0.0
  0
VERTEX
  5
96D
  8
0
  6
CONTINUOUS
 62
     7
 10
596.7803640465
 20
481.8689599123
 30
0.0
  0
VERTEX
  5
96E
  8
0
  6
CONTINUOUS
 62
     7
 10
596.8549071053
 20
481.8829893556
 30
0.0
  0
SEQEND
  5
A2B
  8
0
  6
CONTINUOUS
 62
     7
  0
LINE
  5
454
  8
0
  6
CONTINUOUS
 62
     7
 10
596.8549071053
 20
481.8829893556
 30
0.0
 11
623.736691306
 21
481.8829893556
 31
0.0
  0
LINE
  5
455
  8
0
  6
CONTINUOUS
 62
     7
 10
593.720060418
 20
480.082988688
 30
0.0
 11
622.0259187917
 21
480.082988688
 31
0.0
  0
POLYLINE
  5
456
  8
0
  6
CONTINUOUS
 62
     7
 66
     1
 10
0.0
 20
0.0
 30
0.0
 70
   128
  0
VERTEX
  5
96F
  8
0
  6
CONTINUOUS
 62
     7
 10
593.720060418
 20
480.082988688
 30
0.0
  0
VERTEX
  5
970
  8
0
  6
CONTINUOUS
 62
     7
 10
593.3298809627
 20
480.044560456
 30
0.0
  0
VERTEX
  5
971
  8
0
  6
CONTINUOUS
 62
     7
 10
593.3200610975
 20
480.0425804642
 30
0.0
  0
SEQEND
  5
A2C
  8
0
  6
CONTINUOUS
 62
     7
  0
CIRCLE
  5
457
  8
0
  6
CONTINUOUS
 62
     7
 10
608.7200636605
 20
454.3829895046
 30
0.0
 40
11.00000000000011
  0
LINE
  5
458
  8
0
  6
CONTINUOUS
 62
     7
 10
622.0259187917
 20
428.6829903212
 30
0.0
 11
593.720060418
 21
428.6829903212
 31
0.0
  0
POLYLINE
  5
459
  8
0
  6
CONTINUOUS
 62
     7
 66
     1
 10
0.0
 20
0.0
 30
0.0
 70
   128
  0
VERTEX
  5
972
  8
0
  6
CONTINUOUS
 62
     7
 10
593.3200610975
 20
428.7233985451
 30
0.0
  0
VERTEX
  5
973
  8
0
  6
CONTINUOUS
 62
     7
 10
593.3298809627
 20
428.7214185533
 30
0.0
  0
VERTEX
  5
974
  8
0
  6
CONTINUOUS
 62
     7
 10
593.720060418
 20
428.6829903212
 30
0.0
  0
SEQEND
  5
A2D
  8
0
  6
CONTINUOUS
 62
     7
  0
LINE
  5
45A
  8
0
  6
CONTINUOUS
 62
     7
 10
547.1679834822
 20
412.4253689733
 30
0.0
 11
550.5906125704
 21
406.1022586611
 31
0.0
  0
LINE
  5
45B
  8
0
  6
CONTINUOUS
 62
     7
 10
550.5906125704
 20
406.1022586611
 30
0.0
 11
546.8259534041
 21
399.976618537
 31
0.0
  0
LINE
  5
45C
  8
0
  6
CONTINUOUS
 62
     7
 10
546.8259534041
 20
399.976618537
 30
0.0
 11
539.6386651496
 21
400.1740887251
 31
0.0
  0
LINE
  5
45D
  8
0
  6
CONTINUOUS
 62
     7
 10
539.6386651496
 20
400.1740887251
 30
0.0
 11
536.2160360614
 21
406.4971990374
 31
0.0
  0
LINE
  5
45E
  8
0
  6
CONTINUOUS
 62
     7
 10
536.2160360614
 20
406.4971990374
 30
0.0
 11
539.9806952277
 21
412.6228354361
 31
0.0
  0
LINE
  5
45F
  8
0
  6
CONTINUOUS
 62
     7
 10
539.9806952277
 20
412.6228354361
 30
0.0
 11
547.1679834822
 21
412.4253689733
 31
0.0
  0
ARC
  5
460
  8
0
  6
CONTINUOUS
 62
     7
 10
543.4033247812
 20
406.2997283839
 30
0.0
 40
7.19000000000002
 50
58.4262004732
 51
118.4262004732
  0
ARC
  5
461
  8
0
  6
CONTINUOUS
 62
     7
 10
543.4033247812
 20
406.2997283839
 30
0.0
 40
7.19000000000002
 50
298.4262004732
 51
358.4262004732
  0
ARC
  5
462
  8
0
  6
CONTINUOUS
 62
     7
 10
543.4033247812
 20
406.2997283839
 30
0.0
 40
7.189999999999952
 50
358.4262004732
 51
58.4262004732
  0
ARC
  5
463
  8
0
  6
CONTINUOUS
 62
     7
 10
543.4033247812
 20
406.2997283839
 30
0.0
 40
7.19000000000002
 50
238.4262004732
 51
298.4262004732
  0
ARC
  5
464
  8
0
  6
CONTINUOUS
 62
     7
 10
543.4033247812
 20
406.2997283839
 30
0.0
 40
7.190000000000034
 50
178.4262004732
 51
238.4262004732
  0
ARC
  5
465
  8
0
  6
CONTINUOUS
 62
     7
 10
543.4033247812
 20
406.2997283839
 30
0.0
 40
7.190000000000034
 50
118.4262004732
 51
178.4262004732
  0
LINE
  5
466
  8
0
  6
CONTINUOUS
 62
     7
 10
447.4342731932
 20
495.2789619055
 30
0.0
 11
441.111162881
 21
498.7015909937
 31
0.0
  0
LINE
  5
467
  8
0
  6
CONTINUOUS
 62
     7
 10
441.111162881
 20
498.7015909937
 30
0.0
 11
440.9136926929
 21
505.8888792482
 31
0.0
  0
LINE
  5
468
  8
0
  6
CONTINUOUS
 62
     7
 10
440.9136926929
 20
505.8888792482
 30
0.0
 11
447.039332817
 21
509.6535384145
 31
0.0
  0
LINE
  5
469
  8
0
  6
CONTINUOUS
 62
     7
 10
447.039332817
 20
509.6535384145
 30
0.0
 11
453.3624431292
 21
506.2309093264
 31
0.0
  0
LINE
  5
46A
  8
0
  6
CONTINUOUS
 62
     7
 10
453.3624431292
 20
506.2309093264
 30
0.0
 11
453.559909592
 21
499.0436210719
 31
0.0
  0
LINE
  5
46B
  8
0
  6
CONTINUOUS
 62
     7
 10
453.559909592
 20
499.0436210719
 30
0.0
 11
447.4342731932
 21
495.2789619055
 31
0.0
  0
ARC
  5
46C
  8
0
  6
CONTINUOUS
 62
     7
 10
447.2368025398
 20
502.4662506253
 30
0.0
 40
7.190000000000047
 50
91.5737995268
 51
151.5737995268
  0
ARC
  5
46D
  8
0
  6
CONTINUOUS
 62
     7
 10
447.2368025398
 20
502.4662506253
 30
0.0
 40
7.19000000000002
 50
331.5737995268
 51
31.5737995268
  0
ARC
  5
46E
  8
0
  6
CONTINUOUS
 62
     7
 10
447.2368025398
 20
502.4662506253
 30
0.0
 40
7.19000000000002
 50
271.5737995268
 51
331.5737995268
  0
ARC
  5
46F
  8
0
  6
CONTINUOUS
 62
     7
 10
447.2368025398
 20
502.4662506253
 30
0.0
 40
7.190000000000001
 50
211.5737995268
 51
271.5737995268
  0
ARC
  5
470
  8
0
  6
CONTINUOUS
 62
     7
 10
447.2368025398
 20
502.4662506253
 30
0.0
 40
7.189999999999976
 50
31.5737995268
 51
91.5737995268
  0
ARC
  5
471
  8
0
  6
CONTINUOUS
 62
     7
 10
447.2368025398
 20
502.4662506253
 30
0.0
 40
7.190000000000047
 50
151.5737995268
 51
211.5737995268
  0
LINE
  5
472
  8
0
  6
CONTINUOUS
 62
     7
 10
451.0014621714
 20
400.1740887251
 30
0.0
 11
443.8141739169
 21
399.976618537
 31
0.0
  0
LINE
  5
473
  8
0
  6
CONTINUOUS
 62
     7
 10
443.8141739169
 20
399.976618537
 30
0.0
 11
440.0495147506
 21
406.1022586611
 31
0.0
  0
LINE
  5
474
  8
0
  6
CONTINUOUS
 62
     7
 10
440.0495147506
 20
406.1022586611
 30
0.0
 11
443.4721438388
 21
412.4253689733
 31
0.0
  0
LINE
  5
475
  8
0
  6
CONTINUOUS
 62
     7
 10
443.4721438388
 20
412.4253689733
 30
0.0
 11
450.6594320933
 21
412.6228354361
 31
0.0
  0
LINE
  5
476
  8
0
  6
CONTINUOUS
 62
     7
 10
450.6594320933
 20
412.6228354361
 30
0.0
 11
454.4240912596
 21
406.4971990374
 31
0.0
  0
LINE
  5
477
  8
0
  6
CONTINUOUS
 62
     7
 10
454.4240912596
 20
406.4971990374
 30
0.0
 11
451.0014621714
 21
400.1740887251
 31
0.0
  0
ARC
  5
478
  8
0
  6
CONTINUOUS
 62
     7
 10
447.2368025398
 20
406.2997283839
 30
0.0
 40
7.190000000000032
 50
121.5737995268
 51
181.5737995268
  0
ARC
  5
479
  8
0
  6
CONTINUOUS
 62
     7
 10
447.2368025398
 20
406.2997283839
 30
0.0
 40
7.189999999999977
 50
1.5737995268
 51
61.5737995268
  0
ARC
  5
47A
  8
0
  6
CONTINUOUS
 62
     7
 10
447.2368025398
 20
406.2997283839
 30
0.0
 40
7.190000000000019
 50
301.5737995268
 51
1.5737995268
  0
ARC
  5
47B
  8
0
  6
CONTINUOUS
 62
     7
 10
447.2368025398
 20
406.2997283839
 30
0.0
 40
7.190000000000032
 50
181.5737995268
 51
241.5737995268
  0
ARC
  5
47C
  8
0
  6
CONTINUOUS
 62
     7
 10
447.2368025398
 20
406.2997283839
 30
0.0
 40
7.190000000000019
 50
241.5737995268
 51
301.5737995268
  0
ARC
  5
47D
  8
0
  6
CONTINUOUS
 62
     7
 10
447.2368025398
 20
406.2997283839
 30
0.0
 40
7.190000000000019
 50
61.5737995268
 51
121.5737995268
  0
LINE
  5
47E
  8
0
  6
CONTINUOUS
 62
     7
 10
539.9806952277
 20
496.1431435731
 30
0.0
 11
536.2160360614
 21
502.2687799719
 31
0.0
  0
LINE
  5
47F
  8
0
  6
CONTINUOUS
 62
     7
 10
539.6386651496
 20
508.5918902841
 30
0.0
 11
546.8259534041
 21
508.7893604722
 31
0.0
  0
LINE
  5
480
  8
0
  6
CONTINUOUS
 62
     7
 10
536.2160360614
 20
502.2687799719
 30
0.0
 11
539.6386651496
 21
508.5918902841
 31
0.0
  0
LINE
  5
481
  8
0
  6
CONTINUOUS
 62
     7
 10
547.1679834822
 20
496.3406100359
 30
0.0
 11
539.9806952277
 21
496.1431435731
 31
0.0
  0
LINE
  5
482
  8
0
  6
CONTINUOUS
 62
     7
 10
546.8259534041
 20
508.7893604722
 30
0.0
 11
550.5906125704
 21
502.6637203482
 31
0.0
  0
LINE
  5
483
  8
0
  6
CONTINUOUS
 62
     7
 10
550.5906125704
 20
502.6637203482
 30
0.0
 11
547.1679834822
 21
496.3406100359
 31
0.0
  0
ARC
  5
484
  8
0
  6
CONTINUOUS
 62
     7
 10
543.4033247812
 20
502.4662506253
 30
0.0
 40
7.190000000000028
 50
61.5737995268
 51
121.5737995268
  0
ARC
  5
485
  8
0
  6
CONTINUOUS
 62
     7
 10
543.4033247812
 20
502.4662506253
 30
0.0
 40
7.190000000000032
 50
1.5737995268
 51
61.5737995268
  0
ARC
  5
486
  8
0
  6
CONTINUOUS
 62
     7
 10
543.4033247812
 20
502.4662506253
 30
0.0
 40
7.190000000000049
 50
301.5737995268
 51
1.5737995268
  0
ARC
  5
487
  8
0
  6
CONTINUOUS
 62
     7
 10
543.4033247812
 20
502.4662506253
 30
0.0
 40
7.190000000000049
 50
241.5737995268
 51
301.5737995268
  0
ARC
  5
488
  8
0
  6
CONTINUOUS
 62
     7
 10
543.4033247812
 20
502.4662506253
 30
0.0
 40
7.189999999999974
 50
181.5737995268
 51
241.5737995268
  0
ARC
  5
489
  8
0
  6
CONTINUOUS
 62
     7
 10
543.4033247812
 20
502.4662506253
 30
0.0
 40
7.189999999999941
 50
121.5737995268
 51
181.5737995268
  0
ARC
  5
48A
  8
0
  6
CONTINUOUS
 62
     7
 10
524.033751866
 20
425.1165563493
 30
0.0
 40
4.999999999999956
 50
62.6052512651
 51
134.4537956693
  0
ARC
  5
48B
  8
0
  6
CONTINUOUS
 62
     7
 10
461.5450729129
 20
434.8829895046
 30
0.0
 40
6.000000000000044
 50
122.6052512651
 51
297.3947487349
  0
CIRCLE
  5
48C
  8
0
  6
CONTINUOUS
 62
     7
 10
495.3200636605
 20
454.3829895046
 30
0.0
 40
25.00000000000006
  0
CIRCLE
  5
48D
  8
0
  6
CONTINUOUS
 62
     7
 10
495.3200636605
 20
493.3829895046
 30
0.0
 40
2.5
  0
CIRCLE
  5
48E
  8
0
  6
CONTINUOUS
 62
     7
 10
529.0950544081
 20
434.8829895046
 30
0.0
 40
2.5
  0
CIRCLE
  5
48F
  8
0
  6
CONTINUOUS
 62
     7
 10
461.5450729129
 20
434.8829895046
 30
0.0
 40
2.5
  0
ARC
  5
490
  8
0
  6
CONTINUOUS
 62
     7
 10
484.3314331726
 20
493.8829895046
 30
0.0
 40
5.000000000000011
 50
285.5462043307
 51
357.3947487349
  0
ARC
  5
491
  8
0
  6
CONTINUOUS
 62
     7
 10
535.022382354
 20
444.14942266
 30
0.0
 40
4.999999999999997
 50
165.5462043307
 51
237.3947487349
  0
ARC
  5
492
  8
0
  6
CONTINUOUS
 62
     7
 10
495.3200636605
 20
454.3829895046
 30
0.0
 40
36.00000000000003
 50
105.5462043307
 51
194.4537956693
  0
ARC
  5
493
  8
0
  6
CONTINUOUS
 62
     7
 10
529.0950544081
 20
434.8829895046
 30
0.0
 40
6.00000000000002
 50
242.6052512651
 51
57.3947487349
  0
ARC
  5
494
  8
0
  6
CONTINUOUS
 62
     7
 10
455.6177449671
 20
444.14942266
 30
0.0
 40
5.000000000000075
 50
302.6052512651
 51
14.4537956693
  0
ARC
  5
495
  8
0
  6
CONTINUOUS
 62
     7
 10
506.3086941484
 20
493.8829895046
 30
0.0
 40
4.999999999999988
 50
182.6052512651
 51
254.4537956693
  0
ARC
  5
496
  8
0
  6
CONTINUOUS
 62
     7
 10
495.3200636605
 20
493.3829895046
 30
0.0
 40
6.000000000000075
 50
2.6052512651
 51
177.3947487349
  0
ARC
  5
497
  8
0
  6
CONTINUOUS
 62
     7
 10
495.3200636605
 20
454.3829895046
 30
0.0
 40
36.0
 50
345.5462043307
 51
74.4537956693
  0
ARC
  5
498
  8
0
  6
CONTINUOUS
 62
     7
 10
466.606375455
 20
425.1165563493
 30
0.0
 40
5.000000000000017
 50
45.5462043307
 51
117.3947487349
  0
ARC
  5
499
  8
0
  6
CONTINUOUS
 62
     7
 10
495.3200636605
 20
454.3829895046
 30
0.0
 40
36.00000000000006
 50
225.5462043307
 51
314.4537956693
  0
CIRCLE
  5
49A
  8
0
  6
CONTINUOUS
 62
     7
 10
495.3200636605
 20
493.3829895046
 30
0.0
 40
2.099999999999909
  0
CIRCLE
  5
49B
  8
0
  6
CONTINUOUS
 62
     7
 10
461.5450729129
 20
434.8829895046
 30
0.0
 40
2.100000000000023
  0
CIRCLE
  5
49C
  8
0
  6
CONTINUOUS
 62
     7
 10
529.0950544081
 20
434.8829895046
 30
0.0
 40
2.099999999999909
  0
LINE
  5
49D
  8
0
  6
CONTINUOUS
 62
     7
 10
556.2940767208
 20
504.2006708172
 30
0.0
 11
546.382316033
 21
485.8892783013
 31
0.0
  0
POLYLINE
  5
49E
  8
0
  6
CONTINUOUS
 62
     7
 66
     1
 10
0.0
 20
0.0
 30
0.0
 70
   128
  0
VERTEX
  5
975
  8
0
  6
CONTINUOUS
 62
     7
 10
546.382316033
 20
485.8892783013
 30
0.0
  0
VERTEX
  5
976
  8
0
  6
CONTINUOUS
 62
     7
 10
545.9341673354
 20
485.3476322678
 30
0.0
  0
VERTEX
  5
977
  8
0
  6
CONTINUOUS
 62
     7
 10
545.115132461
 20
484.7853127357
 30
0.0
  0
VERTEX
  5
978
  8
0
  6
CONTINUOUS
 62
     7
 10
543.9390769402
 20
484.2087439683
 30
0.0
  0
VERTEX
  5
979
  8
0
  6
CONTINUOUS
 62
     7
 10
542.9889006714
 20
483.8009885934
 30
0.0
  0
VERTEX
  5
97A
  8
0
  6
CONTINUOUS
 62
     7
 10
542.974446545
 20
483.7948865679
 30
0.0
  0
SEQEND
  5
A2E
  8
0
  6
CONTINUOUS
 62
     7
  0
ARC
  5
49F
  8
0
  6
CONTINUOUS
 62
     7
 10
495.3200636605
 20
454.3829895046
 30
0.0
 40
61.00000000000006
 50
147.7860739307
 51
212.2139260693
  0
ARC
  5
4A0
  8
0
  6
CONTINUOUS
 62
     7
 10
450.2703069093
 20
491.8527160791
 30
0.0
 40
8.468334767015818
 50
224.7652966521
 51
252.0870066096
  0
POLYLINE
  5
4A1
  8
0
  6
CONTINUOUS
 62
     7
 66
     1
 10
0.0
 20
0.0
 30
0.0
 70
   128
  0
VERTEX
  5
97B
  8
0
  6
CONTINUOUS
 62
     7
 10
444.257811288
 20
422.8767007079
 30
0.0
  0
VERTEX
  5
97C
  8
0
  6
CONTINUOUS
 62
     7
 10
444.7059599856
 20
423.4183467415
 30
0.0
  0
VERTEX
  5
97D
  8
0
  6
CONTINUOUS
 62
     7
 10
445.5249948601
 20
423.9806662735
 30
0.0
  0
VERTEX
  5
97E
  8
0
  6
CONTINUOUS
 62
     7
 10
446.7010503808
 20
424.5572350409
 30
0.0
  0
VERTEX
  5
97F
  8
0
  6
CONTINUOUS
 62
     7
 10
447.6512266496
 20
424.9649904158
 30
0.0
  0
VERTEX
  5
980
  8
0
  6
CONTINUOUS
 62
     7
 10
447.665680776
 20
424.9710924414
 30
0.0
  0
SEQEND
  5
A2F
  8
0
  6
CONTINUOUS
 62
     7
  0
ARC
  5
4A2
  8
0
  6
CONTINUOUS
 62
     7
 10
495.3200636605
 20
454.3829895046
 30
0.0
 40
61.00000000000001
 50
327.7860739307
 51
32.2139260693
  0
ARC
  5
4A3
  8
0
  6
CONTINUOUS
 62
     7
 10
540.3698204117
 20
416.9132629301
 30
0.0
 40
8.468334767014074
 50
44.7652966521
 51
72.0870066096
  0
LINE
  5
4A4
  8
0
  6
CONTINUOUS
 62
     7
 10
434.3460506002
 20
404.5653081921
 30
0.0
 11
444.257811288
 21
422.8767007079
 31
0.0
  0
ARC
  5
4A5
  8
0
  6
CONTINUOUS
 62
     7
 10
495.3200636605
 20
454.3829895046
 30
0.0
 40
60.99999999999998
 50
57.7860739307
 51
122.2139260693
  0
ARC
  5
4A6
  8
0
  6
CONTINUOUS
 62
     7
 10
532.7897902347
 20
499.4327462559
 30
0.0
 40
8.468334766731143
 50
134.7652966516
 51
162.0870066101
  0
POLYLINE
  5
4A7
  8
0
  6
CONTINUOUS
 62
     7
 66
     1
 10
0.0
 20
0.0
 30
0.0
 70
   128
  0
VERTEX
  5
981
  8
0
  6
CONTINUOUS
 62
     7
 10
463.8137748638
 20
505.4452418771
 30
0.0
  0
VERTEX
  5
982
  8
0
  6
CONTINUOUS
 62
     7
 10
464.3554208974
 20
504.9970931795
 30
0.0
  0
VERTEX
  5
983
  8
0
  6
CONTINUOUS
 62
     7
 10
464.9177404294
 20
504.1780583051
 30
0.0
  0
VERTEX
  5
984
  8
0
  6
CONTINUOUS
 62
     7
 10
465.4943091968
 20
503.0020027843
 30
0.0
  0
VERTEX
  5
985
  8
0
  6
CONTINUOUS
 62
     7
 10
465.9020645717
 20
502.0518265155
 30
0.0
  0
VERTEX
  5
986
  8
0
  6
CONTINUOUS
 62
     7
 10
465.9081665973
 20
502.0373723891
 30
0.0
  0
SEQEND
  5
A30
  8
0
  6
CONTINUOUS
 62
     7
  0
ARC
  5
4A8
  8
0
  6
CONTINUOUS
 62
     7
 10
495.3200636605
 20
454.3829895046
 30
0.0
 40
61.00000000000006
 50
237.7860739307
 51
302.2139260693
  0
ARC
  5
4A9
  8
0
  6
CONTINUOUS
 62
     7
 10
457.850337086
 20
409.3332327534
 30
0.0
 40
8.468334767016884
 50
314.7652966521
 51
342.0870066096
  0
POLYLINE
  5
4AA
  8
0
  6
CONTINUOUS
 62
     7
 66
     1
 10
0.0
 20
0.0
 30
0.0
 70
   128
  0
VERTEX
  5
987
  8
0
  6
CONTINUOUS
 62
     7
 10
526.8263524572
 20
403.3207371321
 30
0.0
  0
VERTEX
  5
988
  8
0
  6
CONTINUOUS
 62
     7
 10
526.2847064236
 20
403.7688858297
 30
0.0
  0
VERTEX
  5
989
  8
0
  6
CONTINUOUS
 62
     7
 10
525.7223868916
 20
404.5879207042
 30
0.0
  0
VERTEX
  5
98A
  8
0
  6
CONTINUOUS
 62
     7
 10
525.1458181242
 20
405.7639762249
 30
0.0
  0
VERTEX
  5
98B
  8
0
  6
CONTINUOUS
 62
     7
 10
524.7380627493
 20
406.7141524938
 30
0.0
  0
VERTEX
  5
98C
  8
0
  6
CONTINUOUS
 62
     7
 10
524.7319607238
 20
406.7286066201
 30
0.0
  0
SEQEND
  5
A31
  8
0
  6
CONTINUOUS
 62
     7
  0
LINE
  5
4AB
  8
0
  6
CONTINUOUS
 62
     7
 10
445.5023823479
 20
515.3570025649
 30
0.0
 11
463.8137748638
 21
505.4452418771
 31
0.0
  0
LINE
  5
4AC
  8
0
  6
CONTINUOUS
 62
     7
 10
545.1377449731
 20
393.4089764443
 30
0.0
 11
526.8263524572
 21
403.3207371321
 31
0.0
  0
LINE
  5
4AD
  8
0
  6
CONTINUOUS
 62
     7
 10
546.382316033
 20
422.8767007079
 30
0.0
 11
556.2940767208
 21
404.5653081921
 31
0.0
  0
LINE
  5
4AE
  8
0
  6
CONTINUOUS
 62
     7
 10
463.8137748638
 20
403.3207371321
 30
0.0
 11
445.5023823479
 21
393.4089764443
 31
0.0
  0
LINE
  5
4AF
  8
0
  6
CONTINUOUS
 62
     7
 10
444.257811288
 20
485.8892783013
 30
0.0
 11
434.3460506002
 21
504.2006708172
 31
0.0
  0
LINE
  5
4B0
  8
0
  6
CONTINUOUS
 62
     7
 10
526.8263524572
 20
505.4452418771
 30
0.0
 11
545.1377449731
 21
515.3570025649
 31
0.0
  0
ARC
  5
4B1
  8
0
  6
CONTINUOUS
 62
     7
 10
436.1049138479
 20
403.6132541037
 30
0.0
 40
1.999999999999973
 50
151.5737995268
 51
220.6090428911
  0
ARC
  5
4B2
  8
0
  6
CONTINUOUS
 62
     7
 10
444.5503282596
 20
395.1678396921
 30
0.0
 40
2.000000000000036
 50
229.3909571089
 51
298.4262004732
  0
ARC
  5
4B3
  8
0
  6
CONTINUOUS
 62
     7
 10
436.1049138479
 20
505.1527249055
 30
0.0
 40
2.000000000000036
 50
139.3909571089
 51
208.4262004732
  0
ARC
  5
4B4
  8
0
  6
CONTINUOUS
 62
     7
 10
554.5352134731
 20
403.6132541037
 30
0.0
 40
1.999999999999967
 50
319.3909571089
 51
28.4262004732
  0
ARC
  5
4B5
  8
0
  6
CONTINUOUS
 62
     7
 10
495.3200636605
 20
454.3829895046
 30
0.0
 40
79.99999999999999
 50
130.6090428911
 51
139.3909571089
  0
ARC
  5
4B6
  8
0
  6
CONTINUOUS
 62
     7
 10
546.0897990614
 20
513.5981393172
 30
0.0
 40
2.000000000000016
 50
49.3909571089
 51
118.4262004732
  0
ARC
  5
4B7
  8
0
  6
CONTINUOUS
 62
     7
 10
495.3200636605
 20
454.3829895046
 30
0.0
 40
80.00000000000003
 50
220.6090428911
 51
229.3909571089
  0
ARC
  5
4B8
  8
0
  6
CONTINUOUS
 62
     7
 10
546.0897990614
 20
395.1678396921
 30
0.0
 40
2.00000000000004
 50
241.5737995268
 51
310.6090428911
  0
ARC
  5
4B9
  8
0
  6
CONTINUOUS
 62
     7
 10
495.3200636605
 20
454.3829895046
 30
0.0
 40
80.00000000000003
 50
310.6090428911
 51
319.3909571089
  0
ARC
  5
4BA
  8
0
  6
CONTINUOUS
 62
     7
 10
554.5352134731
 20
505.1527249055
 30
0.0
 40
2.000000000000053
 50
331.5737995268
 51
40.6090428911
  0
ARC
  5
4BB
  8
0
  6
CONTINUOUS
 62
     7
 10
495.3200636605
 20
454.3829895046
 30
0.0
 40
80.0
 50
40.6090428911
 51
49.3909571089
  0
ARC
  5
4BC
  8
0
  6
CONTINUOUS
 62
     7
 10
444.5503282596
 20
513.5981393172
 30
0.0
 40
2.000000000000013
 50
61.5737995268
 51
130.6090428911
  0
ARC
  5
4BD
  8
0
  6
CONTINUOUS
 62
     7
 10
495.3200636605
 20
454.3829895046
 30
0.0
 40
60.99999999999997
 50
0.0
 51
32.2139260693
  0
ARC
  5
4BE
  8
0
  6
CONTINUOUS
 62
     7
 10
495.3200636605
 20
454.3829895046
 30
0.0
 40
61.00000000000001
 50
327.7860739307
 51
0.0
  0
ARC
  5
4BF
  8
0
  6
CONTINUOUS
 62
     7
 10
506.5894913301
 20
391.3829895046
 30
0.0
 40
3.0
 50
90.0
 51
100.1417933657
  0
ARC
  5
4C0
  8
0
  6
CONTINUOUS
 62
     7
 10
484.0506359909
 20
391.3829895046
 30
0.0
 40
3.0
 50
79.8582066343
 51
90.0
  0
ARC
  5
4C1
  8
0
  6
CONTINUOUS
 62
     7
 10
463.5285380799
 20
516.3830552065
 30
0.0
 40
2.00124068139057
 50
270.023748582
 51
308.0811028954
  0
ARC
  5
4C2
  8
0
  6
CONTINUOUS
 62
     7
 10
527.1115892411
 20
516.3830552065
 30
0.0
 40
2.001240681391366
 50
231.9188971046
 51
269.976251418
  0
ARC
  5
4C3
  8
0
  6
CONTINUOUS
 62
     7
 10
437.9573809432
 20
487.0253336525
 30
0.0
 40
5.000000000000091
 50
330.3578770506
 51
28.4262004732
  0
ARC
  5
4C4
  8
0
  6
CONTINUOUS
 62
     7
 10
552.6827463779
 20
421.7406453567
 30
0.0
 40
4.999999999999991
 50
150.3578770506
 51
208.4262004732
  0
LINE
  5
4C5
  8
0
  6
CONTINUOUS
 62
     7
 10
484.0506358246
 20
394.3829908457
 30
0.0
 11
447.3018093208
 21
394.3829908457
 31
0.0
  0
LINE
  5
4C6
  8
0
  6
CONTINUOUS
 62
     7
 10
489.616434666
 20
515.3829901901
 30
0.0
 11
495.3200636605
 21
515.3829901901
 31
0.0
  0
LINE
  5
4C7
  8
0
  6
CONTINUOUS
 62
     7
 10
495.3200636605
 20
515.3829901901
 30
0.0
 11
501.023692655
 21
515.3829901901
 31
0.0
  0
LINE
  5
4C8
  8
0
  6
CONTINUOUS
 62
     7
 10
447.3018093208
 20
514.3829881635
 30
0.0
 11
463.5240851144
 21
514.3829881635
 31
0.0
  0
LINE
  5
4C9
  8
0
  6
CONTINUOUS
 62
     7
 10
527.1160422067
 20
514.3829881635
 30
0.0
 11
543.3383180002
 21
514.3829881635
 31
0.0
  0
LINE
  5
4CA
  8
0
  6
CONTINUOUS
 62
     7
 10
543.3383180002
 20
394.3829908457
 30
0.0
 11
506.5894914964
 21
394.3829908457
 31
0.0
  0
ARC
  5
4CB
  8
0
  6
CONTINUOUS
 62
     7
 10
504.1646326576
 20
823.3423440276
 30
0.0
 40
307.9753709635152
 50
269.4156489684
 51
271.1866666614
  0
ARC
  5
4CC
  8
0
  6
CONTINUOUS
 62
     7
 10
437.9573809432
 20
421.7406453567
 30
0.0
 40
5.000000000000091
 50
331.5737995268
 51
29.6421229494
  0
ARC
  5
4CD
  8
0
  6
CONTINUOUS
 62
     7
 10
552.6827463779
 20
487.0253336525
 30
0.0
 40
4.999999999999991
 50
151.5737995268
 51
209.6421229494
  0
POLYLINE
  5
4CE
  8
0
  6
CONTINUOUS
 62
     7
 66
     1
 10
0.0
 20
0.0
 30
0.0
 70
   128
  0
VERTEX
  5
98D
  8
0
  6
CONTINUOUS
 62
     7
 10
480.097398738
 20
515.4330245641
 30
0.0
  0
VERTEX
  5
98E
  8
0
  6
CONTINUOUS
 62
     7
 10
480.9493297885
 20
515.4319181528
 30
0.0
  0
VERTEX
  5
98F
  8
0
  6
CONTINUOUS
 62
     7
 10
485.2848487148
 20
515.4040902343
 30
0.0
  0
VERTEX
  5
990
  8
0
  6
CONTINUOUS
 62
     7
 10
489.616434666
 20
515.3829901901
 30
0.0
  0
SEQEND
  5
A32
  8
0
  6
CONTINUOUS
 62
     7
  0
ARC
  5
4CF
  8
0
  6
CONTINUOUS
 62
     7
 10
485.9981895697
 20
389.0446189752
 30
0.0
 40
5.000000000000048
 50
3.8140748343
 51
81.8803640555
  0
ARC
  5
4D0
  8
0
  6
CONTINUOUS
 62
     7
 10
504.6419377513
 20
389.0446189752
 30
0.0
 40
5.000000000000048
 50
98.1196359444
 51
176.1859251657
  0
ARC
  5
4D1
  8
0
  6
CONTINUOUS
 62
     7
 10
505.31842641
 20
514.381204295
 30
0.0
 40
21.00178551184603
 50
4.9930072042
 51
89.9955339636
  0
ARC
  5
4D2
  8
0
  6
CONTINUOUS
 62
     7
 10
485.321700911
 20
514.381204295
 30
0.0
 40
21.00178551184585
 50
90.0044660364
 51
175.0069927958
  0
LINE
  5
4D3
  8
0
  6
CONTINUOUS
 62
     7
 10
485.320063884
 20
535.382989743
 30
0.0
 11
505.320063437
 21
535.382989743
 31
0.0
  0
ARC
  5
4D4
  8
0
  6
CONTINUOUS
 62
     7
 10
462.4071851857
 20
516.3829895046
 30
0.0
 40
2.000000000000114
 50
270.0
 51
355.0114580244
  0
ARC
  5
4D5
  8
0
  6
CONTINUOUS
 62
     7
 10
528.2329421353
 20
516.3829895046
 30
0.0
 40
2.000000000000114
 50
184.9885419756
 51
270.0
  0
LINE
  5
4D6
  8
0
  6
CONTINUOUS
 62
     7
 10
499.6530121366
 20
389.3772176888
 30
0.0
 11
499.4965396995
 21
387.0301283386
 31
0.0
  0
LINE
  5
4D7
  8
0
  6
CONTINUOUS
 62
     7
 10
491.1435876215
 20
387.0301283386
 30
0.0
 11
490.9871151844
 21
389.3772176888
 31
0.0
  0
LINE
  5
4D8
  8
0
  6
CONTINUOUS
 62
     7
 10
497.4489574028
 20
384.3829892066
 30
0.0
 11
493.1911699182
 21
384.3829892066
 31
0.0
  0
ARC
  5
4D9
  8
0
  6
CONTINUOUS
 62
     7
 10
497.4489574767
 20
386.3829895046
 30
0.0
 40
2.000000000000004
 50
270.0
 51
356.1859251657
  0
POLYLINE
  5
4DA
  8
0
  6
CONTINUOUS
 62
     7
 66
     1
 10
0.0
 20
0.0
 30
0.0
 70
   128
  0
VERTEX
  5
991
  8
0
  6
CONTINUOUS
 62
     7
 10
499.444527662
 20
386.249948242
 30
0.0
  0
VERTEX
  5
992
  8
0
  6
CONTINUOUS
 62
     7
 10
499.4479204702
 20
386.300843158
 30
0.0
  0
VERTEX
  5
993
  8
0
  6
CONTINUOUS
 62
     7
 10
499.4579834106
 20
386.4517844704
 30
0.0
  0
VERTEX
  5
994
  8
0
  6
CONTINUOUS
 62
     7
 10
499.4743751535
 20
386.6976610806
 30
0.0
  0
VERTEX
  5
995
  8
0
  6
CONTINUOUS
 62
     7
 10
499.4965396995
 20
387.0301283386
 30
0.0
  0
SEQEND
  5
A33
  8
0
  6
CONTINUOUS
 62
     7
  0
ARC
  5
4DB
  8
0
  6
CONTINUOUS
 62
     7
 10
493.1911698443
 20
386.3829895046
 30
0.0
 40
2.00000000000006
 50
183.8140748343
 51
270.0
  0
POLYLINE
  5
4DC
  8
0
  6
CONTINUOUS
 62
     7
 66
     1
 10
0.0
 20
0.0
 30
0.0
 70
   128
  0
VERTEX
  5
996
  8
0
  6
CONTINUOUS
 62
     7
 10
491.1435876215
 20
387.0301283386
 30
0.0
  0
VERTEX
  5
997
  8
0
  6
CONTINUOUS
 62
     7
 10
491.1657521675
 20
386.6976610806
 30
0.0
  0
VERTEX
  5
998
  8
0
  6
CONTINUOUS
 62
     7
 10
491.1821439104
 20
386.4517844704
 30
0.0
  0
VERTEX
  5
999
  8
0
  6
CONTINUOUS
 62
     7
 10
491.1922068509
 20
386.300843158
 30
0.0
  0
VERTEX
  5
99A
  8
0
  6
CONTINUOUS
 62
     7
 10
491.195599659
 20
386.249948242
 30
0.0
  0
SEQEND
  5
A34
  8
0
  6
CONTINUOUS
 62
     7
  0
POLYLINE
  5
4DD
  8
0
  6
CONTINUOUS
 62
     7
 66
     1
 10
0.0
 20
0.0
 30
0.0
 70
   128
  0
VERTEX
  5
99B
  8
0
  6
CONTINUOUS
 62
     7
 10
485.320063884
 20
538.7927032497
 30
0.0
  0
VERTEX
  5
99C
  8
0
  6
CONTINUOUS
 62
     7
 10
495.3215994334
 20
539.3829903987
 30
0.0
  0
VERTEX
  5
99D
  8
0
  6
CONTINUOUS
 62
     7
 10
505.320063437
 20
538.7927032497
 30
0.0
  0
SEQEND
  5
A35
  8
0
  6
CONTINUOUS
 62
     7
  0
ARC
  5
4DE
  8
0
  6
CONTINUOUS
 62
     7
 10
495.3201803015
 20
454.3835847471
 30
0.0
 40
84.9993938162093
 50
72.9017369019
 51
83.2437038873
  0
POLYLINE
  5
4DF
  8
0
  6
CONTINUOUS
 62
     7
 66
     1
 10
0.0
 20
0.0
 30
0.0
 70
   128
  0
VERTEX
  5
99E
  8
0
  6
CONTINUOUS
 62
     7
 10
470.3291604469
 20
535.6261692431
 30
0.0
  0
VERTEX
  5
99F
  8
0
  6
CONTINUOUS
 62
     7
 10
477.7224907825
 20
537.541422942
 30
0.0
  0
VERTEX
  5
9A0
  8
0
  6
CONTINUOUS
 62
     7
 10
485.320063884
 20
538.7927032497
 30
0.0
  0
SEQEND
  5
A36
  8
0
  6
CONTINUOUS
 62
     7
  0
ARC
  5
4E0
  8
0
  6
CONTINUOUS
 62
     7
 10
495.3200636605
 20
454.3829895046
 30
0.0
 40
85.00000000000003
 50
107.0982198349
 51
72.9017801651
  0
ARC
  5
4E1
  8
0
  6
CONTINUOUS
 62
     7
 10
558.6229071985
 20
361.3829895046
 30
0.0
 40
5.0
 50
270.0
 51
304.2421687026
  0
LINE
  5
4E2
  8
0
  6
CONTINUOUS
 62
     7
 10
558.6229084233
 20
356.3829920676
 30
0.0
 11
432.0172188977
 21
356.3829920676
 31
0.0
  0
ARC
  5
4E3
  8
0
  6
CONTINUOUS
 62
     7
 10
432.0172201225
 20
361.3829895046
 30
0.0
 40
5.000000000000078
 50
235.7578312974
 51
270.0
  0
ARC
  5
4E4
  8
0
  6
CONTINUOUS
 62
     7
 10
495.3200636605
 20
454.3829895046
 30
0.0
 40
117.5
 50
214.2421687026
 51
235.7578312974
  0
ARC
  5
4E5
  8
0
  6
CONTINUOUS
 62
     7
 10
402.3200636605
 20
391.0801459666
 30
0.0
 40
4.999999999999966
 50
180.0
 51
214.2421687026
  0
LINE
  5
4E6
  8
0
  6
CONTINUOUS
 62
     7
 10
397.3200662235
 20
391.0801447418
 30
0.0
 11
397.3200662235
 21
517.6858342674
 31
0.0
  0
ARC
  5
4E7
  8
0
  6
CONTINUOUS
 62
     7
 10
402.3200636605
 20
517.6858330426
 30
0.0
 40
5.0
 50
145.7578312974
 51
180.0
  0
ARC
  5
4E8
  8
0
  6
CONTINUOUS
 62
     7
 10
495.3200636605
 20
454.3829895046
 30
0.0
 40
117.5
 50
124.2421687026
 51
145.7578312974
  0
ARC
  5
4E9
  8
0
  6
CONTINUOUS
 62
     7
 10
432.0172201225
 20
547.3829895046
 30
0.0
 40
5.0
 50
90.0
 51
124.2421687026
  0
LINE
  5
4EA
  8
0
  6
CONTINUOUS
 62
     7
 10
432.0172188977
 20
552.3829869416
 30
0.0
 11
456.3200628558
 21
552.3829869416
 31
0.0
  0
ARC
  5
4EB
  8
0
  6
CONTINUOUS
 62
     7
 10
456.3200636605
 20
557.3829895046
 30
0.0
 40
5.000000000000045
 50
270.0
 51
318.1896851042
  0
ARC
  5
4EC
  8
0
  6
CONTINUOUS
 62
     7
 10
460.7921996155
 20
553.3829895046
 30
0.0
 40
1.000000000000013
 50
90.0
 51
138.1896851042
  0
LINE
  5
4ED
  8
0
  6
CONTINUOUS
 62
     7
 10
460.7921993533
 20
554.3829909947
 30
0.0
 11
529.8479279677
 21
554.3829909947
 31
0.0
  0
ARC
  5
4EE
  8
0
  6
CONTINUOUS
 62
     7
 10
529.8479277055
 20
553.3829895046
 30
0.0
 40
1.000000000000023
 50
41.8103148954
 51
90.0
  0
ARC
  5
4EF
  8
0
  6
CONTINUOUS
 62
     7
 10
534.3200636605
 20
557.3829895046
 30
0.0
 40
5.0
 50
221.8103148958
 51
270.0
  0
LINE
  5
4F0
  8
0
  6
CONTINUOUS
 62
     7
 10
534.3200644652
 20
552.3829869416
 30
0.0
 11
558.6229084233
 21
552.3829869416
 31
0.0
  0
ARC
  5
4F1
  8
0
  6
CONTINUOUS
 62
     7
 10
558.6229071985
 20
547.3829895046
 30
0.0
 40
5.000000000000114
 50
55.7578312974
 51
90.0
  0
ARC
  5
4F2
  8
0
  6
CONTINUOUS
 62
     7
 10
495.3200636605
 20
454.3829895046
 30
0.0
 40
117.4999999999999
 50
34.2421687026
 51
55.7578312974
  0
ARC
  5
4F3
  8
0
  6
CONTINUOUS
 62
     7
 10
588.3200636605
 20
517.6858330426
 30
0.0
 40
5.000000000000114
 50
0.0
 51
34.2421687026
  0
LINE
  5
4F4
  8
0
  6
CONTINUOUS
 62
     7
 10
593.3200610975
 20
517.6858342674
 30
0.0
 11
593.3200610975
 21
391.0801447418
 31
0.0
  0
ARC
  5
4F5
  8
0
  6
CONTINUOUS
 62
     7
 10
588.3200636605
 20
391.0801459666
 30
0.0
 40
5.000000000000114
 50
325.7578312974
 51
0.0
  0
ARC
  5
4F6
  8
0
  6
CONTINUOUS
 62
     7
 10
495.3200636605
 20
454.3829895046
 30
0.0
 40
117.5
 50
304.2421687026
 51
325.7578312974
  0
CIRCLE
  5
4F7
  8
0
  6
CONTINUOUS
 62
     7
 10
419.306084683
 20
530.3969684822
 30
0.0
 40
6.0
  0
CIRCLE
  5
4F8
  8
0
  6
CONTINUOUS
 62
     7
 10
419.306084683
 20
378.3690105271
 30
0.0
 40
5.999999999999943
  0
CIRCLE
  5
4F9
  8
0
  6
CONTINUOUS
 62
     7
 10
571.3340426381
 20
378.3690105271
 30
0.0
 40
6.0
  0
CIRCLE
  5
4FA
  8
0
  6
CONTINUOUS
 62
     7
 10
571.3340426381
 20
530.3969684822
 30
0.0
 40
6.0
  0
CIRCLE
  5
4FB
  8
0
  6
CONTINUOUS
 62
     7
 10
550.961586405
 20
365.3379394082
 30
0.0
 40
4.0
  0
CIRCLE
  5
4FC
  8
0
  6
CONTINUOUS
 62
     7
 10
439.678540916
 20
543.428039601
 30
0.0
 40
4.0
  0
INSERT
  5
539
  8
SLD-0
 62
    11
  2
SW_CENTERMARKSYMBOL_1
 10
495.3200636605
 20
493.3829895046
 30
0.0
  0
INSERT
  5
545
  8
SLD-0
 62
    11
  2
SW_CENTERMARKSYMBOL_2
 10
608.7200636605
 20
454.3829895046
 30
0.0
  0
ENDSEC
  0
EOF
