  0
SECTION
  2
HEADER
  9
$ACADVER
  1
AC1009
  9
$DWGCODEPAGE
  3
dos932
  9
$INSBASE
 10
0.0
 20
0.0
 30
0.0
  9
$EXTMIN
 10
0.0
 20
0.0
 30
0.0
  9
$EXTMAX
 10
1050.0
 20
1485.0
 30
0.0
  9
$LIMMIN
 10
0.0
 20
0.0
  9
$LIMMAX
 10
1050.0
 20
1485.0
  9
$ORTHOMODE
 70
     0
  9
$REGENMODE
 70
     1
  9
$FILLMODE
 70
     1
  9
$QTEXTMODE
 70
     0
  9
$MIRRTEXT
 70
     1
  9
$DRAGMODE
 70
     2
  9
$LTSCALE
 40
5.0
  9
$OSMODE
 70
    37
  9
$ATTMODE
 70
     1
  9
$TEXTSIZE
 40
17.5
  9
$TRACEWID
 40
1.0
  9
$TEXTSTYLE
  7
STANDARD
  9
$CLAYER
  8
0
  9
$CELTYPE
  6
BYLAYER
  9
$CECOLOR
 62
   256
  9
$DIMSCALE
 40
1.0
  9
$DIMASZ
 40
12.5
  9
$DIMEXO
 40
5.0
  9
$DIMDLI
 40
3.75
  9
$DIMRND
 40
0.0
  9
$DIMDLE
 40
0.0
  9
$DIMEXE
 40
5.0
  9
$DIMTP
 40
0.0
  9
$DIMTM
 40
0.0
  9
$DIMTXT
 40
17.5
  9
$DIMCEN
 40
2.5
  9
$DIMTSZ
 40
0.0
  9
$DIMTOL
 70
     0
  9
$DIMLIM
 70
     0
  9
$DIMTIH
 70
     1
  9
$DIMTOH
 70
     1
  9
$DIMSE1
 70
     0
  9
$DIMSE2
 70
     0
  9
$DIMTAD
 70
     1
  9
$DIMZIN
 70
     1
  9
$DIMBLK
  1

  9
$DIMASO
 70
     1
  9
$DIMSHO
 70
     1
  9
$DIMPOST
  1

  9
$DIMAPOST
  1

  9
$DIMALT
 70
     0
  9
$DIMALTD
 70
     3
  9
$DIMALTF
 40
0.0393700787
  9
$DIMLFAC
 40
1.0
  9
$DIMTOFL
 70
     1
  9
$DIMTVP
 40
0.0
  9
$DIMTIX
 70
     0
  9
$DIMSOXD
 70
     0
  9
$DIMSAH
 70
     0
  9
$DIMBLK1
  1

  9
$DIMBLK2
  1

  9
$DIMSTYLE
  2
ISO-25
  9
$DIMCLRD
 70
     0
  9
$DIMCLRE
 70
     0
  9
$DIMCLRT
 70
     0
  9
$DIMTFAC
 40
1.0
  9
$DIMGAP
 40
7.62
  9
$LUNITS
 70
     2
  9
$LUPREC
 70
     0
  9
$SKETCHINC
 40
1.0
  9
$FILLETRAD
 40
10.0
  9
$AUNITS
 70
     0
  9
$AUPREC
 70
     0
  9
$MENU
  1
.
  9
$ELEVATION
 40
0.0
  9
$PELEVATION
 40
0.0
  9
$THICKNESS
 40
0.0
  9
$LIMCHECK
 70
     0
  9
$CHAMFERA
 40
0.0
  9
$CHAMFERB
 40
0.0
  9
$SKPOLY
 70
     0
  9
$TDCREATE
 40
2458088.787758333
  9
$TDUPDATE
 40
2458088.787759062
  9
$TDINDWG
 40
0.0000000116
  9
$TDUSRTIMER
 40
0.0000000116
  9
$USRTIMER
 70
     1
  9
$ANGBASE
 50
0.0
  9
$ANGDIR
 70
     0
  9
$PDMODE
 70
     0
  9
$PDSIZE
 40
-1.0
  9
$PLINEWID
 40
0.0
  9
$COORDS
 70
     1
  9
$SPLFRAME
 70
     0
  9
$SPLINETYPE
 70
     6
  9
$SPLINESEGS
 70
     8
  9
$ATTDIA
 70
     0
  9
$ATTREQ
 70
     1
  9
$HANDLING
 70
     1
  9
$HANDSEED
  5
B0E
  9
$SURFTAB1
 70
     6
  9
$SURFTAB2
 70
     6
  9
$SURFTYPE
 70
     6
  9
$SURFU
 70
     6
  9
$SURFV
 70
     6
  9
$UCSNAME
  2

  9
$UCSORG
 10
0.0
 20
0.0
 30
0.0
  9
$UCSXDIR
 10
1.0
 20
0.0
 30
0.0
  9
$UCSYDIR
 10
0.0
 20
1.0
 30
0.0
  9
$PUCSNAME
  2

  9
$PUCSORG
 10
0.0
 20
0.0
 30
0.0
  9
$PUCSXDIR
 10
1.0
 20
0.0
 30
0.0
  9
$PUCSYDIR
 10
0.0
 20
1.0
 30
0.0
  9
$USERI1
 70
     0
  9
$USERI2
 70
     0
  9
$USERI3
 70
     0
  9
$USERI4
 70
     0
  9
$USERI5
 70
     0
  9
$USERR1
 40
0.0
  9
$USERR2
 40
0.0
  9
$USERR3
 40
0.0
  9
$USERR4
 40
0.0
  9
$USERR5
 40
0.0
  9
$WORLDVIEW
 70
     1
  9
$SHADEDGE
 70
     3
  9
$SHADEDIF
 70
    70
  9
$TILEMODE
 70
     1
  9
$MAXACTVP
 70
    64
  9
$PLIMCHECK
 70
     0
  9
$PEXTMIN
 10
1.0000000000E+20
 20
1.0000000000E+20
 30
1.0000000000E+20
  9
$PEXTMAX
 10
-1.0000000000E+20
 20
-1.0000000000E+20
 30
-1.0000000000E+20
  9
$PLIMMIN
 10
0.0
 20
0.0
  9
$PLIMMAX
 10
420.0
 20
297.0
  9
$UNITMODE
 70
     0
  9
$VISRETAIN
 70
     1
  9
$PLINEGEN
 70
     0
  9
$PSLTSCALE
 70
     1
  0
ENDSEC
  0
SECTION
  2
TABLES
  0
TABLE
  2
VPORT
 70
     1
  0
VPORT
  2
*ACTIVE
 70
     0
 10
0.0
 20
0.0
 11
1.0
 21
1.0
 12
525.0
 22
742.5
 13
0.0
 23
0.0
 14
10.0
 24
10.0
 15
10.0
 25
10.0
 16
0.0
 26
0.0
 36
1.0
 17
0.0
 27
0.0
 37
0.0
 40
1485.0
 41
0.7070707071
 42
50.0
 43
0.0
 44
0.0
 50
0.0
 51
0.0
 71
     0
 72
  2000
 73
     1
 74
     3
 75
     0
 76
     0
 77
     0
 78
     0
  0
ENDTAB
  0
TABLE
  2
LTYPE
 70
     6
  0
LTYPE
  2
CONTINUOUS
 70
     0
  3
Solid line
 72
    65
 73
     0
 40
0.0
  0
LTYPE
  2
HIDDEN
 70
     0
  3
Hidden __ __ __ __ __ __ __ __ __ __ __ __ __ __
 72
    65
 73
     2
 40
1.905
 49
1.27
 49
-0.635
  0
LTYPE
  2
PHANTOM
 70
     0
  3
Phantom ______  __  __  ______  __  __  ______
 72
    65
 73
     6
 40
12.7
 49
6.35
 49
-1.27
 49
1.27
 49
-1.27
 49
1.27
 49
-1.27
  0
LTYPE
  2
CENTER
 70
     0
  3
Center ____ _ ____ _ ____ _ ____ _ ____ _ ____
 72
    65
 73
     4
 40
10.16
 49
6.35
 49
-1.27
 49
1.27
 49
-1.27
  0
LTYPE
  2
CENTERX2
 70
     0
  3
Center (2x) ________  __  ________  __  _____
 72
    65
 73
     4
 40
20.32
 49
12.7
 49
-2.54
 49
2.54
 49
-2.54
  0
LTYPE
  2
DOT2
 70
     0
  3
Dot (.5x) ........................................
 72
    65
 73
     2
 40
0.635
 49
0.0
 49
-0.635
  0
ENDTAB
  0
TABLE
  2
LAYER
 70
    11
  0
LAYER
  2
0
 70
     0
 62
     7
  6
CONTINUOUS
  0
LAYER
  2
SLD-0
 70
     0
 62
   179
  6
CONTINUOUS
  0
LAYER
  2
AM_6
 70
     0
 62
     2
  6
CONTINUOUS
  0
LAYER
  2
AM_5
 70
     0
 62
     3
  6
CONTINUOUS
  0
LAYER
  2
AM_7
 70
     0
 62
     4
  6
CONTINUOUS
  0
LAYER
  2
SLD-DEFPOINTS
 70
     0
 62
   179
  6
CONTINUOUS
  0
LAYER
  2
AM_0
 70
     0
 62
   179
  6
CONTINUOUS
  0
LAYER
  2
AM_CL
 70
     0
 62
     1
  6
CONTINUOUS
  0
LAYER
  2
6
 70
     0
 62
     2
  6
CONTINUOUS
  0
LAYER
  2
AM_4
 70
     0
 62
     3
  6
CONTINUOUS
  0
LAYER
  2
AM_8
 70
     0
 62
     1
  6
CONTINUOUS
  0
ENDTAB
  0
TABLE
  2
STYLE
 70
     1
  0
STYLE
  2
STANDARD
 70
     0
 40
0.0
 41
1.0
 50
0.0
 71
     0
 42
17.5
  3
txt
  4
bigfont
  0
ENDTAB
  0
TABLE
  2
VIEW
 70
     0
  0
ENDTAB
  0
TABLE
  2
UCS
 70
     0
  0
ENDTAB
  0
TABLE
  2
APPID
 70
     1
  0
APPID
  2
ACAD
 70
     0
  0
ENDTAB
  0
TABLE
  2
DIMSTYLE
 70
     1
  0
DIMSTYLE
  2
ISO-25
 70
     0
  3

  4

  5

  6

  7

 40
1.0
 41
2.5
 42
0.625
 43
3.75
 44
1.25
 45
0.0
 46
0.0
 47
0.0
 48
0.0
140
2.5
141
2.5
142
0.0
143
0.0393700787
144
1.0
145
0.0
146
1.0
147
0.625
 71
     0
 72
     0
 73
     0
 74
     0
 75
     0
 76
     0
 77
     1
 78
     8
170
     0
171
     3
172
     1
173
     0
174
     0
175
     0
176
     0
177
     0
178
     0
  0
ENDTAB
  0
ENDSEC
  0
SECTION
  2
BLOCKS
  0
BLOCK
  8
0
  2
$MODEL_SPACE
 70
     0
 10
0.0
 20
0.0
 30
0.0
  3
$MODEL_SPACE
  1

  0
ENDBLK
  5
21
  8
0
  0
BLOCK
 67
     1
  8
0
  2
$PAPER_SPACE
 70
     0
 10
0.0
 20
0.0
 30
0.0
  3
$PAPER_SPACE
  1

  0
ENDBLK
  5
1D
 67
     1
  8
0
  0
BLOCK
  8
0
  2
SW_CENTERMARKSYMBOL_0
 70
     0
 10
0.0
 20
0.0
 30
0.0
  3
SW_CENTERMARKSYMBOL_0
  1

  0
LINE
  5
46E
  8
SLD-0
 62
     0
 10
0.0
 20
0.0
 30
0.0
 11
0.0
 21
2.5
 31
0.0
  0
LINE
  5
46F
  8
SLD-0
 62
     0
 10
0.0
 20
0.0
 30
0.0
 11
-2.5
 21
0.0
 31
0.0
  0
LINE
  5
470
  8
SLD-0
 62
     0
 10
0.0
 20
0.0
 30
0.0
 11
0.0
 21
-2.5
 31
0.0
  0
LINE
  5
471
  8
SLD-0
 62
     0
 10
0.0
 20
0.0
 30
0.0
 11
2.5
 21
0.0
 31
0.0
  0
LINE
  5
472
  8
SLD-0
 62
     0
 10
0.0
 20
5.0
 30
0.0
 11
0.0
 21
333.986545523
 31
0.0
  0
LINE
  5
473
  8
SLD-0
 62
     0
 10
-5.0
 20
0.0
 30
0.0
 11
-108.1592829591
 21
0.0
 31
0.0
  0
LINE
  5
474
  8
SLD-0
 62
     0
 10
0.0
 20
-5.0
 30
0.0
 11
0.0
 21
-307.4169211961
 31
0.0
  0
LINE
  5
475
  8
SLD-0
 62
     0
 10
5.0
 20
0.0
 30
0.0
 11
100.4346811459
 21
0.0
 31
0.0
  0
ENDBLK
  5
46D
  8
0
  0
BLOCK
  8
0
  2
SW_CENTERMARKSYMBOL_1
 70
     0
 10
0.0
 20
0.0
 30
0.0
  3
SW_CENTERMARKSYMBOL_1
  1

  0
ARC
  5
576
  8
SLD-0
 62
     0
 10
76.0139789776
 20
-76.0139789776
 30
0.0
 40
107.5
 50
135.0
 51
136.3324599887
  0
ARC
  5
577
  8
SLD-0
 62
     0
 10
76.0139789776
 20
-76.0139789776
 30
0.0
 40
107.5
 50
133.6675400113
 51
135.0
  0
ARC
  5
578
  8
SLD-0
 62
     0
 10
76.0139789776
 20
-76.0139789776
 30
0.0
 40
107.4999999999999
 50
45.0
 51
46.3324599887
  0
ARC
  5
579
  8
SLD-0
 62
     0
 10
76.0139789776
 20
-76.0139789776
 30
0.0
 40
107.5
 50
43.6675400113
 51
45.0
  0
ARC
  5
57A
  8
SLD-0
 62
     0
 10
76.0139789776
 20
-76.0139789776
 30
0.0
 40
107.5
 50
315.0
 51
316.3324599887
  0
ARC
  5
57B
  8
SLD-0
 62
     0
 10
76.0139789776
 20
-76.0139789776
 30
0.0
 40
107.5
 50
313.6675400113
 51
315.0
  0
ARC
  5
57C
  8
SLD-0
 62
     0
 10
76.0139789776
 20
-76.0139789776
 30
0.0
 40
107.5
 50
225.0
 51
226.3324599887
  0
ARC
  5
57D
  8
SLD-0
 62
     0
 10
76.0139789776
 20
-76.0139789776
 30
0.0
 40
107.5
 50
223.6675400113
 51
225.0
  0
ARC
  5
57E
  8
SLD-0
 62
     0
 10
76.0139789776
 20
-76.0139789776
 30
0.0
 40
107.5
 50
47.6649199774
 51
132.3350800226
  0
ARC
  5
57F
  8
SLD-0
 62
     0
 10
76.0139789776
 20
-76.0139789776
 30
0.0
 40
107.5
 50
317.6649199774
 51
42.3350800226
  0
ARC
  5
580
  8
SLD-0
 62
     0
 10
76.0139789776
 20
-76.0139789776
 30
0.0
 40
107.5
 50
137.6649199774
 51
222.3350800226
  0
ARC
  5
581
  8
SLD-0
 62
     0
 10
76.0139789776
 20
-76.0139789776
 30
0.0
 40
107.5
 50
227.6649199774
 51
312.3350800226
  0
LINE
  5
582
  8
SLD-0
 62
     0
 10
0.0
 20
0.0
 30
0.0
 11
-1.767766953
 21
1.767766953
 31
0.0
  0
LINE
  5
583
  8
SLD-0
 62
     0
 10
0.0
 20
0.0
 30
0.0
 11
1.767766953
 21
-1.767766953
 31
0.0
  0
LINE
  5
584
  8
SLD-0
 62
     0
 10
-3.5355339059
 20
3.5355339059
 30
0.0
 11
-6.0104076401
 21
6.0104076401
 31
0.0
  0
LINE
  5
585
  8
SLD-0
 62
     0
 10
3.5355339059
 20
-3.5355339059
 30
0.0
 11
6.0104076401
 21
-6.0104076401
 31
0.0
  0
LINE
  5
586
  8
SLD-0
 62
     0
 10
152.0279579551
 20
0.0
 30
0.0
 11
153.7957249081
 21
1.767766953
 31
0.0
  0
LINE
  5
587
  8
SLD-0
 62
     0
 10
152.0279579551
 20
0.0
 30
0.0
 11
150.2601910021
 21
-1.767766953
 31
0.0
  0
LINE
  5
588
  8
SLD-0
 62
     0
 10
155.563491861
 20
3.5355339059
 30
0.0
 11
158.0383655952
 21
6.0104076401
 31
0.0
  0
LINE
  5
589
  8
SLD-0
 62
     0
 10
148.4924240492
 20
-3.5355339059
 30
0.0
 11
146.017550315
 21
-6.0104076401
 31
0.0
  0
LINE
  5
58A
  8
SLD-0
 62
     0
 10
152.0279579551
 20
-152.0279579551
 30
0.0
 11
153.7957249081
 21
-153.7957249081
 31
0.0
  0
LINE
  5
58B
  8
SLD-0
 62
     0
 10
152.0279579551
 20
-152.0279579551
 30
0.0
 11
150.2601910021
 21
-150.2601910021
 31
0.0
  0
LINE
  5
58C
  8
SLD-0
 62
     0
 10
155.563491861
 20
-155.563491861
 30
0.0
 11
158.0383655952
 21
-158.0383655952
 31
0.0
  0
LINE
  5
58D
  8
SLD-0
 62
     0
 10
148.4924240492
 20
-148.4924240492
 30
0.0
 11
146.017550315
 21
-146.017550315
 31
0.0
  0
LINE
  5
58E
  8
SLD-0
 62
     0
 10
76.0139789776
 20
-76.0139789776
 30
0.0
 11
76.0139789776
 21
-73.5139789776
 31
0.0
  0
LINE
  5
58F
  8
SLD-0
 62
     0
 10
76.0139789776
 20
-76.0139789776
 30
0.0
 11
73.5139789776
 21
-76.0139789776
 31
0.0
  0
LINE
  5
590
  8
SLD-0
 62
     0
 10
76.0139789776
 20
-76.0139789776
 30
0.0
 11
76.0139789776
 21
-78.5139789776
 31
0.0
  0
LINE
  5
591
  8
SLD-0
 62
     0
 10
76.0139789776
 20
-76.0139789776
 30
0.0
 11
78.5139789776
 21
-76.0139789776
 31
0.0
  0
LINE
  5
592
  8
SLD-0
 62
     0
 10
76.0139789776
 20
-71.0139789776
 30
0.0
 11
76.0139789776
 21
40.2954205313
 31
0.0
  0
LINE
  5
593
  8
SLD-0
 62
     0
 10
71.0139789776
 20
-76.0139789776
 30
0.0
 11
-45.1023445465
 21
-76.0139789776
 31
0.0
  0
LINE
  5
594
  8
SLD-0
 62
     0
 10
76.0139789776
 20
-81.0139789776
 30
0.0
 11
76.0139789776
 21
-196.3824180113
 31
0.0
  0
LINE
  5
595
  8
SLD-0
 62
     0
 10
81.0139789776
 20
-76.0139789776
 30
0.0
 11
176.2697232236
 21
-76.0139789776
 31
0.0
  0
LINE
  5
596
  8
SLD-0
 62
     0
 10
0.0
 20
-152.0279579551
 30
0.0
 11
-1.767766953
 21
-153.7957249081
 31
0.0
  0
LINE
  5
597
  8
SLD-0
 62
     0
 10
0.0
 20
-152.0279579551
 30
0.0
 11
1.767766953
 21
-150.2601910021
 31
0.0
  0
LINE
  5
598
  8
SLD-0
 62
     0
 10
-3.5355339059
 20
-155.563491861
 30
0.0
 11
-6.0104076401
 21
-158.0383655952
 31
0.0
  0
LINE
  5
599
  8
SLD-0
 62
     0
 10
3.5355339059
 20
-148.4924240492
 30
0.0
 11
6.0104076401
 21
-146.017550315
 31
0.0
  0
ENDBLK
  5
575
  8
0
  0
BLOCK
  8
0
  2
SW_CENTERMARKSYMBOL_2
 70
     0
 10
0.0
 20
0.0
 30
0.0
  3
SW_CENTERMARKSYMBOL_2
  1

  0
LINE
  5
59E
  8
SLD-0
 62
     0
 10
0.0
 20
0.0
 30
0.0
 11
0.0
 21
2.5
 31
0.0
  0
LINE
  5
59F
  8
SLD-0
 62
     0
 10
0.0
 20
0.0
 30
0.0
 11
-2.5
 21
0.0
 31
0.0
  0
LINE
  5
5A0
  8
SLD-0
 62
     0
 10
0.0
 20
0.0
 30
0.0
 11
0.0
 21
-2.5
 31
0.0
  0
LINE
  5
5A1
  8
SLD-0
 62
     0
 10
0.0
 20
0.0
 30
0.0
 11
2.5
 21
0.0
 31
0.0
  0
LINE
  5
5A2
  8
SLD-0
 62
     0
 10
0.0
 20
5.0
 30
0.0
 11
0.0
 21
13.5
 31
0.0
  0
LINE
  5
5A3
  8
SLD-0
 62
     0
 10
-5.0
 20
0.0
 30
0.0
 11
-13.5
 21
0.0
 31
0.0
  0
LINE
  5
5A4
  8
SLD-0
 62
     0
 10
0.0
 20
-5.0
 30
0.0
 11
0.0
 21
-13.5
 31
0.0
  0
LINE
  5
5A5
  8
SLD-0
 62
     0
 10
5.0
 20
0.0
 30
0.0
 11
33.254435218
 21
0.0
 31
0.0
  0
ENDBLK
  5
59D
  8
0
  0
ENDSEC
  0
SECTION
  2
ENTITIES
  0
LINE
  5
7D
  8
0
  6
CONTINUOUS
 62
     7
 10
511.9948356808
 20
1190.9890417408
 30
0.0
 11
511.9948356808
 21
1191.0390202355
 31
0.0
  0
LINE
  5
7E
  8
0
  6
CONTINUOUS
 62
     7
 10
486.9948353082
 20
1191.0390202355
 30
0.0
 11
486.9948353082
 21
1190.9890417408
 31
0.0
  0
LINE
  5
7F
  8
0
  6
CONTINUOUS
 62
     7
 10
508.4948351071
 20
1191.0390202355
 30
0.0
 11
508.4948351071
 21
1191.0890285325
 31
0.0
  0
LINE
  5
80
  8
0
  6
CONTINUOUS
 62
     7
 10
490.4948358819
 20
1191.0890285325
 30
0.0
 11
490.4948358819
 21
1191.0390202355
 31
0.0
  0
LINE
  5
81
  8
0
  6
CONTINUOUS
 62
     7
 10
554.7680964157
 20
617.9890279126
 30
0.0
 11
554.7680964157
 21
618.989015038
 31
0.0
  0
LINE
  5
82
  8
0
  6
CONTINUOUS
 62
     7
 10
540.3880958841
 20
618.989015038
 30
0.0
 11
540.3880958841
 21
617.9890279126
 31
0.0
  0
LINE
  5
83
  8
0
  6
CONTINUOUS
 62
     7
 10
551.5780968056
 20
633.9890305352
 30
0.0
 11
551.5780968056
 21
771.4890335154
 31
0.0
  0
LINE
  5
84
  8
0
  6
CONTINUOUS
 62
     7
 10
551.5780968056
 20
786.4890341114
 30
0.0
 11
551.5780968056
 21
787.9890297007
 31
0.0
  0
LINE
  5
85
  8
0
  6
CONTINUOUS
 62
     7
 10
543.5780954943
 20
787.9890297007
 30
0.0
 11
543.5780954943
 21
787.4279115748
 31
0.0
  0
LINE
  5
86
  8
0
  6
CONTINUOUS
 62
     7
 10
543.5780954943
 20
771.4890335154
 30
0.0
 11
543.5780954943
 21
633.9890305352
 31
0.0
  0
LINE
  5
87
  8
0
  6
CONTINUOUS
 62
     7
 10
458.6015751049
 20
617.9890279126
 30
0.0
 11
458.6015751049
 21
618.989015038
 31
0.0
  0
LINE
  5
88
  8
0
  6
CONTINUOUS
 62
     7
 10
444.2215745733
 20
618.989015038
 30
0.0
 11
444.2215745733
 21
617.9890279126
 31
0.0
  0
LINE
  5
89
  8
0
  6
CONTINUOUS
 62
     7
 10
455.4115754948
 20
633.9890305352
 30
0.0
 11
455.4115754948
 21
771.4890335154
 31
0.0
  0
LINE
  5
8A
  8
0
  6
CONTINUOUS
 62
     7
 10
455.4115754948
 20
787.4279115748
 30
0.0
 11
455.4115754948
 21
787.9890297007
 31
0.0
  0
LINE
  5
8B
  8
0
  6
CONTINUOUS
 62
     7
 10
447.4115741834
 20
787.9890297007
 30
0.0
 11
447.4115741834
 21
786.4890341114
 31
0.0
  0
LINE
  5
8C
  8
0
  6
CONTINUOUS
 62
     7
 10
447.4115741834
 20
771.4890335154
 30
0.0
 11
447.4115741834
 21
633.9890305352
 31
0.0
  0
ARC
  5
8D
  8
0
  6
CONTINUOUS
 62
     7
 10
589.4948354945
 20
1174.2862753496
 30
0.0
 40
2.800000000000068
 50
0.0
 51
62.60975803
  0
ARC
  5
8E
  8
0
  6
CONTINUOUS
 62
     7
 10
409.4948354945
 20
1174.2862753496
 30
0.0
 40
2.800000000000011
 50
117.39024197
 51
180.0
  0
LINE
  5
8F
  8
0
  6
CONTINUOUS
 62
     7
 10
406.6948366747
 20
1174.286270554
 30
0.0
 11
406.6948366747
 21
1155.972952063
 31
0.0
  0
LINE
  5
90
  8
0
  6
CONTINUOUS
 62
     7
 10
592.2948343143
 20
1130.9890244555
 30
0.0
 11
592.2948343143
 21
1174.286270554
 31
0.0
  0
LINE
  5
91
  8
0
  6
CONTINUOUS
 62
     7
 10
590.7829699502
 20
1176.7723802876
 30
0.0
 11
573.6427751765
 21
1185.6532935452
 31
0.0
  0
LINE
  5
92
  8
0
  6
CONTINUOUS
 62
     7
 10
425.3468958125
 20
1185.6532935452
 30
0.0
 11
408.2067010388
 21
1176.7723802876
 31
0.0
  0
ARC
  5
93
  8
0
  6
CONTINUOUS
 62
     7
 10
424.7948354945
 20
1186.7187800328
 30
0.0
 40
1.200000000000116
 50
297.39024197
 51
0.0
  0
ARC
  5
94
  8
0
  6
CONTINUOUS
 62
     7
 10
574.1948354945
 20
1186.7187800328
 30
0.0
 40
1.200000000000045
 50
180.0
 51
242.60975803
  0
LINE
  5
95
  8
0
  6
CONTINUOUS
 62
     7
 10
425.9948355541
 20
1189.1890410733
 30
0.0
 11
425.9948355541
 21
1186.7187861752
 31
0.0
  0
LINE
  5
96
  8
0
  6
CONTINUOUS
 62
     7
 10
572.9948354349
 20
1186.7187861752
 30
0.0
 11
572.9948354349
 21
1189.1890410733
 31
0.0
  0
ARC
  5
97
  8
0
  6
CONTINUOUS
 62
     7
 10
571.1948354945
 20
1189.1890286278
 30
0.0
 40
1.799999999999955
 50
0.0
 51
90.0
  0
ARC
  5
98
  8
0
  6
CONTINUOUS
 62
     7
 10
427.7948354945
 20
1189.1890286278
 30
0.0
 40
1.800000000000011
 50
90.0
 51
180.0
  0
ARC
  5
99
  8
0
  6
CONTINUOUS
 62
     7
 10
570.0082497528
 20
1152.9890286278
 30
0.0
 40
3.000000000000114
 50
0.0
 51
84.753415462
  0
LINE
  5
9A
  8
0
  6
CONTINUOUS
 62
     7
 10
573.00824648
 20
1130.9890244555
 30
0.0
 11
573.00824648
 21
1152.9890243363
 31
0.0
  0
ARC
  5
9B
  8
0
  6
CONTINUOUS
 62
     7
 10
407.0049651025
 20
1152.9890286278
 30
0.0
 40
3.000000000000057
 50
94.0450781816
 51
180.0
  0
ARC
  5
9C
  8
0
  6
CONTINUOUS
 62
     7
 10
407.1326713628
 20
1157.0914067522
 30
0.0
 40
0.9711023027973715
 50
283.2748580071
 51
324.7457814238
  0
LINE
  5
9D
  8
0
  6
CONTINUOUS
 62
     7
 10
404.0049684629
 20
1152.9890243363
 30
0.0
 11
404.0049684629
 21
1150.8483682227
 31
0.0
  0
LINE
  5
9E
  8
0
  6
CONTINUOUS
 62
     7
 10
404.0049684629
 20
1142.1618704152
 30
0.0
 11
404.0049684629
 21
1130.9890244555
 31
0.0
  0
ARC
  5
9F
  8
0
  6
CONTINUOUS
 62
     7
 10
595.1948354945
 20
1127.9890286278
 30
0.0
 40
0.5000000000001137
 50
0.0
 51
90.0
  0
ARC
  5
A0
  8
0
  6
CONTINUOUS
 62
     7
 10
595.1948354945
 20
1088.9890286278
 30
0.0
 40
0.5000000000001137
 50
270.0
 51
0.0
  0
LINE
  5
A1
  8
0
  6
CONTINUOUS
 62
     7
 10
586.1948353634
 20
1088.4890351843
 30
0.0
 11
595.1948387012
 21
1088.4890351843
 31
0.0
  0
LINE
  5
A2
  8
0
  6
CONTINUOUS
 62
     7
 10
595.1948387012
 20
1128.4890268397
 30
0.0
 11
586.1948353634
 21
1128.4890268397
 31
0.0
  0
ARC
  5
A3
  8
0
  6
CONTINUOUS
 62
     7
 10
586.1948354945
 20
1127.9890286278
 30
0.0
 40
0.5
 50
90.0
 51
180.0
  0
ARC
  5
A4
  8
0
  6
CONTINUOUS
 62
     7
 10
586.1948354945
 20
1088.9890286278
 30
0.0
 40
0.5
 50
180.0
 51
270.0
  0
LINE
  5
A5
  8
0
  6
CONTINUOUS
 62
     7
 10
585.4948384151
 20
1091.9890348267
 30
0.0
 11
585.6948343501
 21
1091.9890348267
 31
0.0
  0
LINE
  5
A6
  8
0
  6
CONTINUOUS
 62
     7
 10
585.6948343501
 20
1124.9890271973
 30
0.0
 11
585.4948384151
 21
1124.9890271973
 31
0.0
  0
LINE
  5
A7
  8
0
  6
CONTINUOUS
 62
     7
 10
595.6948322639
 20
1091.9890348267
 30
0.0
 11
595.8948356495
 21
1091.9890348267
 31
0.0
  0
LINE
  5
A8
  8
0
  6
CONTINUOUS
 62
     7
 10
595.8948356495
 20
1124.9890271973
 30
0.0
 11
595.6948322639
 21
1124.9890271973
 31
0.0
  0
ARC
  5
A9
  8
0
  6
CONTINUOUS
 62
     7
 10
634.2086480262
 20
1052.3303750154
 30
0.0
 40
0.360000000000139
 50
56.3583676093
 51
110.0
  0
ARC
  5
AA
  8
0
  6
CONTINUOUS
 62
     7
 10
636.6985546696
 20
1045.489412736
 30
0.0
 40
0.3600000000000769
 50
290.0
 51
343.6416323907
  0
LINE
  5
AB
  8
0
  6
CONTINUOUS
 62
     7
 10
634.0855208621
 20
1052.6686702322
 30
0.0
 11
632.633983849
 21
1052.1403495621
 31
0.0
  0
LINE
  5
AC
  8
0
  6
CONTINUOUS
 62
     7
 10
635.3701499686
 20
1044.6228105974
 30
0.0
 11
636.8216869817
 21
1045.1511238169
 31
0.0
  0
ARC
  5
AD
  8
0
  6
CONTINUOUS
 62
     7
 10
630.8071087656
 20
1047.218708882
 30
0.0
 40
6.500000000000002
 50
343.6416323907
 51
2.1374195081
  0
ARC
  5
AE
  8
0
  6
CONTINUOUS
 62
     7
 10
630.8071087656
 20
1047.218708882
 30
0.0
 40
6.5000000000001
 50
37.8625804919
 51
56.3583676093
  0
ARC
  5
AF
  8
0
  6
CONTINUOUS
 62
     7
 10
603.0848149836
 20
1137.8424035069
 30
0.0
 40
0.3600000000002617
 50
56.3583676093
 51
110.0
  0
ARC
  5
B0
  8
0
  6
CONTINUOUS
 62
     7
 10
605.574721627
 20
1131.0014412276
 30
0.0
 40
0.360000000000087
 50
290.0
 51
343.6416323907
  0
LINE
  5
B1
  8
0
  6
CONTINUOUS
 62
     7
 10
602.9616889939
 20
1138.1806973767
 30
0.0
 11
601.5101519809
 21
1137.6523767065
 31
0.0
  0
LINE
  5
B2
  8
0
  6
CONTINUOUS
 62
     7
 10
604.2463106499
 20
1130.1348302912
 30
0.0
 11
605.6978476629
 21
1130.6631509613
 31
0.0
  0
ARC
  5
B3
  8
0
  6
CONTINUOUS
 62
     7
 10
599.683275723
 20
1132.7307373735
 30
0.0
 40
6.500000000000066
 50
343.6416323907
 51
2.1374195081
  0
ARC
  5
B4
  8
0
  6
CONTINUOUS
 62
     7
 10
599.683275723
 20
1132.7307373735
 30
0.0
 40
6.499999999999932
 50
37.8625804919
 51
56.3583676093
  0
LINE
  5
B5
  8
0
  6
CONTINUOUS
 62
     7
 10
637.1996549353
 20
1106.4076070141
 30
0.0
 11
637.1496466384
 21
1106.4076070141
 31
0.0
  0
LINE
  5
B6
  8
0
  6
CONTINUOUS
 62
     7
 10
582.4948323355
 20
921.4890285328
 30
0.0
 11
582.4948323355
 21
931.4890290078
 31
0.0
  0
LINE
  5
B7
  8
0
  6
CONTINUOUS
 62
     7
 10
416.4948386535
 20
931.4890290078
 30
0.0
 11
416.4948386535
 21
921.4890285328
 31
0.0
  0
LINE
  5
B8
  8
0
  6
CONTINUOUS
 62
     7
 10
544.1423540399
 20
931.4890290078
 30
0.0
 11
544.1423540399
 21
1130.9890244555
 31
0.0
  0
LINE
  5
B9
  8
0
  6
CONTINUOUS
 62
     7
 10
454.8473169491
 20
1130.9890244555
 30
0.0
 11
454.8473169491
 21
931.4890290078
 31
0.0
  0
LINE
  5
BA
  8
0
  6
CONTINUOUS
 62
     7
 10
551.8303064093
 20
931.4890290078
 30
0.0
 11
551.8303064093
 21
1130.9890244555
 31
0.0
  0
LINE
  5
BB
  8
0
  6
CONTINUOUS
 62
     7
 10
447.1593645797
 20
1130.9890244555
 30
0.0
 11
447.1593645797
 21
931.4890290078
 31
0.0
  0
LINE
  5
BC
  8
0
  6
CONTINUOUS
 62
     7
 10
558.9558219001
 20
931.4890290078
 30
0.0
 11
558.9558219001
 21
1130.9890244555
 31
0.0
  0
LINE
  5
BD
  8
0
  6
CONTINUOUS
 62
     7
 10
440.0338490889
 20
1130.9890244555
 30
0.0
 11
440.0338490889
 21
931.4890290078
 31
0.0
  0
LINE
  5
BE
  8
0
  6
CONTINUOUS
 62
     7
 10
565.4408258781
 20
931.4890290078
 30
0.0
 11
565.4408258781
 21
1130.9890244555
 31
0.0
  0
LINE
  5
BF
  8
0
  6
CONTINUOUS
 62
     7
 10
433.5488451109
 20
1130.9890244555
 30
0.0
 11
433.5488451109
 21
931.4890290078
 31
0.0
  0
LINE
  5
C0
  8
0
  6
CONTINUOUS
 62
     7
 10
571.2142658815
 20
931.4890290078
 30
0.0
 11
571.2142658815
 21
1130.9890244555
 31
0.0
  0
LINE
  5
C1
  8
0
  6
CONTINUOUS
 62
     7
 10
427.7754051075
 20
1130.9890244555
 30
0.0
 11
427.7754051075
 21
931.4890290078
 31
0.0
  0
LINE
  5
C2
  8
0
  6
CONTINUOUS
 62
     7
 10
576.2128902063
 20
931.4890290078
 30
0.0
 11
576.2128902063
 21
1130.9890244555
 31
0.0
  0
LINE
  5
C3
  8
0
  6
CONTINUOUS
 62
     7
 10
422.7767807827
 20
1130.9890244555
 30
0.0
 11
422.7767807827
 21
931.4890290078
 31
0.0
  0
LINE
  5
C4
  8
0
  6
CONTINUOUS
 62
     7
 10
580.3819296346
 20
931.4890290078
 30
0.0
 11
580.3819296346
 21
1130.9890244555
 31
0.0
  0
LINE
  5
C5
  8
0
  6
CONTINUOUS
 62
     7
 10
418.6077413545
 20
1130.9890244555
 30
0.0
 11
418.6077413545
 21
931.4890290078
 31
0.0
  0
LINE
  5
C6
  8
0
  6
CONTINUOUS
 62
     7
 10
583.6757121072
 20
931.4890290078
 30
0.0
 11
583.6757121072
 21
1130.9890244555
 31
0.0
  0
LINE
  5
C7
  8
0
  6
CONTINUOUS
 62
     7
 10
415.3139588818
 20
1130.9890244555
 30
0.0
 11
415.3139588818
 21
931.4890290078
 31
0.0
  0
LINE
  5
C8
  8
0
  6
CONTINUOUS
 62
     7
 10
412.9315239773
 20
1130.9890244555
 30
0.0
 11
412.9315239773
 21
931.4890290078
 31
0.0
  0
LINE
  5
C9
  8
0
  6
CONTINUOUS
 62
     7
 10
451.8533123121
 20
853.9890293431
 30
0.0
 11
451.8533123121
 21
854.8335377526
 31
0.0
  0
LINE
  5
CA
  8
0
  6
CONTINUOUS
 62
     7
 10
435.8533096895
 20
854.8335377526
 30
0.0
 11
435.8533096895
 21
853.9890293431
 31
0.0
  0
LINE
  5
CB
  8
0
  6
CONTINUOUS
 62
     7
 10
438.4948348091
 20
658.9890364956
 30
0.0
 11
438.4948348091
 21
633.9890305352
 31
0.0
  0
LINE
  5
CC
  8
0
  6
CONTINUOUS
 62
     7
 10
560.49483618
 20
633.9890305352
 30
0.0
 11
560.49483618
 21
658.9890364956
 31
0.0
  0
LINE
  5
CD
  8
0
  6
CONTINUOUS
 62
     7
 10
438.2796843932
 20
633.9890305352
 30
0.0
 11
438.2796843932
 21
620.9890190911
 31
0.0
  0
ARC
  5
CE
  8
0
  6
CONTINUOUS
 62
     7
 10
440.2796856819
 20
620.9890286278
 30
0.0
 40
2.000000000000057
 50
180.0
 51
270.0
  0
LINE
  5
CF
  8
0
  6
CONTINUOUS
 62
     7
 10
560.7099865959
 20
620.9890190911
 30
0.0
 11
560.7099865959
 21
633.9890305352
 31
0.0
  0
ARC
  5
D0
  8
0
  6
CONTINUOUS
 62
     7
 10
558.7099853071
 20
620.9890286278
 30
0.0
 40
2.0
 50
270.0
 51
0.0
  0
ARC
  5
D1
  8
0
  6
CONTINUOUS
 62
     7
 10
458.4948354945
 20
613.9890286278
 30
0.0
 40
5.0
 50
0.0
 51
88.7767696191
  0
ARC
  5
D2
  8
0
  6
CONTINUOUS
 62
     7
 10
540.4948354945
 20
613.9890286278
 30
0.0
 40
5.0
 50
91.2232303809
 51
180.0
  0
LINE
  5
D3
  8
0
  6
CONTINUOUS
 62
     7
 10
463.4948370442
 20
613.9890198063
 30
0.0
 11
463.4948370442
 21
595.9890429329
 31
0.0
  0
ARC
  5
D4
  8
0
  6
CONTINUOUS
 62
     7
 10
465.4948354945
 20
595.9890286278
 30
0.0
 40
2.0
 50
180.0
 51
270.0
  0
LINE
  5
D5
  8
0
  6
CONTINUOUS
 62
     7
 10
535.4948339448
 20
595.9890429329
 30
0.0
 11
535.4948339448
 21
613.9890198063
 31
0.0
  0
ARC
  5
D6
  8
0
  6
CONTINUOUS
 62
     7
 10
533.4948354945
 20
595.9890286278
 30
0.0
 40
2.000000000000114
 50
270.0
 51
0.0
  0
ARC
  5
D7
  8
0
  6
CONTINUOUS
 62
     7
 10
454.7198447469
 20
613.9890286278
 30
0.0
 40
5.0
 50
0.0
 51
52.9172607814
  0
ARC
  5
D8
  8
0
  6
CONTINUOUS
 62
     7
 10
544.2698262421
 20
613.9890286278
 30
0.0
 40
5.0
 50
140.8779358329
 51
180.0
  0
LINE
  5
D9
  8
0
  6
CONTINUOUS
 62
     7
 10
459.7198439226
 20
613.9890198063
 30
0.0
 11
459.7198439226
 21
595.9890429329
 31
0.0
  0
ARC
  5
DA
  8
0
  6
CONTINUOUS
 62
     7
 10
461.7198447469
 20
595.9890286278
 30
0.0
 40
2.0
 50
180.0
 51
270.0
  0
LINE
  5
DB
  8
0
  6
CONTINUOUS
 62
     7
 10
539.2698270664
 20
595.9890429329
 30
0.0
 11
539.2698270664
 21
613.9890198063
 31
0.0
  0
ARC
  5
DC
  8
0
  6
CONTINUOUS
 62
     7
 10
537.2698262421
 20
595.9890286278
 30
0.0
 40
2.0
 50
270.0
 51
0.0
  0
LINE
  5
DD
  8
0
  6
CONTINUOUS
 62
     7
 10
560.49483618
 20
695.4890285086
 30
0.0
 11
560.49483618
 21
731.9890354228
 31
0.0
  0
LINE
  5
DE
  8
0
  6
CONTINUOUS
 62
     7
 10
438.4948348091
 20
731.9890354228
 30
0.0
 11
438.4948348091
 21
695.4890285086
 31
0.0
  0
LINE
  5
DF
  8
0
  6
CONTINUOUS
 62
     7
 10
560.49483618
 20
658.9890364956
 30
0.0
 11
560.49483618
 21
695.4890285086
 31
0.0
  0
LINE
  5
E0
  8
0
  6
CONTINUOUS
 62
     7
 10
438.4948348091
 20
695.4890285086
 30
0.0
 11
438.4948348091
 21
658.9890364956
 31
0.0
  0
LINE
  5
E1
  8
0
  6
CONTINUOUS
 62
     7
 10
560.49483618
 20
731.9890354228
 30
0.0
 11
560.49483618
 21
768.4890274357
 31
0.0
  0
LINE
  5
E2
  8
0
  6
CONTINUOUS
 62
     7
 10
438.4948348091
 20
768.4890274357
 30
0.0
 11
438.4948348091
 21
731.9890354228
 31
0.0
  0
LINE
  5
E3
  8
0
  6
CONTINUOUS
 62
     7
 10
584.4948363886
 20
858.9890320253
 30
0.0
 11
584.4948363886
 21
921.4890285328
 31
0.0
  0
LINE
  5
E4
  8
0
  6
CONTINUOUS
 62
     7
 10
414.4948346004
 20
921.4890285328
 30
0.0
 11
414.4948346004
 21
871.9890285682
 31
0.0
  0
LINE
  5
E5
  8
0
  6
CONTINUOUS
 62
     7
 10
414.4948346004
 20
841.9890273761
 30
0.0
 11
414.4948346004
 21
838.989028747
 31
0.0
  0
LINE
  5
E6
  8
0
  6
CONTINUOUS
 62
     7
 10
584.4948363886
 20
838.989028747
 30
0.0
 11
584.4948363886
 21
841.9890273761
 31
0.0
  0
LINE
  5
E7
  8
0
  6
CONTINUOUS
 62
     7
 10
468.4948360011
 20
793.175915296
 30
0.0
 11
468.4948360011
 21
789.7898499321
 31
0.0
  0
LINE
  5
E8
  8
0
  6
CONTINUOUS
 62
     7
 10
530.4948349879
 20
789.79649585
 30
0.0
 11
530.4948349879
 21
793.175915296
 31
0.0
  0
ARC
  5
E9
  8
0
  6
CONTINUOUS
 62
     7
 10
589.4948354945
 20
858.9890286278
 30
0.0
 40
5.0
 50
180.0
 51
270.0
  0
ARC
  5
EA
  8
0
  6
CONTINUOUS
 62
     7
 10
440.2796856819
 20
784.4890286278
 30
0.0
 40
1.999999999999943
 50
90.0
 51
180.0
  0
LINE
  5
EB
  8
0
  6
CONTINUOUS
 62
     7
 10
438.2796843932
 20
784.4890300583
 30
0.0
 11
438.2796843932
 21
773.4890226674
 31
0.0
  0
ARC
  5
EC
  8
0
  6
CONTINUOUS
 62
     7
 10
440.2796856819
 20
773.4890286278
 30
0.0
 40
2.0
 50
180.0
 51
270.0
  0
ARC
  5
ED
  8
0
  6
CONTINUOUS
 62
     7
 10
558.7099853071
 20
784.4890286278
 30
0.0
 40
2.0
 50
0.0
 51
90.0
  0
LINE
  5
EE
  8
0
  6
CONTINUOUS
 62
     7
 10
560.7099865959
 20
773.4890226674
 30
0.0
 11
560.7099865959
 21
784.4890300583
 31
0.0
  0
ARC
  5
EF
  8
0
  6
CONTINUOUS
 62
     7
 10
558.7099853071
 20
773.4890286278
 30
0.0
 40
2.0
 50
270.0
 51
0.0
  0
ARC
  5
F0
  8
0
  6
CONTINUOUS
 62
     7
 10
440.4948354945
 20
794.4890286278
 30
0.0
 40
2.000000000000114
 50
90.0
 51
180.0
  0
LINE
  5
F1
  8
0
  6
CONTINUOUS
 62
     7
 10
438.4948348091
 20
794.4890354228
 30
0.0
 11
438.4948348091
 21
785.3914145779
 31
0.0
  0
LINE
  5
F2
  8
0
  6
CONTINUOUS
 62
     7
 10
438.4948348091
 20
772.5866381478
 30
0.0
 11
438.4948348091
 21
768.4890274357
 31
0.0
  0
ARC
  5
F3
  8
0
  6
CONTINUOUS
 62
     7
 10
558.4948354945
 20
794.4890286278
 30
0.0
 40
2.000000000000114
 50
0.0
 51
90.0
  0
LINE
  5
F4
  8
0
  6
CONTINUOUS
 62
     7
 10
560.49483618
 20
768.4890274357
 30
0.0
 11
560.49483618
 21
772.5866381478
 31
0.0
  0
LINE
  5
F5
  8
0
  6
CONTINUOUS
 62
     7
 10
560.49483618
 20
785.3914145779
 30
0.0
 11
560.49483618
 21
794.4890354228
 31
0.0
  0
POLYLINE
  5
F6
  8
0
  6
CONTINUOUS
 62
     7
 66
     1
 10
0.0
 20
0.0
 30
0.0
 70
   128
  0
VERTEX
  5
5A7
  8
0
  6
CONTINUOUS
 62
     7
 10
552.4367501423
 20
786.5170780968
 30
0.0
  0
VERTEX
  5
5A8
  8
0
  6
CONTINUOUS
 62
     7
 10
552.0248894975
 20
786.54778939
 30
0.0
  0
VERTEX
  5
5A9
  8
0
  6
CONTINUOUS
 62
     7
 10
551.6422500298
 20
786.7080662798
 30
0.0
  0
SEQEND
  5
A67
  8
0
  6
CONTINUOUS
 62
     7
  0
ARC
  5
F7
  8
0
  6
CONTINUOUS
 62
     7
 10
446.6438893389
 20
787.8306281332
 30
0.0
 40
1.333928732533458
 50
263.0509479138
 51
305.4067608073
  0
ARC
  5
F8
  8
0
  6
CONTINUOUS
 62
     7
 10
542.759079668
 20
798.0183516628
 30
0.0
 40
1.574450322158066
 50
216.5848294934
 51
256.638241011
  0
ARC
  5
F9
  8
0
  6
CONTINUOUS
 62
     7
 10
456.2525509062
 20
797.9771955296
 30
0.0
 40
1.529422098116201
 50
283.0537848082
 51
324.3171228797
  0
LINE
  5
FA
  8
0
  6
CONTINUOUS
 62
     7
 10
569.0984053001
 20
1150.9890351843
 30
0.0
 11
568.2963279471
 21
1150.9890351843
 31
0.0
  0
LINE
  5
FB
  8
0
  6
CONTINUOUS
 62
     7
 10
568.2963279471
 20
1141.9890318465
 30
0.0
 11
569.0984053001
 21
1141.9890318465
 31
0.0
  0
ARC
  5
FC
  8
0
  6
CONTINUOUS
 62
     7
 10
408.794400406
 20
1146.4890286278
 30
0.0
 40
6.499999999999998
 50
139.8659595536
 51
175.4556482924
  0
ARC
  5
FD
  8
0
  6
CONTINUOUS
 62
     7
 10
408.794400406
 20
1146.4890286278
 30
0.0
 40
6.49999999999998
 50
184.5443517076
 51
220.1340404464
  0
POLYLINE
  5
FE
  8
0
  6
CONTINUOUS
 62
     7
 66
     1
 10
0.0
 20
0.0
 30
0.0
 70
   128
  0
VERTEX
  5
5AA
  8
0
  6
CONTINUOUS
 62
     7
 10
404.3559504137
 20
1150.9628538441
 30
0.0
  0
VERTEX
  5
5AB
  8
0
  6
CONTINUOUS
 62
     7
 10
404.0034783468
 20
1150.8478764843
 30
0.0
  0
VERTEX
  5
5AC
  8
0
  6
CONTINUOUS
 62
     7
 10
403.7728605256
 20
1150.5932454419
 30
0.0
  0
SEQEND
  5
A68
  8
0
  6
CONTINUOUS
 62
     7
  0
POLYLINE
  5
FF
  8
0
  6
CONTINUOUS
 62
     7
 66
     1
 10
0.0
 20
0.0
 30
0.0
 70
   128
  0
VERTEX
  5
5AD
  8
0
  6
CONTINUOUS
 62
     7
 10
403.4544897661
 20
1143.0126224112
 30
0.0
  0
VERTEX
  5
5AE
  8
0
  6
CONTINUOUS
 62
     7
 10
403.4774748072
 20
1142.9326329779
 30
0.0
  0
VERTEX
  5
5AF
  8
0
  6
CONTINUOUS
 62
     7
 10
403.8035345659
 20
1142.32529145
 30
0.0
  0
VERTEX
  5
5B0
  8
0
  6
CONTINUOUS
 62
     7
 10
404.1467977152
 20
1142.0467887473
 30
0.0
  0
VERTEX
  5
5B1
  8
0
  6
CONTINUOUS
 62
     7
 10
404.4069794402
 20
1142.0253310751
 30
0.0
  0
SEQEND
  5
A69
  8
0
  6
CONTINUOUS
 62
     7
  0
LINE
  5
100
  8
0
  6
CONTINUOUS
 62
     7
 10
404.414586483
 20
1141.9890318465
 30
0.0
 11
405.5102539644
 21
1141.9890318465
 31
0.0
  0
LINE
  5
101
  8
0
  6
CONTINUOUS
 62
     7
 10
405.5102539644
 20
1150.9890351843
 30
0.0
 11
404.414586483
 21
1150.9890351843
 31
0.0
  0
LINE
  5
102
  8
0
  6
CONTINUOUS
 62
     7
 10
486.9948353082
 20
1191.0390202355
 30
0.0
 11
511.9948356808
 21
1191.0390202355
 31
0.0
  0
LINE
  5
103
  8
0
  6
CONTINUOUS
 62
     7
 10
490.4948358819
 20
1191.0890285325
 30
0.0
 11
508.4948351071
 21
1191.0890285325
 31
0.0
  0
LINE
  5
104
  8
0
  6
CONTINUOUS
 62
     7
 10
489.9685557396
 20
1191.0890285325
 30
0.0
 11
489.9685557396
 21
1191.0390202355
 31
0.0
  0
LINE
  5
105
  8
0
  6
CONTINUOUS
 62
     7
 10
489.9685557396
 20
1191.0890285325
 30
0.0
 11
490.4948358819
 21
1191.0890285325
 31
0.0
  0
LINE
  5
106
  8
0
  6
CONTINUOUS
 62
     7
 10
458.5988630936
 20
617.1438936543
 30
0.0
 11
458.5988630936
 21
612.6890425038
 31
0.0
  0
LINE
  5
107
  8
0
  6
CONTINUOUS
 62
     7
 10
457.734681426
 20
612.6890425038
 30
0.0
 11
458.5988630936
 21
612.6890425038
 31
0.0
  0
LINE
  5
108
  8
0
  6
CONTINUOUS
 62
     7
 10
444.2242865846
 20
617.9890279126
 30
0.0
 11
444.2242865846
 21
612.6890425038
 31
0.0
  0
LINE
  5
109
  8
0
  6
CONTINUOUS
 62
     7
 10
444.2242865846
 20
612.6890425038
 30
0.0
 11
445.0884645269
 21
612.6890425038
 31
0.0
  0
LINE
  5
10A
  8
0
  6
CONTINUOUS
 62
     7
 10
543.8134369836
 20
617.9890279126
 30
0.0
 11
551.0007252381
 21
617.9890279126
 31
0.0
  0
LINE
  5
10B
  8
0
  6
CONTINUOUS
 62
     7
 10
540.3880958841
 20
617.9890279126
 30
0.0
 11
543.8134369836
 21
617.9890279126
 31
0.0
  0
LINE
  5
10C
  8
0
  6
CONTINUOUS
 62
     7
 10
554.7653844044
 20
617.9890279126
 30
0.0
 11
554.7680964157
 21
617.9890279126
 31
0.0
  0
LINE
  5
10D
  8
0
  6
CONTINUOUS
 62
     7
 10
551.0007252381
 20
617.9890279126
 30
0.0
 11
554.7653844044
 21
617.9890279126
 31
0.0
  0
LINE
  5
10E
  8
0
  6
CONTINUOUS
 62
     7
 10
543.8134369836
 20
617.9890279126
 30
0.0
 11
543.8134369836
 21
612.6890425038
 31
0.0
  0
LINE
  5
10F
  8
0
  6
CONTINUOUS
 62
     7
 10
551.0007252381
 20
617.9890279126
 30
0.0
 11
551.0007252381
 21
612.6890425038
 31
0.0
  0
LINE
  5
110
  8
0
  6
CONTINUOUS
 62
     7
 10
543.8134369836
 20
612.6890425038
 30
0.0
 11
551.0007252381
 21
612.6890425038
 31
0.0
  0
LINE
  5
111
  8
0
  6
CONTINUOUS
 62
     7
 10
554.7653844044
 20
617.9890279126
 30
0.0
 11
554.7653844044
 21
612.6890425038
 31
0.0
  0
LINE
  5
112
  8
0
  6
CONTINUOUS
 62
     7
 10
551.0007252381
 20
612.6890425038
 30
0.0
 11
554.7653844044
 21
612.6890425038
 31
0.0
  0
LINE
  5
113
  8
0
  6
CONTINUOUS
 62
     7
 10
540.3908078954
 20
617.9890279126
 30
0.0
 11
540.3908078954
 21
612.6890425038
 31
0.0
  0
LINE
  5
114
  8
0
  6
CONTINUOUS
 62
     7
 10
540.3908078954
 20
612.6890425038
 30
0.0
 11
543.8134369836
 21
612.6890425038
 31
0.0
  0
LINE
  5
115
  8
0
  6
CONTINUOUS
 62
     7
 10
549.4822037802
 20
787.9890297007
 30
0.0
 11
551.5780968056
 21
787.9890297007
 31
0.0
  0
LINE
  5
116
  8
0
  6
CONTINUOUS
 62
     7
 10
543.5780954943
 20
787.9890297007
 30
0.0
 11
549.4822037802
 21
787.9890297007
 31
0.0
  0
LINE
  5
117
  8
0
  6
CONTINUOUS
 62
     7
 10
451.214104651
 20
617.9890279126
 30
0.0
 11
457.5372149632
 21
617.9890279126
 31
0.0
  0
LINE
  5
118
  8
0
  6
CONTINUOUS
 62
     7
 10
445.0884645269
 20
617.9890279126
 30
0.0
 11
451.214104651
 21
617.9890279126
 31
0.0
  0
LINE
  5
119
  8
0
  6
CONTINUOUS
 62
     7
 10
444.2215745733
 20
617.9890279126
 30
0.0
 11
445.0884645269
 21
617.9890279126
 31
0.0
  0
LINE
  5
11A
  8
0
  6
CONTINUOUS
 62
     7
 10
457.5372149632
 20
617.9890279126
 30
0.0
 11
458.6015751049
 21
617.9890279126
 31
0.0
  0
LINE
  5
11B
  8
0
  6
CONTINUOUS
 62
     7
 10
451.214104651
 20
617.9890279126
 30
0.0
 11
451.214104651
 21
612.6890425038
 31
0.0
  0
LINE
  5
11C
  8
0
  6
CONTINUOUS
 62
     7
 10
457.5372149632
 20
617.9890279126
 30
0.0
 11
457.5372149632
 21
612.6890425038
 31
0.0
  0
LINE
  5
11D
  8
0
  6
CONTINUOUS
 62
     7
 10
451.214104651
 20
612.6890425038
 30
0.0
 11
457.5372149632
 21
612.6890425038
 31
0.0
  0
LINE
  5
11E
  8
0
  6
CONTINUOUS
 62
     7
 10
445.0884645269
 20
617.9890279126
 30
0.0
 11
445.0884645269
 21
612.6890425038
 31
0.0
  0
LINE
  5
11F
  8
0
  6
CONTINUOUS
 62
     7
 10
445.0884645269
 20
612.6890425038
 30
0.0
 11
451.214104651
 21
612.6890425038
 31
0.0
  0
LINE
  5
120
  8
0
  6
CONTINUOUS
 62
     7
 10
454.8194406018
 20
787.9890297007
 30
0.0
 11
455.4115754948
 21
787.9890297007
 31
0.0
  0
LINE
  5
121
  8
0
  6
CONTINUOUS
 62
     7
 10
447.4115741834
 20
787.9890297007
 30
0.0
 11
454.8194406018
 21
787.9890297007
 31
0.0
  0
LINE
  5
122
  8
0
  6
CONTINUOUS
 62
     7
 10
457.734681426
 20
617.9890279126
 30
0.0
 11
457.734681426
 21
612.6890425038
 31
0.0
  0
LINE
  5
123
  8
0
  6
CONTINUOUS
 62
     7
 10
457.5372149632
 20
612.6890425038
 30
0.0
 11
457.734681426
 21
612.6890425038
 31
0.0
  0
LINE
  5
124
  8
0
  6
CONTINUOUS
 62
     7
 10
568.7593442783
 20
1157.9771135401
 30
0.0
 11
569.0600124583
 21
1157.9575185132
 31
0.0
  0
POLYLINE
  5
125
  8
0
  6
CONTINUOUS
 62
     7
 66
     1
 10
0.0
 20
0.0
 30
0.0
 70
   128
  0
VERTEX
  5
5B2
  8
0
  6
CONTINUOUS
 62
     7
 10
561.2545942352
 20
1157.9771135401
 30
0.0
  0
VERTEX
  5
5B3
  8
0
  6
CONTINUOUS
 62
     7
 10
565.1143414364
 20
1157.9639707159
 30
0.0
  0
VERTEX
  5
5B4
  8
0
  6
CONTINUOUS
 62
     7
 10
568.7593442783
 20
1157.9771135401
 30
0.0
  0
SEQEND
  5
A6A
  8
0
  6
CONTINUOUS
 62
     7
  0
LINE
  5
126
  8
0
  6
CONTINUOUS
 62
     7
 10
560.915734379
 20
1157.9575185132
 30
0.0
 11
561.2545942352
 21
1157.9771135401
 31
0.0
  0
ARC
  5
127
  8
0
  6
CONTINUOUS
 62
     7
 10
561.5996705683
 20
1152.9685949303
 30
0.0
 40
5.035586085749213
 50
97.8060723348
 51
179.7675500062
  0
LINE
  5
128
  8
0
  6
CONTINUOUS
 62
     7
 10
556.5641259239
 20
1130.9890244555
 30
0.0
 11
556.5641259239
 21
1152.9890243363
 31
0.0
  0
LINE
  5
129
  8
0
  6
CONTINUOUS
 62
     7
 10
413.4826657758
 20
1152.9890243363
 30
0.0
 11
413.4826657758
 21
1130.9890244555
 31
0.0
  0
POLYLINE
  5
12A
  8
0
  6
CONTINUOUS
 62
     7
 66
     1
 10
0.0
 20
0.0
 30
0.0
 70
   128
  0
VERTEX
  5
5B5
  8
0
  6
CONTINUOUS
 62
     7
 10
411.5201902971
 20
1157.9575185132
 30
0.0
  0
VERTEX
  5
5B6
  8
0
  6
CONTINUOUS
 62
     7
 10
411.907285212
 20
1157.7537302327
 30
0.0
  0
VERTEX
  5
5B7
  8
0
  6
CONTINUOUS
 62
     7
 10
412.648997961
 20
1156.8062846016
 30
0.0
  0
VERTEX
  5
5B8
  8
0
  6
CONTINUOUS
 62
     7
 10
413.1424350128
 20
1155.5483434748
 30
0.0
  0
VERTEX
  5
5B9
  8
0
  6
CONTINUOUS
 62
     7
 10
413.3902562246
 20
1154.351050074
 30
0.0
  0
VERTEX
  5
5BA
  8
0
  6
CONTINUOUS
 62
     7
 10
413.4826657758
 20
1152.9890243363
 30
0.0
  0
SEQEND
  5
A6B
  8
0
  6
CONTINUOUS
 62
     7
  0
LINE
  5
12B
  8
0
  6
CONTINUOUS
 62
     7
 10
411.3770571933
 20
1157.9771135401
 30
0.0
 11
411.5201902971
 21
1157.9575185132
 31
0.0
  0
POLYLINE
  5
12C
  8
0
  6
CONTINUOUS
 62
     7
 66
     1
 10
0.0
 20
0.0
 30
0.0
 70
   128
  0
VERTEX
  5
5BB
  8
0
  6
CONTINUOUS
 62
     7
 10
408.6301324353
 20
1157.9771135401
 30
0.0
  0
VERTEX
  5
5BC
  8
0
  6
CONTINUOUS
 62
     7
 10
409.8569152341
 20
1157.9639707159
 30
0.0
  0
VERTEX
  5
5BD
  8
0
  6
CONTINUOUS
 62
     7
 10
411.3770571933
 20
1157.9771135401
 30
0.0
  0
SEQEND
  5
A6C
  8
0
  6
CONTINUOUS
 62
     7
  0
LINE
  5
12D
  8
0
  6
CONTINUOUS
 62
     7
 10
408.5391757474
 20
1157.9575185132
 30
0.0
 11
408.6301324353
 21
1157.9771135401
 31
0.0
  0
LINE
  5
12E
  8
0
  6
CONTINUOUS
 62
     7
 10
573.00824648
 20
1130.9890244555
 30
0.0
 11
592.2948343143
 21
1130.9890244555
 31
0.0
  0
LINE
  5
12F
  8
0
  6
CONTINUOUS
 62
     7
 10
413.4826657758
 20
1130.9890244555
 30
0.0
 11
556.5641259239
 21
1130.9890244555
 31
0.0
  0
LINE
  5
130
  8
0
  6
CONTINUOUS
 62
     7
 10
427.7948362217
 20
1190.9890417408
 30
0.0
 11
571.1948347673
 21
1190.9890417408
 31
0.0
  0
ARC
  5
131
  8
0
  6
CONTINUOUS
 62
     7
 10
562.8896145196
 20
1157.8506665675
 30
0.0
 40
1.976770130165524
 50
176.9014349942
 51
252.0493656972
  0
POLYLINE
  5
132
  8
0
  6
CONTINUOUS
 62
     7
 66
     1
 10
0.0
 20
0.0
 30
0.0
 70
   128
  0
VERTEX
  5
5BE
  8
0
  6
CONTINUOUS
 62
     7
 10
562.2803789959
 20
1155.9701208424
 30
0.0
  0
VERTEX
  5
5BF
  8
0
  6
CONTINUOUS
 62
     7
 10
561.4310463354
 20
1155.8478568148
 30
0.0
  0
VERTEX
  5
5C0
  8
0
  6
CONTINUOUS
 62
     7
 10
559.8571484372
 20
1155.2793775153
 30
0.0
  0
VERTEX
  5
5C1
  8
0
  6
CONTINUOUS
 62
     7
 10
558.843906729
 20
1154.5246187996
 30
0.0
  0
VERTEX
  5
5C2
  8
0
  6
CONTINUOUS
 62
     7
 10
558.3440845296
 20
1153.8062338185
 30
0.0
  0
VERTEX
  5
5C3
  8
0
  6
CONTINUOUS
 62
     7
 10
558.1740511045
 20
1153.2227788519
 30
0.0
  0
VERTEX
  5
5C4
  8
0
  6
CONTINUOUS
 62
     7
 10
558.1591499433
 20
1152.9890243363
 30
0.0
  0
SEQEND
  5
A6D
  8
0
  6
CONTINUOUS
 62
     7
  0
LINE
  5
133
  8
0
  6
CONTINUOUS
 62
     7
 10
556.5641259239
 20
1152.9890243363
 30
0.0
 11
558.1591499433
 21
1152.9890243363
 31
0.0
  0
LINE
  5
134
  8
0
  6
CONTINUOUS
 62
     7
 10
561.7941354797
 20
1152.9890243363
 30
0.0
 11
558.1591499433
 21
1152.9890243363
 31
0.0
  0
ARC
  5
135
  8
0
  6
CONTINUOUS
 62
     7
 10
567.3934790491
 20
1153.6059248823
 30
0.0
 40
5.633224182708971
 50
155.1851158713
 51
186.2871330877
  0
LINE
  5
136
  8
0
  6
CONTINUOUS
 62
     7
 10
561.7941354797
 20
1130.9890244555
 30
0.0
 11
561.7941354797
 21
1152.9890243363
 31
0.0
  0
LINE
  5
137
  8
0
  6
CONTINUOUS
 62
     7
 10
558.1591499433
 20
1152.9890243363
 30
0.0
 11
558.1591499433
 21
1130.9890244555
 31
0.0
  0
LINE
  5
138
  8
0
  6
CONTINUOUS
 62
     7
 10
561.7941354797
 20
1130.9890244555
 30
0.0
 11
558.1591499433
 21
1130.9890244555
 31
0.0
  0
LINE
  5
139
  8
0
  6
CONTINUOUS
 62
     7
 10
561.7941354797
 20
1152.9890243363
 30
0.0
 11
564.4630787358
 21
1152.9890243363
 31
0.0
  0
LINE
  5
13A
  8
0
  6
CONTINUOUS
 62
     7
 10
562.4880788312
 20
1155.9818778586
 30
0.0
 11
562.2803789959
 21
1155.9701208424
 31
0.0
  0
ARC
  5
13B
  8
0
  6
CONTINUOUS
 62
     7
 10
561.7238651898
 20
1153.329486011
 30
0.0
 40
2.760290746062405
 50
352.9149419531
 51
73.9271210831
  0
LINE
  5
13C
  8
0
  6
CONTINUOUS
 62
     7
 10
564.4630787358
 20
1152.9890243363
 30
0.0
 11
564.4630787358
 21
1130.9890244555
 31
0.0
  0
LINE
  5
13D
  8
0
  6
CONTINUOUS
 62
     7
 10
564.4630787358
 20
1130.9890244555
 30
0.0
 11
561.7941354797
 21
1130.9890244555
 31
0.0
  0
LINE
  5
13E
  8
0
  6
CONTINUOUS
 62
     7
 10
558.1591499433
 20
1130.9890244555
 30
0.0
 11
556.5641259239
 21
1130.9890244555
 31
0.0
  0
LINE
  5
13F
  8
0
  6
CONTINUOUS
 62
     7
 10
572.1295697079
 20
1152.9890243363
 30
0.0
 11
564.4630787358
 21
1152.9890243363
 31
0.0
  0
LINE
  5
140
  8
0
  6
CONTINUOUS
 62
     7
 10
572.1295697079
 20
1130.9890244555
 30
0.0
 11
564.4630787358
 21
1130.9890244555
 31
0.0
  0
POLYLINE
  5
141
  8
0
  6
CONTINUOUS
 62
     7
 66
     1
 10
0.0
 20
0.0
 30
0.0
 70
   128
  0
VERTEX
  5
5C5
  8
0
  6
CONTINUOUS
 62
     7
 10
570.1545698032
 20
1155.9818778586
 30
0.0
  0
VERTEX
  5
5C6
  8
0
  6
CONTINUOUS
 62
     7
 10
566.3871390209
 20
1155.9739951443
 30
0.0
  0
VERTEX
  5
5C7
  8
0
  6
CONTINUOUS
 62
     7
 10
562.4880788312
 20
1155.9818778586
 30
0.0
  0
SEQEND
  5
A6E
  8
0
  6
CONTINUOUS
 62
     7
  0
ARC
  5
142
  8
0
  6
CONTINUOUS
 62
     7
 10
569.390349251
 20
1153.3294814505
 30
0.0
 40
2.760297041631644
 50
352.9150535864
 51
73.9270094498
  0
ARC
  5
143
  8
0
  6
CONTINUOUS
 62
     7
 10
563.0661392424
 20
1157.7181406378
 30
0.0
 40
1.829962370489663
 50
171.8642950133
 51
251.5856606266
  0
ARC
  5
144
  8
0
  6
CONTINUOUS
 62
     7
 10
570.6040365586
 20
1157.7816238074
 30
0.0
 40
1.855021790864163
 50
173.9507055014
 51
255.9778318796
  0
LINE
  5
145
  8
0
  6
CONTINUOUS
 62
     7
 10
570.2825484261
 20
1155.9737120223
 30
0.0
 11
570.1545698032
 21
1155.9818778586
 31
0.0
  0
LINE
  5
146
  8
0
  6
CONTINUOUS
 62
     7
 10
573.00824648
 20
1130.9890244555
 30
0.0
 11
572.1295697079
 21
1130.9890244555
 31
0.0
  0
ARC
  5
147
  8
0
  6
CONTINUOUS
 62
     7
 10
409.2557167016
 20
1152.9622183086
 30
0.0
 40
3.04038347226071
 50
0.5051639592
 51
81.6174697521
  0
ARC
  5
148
  8
0
  6
CONTINUOUS
 62
     7
 10
409.4989716032
 20
1157.9815662765
 30
0.0
 40
2.021361744800075
 50
275.6776468655
 51
359.3183467261
  0
LINE
  5
149
  8
0
  6
CONTINUOUS
 62
     7
 10
412.2959820018
 20
1152.9890243363
 30
0.0
 11
413.4826657758
 21
1152.9890243363
 31
0.0
  0
ARC
  5
14A
  8
0
  6
CONTINUOUS
 62
     7
 10
412.3531945763
 20
1153.5562100828
 30
0.0
 40
3.587755553883839
 50
137.7149746562
 51
189.0960094426
  0
LINE
  5
14B
  8
0
  6
CONTINUOUS
 62
     7
 10
412.2959820018
 20
1152.9890243363
 30
0.0
 11
408.810555695
 21
1152.9890243363
 31
0.0
  0
LINE
  5
14C
  8
0
  6
CONTINUOUS
 62
     7
 10
412.2959820018
 20
1130.9890244555
 30
0.0
 11
412.2959820018
 21
1152.9890243363
 31
0.0
  0
LINE
  5
14D
  8
0
  6
CONTINUOUS
 62
     7
 10
413.4826657758
 20
1130.9890244555
 30
0.0
 11
412.2959820018
 21
1130.9890244555
 31
0.0
  0
LINE
  5
14E
  8
0
  6
CONTINUOUS
 62
     7
 10
408.810555695
 20
1152.9890243363
 30
0.0
 11
408.810555695
 21
1130.9890244555
 31
0.0
  0
LINE
  5
14F
  8
0
  6
CONTINUOUS
 62
     7
 10
412.2959820018
 20
1130.9890244555
 30
0.0
 11
408.810555695
 21
1130.9890244555
 31
0.0
  0
LINE
  5
150
  8
0
  6
CONTINUOUS
 62
     7
 10
406.9133175001
 20
1152.9890243363
 30
0.0
 11
408.810555695
 21
1152.9890243363
 31
0.0
  0
ARC
  5
151
  8
0
  6
CONTINUOUS
 62
     7
 10
409.8716826101
 20
1153.0346480505
 30
0.0
 40
2.958716892088917
 50
95.0504657994
 51
180.8835417422
  0
LINE
  5
152
  8
0
  6
CONTINUOUS
 62
     7
 10
409.6989480243
 20
1155.9701208424
 30
0.0
 11
409.6112174377
 21
1155.9818778586
 31
0.0
  0
LINE
  5
153
  8
0
  6
CONTINUOUS
 62
     7
 10
406.9133175001
 20
1130.9890244555
 30
0.0
 11
406.9133175001
 21
1152.9890243363
 31
0.0
  0
LINE
  5
154
  8
0
  6
CONTINUOUS
 62
     7
 10
408.810555695
 20
1130.9890244555
 30
0.0
 11
406.9133175001
 21
1130.9890244555
 31
0.0
  0
LINE
  5
155
  8
0
  6
CONTINUOUS
 62
     7
 10
406.9133175001
 20
1152.9890243363
 30
0.0
 11
404.1071904287
 21
1152.9890243363
 31
0.0
  0
ARC
  5
156
  8
0
  6
CONTINUOUS
 62
     7
 10
407.0655467837
 20
1153.0346559428
 30
0.0
 40
2.958708259777485
 50
95.0503103691
 51
180.8836971724
  0
POLYLINE
  5
157
  8
0
  6
CONTINUOUS
 62
     7
 66
     1
 10
0.0
 20
0.0
 30
0.0
 70
   128
  0
VERTEX
  5
5C8
  8
0
  6
CONTINUOUS
 62
     7
 10
409.6112174377
 20
1155.9818778586
 30
0.0
  0
VERTEX
  5
5C9
  8
0
  6
CONTINUOUS
 62
     7
 10
408.1182551966
 20
1155.9739951443
 30
0.0
  0
VERTEX
  5
5CA
  8
0
  6
CONTINUOUS
 62
     7
 10
406.8050903663
 20
1155.9818778586
 30
0.0
  0
SEQEND
  5
A6F
  8
0
  6
CONTINUOUS
 62
     7
  0
ARC
  5
158
  8
0
  6
CONTINUOUS
 62
     7
 10
409.4205927315
 20
1157.9296128826
 30
0.0
 40
1.957041006834071
 50
275.5897326211
 51
1.3908009497
  0
LINE
  5
159
  8
0
  6
CONTINUOUS
 62
     7
 10
406.9133175001
 20
1130.9890244555
 30
0.0
 11
404.1071904287
 21
1130.9890244555
 31
0.0
  0
ARC
  5
15A
  8
0
  6
CONTINUOUS
 62
     7
 10
406.6453558326
 20
1157.9602878628
 30
0.0
 40
1.984847920124745
 50
274.6159821338
 51
0.4857056477
  0
POLYLINE
  5
15B
  8
0
  6
CONTINUOUS
 62
     7
 66
     1
 10
0.0
 20
0.0
 30
0.0
 70
   128
  0
VERTEX
  5
5CB
  8
0
  6
CONTINUOUS
 62
     7
 10
406.7493451223
 20
1155.9701208424
 30
0.0
  0
VERTEX
  5
5CC
  8
0
  6
CONTINUOUS
 62
     7
 10
407.1108249411
 20
1156.0307089638
 30
0.0
  0
VERTEX
  5
5CD
  8
0
  6
CONTINUOUS
 62
     7
 10
407.3646066174
 20
1156.1183277916
 30
0.0
  0
SEQEND
  5
A70
  8
0
  6
CONTINUOUS
 62
     7
  0
LINE
  5
15C
  8
0
  6
CONTINUOUS
 62
     7
 10
404.1071904287
 20
1130.9890244555
 30
0.0
 11
404.0049684629
 21
1130.9890244555
 31
0.0
  0
LINE
  5
15D
  8
0
  6
CONTINUOUS
 62
     7
 10
595.6948322639
 20
1127.989033277
 30
0.0
 11
595.6948322639
 21
1088.989028747
 31
0.0
  0
LINE
  5
15E
  8
0
  6
CONTINUOUS
 62
     7
 10
585.6948343501
 20
1088.989028747
 30
0.0
 11
585.6948343501
 21
1127.989033277
 31
0.0
  0
POLYLINE
  5
15F
  8
0
  6
CONTINUOUS
 62
     7
 66
     1
 10
0.0
 20
0.0
 30
0.0
 70
   128
  0
VERTEX
  5
5CE
  8
0
  6
CONTINUOUS
 62
     7
 10
634.0020594582
 20
1048.3815763545
 30
0.0
  0
VERTEX
  5
5CF
  8
0
  6
CONTINUOUS
 62
     7
 10
634.205966948
 20
1047.8213597488
 30
0.0
  0
VERTEX
  5
5D0
  8
0
  6
CONTINUOUS
 62
     7
 10
634.5956472144
 20
1046.750711317
 30
0.0
  0
VERTEX
  5
5D1
  8
0
  6
CONTINUOUS
 62
     7
 10
634.9325922713
 20
1045.8249617767
 30
0.0
  0
VERTEX
  5
5D2
  8
0
  6
CONTINUOUS
 62
     7
 10
635.1868507848
 20
1045.1263878893
 30
0.0
  0
VERTEX
  5
5D3
  8
0
  6
CONTINUOUS
 62
     7
 10
635.3358474955
 20
1044.7170455408
 30
0.0
  0
VERTEX
  5
5D4
  8
0
  6
CONTINUOUS
 62
     7
 10
635.3701499686
 20
1044.6228105974
 30
0.0
  0
SEQEND
  5
A71
  8
0
  6
CONTINUOUS
 62
     7
  0
ARC
  5
160
  8
0
  6
CONTINUOUS
 62
     7
 10
630.8071087656
 20
1047.218708882
 30
0.0
 40
6.479565957685693
 50
2.1648678204
 51
12.3032352969
  0
ARC
  5
161
  8
0
  6
CONTINUOUS
 62
     7
 10
636.7591554073
 20
1042.7941720902
 30
0.0
 40
4.698492824728815
 50
83.3581943642
 51
83.610404821
  0
ARC
  5
162
  8
0
  6
CONTINUOUS
 62
     7
 10
634.7758228864
 20
1052.2979418158
 30
0.0
 40
1.593722571172211
 50
316.1182175846
 51
316.8613094103
  0
ARC
  5
163
  8
0
  6
CONTINUOUS
 62
     7
 10
630.8071087656
 20
1047.218708882
 30
0.0
 40
6.479565957685699
 50
27.6967647031
 51
37.8351321796
  0
POLYLINE
  5
164
  8
0
  6
CONTINUOUS
 62
     7
 66
     1
 10
0.0
 20
0.0
 30
0.0
 70
   128
  0
VERTEX
  5
5D5
  8
0
  6
CONTINUOUS
 62
     7
 10
636.5442422614
 20
1050.2303634238
 30
0.0
  0
VERTEX
  5
5D6
  8
0
  6
CONTINUOUS
 62
     7
 10
636.5558204636
 20
1050.1985643458
 30
0.0
  0
VERTEX
  5
5D7
  8
0
  6
CONTINUOUS
 62
     7
 10
636.5685013518
 20
1050.1637105298
 30
0.0
  0
VERTEX
  5
5D8
  8
0
  6
CONTINUOUS
 62
     7
 10
636.5822551236
 20
1050.1259509873
 30
0.0
  0
VERTEX
  5
5D9
  8
0
  6
CONTINUOUS
 62
     7
 10
636.5970072732
 20
1050.0854049277
 30
0.0
  0
VERTEX
  5
5DA
  8
0
  6
CONTINUOUS
 62
     7
 10
636.6127130971
 20
1050.0422511649
 30
0.0
  0
VERTEX
  5
5DB
  8
0
  6
CONTINUOUS
 62
     7
 10
636.6293129907
 20
1049.9966536116
 30
0.0
  0
VERTEX
  5
5DC
  8
0
  6
CONTINUOUS
 62
     7
 10
636.6467324481
 20
1049.9487761807
 30
0.0
  0
VERTEX
  5
5DD
  8
0
  6
CONTINUOUS
 62
     7
 10
636.6649118647
 20
1049.8988274884
 30
0.0
  0
SEQEND
  5
A72
  8
0
  6
CONTINUOUS
 62
     7
  0
POLYLINE
  5
165
  8
0
  6
CONTINUOUS
 62
     7
 66
     1
 10
0.0
 20
0.0
 30
0.0
 70
   128
  0
VERTEX
  5
5DE
  8
0
  6
CONTINUOUS
 62
     7
 10
636.6649118647
 20
1049.8988274884
 30
0.0
  0
VERTEX
  5
5DF
  8
0
  6
CONTINUOUS
 62
     7
 10
636.6454062447
 20
1049.8917196345
 30
0.0
  0
VERTEX
  5
5E0
  8
0
  6
CONTINUOUS
 62
     7
 10
636.6229501948
 20
1049.8835537981
 30
0.0
  0
VERTEX
  5
5E1
  8
0
  6
CONTINUOUS
 62
     7
 10
636.5975586161
 20
1049.8743150782
 30
0.0
  0
VERTEX
  5
5E2
  8
0
  6
CONTINUOUS
 62
     7
 10
636.569261311
 20
1049.8640183758
 30
0.0
  0
VERTEX
  5
5E3
  8
0
  6
CONTINUOUS
 62
     7
 10
636.5380433783
 20
1049.8526487898
 30
0.0
  0
VERTEX
  5
5E4
  8
0
  6
CONTINUOUS
 62
     7
 10
636.5039495215
 20
1049.8402361226
 30
0.0
  0
VERTEX
  5
5E5
  8
0
  6
CONTINUOUS
 62
     7
 10
636.4669797406
 20
1049.826780374
 30
0.0
  0
VERTEX
  5
5E6
  8
0
  6
CONTINUOUS
 62
     7
 10
636.4271489367
 20
1049.8122815442
 30
0.0
  0
SEQEND
  5
A73
  8
0
  6
CONTINUOUS
 62
     7
  0
ARC
  5
166
  8
0
  6
CONTINUOUS
 62
     7
 10
629.8778161589
 20
1046.8804680961
 30
0.0
 40
7.175603802354432
 50
15.8843547676
 51
24.1157096863
  0
POLYLINE
  5
167
  8
0
  6
CONTINUOUS
 62
     7
 66
     1
 10
0.0
 20
0.0
 30
0.0
 70
   128
  0
VERTEX
  5
5E7
  8
0
  6
CONTINUOUS
 62
     7
 10
636.7794272885
 20
1048.8444064211
 30
0.0
  0
VERTEX
  5
5E8
  8
0
  6
CONTINUOUS
 62
     7
 10
636.8192580924
 20
1048.858905251
 30
0.0
  0
VERTEX
  5
5E9
  8
0
  6
CONTINUOUS
 62
     7
 10
636.8562278733
 20
1048.8723609995
 30
0.0
  0
VERTEX
  5
5EA
  8
0
  6
CONTINUOUS
 62
     7
 10
636.8903366313
 20
1048.8847736668
 30
0.0
  0
VERTEX
  5
5EB
  8
0
  6
CONTINUOUS
 62
     7
 10
636.9215396628
 20
1048.8961283516
 30
0.0
  0
VERTEX
  5
5EC
  8
0
  6
CONTINUOUS
 62
     7
 10
636.9498369679
 20
1048.906425054
 30
0.0
  0
VERTEX
  5
5ED
  8
0
  6
CONTINUOUS
 62
     7
 10
636.9752285466
 20
1048.915663774
 30
0.0
  0
VERTEX
  5
5EE
  8
0
  6
CONTINUOUS
 62
     7
 10
636.9976845965
 20
1048.9238445115
 30
0.0
  0
VERTEX
  5
5EF
  8
0
  6
CONTINUOUS
 62
     7
 10
637.0171902165
 20
1048.9309374642
 30
0.0
  0
SEQEND
  5
A74
  8
0
  6
CONTINUOUS
 62
     7
  0
POLYLINE
  5
168
  8
0
  6
CONTINUOUS
 62
     7
 66
     1
 10
0.0
 20
0.0
 30
0.0
 70
   128
  0
VERTEX
  5
5F0
  8
0
  6
CONTINUOUS
 62
     7
 10
637.0171902165
 20
1048.9309374642
 30
0.0
  0
VERTEX
  5
5F1
  8
0
  6
CONTINUOUS
 62
     7
 10
637.0353696332
 20
1048.8809887719
 30
0.0
  0
VERTEX
  5
5F2
  8
0
  6
CONTINUOUS
 62
     7
 10
637.0528039918
 20
1048.8331262421
 30
0.0
  0
VERTEX
  5
5F3
  8
0
  6
CONTINUOUS
 62
     7
 10
637.0693889842
 20
1048.7875137877
 30
0.0
  0
VERTEX
  5
5F4
  8
0
  6
CONTINUOUS
 62
     7
 10
637.0851097092
 20
1048.7443600249
 30
0.0
  0
VERTEX
  5
5F5
  8
0
  6
CONTINUOUS
 62
     7
 10
637.0998618588
 20
1048.7038288664
 30
0.0
  0
VERTEX
  5
5F6
  8
0
  6
CONTINUOUS
 62
     7
 10
637.1136007295
 20
1048.6660544228
 30
0.0
  0
VERTEX
  5
5F7
  8
0
  6
CONTINUOUS
 62
     7
 10
637.1262965188
 20
1048.6312006068
 30
0.0
  0
VERTEX
  5
5F8
  8
0
  6
CONTINUOUS
 62
     7
 10
637.1378598199
 20
1048.5994164299
 30
0.0
  0
SEQEND
  5
A75
  8
0
  6
CONTINUOUS
 62
     7
  0
ARC
  5
169
  8
0
  6
CONTINUOUS
 62
     7
 10
599.683275723
 20
1132.7307373735
 30
0.0
 40
6.479565957685685
 50
2.1648678204
 51
12.3032352969
  0
ARC
  5
16A
  8
0
  6
CONTINUOUS
 62
     7
 10
605.6667899353
 20
1128.570907546
 30
0.0
 40
4.43192078793488
 50
83.3665450639
 51
83.6337232332
  0
ARC
  5
16B
  8
0
  6
CONTINUOUS
 62
     7
 10
613.558974388
 20
1128.4052282863
 30
0.0
 40
12.06638368818816
 50
136.4406902171
 51
136.5388367778
  0
ARC
  5
16C
  8
0
  6
CONTINUOUS
 62
     7
 10
599.683275723
 20
1132.7307373735
 30
0.0
 40
6.479565957685635
 50
27.6967647031
 51
37.8351321796
  0
POLYLINE
  5
16D
  8
0
  6
CONTINUOUS
 62
     7
 66
     1
 10
0.0
 20
0.0
 30
0.0
 70
   128
  0
VERTEX
  5
5F9
  8
0
  6
CONTINUOUS
 62
     7
 10
605.4204103932
 20
1135.7423905682
 30
0.0
  0
VERTEX
  5
5FA
  8
0
  6
CONTINUOUS
 62
     7
 10
605.4319811449
 20
1135.7105914902
 30
0.0
  0
VERTEX
  5
5FB
  8
0
  6
CONTINUOUS
 62
     7
 10
605.4446694836
 20
1135.6757525753
 30
0.0
  0
VERTEX
  5
5FC
  8
0
  6
CONTINUOUS
 62
     7
 10
605.4584158048
 20
1135.6379781317
 30
0.0
  0
VERTEX
  5
5FD
  8
0
  6
CONTINUOUS
 62
     7
 10
605.4731679544
 20
1135.5974320721
 30
0.0
  0
VERTEX
  5
5FE
  8
0
  6
CONTINUOUS
 62
     7
 10
605.4888812289
 20
1135.5542783093
 30
0.0
  0
VERTEX
  5
5FF
  8
0
  6
CONTINUOUS
 62
     7
 10
605.5054736719
 20
1135.508680756
 30
0.0
  0
VERTEX
  5
600
  8
0
  6
CONTINUOUS
 62
     7
 10
605.5229005799
 20
1135.4608033251
 30
0.0
  0
VERTEX
  5
601
  8
0
  6
CONTINUOUS
 62
     7
 10
605.5410799966
 20
1135.4108546328
 30
0.0
  0
SEQEND
  5
A76
  8
0
  6
CONTINUOUS
 62
     7
  0
POLYLINE
  5
16E
  8
0
  6
CONTINUOUS
 62
     7
 66
     1
 10
0.0
 20
0.0
 30
0.0
 70
   128
  0
VERTEX
  5
602
  8
0
  6
CONTINUOUS
 62
     7
 10
605.5410799966
 20
1135.4108546328
 30
0.0
  0
VERTEX
  5
603
  8
0
  6
CONTINUOUS
 62
     7
 10
605.521566926
 20
1135.4037467789
 30
0.0
  0
VERTEX
  5
604
  8
0
  6
CONTINUOUS
 62
     7
 10
605.4991183266
 20
1135.3955809426
 30
0.0
  0
VERTEX
  5
605
  8
0
  6
CONTINUOUS
 62
     7
 10
605.473726748
 20
1135.3863422226
 30
0.0
  0
VERTEX
  5
606
  8
0
  6
CONTINUOUS
 62
     7
 10
605.4454219923
 20
1135.3760455203
 30
0.0
  0
VERTEX
  5
607
  8
0
  6
CONTINUOUS
 62
     7
 10
605.4142189607
 20
1135.3646759343
 30
0.0
  0
VERTEX
  5
608
  8
0
  6
CONTINUOUS
 62
     7
 10
605.3801176534
 20
1135.352263267
 30
0.0
  0
VERTEX
  5
609
  8
0
  6
CONTINUOUS
 62
     7
 10
605.3431478724
 20
1135.3388075184
 30
0.0
  0
VERTEX
  5
60A
  8
0
  6
CONTINUOUS
 62
     7
 10
605.3033170686
 20
1135.3243235898
 30
0.0
  0
SEQEND
  5
A77
  8
0
  6
CONTINUOUS
 62
     7
  0
ARC
  5
16F
  8
0
  6
CONTINUOUS
 62
     7
 10
598.7510049353
 20
1132.3914028457
 30
0.0
 40
7.178775548979726
 50
15.8862160356
 51
24.1140603276
  0
POLYLINE
  5
170
  8
0
  6
CONTINUOUS
 62
     7
 66
     1
 10
0.0
 20
0.0
 30
0.0
 70
   128
  0
VERTEX
  5
60B
  8
0
  6
CONTINUOUS
 62
     7
 10
605.6556028709
 20
1134.3564335656
 30
0.0
  0
VERTEX
  5
60C
  8
0
  6
CONTINUOUS
 62
     7
 10
605.6954262242
 20
1134.3709323954
 30
0.0
  0
VERTEX
  5
60D
  8
0
  6
CONTINUOUS
 62
     7
 10
605.7323960051
 20
1134.384388144
 30
0.0
  0
VERTEX
  5
60E
  8
0
  6
CONTINUOUS
 62
     7
 10
605.7664973125
 20
1134.3968008112
 30
0.0
  0
VERTEX
  5
60F
  8
0
  6
CONTINUOUS
 62
     7
 10
605.7977077947
 20
1134.4081554961
 30
0.0
  0
VERTEX
  5
610
  8
0
  6
CONTINUOUS
 62
     7
 10
605.8260125503
 20
1134.4184521985
 30
0.0
  0
VERTEX
  5
611
  8
0
  6
CONTINUOUS
 62
     7
 10
605.8513966784
 20
1134.4276909184
 30
0.0
  0
VERTEX
  5
612
  8
0
  6
CONTINUOUS
 62
     7
 10
605.8738527284
 20
1134.4358716559
 30
0.0
  0
VERTEX
  5
613
  8
0
  6
CONTINUOUS
 62
     7
 10
605.8933583484
 20
1134.4429646086
 30
0.0
  0
SEQEND
  5
A78
  8
0
  6
CONTINUOUS
 62
     7
  0
POLYLINE
  5
171
  8
0
  6
CONTINUOUS
 62
     7
 66
     1
 10
0.0
 20
0.0
 30
0.0
 70
   128
  0
VERTEX
  5
614
  8
0
  6
CONTINUOUS
 62
     7
 10
605.8933583484
 20
1134.4429646086
 30
0.0
  0
VERTEX
  5
615
  8
0
  6
CONTINUOUS
 62
     7
 10
605.9115452156
 20
1134.3930159163
 30
0.0
  0
VERTEX
  5
616
  8
0
  6
CONTINUOUS
 62
     7
 10
605.928964673
 20
1134.3451533865
 30
0.0
  0
VERTEX
  5
617
  8
0
  6
CONTINUOUS
 62
     7
 10
605.9455645666
 20
1134.2995409321
 30
0.0
  0
VERTEX
  5
618
  8
0
  6
CONTINUOUS
 62
     7
 10
605.9612703905
 20
1134.2563871693
 30
0.0
  0
VERTEX
  5
619
  8
0
  6
CONTINUOUS
 62
     7
 10
605.9760299907
 20
1134.2158560109
 30
0.0
  0
VERTEX
  5
61A
  8
0
  6
CONTINUOUS
 62
     7
 10
605.9897763119
 20
1134.1780815672
 30
0.0
  0
VERTEX
  5
61B
  8
0
  6
CONTINUOUS
 62
     7
 10
606.0024572
 20
1134.1432277512
 30
0.0
  0
VERTEX
  5
61C
  8
0
  6
CONTINUOUS
 62
     7
 10
606.0140279517
 20
1134.1114435744
 30
0.0
  0
SEQEND
  5
A79
  8
0
  6
CONTINUOUS
 62
     7
  0
LINE
  5
172
  8
0
  6
CONTINUOUS
 62
     7
 10
637.1996549353
 20
1087.4890331578
 30
0.0
 11
637.1496466384
 21
1087.4890331578
 31
0.0
  0
LINE
  5
173
  8
0
  6
CONTINUOUS
 62
     7
 10
637.1496466384
 20
1088.989028747
 30
0.0
 11
637.1996549353
 21
1088.989028747
 31
0.0
  0
LINE
  5
174
  8
0
  6
CONTINUOUS
 62
     7
 10
637.1996549353
 20
1088.989028747
 30
0.0
 11
637.1996549353
 21
1087.4890331578
 31
0.0
  0
LINE
  5
175
  8
0
  6
CONTINUOUS
 62
     7
 10
637.1996549353
 20
1105.9076134514
 30
0.0
 11
637.1496466384
 21
1105.9076134514
 31
0.0
  0
LINE
  5
176
  8
0
  6
CONTINUOUS
 62
     7
 10
637.1996549353
 20
1105.9076134514
 30
0.0
 11
637.1996549353
 21
1088.989028747
 31
0.0
  0
LINE
  5
177
  8
0
  6
CONTINUOUS
 62
     7
 10
637.2496483312
 20
1104.4076178622
 30
0.0
 11
637.1996549353
 21
1104.4076178622
 31
0.0
  0
LINE
  5
178
  8
0
  6
CONTINUOUS
 62
     7
 10
637.2496483312
 20
1104.4076178622
 30
0.0
 11
637.2496483312
 21
1088.989028747
 31
0.0
  0
LINE
  5
179
  8
0
  6
CONTINUOUS
 62
     7
 10
637.2496483312
 20
1088.989028747
 30
0.0
 11
637.1996549353
 21
1088.989028747
 31
0.0
  0
LINE
  5
17A
  8
0
  6
CONTINUOUS
 62
     7
 10
637.1996549353
 20
1106.4076070141
 30
0.0
 11
637.1996549353
 21
1105.9076134514
 31
0.0
  0
LINE
  5
17B
  8
0
  6
CONTINUOUS
 62
     7
 10
632.4045804725
 20
1047.8001404952
 30
0.0
 11
600.938729702
 21
1134.2518572163
 31
0.0
  0
POLYLINE
  5
17C
  8
0
  6
CONTINUOUS
 62
     7
 66
     1
 10
0.0
 20
0.0
 30
0.0
 70
   128
  0
VERTEX
  5
61D
  8
0
  6
CONTINUOUS
 62
     7
 10
600.938729702
 20
1134.2518572163
 30
0.0
  0
VERTEX
  5
61E
  8
0
  6
CONTINUOUS
 62
     7
 10
601.2503874884
 20
1134.3652997565
 30
0.0
  0
VERTEX
  5
61F
  8
0
  6
CONTINUOUS
 62
     7
 10
601.5500647411
 20
1134.4743762564
 30
0.0
  0
VERTEX
  5
620
  8
0
  6
CONTINUOUS
 62
     7
 10
601.8262428627
 20
1134.5748845887
 30
0.0
  0
VERTEX
  5
621
  8
0
  6
CONTINUOUS
 62
     7
 10
602.0683196769
 20
1134.6629951548
 30
0.0
  0
VERTEX
  5
622
  8
0
  6
CONTINUOUS
 62
     7
 10
602.2669894085
 20
1134.7353104901
 30
0.0
  0
VERTEX
  5
623
  8
0
  6
CONTINUOUS
 62
     7
 10
602.4146077618
 20
1134.7890440773
 30
0.0
  0
VERTEX
  5
624
  8
0
  6
CONTINUOUS
 62
     7
 10
602.5055122957
 20
1134.8221246552
 30
0.0
  0
VERTEX
  5
625
  8
0
  6
CONTINUOUS
 62
     7
 10
602.5362086878
 20
1134.8333005261
 30
0.0
  0
SEQEND
  5
A7A
  8
0
  6
CONTINUOUS
 62
     7
  0
LINE
  5
17D
  8
0
  6
CONTINUOUS
 62
     7
 10
602.5362086878
 20
1134.8333005261
 30
0.0
 11
634.0020594582
 21
1048.3815763545
 31
0.0
  0
POLYLINE
  5
17E
  8
0
  6
CONTINUOUS
 62
     7
 66
     1
 10
0.0
 20
0.0
 30
0.0
 70
   128
  0
VERTEX
  5
626
  8
0
  6
CONTINUOUS
 62
     7
 10
632.4045804725
 20
1047.8001404952
 30
0.0
  0
VERTEX
  5
627
  8
0
  6
CONTINUOUS
 62
     7
 10
632.7162382588
 20
1047.9135755848
 30
0.0
  0
VERTEX
  5
628
  8
0
  6
CONTINUOUS
 62
     7
 10
633.0159155116
 20
1048.0226520848
 30
0.0
  0
VERTEX
  5
629
  8
0
  6
CONTINUOUS
 62
     7
 10
633.2920936332
 20
1048.1231678676
 30
0.0
  0
VERTEX
  5
62A
  8
0
  6
CONTINUOUS
 62
     7
 10
633.5341778979
 20
1048.2112784337
 30
0.0
  0
VERTEX
  5
62B
  8
0
  6
CONTINUOUS
 62
     7
 10
633.732840179
 20
1048.2835863184
 30
0.0
  0
VERTEX
  5
62C
  8
0
  6
CONTINUOUS
 62
     7
 10
633.8804659829
 20
1048.3373199057
 30
0.0
  0
VERTEX
  5
62D
  8
0
  6
CONTINUOUS
 62
     7
 10
633.9713630662
 20
1048.3704079341
 30
0.0
  0
VERTEX
  5
62E
  8
0
  6
CONTINUOUS
 62
     7
 10
634.0020594582
 20
1048.3815763545
 30
0.0
  0
SEQEND
  5
A7B
  8
0
  6
CONTINUOUS
 62
     7
  0
LINE
  5
17F
  8
0
  6
CONTINUOUS
 62
     7
 10
628.3639070973
 20
1046.3294554901
 30
0.0
 11
596.8980563269
 21
1132.7811722111
 31
0.0
  0
LINE
  5
180
  8
0
  6
CONTINUOUS
 62
     7
 10
600.938729702
 20
1134.2518572163
 30
0.0
 11
596.8980563269
 21
1132.7811722111
 31
0.0
  0
LINE
  5
181
  8
0
  6
CONTINUOUS
 62
     7
 10
628.3639070973
 20
1046.3294554901
 30
0.0
 11
632.4045804725
 21
1047.8001404952
 31
0.0
  0
POLYLINE
  5
182
  8
0
  6
CONTINUOUS
 62
     7
 66
     1
 10
0.0
 20
0.0
 30
0.0
 70
   128
  0
VERTEX
  5
62F
  8
0
  6
CONTINUOUS
 62
     7
 10
600.938729702
 20
1134.2518572163
 30
0.0
  0
VERTEX
  5
630
  8
0
  6
CONTINUOUS
 62
     7
 10
600.5583999143
 20
1135.2968160462
 30
0.0
  0
VERTEX
  5
631
  8
0
  6
CONTINUOUS
 62
     7
 10
600.1926881656
 20
1136.3016162466
 30
0.0
  0
VERTEX
  5
632
  8
0
  6
CONTINUOUS
 62
     7
 10
599.8556388006
 20
1137.2276340079
 30
0.0
  0
VERTEX
  5
633
  8
0
  6
CONTINUOUS
 62
     7
 10
599.5602158294
 20
1138.0393002581
 30
0.0
  0
VERTEX
  5
634
  8
0
  6
CONTINUOUS
 62
     7
 10
599.3177739367
 20
1138.705426867
 30
0.0
  0
VERTEX
  5
635
  8
0
  6
CONTINUOUS
 62
     7
 10
599.1376188979
 20
1139.2003987383
 30
0.0
  0
VERTEX
  5
636
  8
0
  6
CONTINUOUS
 62
     7
 10
599.0266797528
 20
1139.5051870894
 30
0.0
  0
VERTEX
  5
637
  8
0
  6
CONTINUOUS
 62
     7
 10
598.9892182336
 20
1139.6081094098
 30
0.0
  0
SEQEND
  5
A7C
  8
0
  6
CONTINUOUS
 62
     7
  0
ARC
  5
183
  8
0
  6
CONTINUOUS
 62
     7
 10
599.5706524617
 20
1138.0106347211
 30
0.0
 40
1.699999999999982
 50
20.0
 51
110.0
  0
POLYLINE
  5
184
  8
0
  6
CONTINUOUS
 62
     7
 66
     1
 10
0.0
 20
0.0
 30
0.0
 70
   128
  0
VERTEX
  5
638
  8
0
  6
CONTINUOUS
 62
     7
 10
601.1681330786
 20
1138.5920737338
 30
0.0
  0
VERTEX
  5
639
  8
0
  6
CONTINUOUS
 62
     7
 10
601.1944187269
 20
1138.5198478054
 30
0.0
  0
VERTEX
  5
63A
  8
0
  6
CONTINUOUS
 62
     7
 10
601.2722698436
 20
1138.3059565377
 30
0.0
  0
VERTEX
  5
63B
  8
0
  6
CONTINUOUS
 62
     7
 10
601.3986912951
 20
1137.9585955691
 30
0.0
  0
VERTEX
  5
63C
  8
0
  6
CONTINUOUS
 62
     7
 10
601.5688327536
 20
1137.4911461424
 30
0.0
  0
VERTEX
  5
63D
  8
0
  6
CONTINUOUS
 62
     7
 10
601.7761451588
 20
1136.921564157
 30
0.0
  0
VERTEX
  5
63E
  8
0
  6
CONTINUOUS
 62
     7
 10
602.0126712904
 20
1136.2717245173
 30
0.0
  0
VERTEX
  5
63F
  8
0
  6
CONTINUOUS
 62
     7
 10
602.2693139896
 20
1135.5666015696
 30
0.0
  0
VERTEX
  5
640
  8
0
  6
CONTINUOUS
 62
     7
 10
602.5362086878
 20
1134.8333005261
 30
0.0
  0
SEQEND
  5
A7D
  8
0
  6
CONTINUOUS
 62
     7
  0
LINE
  5
185
  8
0
  6
CONTINUOUS
 62
     7
 10
594.9485374079
 20
1138.1374244046
 30
0.0
 11
598.9892182336
 21
1139.6081094098
 31
0.0
  0
POLYLINE
  5
186
  8
0
  6
CONTINUOUS
 62
     7
 66
     1
 10
0.0
 20
0.0
 30
0.0
 70
   128
  0
VERTEX
  5
641
  8
0
  6
CONTINUOUS
 62
     7
 10
596.8980563269
 20
1132.7811722111
 30
0.0
  0
VERTEX
  5
642
  8
0
  6
CONTINUOUS
 62
     7
 10
596.5177265391
 20
1133.826131041
 30
0.0
  0
VERTEX
  5
643
  8
0
  6
CONTINUOUS
 62
     7
 10
596.1520073399
 20
1134.8309312415
 30
0.0
  0
VERTEX
  5
644
  8
0
  6
CONTINUOUS
 62
     7
 10
595.8149654255
 20
1135.7569490027
 30
0.0
  0
VERTEX
  5
645
  8
0
  6
CONTINUOUS
 62
     7
 10
595.5195424542
 20
1136.5686152529
 30
0.0
  0
VERTEX
  5
646
  8
0
  6
CONTINUOUS
 62
     7
 10
595.277093111
 20
1137.2347418618
 30
0.0
  0
VERTEX
  5
647
  8
0
  6
CONTINUOUS
 62
     7
 10
595.0969380722
 20
1137.729698832
 30
0.0
  0
VERTEX
  5
648
  8
0
  6
CONTINUOUS
 62
     7
 10
594.9859989271
 20
1138.0345020842
 30
0.0
  0
VERTEX
  5
649
  8
0
  6
CONTINUOUS
 62
     7
 10
594.9485374079
 20
1138.1374244046
 30
0.0
  0
SEQEND
  5
A7E
  8
0
  6
CONTINUOUS
 62
     7
  0
POLYLINE
  5
187
  8
0
  6
CONTINUOUS
 62
     7
 66
     1
 10
0.0
 20
0.0
 30
0.0
 70
   128
  0
VERTEX
  5
64A
  8
0
  6
CONTINUOUS
 62
     7
 10
634.0020594582
 20
1048.3815763545
 30
0.0
  0
VERTEX
  5
64B
  8
0
  6
CONTINUOUS
 62
     7
 10
634.2689690575
 20
1047.6482753109
 30
0.0
  0
VERTEX
  5
64C
  8
0
  6
CONTINUOUS
 62
     7
 10
634.5256117568
 20
1046.9431598138
 30
0.0
  0
VERTEX
  5
64D
  8
0
  6
CONTINUOUS
 62
     7
 10
634.7621229873
 20
1046.2933127236
 30
0.0
  0
VERTEX
  5
64E
  8
0
  6
CONTINUOUS
 62
     7
 10
634.9694428429
 20
1045.7237232875
 30
0.0
  0
VERTEX
  5
64F
  8
0
  6
CONTINUOUS
 62
     7
 10
635.1395843015
 20
1045.2562738609
 30
0.0
  0
VERTEX
  5
650
  8
0
  6
CONTINUOUS
 62
     7
 10
635.266005753
 20
1044.9089277935
 30
0.0
  0
VERTEX
  5
651
  8
0
  6
CONTINUOUS
 62
     7
 10
635.3438643203
 20
1044.6950290751
 30
0.0
  0
VERTEX
  5
652
  8
0
  6
CONTINUOUS
 62
     7
 10
635.3701499686
 20
1044.6228105974
 30
0.0
  0
SEQEND
  5
A7F
  8
0
  6
CONTINUOUS
 62
     7
  0
ARC
  5
188
  8
0
  6
CONTINUOUS
 62
     7
 10
633.7726667943
 20
1044.0413726425
 30
0.0
 40
1.700000000000021
 50
290.0
 51
20.0
  0
POLYLINE
  5
189
  8
0
  6
CONTINUOUS
 62
     7
 66
     1
 10
0.0
 20
0.0
 30
0.0
 70
   128
  0
VERTEX
  5
653
  8
0
  6
CONTINUOUS
 62
     7
 10
634.3540993914
 20
1042.4438957524
 30
0.0
  0
VERTEX
  5
654
  8
0
  6
CONTINUOUS
 62
     7
 10
634.3166378722
 20
1042.5468106222
 30
0.0
  0
VERTEX
  5
655
  8
0
  6
CONTINUOUS
 62
     7
 10
634.2056987271
 20
1042.8516138744
 30
0.0
  0
VERTEX
  5
656
  8
0
  6
CONTINUOUS
 62
     7
 10
634.0255436883
 20
1043.3465857458
 30
0.0
  0
VERTEX
  5
657
  8
0
  6
CONTINUOUS
 62
     7
 10
633.7831017957
 20
1044.012704904
 30
0.0
  0
VERTEX
  5
658
  8
0
  6
CONTINUOUS
 62
     7
 10
633.4876713738
 20
1044.8243711543
 30
0.0
  0
VERTEX
  5
659
  8
0
  6
CONTINUOUS
 62
     7
 10
633.1506369099
 20
1045.7503963661
 30
0.0
  0
VERTEX
  5
65A
  8
0
  6
CONTINUOUS
 62
     7
 10
632.7849177108
 20
1046.7551891159
 30
0.0
  0
VERTEX
  5
65B
  8
0
  6
CONTINUOUS
 62
     7
 10
632.4045804725
 20
1047.8001404952
 30
0.0
  0
SEQEND
  5
A80
  8
0
  6
CONTINUOUS
 62
     7
  0
LINE
  5
18A
  8
0
  6
CONTINUOUS
 62
     7
 10
634.3540993914
 20
1042.4438957524
 30
0.0
 11
630.3134260163
 21
1040.9732107472
 31
0.0
  0
POLYLINE
  5
18B
  8
0
  6
CONTINUOUS
 62
     7
 66
     1
 10
0.0
 20
0.0
 30
0.0
 70
   128
  0
VERTEX
  5
65C
  8
0
  6
CONTINUOUS
 62
     7
 10
630.3134260163
 20
1040.9732107472
 30
0.0
  0
VERTEX
  5
65D
  8
0
  6
CONTINUOUS
 62
     7
 10
630.2759644971
 20
1041.076125617
 30
0.0
  0
VERTEX
  5
65E
  8
0
  6
CONTINUOUS
 62
     7
 10
630.165025352
 20
1041.3809288692
 30
0.0
  0
VERTEX
  5
65F
  8
0
  6
CONTINUOUS
 62
     7
 10
629.9848703132
 20
1041.8759007406
 30
0.0
  0
VERTEX
  5
660
  8
0
  6
CONTINUOUS
 62
     7
 10
629.7424284205
 20
1042.5420198988
 30
0.0
  0
VERTEX
  5
661
  8
0
  6
CONTINUOUS
 62
     7
 10
629.4469979987
 20
1043.3536861491
 30
0.0
  0
VERTEX
  5
662
  8
0
  6
CONTINUOUS
 62
     7
 10
629.1099486337
 20
1044.2797113609
 30
0.0
  0
VERTEX
  5
663
  8
0
  6
CONTINUOUS
 62
     7
 10
628.7442443356
 20
1045.2845041108
 30
0.0
  0
VERTEX
  5
664
  8
0
  6
CONTINUOUS
 62
     7
 10
628.3639070973
 20
1046.3294554901
 30
0.0
  0
SEQEND
  5
A81
  8
0
  6
CONTINUOUS
 62
     7
  0
LINE
  5
18C
  8
0
  6
CONTINUOUS
 62
     7
 10
606.8437916622
 20
1125.9221230101
 30
0.0
 11
631.931975244
 21
1056.9928978037
 31
0.0
  0
POLYLINE
  5
18D
  8
0
  6
CONTINUOUS
 62
     7
 66
     1
 10
0.0
 20
0.0
 30
0.0
 70
   128
  0
VERTEX
  5
665
  8
0
  6
CONTINUOUS
 62
     7
 10
631.931975244
 20
1056.9928978037
 30
0.0
  0
VERTEX
  5
666
  8
0
  6
CONTINUOUS
 62
     7
 10
631.748661159
 20
1056.9261704039
 30
0.0
  0
VERTEX
  5
667
  8
0
  6
CONTINUOUS
 62
     7
 10
631.5723804221
 20
1056.8620060038
 30
0.0
  0
VERTEX
  5
668
  8
0
  6
CONTINUOUS
 62
     7
 10
631.4099130616
 20
1056.8028781962
 30
0.0
  0
VERTEX
  5
669
  8
0
  6
CONTINUOUS
 62
     7
 10
631.2675175652
 20
1056.7510519576
 30
0.0
  0
VERTEX
  5
66A
  8
0
  6
CONTINUOUS
 62
     7
 10
631.150647758
 20
1056.7085091423
 30
0.0
  0
VERTEX
  5
66B
  8
0
  6
CONTINUOUS
 62
     7
 10
631.0638186917
 20
1056.6769037795
 30
0.0
  0
VERTEX
  5
66C
  8
0
  6
CONTINUOUS
 62
     7
 10
631.0103384242
 20
1056.6574428629
 30
0.0
  0
VERTEX
  5
66D
  8
0
  6
CONTINUOUS
 62
     7
 10
630.992293118
 20
1056.6508714508
 30
0.0
  0
SEQEND
  5
A82
  8
0
  6
CONTINUOUS
 62
     7
  0
POLYLINE
  5
18E
  8
0
  6
CONTINUOUS
 62
     7
 66
     1
 10
0.0
 20
0.0
 30
0.0
 70
   128
  0
VERTEX
  5
66E
  8
0
  6
CONTINUOUS
 62
     7
 10
606.8437916622
 20
1125.9221230101
 30
0.0
  0
VERTEX
  5
66F
  8
0
  6
CONTINUOUS
 62
     7
 10
606.660462676
 20
1125.8553956103
 30
0.0
  0
VERTEX
  5
670
  8
0
  6
CONTINUOUS
 62
     7
 10
606.4841893897
 20
1125.7912312102
 30
0.0
  0
VERTEX
  5
671
  8
0
  6
CONTINUOUS
 62
     7
 10
606.3217294798
 20
1125.7321034026
 30
0.0
  0
VERTEX
  5
672
  8
0
  6
CONTINUOUS
 62
     7
 10
606.1793265328
 20
1125.6802771639
 30
0.0
  0
VERTEX
  5
673
  8
0
  6
CONTINUOUS
 62
     7
 10
606.0624641762
 20
1125.6377492499
 30
0.0
  0
VERTEX
  5
674
  8
0
  6
CONTINUOUS
 62
     7
 10
605.9756276593
 20
1125.606143887
 30
0.0
  0
VERTEX
  5
675
  8
0
  6
CONTINUOUS
 62
     7
 10
605.9221548424
 20
1125.5866680693
 30
0.0
  0
VERTEX
  5
676
  8
0
  6
CONTINUOUS
 62
     7
 10
605.9041020856
 20
1125.5800966572
 30
0.0
  0
SEQEND
  5
A83
  8
0
  6
CONTINUOUS
 62
     7
  0
LINE
  5
18F
  8
0
  6
CONTINUOUS
 62
     7
 10
637.1496466384
 20
1128.9221290898
 30
0.0
 11
637.1496466384
 21
1125.9221230101
 31
0.0
  0
LINE
  5
190
  8
0
  6
CONTINUOUS
 62
     7
 10
635.1496425853
 20
1125.9221230101
 30
0.0
 11
637.1496466384
 21
1125.9221230101
 31
0.0
  0
LINE
  5
191
  8
0
  6
CONTINUOUS
 62
     7
 10
635.1496425853
 20
1125.9221230101
 30
0.0
 11
635.1496425853
 21
1130.9221182417
 31
0.0
  0
ARC
  5
192
  8
0
  6
CONTINUOUS
 62
     7
 10
635.1496475227
 20
1128.9221223538
 30
0.0
 40
2.0
 50
0.0
 51
90.0
  0
LINE
  5
193
  8
0
  6
CONTINUOUS
 62
     7
 10
605.9265879378
 20
1130.9221182417
 30
0.0
 11
635.1496425853
 21
1130.9221182417
 31
0.0
  0
LINE
  5
194
  8
0
  6
CONTINUOUS
 62
     7
 10
635.1496425853
 20
1125.9221230101
 30
0.0
 11
606.8437916622
 21
1125.9221230101
 31
0.0
  0
LINE
  5
195
  8
0
  6
CONTINUOUS
 62
     7
 10
635.1496425853
 20
1058.1640247654
 30
0.0
 11
635.1496425853
 21
1125.9221230101
 31
0.0
  0
LINE
  5
196
  8
0
  6
CONTINUOUS
 62
     7
 10
637.1496466384
 20
1125.9221230101
 30
0.0
 11
637.1496466384
 21
1058.1640247654
 31
0.0
  0
LINE
  5
197
  8
0
  6
CONTINUOUS
 62
     7
 10
635.1496425853
 20
1058.1640247654
 30
0.0
 11
637.1496466384
 21
1058.1640247654
 31
0.0
  0
LINE
  5
198
  8
0
  6
CONTINUOUS
 62
     7
 10
631.931975244
 20
1056.9928978037
 30
0.0
 11
635.1496425853
 21
1058.1640247654
 31
0.0
  0
POLYLINE
  5
199
  8
0
  6
CONTINUOUS
 62
     7
 66
     1
 10
0.0
 20
0.0
 30
0.0
 70
   128
  0
VERTEX
  5
677
  8
0
  6
CONTINUOUS
 62
     7
 10
635.8336803899
 20
1053.0921165299
 30
0.0
  0
VERTEX
  5
678
  8
0
  6
CONTINUOUS
 62
     7
 10
635.8205375657
 20
1053.1895701241
 30
0.0
  0
VERTEX
  5
679
  8
0
  6
CONTINUOUS
 62
     7
 10
635.7816157327
 20
1053.4781907153
 30
0.0
  0
VERTEX
  5
67A
  8
0
  6
CONTINUOUS
 62
     7
 10
635.7184050069
 20
1053.9468769383
 30
0.0
  0
VERTEX
  5
67B
  8
0
  6
CONTINUOUS
 62
     7
 10
635.6333342776
 20
1054.5776430916
 30
0.0
  0
VERTEX
  5
67C
  8
0
  6
CONTINUOUS
 62
     7
 10
635.5296818004
 20
1055.3462151837
 30
0.0
  0
VERTEX
  5
67D
  8
0
  6
CONTINUOUS
 62
     7
 10
635.411411284
 20
1056.2230889153
 30
0.0
  0
VERTEX
  5
67E
  8
0
  6
CONTINUOUS
 62
     7
 10
635.2830973849
 20
1057.1745429587
 30
0.0
  0
VERTEX
  5
67F
  8
0
  6
CONTINUOUS
 62
     7
 10
635.1496425853
 20
1058.1640247654
 30
0.0
  0
SEQEND
  5
A84
  8
0
  6
CONTINUOUS
 62
     7
  0
LINE
  5
19A
  8
0
  6
CONTINUOUS
 62
     7
 10
637.1496466384
 20
1058.1640247654
 30
0.0
 11
637.1496466384
 21
1054.9714956831
 31
0.0
  0
ARC
  5
19B
  8
0
  6
CONTINUOUS
 62
     7
 10
635.1496475227
 20
1054.9714948111
 30
0.0
 40
2.000000000000155
 50
290.0
 51
0.0
  0
LINE
  5
19C
  8
0
  6
CONTINUOUS
 62
     7
 10
635.8336803899
 20
1053.0921165299
 30
0.0
 11
634.4629225716
 21
1052.5931958508
 31
0.0
  0
LINE
  5
19D
  8
0
  6
CONTINUOUS
 62
     7
 10
597.894832252
 20
1123.2471261572
 30
0.0
 11
597.894832252
 21
1055.4890279126
 31
0.0
  0
ARC
  5
19E
  8
0
  6
CONTINUOUS
 62
     7
 10
603.6948354945
 20
1083.9890286278
 30
0.0
 40
0.5
 50
180.0
 51
270.0
  0
LINE
  5
19F
  8
0
  6
CONTINUOUS
 62
     7
 10
603.6948335752
 20
1083.4890250515
 30
0.0
 11
604.0948328957
 21
1083.4890250515
 31
0.0
  0
ARC
  5
1A0
  8
0
  6
CONTINUOUS
 62
     7
 10
604.0948354945
 20
1083.9890286278
 30
0.0
 40
0.5
 50
270.0
 51
0.0
  0
LINE
  5
1A1
  8
0
  6
CONTINUOUS
 62
     7
 10
604.594833909
 20
1083.9890335154
 30
0.0
 11
604.594833909
 21
1090.9890328001
 31
0.0
  0
ARC
  5
1A2
  8
0
  6
CONTINUOUS
 62
     7
 10
604.0948354945
 20
1090.9890286278
 30
0.0
 40
0.5
 50
0.0
 51
90.0
  0
LINE
  5
1A3
  8
0
  6
CONTINUOUS
 62
     7
 10
604.0948328957
 20
1091.4890263628
 30
0.0
 11
603.6948335752
 21
1091.4890263628
 31
0.0
  0
ARC
  5
1A4
  8
0
  6
CONTINUOUS
 62
     7
 10
603.6948354945
 20
1090.9890286278
 30
0.0
 40
0.5
 50
90.0
 51
180.0
  0
LINE
  5
1A5
  8
0
  6
CONTINUOUS
 62
     7
 10
603.194832562
 20
1090.9890328001
 30
0.0
 11
603.194832562
 21
1083.9890335154
 31
0.0
  0
POLYLINE
  5
1A6
  8
0
  6
CONTINUOUS
 62
     7
 66
     1
 10
0.0
 20
0.0
 30
0.0
 70
   128
  0
VERTEX
  5
680
  8
0
  6
CONTINUOUS
 62
     7
 10
597.2107944474
 20
1128.3190343928
 30
0.0
  0
VERTEX
  5
681
  8
0
  6
CONTINUOUS
 62
     7
 10
597.2239372716
 20
1128.2215807986
 30
0.0
  0
VERTEX
  5
682
  8
0
  6
CONTINUOUS
 62
     7
 10
597.2628665552
 20
1127.9329602074
 30
0.0
  0
VERTEX
  5
683
  8
0
  6
CONTINUOUS
 62
     7
 10
597.326077281
 20
1127.4642739844
 30
0.0
  0
VERTEX
  5
684
  8
0
  6
CONTINUOUS
 62
     7
 10
597.4111480102
 20
1126.833507831
 30
0.0
  0
VERTEX
  5
685
  8
0
  6
CONTINUOUS
 62
     7
 10
597.5148004875
 20
1126.064935739
 30
0.0
  0
VERTEX
  5
686
  8
0
  6
CONTINUOUS
 62
     7
 10
597.6330635533
 20
1125.1880620074
 30
0.0
  0
VERTEX
  5
687
  8
0
  6
CONTINUOUS
 62
     7
 10
597.7613849029
 20
1124.236607964
 30
0.0
  0
VERTEX
  5
688
  8
0
  6
CONTINUOUS
 62
     7
 10
597.894832252
 20
1123.2471261572
 30
0.0
  0
SEQEND
  5
A85
  8
0
  6
CONTINUOUS
 62
     7
  0
LINE
  5
1A7
  8
0
  6
CONTINUOUS
 62
     7
 10
597.2107944474
 20
1128.3190343928
 30
0.0
 11
598.368741332
 21
1128.740498836
 31
0.0
  0
LINE
  5
1A8
  8
0
  6
CONTINUOUS
 62
     7
 10
597.894832252
 20
1123.2471261572
 30
0.0
 11
595.8948356495
 21
1123.2471261572
 31
0.0
  0
LINE
  5
1A9
  8
0
  6
CONTINUOUS
 62
     7
 10
595.8948356495
 20
1123.2471261572
 30
0.0
 11
595.8948356495
 21
1126.4396552395
 31
0.0
  0
ARC
  5
1AA
  8
0
  6
CONTINUOUS
 62
     7
 10
597.8948354945
 20
1126.4396561705
 30
0.0
 40
2.000000000000155
 50
110.0
 51
180.0
  0
LINE
  5
1AB
  8
0
  6
CONTINUOUS
 62
     7
 10
626.84994912
 20
1050.4890326809
 30
0.0
 11
597.894832252
 21
1050.4890326809
 31
0.0
  0
LINE
  5
1AC
  8
0
  6
CONTINUOUS
 62
     7
 10
597.894832252
 20
1055.4890279126
 30
0.0
 11
597.894832252
 21
1050.4890326809
 31
0.0
  0
LINE
  5
1AD
  8
0
  6
CONTINUOUS
 62
     7
 10
597.894832252
 20
1055.4890279126
 30
0.0
 11
595.8948356495
 21
1055.4890279126
 31
0.0
  0
LINE
  5
1AE
  8
0
  6
CONTINUOUS
 62
     7
 10
595.8948356495
 20
1055.4890279126
 30
0.0
 11
595.8948356495
 21
1123.2471261572
 31
0.0
  0
LINE
  5
1AF
  8
0
  6
CONTINUOUS
 62
     7
 10
595.8948356495
 20
1052.4890218329
 30
0.0
 11
595.8948356495
 21
1055.4890279126
 31
0.0
  0
ARC
  5
1B0
  8
0
  6
CONTINUOUS
 62
     7
 10
597.8948354945
 20
1052.4890286278
 30
0.0
 40
2.0
 50
180.0
 51
270.0
  0
LINE
  5
1B1
  8
0
  6
CONTINUOUS
 62
     7
 10
604.0948328957
 20
1090.9890328001
 30
0.0
 11
604.0948328957
 21
1091.4890263628
 31
0.0
  0
LINE
  5
1B2
  8
0
  6
CONTINUOUS
 62
     7
 10
604.0948328957
 20
1090.9890328001
 30
0.0
 11
604.594833909
 21
1090.9890328001
 31
0.0
  0
LINE
  5
1B3
  8
0
  6
CONTINUOUS
 62
     7
 10
604.0948328957
 20
1083.9890335154
 30
0.0
 11
604.0948328957
 21
1090.9890328001
 31
0.0
  0
LINE
  5
1B4
  8
0
  6
CONTINUOUS
 62
     7
 10
604.0948328957
 20
1083.9890335154
 30
0.0
 11
604.594833909
 21
1083.9890335154
 31
0.0
  0
LINE
  5
1B5
  8
0
  6
CONTINUOUS
 62
     7
 10
604.0948328957
 20
1090.9890328001
 30
0.0
 11
603.6948335752
 21
1090.9890328001
 31
0.0
  0
LINE
  5
1B6
  8
0
  6
CONTINUOUS
 62
     7
 10
603.6948335752
 20
1091.4890263628
 30
0.0
 11
603.6948335752
 21
1090.9890328001
 31
0.0
  0
LINE
  5
1B7
  8
0
  6
CONTINUOUS
 62
     7
 10
603.194832562
 20
1090.9890328001
 30
0.0
 11
603.6948335752
 21
1090.9890328001
 31
0.0
  0
LINE
  5
1B8
  8
0
  6
CONTINUOUS
 62
     7
 10
603.6948335752
 20
1090.9890328001
 30
0.0
 11
603.6948335752
 21
1083.9890335154
 31
0.0
  0
LINE
  5
1B9
  8
0
  6
CONTINUOUS
 62
     7
 10
603.194832562
 20
1083.9890335154
 30
0.0
 11
603.6948335752
 21
1083.9890335154
 31
0.0
  0
LINE
  5
1BA
  8
0
  6
CONTINUOUS
 62
     7
 10
604.0948328957
 20
1083.9890335154
 30
0.0
 11
604.0948328957
 21
1083.4890250515
 31
0.0
  0
LINE
  5
1BB
  8
0
  6
CONTINUOUS
 62
     7
 10
603.6948335752
 20
1083.9890335154
 30
0.0
 11
604.0948328957
 21
1083.9890335154
 31
0.0
  0
LINE
  5
1BC
  8
0
  6
CONTINUOUS
 62
     7
 10
603.6948335752
 20
1083.4890250515
 30
0.0
 11
603.6948335752
 21
1083.9890335154
 31
0.0
  0
LINE
  5
1BD
  8
0
  6
CONTINUOUS
 62
     7
 10
543.741322814
 20
931.4890290078
 30
0.0
 11
543.741322814
 21
1130.9890244555
 31
0.0
  0
LINE
  5
1BE
  8
0
  6
CONTINUOUS
 62
     7
 10
542.4946767673
 20
931.4890290078
 30
0.0
 11
543.741322814
 21
931.4890290078
 31
0.0
  0
LINE
  5
1BF
  8
0
  6
CONTINUOUS
 62
     7
 10
455.248348175
 20
931.4890290078
 30
0.0
 11
456.4949942217
 21
931.4890290078
 31
0.0
  0
LINE
  5
1C0
  8
0
  6
CONTINUOUS
 62
     7
 10
455.248348175
 20
931.4890290078
 30
0.0
 11
455.248348175
 21
1130.9890244555
 31
0.0
  0
LINE
  5
1C1
  8
0
  6
CONTINUOUS
 62
     7
 10
543.741322814
 20
931.4890290078
 30
0.0
 11
544.1423540399
 21
931.4890290078
 31
0.0
  0
LINE
  5
1C2
  8
0
  6
CONTINUOUS
 62
     7
 10
454.8473169491
 20
931.4890290078
 30
0.0
 11
455.248348175
 21
931.4890290078
 31
0.0
  0
LINE
  5
1C3
  8
0
  6
CONTINUOUS
 62
     7
 10
540.6258103833
 20
931.4890290078
 30
0.0
 11
542.4946767673
 21
931.4890290078
 31
0.0
  0
LINE
  5
1C4
  8
0
  6
CONTINUOUS
 62
     7
 10
456.4949942217
 20
931.4890290078
 30
0.0
 11
458.3638606057
 21
931.4890290078
 31
0.0
  0
LINE
  5
1C5
  8
0
  6
CONTINUOUS
 62
     7
 10
540.6258103833
 20
931.4890290078
 30
0.0
 11
539.293665199
 21
931.4890290078
 31
0.0
  0
LINE
  5
1C6
  8
0
  6
CONTINUOUS
 62
     7
 10
459.69600579
 20
931.4890290078
 30
0.0
 11
458.3638606057
 21
931.4890290078
 31
0.0
  0
LINE
  5
1C7
  8
0
  6
CONTINUOUS
 62
     7
 10
551.5097004757
 20
931.4890290078
 30
0.0
 11
551.5097004757
 21
1130.9890244555
 31
0.0
  0
LINE
  5
1C8
  8
0
  6
CONTINUOUS
 62
     7
 10
550.2284278557
 20
931.4890290078
 30
0.0
 11
551.5097004757
 21
931.4890290078
 31
0.0
  0
LINE
  5
1C9
  8
0
  6
CONTINUOUS
 62
     7
 10
447.4799705133
 20
931.4890290078
 30
0.0
 11
448.7612431333
 21
931.4890290078
 31
0.0
  0
LINE
  5
1CA
  8
0
  6
CONTINUOUS
 62
     7
 10
447.4799705133
 20
931.4890290078
 30
0.0
 11
447.4799705133
 21
1130.9890244555
 31
0.0
  0
LINE
  5
1CB
  8
0
  6
CONTINUOUS
 62
     7
 10
551.5097004757
 20
931.4890290078
 30
0.0
 11
551.8303064093
 21
931.4890290078
 31
0.0
  0
LINE
  5
1CC
  8
0
  6
CONTINUOUS
 62
     7
 10
447.1593645797
 20
931.4890290078
 30
0.0
 11
447.4799705133
 21
931.4890290078
 31
0.0
  0
LINE
  5
1CD
  8
0
  6
CONTINUOUS
 62
     7
 10
548.0510143027
 20
931.4890290078
 30
0.0
 11
550.2284278557
 21
931.4890290078
 31
0.0
  0
LINE
  5
1CE
  8
0
  6
CONTINUOUS
 62
     7
 10
448.7612431333
 20
931.4890290078
 30
0.0
 11
450.9386566863
 21
931.4890290078
 31
0.0
  0
LINE
  5
1CF
  8
0
  6
CONTINUOUS
 62
     7
 10
548.0510143027
 20
931.4890290078
 30
0.0
 11
546.6890556202
 21
931.4890290078
 31
0.0
  0
LINE
  5
1D0
  8
0
  6
CONTINUOUS
 62
     7
 10
452.3006153688
 20
931.4890290078
 30
0.0
 11
450.9386566863
 21
931.4890290078
 31
0.0
  0
LINE
  5
1D1
  8
0
  6
CONTINUOUS
 62
     7
 10
558.7081906781
 20
931.4890290078
 30
0.0
 11
558.7081906781
 21
1130.9890244555
 31
0.0
  0
LINE
  5
1D2
  8
0
  6
CONTINUOUS
 62
     7
 10
557.406332104
 20
931.4890290078
 30
0.0
 11
558.7081906781
 21
931.4890290078
 31
0.0
  0
LINE
  5
1D3
  8
0
  6
CONTINUOUS
 62
     7
 10
440.2814803109
 20
931.4890290078
 30
0.0
 11
441.5833388851
 21
931.4890290078
 31
0.0
  0
LINE
  5
1D4
  8
0
  6
CONTINUOUS
 62
     7
 10
440.2814803109
 20
931.4890290078
 30
0.0
 11
440.2814803109
 21
1130.9890244555
 31
0.0
  0
LINE
  5
1D5
  8
0
  6
CONTINUOUS
 62
     7
 10
558.7081906781
 20
931.4890290078
 30
0.0
 11
558.9558219001
 21
931.4890290078
 31
0.0
  0
LINE
  5
1D6
  8
0
  6
CONTINUOUS
 62
     7
 10
440.0338490889
 20
931.4890290078
 30
0.0
 11
440.2814803109
 21
931.4890290078
 31
0.0
  0
LINE
  5
1D7
  8
0
  6
CONTINUOUS
 62
     7
 10
554.9442318663
 20
931.4890290078
 30
0.0
 11
557.406332104
 21
931.4890290078
 31
0.0
  0
LINE
  5
1D8
  8
0
  6
CONTINUOUS
 62
     7
 10
441.5833388851
 20
931.4890290078
 30
0.0
 11
444.0454391227
 21
931.4890290078
 31
0.0
  0
LINE
  5
1D9
  8
0
  6
CONTINUOUS
 62
     7
 10
554.9442318663
 20
931.4890290078
 30
0.0
 11
553.5673794732
 21
931.4890290078
 31
0.0
  0
LINE
  5
1DA
  8
0
  6
CONTINUOUS
 62
     7
 10
445.4222915158
 20
931.4890290078
 30
0.0
 11
444.0454391227
 21
931.4890290078
 31
0.0
  0
LINE
  5
1DB
  8
0
  6
CONTINUOUS
 62
     7
 10
565.2579290256
 20
931.4890290078
 30
0.0
 11
565.2579290256
 21
1130.9890244555
 31
0.0
  0
LINE
  5
1DC
  8
0
  6
CONTINUOUS
 62
     7
 10
563.9497411833
 20
931.4890290078
 30
0.0
 11
565.2579290256
 21
931.4890290078
 31
0.0
  0
LINE
  5
1DD
  8
0
  6
CONTINUOUS
 62
     7
 10
433.7317419634
 20
931.4890290078
 30
0.0
 11
435.0399298057
 21
931.4890290078
 31
0.0
  0
LINE
  5
1DE
  8
0
  6
CONTINUOUS
 62
     7
 10
433.7317419634
 20
931.4890290078
 30
0.0
 11
433.7317419634
 21
1130.9890244555
 31
0.0
  0
LINE
  5
1DF
  8
0
  6
CONTINUOUS
 62
     7
 10
561.2299290881
 20
931.4890290078
 30
0.0
 11
563.9497411833
 21
931.4890290078
 31
0.0
  0
LINE
  5
1E0
  8
0
  6
CONTINUOUS
 62
     7
 10
435.0399298057
 20
931.4890290078
 30
0.0
 11
437.7597419009
 21
931.4890290078
 31
0.0
  0
LINE
  5
1E1
  8
0
  6
CONTINUOUS
 62
     7
 10
565.2579290256
 20
931.4890290078
 30
0.0
 11
565.4408258781
 21
931.4890290078
 31
0.0
  0
LINE
  5
1E2
  8
0
  6
CONTINUOUS
 62
     7
 10
433.5488451109
 20
931.4890290078
 30
0.0
 11
433.7317419634
 21
931.4890290078
 31
0.0
  0
LINE
  5
1E3
  8
0
  6
CONTINUOUS
 62
     7
 10
561.2299290881
 20
931.4890290078
 30
0.0
 11
559.85327041
 21
931.4890290078
 31
0.0
  0
LINE
  5
1E4
  8
0
  6
CONTINUOUS
 62
     7
 10
439.136400579
 20
931.4890290078
 30
0.0
 11
437.7597419009
 21
931.4890290078
 31
0.0
  0
LINE
  5
1E5
  8
0
  6
CONTINUOUS
 62
     7
 10
571.087151526
 20
931.4890290078
 30
0.0
 11
571.087151526
 21
1130.9890244555
 31
0.0
  0
LINE
  5
1E6
  8
0
  6
CONTINUOUS
 62
     7
 10
569.7869730577
 20
931.4890290078
 30
0.0
 11
571.087151526
 21
931.4890290078
 31
0.0
  0
LINE
  5
1E7
  8
0
  6
CONTINUOUS
 62
     7
 10
427.902519463
 20
931.4890290078
 30
0.0
 11
429.2026979313
 21
931.4890290078
 31
0.0
  0
LINE
  5
1E8
  8
0
  6
CONTINUOUS
 62
     7
 10
427.902519463
 20
931.4890290078
 30
0.0
 11
427.902519463
 21
1130.9890244555
 31
0.0
  0
LINE
  5
1E9
  8
0
  6
CONTINUOUS
 62
     7
 10
566.8392477021
 20
931.4890290078
 30
0.0
 11
569.7869730577
 21
931.4890290078
 31
0.0
  0
LINE
  5
1EA
  8
0
  6
CONTINUOUS
 62
     7
 10
429.2026979313
 20
931.4890290078
 30
0.0
 11
432.1504232869
 21
931.4890290078
 31
0.0
  0
LINE
  5
1EB
  8
0
  6
CONTINUOUS
 62
     7
 10
571.087151526
 20
931.4890290078
 30
0.0
 11
571.2142658815
 21
931.4890290078
 31
0.0
  0
LINE
  5
1EC
  8
0
  6
CONTINUOUS
 62
     7
 10
427.7754051075
 20
931.4890290078
 30
0.0
 11
427.902519463
 21
931.4890290078
 31
0.0
  0
LINE
  5
1ED
  8
0
  6
CONTINUOUS
 62
     7
 10
566.8392477021
 20
931.4890290078
 30
0.0
 11
565.4778627143
 21
931.4890290078
 31
0.0
  0
LINE
  5
1EE
  8
0
  6
CONTINUOUS
 62
     7
 10
433.5118082747
 20
931.4890290078
 30
0.0
 11
432.1504232869
 21
931.4890290078
 31
0.0
  0
LINE
  5
1EF
  8
0
  6
CONTINUOUS
 62
     7
 10
576.1319992528
 20
931.4890290078
 30
0.0
 11
576.1319992528
 21
1130.9890244555
 31
0.0
  0
LINE
  5
1F0
  8
0
  6
CONTINUOUS
 62
     7
 10
574.8540682182
 20
931.4890290078
 30
0.0
 11
576.1319992528
 21
931.4890290078
 31
0.0
  0
LINE
  5
1F1
  8
0
  6
CONTINUOUS
 62
     7
 10
422.8576717362
 20
931.4890290078
 30
0.0
 11
424.1356027708
 21
931.4890290078
 31
0.0
  0
LINE
  5
1F2
  8
0
  6
CONTINUOUS
 62
     7
 10
422.8576717362
 20
931.4890290078
 30
0.0
 11
422.8576717362
 21
1130.9890244555
 31
0.0
  0
LINE
  5
1F3
  8
0
  6
CONTINUOUS
 62
     7
 10
571.7107204184
 20
931.4890290078
 30
0.0
 11
574.8540682182
 21
931.4890290078
 31
0.0
  0
LINE
  5
1F4
  8
0
  6
CONTINUOUS
 62
     7
 10
424.1356027708
 20
931.4890290078
 30
0.0
 11
427.2789505706
 21
931.4890290078
 31
0.0
  0
LINE
  5
1F5
  8
0
  6
CONTINUOUS
 62
     7
 10
576.1319992528
 20
931.4890290078
 30
0.0
 11
576.2128902063
 21
931.4890290078
 31
0.0
  0
LINE
  5
1F6
  8
0
  6
CONTINUOUS
 62
     7
 10
422.7767807827
 20
931.4890290078
 30
0.0
 11
422.8576717362
 21
931.4890290078
 31
0.0
  0
LINE
  5
1F7
  8
0
  6
CONTINUOUS
 62
     7
 10
571.7107204184
 20
931.4890290078
 30
0.0
 11
571.2142658815
 21
931.4890290078
 31
0.0
  0
LINE
  5
1F8
  8
0
  6
CONTINUOUS
 62
     7
 10
427.7754051075
 20
931.4890290078
 30
0.0
 11
427.2789505706
 21
931.4890290078
 31
0.0
  0
LINE
  5
1F9
  8
0
  6
CONTINUOUS
 62
     7
 10
580.3371888981
 20
931.4890290078
 30
0.0
 11
580.3371888981
 21
1130.9890244555
 31
0.0
  0
LINE
  5
1FA
  8
0
  6
CONTINUOUS
 62
     7
 10
579.0955123887
 20
931.4890290078
 30
0.0
 11
580.3371888981
 21
931.4890290078
 31
0.0
  0
LINE
  5
1FB
  8
0
  6
CONTINUOUS
 62
     7
 10
418.6524820909
 20
931.4890290078
 30
0.0
 11
419.8941586003
 21
931.4890290078
 31
0.0
  0
LINE
  5
1FC
  8
0
  6
CONTINUOUS
 62
     7
 10
418.6524820909
 20
931.4890290078
 30
0.0
 11
418.6524820909
 21
1130.9890244555
 31
0.0
  0
LINE
  5
1FD
  8
0
  6
CONTINUOUS
 62
     7
 10
576.2128902063
 20
931.4890290078
 30
0.0
 11
579.0955123887
 21
931.4890290078
 31
0.0
  0
LINE
  5
1FE
  8
0
  6
CONTINUOUS
 62
     7
 10
419.8941586003
 20
931.4890290078
 30
0.0
 11
422.7767807827
 21
931.4890290078
 31
0.0
  0
LINE
  5
1FF
  8
0
  6
CONTINUOUS
 62
     7
 10
580.3371888981
 20
931.4890290078
 30
0.0
 11
580.3819296346
 21
931.4890290078
 31
0.0
  0
LINE
  5
200
  8
0
  6
CONTINUOUS
 62
     7
 10
418.6077413545
 20
931.4890290078
 30
0.0
 11
418.6524820909
 21
931.4890290078
 31
0.0
  0
LINE
  5
201
  8
0
  6
CONTINUOUS
 62
     7
 10
583.656653522
 20
931.4890290078
 30
0.0
 11
583.656653522
 21
1130.9890244555
 31
0.0
  0
LINE
  5
202
  8
0
  6
CONTINUOUS
 62
     7
 10
582.464836298
 20
931.4890290078
 30
0.0
 11
583.656653522
 21
931.4890290078
 31
0.0
  0
LINE
  5
203
  8
0
  6
CONTINUOUS
 62
     7
 10
415.333017467
 20
931.4890290078
 30
0.0
 11
416.524834691
 21
931.4890290078
 31
0.0
  0
LINE
  5
204
  8
0
  6
CONTINUOUS
 62
     7
 10
415.333017467
 20
931.4890290078
 30
0.0
 11
415.333017467
 21
1130.9890244555
 31
0.0
  0
LINE
  5
205
  8
0
  6
CONTINUOUS
 62
     7
 10
580.3819296346
 20
931.4890290078
 30
0.0
 11
582.464836298
 21
931.4890290078
 31
0.0
  0
LINE
  5
206
  8
0
  6
CONTINUOUS
 62
     7
 10
416.524834691
 20
931.4890290078
 30
0.0
 11
418.6077413545
 21
931.4890290078
 31
0.0
  0
LINE
  5
207
  8
0
  6
CONTINUOUS
 62
     7
 10
583.656653522
 20
931.4890290078
 30
0.0
 11
583.6757121072
 21
931.4890290078
 31
0.0
  0
LINE
  5
208
  8
0
  6
CONTINUOUS
 62
     7
 10
415.3139588818
 20
931.4890290078
 30
0.0
 11
415.333017467
 21
931.4890290078
 31
0.0
  0
LINE
  5
209
  8
0
  6
CONTINUOUS
 62
     7
 10
585.4948384151
 20
1130.9890244555
 30
0.0
 11
585.4948384151
 21
931.4890290078
 31
0.0
  0
LINE
  5
20A
  8
0
  6
CONTINUOUS
 62
     7
 10
585.4948384151
 20
931.4890290078
 30
0.0
 11
583.6757121072
 21
931.4890290078
 31
0.0
  0
LINE
  5
20B
  8
0
  6
CONTINUOUS
 62
     7
 10
412.9356441483
 20
931.4890290078
 30
0.0
 11
412.9356441483
 21
1130.9890244555
 31
0.0
  0
LINE
  5
20C
  8
0
  6
CONTINUOUS
 62
     7
 10
412.9356441483
 20
931.4890290078
 30
0.0
 11
414.0645486698
 21
931.4890290078
 31
0.0
  0
LINE
  5
20D
  8
0
  6
CONTINUOUS
 62
     7
 10
414.0645486698
 20
931.4890290078
 30
0.0
 11
415.3139588818
 21
931.4890290078
 31
0.0
  0
LINE
  5
20E
  8
0
  6
CONTINUOUS
 62
     7
 10
412.9315239773
 20
931.4890290078
 30
0.0
 11
412.9356441483
 21
931.4890290078
 31
0.0
  0
LINE
  5
20F
  8
0
  6
CONTINUOUS
 62
     7
 10
411.4866328821
 20
931.4890290078
 30
0.0
 11
411.4866328821
 21
1130.9890244555
 31
0.0
  0
LINE
  5
210
  8
0
  6
CONTINUOUS
 62
     7
 10
411.4866328821
 20
931.4890290078
 30
0.0
 11
412.5402567372
 21
931.4890290078
 31
0.0
  0
LINE
  5
211
  8
0
  6
CONTINUOUS
 62
     7
 10
412.5402567372
 20
931.4890290078
 30
0.0
 11
412.9315239773
 21
931.4890290078
 31
0.0
  0
LINE
  5
212
  8
0
  6
CONTINUOUS
 62
     7
 10
411.0018608556
 20
931.4890290078
 30
0.0
 11
411.0018608556
 21
1130.9890244555
 31
0.0
  0
LINE
  5
213
  8
0
  6
CONTINUOUS
 62
     7
 10
411.0018608556
 20
931.4890290078
 30
0.0
 11
411.4866328821
 21
931.4890290078
 31
0.0
  0
ARC
  5
214
  8
0
  6
CONTINUOUS
 62
     7
 10
446.881017619
 20
853.8736449419
 30
0.0
 40
5.118566582986587
 50
70.2854402372
 51
92.0195998182
  0
ARC
  5
215
  8
0
  6
CONTINUOUS
 62
     7
 10
446.6626444015
 20
854.1037921169
 30
0.0
 40
4.983627973551076
 50
52.6540240946
 51
67.0276782217
  0
LINE
  5
216
  8
0
  6
CONTINUOUS
 62
     7
 10
449.9402602599
 20
857.8526694726
 30
0.0
 11
449.6858452842
 21
858.0657113742
 31
0.0
  0
ARC
  5
217
  8
0
  6
CONTINUOUS
 62
     7
 10
444.4957598745
 20
852.1148555034
 30
0.0
 40
7.909809959272602
 50
29.3269843928
 51
46.5025313439
  0
LINE
  5
218
  8
0
  6
CONTINUOUS
 62
     7
 10
451.3918382511
 20
855.9890259456
 30
0.0
 11
436.3147837505
 21
855.9890259456
 31
0.0
  0
ARC
  5
219
  8
0
  6
CONTINUOUS
 62
     7
 10
443.2575137081
 20
852.0785079599
 30
0.0
 40
7.968290292167123
 50
133.5608868074
 51
150.609454888
  0
LINE
  5
21A
  8
0
  6
CONTINUOUS
 62
     7
 10
438.0207804427
 20
858.0657113742
 30
0.0
 11
437.7663654671
 21
857.8526694726
 31
0.0
  0
POLYLINE
  5
21B
  8
0
  6
CONTINUOUS
 62
     7
 66
     1
 10
0.0
 20
0.0
 30
0.0
 70
   128
  0
VERTEX
  5
689
  8
0
  6
CONTINUOUS
 62
     7
 10
439.0989390597
 20
858.6921859931
 30
0.0
  0
VERTEX
  5
68A
  8
0
  6
CONTINUOUS
 62
     7
 10
438.990160583
 20
858.6457539749
 30
0.0
  0
VERTEX
  5
68B
  8
0
  6
CONTINUOUS
 62
     7
 10
438.0207804427
 20
858.0657113742
 30
0.0
  0
SEQEND
  5
A86
  8
0
  6
CONTINUOUS
 62
     7
  0
ARC
  5
21C
  8
0
  6
CONTINUOUS
 62
     7
 10
440.8256081079
 20
853.8736449419
 30
0.0
 40
5.118566582986592
 50
87.9804001818
 51
109.7145597628
  0
ARC
  5
21D
  8
0
  6
CONTINUOUS
 62
     7
 10
462.5482065955
 20
859.7747149693
 30
0.0
 40
11.78117124994923
 50
198.7436091994
 51
204.797537772
  0
ARC
  5
21E
  8
0
  6
CONTINUOUS
 62
     7
 10
425.2802607342
 20
859.7260528898
 30
0.0
 40
11.65015315691947
 50
335.1683886217
 51
341.2904644069
  0
LINE
  5
21F
  8
0
  6
CONTINUOUS
 62
     7
 10
443.0055094347
 20
853.9890293431
 30
0.0
 11
444.7011162922
 21
853.9890293431
 31
0.0
  0
POLYLINE
  5
220
  8
0
  6
CONTINUOUS
 62
     7
 66
     1
 10
0.0
 20
0.0
 30
0.0
 70
   128
  0
VERTEX
  5
68C
  8
0
  6
CONTINUOUS
 62
     7
 10
440.8522357628
 20
859.7460333657
 30
0.0
  0
VERTEX
  5
68D
  8
0
  6
CONTINUOUS
 62
     7
 10
444.860648124
 20
859.6062381219
 30
0.0
  0
VERTEX
  5
68E
  8
0
  6
CONTINUOUS
 62
     7
 10
446.8543862388
 20
859.7460333657
 30
0.0
  0
SEQEND
  5
A87
  8
0
  6
CONTINUOUS
 62
     7
  0
ARC
  5
221
  8
0
  6
CONTINUOUS
 62
     7
 10
445.4301852951
 20
859.6411865396
 30
0.0
 40
1.428055035646093
 50
332.8273550391
 51
4.2104054449
  0
ARC
  5
222
  8
0
  6
CONTINUOUS
 62
     7
 10
442.2764996386
 20
859.641205574
 30
0.0
 40
1.428116400632713
 50
175.7905415222
 51
207.1722395696
  0
LINE
  5
223
  8
0
  6
CONTINUOUS
 62
     7
 10
438.1341298506
 20
859.8921839547
 30
0.0
 11
440.8522357628
 21
859.7460333657
 31
0.0
  0
ARC
  5
224
  8
0
  6
CONTINUOUS
 62
     7
 10
440.8073720265
 20
861.0536381865
 30
0.0
 40
2.914652580233116
 50
203.4836933408
 51
234.1154991268
  0
LINE
  5
225
  8
0
  6
CONTINUOUS
 62
     7
 10
446.8543862388
 20
859.7460333657
 30
0.0
 11
449.5724958763
 21
859.8921839547
 31
0.0
  0
ARC
  5
226
  8
0
  6
CONTINUOUS
 62
     7
 10
446.8992537004
 20
861.0536381865
 30
0.0
 40
2.914652580233049
 50
305.8845008732
 51
336.5163066592
  0
POLYLINE
  5
227
  8
0
  6
CONTINUOUS
 62
     7
 66
     1
 10
0.0
 20
0.0
 30
0.0
 70
   128
  0
VERTEX
  5
68F
  8
0
  6
CONTINUOUS
 62
     7
 10
438.0207804427
 20
858.0657113742
 30
0.0
  0
VERTEX
  5
690
  8
0
  6
CONTINUOUS
 62
     7
 10
437.9319881484
 20
858.1703398776
 30
0.0
  0
VERTEX
  5
691
  8
0
  6
CONTINUOUS
 62
     7
 10
437.8212389932
 20
858.3008293461
 30
0.0
  0
VERTEX
  5
692
  8
0
  6
CONTINUOUS
 62
     7
 10
437.6907830522
 20
858.4545571756
 30
0.0
  0
VERTEX
  5
693
  8
0
  6
CONTINUOUS
 62
     7
 10
437.5432466552
 20
858.6284015727
 30
0.0
  0
VERTEX
  5
694
  8
0
  6
CONTINUOUS
 62
     7
 10
437.381617485
 20
858.8188533139
 30
0.0
  0
VERTEX
  5
695
  8
0
  6
CONTINUOUS
 62
     7
 10
437.209158896
 20
859.0220678997
 30
0.0
  0
VERTEX
  5
696
  8
0
  6
CONTINUOUS
 62
     7
 10
437.0293577597
 20
859.2339251589
 30
0.0
  0
VERTEX
  5
697
  8
0
  6
CONTINUOUS
 62
     7
 10
436.8458462343
 20
859.4501633596
 30
0.0
  0
SEQEND
  5
A88
  8
0
  6
CONTINUOUS
 62
     7
  0
ARC
  5
228
  8
0
  6
CONTINUOUS
 62
     7
 10
438.7044551471
 20
856.1315691889
 30
0.0
 40
3.803615958600023
 50
98.6236189037
 51
119.251404692
  0
POLYLINE
  5
229
  8
0
  6
CONTINUOUS
 62
     7
 66
     1
 10
0.0
 20
0.0
 30
0.0
 70
   128
  0
VERTEX
  5
698
  8
0
  6
CONTINUOUS
 62
     7
 10
449.5724958763
 20
859.8921839547
 30
0.0
  0
VERTEX
  5
699
  8
0
  6
CONTINUOUS
 62
     7
 10
449.8222467885
 20
859.8458487939
 30
0.0
  0
VERTEX
  5
69A
  8
0
  6
CONTINUOUS
 62
     7
 10
450.8607757673
 20
859.4501633596
 30
0.0
  0
SEQEND
  5
A89
  8
0
  6
CONTINUOUS
 62
     7
  0
POLYLINE
  5
22A
  8
0
  6
CONTINUOUS
 62
     7
 66
     1
 10
0.0
 20
0.0
 30
0.0
 70
   128
  0
VERTEX
  5
69B
  8
0
  6
CONTINUOUS
 62
     7
 10
450.8607757673
 20
859.4501633596
 30
0.0
  0
VERTEX
  5
69C
  8
0
  6
CONTINUOUS
 62
     7
 10
450.6772679672
 20
859.2339251589
 30
0.0
  0
VERTEX
  5
69D
  8
0
  6
CONTINUOUS
 62
     7
 10
450.497466831
 20
859.0220678997
 30
0.0
  0
VERTEX
  5
69E
  8
0
  6
CONTINUOUS
 62
     7
 10
450.3250082419
 20
858.8188533139
 30
0.0
  0
VERTEX
  5
69F
  8
0
  6
CONTINUOUS
 62
     7
 10
450.1633790717
 20
858.6284015727
 30
0.0
  0
VERTEX
  5
6A0
  8
0
  6
CONTINUOUS
 62
     7
 10
450.0158426747
 20
858.4545571756
 30
0.0
  0
VERTEX
  5
6A1
  8
0
  6
CONTINUOUS
 62
     7
 10
449.8853867338
 20
858.3008293461
 30
0.0
  0
VERTEX
  5
6A2
  8
0
  6
CONTINUOUS
 62
     7
 10
449.7746375785
 20
858.1703398776
 30
0.0
  0
VERTEX
  5
6A3
  8
0
  6
CONTINUOUS
 62
     7
 10
449.6858452842
 20
858.0657113742
 30
0.0
  0
SEQEND
  5
A8A
  8
0
  6
CONTINUOUS
 62
     7
  0
ARC
  5
22B
  8
0
  6
CONTINUOUS
 62
     7
 10
448.7033583309
 20
856.0377765251
 30
0.0
 40
3.971385461663397
 50
17.7285446998
 51
50.3393102705
  0
ARC
  5
22C
  8
0
  6
CONTINUOUS
 62
     7
 10
453.4128646111
 20
855.3360409779
 30
0.0
 40
2.123896634919443
 50
115.8700295148
 51
162.0945772852
  0
POLYLINE
  5
22D
  8
0
  6
CONTINUOUS
 62
     7
 66
     1
 10
0.0
 20
0.0
 30
0.0
 70
   128
  0
VERTEX
  5
6A4
  8
0
  6
CONTINUOUS
 62
     7
 10
451.2380545423
 20
859.0950984907
 30
0.0
  0
VERTEX
  5
6A5
  8
0
  6
CONTINUOUS
 62
     7
 10
451.0371868894
 20
858.9027990055
 30
0.0
  0
VERTEX
  5
6A6
  8
0
  6
CONTINUOUS
 62
     7
 10
450.8402196154
 20
858.7142322611
 30
0.0
  0
VERTEX
  5
6A7
  8
0
  6
CONTINUOUS
 62
     7
 10
450.6509823189
 20
858.5330713939
 30
0.0
  0
VERTEX
  5
6A8
  8
0
  6
CONTINUOUS
 62
     7
 10
450.4731481359
 20
858.3628256273
 30
0.0
  0
VERTEX
  5
6A9
  8
0
  6
CONTINUOUS
 62
     7
 10
450.3101741359
 20
858.206803019
 30
0.0
  0
VERTEX
  5
6AA
  8
0
  6
CONTINUOUS
 62
     7
 10
450.1652268157
 20
858.0680359554
 30
0.0
  0
VERTEX
  5
6AB
  8
0
  6
CONTINUOUS
 62
     7
 10
450.0411187694
 20
857.9492215466
 30
0.0
  0
VERTEX
  5
6AC
  8
0
  6
CONTINUOUS
 62
     7
 10
449.9402602599
 20
857.8526694726
 30
0.0
  0
SEQEND
  5
A8B
  8
0
  6
CONTINUOUS
 62
     7
  0
ARC
  5
22E
  8
0
  6
CONTINUOUS
 62
     7
 10
434.2937880378
 20
855.336073124
 30
0.0
 40
2.123857588936195
 50
17.9048516979
 51
64.130155165
  0
ARC
  5
22F
  8
0
  6
CONTINUOUS
 62
     7
 10
439.0409126934
 20
856.0123597065
 30
0.0
 40
4.014999283786348
 50
129.8427628065
 51
162.0895408627
  0
POLYLINE
  5
230
  8
0
  6
CONTINUOUS
 62
     7
 66
     1
 10
0.0
 20
0.0
 30
0.0
 70
   128
  0
VERTEX
  5
6AD
  8
0
  6
CONTINUOUS
 62
     7
 10
437.7663654671
 20
857.8526694726
 30
0.0
  0
VERTEX
  5
6AE
  8
0
  6
CONTINUOUS
 62
     7
 10
437.6655069575
 20
857.9492215466
 30
0.0
  0
VERTEX
  5
6AF
  8
0
  6
CONTINUOUS
 62
     7
 10
437.5413989112
 20
858.0680359554
 30
0.0
  0
VERTEX
  5
6B0
  8
0
  6
CONTINUOUS
 62
     7
 10
437.396451591
 20
858.206803019
 30
0.0
  0
VERTEX
  5
6B1
  8
0
  6
CONTINUOUS
 62
     7
 10
437.233477591
 20
858.3628256273
 30
0.0
  0
VERTEX
  5
6B2
  8
0
  6
CONTINUOUS
 62
     7
 10
437.055643408
 20
858.5330713939
 30
0.0
  0
VERTEX
  5
6B3
  8
0
  6
CONTINUOUS
 62
     7
 10
436.8664023862
 20
858.7142322611
 30
0.0
  0
VERTEX
  5
6B4
  8
0
  6
CONTINUOUS
 62
     7
 10
436.6694388375
 20
858.9027990055
 30
0.0
  0
VERTEX
  5
6B5
  8
0
  6
CONTINUOUS
 62
     7
 10
436.4685711846
 20
859.0950984907
 30
0.0
  0
SEQEND
  5
A8C
  8
0
  6
CONTINUOUS
 62
     7
  0
LINE
  5
231
  8
0
  6
CONTINUOUS
 62
     7
 10
436.4685711846
 20
859.0950984907
 30
0.0
 11
436.8458462343
 21
859.4501633596
 31
0.0
  0
LINE
  5
232
  8
0
  6
CONTINUOUS
 62
     7
 10
450.8607757673
 20
859.4501633596
 30
0.0
 11
451.2380545423
 21
859.0950984907
 31
0.0
  0
ARC
  5
233
  8
0
  6
CONTINUOUS
 62
     7
 10
443.85331275
 20
870.9890286278
 30
0.0
 40
10.49999999999995
 50
297.2660444507
 51
242.7339555493
  0
POLYLINE
  5
234
  8
0
  6
CONTINUOUS
 62
     7
 66
     1
 10
0.0
 20
0.0
 30
0.0
 70
   128
  0
VERTEX
  5
6B6
  8
0
  6
CONTINUOUS
 62
     7
 10
439.0430224523
 20
861.6556954038
 30
0.0
  0
VERTEX
  5
6B7
  8
0
  6
CONTINUOUS
 62
     7
 10
439.0269329235
 20
861.6244774711
 30
0.0
  0
VERTEX
  5
6B8
  8
0
  6
CONTINUOUS
 62
     7
 10
438.9790443168
 20
861.5315612804
 30
0.0
  0
VERTEX
  5
6B9
  8
0
  6
CONTINUOUS
 62
     7
 10
438.9004779444
 20
861.3791186761
 30
0.0
  0
VERTEX
  5
6BA
  8
0
  6
CONTINUOUS
 62
     7
 10
438.7930703745
 20
861.1707184863
 30
0.0
  0
VERTEX
  5
6BB
  8
0
  6
CONTINUOUS
 62
     7
 10
438.6593399033
 20
860.9112371158
 30
0.0
  0
VERTEX
  5
6BC
  8
0
  6
CONTINUOUS
 62
     7
 10
438.5024120495
 20
860.6067542386
 30
0.0
  0
VERTEX
  5
6BD
  8
0
  6
CONTINUOUS
 62
     7
 10
438.3259673998
 20
860.2644000601
 30
0.0
  0
VERTEX
  5
6BE
  8
0
  6
CONTINUOUS
 62
     7
 10
438.1341298506
 20
859.8921839547
 30
0.0
  0
SEQEND
  5
A8D
  8
0
  6
CONTINUOUS
 62
     7
  0
POLYLINE
  5
235
  8
0
  6
CONTINUOUS
 62
     7
 66
     1
 10
0.0
 20
0.0
 30
0.0
 70
   128
  0
VERTEX
  5
6BF
  8
0
  6
CONTINUOUS
 62
     7
 10
449.5724958763
 20
859.8921839547
 30
0.0
  0
VERTEX
  5
6C0
  8
0
  6
CONTINUOUS
 62
     7
 10
449.3806583271
 20
860.2644000601
 30
0.0
  0
VERTEX
  5
6C1
  8
0
  6
CONTINUOUS
 62
     7
 10
449.2042136774
 20
860.6067542386
 30
0.0
  0
VERTEX
  5
6C2
  8
0
  6
CONTINUOUS
 62
     7
 10
449.0472858236
 20
860.9112371158
 30
0.0
  0
VERTEX
  5
6C3
  8
0
  6
CONTINUOUS
 62
     7
 10
448.9135553524
 20
861.1707184863
 30
0.0
  0
VERTEX
  5
6C4
  8
0
  6
CONTINUOUS
 62
     7
 10
448.8061477825
 20
861.3791186761
 30
0.0
  0
VERTEX
  5
6C5
  8
0
  6
CONTINUOUS
 62
     7
 10
448.7275814102
 20
861.5315612804
 30
0.0
  0
VERTEX
  5
6C6
  8
0
  6
CONTINUOUS
 62
     7
 10
448.6796928034
 20
861.6244774711
 30
0.0
  0
VERTEX
  5
6C7
  8
0
  6
CONTINUOUS
 62
     7
 10
448.6636032746
 20
861.6556954038
 30
0.0
  0
SEQEND
  5
A8E
  8
0
  6
CONTINUOUS
 62
     7
  0
ARC
  5
236
  8
0
  6
CONTINUOUS
 62
     7
 10
443.85331275
 20
870.9890286278
 30
0.0
 40
16.99999999999999
 50
301.7568638593
 51
238.2431361407
  0
ARC
  5
237
  8
0
  6
CONTINUOUS
 62
     7
 10
456.446895724
 20
858.5685352304
 30
0.0
 40
4.175377289146832
 50
198.4504449237
 51
209.1595552877
  0
ARC
  5
238
  8
0
  6
CONTINUOUS
 62
     7
 10
431.3480054223
 20
858.5296121623
 30
0.0
 40
4.079334315267118
 50
330.7137355289
 51
341.675763069
  0
ARC
  5
239
  8
0
  6
CONTINUOUS
 62
     7
 10
443.8533128635
 20
870.9890366329
 30
0.0
 40
10.50000725420716
 50
242.7339727917
 51
297.2660272083
  0
ARC
  5
23A
  8
0
  6
CONTINUOUS
 62
     7
 10
453.85331275
 20
854.8335342064
 30
0.0
 40
2.00000000000007
 50
121.7568638593
 51
180.0
  0
ARC
  5
23B
  8
0
  6
CONTINUOUS
 62
     7
 10
433.85331275
 20
854.8335342064
 30
0.0
 40
2.00000000000004
 50
0.0
 51
58.2431361407
  0
LINE
  5
23C
  8
0
  6
CONTINUOUS
 62
     7
 10
449.6771541819
 20
633.9890305352
 30
0.0
 11
449.6771541819
 21
620.9890190911
 31
0.0
  0
LINE
  5
23D
  8
0
  6
CONTINUOUS
 62
     7
 10
449.6771541819
 20
620.9890190911
 30
0.0
 11
447.4233125732
 21
620.9890190911
 31
0.0
  0
LINE
  5
23E
  8
0
  6
CONTINUOUS
 62
     7
 10
447.4233125732
 20
620.9890190911
 30
0.0
 11
447.4233125732
 21
633.9890305352
 31
0.0
  0
LINE
  5
23F
  8
0
  6
CONTINUOUS
 62
     7
 10
447.4233125732
 20
633.9890305352
 30
0.0
 11
449.6771541819
 21
633.9890305352
 31
0.0
  0
POLYLINE
  5
240
  8
0
  6
CONTINUOUS
 62
     7
 66
     1
 10
0.0
 20
0.0
 30
0.0
 70
   128
  0
VERTEX
  5
6C8
  8
0
  6
CONTINUOUS
 62
     7
 10
448.7251003668
 20
618.989015038
 30
0.0
  0
VERTEX
  5
6C9
  8
0
  6
CONTINUOUS
 62
     7
 10
448.471132426
 20
619.0274600338
 30
0.0
  0
VERTEX
  5
6CA
  8
0
  6
CONTINUOUS
 62
     7
 10
448.2269284711
 20
619.141275103
 30
0.0
  0
VERTEX
  5
6CB
  8
0
  6
CONTINUOUS
 62
     7
 10
448.0018650577
 20
619.3260793042
 30
0.0
  0
VERTEX
  5
6CC
  8
0
  6
CONTINUOUS
 62
     7
 10
447.8045960352
 20
619.5748094868
 30
0.0
  0
VERTEX
  5
6CD
  8
0
  6
CONTINUOUS
 62
     7
 10
447.6427023694
 20
619.8778991055
 30
0.0
  0
VERTEX
  5
6CE
  8
0
  6
CONTINUOUS
 62
     7
 10
447.5224052951
 20
620.2236656498
 30
0.0
  0
VERTEX
  5
6CF
  8
0
  6
CONTINUOUS
 62
     7
 10
447.4483241722
 20
620.5988470864
 30
0.0
  0
VERTEX
  5
6D0
  8
0
  6
CONTINUOUS
 62
     7
 10
447.4233125732
 20
620.9890190911
 30
0.0
  0
SEQEND
  5
A8F
  8
0
  6
CONTINUOUS
 62
     7
  0
POLYLINE
  5
241
  8
0
  6
CONTINUOUS
 62
     7
 66
     1
 10
0.0
 20
0.0
 30
0.0
 70
   128
  0
VERTEX
  5
6D1
  8
0
  6
CONTINUOUS
 62
     7
 10
448.7251003668
 20
618.989015038
 30
0.0
  0
VERTEX
  5
6D2
  8
0
  6
CONTINUOUS
 62
     7
 10
448.9108358905
 20
619.0274600338
 30
0.0
  0
VERTEX
  5
6D3
  8
0
  6
CONTINUOUS
 62
     7
 10
449.089433758
 20
619.141275103
 30
0.0
  0
VERTEX
  5
6D4
  8
0
  6
CONTINUOUS
 62
     7
 10
449.2540319846
 20
619.3260793042
 30
0.0
  0
VERTEX
  5
6D5
  8
0
  6
CONTINUOUS
 62
     7
 10
449.3983013019
 20
619.5748094868
 30
0.0
  0
VERTEX
  5
6D6
  8
0
  6
CONTINUOUS
 62
     7
 10
449.5167022035
 20
619.8778991055
 30
0.0
  0
VERTEX
  5
6D7
  8
0
  6
CONTINUOUS
 62
     7
 10
449.6046823845
 20
620.2236656498
 30
0.0
  0
VERTEX
  5
6D8
  8
0
  6
CONTINUOUS
 62
     7
 10
449.6588592813
 20
620.5988470864
 30
0.0
  0
VERTEX
  5
6D9
  8
0
  6
CONTINUOUS
 62
     7
 10
449.6771541819
 20
620.9890190911
 30
0.0
  0
SEQEND
  5
A90
  8
0
  6
CONTINUOUS
 62
     7
  0
LINE
  5
242
  8
0
  6
CONTINUOUS
 62
     7
 10
551.5663584158
 20
633.9890305352
 30
0.0
 11
551.5663584158
 21
620.9890190911
 31
0.0
  0
LINE
  5
243
  8
0
  6
CONTINUOUS
 62
     7
 10
549.3125168071
 20
620.9890190911
 30
0.0
 11
551.5663584158
 21
620.9890190911
 31
0.0
  0
LINE
  5
244
  8
0
  6
CONTINUOUS
 62
     7
 10
549.3125168071
 20
620.9890190911
 30
0.0
 11
549.3125168071
 21
633.9890305352
 31
0.0
  0
LINE
  5
245
  8
0
  6
CONTINUOUS
 62
     7
 10
549.3125168071
 20
633.9890305352
 30
0.0
 11
551.5663584158
 21
633.9890305352
 31
0.0
  0
POLYLINE
  5
246
  8
0
  6
CONTINUOUS
 62
     7
 66
     1
 10
0.0
 20
0.0
 30
0.0
 70
   128
  0
VERTEX
  5
6DA
  8
0
  6
CONTINUOUS
 62
     7
 10
550.2645706222
 20
618.989015038
 30
0.0
  0
VERTEX
  5
6DB
  8
0
  6
CONTINUOUS
 62
     7
 10
550.518538563
 20
619.0274600338
 30
0.0
  0
VERTEX
  5
6DC
  8
0
  6
CONTINUOUS
 62
     7
 10
550.7627425179
 20
619.141275103
 30
0.0
  0
VERTEX
  5
6DD
  8
0
  6
CONTINUOUS
 62
     7
 10
550.9878059313
 20
619.3260793042
 30
0.0
  0
VERTEX
  5
6DE
  8
0
  6
CONTINUOUS
 62
     7
 10
551.1850749538
 20
619.5748094868
 30
0.0
  0
VERTEX
  5
6DF
  8
0
  6
CONTINUOUS
 62
     7
 10
551.3469686196
 20
619.8778991055
 30
0.0
  0
VERTEX
  5
6E0
  8
0
  6
CONTINUOUS
 62
     7
 10
551.4672656939
 20
620.2236656498
 30
0.0
  0
VERTEX
  5
6E1
  8
0
  6
CONTINUOUS
 62
     7
 10
551.5413468168
 20
620.5988470864
 30
0.0
  0
VERTEX
  5
6E2
  8
0
  6
CONTINUOUS
 62
     7
 10
551.5663584158
 20
620.9890190911
 30
0.0
  0
SEQEND
  5
A91
  8
0
  6
CONTINUOUS
 62
     7
  0
POLYLINE
  5
247
  8
0
  6
CONTINUOUS
 62
     7
 66
     1
 10
0.0
 20
0.0
 30
0.0
 70
   128
  0
VERTEX
  5
6E3
  8
0
  6
CONTINUOUS
 62
     7
 10
549.3125168071
 20
620.9890190911
 30
0.0
  0
VERTEX
  5
6E4
  8
0
  6
CONTINUOUS
 62
     7
 10
549.3308117077
 20
620.5988470864
 30
0.0
  0
VERTEX
  5
6E5
  8
0
  6
CONTINUOUS
 62
     7
 10
549.3849886045
 20
620.2236656498
 30
0.0
  0
VERTEX
  5
6E6
  8
0
  6
CONTINUOUS
 62
     7
 10
549.4729687855
 20
619.8778991055
 30
0.0
  0
VERTEX
  5
6E7
  8
0
  6
CONTINUOUS
 62
     7
 10
549.5913696871
 20
619.5748094868
 30
0.0
  0
VERTEX
  5
6E8
  8
0
  6
CONTINUOUS
 62
     7
 10
549.7356390045
 20
619.3260793042
 30
0.0
  0
VERTEX
  5
6E9
  8
0
  6
CONTINUOUS
 62
     7
 10
549.900237231
 20
619.141275103
 30
0.0
  0
VERTEX
  5
6EA
  8
0
  6
CONTINUOUS
 62
     7
 10
550.0788350985
 20
619.0274600338
 30
0.0
  0
VERTEX
  5
6EB
  8
0
  6
CONTINUOUS
 62
     7
 10
550.2645706222
 20
618.989015038
 30
0.0
  0
SEQEND
  5
A92
  8
0
  6
CONTINUOUS
 62
     7
  0
LINE
  5
248
  8
0
  6
CONTINUOUS
 62
     7
 10
532.0128349051
 20
633.9890305352
 30
0.0
 11
532.0128349051
 21
623.9890400719
 31
0.0
  0
LINE
  5
249
  8
0
  6
CONTINUOUS
 62
     7
 10
466.9768360839
 20
623.9890400719
 30
0.0
 11
532.0128349051
 21
623.9890400719
 31
0.0
  0
LINE
  5
24A
  8
0
  6
CONTINUOUS
 62
     7
 10
466.9768360839
 20
633.9890305352
 30
0.0
 11
466.9768360839
 21
623.9890400719
 31
0.0
  0
LINE
  5
24B
  8
0
  6
CONTINUOUS
 62
     7
 10
438.4948348091
 20
658.9890364956
 30
0.0
 11
447.4115741834
 21
658.9890364956
 31
0.0
  0
LINE
  5
24C
  8
0
  6
CONTINUOUS
 62
     7
 10
455.4115754948
 20
658.9890364956
 30
0.0
 11
543.5780954943
 21
658.9890364956
 31
0.0
  0
LINE
  5
24D
  8
0
  6
CONTINUOUS
 62
     7
 10
551.5780968056
 20
658.9890364956
 30
0.0
 11
560.49483618
 21
658.9890364956
 31
0.0
  0
ARC
  5
24E
  8
0
  6
CONTINUOUS
 62
     7
 10
527.0588298404
 20
623.9890991981
 30
0.0
 40
4.954005065090039
 50
322.7289201384
 51
359.9993161737
  0
ARC
  5
24F
  8
0
  6
CONTINUOUS
 62
     7
 10
527.4126163648
 20
622.6502631563
 30
0.0
 40
3.954379974422368
 50
292.1998458875
 51
335.1589546285
  0
LINE
  5
250
  8
0
  6
CONTINUOUS
 62
     7
 10
528.9067325578
 20
618.989015038
 30
0.0
 11
470.0829384312
 21
618.989015038
 31
0.0
  0
POLYLINE
  5
251
  8
0
  6
CONTINUOUS
 62
     7
 66
     1
 10
0.0
 20
0.0
 30
0.0
 70
   128
  0
VERTEX
  5
6EC
  8
0
  6
CONTINUOUS
 62
     7
 10
467.9885466978
 20
620.9890190911
 30
0.0
  0
VERTEX
  5
6ED
  8
0
  6
CONTINUOUS
 62
     7
 10
468.5301927314
 20
620.2633921456
 30
0.0
  0
VERTEX
  5
6EE
  8
0
  6
CONTINUOUS
 62
     7
 10
469.0925122634
 20
619.5717100453
 30
0.0
  0
VERTEX
  5
6EF
  8
0
  6
CONTINUOUS
 62
     7
 10
469.6690810308
 20
619.0980617356
 30
0.0
  0
VERTEX
  5
6F0
  8
0
  6
CONTINUOUS
 62
     7
 10
470.0768364057
 20
618.9890448403
 30
0.0
  0
VERTEX
  5
6F1
  8
0
  6
CONTINUOUS
 62
     7
 10
470.0829384312
 20
618.989015038
 30
0.0
  0
SEQEND
  5
A93
  8
0
  6
CONTINUOUS
 62
     7
  0
POLYLINE
  5
252
  8
0
  6
CONTINUOUS
 62
     7
 66
     1
 10
0.0
 20
0.0
 30
0.0
 70
   128
  0
VERTEX
  5
6F2
  8
0
  6
CONTINUOUS
 62
     7
 10
467.9885466978
 20
620.9890190911
 30
0.0
  0
VERTEX
  5
6F3
  8
0
  6
CONTINUOUS
 62
     7
 10
467.2756974981
 20
622.2943310093
 30
0.0
  0
VERTEX
  5
6F4
  8
0
  6
CONTINUOUS
 62
     7
 10
466.9768360839
 20
623.9890400719
 30
0.0
  0
SEQEND
  5
A94
  8
0
  6
CONTINUOUS
 62
     7
  0
LINE
  5
253
  8
0
  6
CONTINUOUS
 62
     7
 10
449.6771541819
 20
620.9890190911
 30
0.0
 11
467.9885466978
 21
620.9890190911
 31
0.0
  0
LINE
  5
254
  8
0
  6
CONTINUOUS
 62
     7
 10
449.6771541819
 20
633.9890305352
 30
0.0
 11
466.9768360839
 21
633.9890305352
 31
0.0
  0
LINE
  5
255
  8
0
  6
CONTINUOUS
 62
     7
 10
470.0829384312
 20
618.989015038
 30
0.0
 11
448.7251003668
 21
618.989015038
 31
0.0
  0
LINE
  5
256
  8
0
  6
CONTINUOUS
 62
     7
 10
531.0011242912
 20
620.9890190911
 30
0.0
 11
549.3125168071
 21
620.9890190911
 31
0.0
  0
LINE
  5
257
  8
0
  6
CONTINUOUS
 62
     7
 10
532.0128349051
 20
633.9890305352
 30
0.0
 11
549.3125168071
 21
633.9890305352
 31
0.0
  0
LINE
  5
258
  8
0
  6
CONTINUOUS
 62
     7
 10
550.2645706222
 20
618.989015038
 30
0.0
 11
528.9067325578
 21
618.989015038
 31
0.0
  0
LINE
  5
259
  8
0
  6
CONTINUOUS
 62
     7
 10
438.7613495276
 20
620.9890190911
 30
0.0
 11
447.4233125732
 21
620.9890190911
 31
0.0
  0
LINE
  5
25A
  8
0
  6
CONTINUOUS
 62
     7
 10
438.7613495276
 20
633.9890305352
 30
0.0
 11
438.7613495276
 21
620.9890190911
 31
0.0
  0
LINE
  5
25B
  8
0
  6
CONTINUOUS
 62
     7
 10
438.7613495276
 20
633.9890305352
 30
0.0
 11
447.4233125732
 21
633.9890305352
 31
0.0
  0
LINE
  5
25C
  8
0
  6
CONTINUOUS
 62
     7
 10
448.7251003668
 20
618.989015038
 30
0.0
 11
440.279684721
 21
618.989015038
 31
0.0
  0
ARC
  5
25D
  8
0
  6
CONTINUOUS
 62
     7
 10
440.5587531917
 20
620.7772106473
 30
0.0
 40
1.809840531293692
 50
173.2791843088
 51
261.1298845867
  0
LINE
  5
25E
  8
0
  6
CONTINUOUS
 62
     7
 10
560.2283214614
 20
620.9890190911
 30
0.0
 11
560.2283214614
 21
633.9890305352
 31
0.0
  0
LINE
  5
25F
  8
0
  6
CONTINUOUS
 62
     7
 10
551.5663584158
 20
620.9890190911
 30
0.0
 11
560.2283214614
 21
620.9890190911
 31
0.0
  0
LINE
  5
260
  8
0
  6
CONTINUOUS
 62
     7
 10
551.5663584158
 20
633.9890305352
 30
0.0
 11
560.2283214614
 21
633.9890305352
 31
0.0
  0
LINE
  5
261
  8
0
  6
CONTINUOUS
 62
     7
 10
558.709986268
 20
618.989015038
 30
0.0
 11
550.2645706222
 21
618.989015038
 31
0.0
  0
ARC
  5
262
  8
0
  6
CONTINUOUS
 62
     7
 10
558.4309177973
 20
620.7772106473
 30
0.0
 40
1.80984053129361
 50
278.8701154133
 51
6.7208156912
  0
LINE
  5
263
  8
0
  6
CONTINUOUS
 62
     7
 10
438.2796843932
 20
633.9890305352
 30
0.0
 11
438.7613495276
 21
633.9890305352
 31
0.0
  0
LINE
  5
264
  8
0
  6
CONTINUOUS
 62
     7
 10
560.2283214614
 20
633.9890305352
 30
0.0
 11
560.7099865959
 21
633.9890305352
 31
0.0
  0
LINE
  5
265
  8
0
  6
CONTINUOUS
 62
     7
 10
505.4886338696
 20
613.9890198063
 30
0.0
 11
493.5010371194
 21
613.9890198063
 31
0.0
  0
ARC
  5
266
  8
0
  6
CONTINUOUS
 62
     7
 10
488.5036582047
 20
613.9916360875
 30
0.0
 40
4.997379599508177
 50
359.9700039047
 51
89.9707989654
  0
ARC
  5
267
  8
0
  6
CONTINUOUS
 62
     7
 10
510.4860127843
 20
613.9916360875
 30
0.0
 40
4.997379599508139
 50
90.0292010346
 51
180.0299960953
  0
LINE
  5
268
  8
0
  6
CONTINUOUS
 62
     7
 10
505.4886338696
 20
595.9890429329
 30
0.0
 11
505.4886338696
 21
613.9890198063
 31
0.0
  0
LINE
  5
269
  8
0
  6
CONTINUOUS
 62
     7
 10
493.5010371194
 20
595.9890429329
 30
0.0
 11
505.4886338696
 21
595.9890429329
 31
0.0
  0
LINE
  5
26A
  8
0
  6
CONTINUOUS
 62
     7
 10
493.5010371194
 20
613.9890198063
 30
0.0
 11
493.5010371194
 21
595.9890429329
 31
0.0
  0
LINE
  5
26B
  8
0
  6
CONTINUOUS
 62
     7
 10
503.4907010779
 20
593.9890388798
 30
0.0
 11
495.4989699111
 21
593.9890388798
 31
0.0
  0
ARC
  5
26C
  8
0
  6
CONTINUOUS
 62
     7
 10
495.4999756449
 20
595.9879774363
 30
0.0
 40
1.998938809493791
 50
179.9694595639
 51
269.9711725517
  0
ARC
  5
26D
  8
0
  6
CONTINUOUS
 62
     7
 10
503.4896953441
 20
595.9879774363
 30
0.0
 40
1.998938809493791
 50
270.0288274483
 51
0.0305404361
  0
POLYLINE
  5
26E
  8
0
  6
CONTINUOUS
 62
     7
 66
     1
 10
0.0
 20
0.0
 30
0.0
 70
   128
  0
VERTEX
  5
6F5
  8
0
  6
CONTINUOUS
 62
     7
 10
489.8462814674
 20
613.9890198063
 30
0.0
  0
VERTEX
  5
6F6
  8
0
  6
CONTINUOUS
 62
     7
 10
489.8205322609
 20
614.9644796204
 30
0.0
  0
VERTEX
  5
6F7
  8
0
  6
CONTINUOUS
 62
     7
 10
489.7442746371
 20
615.9024481129
 30
0.0
  0
VERTEX
  5
6F8
  8
0
  6
CONTINUOUS
 62
     7
 10
489.620438537
 20
616.7668942761
 30
0.0
  0
VERTEX
  5
6F9
  8
0
  6
CONTINUOUS
 62
     7
 10
489.4537820876
 20
617.5245587182
 30
0.0
  0
VERTEX
  5
6FA
  8
0
  6
CONTINUOUS
 62
     7
 10
489.2507118568
 20
618.1463841748
 30
0.0
  0
VERTEX
  5
6FB
  8
0
  6
CONTINUOUS
 62
     7
 10
489.0190304652
 20
618.6084393811
 30
0.0
  0
VERTEX
  5
6FC
  8
0
  6
CONTINUOUS
 62
     7
 10
488.7676413566
 20
618.8929621529
 30
0.0
  0
VERTEX
  5
6FD
  8
0
  6
CONTINUOUS
 62
     7
 10
488.5062051401
 20
618.989015038
 30
0.0
  0
SEQEND
  5
A95
  8
0
  6
CONTINUOUS
 62
     7
  0
LINE
  5
26F
  8
0
  6
CONTINUOUS
 62
     7
 10
489.8462814674
 20
613.9890198063
 30
0.0
 11
493.5010371194
 21
613.9890198063
 31
0.0
  0
POLYLINE
  5
270
  8
0
  6
CONTINUOUS
 62
     7
 66
     1
 10
0.0
 20
0.0
 30
0.0
 70
   128
  0
VERTEX
  5
6FE
  8
0
  6
CONTINUOUS
 62
     7
 10
510.4834658489
 20
618.989015038
 30
0.0
  0
VERTEX
  5
6FF
  8
0
  6
CONTINUOUS
 62
     7
 10
510.2220296324
 20
618.8929621529
 30
0.0
  0
VERTEX
  5
700
  8
0
  6
CONTINUOUS
 62
     7
 10
509.9706405238
 20
618.6084393811
 30
0.0
  0
VERTEX
  5
701
  8
0
  6
CONTINUOUS
 62
     7
 10
509.7389591322
 20
618.1463841748
 30
0.0
  0
VERTEX
  5
702
  8
0
  6
CONTINUOUS
 62
     7
 10
509.5358889014
 20
617.5245587182
 30
0.0
  0
VERTEX
  5
703
  8
0
  6
CONTINUOUS
 62
     7
 10
509.369232452
 20
616.7668942761
 30
0.0
  0
VERTEX
  5
704
  8
0
  6
CONTINUOUS
 62
     7
 10
509.2453963519
 20
615.9024481129
 30
0.0
  0
VERTEX
  5
705
  8
0
  6
CONTINUOUS
 62
     7
 10
509.1691387281
 20
614.9644796204
 30
0.0
  0
VERTEX
  5
706
  8
0
  6
CONTINUOUS
 62
     7
 10
509.1433895216
 20
613.9890198063
 30
0.0
  0
SEQEND
  5
A96
  8
0
  6
CONTINUOUS
 62
     7
  0
LINE
  5
271
  8
0
  6
CONTINUOUS
 62
     7
 10
505.4886338696
 20
613.9890198063
 30
0.0
 11
509.1433895216
 21
613.9890198063
 31
0.0
  0
LINE
  5
272
  8
0
  6
CONTINUOUS
 62
     7
 10
489.8462814674
 20
595.9890429329
 30
0.0
 11
493.5010371194
 21
595.9890429329
 31
0.0
  0
LINE
  5
273
  8
0
  6
CONTINUOUS
 62
     7
 10
489.8462814674
 20
595.9890429329
 30
0.0
 11
489.8462814674
 21
613.9890198063
 31
0.0
  0
ARC
  5
274
  8
0
  6
CONTINUOUS
 62
     7
 10
492.1138040181
 20
595.52493878
 30
0.0
 40
2.314530445425759
 50
168.4327699141
 51
221.5742659946
  0
LINE
  5
275
  8
0
  6
CONTINUOUS
 62
     7
 10
495.4989699111
 20
593.9890388798
 30
0.0
 11
490.3823125571
 21
593.9890388798
 31
0.0
  0
LINE
  5
276
  8
0
  6
CONTINUOUS
 62
     7
 10
509.1433895216
 20
613.9890198063
 30
0.0
 11
509.1433895216
 21
595.9890429329
 31
0.0
  0
LINE
  5
277
  8
0
  6
CONTINUOUS
 62
     7
 10
505.4886338696
 20
595.9890429329
 30
0.0
 11
509.1433895216
 21
595.9890429329
 31
0.0
  0
ARC
  5
278
  8
0
  6
CONTINUOUS
 62
     7
 10
506.8758669709
 20
595.52493878
 30
0.0
 40
2.314530445425778
 50
318.4257340055
 51
11.5672300859
  0
LINE
  5
279
  8
0
  6
CONTINUOUS
 62
     7
 10
508.6073584319
 20
593.9890388798
 30
0.0
 11
503.4907010779
 21
593.9890388798
 31
0.0
  0
LINE
  5
27A
  8
0
  6
CONTINUOUS
 62
     7
 10
490.3823125571
 20
593.9890388798
 30
0.0
 11
465.4948336468
 21
593.9890388798
 31
0.0
  0
LINE
  5
27B
  8
0
  6
CONTINUOUS
 62
     7
 10
533.4948373422
 20
593.9890388798
 30
0.0
 11
508.6073584319
 21
593.9890388798
 31
0.0
  0
POLYLINE
  5
27C
  8
0
  6
CONTINUOUS
 62
     7
 66
     1
 10
0.0
 20
0.0
 30
0.0
 70
   128
  0
VERTEX
  5
707
  8
0
  6
CONTINUOUS
 62
     7
 10
463.564451544
 20
593.9890388798
 30
0.0
  0
VERTEX
  5
708
  8
0
  6
CONTINUOUS
 62
     7
 10
463.3542036102
 20
594.0274540734
 30
0.0
  0
VERTEX
  5
709
  8
0
  6
CONTINUOUS
 62
     7
 10
463.152035831
 20
594.1412691426
 30
0.0
  0
VERTEX
  5
70A
  8
0
  6
CONTINUOUS
 62
     7
 10
462.9657154367
 20
594.326103146
 30
0.0
  0
VERTEX
  5
70B
  8
0
  6
CONTINUOUS
 62
     7
 10
462.8024061606
 20
594.5748035263
 30
0.0
  0
VERTEX
  5
70C
  8
0
  6
CONTINUOUS
 62
     7
 10
462.6683813915
 20
594.877893145
 30
0.0
  0
VERTEX
  5
70D
  8
0
  6
CONTINUOUS
 62
     7
 10
462.568793206
 20
595.2236596894
 30
0.0
  0
VERTEX
  5
70E
  8
0
  6
CONTINUOUS
 62
     7
 10
462.5074637518
 20
595.5988411259
 30
0.0
  0
VERTEX
  5
70F
  8
0
  6
CONTINUOUS
 62
     7
 10
462.4867585883
 20
595.9890429329
 30
0.0
  0
SEQEND
  5
A97
  8
0
  6
CONTINUOUS
 62
     7
  0
LINE
  5
27D
  8
0
  6
CONTINUOUS
 62
     7
 10
465.4948336468
 20
593.9890388798
 30
0.0
 11
463.564451544
 21
593.9890388798
 31
0.0
  0
POLYLINE
  5
27E
  8
0
  6
CONTINUOUS
 62
     7
 66
     1
 10
0.0
 20
0.0
 30
0.0
 70
   128
  0
VERTEX
  5
710
  8
0
  6
CONTINUOUS
 62
     7
 10
536.5029124007
 20
595.9890429329
 30
0.0
  0
VERTEX
  5
711
  8
0
  6
CONTINUOUS
 62
     7
 10
536.4822072372
 20
595.5988411259
 30
0.0
  0
VERTEX
  5
712
  8
0
  6
CONTINUOUS
 62
     7
 10
536.420877783
 20
595.2236596894
 30
0.0
  0
VERTEX
  5
713
  8
0
  6
CONTINUOUS
 62
     7
 10
536.3212895975
 20
594.877893145
 30
0.0
  0
VERTEX
  5
714
  8
0
  6
CONTINUOUS
 62
     7
 10
536.1872648284
 20
594.5748035263
 30
0.0
  0
VERTEX
  5
715
  8
0
  6
CONTINUOUS
 62
     7
 10
536.0239555523
 20
594.326103146
 30
0.0
  0
VERTEX
  5
716
  8
0
  6
CONTINUOUS
 62
     7
 10
535.837635158
 20
594.1412691426
 30
0.0
  0
VERTEX
  5
717
  8
0
  6
CONTINUOUS
 62
     7
 10
535.6354673788
 20
594.0274540734
 30
0.0
  0
VERTEX
  5
718
  8
0
  6
CONTINUOUS
 62
     7
 10
535.425219445
 20
593.9890388798
 30
0.0
  0
SEQEND
  5
A98
  8
0
  6
CONTINUOUS
 62
     7
  0
LINE
  5
27F
  8
0
  6
CONTINUOUS
 62
     7
 10
535.425219445
 20
593.9890388798
 30
0.0
 11
533.4948373422
 21
593.9890388798
 31
0.0
  0
LINE
  5
280
  8
0
  6
CONTINUOUS
 62
     7
 10
462.4867585883
 20
595.9890429329
 30
0.0
 11
462.4867585883
 21
613.9890198063
 31
0.0
  0
LINE
  5
281
  8
0
  6
CONTINUOUS
 62
     7
 10
536.5029124007
 20
613.9890198063
 30
0.0
 11
536.5029124007
 21
595.9890429329
 31
0.0
  0
LINE
  5
282
  8
0
  6
CONTINUOUS
 62
     7
 10
463.564451544
 20
593.9890388798
 30
0.0
 11
461.7198442504
 21
593.9890388798
 31
0.0
  0
LINE
  5
283
  8
0
  6
CONTINUOUS
 62
     7
 10
537.2698267386
 20
593.9890388798
 30
0.0
 11
535.425219445
 21
593.9890388798
 31
0.0
  0
LINE
  5
284
  8
0
  6
CONTINUOUS
 62
     7
 10
560.49483618
 20
695.4890285086
 30
0.0
 11
551.5780968056
 21
695.4890285086
 31
0.0
  0
LINE
  5
285
  8
0
  6
CONTINUOUS
 62
     7
 10
543.5780954943
 20
695.4890285086
 30
0.0
 11
455.4115754948
 21
695.4890285086
 31
0.0
  0
LINE
  5
286
  8
0
  6
CONTINUOUS
 62
     7
 10
447.4115741834
 20
695.4890285086
 30
0.0
 11
438.4948348091
 21
695.4890285086
 31
0.0
  0
LINE
  5
287
  8
0
  6
CONTINUOUS
 62
     7
 10
560.49483618
 20
731.9890354228
 30
0.0
 11
551.5780968056
 21
731.9890354228
 31
0.0
  0
LINE
  5
288
  8
0
  6
CONTINUOUS
 62
     7
 10
543.5780954943
 20
731.9890354228
 30
0.0
 11
455.4115754948
 21
731.9890354228
 31
0.0
  0
LINE
  5
289
  8
0
  6
CONTINUOUS
 62
     7
 10
447.4115741834
 20
731.9890354228
 30
0.0
 11
438.4948348091
 21
731.9890354228
 31
0.0
  0
LINE
  5
28A
  8
0
  6
CONTINUOUS
 62
     7
 10
560.49483618
 20
768.4890274357
 30
0.0
 11
551.5780968056
 21
768.4890274357
 31
0.0
  0
LINE
  5
28B
  8
0
  6
CONTINUOUS
 62
     7
 10
543.5780954943
 20
768.4890274357
 30
0.0
 11
455.4115754948
 21
768.4890274357
 31
0.0
  0
LINE
  5
28C
  8
0
  6
CONTINUOUS
 62
     7
 10
447.4115741834
 20
768.4890274357
 30
0.0
 11
438.4948348091
 21
768.4890274357
 31
0.0
  0
POLYLINE
  5
28D
  8
0
  6
CONTINUOUS
 62
     7
 66
     1
 10
0.0
 20
0.0
 30
0.0
 70
   128
  0
VERTEX
  5
719
  8
0
  6
CONTINUOUS
 62
     7
 10
460.4948346898
 20
853.0729506564
 30
0.0
  0
VERTEX
  5
71A
  8
0
  6
CONTINUOUS
 62
     7
 10
460.4623203561
 20
853.2653097462
 30
0.0
  0
VERTEX
  5
71B
  8
0
  6
CONTINUOUS
 62
     7
 10
460.4310539946
 20
853.4502778601
 30
0.0
  0
VERTEX
  5
71C
  8
0
  6
CONTINUOUS
 62
     7
 10
460.4022388742
 20
853.6207471442
 30
0.0
  0
VERTEX
  5
71D
  8
0
  6
CONTINUOUS
 62
     7
 10
460.3769851312
 20
853.770168538
 30
0.0
  0
VERTEX
  5
71E
  8
0
  6
CONTINUOUS
 62
     7
 10
460.356257616
 20
853.8927901935
 30
0.0
  0
VERTEX
  5
71F
  8
0
  6
CONTINUOUS
 62
     7
 10
460.3408572659
 20
853.9839033436
 30
0.0
  0
VERTEX
  5
720
  8
0
  6
CONTINUOUS
 62
     7
 10
460.3313726768
 20
854.0400136661
 30
0.0
  0
VERTEX
  5
721
  8
0
  6
CONTINUOUS
 62
     7
 10
460.3281689272
 20
854.0589604926
 30
0.0
  0
SEQEND
  5
A99
  8
0
  6
CONTINUOUS
 62
     7
  0
ARC
  5
28E
  8
0
  6
CONTINUOUS
 62
     7
 10
459.4948126927
 20
858.9890581362
 30
0.0
 40
5.000034538764894
 50
279.5942674755
 51
335.7861542159
  0
ARC
  5
28F
  8
0
  6
CONTINUOUS
 62
     7
 10
464.4591504077
 20
856.8636461213
 30
0.0
 40
0.4110422133241485
 50
169.5320151788
 51
234.698048429
  0
ARC
  5
290
  8
0
  6
CONTINUOUS
 62
     7
 10
459.1776302387
 20
858.2311235986
 30
0.0
 40
5.32369943439293
 50
284.325057132
 51
341.344429591
  0
LINE
  5
291
  8
0
  6
CONTINUOUS
 62
     7
 10
460.4948346898
 20
841.9890273761
 30
0.0
 11
460.4948346898
 21
853.0729506564
 31
0.0
  0
LINE
  5
292
  8
0
  6
CONTINUOUS
 62
     7
 10
464.2216151044
 20
841.9890273761
 30
0.0
 11
464.2216151044
 21
856.5281872105
 31
0.0
  0
LINE
  5
293
  8
0
  6
CONTINUOUS
 62
     7
 10
464.2216151044
 20
841.9890273761
 30
0.0
 11
460.4948346898
 21
841.9890273761
 31
0.0
  0
LINE
  5
294
  8
0
  6
CONTINUOUS
 62
     7
 10
534.7680558846
 20
856.5281872105
 30
0.0
 11
534.7680558846
 21
841.9890273761
 31
0.0
  0
ARC
  5
295
  8
0
  6
CONTINUOUS
 62
     7
 10
539.8120407503
 20
858.2311235986
 30
0.0
 40
5.32369943439293
 50
198.655570409
 51
255.674942868
  0
LINE
  5
296
  8
0
  6
CONTINUOUS
 62
     7
 10
538.4948362992
 20
853.0729506564
 30
0.0
 11
538.4948362992
 21
841.9890273761
 31
0.0
  0
LINE
  5
297
  8
0
  6
CONTINUOUS
 62
     7
 10
538.4948362992
 20
841.9890273761
 30
0.0
 11
534.7680558846
 21
841.9890273761
 31
0.0
  0
POLYLINE
  5
298
  8
0
  6
CONTINUOUS
 62
     7
 66
     1
 10
0.0
 20
0.0
 30
0.0
 70
   128
  0
VERTEX
  5
722
  8
0
  6
CONTINUOUS
 62
     7
 10
538.6615020618
 20
854.0589604926
 30
0.0
  0
VERTEX
  5
723
  8
0
  6
CONTINUOUS
 62
     7
 10
538.6582983122
 20
854.0400136661
 30
0.0
  0
VERTEX
  5
724
  8
0
  6
CONTINUOUS
 62
     7
 10
538.6488137231
 20
853.9839033436
 30
0.0
  0
VERTEX
  5
725
  8
0
  6
CONTINUOUS
 62
     7
 10
538.633413373
 20
853.8927901935
 30
0.0
  0
VERTEX
  5
726
  8
0
  6
CONTINUOUS
 62
     7
 10
538.6126858578
 20
853.770168538
 30
0.0
  0
VERTEX
  5
727
  8
0
  6
CONTINUOUS
 62
     7
 10
538.5874321148
 20
853.6207471442
 30
0.0
  0
VERTEX
  5
728
  8
0
  6
CONTINUOUS
 62
     7
 10
538.5586169944
 20
853.4502778601
 30
0.0
  0
VERTEX
  5
729
  8
0
  6
CONTINUOUS
 62
     7
 10
538.5273506329
 20
853.2653097462
 30
0.0
  0
VERTEX
  5
72A
  8
0
  6
CONTINUOUS
 62
     7
 10
538.4948362992
 20
853.0729506564
 30
0.0
  0
SEQEND
  5
A9A
  8
0
  6
CONTINUOUS
 62
     7
  0
ARC
  5
299
  8
0
  6
CONTINUOUS
 62
     7
 10
534.5305205814
 20
856.8636461213
 30
0.0
 40
0.4110422133241485
 50
305.301951571
 51
10.4679848212
  0
ARC
  5
29A
  8
0
  6
CONTINUOUS
 62
     7
 10
539.4948686863
 20
858.9890715841
 30
0.0
 40
5.000049530321329
 50
204.2139374952
 51
260.4056408135
  0
ARC
  5
29B
  8
0
  6
CONTINUOUS
 62
     7
 10
499.4948354945
 20
881.4890286278
 30
0.0
 40
34.00000000000006
 50
0.0
 51
180.0
  0
LINE
  5
29C
  8
0
  6
CONTINUOUS
 62
     7
 10
465.4948336468
 20
881.4890291941
 30
0.0
 11
464.4948353455
 21
881.4890291941
 31
0.0
  0
ARC
  5
29D
  8
0
  6
CONTINUOUS
 62
     7
 10
499.4948354945
 20
881.4890286278
 30
0.0
 40
35.0
 50
0.0000000009
 51
179.9999999991
  0
LINE
  5
29E
  8
0
  6
CONTINUOUS
 62
     7
 10
533.4948373422
 20
881.4890291941
 30
0.0
 11
534.4948356435
 21
881.4890291941
 31
0.0
  0
ARC
  5
29F
  8
0
  6
CONTINUOUS
 62
     7
 10
459.4948354945
 20
858.9890286278
 30
0.0
 40
6.000000000000033
 50
335.7863818359
 51
0.0
  0
LINE
  5
2A0
  8
0
  6
CONTINUOUS
 62
     7
 10
465.4948336468
 20
881.4890291941
 30
0.0
 11
465.4948336468
 21
858.9890320253
 31
0.0
  0
LINE
  5
2A1
  8
0
  6
CONTINUOUS
 62
     7
 10
533.4948373422
 20
858.9890320253
 30
0.0
 11
533.4948373422
 21
881.4890291941
 31
0.0
  0
ARC
  5
2A2
  8
0
  6
CONTINUOUS
 62
     7
 10
539.4948354945
 20
858.9890286278
 30
0.0
 40
6.000000000005531
 50
180.0
 51
204.2136181642
  0
LINE
  5
2A3
  8
0
  6
CONTINUOUS
 62
     7
 10
534.0226998017
 20
841.9890273761
 30
0.0
 11
534.0226998017
 21
856.5281872105
 31
0.0
  0
LINE
  5
2A4
  8
0
  6
CONTINUOUS
 62
     7
 10
464.9669711873
 20
856.5281872105
 30
0.0
 11
464.9669711873
 21
841.9890273761
 31
0.0
  0
CIRCLE
  5
2A5
  8
0
  6
CONTINUOUS
 62
     7
 10
499.4948354945
 20
881.9890286278
 30
0.0
 40
24.76414699999998
  0
LINE
  5
2A6
  8
0
  6
CONTINUOUS
 62
     7
 10
464.9669711873
 20
841.9890273761
 30
0.0
 11
534.0226998017
 21
841.9890273761
 31
0.0
  0
CIRCLE
  5
2A7
  8
0
  6
CONTINUOUS
 62
     7
 10
499.4948354945
 20
881.9890286278
 30
0.0
 40
23.7319245014063
  0
LINE
  5
2A8
  8
0
  6
CONTINUOUS
 62
     7
 10
465.4948336468
 20
858.9890320253
 30
0.0
 11
464.4948353455
 21
858.9890320253
 31
0.0
  0
LINE
  5
2A9
  8
0
  6
CONTINUOUS
 62
     7
 10
464.4948353455
 20
858.9890320253
 30
0.0
 11
464.4948353455
 21
881.4890291941
 31
0.0
  0
POLYLINE
  5
2AA
  8
0
  6
CONTINUOUS
 62
     7
 66
     1
 10
0.0
 20
0.0
 30
0.0
 70
   128
  0
VERTEX
  5
72B
  8
0
  6
CONTINUOUS
 62
     7
 10
464.0549493418
 20
856.9383267712
 30
0.0
  0
VERTEX
  5
72C
  8
0
  6
CONTINUOUS
 62
     7
 10
464.0724731073
 20
856.9304515075
 30
0.0
  0
VERTEX
  5
72D
  8
0
  6
CONTINUOUS
 62
     7
 10
464.1243738518
 20
856.9071088385
 30
0.0
  0
VERTEX
  5
72E
  8
0
  6
CONTINUOUS
 62
     7
 10
464.2086510942
 20
856.869207735
 30
0.0
  0
VERTEX
  5
72F
  8
0
  6
CONTINUOUS
 62
     7
 10
464.3220750079
 20
856.8182010602
 30
0.0
  0
VERTEX
  5
730
  8
0
  6
CONTINUOUS
 62
     7
 10
464.4602795527
 20
856.7560483169
 30
0.0
  0
VERTEX
  5
731
  8
0
  6
CONTINUOUS
 62
     7
 10
464.6179561899
 20
856.6851411414
 30
0.0
  0
VERTEX
  5
732
  8
0
  6
CONTINUOUS
 62
     7
 10
464.7890438721
 20
856.6082064461
 30
0.0
  0
VERTEX
  5
733
  8
0
  6
CONTINUOUS
 62
     7
 10
464.9669711873
 20
856.5281872105
 30
0.0
  0
SEQEND
  5
A9B
  8
0
  6
CONTINUOUS
 62
     7
  0
ARC
  5
2AB
  8
0
  6
CONTINUOUS
 62
     7
 10
459.4948354945
 20
858.9890286278
 30
0.0
 40
5.0
 50
335.7863818358
 51
0.0
  0
LINE
  5
2AC
  8
0
  6
CONTINUOUS
 62
     7
 10
464.2216151044
 20
856.5281872105
 30
0.0
 11
464.9669711873
 21
856.5281872105
 31
0.0
  0
LINE
  5
2AD
  8
0
  6
CONTINUOUS
 62
     7
 10
464.2216151044
 20
841.9890273761
 30
0.0
 11
464.9669711873
 21
841.9890273761
 31
0.0
  0
LINE
  5
2AE
  8
0
  6
CONTINUOUS
 62
     7
 10
534.4948356435
 20
881.4890291941
 30
0.0
 11
534.4948356435
 21
858.9890320253
 31
0.0
  0
LINE
  5
2AF
  8
0
  6
CONTINUOUS
 62
     7
 10
533.4948373422
 20
858.9890320253
 30
0.0
 11
534.4948356435
 21
858.9890320253
 31
0.0
  0
ARC
  5
2B0
  8
0
  6
CONTINUOUS
 62
     7
 10
539.4948354945
 20
858.9890286278
 30
0.0
 40
5.0
 50
180.0
 51
204.2136181641
  0
POLYLINE
  5
2B1
  8
0
  6
CONTINUOUS
 62
     7
 66
     1
 10
0.0
 20
0.0
 30
0.0
 70
   128
  0
VERTEX
  5
734
  8
0
  6
CONTINUOUS
 62
     7
 10
534.0226998017
 20
856.5281872105
 30
0.0
  0
VERTEX
  5
735
  8
0
  6
CONTINUOUS
 62
     7
 10
534.2006271169
 20
856.6082064461
 30
0.0
  0
VERTEX
  5
736
  8
0
  6
CONTINUOUS
 62
     7
 10
534.3717147992
 20
856.6851411414
 30
0.0
  0
VERTEX
  5
737
  8
0
  6
CONTINUOUS
 62
     7
 10
534.5293914363
 20
856.7560483169
 30
0.0
  0
VERTEX
  5
738
  8
0
  6
CONTINUOUS
 62
     7
 10
534.6675959811
 20
856.8182010602
 30
0.0
  0
VERTEX
  5
739
  8
0
  6
CONTINUOUS
 62
     7
 10
534.7810198948
 20
856.869207735
 30
0.0
  0
VERTEX
  5
73A
  8
0
  6
CONTINUOUS
 62
     7
 10
534.8652971372
 20
856.9071088385
 30
0.0
  0
VERTEX
  5
73B
  8
0
  6
CONTINUOUS
 62
     7
 10
534.9171978817
 20
856.9304515075
 30
0.0
  0
VERTEX
  5
73C
  8
0
  6
CONTINUOUS
 62
     7
 10
534.9347216472
 20
856.9383267712
 30
0.0
  0
SEQEND
  5
A9C
  8
0
  6
CONTINUOUS
 62
     7
  0
LINE
  5
2B2
  8
0
  6
CONTINUOUS
 62
     7
 10
534.0226998017
 20
856.5281872105
 30
0.0
 11
534.7680558846
 21
856.5281872105
 31
0.0
  0
LINE
  5
2B3
  8
0
  6
CONTINUOUS
 62
     7
 10
534.0226998017
 20
841.9890273761
 30
0.0
 11
534.7680558846
 21
841.9890273761
 31
0.0
  0
LINE
  5
2B4
  8
0
  6
CONTINUOUS
 62
     7
 10
436.1919907317
 20
853.9890293431
 30
0.0
 11
436.1919907317
 21
852.9890273165
 31
0.0
  0
LINE
  5
2B5
  8
0
  6
CONTINUOUS
 62
     7
 10
436.1919907317
 20
852.9890273165
 30
0.0
 11
433.378532289
 21
852.9890273165
 31
0.0
  0
POLYLINE
  5
2B6
  8
0
  6
CONTINUOUS
 62
     7
 66
     1
 10
0.0
 20
0.0
 30
0.0
 70
   128
  0
VERTEX
  5
73D
  8
0
  6
CONTINUOUS
 62
     7
 10
433.378532289
 20
852.9890273165
 30
0.0
  0
VERTEX
  5
73E
  8
0
  6
CONTINUOUS
 62
     7
 10
433.3893430815
 20
853.1841207694
 30
0.0
  0
VERTEX
  5
73F
  8
0
  6
CONTINUOUS
 62
     7
 10
433.4213656769
 20
853.3717114877
 30
0.0
  0
VERTEX
  5
740
  8
0
  6
CONTINUOUS
 62
     7
 10
433.4733632789
 20
853.5446022105
 30
0.0
  0
VERTEX
  5
741
  8
0
  6
CONTINUOUS
 62
     7
 10
433.5433391318
 20
853.6961321187
 30
0.0
  0
VERTEX
  5
742
  8
0
  6
CONTINUOUS
 62
     7
 10
433.6286110267
 20
853.82049721
 30
0.0
  0
VERTEX
  5
743
  8
0
  6
CONTINUOUS
 62
     7
 10
433.7258932576
 20
853.9129067611
 30
0.0
  0
VERTEX
  5
744
  8
0
  6
CONTINUOUS
 62
     7
 10
433.8314456329
 20
853.9698142957
 30
0.0
  0
VERTEX
  5
745
  8
0
  6
CONTINUOUS
 62
     7
 10
433.9412224874
 20
853.9890293431
 30
0.0
  0
SEQEND
  5
A9D
  8
0
  6
CONTINUOUS
 62
     7
  0
LINE
  5
2B7
  8
0
  6
CONTINUOUS
 62
     7
 10
436.1919907317
 20
853.9890293431
 30
0.0
 11
433.9412224874
 21
853.9890293431
 31
0.0
  0
LINE
  5
2B8
  8
0
  6
CONTINUOUS
 62
     7
 10
459.4948363886
 20
853.9890293431
 30
0.0
 11
459.4948363886
 21
852.9890273165
 31
0.0
  0
LINE
  5
2B9
  8
0
  6
CONTINUOUS
 62
     7
 10
459.4948363886
 20
852.9890273165
 30
0.0
 11
436.1919907317
 21
852.9890273165
 31
0.0
  0
LINE
  5
2BA
  8
0
  6
CONTINUOUS
 62
     7
 10
436.1919907317
 20
853.9890293431
 30
0.0
 11
443.0055094347
 21
853.9890293431
 31
0.0
  0
LINE
  5
2BB
  8
0
  6
CONTINUOUS
 62
     7
 10
444.7011162922
 20
853.9890293431
 30
0.0
 11
459.4948363886
 21
853.9890293431
 31
0.0
  0
LINE
  5
2BC
  8
0
  6
CONTINUOUS
 62
     7
 10
436.1919907317
 20
852.9890273165
 30
0.0
 11
436.1919907317
 21
841.9890273761
 31
0.0
  0
LINE
  5
2BD
  8
0
  6
CONTINUOUS
 62
     7
 10
433.378532289
 20
841.9890273761
 30
0.0
 11
433.378532289
 21
852.9890273165
 31
0.0
  0
LINE
  5
2BE
  8
0
  6
CONTINUOUS
 62
     7
 10
433.378532289
 20
841.9890273761
 30
0.0
 11
436.1919907317
 21
841.9890273761
 31
0.0
  0
ARC
  5
2BF
  8
0
  6
CONTINUOUS
 62
     7
 10
459.4948354945
 20
858.9890286278
 30
0.0
 40
6.0
 50
270.0
 51
279.5940682267
  0
LINE
  5
2C0
  8
0
  6
CONTINUOUS
 62
     7
 10
436.1919907317
 20
841.9890273761
 30
0.0
 11
460.4948346898
 21
841.9890273761
 31
0.0
  0
ARC
  5
2C1
  8
0
  6
CONTINUOUS
 62
     7
 10
459.4948354945
 20
858.9890286278
 30
0.0
 40
5.0
 50
270.0
 51
279.5940682267
  0
ARC
  5
2C2
  8
0
  6
CONTINUOUS
 62
     7
 10
539.4948354945
 20
858.9890286278
 30
0.0
 40
6.0
 50
260.4059317733
 51
270.0
  0
LINE
  5
2C3
  8
0
  6
CONTINUOUS
 62
     7
 10
562.7976802573
 20
852.9890273165
 30
0.0
 11
539.4948346004
 21
852.9890273165
 31
0.0
  0
LINE
  5
2C4
  8
0
  6
CONTINUOUS
 62
     7
 10
562.7976802573
 20
841.9890273761
 30
0.0
 11
562.7976802573
 21
852.9890273165
 31
0.0
  0
LINE
  5
2C5
  8
0
  6
CONTINUOUS
 62
     7
 10
538.4948362992
 20
841.9890273761
 30
0.0
 11
562.7976802573
 21
841.9890273761
 31
0.0
  0
LINE
  5
2C6
  8
0
  6
CONTINUOUS
 62
     7
 10
539.4948346004
 20
853.9890293431
 30
0.0
 11
539.4948346004
 21
852.9890273165
 31
0.0
  0
LINE
  5
2C7
  8
0
  6
CONTINUOUS
 62
     7
 10
539.4948346004
 20
853.9890293431
 30
0.0
 11
562.7976802573
 21
853.9890293431
 31
0.0
  0
LINE
  5
2C8
  8
0
  6
CONTINUOUS
 62
     7
 10
562.7976802573
 20
852.9890273165
 30
0.0
 11
562.7976802573
 21
853.9890293431
 31
0.0
  0
ARC
  5
2C9
  8
0
  6
CONTINUOUS
 62
     7
 10
539.4948354945
 20
858.9890286278
 30
0.0
 40
5.0
 50
260.4059317733
 51
270.0
  0
LINE
  5
2CA
  8
0
  6
CONTINUOUS
 62
     7
 10
565.6111387
 20
852.9890273165
 30
0.0
 11
562.7976802573
 21
852.9890273165
 31
0.0
  0
LINE
  5
2CB
  8
0
  6
CONTINUOUS
 62
     7
 10
565.6111387
 20
852.9890273165
 30
0.0
 11
565.6111387
 21
841.9890273761
 31
0.0
  0
LINE
  5
2CC
  8
0
  6
CONTINUOUS
 62
     7
 10
562.7976802573
 20
841.9890273761
 30
0.0
 11
565.6111387
 21
841.9890273761
 31
0.0
  0
POLYLINE
  5
2CD
  8
0
  6
CONTINUOUS
 62
     7
 66
     1
 10
0.0
 20
0.0
 30
0.0
 70
   128
  0
VERTEX
  5
746
  8
0
  6
CONTINUOUS
 62
     7
 10
565.0484485016
 20
853.9890293431
 30
0.0
  0
VERTEX
  5
747
  8
0
  6
CONTINUOUS
 62
     7
 10
565.1582253561
 20
853.9698142957
 30
0.0
  0
VERTEX
  5
748
  8
0
  6
CONTINUOUS
 62
     7
 10
565.2637777314
 20
853.9129067611
 30
0.0
  0
VERTEX
  5
749
  8
0
  6
CONTINUOUS
 62
     7
 10
565.3610599623
 20
853.82049721
 30
0.0
  0
VERTEX
  5
74A
  8
0
  6
CONTINUOUS
 62
     7
 10
565.4463318572
 20
853.6961321187
 30
0.0
  0
VERTEX
  5
74B
  8
0
  6
CONTINUOUS
 62
     7
 10
565.5163077102
 20
853.5446022105
 30
0.0
  0
VERTEX
  5
74C
  8
0
  6
CONTINUOUS
 62
     7
 10
565.5683053121
 20
853.3717114877
 30
0.0
  0
VERTEX
  5
74D
  8
0
  6
CONTINUOUS
 62
     7
 10
565.6003279075
 20
853.1841207694
 30
0.0
  0
VERTEX
  5
74E
  8
0
  6
CONTINUOUS
 62
     7
 10
565.6111387
 20
852.9890273165
 30
0.0
  0
SEQEND
  5
A9E
  8
0
  6
CONTINUOUS
 62
     7
  0
LINE
  5
2CE
  8
0
  6
CONTINUOUS
 62
     7
 10
565.0484485016
 20
853.9890293431
 30
0.0
 11
562.7976802573
 21
853.9890293431
 31
0.0
  0
ARC
  5
2CF
  8
0
  6
CONTINUOUS
 62
     7
 10
403.2839278376
 20
853.0681816702
 30
0.0
 40
0.925813284142448
 50
95.9368569931
 51
184.9046108322
  0
LINE
  5
2D0
  8
0
  6
CONTINUOUS
 62
     7
 10
403.1881687627
 20
853.9890293431
 30
0.0
 11
433.9412224874
 21
853.9890293431
 31
0.0
  0
LINE
  5
2D1
  8
0
  6
CONTINUOUS
 62
     7
 10
433.378532289
 20
852.9890273165
 30
0.0
 11
402.3615044937
 21
852.9890273165
 31
0.0
  0
LINE
  5
2D2
  8
0
  6
CONTINUOUS
 62
     7
 10
402.3615044937
 20
852.9890273165
 30
0.0
 11
402.3615044937
 21
841.9890273761
 31
0.0
  0
LINE
  5
2D3
  8
0
  6
CONTINUOUS
 62
     7
 10
402.3615044937
 20
841.9890273761
 30
0.0
 11
433.378532289
 21
841.9890273761
 31
0.0
  0
LINE
  5
2D4
  8
0
  6
CONTINUOUS
 62
     7
 10
565.0484485016
 20
853.9890293431
 30
0.0
 11
595.8015022263
 21
853.9890293431
 31
0.0
  0
ARC
  5
2D5
  8
0
  6
CONTINUOUS
 62
     7
 10
595.7057431514
 20
853.0681816702
 30
0.0
 40
0.9258132841424539
 50
355.0953891678
 51
84.0631430069
  0
LINE
  5
2D6
  8
0
  6
CONTINUOUS
 62
     7
 10
596.6281664953
 20
852.9890273165
 30
0.0
 11
565.6111387
 21
852.9890273165
 31
0.0
  0
LINE
  5
2D7
  8
0
  6
CONTINUOUS
 62
     7
 10
596.6281664953
 20
841.9890273761
 30
0.0
 11
596.6281664953
 21
852.9890273165
 31
0.0
  0
LINE
  5
2D8
  8
0
  6
CONTINUOUS
 62
     7
 10
565.6111387
 20
841.9890273761
 30
0.0
 11
596.6281664953
 21
841.9890273761
 31
0.0
  0
POLYLINE
  5
2D9
  8
0
  6
CONTINUOUS
 62
     7
 66
     1
 10
0.0
 20
0.0
 30
0.0
 70
   128
  0
VERTEX
  5
74F
  8
0
  6
CONTINUOUS
 62
     7
 10
461.7170577333
 20
881.4890291941
 30
0.0
  0
VERTEX
  5
750
  8
0
  6
CONTINUOUS
 62
     7
 10
461.9021450565
 20
885.4437228691
 30
0.0
  0
VERTEX
  5
751
  8
0
  6
CONTINUOUS
 62
     7
 10
462.4629577086
 20
889.3984202694
 30
0.0
  0
VERTEX
  5
752
  8
0
  6
CONTINUOUS
 62
     7
 10
464.2952156648
 20
896.0125726115
 30
0.0
  0
VERTEX
  5
753
  8
0
  6
CONTINUOUS
 62
     7
 10
467.2725719795
 20
902.3692422014
 30
0.0
  0
VERTEX
  5
754
  8
0
  6
CONTINUOUS
 62
     7
 10
470.9065628633
 20
907.6372795206
 30
0.0
  0
VERTEX
  5
755
  8
0
  6
CONTINUOUS
 62
     7
 10
475.4619558737
 20
912.351168732
 30
0.0
  0
VERTEX
  5
756
  8
0
  6
CONTINUOUS
 62
     7
 10
480.1454914198
 20
915.8439501588
 30
0.0
  0
VERTEX
  5
757
  8
0
  6
CONTINUOUS
 62
     7
 10
485.4881723807
 20
918.6381036815
 30
0.0
  0
VERTEX
  5
758
  8
0
  6
CONTINUOUS
 62
     7
 10
490.9471960202
 20
920.4516965363
 30
0.0
  0
VERTEX
  5
759
  8
0
  6
CONTINUOUS
 62
     7
 10
496.8334776279
 20
921.3896475665
 30
0.0
  0
VERTEX
  5
75A
  8
0
  6
CONTINUOUS
 62
     7
 10
499.4948354945
 20
921.4890285328
 30
0.0
  0
SEQEND
  5
A9F
  8
0
  6
CONTINUOUS
 62
     7
  0
POLYLINE
  5
2DA
  8
0
  6
CONTINUOUS
 62
     7
 66
     1
 10
0.0
 20
0.0
 30
0.0
 70
   128
  0
VERTEX
  5
75B
  8
0
  6
CONTINUOUS
 62
     7
 10
499.4948354945
 20
921.4890285328
 30
0.0
  0
VERTEX
  5
75C
  8
0
  6
CONTINUOUS
 62
     7
 10
504.4067238853
 20
921.1494804293
 30
0.0
  0
VERTEX
  5
75D
  8
0
  6
CONTINUOUS
 62
     7
 10
509.3186122761
 20
920.1129300453
 30
0.0
  0
VERTEX
  5
75E
  8
0
  6
CONTINUOUS
 62
     7
 10
515.4585649655
 20
917.7422528554
 30
0.0
  0
VERTEX
  5
75F
  8
0
  6
CONTINUOUS
 62
     7
 10
521.2243047938
 20
914.2097710099
 30
0.0
  0
VERTEX
  5
760
  8
0
  6
CONTINUOUS
 62
     7
 10
525.9589587734
 20
910.0343035933
 30
0.0
  0
VERTEX
  5
761
  8
0
  6
CONTINUOUS
 62
     7
 10
530.0490220473
 20
905.0130788636
 30
0.0
  0
VERTEX
  5
762
  8
0
  6
CONTINUOUS
 62
     7
 10
533.0937316105
 20
899.775577749
 30
0.0
  0
VERTEX
  5
763
  8
0
  6
CONTINUOUS
 62
     7
 10
535.387735574
 20
893.9660918366
 30
0.0
  0
VERTEX
  5
764
  8
0
  6
CONTINUOUS
 62
     7
 10
536.7843729839
 20
887.8991473865
 30
0.0
  0
VERTEX
  5
765
  8
0
  6
CONTINUOUS
 62
     7
 10
537.2726132557
 20
881.4890291941
 30
0.0
  0
SEQEND
  5
AA0
  8
0
  6
CONTINUOUS
 62
     7
  0
LINE
  5
2DB
  8
0
  6
CONTINUOUS
 62
     7
 10
537.2726132557
 20
881.4890291941
 30
0.0
 11
534.4948356435
 21
881.4890291941
 31
0.0
  0
LINE
  5
2DC
  8
0
  6
CONTINUOUS
 62
     7
 10
461.7170577333
 20
881.4890291941
 30
0.0
 11
464.4948353455
 21
881.4890291941
 31
0.0
  0
LINE
  5
2DD
  8
0
  6
CONTINUOUS
 62
     7
 10
537.2726132557
 20
881.4890291941
 30
0.0
 11
537.2726132557
 21
858.9890320253
 31
0.0
  0
LINE
  5
2DE
  8
0
  6
CONTINUOUS
 62
     7
 10
499.4948354945
 20
921.4890285328
 30
0.0
 11
584.4948363886
 21
921.4890285328
 31
0.0
  0
LINE
  5
2DF
  8
0
  6
CONTINUOUS
 62
     7
 10
414.4948346004
 20
921.4890285328
 30
0.0
 11
499.4948354945
 21
921.4890285328
 31
0.0
  0
LINE
  5
2E0
  8
0
  6
CONTINUOUS
 62
     7
 10
461.7170577333
 20
858.9890320253
 30
0.0
 11
461.7170577333
 21
881.4890291941
 31
0.0
  0
LINE
  5
2E1
  8
0
  6
CONTINUOUS
 62
     7
 10
415.0851217494
 20
861.9890269291
 30
0.0
 11
415.0851217494
 21
858.9890320253
 31
0.0
  0
ARC
  5
2E2
  8
0
  6
CONTINUOUS
 62
     7
 10
329.5054510379
 20
861.9547925365
 30
0.0
 40
85.57967755888008
 50
0.0229200006
 51
6.733431386
  0
LINE
  5
2E3
  8
0
  6
CONTINUOUS
 62
     7
 10
474.5039322809
 20
838.989028747
 30
0.0
 11
414.4948346004
 21
838.989028747
 31
0.0
  0
LINE
  5
2E4
  8
0
  6
CONTINUOUS
 62
     7
 10
584.4948363886
 20
838.989028747
 30
0.0
 11
524.4857387081
 21
838.989028747
 31
0.0
  0
ARC
  5
2E5
  8
0
  6
CONTINUOUS
 62
     7
 10
513.0464511649
 20
1066.560866178
 30
0.0
 40
227.8591637200626
 50
269.1069007779
 51
272.8776482689
  0
POLYLINE
  5
2E6
  8
0
  6
CONTINUOUS
 62
     7
 66
     1
 10
0.0
 20
0.0
 30
0.0
 70
   128
  0
VERTEX
  5
766
  8
0
  6
CONTINUOUS
 62
     7
 10
489.494835718
 20
838.7293834638
 30
0.0
  0
VERTEX
  5
767
  8
0
  6
CONTINUOUS
 62
     7
 10
499.4963712674
 20
838.8880063247
 30
0.0
  0
VERTEX
  5
768
  8
0
  6
CONTINUOUS
 62
     7
 10
509.494835271
 20
838.7293834638
 30
0.0
  0
SEQEND
  5
AA1
  8
0
  6
CONTINUOUS
 62
     7
  0
POLYLINE
  5
2E7
  8
0
  6
CONTINUOUS
 62
     7
 66
     1
 10
0.0
 20
0.0
 30
0.0
 70
   128
  0
VERTEX
  5
769
  8
0
  6
CONTINUOUS
 62
     7
 10
474.5039322809
 20
838.989028747
 30
0.0
  0
VERTEX
  5
76A
  8
0
  6
CONTINUOUS
 62
     7
 10
481.8972626165
 20
838.7168590378
 30
0.0
  0
VERTEX
  5
76B
  8
0
  6
CONTINUOUS
 62
     7
 10
489.494835718
 20
838.7293834638
 30
0.0
  0
SEQEND
  5
AA2
  8
0
  6
CONTINUOUS
 62
     7
  0
LINE
  5
2E8
  8
0
  6
CONTINUOUS
 62
     7
 10
509.494835271
 20
833.9890260648
 30
0.0
 11
509.494835271
 21
838.7293834638
 31
0.0
  0
LINE
  5
2E9
  8
0
  6
CONTINUOUS
 62
     7
 10
509.494835271
 20
833.9890260648
 30
0.0
 11
489.494835718
 21
833.9890260648
 31
0.0
  0
LINE
  5
2EA
  8
0
  6
CONTINUOUS
 62
     7
 10
489.494835718
 20
838.7293834638
 30
0.0
 11
489.494835718
 21
833.9890260648
 31
0.0
  0
LINE
  5
2EB
  8
0
  6
CONTINUOUS
 62
     7
 10
489.494835718
 20
833.9890260648
 30
0.0
 11
468.4948360011
 21
833.9890260648
 31
0.0
  0
ARC
  5
2EC
  8
0
  6
CONTINUOUS
 62
     7
 10
463.4948354945
 20
833.9890286278
 30
0.0
 40
5.0
 50
0.0
 51
90.0
  0
ARC
  5
2ED
  8
0
  6
CONTINUOUS
 62
     7
 10
535.4948354945
 20
833.9890286278
 30
0.0
 40
5.000000000000114
 50
90.0
 51
180.0
  0
LINE
  5
2EE
  8
0
  6
CONTINUOUS
 62
     7
 10
530.4948349879
 20
833.9890260648
 30
0.0
 11
509.494835271
 21
833.9890260648
 31
0.0
  0
POLYLINE
  5
2EF
  8
0
  6
CONTINUOUS
 62
     7
 66
     1
 10
0.0
 20
0.0
 30
0.0
 70
   128
  0
VERTEX
  5
76C
  8
0
  6
CONTINUOUS
 62
     7
 10
468.5743821249
 20
779.1938577246
 30
0.0
  0
VERTEX
  5
76D
  8
0
  6
CONTINUOUS
 62
     7
 10
469.2162868962
 20
781.9471899819
 30
0.0
  0
VERTEX
  5
76E
  8
0
  6
CONTINUOUS
 62
     7
 10
470.4337434307
 20
785.0265894484
 30
0.0
  0
VERTEX
  5
76F
  8
0
  6
CONTINUOUS
 62
     7
 10
471.6443230793
 20
787.4685768437
 30
0.0
  0
VERTEX
  5
770
  8
0
  6
CONTINUOUS
 62
     7
 10
473.0621499405
 20
790.0028322291
 30
0.0
  0
VERTEX
  5
771
  8
0
  6
CONTINUOUS
 62
     7
 10
476.4905122504
 20
795.4527531218
 30
0.0
  0
VERTEX
  5
772
  8
0
  6
CONTINUOUS
 62
     7
 10
479.0527184889
 20
799.2055360627
 30
0.0
  0
VERTEX
  5
773
  8
0
  6
CONTINUOUS
 62
     7
 10
481.7676802561
 20
803.0230869007
 30
0.0
  0
VERTEX
  5
774
  8
0
  6
CONTINUOUS
 62
     7
 10
484.6851478726
 20
807.0179913592
 30
0.0
  0
VERTEX
  5
775
  8
0
  6
CONTINUOUS
 62
     7
 10
487.6687794388
 20
811.0405225706
 30
0.0
  0
VERTEX
  5
776
  8
0
  6
CONTINUOUS
 62
     7
 10
488.9587357104
 20
812.7705548357
 30
0.0
  0
VERTEX
  5
777
  8
0
  6
CONTINUOUS
 62
     7
 10
489.3373025045
 20
813.2779170227
 30
0.0
  0
VERTEX
  5
778
  8
0
  6
CONTINUOUS
 62
     7
 10
489.4697291241
 20
813.4553824019
 30
0.0
  0
VERTEX
  5
779
  8
0
  6
CONTINUOUS
 62
     7
 10
489.494835718
 20
813.4890292239
 30
0.0
  0
SEQEND
  5
AA3
  8
0
  6
CONTINUOUS
 62
     7
  0
LINE
  5
2F0
  8
0
  6
CONTINUOUS
 62
     7
 10
468.5743821249
 20
785.3116188597
 30
0.0
 11
468.5743821249
 21
779.1938577246
 31
0.0
  0
ARC
  5
2F1
  8
0
  6
CONTINUOUS
 62
     7
 10
346.5296660441
 20
785.5637751247
 30
0.0
 40
122.044976570157
 50
359.88162151
 51
1.9843886403
  0
LINE
  5
2F2
  8
0
  6
CONTINUOUS
 62
     7
 10
468.4948360011
 20
793.175915296
 30
0.0
 11
468.4948360011
 21
833.9890260648
 31
0.0
  0
LINE
  5
2F3
  8
0
  6
CONTINUOUS
 62
     7
 10
489.494835718
 20
833.9890260648
 30
0.0
 11
489.494835718
 21
813.4890292239
 31
0.0
  0
POLYLINE
  5
2F4
  8
0
  6
CONTINUOUS
 62
     7
 66
     1
 10
0.0
 20
0.0
 30
0.0
 70
   128
  0
VERTEX
  5
77A
  8
0
  6
CONTINUOUS
 62
     7
 10
489.494835718
 20
813.4890292239
 30
0.0
  0
VERTEX
  5
77B
  8
0
  6
CONTINUOUS
 62
     7
 10
489.472558482
 20
813.4518210244
 30
0.0
  0
VERTEX
  5
77C
  8
0
  6
CONTINUOUS
 62
     7
 10
489.3197796703
 20
813.1966684412
 30
0.0
  0
VERTEX
  5
77D
  8
0
  6
CONTINUOUS
 62
     7
 10
487.9296447546
 20
810.8735848617
 30
0.0
  0
VERTEX
  5
77E
  8
0
  6
CONTINUOUS
 62
     7
 10
484.5911774248
 20
805.2557725858
 30
0.0
  0
VERTEX
  5
77F
  8
0
  6
CONTINUOUS
 62
     7
 10
481.3596492097
 20
799.6786330294
 30
0.0
  0
VERTEX
  5
780
  8
0
  6
CONTINUOUS
 62
     7
 10
478.3482716814
 20
794.2230198931
 30
0.0
  0
VERTEX
  5
781
  8
0
  6
CONTINUOUS
 62
     7
 10
475.4554273025
 20
788.5026280236
 30
0.0
  0
VERTEX
  5
782
  8
0
  6
CONTINUOUS
 62
     7
 10
473.1567574129
 20
783.0859814238
 30
0.0
  0
VERTEX
  5
783
  8
0
  6
CONTINUOUS
 62
     7
 10
472.0677246735
 20
779.6187494349
 30
0.0
  0
VERTEX
  5
784
  8
0
  6
CONTINUOUS
 62
     7
 10
471.5270807431
 20
776.4423583102
 30
0.0
  0
SEQEND
  5
AA4
  8
0
  6
CONTINUOUS
 62
     7
  0
LINE
  5
2F5
  8
0
  6
CONTINUOUS
 62
     7
 10
489.494835718
 20
813.4890292239
 30
0.0
 11
509.494835271
 21
813.4890292239
 31
0.0
  0
POLYLINE
  5
2F6
  8
0
  6
CONTINUOUS
 62
     7
 66
     1
 10
0.0
 20
0.0
 30
0.0
 70
   128
  0
VERTEX
  5
785
  8
0
  6
CONTINUOUS
 62
     7
 10
527.4625902459
 20
776.4423583102
 30
0.0
  0
VERTEX
  5
786
  8
0
  6
CONTINUOUS
 62
     7
 10
526.9219463155
 20
779.6187494349
 30
0.0
  0
VERTEX
  5
787
  8
0
  6
CONTINUOUS
 62
     7
 10
525.8329135761
 20
783.0859814238
 30
0.0
  0
VERTEX
  5
788
  8
0
  6
CONTINUOUS
 62
     7
 10
523.5342436865
 20
788.5026280236
 30
0.0
  0
VERTEX
  5
789
  8
0
  6
CONTINUOUS
 62
     7
 10
520.6413993076
 20
794.2230198931
 30
0.0
  0
VERTEX
  5
78A
  8
0
  6
CONTINUOUS
 62
     7
 10
517.6300217793
 20
799.6786330294
 30
0.0
  0
VERTEX
  5
78B
  8
0
  6
CONTINUOUS
 62
     7
 10
514.3984935642
 20
805.2557725858
 30
0.0
  0
VERTEX
  5
78C
  8
0
  6
CONTINUOUS
 62
     7
 10
511.0600262344
 20
810.8735848617
 30
0.0
  0
VERTEX
  5
78D
  8
0
  6
CONTINUOUS
 62
     7
 10
509.6698913187
 20
813.1966684412
 30
0.0
  0
VERTEX
  5
78E
  8
0
  6
CONTINUOUS
 62
     7
 10
509.517112507
 20
813.4518210244
 30
0.0
  0
VERTEX
  5
78F
  8
0
  6
CONTINUOUS
 62
     7
 10
509.494835271
 20
813.4890292239
 30
0.0
  0
SEQEND
  5
AA5
  8
0
  6
CONTINUOUS
 62
     7
  0
LINE
  5
2F7
  8
0
  6
CONTINUOUS
 62
     7
 10
471.5270807431
 20
776.4423583102
 30
0.0
 11
527.4625902459
 21
776.4423583102
 31
0.0
  0
ARC
  5
2F8
  8
0
  6
CONTINUOUS
 62
     7
 10
471.4354574516
 20
779.4907239568
 30
0.0
 40
3.049742274862652
 50
202.5559329294
 51
271.7215939759
  0
POLYLINE
  5
2F9
  8
0
  6
CONTINUOUS
 62
     7
 66
     1
 10
0.0
 20
0.0
 30
0.0
 70
   128
  0
VERTEX
  5
790
  8
0
  6
CONTINUOUS
 62
     7
 10
468.5743821249
 20
779.1938577246
 30
0.0
  0
VERTEX
  5
791
  8
0
  6
CONTINUOUS
 62
     7
 10
468.5847775475
 20
778.6886189532
 30
0.0
  0
VERTEX
  5
792
  8
0
  6
CONTINUOUS
 62
     7
 10
468.6190036521
 20
778.3208880972
 30
0.0
  0
SEQEND
  5
AA6
  8
0
  6
CONTINUOUS
 62
     7
  0
LINE
  5
2FA
  8
0
  6
CONTINUOUS
 62
     7
 10
509.494835271
 20
813.4890292239
 30
0.0
 11
509.494835271
 21
833.9890260648
 31
0.0
  0
POLYLINE
  5
2FB
  8
0
  6
CONTINUOUS
 62
     7
 66
     1
 10
0.0
 20
0.0
 30
0.0
 70
   128
  0
VERTEX
  5
793
  8
0
  6
CONTINUOUS
 62
     7
 10
530.4152888641
 20
785.3116188597
 30
0.0
  0
VERTEX
  5
794
  8
0
  6
CONTINUOUS
 62
     7
 10
530.4193196282
 20
786.0317770791
 30
0.0
  0
VERTEX
  5
795
  8
0
  6
CONTINUOUS
 62
     7
 10
530.4573250398
 20
787.8304515433
 30
0.0
  0
VERTEX
  5
796
  8
0
  6
CONTINUOUS
 62
     7
 10
530.4900573031
 20
789.2030869078
 30
0.0
  0
VERTEX
  5
797
  8
0
  6
CONTINUOUS
 62
     7
 10
530.4891855851
 20
789.79649585
 30
0.0
  0
SEQEND
  5
AA7
  8
0
  6
CONTINUOUS
 62
     7
  0
LINE
  5
2FC
  8
0
  6
CONTINUOUS
 62
     7
 10
530.4152888641
 20
779.1938577246
 30
0.0
 11
530.4152888641
 21
785.3116188597
 31
0.0
  0
POLYLINE
  5
2FD
  8
0
  6
CONTINUOUS
 62
     7
 66
     1
 10
0.0
 20
0.0
 30
0.0
 70
   128
  0
VERTEX
  5
798
  8
0
  6
CONTINUOUS
 62
     7
 10
509.494835271
 20
813.4890292239
 30
0.0
  0
VERTEX
  5
799
  8
0
  6
CONTINUOUS
 62
     7
 10
509.519941865
 20
813.4553824019
 30
0.0
  0
VERTEX
  5
79A
  8
0
  6
CONTINUOUS
 62
     7
 10
509.6523684845
 20
813.2779170227
 30
0.0
  0
VERTEX
  5
79B
  8
0
  6
CONTINUOUS
 62
     7
 10
510.0309352786
 20
812.7705548357
 30
0.0
  0
VERTEX
  5
79C
  8
0
  6
CONTINUOUS
 62
     7
 10
511.3208915502
 20
811.0405225706
 30
0.0
  0
VERTEX
  5
79D
  8
0
  6
CONTINUOUS
 62
     7
 10
514.2083053872
 20
807.1484435749
 30
0.0
  0
VERTEX
  5
79E
  8
0
  6
CONTINUOUS
 62
     7
 10
517.0351413474
 20
803.2816593003
 30
0.0
  0
VERTEX
  5
79F
  8
0
  6
CONTINUOUS
 62
     7
 10
519.8478659079
 20
799.3329931449
 30
0.0
  0
VERTEX
  5
7A0
  8
0
  6
CONTINUOUS
 62
     7
 10
522.4991587386
 20
795.4527531218
 30
0.0
  0
VERTEX
  5
7A1
  8
0
  6
CONTINUOUS
 62
     7
 10
525.8347426936
 20
790.1607696366
 30
0.0
  0
VERTEX
  5
7A2
  8
0
  6
CONTINUOUS
 62
     7
 10
527.3047832236
 20
787.544960196
 30
0.0
  0
VERTEX
  5
7A3
  8
0
  6
CONTINUOUS
 62
     7
 10
528.5559275583
 20
785.0265894484
 30
0.0
  0
VERTEX
  5
7A4
  8
0
  6
CONTINUOUS
 62
     7
 10
529.7512987093
 20
782.0152137827
 30
0.0
  0
VERTEX
  5
7A5
  8
0
  6
CONTINUOUS
 62
     7
 10
530.4152888641
 20
779.1938577246
 30
0.0
  0
SEQEND
  5
AA8
  8
0
  6
CONTINUOUS
 62
     7
  0
LINE
  5
2FE
  8
0
  6
CONTINUOUS
 62
     7
 10
530.4948349879
 20
833.9890260648
 30
0.0
 11
530.4948349879
 21
793.175915296
 31
0.0
  0
LINE
  5
2FF
  8
0
  6
CONTINUOUS
 62
     7
 10
530.3706673369
 20
778.3208880972
 30
0.0
 11
530.4152888641
 21
779.1938577246
 31
0.0
  0
ARC
  5
300
  8
0
  6
CONTINUOUS
 62
     7
 10
527.5542135374
 20
779.4907239568
 30
0.0
 40
3.04974227486265
 50
268.2784060241
 51
337.4440670706
  0
POLYLINE
  5
301
  8
0
  6
CONTINUOUS
 62
     7
 66
     1
 10
0.0
 20
0.0
 30
0.0
 70
   128
  0
VERTEX
  5
7A6
  8
0
  6
CONTINUOUS
 62
     7
 10
539.4948346004
 20
853.9890293431
 30
0.0
  0
VERTEX
  5
7A7
  8
0
  6
CONTINUOUS
 62
     7
 10
539.0613002167
 20
854.0851045799
 30
0.0
  0
VERTEX
  5
7A8
  8
0
  6
CONTINUOUS
 62
     7
 10
538.6444290564
 20
854.3696273517
 30
0.0
  0
VERTEX
  5
7A9
  8
0
  6
CONTINUOUS
 62
     7
 10
538.2602361426
 20
854.831682558
 30
0.0
  0
VERTEX
  5
7AA
  8
0
  6
CONTINUOUS
 62
     7
 10
537.9234885261
 20
855.4534931135
 30
0.0
  0
VERTEX
  5
7AB
  8
0
  6
CONTINUOUS
 62
     7
 10
537.64712414
 20
856.2111799073
 30
0.0
  0
VERTEX
  5
7AC
  8
0
  6
CONTINUOUS
 62
     7
 10
537.4417712376
 20
857.0756111693
 30
0.0
  0
VERTEX
  5
7AD
  8
0
  6
CONTINUOUS
 62
     7
 10
537.3153125331
 20
858.0135796618
 30
0.0
  0
VERTEX
  5
7AE
  8
0
  6
CONTINUOUS
 62
     7
 10
537.2726132557
 20
858.9890320253
 30
0.0
  0
SEQEND
  5
AA9
  8
0
  6
CONTINUOUS
 62
     7
  0
LINE
  5
302
  8
0
  6
CONTINUOUS
 62
     7
 10
414.4948346004
 20
856.6398788642
 30
0.0
 11
414.4948346004
 21
856.9557983827
 31
0.0
  0
POLYLINE
  5
303
  8
0
  6
CONTINUOUS
 62
     7
 66
     1
 10
0.0
 20
0.0
 30
0.0
 70
   128
  0
VERTEX
  5
7AF
  8
0
  6
CONTINUOUS
 62
     7
 10
415.0851217494
 20
858.9890320253
 30
0.0
  0
VERTEX
  5
7B0
  8
0
  6
CONTINUOUS
 62
     7
 10
414.9685499654
 20
857.9890299987
 30
0.0
  0
VERTEX
  5
7B1
  8
0
  6
CONTINUOUS
 62
     7
 10
414.8045403347
 20
857.4636970114
 30
0.0
  0
VERTEX
  5
7B2
  8
0
  6
CONTINUOUS
 62
     7
 10
414.660729228
 20
857.1487758707
 30
0.0
  0
VERTEX
  5
7B3
  8
0
  6
CONTINUOUS
 62
     7
 10
414.5636928663
 20
856.989013071
 30
0.0
  0
VERTEX
  5
7B4
  8
0
  6
CONTINUOUS
 62
     7
 10
414.5042521343
 20
856.9327611875
 30
0.0
  0
VERTEX
  5
7B5
  8
0
  6
CONTINUOUS
 62
     7
 10
414.4948346004
 20
856.9557983827
 30
0.0
  0
SEQEND
  5
AAA
  8
0
  6
CONTINUOUS
 62
     7
  0
POLYLINE
  5
304
  8
0
  6
CONTINUOUS
 62
     7
 66
     1
 10
0.0
 20
0.0
 30
0.0
 70
   128
  0
VERTEX
  5
7B6
  8
0
  6
CONTINUOUS
 62
     7
 10
459.4948363886
 20
853.9890293431
 30
0.0
  0
VERTEX
  5
7B7
  8
0
  6
CONTINUOUS
 62
     7
 10
459.9283707723
 20
854.0851045799
 30
0.0
  0
VERTEX
  5
7B8
  8
0
  6
CONTINUOUS
 62
     7
 10
460.3452419326
 20
854.3696273517
 30
0.0
  0
VERTEX
  5
7B9
  8
0
  6
CONTINUOUS
 62
     7
 10
460.7294348464
 20
854.831682558
 30
0.0
  0
VERTEX
  5
7BA
  8
0
  6
CONTINUOUS
 62
     7
 10
461.0661824629
 20
855.4534931135
 30
0.0
  0
VERTEX
  5
7BB
  8
0
  6
CONTINUOUS
 62
     7
 10
461.342546849
 20
856.2111799073
 30
0.0
  0
VERTEX
  5
7BC
  8
0
  6
CONTINUOUS
 62
     7
 10
461.5478997514
 20
857.0756111693
 30
0.0
  0
VERTEX
  5
7BD
  8
0
  6
CONTINUOUS
 62
     7
 10
461.6743584559
 20
858.0135796618
 30
0.0
  0
VERTEX
  5
7BE
  8
0
  6
CONTINUOUS
 62
     7
 10
461.7170577333
 20
858.9890320253
 30
0.0
  0
SEQEND
  5
AAB
  8
0
  6
CONTINUOUS
 62
     7
  0
ARC
  5
305
  8
0
  6
CONTINUOUS
 62
     7
 10
410.0573644033
 20
859.0285680161
 30
0.0
 40
5.039541409156155
 50
269.9402954443
 51
331.706430395
  0
LINE
  5
306
  8
0
  6
CONTINUOUS
 62
     7
 10
461.7170577333
 20
858.9890320253
 30
0.0
 11
464.4948353455
 21
858.9890320253
 31
0.0
  0
LINE
  5
307
  8
0
  6
CONTINUOUS
 62
     7
 10
534.4948356435
 20
858.9890320253
 30
0.0
 11
537.2726132557
 21
858.9890320253
 31
0.0
  0
LINE
  5
308
  8
0
  6
CONTINUOUS
 62
     7
 10
402.3615044937
 20
852.9890273165
 30
0.0
 11
401.4948380575
 21
852.9890273165
 31
0.0
  0
ARC
  5
309
  8
0
  6
CONTINUOUS
 62
     7
 10
402.4948354945
 20
852.9890286278
 30
0.0
 40
1.0
 50
90.0
 51
180.0
  0
LINE
  5
30A
  8
0
  6
CONTINUOUS
 62
     7
 10
403.1881687627
 20
853.9890293431
 30
0.0
 11
402.4948326335
 21
853.9890293431
 31
0.0
  0
LINE
  5
30B
  8
0
  6
CONTINUOUS
 62
     7
 10
401.4948380575
 20
841.9890273761
 30
0.0
 11
401.4948380575
 21
852.9890273165
 31
0.0
  0
LINE
  5
30C
  8
0
  6
CONTINUOUS
 62
     7
 10
401.4948380575
 20
841.9890273761
 30
0.0
 11
402.3615044937
 21
841.9890273761
 31
0.0
  0
ARC
  5
30D
  8
0
  6
CONTINUOUS
 62
     7
 10
596.4948354945
 20
852.9890286278
 30
0.0
 40
1.0
 50
0.0
 51
90.0
  0
LINE
  5
30E
  8
0
  6
CONTINUOUS
 62
     7
 10
597.4948329315
 20
852.9890273165
 30
0.0
 11
596.6281664953
 21
852.9890273165
 31
0.0
  0
LINE
  5
30F
  8
0
  6
CONTINUOUS
 62
     7
 10
596.4948383555
 20
853.9890293431
 30
0.0
 11
595.8015022263
 21
853.9890293431
 31
0.0
  0
LINE
  5
310
  8
0
  6
CONTINUOUS
 62
     7
 10
597.4948329315
 20
852.9890273165
 30
0.0
 11
597.4948329315
 21
841.9890273761
 31
0.0
  0
LINE
  5
311
  8
0
  6
CONTINUOUS
 62
     7
 10
596.6281664953
 20
841.9890273761
 30
0.0
 11
597.4948329315
 21
841.9890273761
 31
0.0
  0
LINE
  5
312
  8
0
  6
CONTINUOUS
 62
     7
 10
471.5270807431
 20
776.4423583102
 30
0.0
 11
471.4948346302
 21
775.8084182095
 31
0.0
  0
ARC
  5
313
  8
0
  6
CONTINUOUS
 62
     7
 10
471.3507656986
 20
779.3539060022
 30
0.0
 40
3.548413665992476
 50
227.5794083075
 51
272.3269021178
  0
LINE
  5
314
  8
0
  6
CONTINUOUS
 62
     7
 10
468.6190036521
 20
778.3208880972
 30
0.0
 11
468.9571203128
 21
776.7344210696
 31
0.0
  0
LINE
  5
315
  8
0
  6
CONTINUOUS
 62
     7
 10
527.4948363588
 20
775.8084182095
 30
0.0
 11
527.4625902459
 21
776.4423583102
 31
0.0
  0
LINE
  5
316
  8
0
  6
CONTINUOUS
 62
     7
 10
530.0325506762
 20
776.7344210696
 30
0.0
 11
530.3706673369
 21
778.3208880972
 31
0.0
  0
ARC
  5
317
  8
0
  6
CONTINUOUS
 62
     7
 10
527.6389052904
 20
779.3539060022
 30
0.0
 40
3.548413665992373
 50
267.6730978822
 51
312.4205916925
  0
ARC
  5
318
  8
0
  6
CONTINUOUS
 62
     7
 10
483.521544872
 20
698.5151676058
 30
0.0
 40
74.69539874103407
 50
82.0975323731
 51
89.4242160933
  0
LINE
  5
319
  8
0
  6
CONTINUOUS
 62
     7
 10
470.8000046596
 20
773.2067946743
 30
0.0
 11
484.272170572
 21
773.2067946743
 31
0.0
  0
POLYLINE
  5
31A
  8
0
  6
CONTINUOUS
 62
     7
 66
     1
 10
0.0
 20
0.0
 30
0.0
 70
   128
  0
VERTEX
  5
7BF
  8
0
  6
CONTINUOUS
 62
     7
 10
471.4948346302
 20
775.8084182095
 30
0.0
  0
VERTEX
  5
7C0
  8
0
  6
CONTINUOUS
 62
     7
 10
471.4948327676
 20
775.8052442622
 30
0.0
  0
VERTEX
  5
7C1
  8
0
  6
CONTINUOUS
 62
     7
 10
471.2715295539
 20
774.7616861414
 30
0.0
  0
VERTEX
  5
7C2
  8
0
  6
CONTINUOUS
 62
     7
 10
470.8027669624
 20
773.2212040972
 30
0.0
  0
VERTEX
  5
7C3
  8
0
  6
CONTINUOUS
 62
     7
 10
470.8000046596
 20
773.2067946743
 30
0.0
  0
SEQEND
  5
AAC
  8
0
  6
CONTINUOUS
 62
     7
  0
POLYLINE
  5
31B
  8
0
  6
CONTINUOUS
 62
     7
 66
     1
 10
0.0
 20
0.0
 30
0.0
 70
   128
  0
VERTEX
  5
7C4
  8
0
  6
CONTINUOUS
 62
     7
 10
528.1896663294
 20
773.2067946743
 30
0.0
  0
VERTEX
  5
7C5
  8
0
  6
CONTINUOUS
 62
     7
 10
528.1869040266
 20
773.2212040972
 30
0.0
  0
VERTEX
  5
7C6
  8
0
  6
CONTINUOUS
 62
     7
 10
527.7181414351
 20
774.7616861414
 30
0.0
  0
VERTEX
  5
7C7
  8
0
  6
CONTINUOUS
 62
     7
 10
527.4948363588
 20
775.8084182095
 30
0.0
  0
SEQEND
  5
AAD
  8
0
  6
CONTINUOUS
 62
     7
  0
LINE
  5
31C
  8
0
  6
CONTINUOUS
 62
     7
 10
514.717500417
 20
773.2067946743
 30
0.0
 11
528.1896663294
 21
773.2067946743
 31
0.0
  0
ARC
  5
31D
  8
0
  6
CONTINUOUS
 62
     7
 10
515.8096283598
 20
693.9078682605
 30
0.0
 40
79.30644660953556
 50
90.7890443012
 51
97.6892072324
  0
LINE
  5
31E
  8
0
  6
CONTINUOUS
 62
     7
 10
505.198464489
 20
772.5012246918
 30
0.0
 11
493.7912065
 21
772.5012246918
 31
0.0
  0
ARC
  5
31F
  8
0
  6
CONTINUOUS
 62
     7
 10
473.9037712691
 20
808.4832188283
 30
0.0
 40
35.4127020750436
 50
261.9384843976
 51
264.9718269098
  0
LINE
  5
320
  8
0
  6
CONTINUOUS
 62
     7
 10
468.9422675804
 20
773.5697571587
 30
0.0
 11
468.9376277313
 21
773.4204624247
 31
0.0
  0
POLYLINE
  5
321
  8
0
  6
CONTINUOUS
 62
     7
 66
     1
 10
0.0
 20
0.0
 30
0.0
 70
   128
  0
VERTEX
  5
7C8
  8
0
  6
CONTINUOUS
 62
     7
 10
468.9571203128
 20
776.7344210696
 30
0.0
  0
VERTEX
  5
7C9
  8
0
  6
CONTINUOUS
 62
     7
 10
468.9846148178
 20
775.7893596243
 30
0.0
  0
VERTEX
  5
7CA
  8
0
  6
CONTINUOUS
 62
     7
 10
468.9422675804
 20
773.5697571587
 30
0.0
  0
SEQEND
  5
AAE
  8
0
  6
CONTINUOUS
 62
     7
  0
ARC
  5
322
  8
0
  6
CONTINUOUS
 62
     7
 10
562.3857082626
 20
775.3038974907
 30
0.0
 40
32.38476807885833
 50
177.4682652796
 51
183.0695438892
  0
LINE
  5
323
  8
0
  6
CONTINUOUS
 62
     7
 10
530.0520432577
 20
773.4204624247
 30
0.0
 11
530.0474034086
 21
773.5697571587
 31
0.0
  0
ARC
  5
324
  8
0
  6
CONTINUOUS
 62
     7
 10
525.1711300022
 20
807.7403322159
 30
0.0
 40
34.66520988966971
 50
274.9954609439
 51
278.0942277487
  0
POLYLINE
  5
325
  8
0
  6
CONTINUOUS
 62
     7
 66
     1
 10
0.0
 20
0.0
 30
0.0
 70
   128
  0
VERTEX
  5
7CB
  8
0
  6
CONTINUOUS
 62
     7
 10
530.5376124964
 20
791.8038163733
 30
0.0
  0
VERTEX
  5
7CC
  8
0
  6
CONTINUOUS
 62
     7
 10
530.5307058081
 20
791.4078478169
 30
0.0
  0
VERTEX
  5
7CD
  8
0
  6
CONTINUOUS
 62
     7
 10
530.5554491863
 20
790.9070346903
 30
0.0
  0
VERTEX
  5
7CE
  8
0
  6
CONTINUOUS
 62
     7
 10
530.7116412953
 20
789.913246448
 30
0.0
  0
VERTEX
  5
7CF
  8
0
  6
CONTINUOUS
 62
     7
 10
531.1722380504
 20
788.4386871409
 30
0.0
  0
VERTEX
  5
7D0
  8
0
  6
CONTINUOUS
 62
     7
 10
531.7670998559
 20
787.0043758702
 30
0.0
  0
VERTEX
  5
7D1
  8
0
  6
CONTINUOUS
 62
     7
 10
532.2552097425
 20
785.7539896321
 30
0.0
  0
VERTEX
  5
7D2
  8
0
  6
CONTINUOUS
 62
     7
 10
532.4077156768
 20
785.3116188597
 30
0.0
  0
SEQEND
  5
AAF
  8
0
  6
CONTINUOUS
 62
     7
  0
LINE
  5
326
  8
0
  6
CONTINUOUS
 62
     7
 10
532.4077156768
 20
785.3116188597
 30
0.0
 11
530.4152888641
 21
785.3116188597
 31
0.0
  0
LINE
  5
327
  8
0
  6
CONTINUOUS
 62
     7
 10
466.5819553122
 20
785.3116188597
 30
0.0
 11
468.5743821249
 21
785.3116188597
 31
0.0
  0
POLYLINE
  5
328
  8
0
  6
CONTINUOUS
 62
     7
 66
     1
 10
0.0
 20
0.0
 30
0.0
 70
   128
  0
VERTEX
  5
7D3
  8
0
  6
CONTINUOUS
 62
     7
 10
466.5819553122
 20
785.3116188597
 30
0.0
  0
VERTEX
  5
7D4
  8
0
  6
CONTINUOUS
 62
     7
 10
466.9842121587
 20
786.4192221713
 30
0.0
  0
VERTEX
  5
7D5
  8
0
  6
CONTINUOUS
 62
     7
 10
467.6807483122
 20
788.0944703173
 30
0.0
  0
VERTEX
  5
7D6
  8
0
  6
CONTINUOUS
 62
     7
 10
468.2641324982
 20
789.8526732277
 30
0.0
  0
VERTEX
  5
7D7
  8
0
  6
CONTINUOUS
 62
     7
 10
468.3895928249
 20
790.5178014588
 30
0.0
  0
VERTEX
  5
7D8
  8
0
  6
CONTINUOUS
 62
     7
 10
468.4515518532
 20
791.1636773896
 30
0.0
  0
VERTEX
  5
7D9
  8
0
  6
CONTINUOUS
 62
     7
 10
468.4568101004
 20
791.6772459101
 30
0.0
  0
VERTEX
  5
7DA
  8
0
  6
CONTINUOUS
 62
     7
 10
468.4520584926
 20
791.8038163733
 30
0.0
  0
SEQEND
  5
AB0
  8
0
  6
CONTINUOUS
 62
     7
  0
LINE
  5
329
  8
0
  6
CONTINUOUS
 62
     7
 10
466.5819553122
 20
779.1938577246
 30
0.0
 11
466.5819553122
 21
785.3116188597
 31
0.0
  0
LINE
  5
32A
  8
0
  6
CONTINUOUS
 62
     7
 10
466.5819553122
 20
779.1938577246
 30
0.0
 11
468.5743821249
 21
779.1938577246
 31
0.0
  0
POLYLINE
  5
32B
  8
0
  6
CONTINUOUS
 62
     7
 66
     1
 10
0.0
 20
0.0
 30
0.0
 70
   128
  0
VERTEX
  5
7DB
  8
0
  6
CONTINUOUS
 62
     7
 10
466.6802843497
 20
777.9967878413
 30
0.0
  0
VERTEX
  5
7DC
  8
0
  6
CONTINUOUS
 62
     7
 10
466.6143057332
 20
778.5027120661
 30
0.0
  0
VERTEX
  5
7DD
  8
0
  6
CONTINUOUS
 62
     7
 10
466.5819553122
 20
779.1938577246
 30
0.0
  0
SEQEND
  5
AB1
  8
0
  6
CONTINUOUS
 62
     7
  0
POLYLINE
  5
32C
  8
0
  6
CONTINUOUS
 62
     7
 66
     1
 10
0.0
 20
0.0
 30
0.0
 70
   128
  0
VERTEX
  5
7DE
  8
0
  6
CONTINUOUS
 62
     7
 10
466.6802843497
 20
777.9967878413
 30
0.0
  0
VERTEX
  5
7DF
  8
0
  6
CONTINUOUS
 62
     7
 10
467.0201202319
 20
778.0536059689
 30
0.0
  0
VERTEX
  5
7E0
  8
0
  6
CONTINUOUS
 62
     7
 10
467.3497935221
 20
778.108710463
 30
0.0
  0
VERTEX
  5
7E1
  8
0
  6
CONTINUOUS
 62
     7
 10
467.6594471023
 20
778.160477097
 30
0.0
  0
VERTEX
  5
7E2
  8
0
  6
CONTINUOUS
 62
     7
 10
467.939823626
 20
778.2073561501
 30
0.0
  0
VERTEX
  5
7E3
  8
0
  6
CONTINUOUS
 62
     7
 10
468.1825337396
 20
778.247932012
 30
0.0
  0
VERTEX
  5
7E4
  8
0
  6
CONTINUOUS
 62
     7
 10
468.38032244
 20
778.2809976887
 30
0.0
  0
VERTEX
  5
7E5
  8
0
  6
CONTINUOUS
 62
     7
 10
468.5272776917
 20
778.3055548024
 30
0.0
  0
VERTEX
  5
7E6
  8
0
  6
CONTINUOUS
 62
     7
 10
468.6190036521
 20
778.3208880972
 30
0.0
  0
SEQEND
  5
AB2
  8
0
  6
CONTINUOUS
 62
     7
  0
LINE
  5
32D
  8
0
  6
CONTINUOUS
 62
     7
 10
532.4077156768
 20
785.3116188597
 30
0.0
 11
532.4077156768
 21
779.1938577246
 31
0.0
  0
LINE
  5
32E
  8
0
  6
CONTINUOUS
 62
     7
 10
532.4077156768
 20
779.1938577246
 30
0.0
 11
530.4152888641
 21
779.1938577246
 31
0.0
  0
LINE
  5
32F
  8
0
  6
CONTINUOUS
 62
     7
 10
532.4077156768
 20
779.1938577246
 30
0.0
 11
532.3093866393
 21
777.9967878413
 31
0.0
  0
POLYLINE
  5
330
  8
0
  6
CONTINUOUS
 62
     7
 66
     1
 10
0.0
 20
0.0
 30
0.0
 70
   128
  0
VERTEX
  5
7E7
  8
0
  6
CONTINUOUS
 62
     7
 10
532.3093866393
 20
777.9967878413
 30
0.0
  0
VERTEX
  5
7E8
  8
0
  6
CONTINUOUS
 62
     7
 10
531.9695507572
 20
778.0536059689
 30
0.0
  0
VERTEX
  5
7E9
  8
0
  6
CONTINUOUS
 62
     7
 10
531.6398774669
 20
778.108710463
 30
0.0
  0
VERTEX
  5
7EA
  8
0
  6
CONTINUOUS
 62
     7
 10
531.3302238867
 20
778.160477097
 30
0.0
  0
VERTEX
  5
7EB
  8
0
  6
CONTINUOUS
 62
     7
 10
531.049847363
 20
778.2073561501
 30
0.0
  0
VERTEX
  5
7EC
  8
0
  6
CONTINUOUS
 62
     7
 10
530.8071372495
 20
778.247932012
 30
0.0
  0
VERTEX
  5
7ED
  8
0
  6
CONTINUOUS
 62
     7
 10
530.609348549
 20
778.2809976887
 30
0.0
  0
VERTEX
  5
7EE
  8
0
  6
CONTINUOUS
 62
     7
 10
530.4623932973
 20
778.3055548024
 30
0.0
  0
VERTEX
  5
7EF
  8
0
  6
CONTINUOUS
 62
     7
 10
530.3706673369
 20
778.3208880972
 30
0.0
  0
SEQEND
  5
AB3
  8
0
  6
CONTINUOUS
 62
     7
  0
LINE
  5
331
  8
0
  6
CONTINUOUS
 62
     7
 10
467.2653113887
 20
776.0288957905
 30
0.0
 11
466.6802843497
 21
777.9967878413
 31
0.0
  0
POLYLINE
  5
332
  8
0
  6
CONTINUOUS
 62
     7
 66
     1
 10
0.0
 20
0.0
 30
0.0
 70
   128
  0
VERTEX
  5
7F0
  8
0
  6
CONTINUOUS
 62
     7
 10
467.2653113887
 20
776.0288957905
 30
0.0
  0
VERTEX
  5
7F1
  8
0
  6
CONTINUOUS
 62
     7
 10
467.5318670854
 20
776.140058453
 30
0.0
  0
VERTEX
  5
7F2
  8
0
  6
CONTINUOUS
 62
     7
 10
467.7928348467
 20
776.2488816332
 30
0.0
  0
VERTEX
  5
7F3
  8
0
  6
CONTINUOUS
 62
     7
 10
468.0427459464
 20
776.3531003546
 30
0.0
  0
VERTEX
  5
7F4
  8
0
  6
CONTINUOUS
 62
     7
 10
468.276358901
 20
776.4505241465
 30
0.0
  0
VERTEX
  5
7F5
  8
0
  6
CONTINUOUS
 62
     7
 10
468.4887805418
 20
776.5391115498
 30
0.0
  0
VERTEX
  5
7F6
  8
0
  6
CONTINUOUS
 62
     7
 10
468.6755535588
 20
776.6169999194
 30
0.0
  0
VERTEX
  5
7F7
  8
0
  6
CONTINUOUS
 62
     7
 10
468.8327645347
 20
776.6825650286
 30
0.0
  0
VERTEX
  5
7F8
  8
0
  6
CONTINUOUS
 62
     7
 10
468.9571203128
 20
776.7344210696
 30
0.0
  0
SEQEND
  5
AB4
  8
0
  6
CONTINUOUS
 62
     7
  0
LINE
  5
333
  8
0
  6
CONTINUOUS
 62
     7
 10
532.3093866393
 20
777.9967878413
 30
0.0
 11
531.7243596003
 21
776.0288957905
 31
0.0
  0
POLYLINE
  5
334
  8
0
  6
CONTINUOUS
 62
     7
 66
     1
 10
0.0
 20
0.0
 30
0.0
 70
   128
  0
VERTEX
  5
7F9
  8
0
  6
CONTINUOUS
 62
     7
 10
531.7243596003
 20
776.0288957905
 30
0.0
  0
VERTEX
  5
7FA
  8
0
  6
CONTINUOUS
 62
     7
 10
531.4578039036
 20
776.140058453
 30
0.0
  0
VERTEX
  5
7FB
  8
0
  6
CONTINUOUS
 62
     7
 10
531.1968361423
 20
776.2488816332
 30
0.0
  0
VERTEX
  5
7FC
  8
0
  6
CONTINUOUS
 62
     7
 10
530.9469250426
 20
776.3531003546
 30
0.0
  0
VERTEX
  5
7FD
  8
0
  6
CONTINUOUS
 62
     7
 10
530.713312088
 20
776.4505241465
 30
0.0
  0
VERTEX
  5
7FE
  8
0
  6
CONTINUOUS
 62
     7
 10
530.5008904472
 20
776.5391115498
 30
0.0
  0
VERTEX
  5
7FF
  8
0
  6
CONTINUOUS
 62
     7
 10
530.3141174302
 20
776.6169999194
 30
0.0
  0
VERTEX
  5
800
  8
0
  6
CONTINUOUS
 62
     7
 10
530.1569064543
 20
776.6825650286
 30
0.0
  0
VERTEX
  5
801
  8
0
  6
CONTINUOUS
 62
     7
 10
530.0325506762
 20
776.7344210696
 30
0.0
  0
SEQEND
  5
AB5
  8
0
  6
CONTINUOUS
 62
     7
  0
POLYLINE
  5
335
  8
0
  6
CONTINUOUS
 62
     7
 66
     1
 10
0.0
 20
0.0
 30
0.0
 70
   128
  0
VERTEX
  5
802
  8
0
  6
CONTINUOUS
 62
     7
 10
493.7912065
 20
772.5012246918
 30
0.0
  0
VERTEX
  5
803
  8
0
  6
CONTINUOUS
 62
     7
 10
493.7776306108
 20
772.4184338402
 30
0.0
  0
VERTEX
  5
804
  8
0
  6
CONTINUOUS
 62
     7
 10
493.7640784704
 20
772.3357920002
 30
0.0
  0
VERTEX
  5
805
  8
0
  6
CONTINUOUS
 62
     7
 10
493.750574293
 20
772.2534332823
 30
0.0
  0
VERTEX
  5
806
  8
0
  6
CONTINUOUS
 62
     7
 10
493.7371418275
 20
772.1715215992
 30
0.0
  0
VERTEX
  5
807
  8
0
  6
CONTINUOUS
 62
     7
 10
493.7238043569
 20
772.0901910614
 30
0.0
  0
VERTEX
  5
808
  8
0
  6
CONTINUOUS
 62
     7
 10
493.7105851643
 20
772.0095757794
 30
0.0
  0
VERTEX
  5
809
  8
0
  6
CONTINUOUS
 62
     7
 10
493.6975084641
 20
771.9298247647
 30
0.0
  0
VERTEX
  5
80A
  8
0
  6
CONTINUOUS
 62
     7
 10
493.6845961422
 20
771.8510870289
 30
0.0
  0
SEQEND
  5
AB6
  8
0
  6
CONTINUOUS
 62
     7
  0
POLYLINE
  5
336
  8
0
  6
CONTINUOUS
 62
     7
 66
     1
 10
0.0
 20
0.0
 30
0.0
 70
   128
  0
VERTEX
  5
80B
  8
0
  6
CONTINUOUS
 62
     7
 10
484.272170572
 20
771.9176803183
 30
0.0
  0
VERTEX
  5
80C
  8
0
  6
CONTINUOUS
 62
     7
 10
488.2623420492
 20
772.03653198
 30
0.0
  0
VERTEX
  5
80D
  8
0
  6
CONTINUOUS
 62
     7
 10
493.6845961422
 20
771.8510870289
 30
0.0
  0
SEQEND
  5
AB7
  8
0
  6
CONTINUOUS
 62
     7
  0
LINE
  5
337
  8
0
  6
CONTINUOUS
 62
     7
 10
484.272170572
 20
773.2067946743
 30
0.0
 11
484.272170572
 21
771.9176803183
 31
0.0
  0
POLYLINE
  5
338
  8
0
  6
CONTINUOUS
 62
     7
 66
     1
 10
0.0
 20
0.0
 30
0.0
 70
   128
  0
VERTEX
  5
80E
  8
0
  6
CONTINUOUS
 62
     7
 10
467.6988569484
 20
773.4890226674
 30
0.0
  0
VERTEX
  5
80F
  8
0
  6
CONTINUOUS
 62
     7
 10
467.5205906317
 20
775.0036213946
 30
0.0
  0
VERTEX
  5
810
  8
0
  6
CONTINUOUS
 62
     7
 10
467.2653113887
 20
776.0288957905
 30
0.0
  0
SEQEND
  5
AB8
  8
0
  6
CONTINUOUS
 62
     7
  0
POLYLINE
  5
339
  8
0
  6
CONTINUOUS
 62
     7
 66
     1
 10
0.0
 20
0.0
 30
0.0
 70
   128
  0
VERTEX
  5
811
  8
0
  6
CONTINUOUS
 62
     7
 10
467.6988569484
 20
773.4890226674
 30
0.0
  0
VERTEX
  5
812
  8
0
  6
CONTINUOUS
 62
     7
 10
467.8664540336
 20
773.4999154162
 30
0.0
  0
VERTEX
  5
813
  8
0
  6
CONTINUOUS
 62
     7
 10
468.0328664765
 20
773.5107187581
 30
0.0
  0
VERTEX
  5
814
  8
0
  6
CONTINUOUS
 62
     7
 10
468.1969208107
 20
773.5213730883
 30
0.0
  0
VERTEX
  5
815
  8
0
  6
CONTINUOUS
 62
     7
 10
468.3574547455
 20
773.531789
 30
0.0
  0
VERTEX
  5
816
  8
0
  6
CONTINUOUS
 62
     7
 10
468.5133376554
 20
773.5419068884
 30
0.0
  0
VERTEX
  5
817
  8
0
  6
CONTINUOUS
 62
     7
 10
468.6634668544
 20
773.551667149
 30
0.0
  0
VERTEX
  5
818
  8
0
  6
CONTINUOUS
 62
     7
 10
468.8067806349
 20
773.5609654736
 30
0.0
  0
VERTEX
  5
819
  8
0
  6
CONTINUOUS
 62
     7
 10
468.9422675804
 20
773.5697571587
 30
0.0
  0
SEQEND
  5
AB9
  8
0
  6
CONTINUOUS
 62
     7
  0
ARC
  5
33A
  8
0
  6
CONTINUOUS
 62
     7
 10
542.1531190744
 20
772.9418120665
 30
0.0
 40
10.8760797205944
 50
163.510382909
 51
177.1160471688
  0
POLYLINE
  5
33B
  8
0
  6
CONTINUOUS
 62
     7
 66
     1
 10
0.0
 20
0.0
 30
0.0
 70
   128
  0
VERTEX
  5
81A
  8
0
  6
CONTINUOUS
 62
     7
 10
531.2908140406
 20
773.4890226674
 30
0.0
  0
VERTEX
  5
81B
  8
0
  6
CONTINUOUS
 62
     7
 10
531.1232169554
 20
773.4999154162
 30
0.0
  0
VERTEX
  5
81C
  8
0
  6
CONTINUOUS
 62
     7
 10
530.9568045125
 20
773.5107187581
 30
0.0
  0
VERTEX
  5
81D
  8
0
  6
CONTINUOUS
 62
     7
 10
530.7927501783
 20
773.5213730883
 30
0.0
  0
VERTEX
  5
81E
  8
0
  6
CONTINUOUS
 62
     7
 10
530.6322162435
 20
773.531789
 30
0.0
  0
VERTEX
  5
81F
  8
0
  6
CONTINUOUS
 62
     7
 10
530.4763333336
 20
773.5419068884
 30
0.0
  0
VERTEX
  5
820
  8
0
  6
CONTINUOUS
 62
     7
 10
530.3262041346
 20
773.551667149
 30
0.0
  0
VERTEX
  5
821
  8
0
  6
CONTINUOUS
 62
     7
 10
530.1828903541
 20
773.5609654736
 30
0.0
  0
VERTEX
  5
822
  8
0
  6
CONTINUOUS
 62
     7
 10
530.0474034086
 20
773.5697571587
 30
0.0
  0
SEQEND
  5
ABA
  8
0
  6
CONTINUOUS
 62
     7
  0
LINE
  5
33C
  8
0
  6
CONTINUOUS
 62
     7
 10
514.717500417
 20
773.2067946743
 30
0.0
 11
514.717500417
 21
771.9176803183
 31
0.0
  0
POLYLINE
  5
33D
  8
0
  6
CONTINUOUS
 62
     7
 66
     1
 10
0.0
 20
0.0
 30
0.0
 70
   128
  0
VERTEX
  5
823
  8
0
  6
CONTINUOUS
 62
     7
 10
505.3050748468
 20
771.8510870289
 30
0.0
  0
VERTEX
  5
824
  8
0
  6
CONTINUOUS
 62
     7
 10
509.297781384
 20
772.0158342671
 30
0.0
  0
VERTEX
  5
825
  8
0
  6
CONTINUOUS
 62
     7
 10
514.717500417
 20
771.9176803183
 30
0.0
  0
SEQEND
  5
ABB
  8
0
  6
CONTINUOUS
 62
     7
  0
POLYLINE
  5
33E
  8
0
  6
CONTINUOUS
 62
     7
 66
     1
 10
0.0
 20
0.0
 30
0.0
 70
   128
  0
VERTEX
  5
826
  8
0
  6
CONTINUOUS
 62
     7
 10
505.198464489
 20
772.5012246918
 30
0.0
  0
VERTEX
  5
827
  8
0
  6
CONTINUOUS
 62
     7
 10
505.2120403782
 20
772.4184338402
 30
0.0
  0
VERTEX
  5
828
  8
0
  6
CONTINUOUS
 62
     7
 10
505.2255925186
 20
772.3357920002
 30
0.0
  0
VERTEX
  5
829
  8
0
  6
CONTINUOUS
 62
     7
 10
505.239096696
 20
772.2534332823
 30
0.0
  0
VERTEX
  5
82A
  8
0
  6
CONTINUOUS
 62
     7
 10
505.2525291615
 20
772.1715215992
 30
0.0
  0
VERTEX
  5
82B
  8
0
  6
CONTINUOUS
 62
     7
 10
505.2658666321
 20
772.0901910614
 30
0.0
  0
VERTEX
  5
82C
  8
0
  6
CONTINUOUS
 62
     7
 10
505.2790858247
 20
772.0095757794
 30
0.0
  0
VERTEX
  5
82D
  8
0
  6
CONTINUOUS
 62
     7
 10
505.292162525
 20
771.9298247647
 30
0.0
  0
VERTEX
  5
82E
  8
0
  6
CONTINUOUS
 62
     7
 10
505.3050748468
 20
771.8510870289
 30
0.0
  0
SEQEND
  5
ABC
  8
0
  6
CONTINUOUS
 62
     7
  0
LINE
  5
33F
  8
0
  6
CONTINUOUS
 62
     7
 10
528.1896663294
 20
773.2067946743
 30
0.0
 11
528.1896663294
 21
771.4890335154
 31
0.0
  0
POLYLINE
  5
340
  8
0
  6
CONTINUOUS
 62
     7
 66
     1
 10
0.0
 20
0.0
 30
0.0
 70
   128
  0
VERTEX
  5
82F
  8
0
  6
CONTINUOUS
 62
     7
 10
529.2092931852
 20
771.4890335154
 30
0.0
  0
VERTEX
  5
830
  8
0
  6
CONTINUOUS
 62
     7
 10
529.2153188423
 20
771.4890335154
 30
0.0
  0
VERTEX
  5
831
  8
0
  6
CONTINUOUS
 62
     7
 10
529.591491206
 20
771.5935353589
 30
0.0
  0
VERTEX
  5
832
  8
0
  6
CONTINUOUS
 62
     7
 10
529.7877227352
 20
771.8587164235
 30
0.0
  0
VERTEX
  5
833
  8
0
  6
CONTINUOUS
 62
     7
 10
529.9292316124
 20
772.2760681462
 30
0.0
  0
VERTEX
  5
834
  8
0
  6
CONTINUOUS
 62
     7
 10
530.0177258835
 20
772.811019833
 30
0.0
  0
VERTEX
  5
835
  8
0
  6
CONTINUOUS
 62
     7
 10
530.0520432577
 20
773.4204624247
 30
0.0
  0
SEQEND
  5
ABD
  8
0
  6
CONTINUOUS
 62
     7
  0
LINE
  5
341
  8
0
  6
CONTINUOUS
 62
     7
 10
529.2092931852
 20
771.4890335154
 30
0.0
 11
528.1896663294
 21
771.4890335154
 31
0.0
  0
ARC
  5
342
  8
0
  6
CONTINUOUS
 62
     7
 10
523.1963216975
 20
768.0642867676
 30
0.0
 40
9.313380275862578
 50
155.5594958502
 51
170.7542637675
  0
POLYLINE
  5
343
  8
0
  6
CONTINUOUS
 62
     7
 66
     1
 10
0.0
 20
0.0
 30
0.0
 70
   128
  0
VERTEX
  5
836
  8
0
  6
CONTINUOUS
 62
     7
 10
514.0039378241
 20
769.5606593441
 30
0.0
  0
VERTEX
  5
837
  8
0
  6
CONTINUOUS
 62
     7
 10
507.2188714914
 20
770.6298921656
 30
0.0
  0
VERTEX
  5
838
  8
0
  6
CONTINUOUS
 62
     7
 10
505.18513866
 20
770.8758805346
 30
0.0
  0
SEQEND
  5
ABE
  8
0
  6
CONTINUOUS
 62
     7
  0
ARC
  5
344
  8
0
  6
CONTINUOUS
 62
     7
 10
535.9443911444
 20
767.5879191917
 30
0.0
 40
30.93448404598697
 50
172.078697937
 51
173.8986269494
  0
LINE
  5
345
  8
0
  6
CONTINUOUS
 62
     7
 10
470.8000046596
 20
773.2067946743
 30
0.0
 11
470.8000046596
 21
771.4890335154
 31
0.0
  0
LINE
  5
346
  8
0
  6
CONTINUOUS
 62
     7
 10
470.8000046596
 20
771.4890335154
 30
0.0
 11
469.7803778038
 21
771.4890335154
 31
0.0
  0
POLYLINE
  5
347
  8
0
  6
CONTINUOUS
 62
     7
 66
     1
 10
0.0
 20
0.0
 30
0.0
 70
   128
  0
VERTEX
  5
839
  8
0
  6
CONTINUOUS
 62
     7
 10
468.9376277313
 20
773.4204624247
 30
0.0
  0
VERTEX
  5
83A
  8
0
  6
CONTINUOUS
 62
     7
 10
468.9719451055
 20
772.811019833
 30
0.0
  0
VERTEX
  5
83B
  8
0
  6
CONTINUOUS
 62
     7
 10
469.0604393766
 20
772.2760681462
 30
0.0
  0
VERTEX
  5
83C
  8
0
  6
CONTINUOUS
 62
     7
 10
469.2019482539
 20
771.8587164235
 30
0.0
  0
VERTEX
  5
83D
  8
0
  6
CONTINUOUS
 62
     7
 10
469.398179783
 20
771.5935353589
 30
0.0
  0
VERTEX
  5
83E
  8
0
  6
CONTINUOUS
 62
     7
 10
469.7743521467
 20
771.4890335154
 30
0.0
  0
VERTEX
  5
83F
  8
0
  6
CONTINUOUS
 62
     7
 10
469.7803778038
 20
771.4890335154
 30
0.0
  0
SEQEND
  5
ABF
  8
0
  6
CONTINUOUS
 62
     7
  0
POLYLINE
  5
348
  8
0
  6
CONTINUOUS
 62
     7
 66
     1
 10
0.0
 20
0.0
 30
0.0
 70
   128
  0
VERTEX
  5
840
  8
0
  6
CONTINUOUS
 62
     7
 10
493.804532329
 20
770.8758805346
 30
0.0
  0
VERTEX
  5
841
  8
0
  6
CONTINUOUS
 62
     7
 10
491.6802642331
 20
770.618284161
 30
0.0
  0
VERTEX
  5
842
  8
0
  6
CONTINUOUS
 62
     7
 10
484.9857331649
 20
769.5606593441
 30
0.0
  0
SEQEND
  5
AC0
  8
0
  6
CONTINUOUS
 62
     7
  0
ARC
  5
349
  8
0
  6
CONTINUOUS
 62
     7
 10
475.7933492915
 20
768.0642867676
 30
0.0
 40
9.313380275870339
 50
9.2457362325
 51
24.4405041498
  0
ARC
  5
34A
  8
0
  6
CONTINUOUS
 62
     7
 10
463.0452798446
 20
767.5879191917
 30
0.0
 40
30.93448404598698
 50
6.1013730506
 51
7.921302063
  0
POLYLINE
  5
34B
  8
0
  6
CONTINUOUS
 62
     7
 66
     1
 10
0.0
 20
0.0
 30
0.0
 70
   128
  0
VERTEX
  5
843
  8
0
  6
CONTINUOUS
 62
     7
 10
493.7912065
 20
772.5012246918
 30
0.0
  0
VERTEX
  5
844
  8
0
  6
CONTINUOUS
 62
     7
 10
497.7316980878
 20
771.8125377249
 30
0.0
  0
VERTEX
  5
845
  8
0
  6
CONTINUOUS
 62
     7
 10
499.4470586864
 20
771.4978252005
 30
0.0
  0
VERTEX
  5
846
  8
0
  6
CONTINUOUS
 62
     7
 10
499.4948354945
 20
771.4890335154
 30
0.0
  0
SEQEND
  5
AC1
  8
0
  6
CONTINUOUS
 62
     7
  0
POLYLINE
  5
34C
  8
0
  6
CONTINUOUS
 62
     7
 66
     1
 10
0.0
 20
0.0
 30
0.0
 70
   128
  0
VERTEX
  5
847
  8
0
  6
CONTINUOUS
 62
     7
 10
493.6845961422
 20
771.8510870289
 30
0.0
  0
VERTEX
  5
848
  8
0
  6
CONTINUOUS
 62
     7
 10
497.6764946407
 20
771.6098372292
 30
0.0
  0
VERTEX
  5
849
  8
0
  6
CONTINUOUS
 62
     7
 10
499.3542584055
 20
771.4984361481
 30
0.0
  0
VERTEX
  5
84A
  8
0
  6
CONTINUOUS
 62
     7
 10
499.4435320589
 20
771.4924607825
 30
0.0
  0
VERTEX
  5
84B
  8
0
  6
CONTINUOUS
 62
     7
 10
499.4948354945
 20
771.4890335154
 30
0.0
  0
SEQEND
  5
AC2
  8
0
  6
CONTINUOUS
 62
     7
  0
POLYLINE
  5
34D
  8
0
  6
CONTINUOUS
 62
     7
 66
     1
 10
0.0
 20
0.0
 30
0.0
 70
   128
  0
VERTEX
  5
84C
  8
0
  6
CONTINUOUS
 62
     7
 10
499.4948354945
 20
771.4890335154
 30
0.0
  0
VERTEX
  5
84D
  8
0
  6
CONTINUOUS
 62
     7
 10
499.4448680775
 20
771.4837883067
 30
0.0
  0
VERTEX
  5
84E
  8
0
  6
CONTINUOUS
 62
     7
 10
499.043157841
 20
771.4415882182
 30
0.0
  0
VERTEX
  5
84F
  8
0
  6
CONTINUOUS
 62
     7
 10
493.804532329
 20
770.8758805346
 30
0.0
  0
SEQEND
  5
AC3
  8
0
  6
CONTINUOUS
 62
     7
  0
POLYLINE
  5
34E
  8
0
  6
CONTINUOUS
 62
     7
 66
     1
 10
0.0
 20
0.0
 30
0.0
 70
   128
  0
VERTEX
  5
850
  8
0
  6
CONTINUOUS
 62
     7
 10
474.8629552708
 20
771.4890335154
 30
0.0
  0
VERTEX
  5
851
  8
0
  6
CONTINUOUS
 62
     7
 10
478.8182766572
 20
771.580884273
 30
0.0
  0
VERTEX
  5
852
  8
0
  6
CONTINUOUS
 62
     7
 10
484.272170572
 20
771.9176803183
 30
0.0
  0
SEQEND
  5
AC4
  8
0
  6
CONTINUOUS
 62
     7
  0
LINE
  5
34F
  8
0
  6
CONTINUOUS
 62
     7
 10
474.8629552708
 20
771.4890335154
 30
0.0
 11
470.8000046596
 21
771.4890335154
 31
0.0
  0
LINE
  5
350
  8
0
  6
CONTINUOUS
 62
     7
 10
528.1896663294
 20
771.4890335154
 30
0.0
 11
524.1267157183
 21
771.4890335154
 31
0.0
  0
POLYLINE
  5
351
  8
0
  6
CONTINUOUS
 62
     7
 66
     1
 10
0.0
 20
0.0
 30
0.0
 70
   128
  0
VERTEX
  5
853
  8
0
  6
CONTINUOUS
 62
     7
 10
514.717500417
 20
771.9176803183
 30
0.0
  0
VERTEX
  5
854
  8
0
  6
CONTINUOUS
 62
     7
 10
518.6846756772
 20
771.6534380269
 30
0.0
  0
VERTEX
  5
855
  8
0
  6
CONTINUOUS
 62
     7
 10
524.1267157183
 20
771.4890335154
 30
0.0
  0
SEQEND
  5
AC5
  8
0
  6
CONTINUOUS
 62
     7
  0
POLYLINE
  5
352
  8
0
  6
CONTINUOUS
 62
     7
 66
     1
 10
0.0
 20
0.0
 30
0.0
 70
   128
  0
VERTEX
  5
856
  8
0
  6
CONTINUOUS
 62
     7
 10
499.4948354945
 20
771.4890335154
 30
0.0
  0
VERTEX
  5
857
  8
0
  6
CONTINUOUS
 62
     7
 10
499.5461390538
 20
771.4924607825
 30
0.0
  0
VERTEX
  5
858
  8
0
  6
CONTINUOUS
 62
     7
 10
499.7650217777
 20
771.5070937228
 30
0.0
  0
VERTEX
  5
859
  8
0
  6
CONTINUOUS
 62
     7
 10
503.1814475008
 20
771.7288975071
 30
0.0
  0
VERTEX
  5
85A
  8
0
  6
CONTINUOUS
 62
     7
 10
505.3050748468
 20
771.8510870289
 30
0.0
  0
SEQEND
  5
AC6
  8
0
  6
CONTINUOUS
 62
     7
  0
ARC
  5
353
  8
0
  6
CONTINUOUS
 62
     7
 10
571.8820864573
 20
380.167635629
 30
0.0
 40
397.9602373927589
 50
99.646187617
 51
100.4801977478
  0
POLYLINE
  5
354
  8
0
  6
CONTINUOUS
 62
     7
 66
     1
 10
0.0
 20
0.0
 30
0.0
 70
   128
  0
VERTEX
  5
85B
  8
0
  6
CONTINUOUS
 62
     7
 10
505.18513866
 20
770.8758805346
 30
0.0
  0
VERTEX
  5
85C
  8
0
  6
CONTINUOUS
 62
     7
 10
499.946513148
 20
771.4415882182
 30
0.0
  0
VERTEX
  5
85D
  8
0
  6
CONTINUOUS
 62
     7
 10
499.5448030534
 20
771.4837883067
 30
0.0
  0
VERTEX
  5
85E
  8
0
  6
CONTINUOUS
 62
     7
 10
499.4948354945
 20
771.4890335154
 30
0.0
  0
SEQEND
  5
AC7
  8
0
  6
CONTINUOUS
 62
     7
  0
POLYLINE
  5
355
  8
0
  6
CONTINUOUS
 62
     7
 66
     1
 10
0.0
 20
0.0
 30
0.0
 70
   128
  0
VERTEX
  5
85F
  8
0
  6
CONTINUOUS
 62
     7
 10
484.9857331649
 20
769.5606593441
 30
0.0
  0
VERTEX
  5
860
  8
0
  6
CONTINUOUS
 62
     7
 10
480.4992934153
 20
768.8044403147
 30
0.0
  0
VERTEX
  5
861
  8
0
  6
CONTINUOUS
 62
     7
 10
476.0175754711
 20
768.4890274357
 30
0.0
  0
SEQEND
  5
AC8
  8
0
  6
CONTINUOUS
 62
     7
  0
POLYLINE
  5
356
  8
0
  6
CONTINUOUS
 62
     7
 66
     1
 10
0.0
 20
0.0
 30
0.0
 70
   128
  0
VERTEX
  5
862
  8
0
  6
CONTINUOUS
 62
     7
 10
522.9720955179
 20
768.4890274357
 30
0.0
  0
VERTEX
  5
863
  8
0
  6
CONTINUOUS
 62
     7
 10
518.558619304
 20
768.7957380366
 30
0.0
  0
VERTEX
  5
864
  8
0
  6
CONTINUOUS
 62
     7
 10
514.0039378241
 20
769.5606593441
 30
0.0
  0
SEQEND
  5
AC9
  8
0
  6
CONTINUOUS
 62
     7
  0
LINE
  5
357
  8
0
  6
CONTINUOUS
 62
     7
 10
476.0175754711
 20
768.4890274357
 30
0.0
 11
522.9720955179
 21
768.4890274357
 31
0.0
  0
ARC
  5
358
  8
0
  6
CONTINUOUS
 62
     7
 10
468.3208835707
 20
726.0122615291
 30
0.0
 40
47.41221240901034
 50
89.2546681057
 51
90.7453318943
  0
POLYLINE
  5
359
  8
0
  6
CONTINUOUS
 62
     7
 66
     1
 10
0.0
 20
0.0
 30
0.0
 70
   128
  0
VERTEX
  5
865
  8
0
  6
CONTINUOUS
 62
     7
 10
469.7803778038
 20
771.4890335154
 30
0.0
  0
VERTEX
  5
866
  8
0
  6
CONTINUOUS
 62
     7
 10
469.7688647941
 20
771.4890335154
 30
0.0
  0
VERTEX
  5
867
  8
0
  6
CONTINUOUS
 62
     7
 10
469.5825667516
 20
771.4917008233
 30
0.0
  0
VERTEX
  5
868
  8
0
  6
CONTINUOUS
 62
     7
 10
469.4040471152
 20
771.5003434967
 30
0.0
  0
VERTEX
  5
869
  8
0
  6
CONTINUOUS
 62
     7
 10
469.0730625228
 20
771.5413365912
 30
0.0
  0
VERTEX
  5
86A
  8
0
  6
CONTINUOUS
 62
     7
 10
468.5356018529
 20
771.7325333905
 30
0.0
  0
VERTEX
  5
86B
  8
0
  6
CONTINUOUS
 62
     7
 10
468.3960077748
 20
771.8245778632
 30
0.0
  0
VERTEX
  5
86C
  8
0
  6
CONTINUOUS
 62
     7
 10
468.0578147456
 20
772.1844856095
 30
0.0
  0
VERTEX
  5
86D
  8
0
  6
CONTINUOUS
 62
     7
 10
467.7998383925
 20
772.7600429606
 30
0.0
  0
VERTEX
  5
86E
  8
0
  6
CONTINUOUS
 62
     7
 10
467.7046944783
 20
773.4001819443
 30
0.0
  0
VERTEX
  5
86F
  8
0
  6
CONTINUOUS
 62
     7
 10
467.70413941
 20
773.4204624247
 30
0.0
  0
SEQEND
  5
ACA
  8
0
  6
CONTINUOUS
 62
     7
  0
ARC
  5
35A
  8
0
  6
CONTINUOUS
 62
     7
 10
530.6687874184
 20
726.0122615291
 30
0.0
 40
47.41221240902478
 50
89.2546681057
 51
90.7453318943
  0
POLYLINE
  5
35B
  8
0
  6
CONTINUOUS
 62
     7
 66
     1
 10
0.0
 20
0.0
 30
0.0
 70
   128
  0
VERTEX
  5
870
  8
0
  6
CONTINUOUS
 62
     7
 10
531.285531579
 20
773.4204624247
 30
0.0
  0
VERTEX
  5
871
  8
0
  6
CONTINUOUS
 62
     7
 10
531.2850063131
 20
773.401165421
 30
0.0
  0
VERTEX
  5
872
  8
0
  6
CONTINUOUS
 62
     7
 10
531.1900970921
 20
772.7609966349
 30
0.0
  0
VERTEX
  5
873
  8
0
  6
CONTINUOUS
 62
     7
 10
530.9323740587
 20
772.1852604699
 30
0.0
  0
VERTEX
  5
874
  8
0
  6
CONTINUOUS
 62
     7
 10
530.5936632142
 20
771.8245778632
 30
0.0
  0
VERTEX
  5
875
  8
0
  6
CONTINUOUS
 62
     7
 10
530.455030261
 20
771.7330847334
 30
0.0
  0
VERTEX
  5
876
  8
0
  6
CONTINUOUS
 62
     7
 10
529.9177055642
 20
771.5415452074
 30
0.0
  0
VERTEX
  5
877
  8
0
  6
CONTINUOUS
 62
     7
 10
529.5862348214
 20
771.5003882002
 30
0.0
  0
VERTEX
  5
878
  8
0
  6
CONTINUOUS
 62
     7
 10
529.4074246124
 20
771.4917157244
 30
0.0
  0
VERTEX
  5
879
  8
0
  6
CONTINUOUS
 62
     7
 10
529.2208061949
 20
771.4890335154
 30
0.0
  0
VERTEX
  5
87A
  8
0
  6
CONTINUOUS
 62
     7
 10
529.2092931852
 20
771.4890335154
 30
0.0
  0
SEQEND
  5
ACB
  8
0
  6
CONTINUOUS
 62
     7
  0
LINE
  5
35C
  8
0
  6
CONTINUOUS
 62
     7
 10
467.70413941
 20
773.4204624247
 30
0.0
 11
467.6988569484
 21
773.4890226674
 31
0.0
  0
LINE
  5
35D
  8
0
  6
CONTINUOUS
 62
     7
 10
531.2908140406
 20
773.4890226674
 30
0.0
 11
531.285531579
 21
773.4204624247
 31
0.0
  0
ARC
  5
35E
  8
0
  6
CONTINUOUS
 62
     7
 10
535.4948354945
 20
791.4890286278
 30
0.0
 40
4.932743400441382
 50
180.0
 51
269.7739585912
  0
POLYLINE
  5
35F
  8
0
  6
CONTINUOUS
 62
     7
 66
     1
 10
0.0
 20
0.0
 30
0.0
 70
   128
  0
VERTEX
  5
87B
  8
0
  6
CONTINUOUS
 62
     7
 10
535.4675908968
 20
784.5832351994
 30
0.0
  0
VERTEX
  5
87C
  8
0
  6
CONTINUOUS
 62
     7
 10
535.4689692542
 20
784.9330846619
 30
0.0
  0
VERTEX
  5
87D
  8
0
  6
CONTINUOUS
 62
     7
 10
535.4703103587
 20
785.2721307826
 30
0.0
  0
VERTEX
  5
87E
  8
0
  6
CONTINUOUS
 62
     7
 10
535.4715620563
 20
785.5899278473
 30
0.0
  0
VERTEX
  5
87F
  8
0
  6
CONTINUOUS
 62
     7
 10
535.4726945445
 20
785.8767006945
 30
0.0
  0
VERTEX
  5
880
  8
0
  6
CONTINUOUS
 62
     7
 10
535.4736668453
 20
786.1235831332
 30
0.0
  0
VERTEX
  5
881
  8
0
  6
CONTINUOUS
 62
     7
 10
535.4744528816
 20
786.3229755711
 30
0.0
  0
VERTEX
  5
882
  8
0
  6
CONTINUOUS
 62
     7
 10
535.4750303016
 20
786.4687238287
 30
0.0
  0
VERTEX
  5
883
  8
0
  6
CONTINUOUS
 62
     7
 10
535.4753767536
 20
786.5563277554
 30
0.0
  0
SEQEND
  5
ACC
  8
0
  6
CONTINUOUS
 62
     7
  0
ARC
  5
360
  8
0
  6
CONTINUOUS
 62
     7
 10
535.4948354945
 20
791.4890286278
 30
0.0
 40
6.905840760617918
 50
243.4466763546
 51
269.7739585912
  0
POLYLINE
  5
361
  8
0
  6
CONTINUOUS
 62
     7
 66
     1
 10
0.0
 20
0.0
 30
0.0
 70
   128
  0
VERTEX
  5
884
  8
0
  6
CONTINUOUS
 62
     7
 10
530.5376124964
 20
791.8038163733
 30
0.0
  0
VERTEX
  5
885
  8
0
  6
CONTINUOUS
 62
     7
 10
530.5610073194
 20
791.501501615
 30
0.0
  0
VERTEX
  5
886
  8
0
  6
CONTINUOUS
 62
     7
 10
530.5620913789
 20
791.4890293431
 30
0.0
  0
SEQEND
  5
ACD
  8
0
  6
CONTINUOUS
 62
     7
  0
POLYLINE
  5
362
  8
0
  6
CONTINUOUS
 62
     7
 66
     1
 10
0.0
 20
0.0
 30
0.0
 70
   128
  0
VERTEX
  5
887
  8
0
  6
CONTINUOUS
 62
     7
 10
476.0175754711
 20
768.4890274357
 30
0.0
  0
VERTEX
  5
888
  8
0
  6
CONTINUOUS
 62
     7
 10
475.9953895048
 20
769.0743003439
 30
0.0
  0
VERTEX
  5
889
  8
0
  6
CONTINUOUS
 62
     7
 10
475.9296846971
 20
769.6370724987
 30
0.0
  0
VERTEX
  5
88A
  8
0
  6
CONTINUOUS
 62
     7
 10
475.8229867951
 20
770.1557372164
 30
0.0
  0
VERTEX
  5
88B
  8
0
  6
CONTINUOUS
 62
     7
 10
475.6793954805
 20
770.6103418421
 30
0.0
  0
VERTEX
  5
88C
  8
0
  6
CONTINUOUS
 62
     7
 10
475.5044279084
 20
770.9834371161
 30
0.0
  0
VERTEX
  5
88D
  8
0
  6
CONTINUOUS
 62
     7
 10
475.3048082278
 20
771.2606732201
 30
0.0
  0
VERTEX
  5
88E
  8
0
  6
CONTINUOUS
 62
     7
 10
475.0882105366
 20
771.4313809227
 30
0.0
  0
VERTEX
  5
88F
  8
0
  6
CONTINUOUS
 62
     7
 10
474.8629552708
 20
771.4890335154
 30
0.0
  0
SEQEND
  5
ACE
  8
0
  6
CONTINUOUS
 62
     7
  0
POLYLINE
  5
363
  8
0
  6
CONTINUOUS
 62
     7
 66
     1
 10
0.0
 20
0.0
 30
0.0
 70
   128
  0
VERTEX
  5
890
  8
0
  6
CONTINUOUS
 62
     7
 10
524.1267157183
 20
771.4890335154
 30
0.0
  0
VERTEX
  5
891
  8
0
  6
CONTINUOUS
 62
     7
 10
523.9014604524
 20
771.4313809227
 30
0.0
  0
VERTEX
  5
892
  8
0
  6
CONTINUOUS
 62
     7
 10
523.6848627612
 20
771.2606732201
 30
0.0
  0
VERTEX
  5
893
  8
0
  6
CONTINUOUS
 62
     7
 10
523.4852430806
 20
770.9834371161
 30
0.0
  0
VERTEX
  5
894
  8
0
  6
CONTINUOUS
 62
     7
 10
523.3102755085
 20
770.6103418421
 30
0.0
  0
VERTEX
  5
895
  8
0
  6
CONTINUOUS
 62
     7
 10
523.166684194
 20
770.1557372164
 30
0.0
  0
VERTEX
  5
896
  8
0
  6
CONTINUOUS
 62
     7
 10
523.0599862919
 20
769.6370724987
 30
0.0
  0
VERTEX
  5
897
  8
0
  6
CONTINUOUS
 62
     7
 10
522.9942814842
 20
769.0743003439
 30
0.0
  0
VERTEX
  5
898
  8
0
  6
CONTINUOUS
 62
     7
 10
522.9720955179
 20
768.4890274357
 30
0.0
  0
SEQEND
  5
ACF
  8
0
  6
CONTINUOUS
 62
     7
  0
POLYLINE
  5
364
  8
0
  6
CONTINUOUS
 62
     7
 66
     1
 10
0.0
 20
0.0
 30
0.0
 70
   128
  0
VERTEX
  5
899
  8
0
  6
CONTINUOUS
 62
     7
 10
463.5142942355
 20
786.5563277554
 30
0.0
  0
VERTEX
  5
89A
  8
0
  6
CONTINUOUS
 62
     7
 10
463.5146406875
 20
786.4687238287
 30
0.0
  0
VERTEX
  5
89B
  8
0
  6
CONTINUOUS
 62
     7
 10
463.5152181074
 20
786.3229755711
 30
0.0
  0
VERTEX
  5
89C
  8
0
  6
CONTINUOUS
 62
     7
 10
463.5160041437
 20
786.1235831332
 30
0.0
  0
VERTEX
  5
89D
  8
0
  6
CONTINUOUS
 62
     7
 10
463.5169764445
 20
785.8767006945
 30
0.0
  0
VERTEX
  5
89E
  8
0
  6
CONTINUOUS
 62
     7
 10
463.5181089327
 20
785.5899278473
 30
0.0
  0
VERTEX
  5
89F
  8
0
  6
CONTINUOUS
 62
     7
 10
463.5193606303
 20
785.2721307826
 30
0.0
  0
VERTEX
  5
8A0
  8
0
  6
CONTINUOUS
 62
     7
 10
463.5207017348
 20
784.9330846619
 30
0.0
  0
VERTEX
  5
8A1
  8
0
  6
CONTINUOUS
 62
     7
 10
463.5220800922
 20
784.5832351994
 30
0.0
  0
SEQEND
  5
AD0
  8
0
  6
CONTINUOUS
 62
     7
  0
ARC
  5
365
  8
0
  6
CONTINUOUS
 62
     7
 10
463.4948354945
 20
791.4890286278
 30
0.0
 40
4.932743400441382
 50
270.2260414088
 51
0.0
  0
POLYLINE
  5
366
  8
0
  6
CONTINUOUS
 62
     7
 66
     1
 10
0.0
 20
0.0
 30
0.0
 70
   128
  0
VERTEX
  5
8A2
  8
0
  6
CONTINUOUS
 62
     7
 10
468.4275796101
 20
791.4890293431
 30
0.0
  0
VERTEX
  5
8A3
  8
0
  6
CONTINUOUS
 62
     7
 10
468.4286636696
 20
791.501501615
 30
0.0
  0
VERTEX
  5
8A4
  8
0
  6
CONTINUOUS
 62
     7
 10
468.4520584926
 20
791.8038163733
 30
0.0
  0
SEQEND
  5
AD1
  8
0
  6
CONTINUOUS
 62
     7
  0
ARC
  5
367
  8
0
  6
CONTINUOUS
 62
     7
 10
463.4948354945
 20
791.4890286278
 30
0.0
 40
6.905840760617918
 50
270.2260414088
 51
296.5533236454
  0
LINE
  5
368
  8
0
  6
CONTINUOUS
 62
     7
 10
446.0039434419
 20
784.4890300583
 30
0.0
 11
447.3412146256
 21
784.4890300583
 31
0.0
  0
ARC
  5
369
  8
0
  6
CONTINUOUS
 62
     7
 10
447.7547003733
 20
784.7654887088
 30
0.0
 40
1.772450060908943
 50
103.4905421301
 51
188.9733720423
  0
LINE
  5
36A
  8
0
  6
CONTINUOUS
 62
     7
 10
447.3412146256
 20
786.4890341114
 30
0.0
 11
447.3412146256
 21
784.4890300583
 31
0.0
  0
LINE
  5
36B
  8
0
  6
CONTINUOUS
 62
     7
 10
446.0039434419
 20
773.4890226674
 30
0.0
 11
446.0039434419
 21
784.4890300583
 31
0.0
  0
LINE
  5
36C
  8
0
  6
CONTINUOUS
 62
     7
 10
447.3412146256
 20
784.4890300583
 30
0.0
 11
447.3412146256
 21
773.4890226674
 31
0.0
  0
LINE
  5
36D
  8
0
  6
CONTINUOUS
 62
     7
 10
446.0039434419
 20
773.4890226674
 30
0.0
 11
447.3412146256
 21
773.4890226674
 31
0.0
  0
LINE
  5
36E
  8
0
  6
CONTINUOUS
 62
     7
 10
455.8121187076
 20
786.4890341114
 30
0.0
 11
455.8121187076
 21
784.4890300583
 31
0.0
  0
LINE
  5
36F
  8
0
  6
CONTINUOUS
 62
     7
 10
455.8121187076
 20
784.4890300583
 30
0.0
 11
447.3412146256
 21
784.4890300583
 31
0.0
  0
LINE
  5
370
  8
0
  6
CONTINUOUS
 62
     7
 10
447.3412146256
 20
786.4890341114
 30
0.0
 11
455.8121187076
 21
786.4890341114
 31
0.0
  0
POLYLINE
  5
371
  8
0
  6
CONTINUOUS
 62
     7
 66
     1
 10
0.0
 20
0.0
 30
0.0
 70
   128
  0
VERTEX
  5
8A5
  8
0
  6
CONTINUOUS
 62
     7
 10
459.3531002686
 20
784.5675293755
 30
0.0
  0
VERTEX
  5
8A6
  8
0
  6
CONTINUOUS
 62
     7
 10
459.31211835
 20
784.5673505616
 30
0.0
  0
VERTEX
  5
8A7
  8
0
  6
CONTINUOUS
 62
     7
 10
455.8121187076
 20
784.4890300583
 30
0.0
  0
SEQEND
  5
AD2
  8
0
  6
CONTINUOUS
 62
     7
  0
LINE
  5
372
  8
0
  6
CONTINUOUS
 62
     7
 10
463.5220800922
 20
784.5832351994
 30
0.0
 11
459.3531002686
 21
784.5675293755
 31
0.0
  0
LINE
  5
373
  8
0
  6
CONTINUOUS
 62
     7
 10
447.3412146256
 20
773.4890226674
 30
0.0
 11
467.6988569484
 21
773.4890226674
 31
0.0
  0
LINE
  5
374
  8
0
  6
CONTINUOUS
 62
     7
 10
447.3412146256
 20
773.4890226674
 30
0.0
 11
447.3412146256
 21
771.4890335154
 31
0.0
  0
ARC
  5
375
  8
0
  6
CONTINUOUS
 62
     7
 10
447.7546631419
 20
773.2125519639
 30
0.0
 40
1.772415165213569
 50
171.0260553722
 51
256.5104249515
  0
LINE
  5
376
  8
0
  6
CONTINUOUS
 62
     7
 10
469.7803778038
 20
771.4890335154
 30
0.0
 11
447.3412146256
 21
771.4890335154
 31
0.0
  0
LINE
  5
377
  8
0
  6
CONTINUOUS
 62
     7
 10
455.8121187076
 20
786.4890341114
 30
0.0
 11
459.3459886894
 21
786.5450922799
 31
0.0
  0
POLYLINE
  5
378
  8
0
  6
CONTINUOUS
 62
     7
 66
     1
 10
0.0
 20
0.0
 30
0.0
 70
   128
  0
VERTEX
  5
8A8
  8
0
  6
CONTINUOUS
 62
     7
 10
459.3459886894
 20
786.5450922799
 30
0.0
  0
VERTEX
  5
8A9
  8
0
  6
CONTINUOUS
 62
     7
 10
459.3462904379
 20
786.4612285447
 30
0.0
  0
VERTEX
  5
8AA
  8
0
  6
CONTINUOUS
 62
     7
 10
459.3468082533
 20
786.3177750658
 30
0.0
  0
VERTEX
  5
8AB
  8
0
  6
CONTINUOUS
 62
     7
 10
459.3475197837
 20
786.1192468953
 30
0.0
  0
VERTEX
  5
8AC
  8
0
  6
CONTINUOUS
 62
     7
 10
459.3484101281
 20
785.8719025206
 30
0.0
  0
VERTEX
  5
8AD
  8
0
  6
CONTINUOUS
 62
     7
 10
459.3494457588
 20
785.5835054469
 30
0.0
  0
VERTEX
  5
8AE
  8
0
  6
CONTINUOUS
 62
     7
 10
459.3505968735
 20
785.2631453824
 30
0.0
  0
VERTEX
  5
8AF
  8
0
  6
CONTINUOUS
 62
     7
 10
459.3518299446
 20
784.9208955121
 30
0.0
  0
VERTEX
  5
8B0
  8
0
  6
CONTINUOUS
 62
     7
 10
459.3531002686
 20
784.5675293755
 30
0.0
  0
SEQEND
  5
AD3
  8
0
  6
CONTINUOUS
 62
     7
  0
LINE
  5
379
  8
0
  6
CONTINUOUS
 62
     7
 10
459.3459886894
 20
786.5450922799
 30
0.0
 11
463.5142942355
 21
786.5563277554
 31
0.0
  0
LINE
  5
37A
  8
0
  6
CONTINUOUS
 62
     7
 10
539.6365707204
 20
784.5675293755
 30
0.0
 11
535.4675908968
 21
784.5832351994
 31
0.0
  0
LINE
  5
37B
  8
0
  6
CONTINUOUS
 62
     7
 10
543.1775522814
 20
784.4890300583
 30
0.0
 11
539.6365707204
 21
784.5675293755
 31
0.0
  0
LINE
  5
37C
  8
0
  6
CONTINUOUS
 62
     7
 10
551.6484563634
 20
784.4890300583
 30
0.0
 11
543.1775522814
 21
784.4890300583
 31
0.0
  0
LINE
  5
37D
  8
0
  6
CONTINUOUS
 62
     7
 10
551.6484563634
 20
773.4890226674
 30
0.0
 11
551.6484563634
 21
784.4890300583
 31
0.0
  0
LINE
  5
37E
  8
0
  6
CONTINUOUS
 62
     7
 10
531.2908140406
 20
773.4890226674
 30
0.0
 11
551.6484563634
 21
773.4890226674
 31
0.0
  0
LINE
  5
37F
  8
0
  6
CONTINUOUS
 62
     7
 10
535.4753767536
 20
786.5563277554
 30
0.0
 11
539.6436822996
 21
786.5450922799
 31
0.0
  0
POLYLINE
  5
380
  8
0
  6
CONTINUOUS
 62
     7
 66
     1
 10
0.0
 20
0.0
 30
0.0
 70
   128
  0
VERTEX
  5
8B1
  8
0
  6
CONTINUOUS
 62
     7
 10
539.6365707204
 20
784.5675293755
 30
0.0
  0
VERTEX
  5
8B2
  8
0
  6
CONTINUOUS
 62
     7
 10
539.6378410444
 20
784.9208955121
 30
0.0
  0
VERTEX
  5
8B3
  8
0
  6
CONTINUOUS
 62
     7
 10
539.6390741155
 20
785.2631453824
 30
0.0
  0
VERTEX
  5
8B4
  8
0
  6
CONTINUOUS
 62
     7
 10
539.6402252302
 20
785.5835054469
 30
0.0
  0
VERTEX
  5
8B5
  8
0
  6
CONTINUOUS
 62
     7
 10
539.6412608609
 20
785.8719025206
 30
0.0
  0
VERTEX
  5
8B6
  8
0
  6
CONTINUOUS
 62
     7
 10
539.6421512053
 20
786.1192468953
 30
0.0
  0
VERTEX
  5
8B7
  8
0
  6
CONTINUOUS
 62
     7
 10
539.6428627357
 20
786.3177750658
 30
0.0
  0
VERTEX
  5
8B8
  8
0
  6
CONTINUOUS
 62
     7
 10
539.6433805511
 20
786.4612285447
 30
0.0
  0
VERTEX
  5
8B9
  8
0
  6
CONTINUOUS
 62
     7
 10
539.6436822996
 20
786.5450922799
 30
0.0
  0
SEQEND
  5
AD4
  8
0
  6
CONTINUOUS
 62
     7
  0
LINE
  5
381
  8
0
  6
CONTINUOUS
 62
     7
 10
551.6484563634
 20
771.4890335154
 30
0.0
 11
551.6484563634
 21
773.4890226674
 31
0.0
  0
LINE
  5
382
  8
0
  6
CONTINUOUS
 62
     7
 10
551.6484563634
 20
771.4890335154
 30
0.0
 11
529.2092931852
 21
771.4890335154
 31
0.0
  0
POLYLINE
  5
383
  8
0
  6
CONTINUOUS
 62
     7
 66
     1
 10
0.0
 20
0.0
 30
0.0
 70
   128
  0
VERTEX
  5
8BA
  8
0
  6
CONTINUOUS
 62
     7
 10
539.6436822996
 20
786.5450922799
 30
0.0
  0
VERTEX
  5
8BB
  8
0
  6
CONTINUOUS
 62
     7
 10
539.6867056773
 20
786.5449730706
 30
0.0
  0
VERTEX
  5
8BC
  8
0
  6
CONTINUOUS
 62
     7
 10
543.1775522814
 20
786.4890341114
 30
0.0
  0
SEQEND
  5
AD5
  8
0
  6
CONTINUOUS
 62
     7
  0
LINE
  5
384
  8
0
  6
CONTINUOUS
 62
     7
 10
543.1775522814
 20
784.4890300583
 30
0.0
 11
543.1775522814
 21
786.4890341114
 31
0.0
  0
LINE
  5
385
  8
0
  6
CONTINUOUS
 62
     7
 10
543.1775522814
 20
786.4890341114
 30
0.0
 11
551.6484563634
 21
786.4890341114
 31
0.0
  0
LINE
  5
386
  8
0
  6
CONTINUOUS
 62
     7
 10
551.6484563634
 20
784.4890300583
 30
0.0
 11
551.6484563634
 21
786.4890341114
 31
0.0
  0
ARC
  5
387
  8
0
  6
CONTINUOUS
 62
     7
 10
551.2349706157
 20
784.7654887088
 30
0.0
 40
1.772450060908969
 50
351.0266279577
 51
76.5094578699
  0
LINE
  5
388
  8
0
  6
CONTINUOUS
 62
     7
 10
551.6484563634
 20
784.4890300583
 30
0.0
 11
552.9857275472
 21
784.4890300583
 31
0.0
  0
LINE
  5
389
  8
0
  6
CONTINUOUS
 62
     7
 10
552.9857275472
 20
784.4890300583
 30
0.0
 11
552.9857275472
 21
773.4890226674
 31
0.0
  0
LINE
  5
38A
  8
0
  6
CONTINUOUS
 62
     7
 10
551.6484563634
 20
773.4890226674
 30
0.0
 11
552.9857275472
 21
773.4890226674
 31
0.0
  0
ARC
  5
38B
  8
0
  6
CONTINUOUS
 62
     7
 10
551.2350078471
 20
773.2125519639
 30
0.0
 40
1.772415165213582
 50
283.4895750485
 51
8.9739446278
  0
ARC
  5
38C
  8
0
  6
CONTINUOUS
 62
     7
 10
440.558729827
 20
784.7008562398
 30
0.0
 40
1.809819403085365
 50
98.8694711592
 51
186.7214599453
  0
LINE
  5
38D
  8
0
  6
CONTINUOUS
 62
     7
 10
440.279684721
 20
786.4890341114
 30
0.0
 11
447.3412146256
 21
786.4890341114
 31
0.0
  0
LINE
  5
38E
  8
0
  6
CONTINUOUS
 62
     7
 10
446.0039434419
 20
784.4890300583
 30
0.0
 11
438.7613495276
 21
784.4890300583
 31
0.0
  0
LINE
  5
38F
  8
0
  6
CONTINUOUS
 62
     7
 10
438.7613495276
 20
784.4890300583
 30
0.0
 11
438.7613495276
 21
773.4890226674
 31
0.0
  0
LINE
  5
390
  8
0
  6
CONTINUOUS
 62
     7
 10
438.7613495276
 20
773.4890226674
 30
0.0
 11
446.0039434419
 21
773.4890226674
 31
0.0
  0
ARC
  5
391
  8
0
  6
CONTINUOUS
 62
     7
 10
440.5586955714
 20
773.277183803
 30
0.0
 40
1.809786867436113
 50
173.278014356
 51
261.1314657202
  0
LINE
  5
392
  8
0
  6
CONTINUOUS
 62
     7
 10
447.3412146256
 20
771.4890335154
 30
0.0
 11
440.279684721
 21
771.4890335154
 31
0.0
  0
LINE
  5
393
  8
0
  6
CONTINUOUS
 62
     7
 10
551.6484563634
 20
786.4890341114
 30
0.0
 11
558.709986268
 21
786.4890341114
 31
0.0
  0
ARC
  5
394
  8
0
  6
CONTINUOUS
 62
     7
 10
558.430941162
 20
784.7008562398
 30
0.0
 40
1.809819403085365
 50
353.2785400547
 51
81.1305288408
  0
LINE
  5
395
  8
0
  6
CONTINUOUS
 62
     7
 10
560.2283214614
 20
784.4890300583
 30
0.0
 11
552.9857275472
 21
784.4890300583
 31
0.0
  0
LINE
  5
396
  8
0
  6
CONTINUOUS
 62
     7
 10
560.2283214614
 20
773.4890226674
 30
0.0
 11
560.2283214614
 21
784.4890300583
 31
0.0
  0
LINE
  5
397
  8
0
  6
CONTINUOUS
 62
     7
 10
552.9857275472
 20
773.4890226674
 30
0.0
 11
560.2283214614
 21
773.4890226674
 31
0.0
  0
ARC
  5
398
  8
0
  6
CONTINUOUS
 62
     7
 10
558.4309754176
 20
773.277183803
 30
0.0
 40
1.809786867436069
 50
278.8685342798
 51
6.721985644
  0
LINE
  5
399
  8
0
  6
CONTINUOUS
 62
     7
 10
558.709986268
 20
771.4890335154
 30
0.0
 11
551.6484563634
 21
771.4890335154
 31
0.0
  0
ARC
  5
39A
  8
0
  6
CONTINUOUS
 62
     7
 10
411.0078651142
 20
835.2382973776
 30
0.0
 40
52.62081535086963
 50
358.6396125013
 51
4.0874217786
  0
LINE
  5
39B
  8
0
  6
CONTINUOUS
 62
     7
 10
463.6138488934
 20
833.9890260648
 30
0.0
 11
459.4472309038
 21
833.9890260648
 31
0.0
  0
ARC
  5
39C
  8
0
  6
CONTINUOUS
 62
     7
 10
406.8439927574
 20
835.2383236263
 30
0.0
 40
52.61807111525637
 50
358.6395129482
 51
4.0876066606
  0
LINE
  5
39D
  8
0
  6
CONTINUOUS
 62
     7
 10
468.4948360011
 20
833.9890260648
 30
0.0
 11
463.6138488934
 21
833.9890260648
 31
0.0
  0
LINE
  5
39E
  8
0
  6
CONTINUOUS
 62
     7
 10
463.6138488934
 20
791.4890293431
 30
0.0
 11
468.4275796101
 21
791.4890293431
 31
0.0
  0
LINE
  5
39F
  8
0
  6
CONTINUOUS
 62
     7
 10
463.6138488934
 20
791.4890293431
 30
0.0
 11
463.6138488934
 21
833.9890260648
 31
0.0
  0
LINE
  5
3A0
  8
0
  6
CONTINUOUS
 62
     7
 10
468.4948360011
 20
793.175915296
 30
0.0
 11
468.4948360011
 21
792.4549822163
 31
0.0
  0
ARC
  5
3A1
  8
0
  6
CONTINUOUS
 62
     7
 10
587.9818058748
 20
835.2382973776
 30
0.0
 40
52.62081535086958
 50
175.9125782214
 51
181.3603874987
  0
LINE
  5
3A2
  8
0
  6
CONTINUOUS
 62
     7
 10
535.3758220956
 20
833.9890260648
 30
0.0
 11
530.4948349879
 21
833.9890260648
 31
0.0
  0
LINE
  5
3A3
  8
0
  6
CONTINUOUS
 62
     7
 10
530.5620913789
 20
791.4890293431
 30
0.0
 11
535.3758220956
 21
791.4890293431
 31
0.0
  0
LINE
  5
3A4
  8
0
  6
CONTINUOUS
 62
     7
 10
535.3758220956
 20
833.9890260648
 30
0.0
 11
535.3758220956
 21
791.4890293431
 31
0.0
  0
LINE
  5
3A5
  8
0
  6
CONTINUOUS
 62
     7
 10
530.4948349879
 20
792.4549822163
 30
0.0
 11
530.4948349879
 21
793.175915296
 31
0.0
  0
LINE
  5
3A6
  8
0
  6
CONTINUOUS
 62
     7
 10
539.5424400852
 20
833.9890260648
 30
0.0
 11
535.3758220956
 21
833.9890260648
 31
0.0
  0
ARC
  5
3A7
  8
0
  6
CONTINUOUS
 62
     7
 10
592.1456782315
 20
835.2383236263
 30
0.0
 40
52.61807111517264
 50
175.9123933394
 51
181.3604870518
  0
LINE
  5
3A8
  8
0
  6
CONTINUOUS
 62
     7
 10
476.0175754711
 20
768.4890274357
 30
0.0
 11
455.4115754948
 21
768.4890274357
 31
0.0
  0
LINE
  5
3A9
  8
0
  6
CONTINUOUS
 62
     7
 10
543.5780954943
 20
768.4890274357
 30
0.0
 11
522.9720955179
 21
768.4890274357
 31
0.0
  0
LINE
  5
3AA
  8
0
  6
CONTINUOUS
 62
     7
 10
459.4472309038
 20
833.9890260648
 30
0.0
 11
457.4948360607
 21
833.9890260648
 31
0.0
  0
ARC
  5
3AB
  8
0
  6
CONTINUOUS
 62
     7
 10
452.4948354945
 20
833.9890286278
 30
0.0
 40
5.0
 50
0.0
 51
90.0
  0
LINE
  5
3AC
  8
0
  6
CONTINUOUS
 62
     7
 10
541.4948349283
 20
833.9890260648
 30
0.0
 11
539.5424400852
 21
833.9890260648
 31
0.0
  0
ARC
  5
3AD
  8
0
  6
CONTINUOUS
 62
     7
 10
546.4948354945
 20
833.9890286278
 30
0.0
 40
5.0
 50
90.0
 51
180.0
  0
LINE
  5
3AE
  8
0
  6
CONTINUOUS
 62
     7
 10
539.5424400852
 20
791.4890293431
 30
0.0
 11
541.4948349283
 21
791.4890293431
 31
0.0
  0
ARC
  5
3AF
  8
0
  6
CONTINUOUS
 62
     7
 10
546.4948354945
 20
791.4890286278
 30
0.0
 40
5.0
 50
180.0
 51
270.0
  0
ARC
  5
3B0
  8
0
  6
CONTINUOUS
 62
     7
 10
611.3743084307
 20
790.4870011309
 30
0.0
 40
71.83885696854755
 50
179.2007967314
 51
183.1454875663
  0
ARC
  5
3B1
  8
0
  6
CONTINUOUS
 62
     7
 10
452.4948354945
 20
791.4890286278
 30
0.0
 40
5.0
 50
270.0
 51
0.0
  0
LINE
  5
3B2
  8
0
  6
CONTINUOUS
 62
     7
 10
457.4948360607
 20
791.4890293431
 30
0.0
 11
459.4472309038
 21
791.4890293431
 31
0.0
  0
ARC
  5
3B3
  8
0
  6
CONTINUOUS
 62
     7
 10
387.6153625584
 20
790.4870011309
 30
0.0
 40
71.83885696848829
 50
356.8545124337
 51
0.7992032686
  0
LINE
  5
3B4
  8
0
  6
CONTINUOUS
 62
     7
 10
459.4472309038
 20
791.4890293431
 30
0.0
 11
463.6138488934
 21
791.4890293431
 31
0.0
  0
ARC
  5
3B5
  8
0
  6
CONTINUOUS
 62
     7
 10
389.8730611648
 20
790.509953464
 30
0.0
 40
73.74728716644204
 50
356.9268738525
 51
0.7606864723
  0
ARC
  5
3B6
  8
0
  6
CONTINUOUS
 62
     7
 10
609.1166098242
 20
790.509953464
 30
0.0
 40
73.74728716644204
 50
179.2393135277
 51
183.0731261475
  0
LINE
  5
3B7
  8
0
  6
CONTINUOUS
 62
     7
 10
535.3758220956
 20
791.4890293431
 30
0.0
 11
539.5424400852
 21
791.4890293431
 31
0.0
  0
LINE
  5
3B8
  8
0
  6
CONTINUOUS
 62
     7
 10
459.4472309038
 20
833.9890260648
 30
0.0
 11
459.4472309038
 21
791.4890293431
 31
0.0
  0
LINE
  5
3B9
  8
0
  6
CONTINUOUS
 62
     7
 10
539.5424400852
 20
791.4890293431
 30
0.0
 11
539.5424400852
 21
833.9890260648
 31
0.0
  0
LINE
  5
3BA
  8
0
  6
CONTINUOUS
 62
     7
 10
457.4948360607
 20
791.4890293431
 30
0.0
 11
457.4948360607
 21
833.9890260648
 31
0.0
  0
LINE
  5
3BB
  8
0
  6
CONTINUOUS
 62
     7
 10
541.4948349283
 20
833.9890260648
 30
0.0
 11
541.4948349283
 21
791.4890293431
 31
0.0
  0
LINE
  5
3BC
  8
0
  6
CONTINUOUS
 62
     7
 10
456.1979842768
 20
791.4890293431
 30
0.0
 11
456.1979842768
 21
794.4890354228
 31
0.0
  0
LINE
  5
3BD
  8
0
  6
CONTINUOUS
 62
     7
 10
542.7916867123
 20
794.4890354228
 30
0.0
 11
542.7916867123
 21
791.4890293431
 31
0.0
  0
LINE
  5
3BE
  8
0
  6
CONTINUOUS
 62
     7
 10
542.7916867123
 20
791.4890293431
 30
0.0
 11
548.4925021813
 21
791.4890293431
 31
0.0
  0
LINE
  5
3BF
  8
0
  6
CONTINUOUS
 62
     7
 10
450.4971688077
 20
791.4890293431
 30
0.0
 11
456.1979842768
 21
791.4890293431
 31
0.0
  0
LINE
  5
3C0
  8
0
  6
CONTINUOUS
 62
     7
 10
440.4948351369
 20
796.4890245747
 30
0.0
 11
457.6175545738
 21
796.4890245747
 31
0.0
  0
LINE
  5
3C1
  8
0
  6
CONTINUOUS
 62
     7
 10
541.3721164152
 20
796.4890245747
 30
0.0
 11
558.4948358521
 21
796.4890245747
 31
0.0
  0
LINE
  5
3C2
  8
0
  6
CONTINUOUS
 62
     7
 10
414.4948346004
 20
856.9557983827
 30
0.0
 11
414.4948346004
 21
861.9890269291
 31
0.0
  0
LINE
  5
3C3
  8
0
  6
CONTINUOUS
 62
     7
 10
415.0851217494
 20
861.9890269291
 30
0.0
 11
414.4948346004
 21
861.9890269291
 31
0.0
  0
LINE
  5
3C4
  8
0
  6
CONTINUOUS
 62
     7
 10
414.4948346004
 20
861.9890269291
 30
0.0
 11
414.4948346004
 21
871.9890285682
 31
0.0
  0
LINE
  5
3C5
  8
0
  6
CONTINUOUS
 62
     7
 10
571.0462627396
 20
1145.9740344834
 30
0.0
 11
571.6570091829
 21
1145.9740344834
 31
0.0
  0
ARC
  5
3C6
  8
0
  6
CONTINUOUS
 62
     7
 10
564.9019786955
 20
1146.4890335154
 30
0.0
 40
6.774633635032961
 50
355.6402417597
 51
4.3597582403
  0
LINE
  5
3C7
  8
0
  6
CONTINUOUS
 62
     7
 10
571.6570091829
 20
1147.0040325474
 30
0.0
 11
571.0462627396
 21
1147.0040325474
 31
0.0
  0
ARC
  5
3C8
  8
0
  6
CONTINUOUS
 62
     7
 10
570.1882037044
 20
1146.6618792276
 30
0.0
 40
0.923760900999029
 50
21.7397730777
 51
48.7907481764
  0
ARC
  5
3C9
  8
0
  6
CONTINUOUS
 62
     7
 10
562.0156673627
 20
1146.5227494131
 30
0.0
 40
8.820644270273561
 50
5.4260146181
 51
12.777587224
  0
ARC
  5
3CA
  8
0
  6
CONTINUOUS
 62
     7
 10
570.2537184045
 20
1141.296635776
 30
0.0
 40
7.186182043113862
 50
87.0953040294
 51
92.9046959706
  0
ARC
  5
3CB
  8
0
  6
CONTINUOUS
 62
     7
 10
561.2857661584
 20
1146.5224955503
 30
0.0
 40
8.822245775051691
 50
5.4266828013
 51
12.7769190408
  0
ARC
  5
3CC
  8
0
  6
CONTINUOUS
 62
     7
 10
570.6770546884
 20
1146.6618792276
 30
0.0
 40
0.923760900999029
 50
131.2092518236
 51
158.2602269223
  0
LINE
  5
3CD
  8
0
  6
CONTINUOUS
 62
     7
 10
569.8189956531
 20
1147.0040325474
 30
0.0
 11
568.8504276261
 21
1147.0040325474
 31
0.0
  0
ARC
  5
3CE
  8
0
  6
CONTINUOUS
 62
     7
 10
548.6344435177
 20
1146.4890335154
 30
0.0
 40
20.22254280433889
 50
358.5407146036
 51
1.4592853965
  0
LINE
  5
3CF
  8
0
  6
CONTINUOUS
 62
     7
 10
568.8504276261
 20
1145.9740344834
 30
0.0
 11
569.8189956531
 21
1145.9740344834
 31
0.0
  0
ARC
  5
3D0
  8
0
  6
CONTINUOUS
 62
     7
 10
570.6770621612
 20
1146.3161637355
 30
0.0
 40
0.9237589281651494
 50
201.7382147859
 51
228.7900249156
  0
ARC
  5
3D1
  8
0
  6
CONTINUOUS
 62
     7
 10
561.2853606871
 20
1146.4556215384
 30
0.0
 40
8.82265557240165
 50
347.2232518967
 51
354.5731462612
  0
ARC
  5
3D2
  8
0
  6
CONTINUOUS
 62
     7
 10
570.2537184045
 20
1151.6814163538
 30
0.0
 40
7.186182043329818
 50
267.0953040294
 51
272.9046959706
  0
ARC
  5
3D3
  8
0
  6
CONTINUOUS
 62
     7
 10
562.0152623851
 20
1146.4553675965
 30
0.0
 40
8.82105356830062
 50
347.2225835673
 51
354.5738145906
  0
ARC
  5
3D4
  8
0
  6
CONTINUOUS
 62
     7
 10
570.1881962316
 20
1146.3161637355
 30
0.0
 40
0.9237589281651494
 50
311.2099750844
 51
338.2617852141
  0
POLYLINE
  5
3D5
  8
0
  6
CONTINUOUS
 62
     7
 66
     1
 10
0.0
 20
0.0
 30
0.0
 70
   128
  0
VERTEX
  5
8BD
  8
0
  6
CONTINUOUS
 62
     7
 10
569.457717
 20
1142.1129946064
 30
0.0
  0
VERTEX
  5
8BE
  8
0
  6
CONTINUOUS
 62
     7
 10
570.1595020876
 20
1142.2838215184
 30
0.0
  0
VERTEX
  5
8BF
  8
0
  6
CONTINUOUS
 62
     7
 10
570.9618774638
 20
1142.8020392012
 30
0.0
  0
VERTEX
  5
8C0
  8
0
  6
CONTINUOUS
 62
     7
 10
571.6285107121
 20
1143.6189506602
 30
0.0
  0
VERTEX
  5
8C1
  8
0
  6
CONTINUOUS
 62
     7
 10
572.1054000244
 20
1144.6683798384
 30
0.0
  0
VERTEX
  5
8C2
  8
0
  6
CONTINUOUS
 62
     7
 10
572.3539141402
 20
1145.8653007101
 30
0.0
  0
VERTEX
  5
8C3
  8
0
  6
CONTINUOUS
 62
     7
 10
572.3539141402
 20
1147.1127514195
 30
0.0
  0
VERTEX
  5
8C4
  8
0
  6
CONTINUOUS
 62
     7
 10
572.1054000244
 20
1148.3096871924
 30
0.0
  0
VERTEX
  5
8C5
  8
0
  6
CONTINUOUS
 62
     7
 10
571.6285107121
 20
1149.3591163706
 30
0.0
  0
VERTEX
  5
8C6
  8
0
  6
CONTINUOUS
 62
     7
 10
570.9618774638
 20
1150.1760278296
 30
0.0
  0
VERTEX
  5
8C7
  8
0
  6
CONTINUOUS
 62
     7
 10
570.1595020876
 20
1150.6942306113
 30
0.0
  0
VERTEX
  5
8C8
  8
0
  6
CONTINUOUS
 62
     7
 10
569.5533228502
 20
1150.8554760766
 30
0.0
  0
SEQEND
  5
AD6
  8
0
  6
CONTINUOUS
 62
     7
  0
POLYLINE
  5
3D6
  8
0
  6
CONTINUOUS
 62
     7
 66
     1
 10
0.0
 20
0.0
 30
0.0
 70
   128
  0
VERTEX
  5
8C9
  8
0
  6
CONTINUOUS
 62
     7
 10
569.0984053001
 20
1150.9890351843
 30
0.0
  0
VERTEX
  5
8CA
  8
0
  6
CONTINUOUS
 62
     7
 10
568.2019365415
 20
1150.8067492794
 30
0.0
  0
VERTEX
  5
8CB
  8
0
  6
CONTINUOUS
 62
     7
 10
567.3780960426
 20
1150.2746735167
 30
0.0
  0
VERTEX
  5
8CC
  8
0
  6
CONTINUOUS
 62
     7
 10
566.6936261043
 20
1149.4359020543
 30
0.0
  0
VERTEX
  5
8CD
  8
0
  6
CONTINUOUS
 62
     7
 10
566.2039739475
 20
1148.3583990883
 30
0.0
  0
VERTEX
  5
8CE
  8
0
  6
CONTINUOUS
 62
     7
 10
565.9488139138
 20
1147.12944072
 30
0.0
  0
VERTEX
  5
8CF
  8
0
  6
CONTINUOUS
 62
     7
 10
565.9488139138
 20
1145.8486114096
 30
0.0
  0
VERTEX
  5
8D0
  8
0
  6
CONTINUOUS
 62
     7
 10
566.2039739475
 20
1144.6196679425
 30
0.0
  0
VERTEX
  5
8D1
  8
0
  6
CONTINUOUS
 62
     7
 10
566.6936261043
 20
1143.5421500754
 30
0.0
  0
VERTEX
  5
8D2
  8
0
  6
CONTINUOUS
 62
     7
 10
567.3780960426
 20
1142.7033935141
 30
0.0
  0
VERTEX
  5
8D3
  8
0
  6
CONTINUOUS
 62
     7
 10
568.2019365415
 20
1142.1713028502
 30
0.0
  0
VERTEX
  5
8D4
  8
0
  6
CONTINUOUS
 62
     7
 10
569.0984053001
 20
1141.9890318465
 30
0.0
  0
SEQEND
  5
AD7
  8
0
  6
CONTINUOUS
 62
     7
  0
POLYLINE
  5
3D7
  8
0
  6
CONTINUOUS
 62
     7
 66
     1
 10
0.0
 20
0.0
 30
0.0
 70
   128
  0
VERTEX
  5
8D5
  8
0
  6
CONTINUOUS
 62
     7
 10
568.2963279471
 20
1150.9890351843
 30
0.0
  0
VERTEX
  5
8D6
  8
0
  6
CONTINUOUS
 62
     7
 10
567.3998591885
 20
1150.8067492794
 30
0.0
  0
VERTEX
  5
8D7
  8
0
  6
CONTINUOUS
 62
     7
 10
566.5760186896
 20
1150.2746735167
 30
0.0
  0
VERTEX
  5
8D8
  8
0
  6
CONTINUOUS
 62
     7
 10
565.8915413008
 20
1149.4359020543
 30
0.0
  0
VERTEX
  5
8D9
  8
0
  6
CONTINUOUS
 62
     7
 10
565.4018965945
 20
1148.3583990883
 30
0.0
  0
VERTEX
  5
8DA
  8
0
  6
CONTINUOUS
 62
     7
 10
565.1467291102
 20
1147.12944072
 30
0.0
  0
VERTEX
  5
8DB
  8
0
  6
CONTINUOUS
 62
     7
 10
565.1467291102
 20
1145.8486114096
 30
0.0
  0
VERTEX
  5
8DC
  8
0
  6
CONTINUOUS
 62
     7
 10
565.4018965945
 20
1144.6196679425
 30
0.0
  0
VERTEX
  5
8DD
  8
0
  6
CONTINUOUS
 62
     7
 10
565.8915413008
 20
1143.5421500754
 30
0.0
  0
VERTEX
  5
8DE
  8
0
  6
CONTINUOUS
 62
     7
 10
566.5760186896
 20
1142.7033935141
 30
0.0
  0
VERTEX
  5
8DF
  8
0
  6
CONTINUOUS
 62
     7
 10
567.3998591885
 20
1142.1713028502
 30
0.0
  0
VERTEX
  5
8E0
  8
0
  6
CONTINUOUS
 62
     7
 10
568.2963279471
 20
1141.9890318465
 30
0.0
  0
SEQEND
  5
AD8
  8
0
  6
CONTINUOUS
 62
     7
  0
LINE
  5
3D8
  8
0
  6
CONTINUOUS
 62
     7
 10
570.6178767071
 20
1144.5044670653
 30
0.0
 11
569.9794290051
 21
1144.9546460461
 31
0.0
  0
LINE
  5
3D9
  8
0
  6
CONTINUOUS
 62
     7
 10
570.6178767071
 20
1148.4735850644
 30
0.0
 11
569.9794290051
 21
1148.0234209847
 31
0.0
  0
POLYLINE
  5
3DA
  8
0
  6
CONTINUOUS
 62
     7
 66
     1
 10
0.0
 20
0.0
 30
0.0
 70
   128
  0
VERTEX
  5
8E1
  8
0
  6
CONTINUOUS
 62
     7
 10
569.9943599686
 20
1147.261912043
 30
0.0
  0
VERTEX
  5
8E2
  8
0
  6
CONTINUOUS
 62
     7
 10
570.6154701695
 20
1147.3359261107
 30
0.0
  0
VERTEX
  5
8E3
  8
0
  6
CONTINUOUS
 62
     7
 10
570.7967874989
 20
1147.3568324398
 30
0.0
  0
SEQEND
  5
AD9
  8
0
  6
CONTINUOUS
 62
     7
  0
LINE
  5
3DB
  8
0
  6
CONTINUOUS
 62
     7
 10
571.0462627396
 20
1147.0040325474
 30
0.0
 11
569.7040480957
 21
1147.0040325474
 31
0.0
  0
LINE
  5
3DC
  8
0
  6
CONTINUOUS
 62
     7
 10
569.7040480957
 20
1145.9740344834
 30
0.0
 11
571.0462627396
 21
1145.9740344834
 31
0.0
  0
POLYLINE
  5
3DD
  8
0
  6
CONTINUOUS
 62
     7
 66
     1
 10
0.0
 20
0.0
 30
0.0
 70
   128
  0
VERTEX
  5
8E4
  8
0
  6
CONTINUOUS
 62
     7
 10
570.7967874989
 20
1145.6212196898
 30
0.0
  0
VERTEX
  5
8E5
  8
0
  6
CONTINUOUS
 62
     7
 10
570.6154701695
 20
1145.6421409201
 30
0.0
  0
VERTEX
  5
8E6
  8
0
  6
CONTINUOUS
 62
     7
 10
570.0614226446
 20
1145.7081530642
 30
0.0
  0
SEQEND
  5
ADA
  8
0
  6
CONTINUOUS
 62
     7
  0
LINE
  5
3DE
  8
0
  6
CONTINUOUS
 62
     7
 10
569.529041408
 20
1145.9740344834
 30
0.0
 11
569.529041408
 21
1147.0040325474
 31
0.0
  0
ARC
  5
3DF
  8
0
  6
CONTINUOUS
 62
     7
 10
568.3038665284
 20
1146.4890335154
 30
0.0
 40
1.132747583834002
 50
332.9578475937
 51
27.0421524063
  0
ARC
  5
3E0
  8
0
  6
CONTINUOUS
 62
     7
 10
409.3435860848
 20
1146.4935828199
 30
0.0
 40
6.674345773612998
 50
162.7429774882
 51
172.5686337267
  0
ARC
  5
3E1
  8
0
  6
CONTINUOUS
 62
     7
 10
402.8364045009
 20
1147.5287608753
 30
0.0
 40
0.9541798618366808
 50
81.9700006308
 51
98.0299993692
  0
ARC
  5
3E2
  8
0
  6
CONTINUOUS
 62
     7
 10
409.0775501734
 20
1146.493419203
 30
0.0
 40
6.674915601537855
 50
162.7430262723
 51
172.5678553702
  0
ARC
  5
3E3
  8
0
  6
CONTINUOUS
 62
     7
 10
403.8385193423
 20
1146.8114831307
 30
0.0
 40
1.483668954671192
 50
158.4342892105
 51
172.5431648611
  0
LINE
  5
3E4
  8
0
  6
CONTINUOUS
 62
     7
 10
402.367397903
 20
1147.0040325474
 30
0.0
 11
402.3148340568
 21
1147.0040325474
 31
0.0
  0
ARC
  5
3E5
  8
0
  6
CONTINUOUS
 62
     7
 10
408.858618528
 20
1146.4890335154
 30
0.0
 40
6.556108146875543
 50
175.4946287209
 51
184.5053712791
  0
LINE
  5
3E6
  8
0
  6
CONTINUOUS
 62
     7
 10
402.3148340568
 20
1145.9740344834
 30
0.0
 11
402.367397903
 21
1145.9740344834
 31
0.0
  0
ARC
  5
3E7
  8
0
  6
CONTINUOUS
 62
     7
 10
403.8385654834
 20
1146.166572809
 30
0.0
 40
1.483713266321911
 50
187.4561792205
 51
201.5651926852
  0
ARC
  5
3E8
  8
0
  6
CONTINUOUS
 62
     7
 10
409.0778529929
 20
1146.4846991987
 30
0.0
 40
6.675224449396194
 50
187.4323724749
 51
197.2567458826
  0
ARC
  5
3E9
  8
0
  6
CONTINUOUS
 62
     7
 10
402.8364045009
 20
1145.4492912544
 30
0.0
 40
0.9541798618652741
 50
261.9700006311
 51
278.0299993689
  0
ARC
  5
3EA
  8
0
  6
CONTINUOUS
 62
     7
 10
409.3438886902
 20
1146.484535533
 30
0.0
 40
6.6746544025013
 50
187.4315939955
 51
197.2567947895
  0
ARC
  5
3EB
  8
0
  6
CONTINUOUS
 62
     7
 10
401.3454481784
 20
1146.166572809
 30
0.0
 40
1.483713266321967
 50
338.4348073148
 51
352.5438207795
  0
LINE
  5
3EC
  8
0
  6
CONTINUOUS
 62
     7
 10
402.8166157589
 20
1145.9740344834
 30
0.0
 11
403.3500475273
 21
1145.9740344834
 31
0.0
  0
ARC
  5
3ED
  8
0
  6
CONTINUOUS
 62
     7
 10
411.9077345134
 20
1146.4890335154
 30
0.0
 40
8.573169224669538
 50
176.5561106524
 51
183.4438893476
  0
LINE
  5
3EE
  8
0
  6
CONTINUOUS
 62
     7
 10
403.3500475273
 20
1147.0040325474
 30
0.0
 11
402.8166157589
 21
1147.0040325474
 31
0.0
  0
ARC
  5
3EF
  8
0
  6
CONTINUOUS
 62
     7
 10
401.3454943196
 20
1146.8114831307
 30
0.0
 40
1.483668954671192
 50
7.4568351389
 51
21.5657107895
  0
LINE
  5
3F0
  8
0
  6
CONTINUOUS
 62
     7
 10
404.414586483
 20
1150.9890351843
 30
0.0
 11
404.3835175619
 21
1150.9874258589
 31
0.0
  0
POLYLINE
  5
3F1
  8
0
  6
CONTINUOUS
 62
     7
 66
     1
 10
0.0
 20
0.0
 30
0.0
 70
   128
  0
VERTEX
  5
8E7
  8
0
  6
CONTINUOUS
 62
     7
 10
405.5102539644
 20
1141.9890318465
 30
0.0
  0
VERTEX
  5
8E8
  8
0
  6
CONTINUOUS
 62
     7
 10
405.6760070309
 20
1142.034838016
 30
0.0
  0
VERTEX
  5
8E9
  8
0
  6
CONTINUOUS
 62
     7
 10
405.9940797672
 20
1142.3956845355
 30
0.0
  0
VERTEX
  5
8EA
  8
0
  6
CONTINUOUS
 62
     7
 10
406.2729624495
 20
1143.0881563973
 30
0.0
  0
VERTEX
  5
8EB
  8
0
  6
CONTINUOUS
 62
     7
 10
406.4900500164
 20
1144.0561507296
 30
0.0
  0
VERTEX
  5
8EC
  8
0
  6
CONTINUOUS
 62
     7
 10
406.6277590976
 20
1145.2212278199
 30
0.0
  0
VERTEX
  5
8ED
  8
0
  6
CONTINUOUS
 62
     7
 10
406.6749361739
 20
1146.4890335154
 30
0.0
  0
VERTEX
  5
8EE
  8
0
  6
CONTINUOUS
 62
     7
 10
406.6277590976
 20
1147.7568243098
 30
0.0
  0
VERTEX
  5
8EF
  8
0
  6
CONTINUOUS
 62
     7
 10
406.4900500164
 20
1148.9219163012
 30
0.0
  0
VERTEX
  5
8F0
  8
0
  6
CONTINUOUS
 62
     7
 10
406.2729624495
 20
1149.8898957324
 30
0.0
  0
VERTEX
  5
8F1
  8
0
  6
CONTINUOUS
 62
     7
 10
405.9940797672
 20
1150.5823675942
 30
0.0
  0
VERTEX
  5
8F2
  8
0
  6
CONTINUOUS
 62
     7
 10
405.6760070309
 20
1150.9432290148
 30
0.0
  0
VERTEX
  5
8F3
  8
0
  6
CONTINUOUS
 62
     7
 10
405.5102539644
 20
1150.9890351843
 30
0.0
  0
SEQEND
  5
ADB
  8
0
  6
CONTINUOUS
 62
     7
  0
LINE
  5
3F2
  8
0
  6
CONTINUOUS
 62
     7
 10
402.7031136141
 20
1144.5044670653
 30
0.0
 11
402.9338953481
 21
1144.623601849
 31
0.0
  0
LINE
  5
3F3
  8
0
  6
CONTINUOUS
 62
     7
 10
402.7031136141
 20
1148.4735850644
 30
0.0
 11
402.9338953481
 21
1148.3544651818
 31
0.0
  0
POLYLINE
  5
3F4
  8
0
  6
CONTINUOUS
 62
     7
 66
     1
 10
0.0
 20
0.0
 30
0.0
 70
   128
  0
VERTEX
  5
8F4
  8
0
  6
CONTINUOUS
 62
     7
 10
402.4587122187
 20
1147.3568324398
 30
0.0
  0
VERTEX
  5
8F5
  8
0
  6
CONTINUOUS
 62
     7
 10
402.7063993201
 20
1147.3359261107
 30
0.0
  0
VERTEX
  5
8F6
  8
0
  6
CONTINUOUS
 62
     7
 10
402.7344284043
 20
1147.3334823203
 30
0.0
  0
SEQEND
  5
ADC
  8
0
  6
CONTINUOUS
 62
     7
  0
LINE
  5
3F5
  8
0
  6
CONTINUOUS
 62
     7
 10
402.6719999895
 20
1147.0040325474
 30
0.0
 11
402.367397903
 21
1147.0040325474
 31
0.0
  0
POLYLINE
  5
3F6
  8
0
  6
CONTINUOUS
 62
     7
 66
     1
 10
0.0
 20
0.0
 30
0.0
 70
   128
  0
VERTEX
  5
8F7
  8
0
  6
CONTINUOUS
 62
     7
 10
402.7319101081
 20
1145.6443611931
 30
0.0
  0
VERTEX
  5
8F8
  8
0
  6
CONTINUOUS
 62
     7
 10
402.7063993201
 20
1145.6421409201
 30
0.0
  0
VERTEX
  5
8F9
  8
0
  6
CONTINUOUS
 62
     7
 10
402.4587122187
 20
1145.6212196898
 30
0.0
  0
SEQEND
  5
ADD
  8
0
  6
CONTINUOUS
 62
     7
  0
LINE
  5
3F7
  8
0
  6
CONTINUOUS
 62
     7
 10
434.9443761096
 20
1176.7723802876
 30
0.0
 11
590.7829699502
 21
1176.7723802876
 31
0.0
  0
LINE
  5
3F8
  8
0
  6
CONTINUOUS
 62
     7
 10
408.2067010388
 20
1176.7723802876
 30
0.0
 11
434.9443761096
 21
1176.7723802876
 31
0.0
  0
LINE
  5
3F9
  8
0
  6
CONTINUOUS
 62
     7
 10
592.2948343143
 20
1174.286270554
 30
0.0
 11
406.6948366747
 21
1174.286270554
 31
0.0
  0
ARC
  5
3FA
  8
0
  6
CONTINUOUS
 62
     7
 10
568.2951418571
 20
1153.8349684151
 30
0.0
 40
4.192904285483666
 50
12.0235756018
 51
79.4892362801
  0
ARC
  5
3FB
  8
0
  6
CONTINUOUS
 62
     7
 10
409.8159978914
 20
1156.5322081719
 30
0.0
 40
1.91357893912121
 50
131.8546328527
 51
176.1551994702
  0
LINE
  5
3FC
  8
0
  6
CONTINUOUS
 62
     7
 10
573.6427751765
 20
1185.6532935452
 30
0.0
 11
425.3468958125
 21
1185.6532935452
 31
0.0
  0
LINE
  5
3FD
  8
0
  6
CONTINUOUS
 62
     7
 10
447.5224872515
 20
1186.7187861752
 30
0.0
 11
572.9948354349
 21
1186.7187861752
 31
0.0
  0
LINE
  5
3FE
  8
0
  6
CONTINUOUS
 62
     7
 10
425.9948355541
 20
1186.7187861752
 30
0.0
 11
447.5224872515
 21
1186.7187861752
 31
0.0
  0
LINE
  5
3FF
  8
0
  6
CONTINUOUS
 62
     7
 10
572.9948354349
 20
1189.1890410733
 30
0.0
 11
425.9948355541
 21
1189.1890410733
 31
0.0
  0
LINE
  5
400
  8
0
  6
CONTINUOUS
 62
     7
 10
572.1295697079
 20
1130.9890244555
 30
0.0
 11
572.1295697079
 21
1145.1200489354
 31
0.0
  0
LINE
  5
401
  8
0
  6
CONTINUOUS
 62
     7
 10
572.1295697079
 20
1147.8580031943
 30
0.0
 11
572.1295697079
 21
1152.9890243363
 31
0.0
  0
LINE
  5
402
  8
0
  6
CONTINUOUS
 62
     7
 10
572.1295697079
 20
1152.9890243363
 30
0.0
 11
573.00824648
 21
1152.9890243363
 31
0.0
  0
ARC
  5
403
  8
0
  6
CONTINUOUS
 62
     7
 10
570.7724129299
 20
1157.6476125179
 30
0.0
 40
1.740217544212325
 50
169.7417853187
 51
253.8768514733
  0
LINE
  5
404
  8
0
  6
CONTINUOUS
 62
     7
 10
404.1071904287
 20
1152.9890243363
 30
0.0
 11
404.1071904287
 21
1150.8817021203
 31
0.0
  0
LINE
  5
405
  8
0
  6
CONTINUOUS
 62
     7
 10
404.1071904287
 20
1142.078930552
 30
0.0
 11
404.1071904287
 21
1130.9890244555
 31
0.0
  0
LINE
  5
406
  8
0
  6
CONTINUOUS
 62
     7
 10
404.0049684629
 20
1152.9890243363
 30
0.0
 11
404.1071904287
 21
1152.9890243363
 31
0.0
  0
ARC
  5
407
  8
0
  6
CONTINUOUS
 62
     7
 10
406.5876240568
 20
1157.9091900808
 30
0.0
 40
1.952150004022912
 50
293.454067527
 51
1.4185887993
  0
LINE
  5
408
  8
0
  6
CONTINUOUS
 62
     7
 10
595.1948387012
 20
1088.4890351843
 30
0.0
 11
595.1948387012
 21
1128.4890268397
 31
0.0
  0
LINE
  5
409
  8
0
  6
CONTINUOUS
 62
     7
 10
586.1948353634
 20
1128.4890268397
 30
0.0
 11
586.1948353634
 21
1088.4890351843
 31
0.0
  0
POLYLINE
  5
40A
  8
0
  6
CONTINUOUS
 62
     7
 66
     1
 10
0.0
 20
0.0
 30
0.0
 70
   128
  0
VERTEX
  5
8FA
  8
0
  6
CONTINUOUS
 62
     7
 10
634.4080862985
 20
1052.6300762248
 30
0.0
  0
VERTEX
  5
8FB
  8
0
  6
CONTINUOUS
 62
     7
 10
634.4725934253
 20
1052.4528567147
 30
0.0
  0
VERTEX
  5
8FC
  8
0
  6
CONTINUOUS
 62
     7
 10
634.6597967133
 20
1051.9385282349
 30
0.0
  0
VERTEX
  5
8FD
  8
0
  6
CONTINUOUS
 62
     7
 10
634.9513677344
 20
1051.1374418091
 30
0.0
  0
VERTEX
  5
8FE
  8
0
  6
CONTINUOUS
 62
     7
 10
635.3187707648
 20
1050.1280073475
 30
0.0
  0
VERTEX
  5
8FF
  8
0
  6
CONTINUOUS
 62
     7
 10
635.7260344014
 20
1049.0090493512
 30
0.0
  0
VERTEX
  5
900
  8
0
  6
CONTINUOUS
 62
     7
 10
636.133298038
 20
1047.8900913548
 30
0.0
  0
VERTEX
  5
901
  8
0
  6
CONTINUOUS
 62
     7
 10
636.5007010684
 20
1046.8806643438
 30
0.0
  0
VERTEX
  5
902
  8
0
  6
CONTINUOUS
 62
     7
 10
636.7922720895
 20
1046.079577918
 30
0.0
  0
VERTEX
  5
903
  8
0
  6
CONTINUOUS
 62
     7
 10
636.9794753775
 20
1045.5652494382
 30
0.0
  0
VERTEX
  5
904
  8
0
  6
CONTINUOUS
 62
     7
 10
637.0439825044
 20
1045.3880224776
 30
0.0
  0
VERTEX
  5
905
  8
0
  6
CONTINUOUS
 62
     7
 10
637.0439825044
 20
1045.3880224776
 30
0.0
  0
SEQEND
  5
ADE
  8
0
  6
CONTINUOUS
 62
     7
  0
POLYLINE
  5
40B
  8
0
  6
CONTINUOUS
 62
     7
 66
     1
 10
0.0
 20
0.0
 30
0.0
 70
   128
  0
VERTEX
  5
906
  8
0
  6
CONTINUOUS
 62
     7
 10
634.0855208621
 20
1052.6686702322
 30
0.0
  0
VERTEX
  5
907
  8
0
  6
CONTINUOUS
 62
     7
 10
634.1198233352
 20
1052.5744203877
 30
0.0
  0
VERTEX
  5
908
  8
0
  6
CONTINUOUS
 62
     7
 10
634.2688051448
 20
1052.1650854897
 30
0.0
  0
VERTEX
  5
909
  8
0
  6
CONTINUOUS
 62
     7
 10
634.5230636582
 20
1051.4665041518
 30
0.0
  0
VERTEX
  5
90A
  8
0
  6
CONTINUOUS
 62
     7
 10
634.8600087151
 20
1050.5407695126
 30
0.0
  0
VERTEX
  5
90B
  8
0
  6
CONTINUOUS
 62
     7
 10
635.2497038827
 20
1049.4701061797
 30
0.0
  0
VERTEX
  5
90C
  8
0
  6
CONTINUOUS
 62
     7
 10
635.6575039611
 20
1048.3496804189
 30
0.0
  0
VERTEX
  5
90D
  8
0
  6
CONTINUOUS
 62
     7
 10
636.0471842275
 20
1047.2790245366
 30
0.0
  0
VERTEX
  5
90E
  8
0
  6
CONTINUOUS
 62
     7
 10
636.3841292844
 20
1046.3532824468
 30
0.0
  0
VERTEX
  5
90F
  8
0
  6
CONTINUOUS
 62
     7
 10
636.6383877978
 20
1045.6547011089
 30
0.0
  0
VERTEX
  5
910
  8
0
  6
CONTINUOUS
 62
     7
 10
636.7873845086
 20
1045.2453662109
 30
0.0
  0
VERTEX
  5
911
  8
0
  6
CONTINUOUS
 62
     7
 10
636.8216869817
 20
1045.1511238169
 30
0.0
  0
SEQEND
  5
ADF
  8
0
  6
CONTINUOUS
 62
     7
  0
POLYLINE
  5
40C
  8
0
  6
CONTINUOUS
 62
     7
 66
     1
 10
0.0
 20
0.0
 30
0.0
 70
   128
  0
VERTEX
  5
912
  8
0
  6
CONTINUOUS
 62
     7
 10
603.2842544303
 20
1138.1421033692
 30
0.0
  0
VERTEX
  5
913
  8
0
  6
CONTINUOUS
 62
     7
 10
603.3487615571
 20
1137.9648838591
 30
0.0
  0
VERTEX
  5
914
  8
0
  6
CONTINUOUS
 62
     7
 10
603.5359573946
 20
1137.4505553793
 30
0.0
  0
VERTEX
  5
915
  8
0
  6
CONTINUOUS
 62
     7
 10
603.8275284157
 20
1136.6494689536
 30
0.0
  0
VERTEX
  5
916
  8
0
  6
CONTINUOUS
 62
     7
 10
604.1949314461
 20
1135.640034492
 30
0.0
  0
VERTEX
  5
917
  8
0
  6
CONTINUOUS
 62
     7
 10
604.6022025332
 20
1134.5210764956
 30
0.0
  0
VERTEX
  5
918
  8
0
  6
CONTINUOUS
 62
     7
 10
605.0094661698
 20
1133.4021184992
 30
0.0
  0
VERTEX
  5
919
  8
0
  6
CONTINUOUS
 62
     7
 10
605.3768692002
 20
1132.3926840376
 30
0.0
  0
VERTEX
  5
91A
  8
0
  6
CONTINUOUS
 62
     7
 10
605.6684402213
 20
1131.5915976119
 30
0.0
  0
VERTEX
  5
91B
  8
0
  6
CONTINUOUS
 62
     7
 10
605.8556435094
 20
1131.0772691321
 30
0.0
  0
VERTEX
  5
91C
  8
0
  6
CONTINUOUS
 62
     7
 10
605.9201506362
 20
1130.900049622
 30
0.0
  0
VERTEX
  5
91D
  8
0
  6
CONTINUOUS
 62
     7
 10
605.9201506362
 20
1130.900049622
 30
0.0
  0
SEQEND
  5
AE0
  8
0
  6
CONTINUOUS
 62
     7
  0
POLYLINE
  5
40D
  8
0
  6
CONTINUOUS
 62
     7
 66
     1
 10
0.0
 20
0.0
 30
0.0
 70
   128
  0
VERTEX
  5
91E
  8
0
  6
CONTINUOUS
 62
     7
 10
602.9616889939
 20
1138.1806973767
 30
0.0
  0
VERTEX
  5
91F
  8
0
  6
CONTINUOUS
 62
     7
 10
602.995991467
 20
1138.0864475321
 30
0.0
  0
VERTEX
  5
920
  8
0
  6
CONTINUOUS
 62
     7
 10
603.1449732766
 20
1137.6771126341
 30
0.0
  0
VERTEX
  5
921
  8
0
  6
CONTINUOUS
 62
     7
 10
603.3992392406
 20
1136.9785312962
 30
0.0
  0
VERTEX
  5
922
  8
0
  6
CONTINUOUS
 62
     7
 10
603.736176847
 20
1136.052796657
 30
0.0
  0
VERTEX
  5
923
  8
0
  6
CONTINUOUS
 62
     7
 10
604.1258645639
 20
1134.9821333241
 30
0.0
  0
VERTEX
  5
924
  8
0
  6
CONTINUOUS
 62
     7
 10
604.5336720929
 20
1133.8617001128
 30
0.0
  0
VERTEX
  5
925
  8
0
  6
CONTINUOUS
 62
     7
 10
604.9233598099
 20
1132.791051681
 30
0.0
  0
VERTEX
  5
926
  8
0
  6
CONTINUOUS
 62
     7
 10
605.2602974162
 20
1131.8653021407
 30
0.0
  0
VERTEX
  5
927
  8
0
  6
CONTINUOUS
 62
     7
 10
605.5145633802
 20
1131.1667357039
 30
0.0
  0
VERTEX
  5
928
  8
0
  6
CONTINUOUS
 62
     7
 10
605.6635451898
 20
1130.7573859047
 30
0.0
  0
VERTEX
  5
929
  8
0
  6
CONTINUOUS
 62
     7
 10
605.6978476629
 20
1130.6631509613
 30
0.0
  0
SEQEND
  5
AE1
  8
0
  6
CONTINUOUS
 62
     7
  0
POLYLINE
  5
40E
  8
0
  6
CONTINUOUS
 62
     7
 66
     1
 10
0.0
 20
0.0
 30
0.0
 70
   128
  0
VERTEX
  5
92A
  8
0
  6
CONTINUOUS
 62
     7
 10
604.8999277339
 20
1130.3727273297
 30
0.0
  0
VERTEX
  5
92B
  8
0
  6
CONTINUOUS
 62
     7
 10
604.9525437341
 20
1130.2522514414
 30
0.0
  0
VERTEX
  5
92C
  8
0
  6
CONTINUOUS
 62
     7
 10
605.170890449
 20
1129.7523472857
 30
0.0
  0
VERTEX
  5
92D
  8
0
  6
CONTINUOUS
 62
     7
 10
605.4400575743
 20
1129.136065061
 30
0.0
  0
VERTEX
  5
92E
  8
0
  6
CONTINUOUS
 62
     7
 10
605.7518792734
 20
1128.4221206259
 30
0.0
  0
VERTEX
  5
92F
  8
0
  6
CONTINUOUS
 62
     7
 10
606.0968784079
 20
1127.6322249722
 30
0.0
  0
VERTEX
  5
930
  8
0
  6
CONTINUOUS
 62
     7
 10
606.464572011
 20
1126.7903689694
 30
0.0
  0
VERTEX
  5
931
  8
0
  6
CONTINUOUS
 62
     7
 10
606.8437916622
 20
1125.9221230101
 30
0.0
  0
SEQEND
  5
AE2
  8
0
  6
CONTINUOUS
 62
     7
  0
POLYLINE
  5
40F
  8
0
  6
CONTINUOUS
 62
     7
 66
     1
 10
0.0
 20
0.0
 30
0.0
 70
   128
  0
VERTEX
  5
932
  8
0
  6
CONTINUOUS
 62
     7
 10
631.931975244
 20
1056.9928978037
 30
0.0
  0
VERTEX
  5
933
  8
0
  6
CONTINUOUS
 62
     7
 10
632.265597342
 20
1056.0762677741
 30
0.0
  0
VERTEX
  5
934
  8
0
  6
CONTINUOUS
 62
     7
 10
632.5864044413
 20
1055.1948640894
 30
0.0
  0
VERTEX
  5
935
  8
0
  6
CONTINUOUS
 62
     7
 10
632.8820583806
 20
1054.3825719904
 30
0.0
  0
VERTEX
  5
936
  8
0
  6
CONTINUOUS
 62
     7
 10
633.1412044749
 20
1053.6705796074
 30
0.0
  0
VERTEX
  5
937
  8
0
  6
CONTINUOUS
 62
     7
 10
633.3538738475
 20
1053.0862603735
 30
0.0
  0
VERTEX
  5
938
  8
0
  6
CONTINUOUS
 62
     7
 10
633.5119006619
 20
1052.6520852398
 30
0.0
  0
VERTEX
  5
939
  8
0
  6
CONTINUOUS
 62
     7
 10
633.5736808762
 20
1052.4823610138
 30
0.0
  0
SEQEND
  5
AE3
  8
0
  6
CONTINUOUS
 62
     7
  0
LINE
  5
410
  8
0
  6
CONTINUOUS
 62
     7
 10
597.894832252
 20
1055.4890279126
 30
0.0
 11
625.0301001057
 21
1055.4890279126
 31
0.0
  0
LINE
  5
411
  8
0
  6
CONTINUOUS
 62
     7
 10
600.0788432941
 20
1124.0420435023
 30
0.0
 11
597.894832252
 21
1123.2471261572
 31
0.0
  0
LINE
  5
412
  8
0
  6
CONTINUOUS
 62
     7
 10
433.5118082747
 20
1130.9890244555
 30
0.0
 11
433.5118082747
 21
931.4890290078
 31
0.0
  0
LINE
  5
413
  8
0
  6
CONTINUOUS
 62
     7
 10
439.136400579
 20
1130.9890244555
 30
0.0
 11
439.136400579
 21
931.4890290078
 31
0.0
  0
LINE
  5
414
  8
0
  6
CONTINUOUS
 62
     7
 10
445.4222915158
 20
1130.9890244555
 30
0.0
 11
445.4222915158
 21
931.4890290078
 31
0.0
  0
LINE
  5
415
  8
0
  6
CONTINUOUS
 62
     7
 10
452.3006153688
 20
1130.9890244555
 30
0.0
 11
452.3006153688
 21
931.4890290078
 31
0.0
  0
LINE
  5
416
  8
0
  6
CONTINUOUS
 62
     7
 10
459.69600579
 20
1130.9890244555
 30
0.0
 11
459.69600579
 21
931.4890290078
 31
0.0
  0
LINE
  5
417
  8
0
  6
CONTINUOUS
 62
     7
 10
539.293665199
 20
931.4890290078
 30
0.0
 11
539.293665199
 21
1130.9890244555
 31
0.0
  0
LINE
  5
418
  8
0
  6
CONTINUOUS
 62
     7
 10
546.6890556202
 20
931.4890290078
 30
0.0
 11
546.6890556202
 21
1130.9890244555
 31
0.0
  0
LINE
  5
419
  8
0
  6
CONTINUOUS
 62
     7
 10
553.5673794732
 20
931.4890290078
 30
0.0
 11
553.5673794732
 21
1130.9890244555
 31
0.0
  0
LINE
  5
41A
  8
0
  6
CONTINUOUS
 62
     7
 10
559.85327041
 20
931.4890290078
 30
0.0
 11
559.85327041
 21
1130.9890244555
 31
0.0
  0
LINE
  5
41B
  8
0
  6
CONTINUOUS
 62
     7
 10
565.4778627143
 20
931.4890290078
 30
0.0
 11
565.4778627143
 21
1130.9890244555
 31
0.0
  0
LINE
  5
41C
  8
0
  6
CONTINUOUS
 62
     7
 10
542.4946767673
 20
931.4890290078
 30
0.0
 11
542.4946767673
 21
1130.9890244555
 31
0.0
  0
LINE
  5
41D
  8
0
  6
CONTINUOUS
 62
     7
 10
456.4949942217
 20
1130.9890244555
 30
0.0
 11
456.4949942217
 21
931.4890290078
 31
0.0
  0
LINE
  5
41E
  8
0
  6
CONTINUOUS
 62
     7
 10
540.6258103833
 20
1130.9890244555
 30
0.0
 11
540.6258103833
 21
931.4890290078
 31
0.0
  0
LINE
  5
41F
  8
0
  6
CONTINUOUS
 62
     7
 10
458.3638606057
 20
931.4890290078
 30
0.0
 11
458.3638606057
 21
1130.9890244555
 31
0.0
  0
LINE
  5
420
  8
0
  6
CONTINUOUS
 62
     7
 10
550.2284278557
 20
931.4890290078
 30
0.0
 11
550.2284278557
 21
1130.9890244555
 31
0.0
  0
LINE
  5
421
  8
0
  6
CONTINUOUS
 62
     7
 10
448.7612431333
 20
1130.9890244555
 30
0.0
 11
448.7612431333
 21
931.4890290078
 31
0.0
  0
LINE
  5
422
  8
0
  6
CONTINUOUS
 62
     7
 10
548.0510143027
 20
1130.9890244555
 30
0.0
 11
548.0510143027
 21
931.4890290078
 31
0.0
  0
LINE
  5
423
  8
0
  6
CONTINUOUS
 62
     7
 10
450.9386566863
 20
931.4890290078
 30
0.0
 11
450.9386566863
 21
1130.9890244555
 31
0.0
  0
LINE
  5
424
  8
0
  6
CONTINUOUS
 62
     7
 10
557.406332104
 20
931.4890290078
 30
0.0
 11
557.406332104
 21
1130.9890244555
 31
0.0
  0
LINE
  5
425
  8
0
  6
CONTINUOUS
 62
     7
 10
441.5833388851
 20
1130.9890244555
 30
0.0
 11
441.5833388851
 21
931.4890290078
 31
0.0
  0
LINE
  5
426
  8
0
  6
CONTINUOUS
 62
     7
 10
554.9442318663
 20
1130.9890244555
 30
0.0
 11
554.9442318663
 21
931.4890290078
 31
0.0
  0
LINE
  5
427
  8
0
  6
CONTINUOUS
 62
     7
 10
444.0454391227
 20
931.4890290078
 30
0.0
 11
444.0454391227
 21
1130.9890244555
 31
0.0
  0
LINE
  5
428
  8
0
  6
CONTINUOUS
 62
     7
 10
563.9497411833
 20
931.4890290078
 30
0.0
 11
563.9497411833
 21
1130.9890244555
 31
0.0
  0
LINE
  5
429
  8
0
  6
CONTINUOUS
 62
     7
 10
435.0399298057
 20
1130.9890244555
 30
0.0
 11
435.0399298057
 21
931.4890290078
 31
0.0
  0
LINE
  5
42A
  8
0
  6
CONTINUOUS
 62
     7
 10
561.2299290881
 20
1130.9890244555
 30
0.0
 11
561.2299290881
 21
931.4890290078
 31
0.0
  0
LINE
  5
42B
  8
0
  6
CONTINUOUS
 62
     7
 10
437.7597419009
 20
931.4890290078
 30
0.0
 11
437.7597419009
 21
1130.9890244555
 31
0.0
  0
LINE
  5
42C
  8
0
  6
CONTINUOUS
 62
     7
 10
569.7869730577
 20
931.4890290078
 30
0.0
 11
569.7869730577
 21
1130.9890244555
 31
0.0
  0
LINE
  5
42D
  8
0
  6
CONTINUOUS
 62
     7
 10
429.2026979313
 20
1130.9890244555
 30
0.0
 11
429.2026979313
 21
931.4890290078
 31
0.0
  0
LINE
  5
42E
  8
0
  6
CONTINUOUS
 62
     7
 10
566.8392477021
 20
1130.9890244555
 30
0.0
 11
566.8392477021
 21
931.4890290078
 31
0.0
  0
LINE
  5
42F
  8
0
  6
CONTINUOUS
 62
     7
 10
432.1504232869
 20
931.4890290078
 30
0.0
 11
432.1504232869
 21
1130.9890244555
 31
0.0
  0
LINE
  5
430
  8
0
  6
CONTINUOUS
 62
     7
 10
574.8540682182
 20
931.4890290078
 30
0.0
 11
574.8540682182
 21
1130.9890244555
 31
0.0
  0
LINE
  5
431
  8
0
  6
CONTINUOUS
 62
     7
 10
424.1356027708
 20
1130.9890244555
 30
0.0
 11
424.1356027708
 21
931.4890290078
 31
0.0
  0
LINE
  5
432
  8
0
  6
CONTINUOUS
 62
     7
 10
571.7107204184
 20
1130.9890244555
 30
0.0
 11
571.7107204184
 21
931.4890290078
 31
0.0
  0
LINE
  5
433
  8
0
  6
CONTINUOUS
 62
     7
 10
427.2789505706
 20
931.4890290078
 30
0.0
 11
427.2789505706
 21
1130.9890244555
 31
0.0
  0
LINE
  5
434
  8
0
  6
CONTINUOUS
 62
     7
 10
579.0955123887
 20
931.4890290078
 30
0.0
 11
579.0955123887
 21
1130.9890244555
 31
0.0
  0
LINE
  5
435
  8
0
  6
CONTINUOUS
 62
     7
 10
419.8941586003
 20
1130.9890244555
 30
0.0
 11
419.8941586003
 21
931.4890290078
 31
0.0
  0
LINE
  5
436
  8
0
  6
CONTINUOUS
 62
     7
 10
582.464836298
 20
931.4890290078
 30
0.0
 11
582.464836298
 21
1130.9890244555
 31
0.0
  0
LINE
  5
437
  8
0
  6
CONTINUOUS
 62
     7
 10
416.524834691
 20
1130.9890244555
 30
0.0
 11
416.524834691
 21
931.4890290078
 31
0.0
  0
LINE
  5
438
  8
0
  6
CONTINUOUS
 62
     7
 10
414.0645486698
 20
1130.9890244555
 30
0.0
 11
414.0645486698
 21
931.4890290078
 31
0.0
  0
LINE
  5
439
  8
0
  6
CONTINUOUS
 62
     7
 10
412.5402567372
 20
1130.9890244555
 30
0.0
 11
412.5402567372
 21
931.4890290078
 31
0.0
  0
LINE
  5
43A
  8
0
  6
CONTINUOUS
 62
     7
 10
438.7613495276
 20
620.9890190911
 30
0.0
 11
438.2796843932
 21
620.9890190911
 31
0.0
  0
LINE
  5
43B
  8
0
  6
CONTINUOUS
 62
     7
 10
560.7099865959
 20
620.9890190911
 30
0.0
 11
560.2283214614
 21
620.9890190911
 31
0.0
  0
LINE
  5
43C
  8
0
  6
CONTINUOUS
 62
     7
 10
489.8462814674
 20
613.9890198063
 30
0.0
 11
463.4948370442
 21
613.9890198063
 31
0.0
  0
LINE
  5
43D
  8
0
  6
CONTINUOUS
 62
     7
 10
535.4948339448
 20
613.9890198063
 30
0.0
 11
509.1433895216
 21
613.9890198063
 31
0.0
  0
LINE
  5
43E
  8
0
  6
CONTINUOUS
 62
     7
 10
463.4948370442
 20
595.9890429329
 30
0.0
 11
489.8462814674
 21
595.9890429329
 31
0.0
  0
LINE
  5
43F
  8
0
  6
CONTINUOUS
 62
     7
 10
509.1433895216
 20
595.9890429329
 30
0.0
 11
535.4948339448
 21
595.9890429329
 31
0.0
  0
LINE
  5
440
  8
0
  6
CONTINUOUS
 62
     7
 10
462.4867585883
 20
595.9890429329
 30
0.0
 11
463.4948370442
 21
595.9890429329
 31
0.0
  0
LINE
  5
441
  8
0
  6
CONTINUOUS
 62
     7
 10
535.4948339448
 20
595.9890429329
 30
0.0
 11
536.5029124007
 21
595.9890429329
 31
0.0
  0
ARC
  5
442
  8
0
  6
CONTINUOUS
 62
     7
 10
455.7204328299
 20
614.2949276511
 30
0.0
 40
6.773237326326973
 50
357.4114014106
 51
34.4043329372
  0
LINE
  5
443
  8
0
  6
CONTINUOUS
 62
     7
 10
462.4867585883
 20
613.9890198063
 30
0.0
 11
463.4948370442
 21
613.9890198063
 31
0.0
  0
ARC
  5
444
  8
0
  6
CONTINUOUS
 62
     7
 10
543.4269210102
 20
614.2499871005
 30
0.0
 40
6.928924819373575
 50
146.025797742
 51
182.1584679101
  0
LINE
  5
445
  8
0
  6
CONTINUOUS
 62
     7
 10
535.4948339448
 20
613.9890198063
 30
0.0
 11
536.5029124007
 21
613.9890198063
 31
0.0
  0
LINE
  5
446
  8
0
  6
CONTINUOUS
 62
     7
 10
462.4867585883
 20
613.9890198063
 30
0.0
 11
459.7198439226
 21
613.9890198063
 31
0.0
  0
LINE
  5
447
  8
0
  6
CONTINUOUS
 62
     7
 10
539.2698270664
 20
613.9890198063
 30
0.0
 11
536.5029124007
 21
613.9890198063
 31
0.0
  0
LINE
  5
448
  8
0
  6
CONTINUOUS
 62
     7
 10
459.7198439226
 20
595.9890429329
 30
0.0
 11
462.4867585883
 21
595.9890429329
 31
0.0
  0
LINE
  5
449
  8
0
  6
CONTINUOUS
 62
     7
 10
536.5029124007
 20
595.9890429329
 30
0.0
 11
539.2698270664
 21
595.9890429329
 31
0.0
  0
LINE
  5
44A
  8
0
  6
CONTINUOUS
 62
     7
 10
415.0851217494
 20
858.9890320253
 30
0.0
 11
431.811719893
 21
858.9890320253
 31
0.0
  0
LINE
  5
44B
  8
0
  6
CONTINUOUS
 62
     7
 10
455.8949058339
 20
858.9890320253
 30
0.0
 11
461.7170577333
 21
858.9890320253
 31
0.0
  0
LINE
  5
44C
  8
0
  6
CONTINUOUS
 62
     7
 10
537.2726132557
 20
858.9890320253
 30
0.0
 11
584.4948363886
 21
858.9890320253
 31
0.0
  0
LINE
  5
44D
  8
0
  6
CONTINUOUS
 62
     7
 10
438.2796843932
 20
784.4890300583
 30
0.0
 11
438.7613495276
 21
784.4890300583
 31
0.0
  0
LINE
  5
44E
  8
0
  6
CONTINUOUS
 62
     7
 10
438.2796843932
 20
773.4890226674
 30
0.0
 11
438.7613495276
 21
773.4890226674
 31
0.0
  0
LINE
  5
44F
  8
0
  6
CONTINUOUS
 62
     7
 10
560.2283214614
 20
784.4890300583
 30
0.0
 11
560.7099865959
 21
784.4890300583
 31
0.0
  0
LINE
  5
450
  8
0
  6
CONTINUOUS
 62
     7
 10
560.2283214614
 20
773.4890226674
 30
0.0
 11
560.7099865959
 21
773.4890226674
 31
0.0
  0
ARC
  5
451
  8
0
  6
CONTINUOUS
 62
     7
 10
540.9711919299
 20
794.7224326219
 30
0.0
 40
1.83539519042091
 50
352.6942270848
 51
73.4230634144
  0
LINE
  5
452
  8
0
  6
CONTINUOUS
 62
     7
 10
542.7916867123
 20
794.4890354228
 30
0.0
 11
541.4948349283
 21
794.4890354228
 31
0.0
  0
ARC
  5
453
  8
0
  6
CONTINUOUS
 62
     7
 10
458.0184790591
 20
794.7224326219
 30
0.0
 40
1.835395190420699
 50
106.5769365856
 51
187.3057729152
  0
LINE
  5
454
  8
0
  6
CONTINUOUS
 62
     7
 10
457.4948360607
 20
794.4890354228
 30
0.0
 11
456.1979842768
 21
794.4890354228
 31
0.0
  0
LINE
  5
455
  8
0
  6
CONTINUOUS
 62
     7
 10
456.1979842768
 20
791.4890293431
 30
0.0
 11
457.4948360607
 21
791.4890293431
 31
0.0
  0
ARC
  5
456
  8
0
  6
CONTINUOUS
 62
     7
 10
450.0817930808
 20
791.3648008855
 30
0.0
 40
6.11745269330847
 50
326.5076059129
 51
1.1635979829
  0
LINE
  5
457
  8
0
  6
CONTINUOUS
 62
     7
 10
541.4948349283
 20
791.4890293431
 30
0.0
 11
542.7916867123
 21
791.4890293431
 31
0.0
  0
ARC
  5
458
  8
0
  6
CONTINUOUS
 62
     7
 10
548.9078779082
 20
791.3648008855
 30
0.0
 40
6.117452693307568
 50
178.8364020171
 51
213.4923940871
  0
POLYLINE
  5
459
  8
0
  6
CONTINUOUS
 62
     7
 66
     1
 10
0.0
 20
0.0
 30
0.0
 70
   128
  0
VERTEX
  5
93A
  8
0
  6
CONTINUOUS
 62
     7
 10
552.5087041244
 20
786.4890341114
 30
0.0
  0
VERTEX
  5
93B
  8
0
  6
CONTINUOUS
 62
     7
 10
551.7251787171
 20
786.5851018977
 30
0.0
  0
VERTEX
  5
93C
  8
0
  6
CONTINUOUS
 62
     7
 10
551.6258922801
 20
786.6113130402
 30
0.0
  0
SEQEND
  5
AE4
  8
0
  6
CONTINUOUS
 62
     7
  0
ARC
  5
45A
  8
0
  6
CONTINUOUS
 62
     7
 10
554.1723733542
 20
791.4138330801
 30
0.0
 40
5.680368915730033
 50
179.241500963
 51
217.0792559846
  0
ARC
  5
45B
  8
0
  6
CONTINUOUS
 62
     7
 10
444.8172976348
 20
791.4138330801
 30
0.0
 40
5.680368915729297
 50
322.9207440154
 51
0.758499037
  0
POLYLINE
  5
45C
  8
0
  6
CONTINUOUS
 62
     7
 66
     1
 10
0.0
 20
0.0
 30
0.0
 70
   128
  0
VERTEX
  5
93D
  8
0
  6
CONTINUOUS
 62
     7
 10
447.4115741834
 20
786.6251115155
 30
0.0
  0
VERTEX
  5
93E
  8
0
  6
CONTINUOUS
 62
     7
 10
447.2644922719
 20
786.5851018977
 30
0.0
  0
VERTEX
  5
93F
  8
0
  6
CONTINUOUS
 62
     7
 10
446.4809668646
 20
786.4890341114
 30
0.0
  0
SEQEND
  5
AE5
  8
0
  6
CONTINUOUS
 62
     7
  0
LINE
  5
45D
  8
0
  6
CONTINUOUS
 62
     7
 10
456.1979842768
 20
794.4890354228
 30
0.0
 11
438.4948348091
 21
794.4890354228
 31
0.0
  0
POLYLINE
  5
45E
  8
0
  6
CONTINUOUS
 62
     7
 66
     1
 10
0.0
 20
0.0
 30
0.0
 70
   128
  0
VERTEX
  5
940
  8
0
  6
CONTINUOUS
 62
     7
 10
446.642316638
 20
786.4979897093
 30
0.0
  0
VERTEX
  5
941
  8
0
  6
CONTINUOUS
 62
     7
 10
446.6476475284
 20
786.5630928826
 30
0.0
  0
VERTEX
  5
942
  8
0
  6
CONTINUOUS
 62
     7
 10
447.1276325569
 20
788.3967403721
 30
0.0
  0
VERTEX
  5
943
  8
0
  6
CONTINUOUS
 62
     7
 10
447.9161759302
 20
789.9363134455
 30
0.0
  0
VERTEX
  5
944
  8
0
  6
CONTINUOUS
 62
     7
 10
449.0803291485
 20
791.0739723992
 30
0.0
  0
VERTEX
  5
945
  8
0
  6
CONTINUOUS
 62
     7
 10
450.4971688077
 20
791.4890293431
 30
0.0
  0
SEQEND
  5
AE6
  8
0
  6
CONTINUOUS
 62
     7
  0
POLYLINE
  5
45F
  8
0
  6
CONTINUOUS
 62
     7
 66
     1
 10
0.0
 20
0.0
 30
0.0
 70
   128
  0
VERTEX
  5
946
  8
0
  6
CONTINUOUS
 62
     7
 10
447.4115741834
 20
770.8013002228
 30
0.0
  0
VERTEX
  5
947
  8
0
  6
CONTINUOUS
 62
     7
 10
447.2637546644
 20
771.1202744793
 30
0.0
  0
VERTEX
  5
948
  8
0
  6
CONTINUOUS
 62
     7
 10
447.1375232026
 20
771.4890335154
 30
0.0
  0
SEQEND
  5
AE7
  8
0
  6
CONTINUOUS
 62
     7
  0
LINE
  5
460
  8
0
  6
CONTINUOUS
 62
     7
 10
560.49483618
 20
794.4890354228
 30
0.0
 11
542.7916867123
 21
794.4890354228
 31
0.0
  0
POLYLINE
  5
461
  8
0
  6
CONTINUOUS
 62
     7
 66
     1
 10
0.0
 20
0.0
 30
0.0
 70
   128
  0
VERTEX
  5
949
  8
0
  6
CONTINUOUS
 62
     7
 10
551.8589240894
 20
771.4890335154
 30
0.0
  0
VERTEX
  5
94A
  8
0
  6
CONTINUOUS
 62
     7
 10
551.7259163246
 20
771.1202744793
 30
0.0
  0
VERTEX
  5
94B
  8
0
  6
CONTINUOUS
 62
     7
 10
551.5780968056
 20
770.8486412119
 30
0.0
  0
SEQEND
  5
AE8
  8
0
  6
CONTINUOUS
 62
     7
  0
POLYLINE
  5
462
  8
0
  6
CONTINUOUS
 62
     7
 66
     1
 10
0.0
 20
0.0
 30
0.0
 70
   128
  0
VERTEX
  5
94C
  8
0
  6
CONTINUOUS
 62
     7
 10
548.4925021813
 20
791.4890293431
 30
0.0
  0
VERTEX
  5
94D
  8
0
  6
CONTINUOUS
 62
     7
 10
550.0144658074
 20
791.0063360285
 30
0.0
  0
VERTEX
  5
94E
  8
0
  6
CONTINUOUS
 62
     7
 10
551.2870212481
 20
789.6076683354
 30
0.0
  0
VERTEX
  5
94F
  8
0
  6
CONTINUOUS
 62
     7
 10
552.1535572991
 20
787.4580417227
 30
0.0
  0
VERTEX
  5
950
  8
0
  6
CONTINUOUS
 62
     7
 10
552.2897539124
 20
786.5280453515
 30
0.0
  0
SEQEND
  5
AE9
  8
0
  6
CONTINUOUS
 62
     7
  0
ARC
  5
463
  8
0
  6
CONTINUOUS
 62
     7
 10
456.5626064392
 20
797.6977453786
 30
0.0
 40
1.214195525084798
 50
275.4429912875
 51
320.1545521147
  0
ARC
  5
464
  8
0
  6
CONTINUOUS
 62
     7
 10
542.4270645498
 20
797.6977453786
 30
0.0
 40
1.214195525084915
 50
219.8454478853
 51
264.5570087125
  0
POLYLINE
  5
465
  8
0
  6
CONTINUOUS
 62
     7
 66
     1
 10
0.0
 20
0.0
 30
0.0
 70
   128
  0
VERTEX
  5
951
  8
0
  6
CONTINUOUS
 62
     7
 10
569.5533228502
 20
1150.8554760766
 30
0.0
  0
VERTEX
  5
952
  8
0
  6
CONTINUOUS
 62
     7
 10
569.2863908992
 20
1150.8717630457
 30
0.0
  0
VERTEX
  5
953
  8
0
  6
CONTINUOUS
 62
     7
 10
568.4132871613
 20
1150.6942306113
 30
0.0
  0
VERTEX
  5
954
  8
0
  6
CONTINUOUS
 62
     7
 10
567.6109117851
 20
1150.1760278296
 30
0.0
  0
VERTEX
  5
955
  8
0
  6
CONTINUOUS
 62
     7
 10
566.9442785368
 20
1149.3591163706
 30
0.0
  0
VERTEX
  5
956
  8
0
  6
CONTINUOUS
 62
     7
 10
566.4673892245
 20
1148.3096871924
 30
0.0
  0
VERTEX
  5
957
  8
0
  6
CONTINUOUS
 62
     7
 10
566.2188751087
 20
1147.1127514195
 30
0.0
  0
VERTEX
  5
958
  8
0
  6
CONTINUOUS
 62
     7
 10
566.2188751087
 20
1145.8653007101
 30
0.0
  0
VERTEX
  5
959
  8
0
  6
CONTINUOUS
 62
     7
 10
566.4673892245
 20
1144.6683798384
 30
0.0
  0
VERTEX
  5
95A
  8
0
  6
CONTINUOUS
 62
     7
 10
566.9442785368
 20
1143.6189506602
 30
0.0
  0
VERTEX
  5
95B
  8
0
  6
CONTINUOUS
 62
     7
 10
567.6109117851
 20
1142.8020392012
 30
0.0
  0
VERTEX
  5
95C
  8
0
  6
CONTINUOUS
 62
     7
 10
568.4132871613
 20
1142.2838215184
 30
0.0
  0
VERTEX
  5
95D
  8
0
  6
CONTINUOUS
 62
     7
 10
569.2863908992
 20
1142.1062890839
 30
0.0
  0
VERTEX
  5
95E
  8
0
  6
CONTINUOUS
 62
     7
 10
569.457717
 20
1142.1129946064
 30
0.0
  0
SEQEND
  5
AEA
  8
0
  6
CONTINUOUS
 62
     7
  0
POLYLINE
  5
466
  8
0
  6
CONTINUOUS
 62
     7
 66
     1
 10
0.0
 20
0.0
 30
0.0
 70
   128
  0
VERTEX
  5
95F
  8
0
  6
CONTINUOUS
 62
     7
 10
403.8249028311
 20
1142.2992740225
 30
0.0
  0
VERTEX
  5
960
  8
0
  6
CONTINUOUS
 62
     7
 10
403.9963630423
 20
1142.1509031605
 30
0.0
  0
VERTEX
  5
961
  8
0
  6
CONTINUOUS
 62
     7
 10
404.3192265019
 20
1142.1509031605
 30
0.0
  0
VERTEX
  5
962
  8
0
  6
CONTINUOUS
 62
     7
 10
404.6290141926
 20
1142.5023470473
 30
0.0
  0
VERTEX
  5
963
  8
0
  6
CONTINUOUS
 62
     7
 10
404.9006251082
 20
1143.1767736029
 30
0.0
  0
VERTEX
  5
964
  8
0
  6
CONTINUOUS
 62
     7
 10
405.1120576844
 20
1144.1195402693
 30
0.0
  0
VERTEX
  5
965
  8
0
  6
CONTINUOUS
 62
     7
 10
405.2461830363
 20
1145.2542636942
 30
0.0
  0
VERTEX
  5
966
  8
0
  6
CONTINUOUS
 62
     7
 10
405.2921307669
 20
1146.4890335154
 30
0.0
  0
VERTEX
  5
967
  8
0
  6
CONTINUOUS
 62
     7
 10
405.2461830363
 20
1147.7237884354
 30
0.0
  0
VERTEX
  5
968
  8
0
  6
CONTINUOUS
 62
     7
 10
405.1120576844
 20
1148.8585118603
 30
0.0
  0
VERTEX
  5
969
  8
0
  6
CONTINUOUS
 62
     7
 10
404.9006251082
 20
1149.8012785267
 30
0.0
  0
VERTEX
  5
96A
  8
0
  6
CONTINUOUS
 62
     7
 10
404.6290141926
 20
1150.4757050824
 30
0.0
  0
VERTEX
  5
96B
  8
0
  6
CONTINUOUS
 62
     7
 10
404.3192265019
 20
1150.8271489691
 30
0.0
  0
VERTEX
  5
96C
  8
0
  6
CONTINUOUS
 62
     7
 10
403.9963630423
 20
1150.8271489691
 30
0.0
  0
VERTEX
  5
96D
  8
0
  6
CONTINUOUS
 62
     7
 10
403.8249028311
 20
1150.6787781071
 30
0.0
  0
SEQEND
  5
AEB
  8
0
  6
CONTINUOUS
 62
     7
  0
POLYLINE
  5
467
  8
0
  6
CONTINUOUS
 62
     7
 66
     1
 10
0.0
 20
0.0
 30
0.0
 70
   128
  0
VERTEX
  5
96E
  8
0
  6
CONTINUOUS
 62
     7
 10
404.4085068092
 20
1141.9890914511
 30
0.0
  0
VERTEX
  5
96F
  8
0
  6
CONTINUOUS
 62
     7
 10
404.5803395495
 20
1142.034838016
 30
0.0
  0
VERTEX
  5
970
  8
0
  6
CONTINUOUS
 62
     7
 10
404.8984197364
 20
1142.3956845355
 30
0.0
  0
VERTEX
  5
971
  8
0
  6
CONTINUOUS
 62
     7
 10
405.1772949681
 20
1143.0881563973
 30
0.0
  0
VERTEX
  5
972
  8
0
  6
CONTINUOUS
 62
     7
 10
405.394382535
 20
1144.0561507296
 30
0.0
  0
VERTEX
  5
973
  8
0
  6
CONTINUOUS
 62
     7
 10
405.5320990667
 20
1145.2212278199
 30
0.0
  0
VERTEX
  5
974
  8
0
  6
CONTINUOUS
 62
     7
 10
405.5792761431
 20
1146.4890335154
 30
0.0
  0
VERTEX
  5
975
  8
0
  6
CONTINUOUS
 62
     7
 10
405.5320990667
 20
1147.7568243098
 30
0.0
  0
VERTEX
  5
976
  8
0
  6
CONTINUOUS
 62
     7
 10
405.394382535
 20
1148.9219163012
 30
0.0
  0
VERTEX
  5
977
  8
0
  6
CONTINUOUS
 62
     7
 10
405.1772949681
 20
1149.8898957324
 30
0.0
  0
VERTEX
  5
978
  8
0
  6
CONTINUOUS
 62
     7
 10
404.8984197364
 20
1150.5823675942
 30
0.0
  0
VERTEX
  5
979
  8
0
  6
CONTINUOUS
 62
     7
 10
404.5803395495
 20
1150.9432290148
 30
0.0
  0
VERTEX
  5
97A
  8
0
  6
CONTINUOUS
 62
     7
 10
404.414586483
 20
1150.9890351843
 30
0.0
  0
SEQEND
  5
AEC
  8
0
  6
CONTINUOUS
 62
     7
  0
LINE
  5
468
  8
SLD-0
 62
     7
 10
403.8408073118
 20
865.3584507841
 30
0.0
 11
440.5405347622
 21
865.3584507841
 31
0.0
  0
LINE
  5
469
  8
SLD-0
  6
HIDDEN
 62
     7
 10
414.4948354945
 20
871.9890286278
 30
0.0
 11
439.0300833886
 21
871.9890286278
 31
0.0
  0
LINE
  5
46A
  8
SLD-0
  6
HIDDEN
 62
     7
 10
414.4948354945
 20
858.7278729404
 30
0.0
 11
436.2235767076
 21
858.7278729404
 31
0.0
  0
INSERT
  5
476
  8
SLD-0
 62
    11
  2
SW_CENTERMARKSYMBOL_0
 10
499.4948354945
 20
881.9890286278
 30
0.0
  0
LINE
  5
477
  8
0
  6
CONTINUOUS
 62
     7
 10
625.5197067916
 20
299.585579828
 30
0.0
 11
623.9806105554
 21
299.585579828
 31
0.0
  0
LINE
  5
478
  8
0
  6
CONTINUOUS
 62
     7
 10
623.9806105554
 20
295.585581035
 30
0.0
 11
625.4812170923
 21
295.585581035
 31
0.0
  0
LINE
  5
479
  8
0
  6
CONTINUOUS
 62
     7
 10
630.7143111885
 20
293.5855807072
 30
0.0
 11
631.0702999294
 21
293.5855807072
 31
0.0
  0
LINE
  5
47A
  8
0
  6
CONTINUOUS
 62
     7
 10
631.2173892915
 20
301.5357171452
 30
0.0
 11
631.0997893274
 21
301.5599892742
 31
0.0
  0
LINE
  5
47B
  8
0
  6
CONTINUOUS
 62
     7
 10
631.0702999294
 20
293.5855807072
 30
0.0
 11
631.2837292612
 21
293.6326124972
 31
0.0
  0
ARC
  5
47C
  8
0
  6
CONTINUOUS
 62
     7
 10
626.4238122237
 20
297.5855805284
 30
0.0
 40
6.50000000000002
 50
328.9823638146
 51
31.0176361854
  0
LINE
  5
47D
  8
0
  6
CONTINUOUS
 62
     7
 10
625.3593404949
 20
357.5855800218
 30
0.0
 11
623.9806105554
 21
357.5855800218
 31
0.0
  0
LINE
  5
47E
  8
0
  6
CONTINUOUS
 62
     7
 10
623.9806105554
 20
353.5855812288
 30
0.0
 11
625.5197067916
 21
353.5855812288
 31
0.0
  0
LINE
  5
47F
  8
0
  6
CONTINUOUS
 62
     7
 10
631.0702999294
 20
359.5855803496
 30
0.0
 11
630.3302188575
 21
359.5855803496
 31
0.0
  0
LINE
  5
480
  8
0
  6
CONTINUOUS
 62
     7
 10
631.2173892915
 20
359.5357173389
 30
0.0
 11
631.0997893274
 21
359.5599876052
 31
0.0
  0
LINE
  5
481
  8
0
  6
CONTINUOUS
 62
     7
 10
631.0702999294
 20
351.5855809009
 30
0.0
 11
631.2837292612
 21
351.6326108283
 31
0.0
  0
ARC
  5
482
  8
0
  6
CONTINUOUS
 62
     7
 10
626.4238122237
 20
355.5855805284
 30
0.0
 40
6.499999999999904
 50
328.9823638146
 51
31.0176361854
  0
LINE
  5
483
  8
0
  6
CONTINUOUS
 62
     7
 10
594.8301320136
 20
299.585579828
 30
0.0
 11
593.1115363896
 21
299.585579828
 31
0.0
  0
LINE
  5
484
  8
0
  6
CONTINUOUS
 62
     7
 10
593.1115363896
 20
295.585581035
 30
0.0
 11
594.8301320136
 21
295.585581035
 31
0.0
  0
LINE
  5
485
  8
0
  6
CONTINUOUS
 62
     7
 10
594.8301320136
 20
357.5855800218
 30
0.0
 11
593.1115363896
 21
357.5855800218
 31
0.0
  0
LINE
  5
486
  8
0
  6
CONTINUOUS
 62
     7
 10
593.1115363896
 20
353.5855812288
 30
0.0
 11
594.8301320136
 21
353.5855812288
 31
0.0
  0
LINE
  5
487
  8
0
  6
CONTINUOUS
 62
     7
 10
632.7663500965
 20
315.8176317147
 30
0.0
 11
632.8163583934
 21
315.8176317147
 31
0.0
  0
LINE
  5
488
  8
0
  6
CONTINUOUS
 62
     7
 10
632.8163583934
 20
337.3535293421
 30
0.0
 11
632.7663500965
 21
337.3535293421
 31
0.0
  0
POLYLINE
  5
489
  8
0
  6
CONTINUOUS
 62
     7
 66
     1
 10
0.0
 20
0.0
 30
0.0
 70
   128
  0
VERTEX
  5
97B
  8
0
  6
CONTINUOUS
 62
     7
 10
631.0893734157
 20
355.5855796939
 30
0.0
  0
VERTEX
  5
97C
  8
0
  6
CONTINUOUS
 62
     7
 10
631.0726096094
 20
356.2541500932
 30
0.0
  0
VERTEX
  5
97D
  8
0
  6
CONTINUOUS
 62
     7
 10
630.9476633728
 20
357.4948896921
 30
0.0
  0
VERTEX
  5
97E
  8
0
  6
CONTINUOUS
 62
     7
 10
630.6954016149
 20
358.6531662649
 30
0.0
  0
VERTEX
  5
97F
  8
0
  6
CONTINUOUS
 62
     7
 10
630.2790631712
 20
359.716196478
 30
0.0
  0
VERTEX
  5
980
  8
0
  6
CONTINUOUS
 62
     7
 10
629.7780563295
 20
360.4539268917
 30
0.0
  0
VERTEX
  5
981
  8
0
  6
CONTINUOUS
 62
     7
 10
629.1973580778
 20
360.9455832547
 30
0.0
  0
VERTEX
  5
982
  8
0
  6
CONTINUOUS
 62
     7
 10
628.4890909851
 20
361.2346248037
 30
0.0
  0
VERTEX
  5
983
  8
0
  6
CONTINUOUS
 62
     7
 10
628.0212839305
 20
361.2855793244
 30
0.0
  0
SEQEND
  5
AED
  8
0
  6
CONTINUOUS
 62
     7
  0
LINE
  5
48A
  8
0
  6
CONTINUOUS
 62
     7
 10
631.0893734157
 20
296.585581199
 30
0.0
 11
631.0893734157
 21
355.5855796939
 31
0.0
  0
POLYLINE
  5
48B
  8
0
  6
CONTINUOUS
 62
     7
 66
     1
 10
0.0
 20
0.0
 30
0.0
 70
   128
  0
VERTEX
  5
984
  8
0
  6
CONTINUOUS
 62
     7
 10
628.0212839305
 20
290.8855797059
 30
0.0
  0
VERTEX
  5
985
  8
0
  6
CONTINUOUS
 62
     7
 10
628.7980665624
 20
291.0285153693
 30
0.0
  0
VERTEX
  5
986
  8
0
  6
CONTINUOUS
 62
     7
 10
629.4295181692
 20
291.38815862
 30
0.0
  0
VERTEX
  5
987
  8
0
  6
CONTINUOUS
 62
     7
 10
629.9261738718
 20
291.8961652822
 30
0.0
  0
VERTEX
  5
988
  8
0
  6
CONTINUOUS
 62
     7
 10
630.3466697395
 20
292.5900378531
 30
0.0
  0
VERTEX
  5
989
  8
0
  6
CONTINUOUS
 62
     7
 10
630.7160397232
 20
293.5902671224
 30
0.0
  0
VERTEX
  5
98A
  8
0
  6
CONTINUOUS
 62
     7
 10
630.9682418764
 20
294.8150606162
 30
0.0
  0
VERTEX
  5
98B
  8
0
  6
CONTINUOUS
 62
     7
 10
631.0801346958
 20
296.0887448198
 30
0.0
  0
VERTEX
  5
98C
  8
0
  6
CONTINUOUS
 62
     7
 10
631.0893734157
 20
296.585581199
 30
0.0
  0
SEQEND
  5
AEE
  8
0
  6
CONTINUOUS
 62
     7
  0
LINE
  5
48C
  8
0
  6
CONTINUOUS
 62
     7
 10
443.605649209
 20
272.1792095608
 30
0.0
 11
439.8409900427
 21
278.3048496849
 31
0.0
  0
LINE
  5
48D
  8
0
  6
CONTINUOUS
 62
     7
 10
439.8409900427
 20
278.3048496849
 30
0.0
 11
443.2636191309
 21
284.6279599971
 31
0.0
  0
LINE
  5
48E
  8
0
  6
CONTINUOUS
 62
     7
 10
443.2636191309
 20
284.6279599971
 30
0.0
 11
450.4509073854
 21
284.8254264599
 31
0.0
  0
LINE
  5
48F
  8
0
  6
CONTINUOUS
 62
     7
 10
450.4509073854
 20
284.8254264599
 30
0.0
 11
454.2155665517
 21
278.6997900611
 31
0.0
  0
LINE
  5
490
  8
0
  6
CONTINUOUS
 62
     7
 10
454.2155665517
 20
278.6997900611
 30
0.0
 11
450.7929374635
 21
272.3766797489
 31
0.0
  0
LINE
  5
491
  8
0
  6
CONTINUOUS
 62
     7
 10
450.7929374635
 20
272.3766797489
 30
0.0
 11
443.605649209
 21
272.1792095608
 31
0.0
  0
ARC
  5
492
  8
0
  6
CONTINUOUS
 62
     7
 10
447.0282778319
 20
278.5023194077
 30
0.0
 40
7.189999999999975
 50
181.5737995268
 51
241.5737995268
  0
ARC
  5
493
  8
0
  6
CONTINUOUS
 62
     7
 10
447.0282778319
 20
278.5023194077
 30
0.0
 40
7.190000000000032
 50
301.5737995268
 51
1.5737995268
  0
ARC
  5
494
  8
0
  6
CONTINUOUS
 62
     7
 10
447.0282778319
 20
278.5023194077
 30
0.0
 40
7.190000000000019
 50
241.5737995268
 51
301.5737995268
  0
ARC
  5
495
  8
0
  6
CONTINUOUS
 62
     7
 10
447.0282778319
 20
278.5023194077
 30
0.0
 40
7.189999999999975
 50
121.5737995268
 51
181.5737995268
  0
ARC
  5
496
  8
0
  6
CONTINUOUS
 62
     7
 10
447.0282778319
 20
278.5023194077
 30
0.0
 40
7.190000000000052
 50
1.5737995268
 51
61.5737995268
  0
ARC
  5
497
  8
0
  6
CONTINUOUS
 62
     7
 10
447.0282778319
 20
278.5023194077
 30
0.0
 40
7.190000000000052
 50
61.5737995268
 51
121.5737995268
  0
LINE
  5
498
  8
0
  6
CONTINUOUS
 62
     7
 10
539.4301404417
 20
272.3766797489
 30
0.0
 11
536.0075113535
 21
278.6997900611
 31
0.0
  0
LINE
  5
499
  8
0
  6
CONTINUOUS
 62
     7
 10
546.9594587743
 20
284.6279599971
 30
0.0
 11
550.3820878625
 21
278.3048496849
 31
0.0
  0
LINE
  5
49A
  8
0
  6
CONTINUOUS
 62
     7
 10
550.3820878625
 20
278.3048496849
 30
0.0
 11
546.6174286962
 21
272.1792095608
 31
0.0
  0
LINE
  5
49B
  8
0
  6
CONTINUOUS
 62
     7
 10
546.6174286962
 20
272.1792095608
 30
0.0
 11
539.4301404417
 21
272.3766797489
 31
0.0
  0
LINE
  5
49C
  8
0
  6
CONTINUOUS
 62
     7
 10
536.0075113535
 20
278.6997900611
 30
0.0
 11
539.7721705198
 21
284.8254264599
 31
0.0
  0
LINE
  5
49D
  8
0
  6
CONTINUOUS
 62
     7
 10
539.7721705198
 20
284.8254264599
 30
0.0
 11
546.9594587743
 21
284.6279599971
 31
0.0
  0
ARC
  5
49E
  8
0
  6
CONTINUOUS
 62
     7
 10
543.1948000733
 20
278.5023194077
 30
0.0
 40
7.190000000000148
 50
118.4262004732
 51
178.4262004732
  0
ARC
  5
49F
  8
0
  6
CONTINUOUS
 62
     7
 10
543.1948000733
 20
278.5023194077
 30
0.0
 40
7.190000000000148
 50
178.4262004732
 51
238.4262004732
  0
ARC
  5
4A0
  8
0
  6
CONTINUOUS
 62
     7
 10
543.1948000733
 20
278.5023194077
 30
0.0
 40
7.190000000000061
 50
238.4262004732
 51
298.4262004732
  0
ARC
  5
4A1
  8
0
  6
CONTINUOUS
 62
     7
 10
543.1948000733
 20
278.5023194077
 30
0.0
 40
7.18999999999997
 50
58.4262004732
 51
118.4262004732
  0
ARC
  5
4A2
  8
0
  6
CONTINUOUS
 62
     7
 10
543.1948000733
 20
278.5023194077
 30
0.0
 40
7.189999999999952
 50
358.4262004732
 51
58.4262004732
  0
ARC
  5
4A3
  8
0
  6
CONTINUOUS
 62
     7
 10
543.1948000733
 20
278.5023194077
 30
0.0
 40
7.19000000000002
 50
298.4262004732
 51
358.4262004732
  0
LINE
  5
4A4
  8
0
  6
CONTINUOUS
 62
     7
 10
539.7721705198
 20
368.3457345969
 30
0.0
 11
536.0075113535
 21
374.4713709957
 31
0.0
  0
LINE
  5
4A5
  8
0
  6
CONTINUOUS
 62
     7
 10
539.4301404417
 20
380.7944813079
 30
0.0
 11
546.6174286962
 21
380.991951496
 31
0.0
  0
LINE
  5
4A6
  8
0
  6
CONTINUOUS
 62
     7
 10
546.6174286962
 20
380.991951496
 30
0.0
 11
550.3820878625
 21
374.8663113719
 31
0.0
  0
LINE
  5
4A7
  8
0
  6
CONTINUOUS
 62
     7
 10
550.3820878625
 20
374.8663113719
 30
0.0
 11
546.9594587743
 21
368.5432010597
 31
0.0
  0
LINE
  5
4A8
  8
0
  6
CONTINUOUS
 62
     7
 10
536.0075113535
 20
374.4713709957
 30
0.0
 11
539.4301404417
 21
380.7944813079
 31
0.0
  0
LINE
  5
4A9
  8
0
  6
CONTINUOUS
 62
     7
 10
546.9594587743
 20
368.5432010597
 30
0.0
 11
539.7721705198
 21
368.3457345969
 31
0.0
  0
ARC
  5
4AA
  8
0
  6
CONTINUOUS
 62
     7
 10
543.1948000733
 20
374.6688416491
 30
0.0
 40
7.190000000000036
 50
1.5737995268
 51
61.5737995268
  0
ARC
  5
4AB
  8
0
  6
CONTINUOUS
 62
     7
 10
543.1948000733
 20
374.6688416491
 30
0.0
 40
7.190000000000036
 50
301.5737995268
 51
1.5737995268
  0
ARC
  5
4AC
  8
0
  6
CONTINUOUS
 62
     7
 10
543.1948000733
 20
374.6688416491
 30
0.0
 40
7.190000000000001
 50
241.5737995268
 51
301.5737995268
  0
ARC
  5
4AD
  8
0
  6
CONTINUOUS
 62
     7
 10
543.1948000733
 20
374.6688416491
 30
0.0
 40
7.190000000000024
 50
61.5737995268
 51
121.5737995268
  0
ARC
  5
4AE
  8
0
  6
CONTINUOUS
 62
     7
 10
543.1948000733
 20
374.6688416491
 30
0.0
 40
7.190000000000032
 50
181.5737995268
 51
241.5737995268
  0
ARC
  5
4AF
  8
0
  6
CONTINUOUS
 62
     7
 10
543.1948000733
 20
374.6688416491
 30
0.0
 40
7.190000000000032
 50
121.5737995268
 51
181.5737995268
  0
LINE
  5
4B0
  8
0
  6
CONTINUOUS
 62
     7
 10
453.3513848841
 20
371.2462120956
 30
0.0
 11
447.2257484853
 21
367.4815529293
 31
0.0
  0
LINE
  5
4B1
  8
0
  6
CONTINUOUS
 62
     7
 10
453.1539184213
 20
378.4335003501
 30
0.0
 11
453.3513848841
 21
371.2462120956
 31
0.0
  0
LINE
  5
4B2
  8
0
  6
CONTINUOUS
 62
     7
 10
440.705167985
 20
378.091470272
 30
0.0
 11
446.830808109
 21
381.8561294383
 31
0.0
  0
LINE
  5
4B3
  8
0
  6
CONTINUOUS
 62
     7
 10
446.830808109
 20
381.8561294383
 30
0.0
 11
453.1539184213
 21
378.4335003501
 31
0.0
  0
LINE
  5
4B4
  8
0
  6
CONTINUOUS
 62
     7
 10
447.2257484853
 20
367.4815529293
 30
0.0
 11
440.9026381731
 21
370.9041820175
 31
0.0
  0
LINE
  5
4B5
  8
0
  6
CONTINUOUS
 62
     7
 10
440.9026381731
 20
370.9041820175
 30
0.0
 11
440.705167985
 21
378.091470272
 31
0.0
  0
ARC
  5
4B6
  8
0
  6
CONTINUOUS
 62
     7
 10
447.0282778319
 20
374.6688416491
 30
0.0
 40
7.189999999999976
 50
271.5737995268
 51
331.5737995268
  0
ARC
  5
4B7
  8
0
  6
CONTINUOUS
 62
     7
 10
447.0282778319
 20
374.6688416491
 30
0.0
 40
7.190000000000049
 50
211.5737995268
 51
271.5737995268
  0
ARC
  5
4B8
  8
0
  6
CONTINUOUS
 62
     7
 10
447.0282778319
 20
374.6688416491
 30
0.0
 40
7.190000000000049
 50
151.5737995268
 51
211.5737995268
  0
ARC
  5
4B9
  8
0
  6
CONTINUOUS
 62
     7
 10
447.0282778319
 20
374.6688416491
 30
0.0
 40
7.190000000000001
 50
331.5737995268
 51
31.5737995268
  0
ARC
  5
4BA
  8
0
  6
CONTINUOUS
 62
     7
 10
447.0282778319
 20
374.6688416491
 30
0.0
 40
7.190000000000034
 50
31.5737995268
 51
91.5737995268
  0
ARC
  5
4BB
  8
0
  6
CONTINUOUS
 62
     7
 10
447.0282778319
 20
374.6688416491
 30
0.0
 40
7.190000000000034
 50
91.5737995268
 51
151.5737995268
  0
POLYLINE
  5
4BC
  8
0
  6
CONTINUOUS
 62
     7
 66
     1
 10
0.0
 20
0.0
 30
0.0
 70
   128
  0
VERTEX
  5
98D
  8
0
  6
CONTINUOUS
 62
     7
 10
623.9806105554
 20
295.585581035
 30
0.0
  0
VERTEX
  5
98E
  8
0
  6
CONTINUOUS
 62
     7
 10
623.7188418567
 20
295.737820611
 30
0.0
  0
VERTEX
  5
98F
  8
0
  6
CONTINUOUS
 62
     7
 10
623.4969188631
 20
296.1713661707
 30
0.0
  0
VERTEX
  5
990
  8
0
  6
CONTINUOUS
 62
     7
 10
623.348637408
 20
296.8202130205
 30
0.0
  0
VERTEX
  5
991
  8
0
  6
CONTINUOUS
 62
     7
 10
623.2965727508
 20
297.5855813629
 30
0.0
  0
VERTEX
  5
992
  8
0
  6
CONTINUOUS
 62
     7
 10
623.348637408
 20
298.3509478426
 30
0.0
  0
VERTEX
  5
993
  8
0
  6
CONTINUOUS
 62
     7
 10
623.4969188631
 20
298.9997946924
 30
0.0
  0
VERTEX
  5
994
  8
0
  6
CONTINUOUS
 62
     7
 10
623.7188418567
 20
299.4333402521
 30
0.0
  0
VERTEX
  5
995
  8
0
  6
CONTINUOUS
 62
     7
 10
623.9806105554
 20
299.585579828
 30
0.0
  0
VERTEX
  5
996
  8
0
  6
CONTINUOUS
 62
     7
 10
624.2423792541
 20
299.4333402521
 30
0.0
  0
VERTEX
  5
997
  8
0
  6
CONTINUOUS
 62
     7
 10
624.4643022478
 20
298.9997946924
 30
0.0
  0
VERTEX
  5
998
  8
0
  6
CONTINUOUS
 62
     7
 10
624.6125837028
 20
298.3509478426
 30
0.0
  0
VERTEX
  5
999
  8
0
  6
CONTINUOUS
 62
     7
 10
624.66464836
 20
297.5855813629
 30
0.0
  0
VERTEX
  5
99A
  8
0
  6
CONTINUOUS
 62
     7
 10
624.6125837028
 20
296.8202130205
 30
0.0
  0
VERTEX
  5
99B
  8
0
  6
CONTINUOUS
 62
     7
 10
624.4643022478
 20
296.1713661707
 30
0.0
  0
VERTEX
  5
99C
  8
0
  6
CONTINUOUS
 62
     7
 10
624.2423792541
 20
295.737820611
 30
0.0
  0
VERTEX
  5
99D
  8
0
  6
CONTINUOUS
 62
     7
 10
623.9806105554
 20
295.585581035
 30
0.0
  0
SEQEND
  5
AEF
  8
0
  6
CONTINUOUS
 62
     7
  0
POLYLINE
  5
4BD
  8
0
  6
CONTINUOUS
 62
     7
 66
     1
 10
0.0
 20
0.0
 30
0.0
 70
   128
  0
VERTEX
  5
99E
  8
0
  6
CONTINUOUS
 62
     7
 10
631.426720804
 20
301.4311687356
 30
0.0
  0
VERTEX
  5
99F
  8
0
  6
CONTINUOUS
 62
     7
 10
631.7500014961
 20
301.2504008866
 30
0.0
  0
VERTEX
  5
9A0
  8
0
  6
CONTINUOUS
 62
     7
 10
632.1174045265
 20
300.7030626095
 30
0.0
  0
VERTEX
  5
9A1
  8
0
  6
CONTINUOUS
 62
     7
 10
632.4089755476
 20
299.8505634523
 30
0.0
  0
VERTEX
  5
9A2
  8
0
  6
CONTINUOUS
 62
     7
 10
632.5961788356
 20
298.776353643
 30
0.0
  0
VERTEX
  5
9A3
  8
0
  6
CONTINUOUS
 62
     7
 10
632.6606859624
 20
297.5855813629
 30
0.0
  0
VERTEX
  5
9A4
  8
0
  6
CONTINUOUS
 62
     7
 10
632.5961788356
 20
296.3948090828
 30
0.0
  0
VERTEX
  5
9A5
  8
0
  6
CONTINUOUS
 62
     7
 10
632.4089755476
 20
295.3205974108
 30
0.0
  0
VERTEX
  5
9A6
  8
0
  6
CONTINUOUS
 62
     7
 10
632.1174045265
 20
294.4680982536
 30
0.0
  0
VERTEX
  5
9A7
  8
0
  6
CONTINUOUS
 62
     7
 10
631.7500014961
 20
293.9207599765
 30
0.0
  0
VERTEX
  5
9A8
  8
0
  6
CONTINUOUS
 62
     7
 10
631.4679374158
 20
293.7495866126
 30
0.0
  0
SEQEND
  5
AF0
  8
0
  6
CONTINUOUS
 62
     7
  0
POLYLINE
  5
4BE
  8
0
  6
CONTINUOUS
 62
     7
 66
     1
 10
0.0
 20
0.0
 30
0.0
 70
   128
  0
VERTEX
  5
9A9
  8
0
  6
CONTINUOUS
 62
     7
 10
623.9806105554
 20
353.5855812288
 30
0.0
  0
VERTEX
  5
9AA
  8
0
  6
CONTINUOUS
 62
     7
 10
623.7188418567
 20
353.7378208047
 30
0.0
  0
VERTEX
  5
9AB
  8
0
  6
CONTINUOUS
 62
     7
 10
623.4969188631
 20
354.1713663644
 30
0.0
  0
VERTEX
  5
9AC
  8
0
  6
CONTINUOUS
 62
     7
 10
623.348637408
 20
354.8202132142
 30
0.0
  0
VERTEX
  5
9AD
  8
0
  6
CONTINUOUS
 62
     7
 10
623.2965727508
 20
355.5855796939
 30
0.0
  0
VERTEX
  5
9AE
  8
0
  6
CONTINUOUS
 62
     7
 10
623.348637408
 20
356.3509480363
 30
0.0
  0
VERTEX
  5
9AF
  8
0
  6
CONTINUOUS
 62
     7
 10
623.4969188631
 20
356.9997948861
 30
0.0
  0
VERTEX
  5
9B0
  8
0
  6
CONTINUOUS
 62
     7
 10
623.7188418567
 20
357.4333404458
 30
0.0
  0
VERTEX
  5
9B1
  8
0
  6
CONTINUOUS
 62
     7
 10
623.9806105554
 20
357.5855800218
 30
0.0
  0
VERTEX
  5
9B2
  8
0
  6
CONTINUOUS
 62
     7
 10
624.2423792541
 20
357.4333404458
 30
0.0
  0
VERTEX
  5
9B3
  8
0
  6
CONTINUOUS
 62
     7
 10
624.4643022478
 20
356.9997948861
 30
0.0
  0
VERTEX
  5
9B4
  8
0
  6
CONTINUOUS
 62
     7
 10
624.6125837028
 20
356.3509480363
 30
0.0
  0
VERTEX
  5
9B5
  8
0
  6
CONTINUOUS
 62
     7
 10
624.66464836
 20
355.5855796939
 30
0.0
  0
VERTEX
  5
9B6
  8
0
  6
CONTINUOUS
 62
     7
 10
624.6125837028
 20
354.8202132142
 30
0.0
  0
VERTEX
  5
9B7
  8
0
  6
CONTINUOUS
 62
     7
 10
624.4643022478
 20
354.1713663644
 30
0.0
  0
VERTEX
  5
9B8
  8
0
  6
CONTINUOUS
 62
     7
 10
624.2423792541
 20
353.7378208047
 30
0.0
  0
VERTEX
  5
9B9
  8
0
  6
CONTINUOUS
 62
     7
 10
623.9806105554
 20
353.5855812288
 30
0.0
  0
SEQEND
  5
AF1
  8
0
  6
CONTINUOUS
 62
     7
  0
POLYLINE
  5
4BF
  8
0
  6
CONTINUOUS
 62
     7
 66
     1
 10
0.0
 20
0.0
 30
0.0
 70
   128
  0
VERTEX
  5
9BA
  8
0
  6
CONTINUOUS
 62
     7
 10
631.426720804
 20
359.431170792
 30
0.0
  0
VERTEX
  5
9BB
  8
0
  6
CONTINUOUS
 62
     7
 10
631.7500014961
 20
359.2504010803
 30
0.0
  0
VERTEX
  5
9BC
  8
0
  6
CONTINUOUS
 62
     7
 10
632.1174045265
 20
358.7030628032
 30
0.0
  0
VERTEX
  5
9BD
  8
0
  6
CONTINUOUS
 62
     7
 10
632.4089755476
 20
357.850563646
 30
0.0
  0
VERTEX
  5
9BE
  8
0
  6
CONTINUOUS
 62
     7
 10
632.5961788356
 20
356.776351974
 30
0.0
  0
VERTEX
  5
9BF
  8
0
  6
CONTINUOUS
 62
     7
 10
632.6606859624
 20
355.5855796939
 30
0.0
  0
VERTEX
  5
9C0
  8
0
  6
CONTINUOUS
 62
     7
 10
632.5961788356
 20
354.3948074138
 30
0.0
  0
VERTEX
  5
9C1
  8
0
  6
CONTINUOUS
 62
     7
 10
632.4089755476
 20
353.3205976045
 30
0.0
  0
VERTEX
  5
9C2
  8
0
  6
CONTINUOUS
 62
     7
 10
632.1174045265
 20
352.4680984473
 30
0.0
  0
VERTEX
  5
9C3
  8
0
  6
CONTINUOUS
 62
     7
 10
631.7500014961
 20
351.9207601702
 30
0.0
  0
VERTEX
  5
9C4
  8
0
  6
CONTINUOUS
 62
     7
 10
631.4679374158
 20
351.749588669
 30
0.0
  0
SEQEND
  5
AF2
  8
0
  6
CONTINUOUS
 62
     7
  0
ARC
  5
4C0
  8
0
  6
CONTINUOUS
 62
     7
 10
589.8176211439
 20
297.5855813629
 30
0.0
 40
3.780879050843975
 50
330.5988022273
 51
29.4011977727
  0
ARC
  5
4C1
  8
0
  6
CONTINUOUS
 62
     7
 10
589.8176211439
 20
355.5855796939
 30
0.0
 40
3.780879050844074
 50
330.5988022273
 51
29.4011977727
  0
LINE
  5
4C2
  8
0
  6
CONTINUOUS
 62
     7
 10
632.8163583934
 20
336.3535301095
 30
0.0
 11
632.8163583934
 21
316.8176309473
 31
0.0
  0
LINE
  5
4C3
  8
0
  6
CONTINUOUS
 62
     7
 10
632.8163583934
 20
316.8176309473
 30
0.0
 11
632.8163583934
 21
315.8176317147
 31
0.0
  0
LINE
  5
4C4
  8
0
  6
CONTINUOUS
 62
     7
 10
632.8163583934
 20
337.3535293421
 30
0.0
 11
632.8163583934
 21
336.3535301095
 31
0.0
  0
LINE
  5
4C5
  8
0
  6
CONTINUOUS
 62
     7
 10
632.8663517892
 20
335.4875044233
 30
0.0
 11
632.8163583934
 21
335.4875044233
 31
0.0
  0
LINE
  5
4C6
  8
0
  6
CONTINUOUS
 62
     7
 10
632.8663517892
 20
335.4875044233
 30
0.0
 11
632.8663517892
 21
317.6836566335
 31
0.0
  0
LINE
  5
4C7
  8
0
  6
CONTINUOUS
 62
     7
 10
632.8663517892
 20
317.6836566335
 30
0.0
 11
632.8163583934
 21
317.6836566335
 31
0.0
  0
LINE
  5
4C8
  8
0
  6
CONTINUOUS
 62
     7
 10
623.9806105554
 20
361.2855793244
 30
0.0
 11
593.1115363896
 21
361.2855793244
 31
0.0
  0
POLYLINE
  5
4C9
  8
0
  6
CONTINUOUS
 62
     7
 66
     1
 10
0.0
 20
0.0
 30
0.0
 70
   128
  0
VERTEX
  5
9C5
  8
0
  6
CONTINUOUS
 62
     7
 10
625.9301294744
 20
355.5855796939
 30
0.0
  0
VERTEX
  5
9C6
  8
0
  6
CONTINUOUS
 62
     7
 10
625.8926679552
 20
356.6975956118
 30
0.0
  0
VERTEX
  5
9C7
  8
0
  6
CONTINUOUS
 62
     7
 10
625.7817288101
 20
357.7668768621
 30
0.0
  0
VERTEX
  5
9C8
  8
0
  6
CONTINUOUS
 62
     7
 10
625.6015737712
 20
358.7523297674
 30
0.0
  0
VERTEX
  5
9C9
  8
0
  6
CONTINUOUS
 62
     7
 10
625.3591318786
 20
359.6160904771
 30
0.0
  0
VERTEX
  5
9CA
  8
0
  6
CONTINUOUS
 62
     7
 10
625.0637014568
 20
360.3249573416
 30
0.0
  0
VERTEX
  5
9CB
  8
0
  6
CONTINUOUS
 62
     7
 10
624.7266520917
 20
360.8516947633
 30
0.0
  0
VERTEX
  5
9CC
  8
0
  6
CONTINUOUS
 62
     7
 10
624.3609477937
 20
361.1760557896
 30
0.0
  0
VERTEX
  5
9CD
  8
0
  6
CONTINUOUS
 62
     7
 10
623.9806105554
 20
361.2855793244
 30
0.0
  0
SEQEND
  5
AF3
  8
0
  6
CONTINUOUS
 62
     7
  0
LINE
  5
4CA
  8
0
  6
CONTINUOUS
 62
     7
 10
625.9301294744
 20
296.585581199
 30
0.0
 11
625.9301294744
 21
355.5855796939
 31
0.0
  0
POLYLINE
  5
4CB
  8
0
  6
CONTINUOUS
 62
     7
 66
     1
 10
0.0
 20
0.0
 30
0.0
 70
   128
  0
VERTEX
  5
9CE
  8
0
  6
CONTINUOUS
 62
     7
 10
623.9806105554
 20
290.8855797059
 30
0.0
  0
VERTEX
  5
9CF
  8
0
  6
CONTINUOUS
 62
     7
 10
624.3609477937
 20
290.9951032406
 30
0.0
  0
VERTEX
  5
9D0
  8
0
  6
CONTINUOUS
 62
     7
 10
624.7266520917
 20
291.3194679922
 30
0.0
  0
VERTEX
  5
9D1
  8
0
  6
CONTINUOUS
 62
     7
 10
625.0637014568
 20
291.846205414
 30
0.0
  0
VERTEX
  5
9D2
  8
0
  6
CONTINUOUS
 62
     7
 10
625.3591318786
 20
292.5550722784
 30
0.0
  0
VERTEX
  5
9D3
  8
0
  6
CONTINUOUS
 62
     7
 10
625.6015737712
 20
293.4188292629
 30
0.0
  0
VERTEX
  5
9D4
  8
0
  6
CONTINUOUS
 62
     7
 10
625.7817288101
 20
294.4042840308
 30
0.0
  0
VERTEX
  5
9D5
  8
0
  6
CONTINUOUS
 62
     7
 10
625.8926679552
 20
295.4735652811
 30
0.0
  0
VERTEX
  5
9D6
  8
0
  6
CONTINUOUS
 62
     7
 10
625.9301294744
 20
296.585581199
 30
0.0
  0
SEQEND
  5
AF4
  8
0
  6
CONTINUOUS
 62
     7
  0
LINE
  5
4CC
  8
0
  6
CONTINUOUS
 62
     7
 10
593.1115363896
 20
290.8855797059
 30
0.0
 11
623.9806105554
 21
290.8855797059
 31
0.0
  0
LINE
  5
4CD
  8
0
  6
CONTINUOUS
 62
     7
 10
593.1115363896
 20
292.0855813927
 30
0.0
 11
623.9806105554
 21
292.0855813927
 31
0.0
  0
POLYLINE
  5
4CE
  8
0
  6
CONTINUOUS
 62
     7
 66
     1
 10
0.0
 20
0.0
 30
0.0
 70
   128
  0
VERTEX
  5
9D7
  8
0
  6
CONTINUOUS
 62
     7
 10
625.5197067916
 20
296.585581199
 30
0.0
  0
VERTEX
  5
9D8
  8
0
  6
CONTINUOUS
 62
     7
 10
625.4901279867
 20
295.7076736993
 30
0.0
  0
VERTEX
  5
9D9
  8
0
  6
CONTINUOUS
 62
     7
 10
625.4025389612
 20
294.8635042912
 30
0.0
  0
VERTEX
  5
9DA
  8
0
  6
CONTINUOUS
 62
     7
 10
625.2603222787
 20
294.0855146653
 30
0.0
  0
VERTEX
  5
9DB
  8
0
  6
CONTINUOUS
 62
     7
 10
625.0689168632
 20
293.4036002761
 30
0.0
  0
VERTEX
  5
9DC
  8
0
  6
CONTINUOUS
 62
     7
 10
624.8356838882
 20
292.843968541
 30
0.0
  0
VERTEX
  5
9DD
  8
0
  6
CONTINUOUS
 62
     7
 10
624.5695938528
 20
292.4281218356
 30
0.0
  0
VERTEX
  5
9DE
  8
0
  6
CONTINUOUS
 62
     7
 10
624.2808689535
 20
292.1720453805
 30
0.0
  0
VERTEX
  5
9DF
  8
0
  6
CONTINUOUS
 62
     7
 10
623.9806105554
 20
292.0855813927
 30
0.0
  0
SEQEND
  5
AF5
  8
0
  6
CONTINUOUS
 62
     7
  0
LINE
  5
4CF
  8
0
  6
CONTINUOUS
 62
     7
 10
625.5197067916
 20
296.585581199
 30
0.0
 11
625.5197067916
 21
355.5855796939
 31
0.0
  0
POLYLINE
  5
4D0
  8
0
  6
CONTINUOUS
 62
     7
 66
     1
 10
0.0
 20
0.0
 30
0.0
 70
   128
  0
VERTEX
  5
9E0
  8
0
  6
CONTINUOUS
 62
     7
 10
623.9806105554
 20
360.0855813629
 30
0.0
  0
VERTEX
  5
9E1
  8
0
  6
CONTINUOUS
 62
     7
 10
624.2808689535
 20
359.9991136497
 30
0.0
  0
VERTEX
  5
9E2
  8
0
  6
CONTINUOUS
 62
     7
 10
624.5695938528
 20
359.7430371946
 30
0.0
  0
VERTEX
  5
9E3
  8
0
  6
CONTINUOUS
 62
     7
 10
624.8356838882
 20
359.3271942145
 30
0.0
  0
VERTEX
  5
9E4
  8
0
  6
CONTINUOUS
 62
     7
 10
625.0689168632
 20
358.7675624794
 30
0.0
  0
VERTEX
  5
9E5
  8
0
  6
CONTINUOUS
 62
     7
 10
625.2603222787
 20
358.0856480903
 30
0.0
  0
VERTEX
  5
9E6
  8
0
  6
CONTINUOUS
 62
     7
 10
625.4025389612
 20
357.3076566017
 30
0.0
  0
VERTEX
  5
9E7
  8
0
  6
CONTINUOUS
 62
     7
 10
625.4901279867
 20
356.4634871936
 30
0.0
  0
VERTEX
  5
9E8
  8
0
  6
CONTINUOUS
 62
     7
 10
625.5197067916
 20
355.5855796939
 30
0.0
  0
SEQEND
  5
AF6
  8
0
  6
CONTINUOUS
 62
     7
  0
LINE
  5
4D1
  8
0
  6
CONTINUOUS
 62
     7
 10
623.9806105554
 20
360.0855813629
 30
0.0
 11
593.1115363896
 21
360.0855813629
 31
0.0
  0
LINE
  5
4D2
  8
0
  6
CONTINUOUS
 62
     7
 10
623.9806105554
 20
361.2855793244
 30
0.0
 11
628.0212839305
 21
361.2855793244
 31
0.0
  0
LINE
  5
4D3
  8
0
  6
CONTINUOUS
 62
     7
 10
628.0212839305
 20
290.8855797059
 30
0.0
 11
623.9806105554
 21
290.8855797059
 31
0.0
  0
ARC
  5
4D4
  8
0
  6
CONTINUOUS
 62
     7
 10
630.7663509808
 20
349.7855805284
 30
0.0
 40
2.000000000000043
 50
0.0
 51
77.6654072805
  0
LINE
  5
4D5
  8
0
  6
CONTINUOUS
 62
     7
 10
632.7663500965
 20
349.7855802334
 30
0.0
 11
632.7663500965
 21
346.7855797416
 31
0.0
  0
LINE
  5
4D6
  8
0
  6
CONTINUOUS
 62
     7
 10
632.7663500965
 20
346.7855797416
 30
0.0
 11
632.7663500965
 21
305.3855811513
 31
0.0
  0
LINE
  5
4D7
  8
0
  6
CONTINUOUS
 62
     7
 10
632.7663500965
 20
305.3855811513
 30
0.0
 11
632.7663500965
 21
302.3855806595
 31
0.0
  0
ARC
  5
4D8
  8
0
  6
CONTINUOUS
 62
     7
 10
630.7663509808
 20
302.3855805284
 30
0.0
 40
1.999999999999975
 50
309.7655702554
 51
0.0
  0
POLYLINE
  5
4D9
  8
0
  6
CONTINUOUS
 62
     7
 66
     1
 10
0.0
 20
0.0
 30
0.0
 70
   128
  0
VERTEX
  5
9E9
  8
0
  6
CONTINUOUS
 62
     7
 10
596.6463823974
 20
298.0855805135
 30
0.0
  0
VERTEX
  5
9EA
  8
0
  6
CONTINUOUS
 62
     7
 10
596.5279926717
 20
298.1078614748
 30
0.0
  0
VERTEX
  5
9EB
  8
0
  6
CONTINUOUS
 62
     7
 10
596.4115549982
 20
298.1743374175
 30
0.0
  0
VERTEX
  5
9EC
  8
0
  6
CONTINUOUS
 62
     7
 10
596.2989916265
 20
298.2839112437
 30
0.0
  0
VERTEX
  5
9ED
  8
0
  6
CONTINUOUS
 62
     7
 10
596.1921652019
 20
298.4347743249
 30
0.0
  0
VERTEX
  5
9EE
  8
0
  6
CONTINUOUS
 62
     7
 10
596.0928340614
 20
298.6244363046
 30
0.0
  0
VERTEX
  5
9EF
  8
0
  6
CONTINUOUS
 62
     7
 10
596.0026373327
 20
298.8497679389
 30
0.0
  0
VERTEX
  5
9F0
  8
0
  6
CONTINUOUS
 62
     7
 10
595.9230725825
 20
299.1070476628
 30
0.0
  0
VERTEX
  5
9F1
  8
0
  6
CONTINUOUS
 62
     7
 10
595.8554362118
 20
299.3920323706
 30
0.0
  0
SEQEND
  5
AF7
  8
0
  6
CONTINUOUS
 62
     7
  0
LINE
  5
4DA
  8
0
  6
CONTINUOUS
 62
     7
 10
623.3182986438
 20
298.0855805135
 30
0.0
 11
596.6463823974
 21
298.0855805135
 31
0.0
  0
ARC
  5
4DB
  8
0
  6
CONTINUOUS
 62
     7
 10
628.4297780324
 20
298.8676259547
 30
0.0
 40
3.53193633218267
 50
148.0573509404
 51
168.2714702335
  0
LINE
  5
4DC
  8
0
  6
CONTINUOUS
 62
     7
 10
625.5197067916
 20
300.8767673081
 30
0.0
 11
625.4326542079
 21
300.7362679845
 31
0.0
  0
LINE
  5
4DD
  8
0
  6
CONTINUOUS
 62
     7
 10
625.4326542079
 20
352.4348930723
 30
0.0
 11
625.5197067916
 21
352.2943937487
 31
0.0
  0
ARC
  5
4DE
  8
0
  6
CONTINUOUS
 62
     7
 10
628.4297780324
 20
354.3035351021
 30
0.0
 40
3.531936332183853
 50
191.7285297665
 51
211.9426490596
  0
LINE
  5
4DF
  8
0
  6
CONTINUOUS
 62
     7
 10
596.6463823974
 20
355.0855805433
 30
0.0
 11
623.3182986438
 21
355.0855805433
 31
0.0
  0
POLYLINE
  5
4E0
  8
0
  6
CONTINUOUS
 62
     7
 66
     1
 10
0.0
 20
0.0
 30
0.0
 70
   128
  0
VERTEX
  5
9F2
  8
0
  6
CONTINUOUS
 62
     7
 10
595.8554362118
 20
353.7791286862
 30
0.0
  0
VERTEX
  5
9F3
  8
0
  6
CONTINUOUS
 62
     7
 10
595.9230725825
 20
354.064113394
 30
0.0
  0
VERTEX
  5
9F4
  8
0
  6
CONTINUOUS
 62
     7
 10
596.0026373327
 20
354.3213931179
 30
0.0
  0
VERTEX
  5
9F5
  8
0
  6
CONTINUOUS
 62
     7
 10
596.0928340614
 20
354.5467247522
 30
0.0
  0
VERTEX
  5
9F6
  8
0
  6
CONTINUOUS
 62
     7
 10
596.1921652019
 20
354.7363867319
 30
0.0
  0
VERTEX
  5
9F7
  8
0
  6
CONTINUOUS
 62
     7
 10
596.2989916265
 20
354.8872498131
 30
0.0
  0
VERTEX
  5
9F8
  8
0
  6
CONTINUOUS
 62
     7
 10
596.4115549982
 20
354.9968236393
 30
0.0
  0
VERTEX
  5
9F9
  8
0
  6
CONTINUOUS
 62
     7
 10
596.5279926717
 20
355.063299582
 30
0.0
  0
VERTEX
  5
9FA
  8
0
  6
CONTINUOUS
 62
     7
 10
596.6463823974
 20
355.0855805433
 30
0.0
  0
SEQEND
  5
AF8
  8
0
  6
CONTINUOUS
 62
     7
  0
ARC
  5
4E1
  8
0
  6
CONTINUOUS
 62
     7
 10
592.1885559215
 20
354.3873711787
 30
0.0
 40
3.71698399155509
 50
328.3125293881
 51
350.5818360842
  0
LINE
  5
4E2
  8
0
  6
CONTINUOUS
 62
     7
 10
595.2596058309
 20
352.2855797118
 30
0.0
 11
595.3514342368
 21
352.4348930723
 31
0.0
  0
LINE
  5
4E3
  8
0
  6
CONTINUOUS
 62
     7
 10
595.3514342368
 20
300.7362679845
 30
0.0
 11
595.2596058309
 21
300.885581345
 31
0.0
  0
ARC
  5
4E4
  8
0
  6
CONTINUOUS
 62
     7
 10
592.1885559215
 20
298.7837898781
 30
0.0
 40
3.716983991553816
 50
9.4181639158
 51
31.6874706119
  0
POLYLINE
  5
4E5
  8
0
  6
CONTINUOUS
 62
     7
 66
     1
 10
0.0
 20
0.0
 30
0.0
 70
   128
  0
VERTEX
  5
9FB
  8
0
  6
CONTINUOUS
 62
     7
 10
593.7705253422
 20
295.585581035
 30
0.0
  0
VERTEX
  5
9FC
  8
0
  6
CONTINUOUS
 62
     7
 10
593.8059826553
 20
295.4188705689
 30
0.0
  0
VERTEX
  5
9FD
  8
0
  6
CONTINUOUS
 62
     7
 10
593.9335887492
 20
294.9642584926
 30
0.0
  0
VERTEX
  5
9FE
  8
0
  6
CONTINUOUS
 62
     7
 10
594.0890749157
 20
294.5911706692
 30
0.0
  0
VERTEX
  5
9FF
  8
0
  6
CONTINUOUS
 62
     7
 10
594.2664657891
 20
294.3139420158
 30
0.0
  0
VERTEX
  5
A00
  8
0
  6
CONTINUOUS
 62
     7
 10
594.4589515388
 20
294.1432231373
 30
0.0
  0
VERTEX
  5
A01
  8
0
  6
CONTINUOUS
 62
     7
 10
594.6591262877
 20
294.0855817205
 30
0.0
  0
SEQEND
  5
AF9
  8
0
  6
CONTINUOUS
 62
     7
  0
LINE
  5
4E6
  8
0
  6
CONTINUOUS
 62
     7
 10
593.6330621302
 20
299.585579828
 30
0.0
 11
593.6330621302
 21
300.885581345
 31
0.0
  0
LINE
  5
4E7
  8
0
  6
CONTINUOUS
 62
     7
 10
593.6330621302
 20
352.2855797118
 30
0.0
 11
593.6330621302
 21
353.5855812288
 31
0.0
  0
POLYLINE
  5
4E8
  8
0
  6
CONTINUOUS
 62
     7
 66
     1
 10
0.0
 20
0.0
 30
0.0
 70
   128
  0
VERTEX
  5
A02
  8
0
  6
CONTINUOUS
 62
     7
 10
594.6591262877
 20
359.0855793363
 30
0.0
  0
VERTEX
  5
A03
  8
0
  6
CONTINUOUS
 62
     7
 10
594.4589515388
 20
359.0279379195
 30
0.0
  0
VERTEX
  5
A04
  8
0
  6
CONTINUOUS
 62
     7
 10
594.2664657891
 20
358.857219041
 30
0.0
  0
VERTEX
  5
A05
  8
0
  6
CONTINUOUS
 62
     7
 10
594.0890749157
 20
358.5799903876
 30
0.0
  0
VERTEX
  5
A06
  8
0
  6
CONTINUOUS
 62
     7
 10
593.9335887492
 20
358.2069025642
 30
0.0
  0
VERTEX
  5
A07
  8
0
  6
CONTINUOUS
 62
     7
 10
593.8059826553
 20
357.7522904879
 30
0.0
  0
VERTEX
  5
A08
  8
0
  6
CONTINUOUS
 62
     7
 10
593.7705253422
 20
357.5855800218
 30
0.0
  0
SEQEND
  5
AFA
  8
0
  6
CONTINUOUS
 62
     7
  0
LINE
  5
4E9
  8
0
  6
CONTINUOUS
 62
     7
 10
594.6591262877
 20
359.0855793363
 30
0.0
 11
624.9479939401
 21
359.0855793363
 31
0.0
  0
LINE
  5
4EA
  8
0
  6
CONTINUOUS
 62
     7
 10
625.2603371799
 20
294.0855817205
 30
0.0
 11
594.6591262877
 21
294.0855817205
 31
0.0
  0
POLYLINE
  5
4EB
  8
0
  6
CONTINUOUS
 62
     7
 66
     1
 10
0.0
 20
0.0
 30
0.0
 70
   128
  0
VERTEX
  5
A09
  8
0
  6
CONTINUOUS
 62
     7
 10
595.5141698182
 20
355.5855796939
 30
0.0
  0
VERTEX
  5
A0A
  8
0
  6
CONTINUOUS
 62
     7
 10
595.462105161
 20
354.8202132142
 30
0.0
  0
VERTEX
  5
A0B
  8
0
  6
CONTINUOUS
 62
     7
 10
595.3138237059
 20
354.1713663644
 30
0.0
  0
VERTEX
  5
A0C
  8
0
  6
CONTINUOUS
 62
     7
 10
595.0919007123
 20
353.7378208047
 30
0.0
  0
VERTEX
  5
A0D
  8
0
  6
CONTINUOUS
 62
     7
 10
594.8301320136
 20
353.5855812288
 30
0.0
  0
SEQEND
  5
AFB
  8
0
  6
CONTINUOUS
 62
     7
  0
POLYLINE
  5
4EC
  8
0
  6
CONTINUOUS
 62
     7
 66
     1
 10
0.0
 20
0.0
 30
0.0
 70
   128
  0
VERTEX
  5
A0E
  8
0
  6
CONTINUOUS
 62
     7
 10
594.8301320136
 20
357.5855800218
 30
0.0
  0
VERTEX
  5
A0F
  8
0
  6
CONTINUOUS
 62
     7
 10
595.0919007123
 20
357.4333404458
 30
0.0
  0
VERTEX
  5
A10
  8
0
  6
CONTINUOUS
 62
     7
 10
595.3138237059
 20
356.9997948861
 30
0.0
  0
VERTEX
  5
A11
  8
0
  6
CONTINUOUS
 62
     7
 10
595.462105161
 20
356.3509480363
 30
0.0
  0
VERTEX
  5
A12
  8
0
  6
CONTINUOUS
 62
     7
 10
595.5141698182
 20
355.5855796939
 30
0.0
  0
SEQEND
  5
AFC
  8
0
  6
CONTINUOUS
 62
     7
  0
POLYLINE
  5
4ED
  8
0
  6
CONTINUOUS
 62
     7
 66
     1
 10
0.0
 20
0.0
 30
0.0
 70
   128
  0
VERTEX
  5
A13
  8
0
  6
CONTINUOUS
 62
     7
 10
595.5141698182
 20
297.5855813629
 30
0.0
  0
VERTEX
  5
A14
  8
0
  6
CONTINUOUS
 62
     7
 10
595.462105161
 20
296.8202130205
 30
0.0
  0
VERTEX
  5
A15
  8
0
  6
CONTINUOUS
 62
     7
 10
595.3138237059
 20
296.1713661707
 30
0.0
  0
VERTEX
  5
A16
  8
0
  6
CONTINUOUS
 62
     7
 10
595.0919007123
 20
295.737820611
 30
0.0
  0
VERTEX
  5
A17
  8
0
  6
CONTINUOUS
 62
     7
 10
594.8301320136
 20
295.585581035
 30
0.0
  0
SEQEND
  5
AFD
  8
0
  6
CONTINUOUS
 62
     7
  0
POLYLINE
  5
4EE
  8
0
  6
CONTINUOUS
 62
     7
 66
     1
 10
0.0
 20
0.0
 30
0.0
 70
   128
  0
VERTEX
  5
A18
  8
0
  6
CONTINUOUS
 62
     7
 10
594.8301320136
 20
299.585579828
 30
0.0
  0
VERTEX
  5
A19
  8
0
  6
CONTINUOUS
 62
     7
 10
595.0919007123
 20
299.4333402521
 30
0.0
  0
VERTEX
  5
A1A
  8
0
  6
CONTINUOUS
 62
     7
 10
595.3138237059
 20
298.9997946924
 30
0.0
  0
VERTEX
  5
A1B
  8
0
  6
CONTINUOUS
 62
     7
 10
595.462105161
 20
298.3509478426
 30
0.0
  0
VERTEX
  5
A1C
  8
0
  6
CONTINUOUS
 62
     7
 10
595.5141698182
 20
297.5855813629
 30
0.0
  0
SEQEND
  5
AFE
  8
0
  6
CONTINUOUS
 62
     7
  0
POLYLINE
  5
4EF
  8
0
  6
CONTINUOUS
 62
     7
 66
     1
 10
0.0
 20
0.0
 30
0.0
 70
   128
  0
VERTEX
  5
A1D
  8
0
  6
CONTINUOUS
 62
     7
 10
624.5495666921
 20
353.5855812288
 30
0.0
  0
VERTEX
  5
A1E
  8
0
  6
CONTINUOUS
 62
     7
 10
624.5931376874
 20
353.4424350864
 30
0.0
  0
VERTEX
  5
A1F
  8
0
  6
CONTINUOUS
 62
     7
 10
624.6357252061
 20
353.2629990286
 30
0.0
  0
SEQEND
  5
AFF
  8
0
  6
CONTINUOUS
 62
     7
  0
ARC
  5
4F0
  8
0
  6
CONTINUOUS
 62
     7
 10
629.350014461
 20
354.0448972368
 30
0.0
 40
4.778691032749008
 50
189.4171835704
 51
211.6878148288
  0
ARC
  5
4F1
  8
0
  6
CONTINUOUS
 62
     7
 10
623.7953279224
 20
350.6090119759
 30
0.0
 40
1.7527669447188
 50
10.3259834566
 51
31.8789822001
  0
ARC
  5
4F2
  8
0
  6
CONTINUOUS
 62
     7
 10
623.7953279224
 20
302.5621490809
 30
0.0
 40
1.752766944718821
 50
328.1210177999
 51
349.6740165434
  0
ARC
  5
4F3
  8
0
  6
CONTINUOUS
 62
     7
 10
629.350014461
 20
299.12626382
 30
0.0
 40
4.778691032748457
 50
148.3121851712
 51
170.5828164296
  0
POLYLINE
  5
4F4
  8
0
  6
CONTINUOUS
 62
     7
 66
     1
 10
0.0
 20
0.0
 30
0.0
 70
   128
  0
VERTEX
  5
A20
  8
0
  6
CONTINUOUS
 62
     7
 10
624.6357252061
 20
299.9081620282
 30
0.0
  0
VERTEX
  5
A21
  8
0
  6
CONTINUOUS
 62
     7
 10
624.5931376874
 20
299.7287259704
 30
0.0
  0
VERTEX
  5
A22
  8
0
  6
CONTINUOUS
 62
     7
 10
624.5495666921
 20
299.585579828
 30
0.0
  0
SEQEND
  5
B00
  8
0
  6
CONTINUOUS
 62
     7
  0
LINE
  5
4F5
  8
0
  6
CONTINUOUS
 62
     7
 10
623.5281665981
 20
299.0855806774
 30
0.0
 11
596.6463823974
 21
299.0855806774
 31
0.0
  0
POLYLINE
  5
4F6
  8
0
  6
CONTINUOUS
 62
     7
 66
     1
 10
0.0
 20
0.0
 30
0.0
 70
   128
  0
VERTEX
  5
A23
  8
0
  6
CONTINUOUS
 62
     7
 10
596.6463823974
 20
299.0855806774
 30
0.0
  0
VERTEX
  5
A24
  8
0
  6
CONTINUOUS
 62
     7
 10
596.5718393385
 20
299.0996101207
 30
0.0
  0
VERTEX
  5
A25
  8
0
  6
CONTINUOUS
 62
     7
 10
596.4985330761
 20
299.1414656198
 30
0.0
  0
VERTEX
  5
A26
  8
0
  6
CONTINUOUS
 62
     7
 10
596.4276557028
 20
299.2104561335
 30
0.0
  0
VERTEX
  5
A27
  8
0
  6
CONTINUOUS
 62
     7
 10
596.3603993118
 20
299.3054435855
 30
0.0
  0
VERTEX
  5
A28
  8
0
  6
CONTINUOUS
 62
     7
 10
596.2978516877
 20
299.4248596287
 30
0.0
  0
VERTEX
  5
A29
  8
0
  6
CONTINUOUS
 62
     7
 10
596.2410633624
 20
299.5667354471
 30
0.0
  0
VERTEX
  5
A2A
  8
0
  6
CONTINUOUS
 62
     7
 10
596.1909656584
 20
299.7287259704
 30
0.0
  0
VERTEX
  5
A2B
  8
0
  6
CONTINUOUS
 62
     7
 10
596.1483781397
 20
299.9081620282
 30
0.0
  0
SEQEND
  5
B01
  8
0
  6
CONTINUOUS
 62
     7
  0
ARC
  5
4F7
  8
0
  6
CONTINUOUS
 62
     7
 10
589.4690297452
 20
298.576853571
 30
0.0
 40
6.810732499819387
 50
11.2723060144
 51
19.8149718987
  0
ARC
  5
4F8
  8
0
  6
CONTINUOUS
 62
     7
 10
589.4690297452
 20
354.5943074858
 30
0.0
 40
6.810732499819403
 50
340.1850281013
 51
348.7276939856
  0
POLYLINE
  5
4F9
  8
0
  6
CONTINUOUS
 62
     7
 66
     1
 10
0.0
 20
0.0
 30
0.0
 70
   128
  0
VERTEX
  5
A2C
  8
0
  6
CONTINUOUS
 62
     7
 10
596.1483781397
 20
353.2629990286
 30
0.0
  0
VERTEX
  5
A2D
  8
0
  6
CONTINUOUS
 62
     7
 10
596.1909656584
 20
353.4424350864
 30
0.0
  0
VERTEX
  5
A2E
  8
0
  6
CONTINUOUS
 62
     7
 10
596.2410633624
 20
353.6044256097
 30
0.0
  0
VERTEX
  5
A2F
  8
0
  6
CONTINUOUS
 62
     7
 10
596.2978516877
 20
353.7463014281
 30
0.0
  0
VERTEX
  5
A30
  8
0
  6
CONTINUOUS
 62
     7
 10
596.3603993118
 20
353.8657174713
 30
0.0
  0
VERTEX
  5
A31
  8
0
  6
CONTINUOUS
 62
     7
 10
596.4276557028
 20
353.9607049233
 30
0.0
  0
VERTEX
  5
A32
  8
0
  6
CONTINUOUS
 62
     7
 10
596.4985330761
 20
354.029695437
 30
0.0
  0
VERTEX
  5
A33
  8
0
  6
CONTINUOUS
 62
     7
 10
596.5718393385
 20
354.0715509361
 30
0.0
  0
VERTEX
  5
A34
  8
0
  6
CONTINUOUS
 62
     7
 10
596.6463823974
 20
354.0855803794
 30
0.0
  0
SEQEND
  5
B02
  8
0
  6
CONTINUOUS
 62
     7
  0
LINE
  5
4FA
  8
0
  6
CONTINUOUS
 62
     7
 10
596.6463823974
 20
354.0855803794
 30
0.0
 11
623.5281665981
 21
354.0855803794
 31
0.0
  0
POLYLINE
  5
4FB
  8
0
  6
CONTINUOUS
 62
     7
 66
     1
 10
0.0
 20
0.0
 30
0.0
 70
   128
  0
VERTEX
  5
A35
  8
0
  6
CONTINUOUS
 62
     7
 10
593.5115357101
 20
352.2855797118
 30
0.0
  0
VERTEX
  5
A36
  8
0
  6
CONTINUOUS
 62
     7
 10
593.1213562548
 20
352.2471514797
 30
0.0
  0
VERTEX
  5
A37
  8
0
  6
CONTINUOUS
 62
     7
 10
593.1115363896
 20
352.2451714879
 30
0.0
  0
SEQEND
  5
B03
  8
0
  6
CONTINUOUS
 62
     7
  0
CIRCLE
  5
4FC
  8
0
  6
CONTINUOUS
 62
     7
 10
608.5115389526
 20
326.5855805284
 30
0.0
 40
11.0
  0
LINE
  5
4FD
  8
0
  6
CONTINUOUS
 62
     7
 10
593.5115357101
 20
352.2855797118
 30
0.0
 11
621.8173940837
 21
352.2855797118
 31
0.0
  0
POLYLINE
  5
4FE
  8
0
  6
CONTINUOUS
 62
     7
 66
     1
 10
0.0
 20
0.0
 30
0.0
 70
   128
  0
VERTEX
  5
A38
  8
0
  6
CONTINUOUS
 62
     7
 10
593.1115363896
 20
300.9259895689
 30
0.0
  0
VERTEX
  5
A39
  8
0
  6
CONTINUOUS
 62
     7
 10
593.1213562548
 20
300.9240095771
 30
0.0
  0
VERTEX
  5
A3A
  8
0
  6
CONTINUOUS
 62
     7
 10
593.5115357101
 20
300.885581345
 30
0.0
  0
SEQEND
  5
B04
  8
0
  6
CONTINUOUS
 62
     7
  0
LINE
  5
4FF
  8
0
  6
CONTINUOUS
 62
     7
 10
621.8173940837
 20
300.885581345
 30
0.0
 11
593.5115357101
 21
300.885581345
 31
0.0
  0
ARC
  5
500
  8
0
  6
CONTINUOUS
 62
     7
 10
495.1115389526
 20
326.5855805284
 30
0.0
 40
36.00000000000003
 50
345.5462043307
 51
74.4537956693
  0
ARC
  5
501
  8
0
  6
CONTINUOUS
 62
     7
 10
484.1229084647
 20
366.0855805284
 30
0.0
 40
4.999999999999988
 50
285.5462043307
 51
357.3947487349
  0
ARC
  5
502
  8
0
  6
CONTINUOUS
 62
     7
 10
534.813857646
 20
316.3520136837
 30
0.0
 40
4.999999999999949
 50
165.5462043307
 51
237.3947487349
  0
ARC
  5
503
  8
0
  6
CONTINUOUS
 62
     7
 10
495.1115389526
 20
326.5855805284
 30
0.0
 40
35.99999999999997
 50
105.5462043307
 51
194.4537956693
  0
ARC
  5
504
  8
0
  6
CONTINUOUS
 62
     7
 10
528.8865297002
 20
307.0855805284
 30
0.0
 40
6.00000000000002
 50
242.6052512651
 51
57.3947487349
  0
ARC
  5
505
  8
0
  6
CONTINUOUS
 62
     7
 10
455.4092202591
 20
316.3520136837
 30
0.0
 40
5.000000000000028
 50
302.6052512651
 51
14.4537956693
  0
ARC
  5
506
  8
0
  6
CONTINUOUS
 62
     7
 10
523.8252271581
 20
297.3191473731
 30
0.0
 40
5.000000000000036
 50
62.6052512651
 51
134.4537956693
  0
ARC
  5
507
  8
0
  6
CONTINUOUS
 62
     7
 10
461.336548205
 20
307.0855805284
 30
0.0
 40
6.000000000000099
 50
122.6052512651
 51
297.3947487349
  0
ARC
  5
508
  8
0
  6
CONTINUOUS
 62
     7
 10
495.1115389526
 20
326.5855805284
 30
0.0
 40
36.00000000000001
 50
225.5462043307
 51
314.4537956693
  0
ARC
  5
509
  8
0
  6
CONTINUOUS
 62
     7
 10
466.3978507471
 20
297.3191473731
 30
0.0
 40
4.999999999999991
 50
45.5462043307
 51
117.3947487349
  0
CIRCLE
  5
50A
  8
0
  6
CONTINUOUS
 62
     7
 10
495.1115389526
 20
326.5855805284
 30
0.0
 40
25.0
  0
CIRCLE
  5
50B
  8
0
  6
CONTINUOUS
 62
     7
 10
528.8865297002
 20
307.0855805284
 30
0.0
 40
2.5
  0
CIRCLE
  5
50C
  8
0
  6
CONTINUOUS
 62
     7
 10
461.336548205
 20
307.0855805284
 30
0.0
 40
2.5
  0
CIRCLE
  5
50D
  8
0
  6
CONTINUOUS
 62
     7
 10
495.1115389526
 20
365.5855805284
 30
0.0
 40
2.500000000000057
  0
ARC
  5
50E
  8
0
  6
CONTINUOUS
 62
     7
 10
495.1115389526
 20
365.5855805284
 30
0.0
 40
6.000000000000078
 50
2.6052512651
 51
177.3947487349
  0
ARC
  5
50F
  8
0
  6
CONTINUOUS
 62
     7
 10
506.1001694405
 20
366.0855805284
 30
0.0
 40
4.999999999999988
 50
182.6052512651
 51
254.4537956693
  0
CIRCLE
  5
510
  8
0
  6
CONTINUOUS
 62
     7
 10
528.8865297002
 20
307.0855805284
 30
0.0
 40
2.100000000000023
  0
CIRCLE
  5
511
  8
0
  6
CONTINUOUS
 62
     7
 10
495.1115389526
 20
365.5855805284
 30
0.0
 40
2.099999999999966
  0
CIRCLE
  5
512
  8
0
  6
CONTINUOUS
 62
     7
 10
461.336548205
 20
307.0855805284
 30
0.0
 40
2.100000000000023
  0
ARC
  5
513
  8
0
  6
CONTINUOUS
 62
     7
 10
495.1115389526
 20
326.5855805284
 30
0.0
 40
61.00000000000001
 50
237.7860739307
 51
302.2139260693
  0
ARC
  5
514
  8
0
  6
CONTINUOUS
 62
     7
 10
457.6418123782
 20
281.5358237772
 30
0.0
 40
8.468334766920952
 50
314.7652966519
 51
342.0870066098
  0
POLYLINE
  5
515
  8
0
  6
CONTINUOUS
 62
     7
 66
     1
 10
0.0
 20
0.0
 30
0.0
 70
   128
  0
VERTEX
  5
A3B
  8
0
  6
CONTINUOUS
 62
     7
 10
526.6178277493
 20
275.5233281559
 30
0.0
  0
VERTEX
  5
A3C
  8
0
  6
CONTINUOUS
 62
     7
 10
526.0761817157
 20
275.9714768535
 30
0.0
  0
VERTEX
  5
A3D
  8
0
  6
CONTINUOUS
 62
     7
 10
525.5138621837
 20
276.790511728
 30
0.0
  0
VERTEX
  5
A3E
  8
0
  6
CONTINUOUS
 62
     7
 10
524.9372934163
 20
277.9665672487
 30
0.0
  0
VERTEX
  5
A3F
  8
0
  6
CONTINUOUS
 62
     7
 10
524.5295380414
 20
278.9167435175
 30
0.0
  0
VERTEX
  5
A40
  8
0
  6
CONTINUOUS
 62
     7
 10
524.5234360158
 20
278.9311976439
 30
0.0
  0
SEQEND
  5
B05
  8
0
  6
CONTINUOUS
 62
     7
  0
LINE
  5
516
  8
0
  6
CONTINUOUS
 62
     7
 10
544.9292202652
 20
265.6115674681
 30
0.0
 11
526.6178277493
 21
275.5233281559
 31
0.0
  0
LINE
  5
517
  8
0
  6
CONTINUOUS
 62
     7
 10
556.0855520129
 20
376.403261841
 30
0.0
 11
546.1737913251
 21
358.0918693251
 31
0.0
  0
POLYLINE
  5
518
  8
0
  6
CONTINUOUS
 62
     7
 66
     1
 10
0.0
 20
0.0
 30
0.0
 70
   128
  0
VERTEX
  5
A41
  8
0
  6
CONTINUOUS
 62
     7
 10
546.1737913251
 20
358.0918693251
 30
0.0
  0
VERTEX
  5
A42
  8
0
  6
CONTINUOUS
 62
     7
 10
545.7256426275
 20
357.5502232915
 30
0.0
  0
VERTEX
  5
A43
  8
0
  6
CONTINUOUS
 62
     7
 10
544.906607753
 20
356.9879037595
 30
0.0
  0
VERTEX
  5
A44
  8
0
  6
CONTINUOUS
 62
     7
 10
543.7305522323
 20
356.4113349921
 30
0.0
  0
VERTEX
  5
A45
  8
0
  6
CONTINUOUS
 62
     7
 10
542.7803759635
 20
356.0035796172
 30
0.0
  0
VERTEX
  5
A46
  8
0
  6
CONTINUOUS
 62
     7
 10
542.7659218371
 20
355.9974775917
 30
0.0
  0
SEQEND
  5
B06
  8
0
  6
CONTINUOUS
 62
     7
  0
LINE
  5
519
  8
0
  6
CONTINUOUS
 62
     7
 10
434.1375258923
 20
276.7678992158
 30
0.0
 11
444.0492865801
 21
295.0792917317
 31
0.0
  0
POLYLINE
  5
51A
  8
0
  6
CONTINUOUS
 62
     7
 66
     1
 10
0.0
 20
0.0
 30
0.0
 70
   128
  0
VERTEX
  5
A47
  8
0
  6
CONTINUOUS
 62
     7
 10
444.0492865801
 20
295.0792917317
 30
0.0
  0
VERTEX
  5
A48
  8
0
  6
CONTINUOUS
 62
     7
 10
444.4974352777
 20
295.6209377653
 30
0.0
  0
VERTEX
  5
A49
  8
0
  6
CONTINUOUS
 62
     7
 10
445.3164701521
 20
296.1832572973
 30
0.0
  0
VERTEX
  5
A4A
  8
0
  6
CONTINUOUS
 62
     7
 10
446.4925256729
 20
296.7598260647
 30
0.0
  0
VERTEX
  5
A4B
  8
0
  6
CONTINUOUS
 62
     7
 10
447.4427019417
 20
297.1675814396
 30
0.0
  0
VERTEX
  5
A4C
  8
0
  6
CONTINUOUS
 62
     7
 10
447.4571560681
 20
297.1736834651
 30
0.0
  0
SEQEND
  5
B07
  8
0
  6
CONTINUOUS
 62
     7
  0
ARC
  5
51B
  8
0
  6
CONTINUOUS
 62
     7
 10
495.1115389526
 20
326.5855805284
 30
0.0
 40
61.00000000000006
 50
327.7860739307
 51
32.2139260693
  0
ARC
  5
51C
  8
0
  6
CONTINUOUS
 62
     7
 10
540.1612957038
 20
289.115853954
 30
0.0
 40
8.468334766919911
 50
44.7652966519
 51
72.0870066098
  0
LINE
  5
51D
  8
0
  6
CONTINUOUS
 62
     7
 10
445.29385764
 20
387.5595935887
 30
0.0
 11
463.6052501559
 21
377.6478329009
 31
0.0
  0
POLYLINE
  5
51E
  8
0
  6
CONTINUOUS
 62
     7
 66
     1
 10
0.0
 20
0.0
 30
0.0
 70
   128
  0
VERTEX
  5
A4D
  8
0
  6
CONTINUOUS
 62
     7
 10
463.6052501559
 20
377.6478329009
 30
0.0
  0
VERTEX
  5
A4E
  8
0
  6
CONTINUOUS
 62
     7
 10
464.1468961895
 20
377.1996842033
 30
0.0
  0
VERTEX
  5
A4F
  8
0
  6
CONTINUOUS
 62
     7
 10
464.7092157215
 20
376.3806493288
 30
0.0
  0
VERTEX
  5
A50
  8
0
  6
CONTINUOUS
 62
     7
 10
465.2857844889
 20
375.2045938081
 30
0.0
  0
VERTEX
  5
A51
  8
0
  6
CONTINUOUS
 62
     7
 10
465.6935398638
 20
374.2544175393
 30
0.0
  0
VERTEX
  5
A52
  8
0
  6
CONTINUOUS
 62
     7
 10
465.6996418893
 20
374.2399634129
 30
0.0
  0
SEQEND
  5
B08
  8
0
  6
CONTINUOUS
 62
     7
  0
ARC
  5
51F
  8
0
  6
CONTINUOUS
 62
     7
 10
495.1115389526
 20
326.5855805284
 30
0.0
 40
61.00000000000001
 50
147.7860739307
 51
212.2139260693
  0
ARC
  5
520
  8
0
  6
CONTINUOUS
 62
     7
 10
450.0617822014
 20
364.0553071028
 30
0.0
 40
8.468334766920954
 50
224.7652966519
 51
252.0870066098
  0
ARC
  5
521
  8
0
  6
CONTINUOUS
 62
     7
 10
495.1115389526
 20
326.5855805284
 30
0.0
 40
60.99999999999999
 50
57.7860739307
 51
122.2139260693
  0
ARC
  5
522
  8
0
  6
CONTINUOUS
 62
     7
 10
532.5812655268
 20
371.6353372797
 30
0.0
 40
8.468334766730983
 50
134.7652966516
 51
162.0870066101
  0
LINE
  5
523
  8
0
  6
CONTINUOUS
 62
     7
 10
444.0492865801
 20
358.0918693251
 30
0.0
 11
434.1375258923
 21
376.403261841
 31
0.0
  0
LINE
  5
524
  8
0
  6
CONTINUOUS
 62
     7
 10
463.6052501559
 20
275.5233281559
 30
0.0
 11
445.29385764
 21
265.6115674681
 31
0.0
  0
LINE
  5
525
  8
0
  6
CONTINUOUS
 62
     7
 10
546.1737913251
 20
295.0792917317
 30
0.0
 11
556.0855520129
 21
276.7678992158
 31
0.0
  0
LINE
  5
526
  8
0
  6
CONTINUOUS
 62
     7
 10
526.6178277493
 20
377.6478329009
 30
0.0
 11
544.9292202652
 21
387.5595935887
 31
0.0
  0
ARC
  5
527
  8
0
  6
CONTINUOUS
 62
     7
 10
495.1115389526
 20
326.5855805284
 30
0.0
 40
80.00000000000003
 50
130.6090428911
 51
139.3909571089
  0
ARC
  5
528
  8
0
  6
CONTINUOUS
 62
     7
 10
444.3418035517
 20
267.3704307158
 30
0.0
 40
1.999999999999986
 50
229.3909571089
 51
298.4262004732
  0
ARC
  5
529
  8
0
  6
CONTINUOUS
 62
     7
 10
495.1115389526
 20
326.5855805284
 30
0.0
 40
80.00000000000001
 50
310.6090428911
 51
319.3909571089
  0
ARC
  5
52A
  8
0
  6
CONTINUOUS
 62
     7
 10
435.89638914
 20
275.8158451275
 30
0.0
 40
2.000000000000016
 50
151.5737995268
 51
220.6090428911
  0
ARC
  5
52B
  8
0
  6
CONTINUOUS
 62
     7
 10
495.1115389526
 20
326.5855805284
 30
0.0
 40
80.0
 50
220.6090428911
 51
229.3909571089
  0
ARC
  5
52C
  8
0
  6
CONTINUOUS
 62
     7
 10
435.89638914
 20
377.3553159293
 30
0.0
 40
2.000000000000016
 50
139.3909571089
 51
208.4262004732
  0
ARC
  5
52D
  8
0
  6
CONTINUOUS
 62
     7
 10
444.3418035517
 20
385.800730341
 30
0.0
 40
2.000000000000013
 50
61.5737995268
 51
130.6090428911
  0
ARC
  5
52E
  8
0
  6
CONTINUOUS
 62
     7
 10
545.8812743535
 20
267.3704307158
 30
0.0
 40
2.000000000000048
 50
241.5737995268
 51
310.6090428911
  0
ARC
  5
52F
  8
0
  6
CONTINUOUS
 62
     7
 10
554.3266887652
 20
377.3553159293
 30
0.0
 40
2.000000000000016
 50
331.5737995268
 51
40.6090428911
  0
ARC
  5
530
  8
0
  6
CONTINUOUS
 62
     7
 10
495.1115389526
 20
326.5855805284
 30
0.0
 40
80.00000000000004
 50
40.6090428911
 51
49.3909571089
  0
ARC
  5
531
  8
0
  6
CONTINUOUS
 62
     7
 10
545.8812743535
 20
385.800730341
 30
0.0
 40
2.000000000000016
 50
49.3909571089
 51
118.4262004732
  0
ARC
  5
532
  8
0
  6
CONTINUOUS
 62
     7
 10
554.3266887652
 20
275.8158451275
 30
0.0
 40
1.99999999999993
 50
319.3909571089
 51
28.4262004732
  0
ARC
  5
533
  8
0
  6
CONTINUOUS
 62
     7
 10
495.1115389526
 20
326.5855805284
 30
0.0
 40
61.00000000000005
 50
0.0
 51
32.2139260693
  0
ARC
  5
534
  8
0
  6
CONTINUOUS
 62
     7
 10
495.1115389526
 20
326.5855805284
 30
0.0
 40
61.00000000000006
 50
327.7860739307
 51
0.0
  0
ARC
  5
535
  8
0
  6
CONTINUOUS
 62
     7
 10
506.3809666222
 20
263.5855805284
 30
0.0
 40
3.0
 50
90.0
 51
100.1417933657
  0
ARC
  5
536
  8
0
  6
CONTINUOUS
 62
     7
 10
483.842111283
 20
263.5855805284
 30
0.0
 40
3.000000000000003
 50
79.8582066343
 51
90.0
  0
ARC
  5
537
  8
0
  6
CONTINUOUS
 62
     7
 10
463.320013372
 20
388.5856462303
 30
0.0
 40
2.001240681393015
 50
270.023748582
 51
308.0811028954
  0
ARC
  5
538
  8
0
  6
CONTINUOUS
 62
     7
 10
526.9030645332
 20
388.5856462303
 30
0.0
 40
2.0012406813929
 50
231.9188971046
 51
269.976251418
  0
ARC
  5
539
  8
0
  6
CONTINUOUS
 62
     7
 10
552.4742216699
 20
293.9432363805
 30
0.0
 40
4.999999999999996
 50
150.3578770506
 51
208.4262004732
  0
ARC
  5
53A
  8
0
  6
CONTINUOUS
 62
     7
 10
437.7488562352
 20
359.2279246763
 30
0.0
 40
5.000000000000146
 50
330.3578770506
 51
28.4262004732
  0
LINE
  5
53B
  8
0
  6
CONTINUOUS
 62
     7
 10
526.9075174987
 20
386.5855791873
 30
0.0
 11
543.1297932923
 21
386.5855791873
 31
0.0
  0
LINE
  5
53C
  8
0
  6
CONTINUOUS
 62
     7
 10
483.8421111167
 20
266.5855818695
 30
0.0
 11
447.0932846129
 21
266.5855818695
 31
0.0
  0
LINE
  5
53D
  8
0
  6
CONTINUOUS
 62
     7
 10
495.1115389526
 20
387.5855812139
 30
0.0
 11
500.8151679471
 21
387.5855812139
 31
0.0
  0
LINE
  5
53E
  8
0
  6
CONTINUOUS
 62
     7
 10
489.4079099581
 20
387.5855812139
 30
0.0
 11
495.1115389526
 21
387.5855812139
 31
0.0
  0
LINE
  5
53F
  8
0
  6
CONTINUOUS
 62
     7
 10
447.0932846129
 20
386.5855791873
 30
0.0
 11
463.3155604064
 21
386.5855791873
 31
0.0
  0
LINE
  5
540
  8
0
  6
CONTINUOUS
 62
     7
 10
543.1297932923
 20
266.5855818695
 30
0.0
 11
506.3809667885
 21
266.5855818695
 31
0.0
  0
ARC
  5
541
  8
0
  6
CONTINUOUS
 62
     7
 10
503.95610795
 20
695.5449349954
 30
0.0
 40
307.9753709075513
 50
269.4156489682
 51
271.1866666616
  0
ARC
  5
542
  8
0
  6
CONTINUOUS
 62
     7
 10
552.4742216699
 20
359.2279246763
 30
0.0
 40
4.999999999999996
 50
151.5737995268
 51
209.6421229494
  0
ARC
  5
543
  8
0
  6
CONTINUOUS
 62
     7
 10
437.7488562352
 20
293.9432363805
 30
0.0
 40
5.000000000000146
 50
331.5737995268
 51
29.6421229494
  0
POLYLINE
  5
544
  8
0
  6
CONTINUOUS
 62
     7
 66
     1
 10
0.0
 20
0.0
 30
0.0
 70
   128
  0
VERTEX
  5
A53
  8
0
  6
CONTINUOUS
 62
     7
 10
479.8888740301
 20
387.6356155879
 30
0.0
  0
VERTEX
  5
A54
  8
0
  6
CONTINUOUS
 62
     7
 10
480.7408050805
 20
387.6345091766
 30
0.0
  0
VERTEX
  5
A55
  8
0
  6
CONTINUOUS
 62
     7
 10
485.0763240069
 20
387.6066812581
 30
0.0
  0
VERTEX
  5
A56
  8
0
  6
CONTINUOUS
 62
     7
 10
489.4079099581
 20
387.5855812139
 30
0.0
  0
SEQEND
  5
B09
  8
0
  6
CONTINUOUS
 62
     7
  0
ARC
  5
545
  8
0
  6
CONTINUOUS
 62
     7
 10
485.7896648618
 20
261.247209999
 30
0.0
 40
5.000000000000044
 50
3.8140748343
 51
81.8803640556
  0
ARC
  5
546
  8
0
  6
CONTINUOUS
 62
     7
 10
504.4334130434
 20
261.247209999
 30
0.0
 40
5.000000000000044
 50
98.1196359444
 51
176.1859251657
  0
LINE
  5
547
  8
0
  6
CONTINUOUS
 62
     7
 10
485.1115391761
 20
407.5855807668
 30
0.0
 11
505.1115387291
 21
407.5855807668
 31
0.0
  0
ARC
  5
548
  8
0
  6
CONTINUOUS
 62
     7
 10
505.1099017021
 20
386.5837953188
 30
0.0
 40
21.00178551184506
 50
4.9930072042
 51
89.9955339636
  0
ARC
  5
549
  8
0
  6
CONTINUOUS
 62
     7
 10
485.1131762031
 20
386.5837953188
 30
0.0
 40
21.00178551184495
 50
90.0044660364
 51
175.0069927958
  0
ARC
  5
54A
  8
0
  6
CONTINUOUS
 62
     7
 10
462.1986604778
 20
388.5855805284
 30
0.0
 40
2.000000000000049
 50
270.0
 51
355.0114580244
  0
ARC
  5
54B
  8
0
  6
CONTINUOUS
 62
     7
 10
528.0244174274
 20
388.5855805284
 30
0.0
 40
1.999999999999982
 50
184.9885419756
 51
270.0
  0
LINE
  5
54C
  8
0
  6
CONTINUOUS
 62
     7
 10
499.4444874287
 20
261.5798087126
 30
0.0
 11
499.2880149916
 21
259.2327193624
 31
0.0
  0
LINE
  5
54D
  8
0
  6
CONTINUOUS
 62
     7
 10
490.9350629136
 20
259.2327193624
 30
0.0
 11
490.7785904765
 21
261.5798087126
 31
0.0
  0
ARC
  5
54E
  8
0
  6
CONTINUOUS
 62
     7
 10
492.9826451364
 20
258.5855805284
 30
0.0
 40
2.000000000000008
 50
183.8140748343
 51
270.0
  0
POLYLINE
  5
54F
  8
0
  6
CONTINUOUS
 62
     7
 66
     1
 10
0.0
 20
0.0
 30
0.0
 70
   128
  0
VERTEX
  5
A57
  8
0
  6
CONTINUOUS
 62
     7
 10
490.9350629136
 20
259.2327193624
 30
0.0
  0
VERTEX
  5
A58
  8
0
  6
CONTINUOUS
 62
     7
 10
490.9572274596
 20
258.9002521044
 30
0.0
  0
VERTEX
  5
A59
  8
0
  6
CONTINUOUS
 62
     7
 10
490.9736192025
 20
258.6543754941
 30
0.0
  0
VERTEX
  5
A5A
  8
0
  6
CONTINUOUS
 62
     7
 10
490.9836821429
 20
258.5034341818
 30
0.0
  0
VERTEX
  5
A5B
  8
0
  6
CONTINUOUS
 62
     7
 10
490.9870749511
 20
258.4525392658
 30
0.0
  0
SEQEND
  5
B0A
  8
0
  6
CONTINUOUS
 62
     7
  0
ARC
  5
550
  8
0
  6
CONTINUOUS
 62
     7
 10
497.2404327688
 20
258.5855805284
 30
0.0
 40
2.000000000000008
 50
270.0
 51
356.1859251657
  0
POLYLINE
  5
551
  8
0
  6
CONTINUOUS
 62
     7
 66
     1
 10
0.0
 20
0.0
 30
0.0
 70
   128
  0
VERTEX
  5
A5C
  8
0
  6
CONTINUOUS
 62
     7
 10
499.2360029541
 20
258.4525392658
 30
0.0
  0
VERTEX
  5
A5D
  8
0
  6
CONTINUOUS
 62
     7
 10
499.2393957622
 20
258.5034341818
 30
0.0
  0
VERTEX
  5
A5E
  8
0
  6
CONTINUOUS
 62
     7
 10
499.2494587027
 20
258.6543754941
 30
0.0
  0
VERTEX
  5
A5F
  8
0
  6
CONTINUOUS
 62
     7
 10
499.2658504456
 20
258.9002521044
 30
0.0
  0
VERTEX
  5
A60
  8
0
  6
CONTINUOUS
 62
     7
 10
499.2880149916
 20
259.2327193624
 30
0.0
  0
SEQEND
  5
B0B
  8
0
  6
CONTINUOUS
 62
     7
  0
LINE
  5
552
  8
0
  6
CONTINUOUS
 62
     7
 10
497.2404326949
 20
256.5855802304
 30
0.0
 11
492.9826452103
 21
256.5855802304
 31
0.0
  0
POLYLINE
  5
553
  8
0
  6
CONTINUOUS
 62
     7
 66
     1
 10
0.0
 20
0.0
 30
0.0
 70
   128
  0
VERTEX
  5
A61
  8
0
  6
CONTINUOUS
 62
     7
 10
485.1115391761
 20
410.9952942735
 30
0.0
  0
VERTEX
  5
A62
  8
0
  6
CONTINUOUS
 62
     7
 10
495.1130747255
 20
411.5855814225
 30
0.0
  0
VERTEX
  5
A63
  8
0
  6
CONTINUOUS
 62
     7
 10
505.1115387291
 20
410.9952942735
 30
0.0
  0
SEQEND
  5
B0C
  8
0
  6
CONTINUOUS
 62
     7
  0
ARC
  5
554
  8
0
  6
CONTINUOUS
 62
     7
 10
495.1116555936
 20
326.5861757708
 30
0.0
 40
84.99939381622536
 50
72.9017369019
 51
83.2437038873
  0
POLYLINE
  5
555
  8
0
  6
CONTINUOUS
 62
     7
 66
     1
 10
0.0
 20
0.0
 30
0.0
 70
   128
  0
VERTEX
  5
A64
  8
0
  6
CONTINUOUS
 62
     7
 10
470.120635739
 20
407.8287602669
 30
0.0
  0
VERTEX
  5
A65
  8
0
  6
CONTINUOUS
 62
     7
 10
477.5139660746
 20
409.7440139657
 30
0.0
  0
VERTEX
  5
A66
  8
0
  6
CONTINUOUS
 62
     7
 10
485.1115391761
 20
410.9952942735
 30
0.0
  0
SEQEND
  5
B0D
  8
0
  6
CONTINUOUS
 62
     7
  0
ARC
  5
556
  8
0
  6
CONTINUOUS
 62
     7
 10
495.1115389526
 20
326.5855805284
 30
0.0
 40
84.99999999999997
 50
107.0982198349
 51
72.9017801651
  0
ARC
  5
557
  8
0
  6
CONTINUOUS
 62
     7
 10
558.4143824906
 20
233.5855805284
 30
0.0
 40
4.999999999999972
 50
270.0
 51
304.2421687026
  0
LINE
  5
558
  8
0
  6
CONTINUOUS
 62
     7
 10
558.4143837154
 20
228.5855830914
 30
0.0
 11
431.8086941898
 21
228.5855830914
 31
0.0
  0
ARC
  5
559
  8
0
  6
CONTINUOUS
 62
     7
 10
431.8086954146
 20
233.5855805284
 30
0.0
 40
5.000000000000055
 50
235.7578312974
 51
270.0
  0
ARC
  5
55A
  8
0
  6
CONTINUOUS
 62
     7
 10
495.1115389526
 20
326.5855805284
 30
0.0
 40
117.5
 50
214.2421687026
 51
235.7578312974
  0
ARC
  5
55B
  8
0
  6
CONTINUOUS
 62
     7
 10
402.1115389526
 20
263.2827369904
 30
0.0
 40
4.999999999999966
 50
180.0
 51
214.2421687026
  0
LINE
  5
55C
  8
0
  6
CONTINUOUS
 62
     7
 10
397.1115415156
 20
263.2827357656
 30
0.0
 11
397.1115415156
 21
389.8884252912
 31
0.0
  0
ARC
  5
55D
  8
0
  6
CONTINUOUS
 62
     7
 10
402.1115389526
 20
389.8884240664
 30
0.0
 40
5.0
 50
145.7578312974
 51
180.0
  0
ARC
  5
55E
  8
0
  6
CONTINUOUS
 62
     7
 10
495.1115389526
 20
326.5855805284
 30
0.0
 40
117.5
 50
124.2421687026
 51
145.7578312974
  0
ARC
  5
55F
  8
0
  6
CONTINUOUS
 62
     7
 10
431.8086954146
 20
419.5855805284
 30
0.0
 40
5.000000000000057
 50
90.0
 51
124.2421687026
  0
LINE
  5
560
  8
0
  6
CONTINUOUS
 62
     7
 10
431.8086941898
 20
424.5855779654
 30
0.0
 11
456.1115381479
 21
424.5855779654
 31
0.0
  0
ARC
  5
561
  8
0
  6
CONTINUOUS
 62
     7
 10
456.1115389526
 20
429.5855805284
 30
0.0
 40
5.00000000000005
 50
270.0
 51
318.1896851042
  0
ARC
  5
562
  8
0
  6
CONTINUOUS
 62
     7
 10
460.5836749076
 20
425.5855805284
 30
0.0
 40
1.0
 50
90.0
 51
138.1896851042
  0
LINE
  5
563
  8
0
  6
CONTINUOUS
 62
     7
 10
460.5836746454
 20
426.5855820185
 30
0.0
 11
529.6394032598
 21
426.5855820185
 31
0.0
  0
ARC
  5
564
  8
0
  6
CONTINUOUS
 62
     7
 10
529.6394029976
 20
425.5855805284
 30
0.0
 40
1.000000000000023
 50
41.8103148954
 51
90.0
  0
ARC
  5
565
  8
0
  6
CONTINUOUS
 62
     7
 10
534.1115389526
 20
429.5855805284
 30
0.0
 40
5.0
 50
221.8103148958
 51
270.0
  0
LINE
  5
566
  8
0
  6
CONTINUOUS
 62
     7
 10
534.1115397573
 20
424.5855779654
 30
0.0
 11
558.4143837154
 21
424.5855779654
 31
0.0
  0
ARC
  5
567
  8
0
  6
CONTINUOUS
 62
     7
 10
558.4143824906
 20
419.5855805284
 30
0.0
 40
5.000000000000057
 50
55.7578312974
 51
90.0
  0
ARC
  5
568
  8
0
  6
CONTINUOUS
 62
     7
 10
495.1115389526
 20
326.5855805284
 30
0.0
 40
117.5000000000001
 50
34.2421687026
 51
55.7578312974
  0
ARC
  5
569
  8
0
  6
CONTINUOUS
 62
     7
 10
588.1115389526
 20
389.8884240664
 30
0.0
 40
5.00000000000014
 50
0.0
 51
34.2421687026
  0
LINE
  5
56A
  8
0
  6
CONTINUOUS
 62
     7
 10
593.1115363896
 20
389.8884252912
 30
0.0
 11
593.1115363896
 21
263.2827357656
 31
0.0
  0
ARC
  5
56B
  8
0
  6
CONTINUOUS
 62
     7
 10
588.1115389526
 20
263.2827369904
 30
0.0
 40
5.000000000000108
 50
325.7578312974
 51
0.0
  0
ARC
  5
56C
  8
0
  6
CONTINUOUS
 62
     7
 10
495.1115389526
 20
326.5855805284
 30
0.0
 40
117.5000000000001
 50
304.2421687026
 51
325.7578312974
  0
CIRCLE
  5
56D
  8
0
  6
CONTINUOUS
 62
     7
 10
419.097559975
 20
402.599559506
 30
0.0
 40
6.0
  0
CIRCLE
  5
56E
  8
0
  6
CONTINUOUS
 62
     7
 10
419.097559975
 20
250.5716015508
 30
0.0
 40
5.999999999999943
  0
CIRCLE
  5
56F
  8
0
  6
CONTINUOUS
 62
     7
 10
571.1255179301
 20
250.5716015508
 30
0.0
 40
6.0
  0
CIRCLE
  5
570
  8
0
  6
CONTINUOUS
 62
     7
 10
571.1255179301
 20
402.599559506
 30
0.0
 40
5.999999999999886
  0
CIRCLE
  5
571
  8
0
  6
CONTINUOUS
 62
     7
 10
550.7530616971
 20
237.540530432
 30
0.0
 40
4.0
  0
CIRCLE
  5
572
  8
0
  6
CONTINUOUS
 62
     7
 10
439.4700162081
 20
415.6306306248
 30
0.0
 40
3.999999999999943
  0
INSERT
  5
59A
  8
SLD-0
 62
    11
  2
SW_CENTERMARKSYMBOL_1
 10
419.097559975
 20
402.599559506
 30
0.0
  0
INSERT
  5
5A6
  8
SLD-0
 62
    11
  2
SW_CENTERMARKSYMBOL_2
 10
608.5115389526
 20
326.5855805284
 30
0.0
  0
ENDSEC
  0
EOF
