  0
SECTION
  2
HEADER
  9
$ACADVER
  1
AC1009
  9
$DWGCODEPAGE
  3
dos932
  9
$INSBASE
 10
0.0
 20
0.0
 30
0.0
  9
$EXTMIN
 10
0.0
 20
0.0
 30
0.0
  9
$EXTMAX
 10
1050.0
 20
1485.0
 30
0.0
  9
$LIMMIN
 10
0.0
 20
0.0
  9
$LIMMAX
 10
1050.0
 20
1485.0
  9
$ORTHOMODE
 70
     0
  9
$REGENMODE
 70
     1
  9
$FILLMODE
 70
     1
  9
$QTEXTMODE
 70
     0
  9
$MIRRTEXT
 70
     1
  9
$DRAGMODE
 70
     2
  9
$LTSCALE
 40
5.0
  9
$OSMODE
 70
    37
  9
$ATTMODE
 70
     1
  9
$TEXTSIZE
 40
17.5
  9
$TRACEWID
 40
1.0
  9
$TEXTSTYLE
  7
STANDARD
  9
$CLAYER
  8
0
  9
$CELTYPE
  6
BYLAYER
  9
$CECOLOR
 62
   256
  9
$DIMSCALE
 40
1.0
  9
$DIMASZ
 40
12.5
  9
$DIMEXO
 40
5.0
  9
$DIMDLI
 40
3.75
  9
$DIMRND
 40
0.0
  9
$DIMDLE
 40
0.0
  9
$DIMEXE
 40
5.0
  9
$DIMTP
 40
0.0
  9
$DIMTM
 40
0.0
  9
$DIMTXT
 40
17.5
  9
$DIMCEN
 40
2.5
  9
$DIMTSZ
 40
0.0
  9
$DIMTOL
 70
     0
  9
$DIMLIM
 70
     0
  9
$DIMTIH
 70
     1
  9
$DIMTOH
 70
     1
  9
$DIMSE1
 70
     0
  9
$DIMSE2
 70
     0
  9
$DIMTAD
 70
     1
  9
$DIMZIN
 70
     1
  9
$DIMBLK
  1

  9
$DIMASO
 70
     1
  9
$DIMSHO
 70
     1
  9
$DIMPOST
  1

  9
$DIMAPOST
  1

  9
$DIMALT
 70
     0
  9
$DIMALTD
 70
     3
  9
$DIMALTF
 40
0.0393700787
  9
$DIMLFAC
 40
1.0
  9
$DIMTOFL
 70
     1
  9
$DIMTVP
 40
0.0
  9
$DIMTIX
 70
     0
  9
$DIMSOXD
 70
     0
  9
$DIMSAH
 70
     0
  9
$DIMBLK1
  1

  9
$DIMBLK2
  1

  9
$DIMSTYLE
  2
ISO-25
  9
$DIMCLRD
 70
     0
  9
$DIMCLRE
 70
     0
  9
$DIMCLRT
 70
     0
  9
$DIMTFAC
 40
1.0
  9
$DIMGAP
 40
7.62
  9
$LUNITS
 70
     2
  9
$LUPREC
 70
     0
  9
$SKETCHINC
 40
1.0
  9
$FILLETRAD
 40
10.0
  9
$AUNITS
 70
     0
  9
$AUPREC
 70
     0
  9
$MENU
  1
.
  9
$ELEVATION
 40
0.0
  9
$PELEVATION
 40
0.0
  9
$THICKNESS
 40
0.0
  9
$LIMCHECK
 70
     0
  9
$CHAMFERA
 40
0.0
  9
$CHAMFERB
 40
0.0
  9
$SKPOLY
 70
     0
  9
$TDCREATE
 40
2458088.797973993
  9
$TDUPDATE
 40
2458088.797975428
  9
$TDINDWG
 40
0.0000000116
  9
$TDUSRTIMER
 40
0.0000000116
  9
$USRTIMER
 70
     1
  9
$ANGBASE
 50
0.0
  9
$ANGDIR
 70
     0
  9
$PDMODE
 70
     0
  9
$PDSIZE
 40
-1.0
  9
$PLINEWID
 40
0.0
  9
$COORDS
 70
     1
  9
$SPLFRAME
 70
     0
  9
$SPLINETYPE
 70
     6
  9
$SPLINESEGS
 70
     8
  9
$ATTDIA
 70
     0
  9
$ATTREQ
 70
     1
  9
$HANDLING
 70
     1
  9
$HANDSEED
  5
A33
  9
$SURFTAB1
 70
     6
  9
$SURFTAB2
 70
     6
  9
$SURFTYPE
 70
     6
  9
$SURFU
 70
     6
  9
$SURFV
 70
     6
  9
$UCSNAME
  2

  9
$UCSORG
 10
0.0
 20
0.0
 30
0.0
  9
$UCSXDIR
 10
1.0
 20
0.0
 30
0.0
  9
$UCSYDIR
 10
0.0
 20
1.0
 30
0.0
  9
$PUCSNAME
  2

  9
$PUCSORG
 10
0.0
 20
0.0
 30
0.0
  9
$PUCSXDIR
 10
1.0
 20
0.0
 30
0.0
  9
$PUCSYDIR
 10
0.0
 20
1.0
 30
0.0
  9
$USERI1
 70
     0
  9
$USERI2
 70
     0
  9
$USERI3
 70
     0
  9
$USERI4
 70
     0
  9
$USERI5
 70
     0
  9
$USERR1
 40
0.0
  9
$USERR2
 40
0.0
  9
$USERR3
 40
0.0
  9
$USERR4
 40
0.0
  9
$USERR5
 40
0.0
  9
$WORLDVIEW
 70
     1
  9
$SHADEDGE
 70
     3
  9
$SHADEDIF
 70
    70
  9
$TILEMODE
 70
     1
  9
$MAXACTVP
 70
    64
  9
$PLIMCHECK
 70
     0
  9
$PEXTMIN
 10
1.0000000000E+20
 20
1.0000000000E+20
 30
1.0000000000E+20
  9
$PEXTMAX
 10
-1.0000000000E+20
 20
-1.0000000000E+20
 30
-1.0000000000E+20
  9
$PLIMMIN
 10
0.0
 20
0.0
  9
$PLIMMAX
 10
420.0
 20
297.0
  9
$UNITMODE
 70
     0
  9
$VISRETAIN
 70
     1
  9
$PLINEGEN
 70
     0
  9
$PSLTSCALE
 70
     1
  0
ENDSEC
  0
SECTION
  2
TABLES
  0
TABLE
  2
VPORT
 70
     1
  0
VPORT
  2
*ACTIVE
 70
     0
 10
0.0
 20
0.0
 11
1.0
 21
1.0
 12
525.0
 22
742.5
 13
0.0
 23
0.0
 14
10.0
 24
10.0
 15
10.0
 25
10.0
 16
0.0
 26
0.0
 36
1.0
 17
0.0
 27
0.0
 37
0.0
 40
1485.0
 41
0.7070707071
 42
50.0
 43
0.0
 44
0.0
 50
0.0
 51
0.0
 71
     0
 72
  2000
 73
     1
 74
     3
 75
     0
 76
     0
 77
     0
 78
     0
  0
ENDTAB
  0
TABLE
  2
LTYPE
 70
     6
  0
LTYPE
  2
CONTINUOUS
 70
     0
  3
Solid line
 72
    65
 73
     0
 40
0.0
  0
LTYPE
  2
HIDDEN
 70
     0
  3
Hidden __ __ __ __ __ __ __ __ __ __ __ __ __ __
 72
    65
 73
     2
 40
1.905
 49
1.27
 49
-0.635
  0
LTYPE
  2
PHANTOM
 70
     0
  3
Phantom ______  __  __  ______  __  __  ______
 72
    65
 73
     6
 40
12.7
 49
6.35
 49
-1.27
 49
1.27
 49
-1.27
 49
1.27
 49
-1.27
  0
LTYPE
  2
CENTER
 70
     0
  3
Center ____ _ ____ _ ____ _ ____ _ ____ _ ____
 72
    65
 73
     4
 40
10.16
 49
6.35
 49
-1.27
 49
1.27
 49
-1.27
  0
LTYPE
  2
CENTERX2
 70
     0
  3
Center (2x) ________  __  ________  __  _____
 72
    65
 73
     4
 40
20.32
 49
12.7
 49
-2.54
 49
2.54
 49
-2.54
  0
LTYPE
  2
DOT2
 70
     0
  3
Dot (.5x) ........................................
 72
    65
 73
     2
 40
0.635
 49
0.0
 49
-0.635
  0
ENDTAB
  0
TABLE
  2
LAYER
 70
    11
  0
LAYER
  2
0
 70
     0
 62
     7
  6
CONTINUOUS
  0
LAYER
  2
SLD-0
 70
     0
 62
   179
  6
CONTINUOUS
  0
LAYER
  2
AM_6
 70
     0
 62
     2
  6
CONTINUOUS
  0
LAYER
  2
AM_5
 70
     0
 62
     3
  6
CONTINUOUS
  0
LAYER
  2
AM_7
 70
     0
 62
     4
  6
CONTINUOUS
  0
LAYER
  2
SLD-DEFPOINTS
 70
     0
 62
   179
  6
CONTINUOUS
  0
LAYER
  2
AM_0
 70
     0
 62
   179
  6
CONTINUOUS
  0
LAYER
  2
AM_CL
 70
     0
 62
     1
  6
CONTINUOUS
  0
LAYER
  2
6
 70
     0
 62
     2
  6
CONTINUOUS
  0
LAYER
  2
AM_4
 70
     0
 62
     3
  6
CONTINUOUS
  0
LAYER
  2
AM_8
 70
     0
 62
     1
  6
CONTINUOUS
  0
ENDTAB
  0
TABLE
  2
STYLE
 70
     1
  0
STYLE
  2
STANDARD
 70
     0
 40
0.0
 41
1.0
 50
0.0
 71
     0
 42
17.5
  3
txt
  4
bigfont
  0
ENDTAB
  0
TABLE
  2
VIEW
 70
     0
  0
ENDTAB
  0
TABLE
  2
UCS
 70
     0
  0
ENDTAB
  0
TABLE
  2
APPID
 70
     1
  0
APPID
  2
ACAD
 70
     0
  0
ENDTAB
  0
TABLE
  2
DIMSTYLE
 70
     1
  0
DIMSTYLE
  2
ISO-25
 70
     0
  3

  4

  5

  6

  7

 40
1.0
 41
2.5
 42
0.625
 43
3.75
 44
1.25
 45
0.0
 46
0.0
 47
0.0
 48
0.0
140
2.5
141
2.5
142
0.0
143
0.0393700787
144
1.0
145
0.0
146
1.0
147
0.625
 71
     0
 72
     0
 73
     0
 74
     0
 75
     0
 76
     0
 77
     1
 78
     8
170
     0
171
     3
172
     1
173
     0
174
     0
175
     0
176
     0
177
     0
178
     0
  0
ENDTAB
  0
ENDSEC
  0
SECTION
  2
BLOCKS
  0
BLOCK
  8
0
  2
$MODEL_SPACE
 70
     0
 10
0.0
 20
0.0
 30
0.0
  3
$MODEL_SPACE
  1

  0
ENDBLK
  5
21
  8
0
  0
BLOCK
 67
     1
  8
0
  2
$PAPER_SPACE
 70
     0
 10
0.0
 20
0.0
 30
0.0
  3
$PAPER_SPACE
  1

  0
ENDBLK
  5
1D
 67
     1
  8
0
  0
BLOCK
  8
0
  2
SW_CENTERMARKSYMBOL_0
 70
     0
 10
0.0
 20
0.0
 30
0.0
  3
SW_CENTERMARKSYMBOL_0
  1

  0
LINE
  5
3F6
  8
SLD-0
 62
     0
 10
0.0
 20
0.0
 30
0.0
 11
0.0
 21
2.5
 31
0.0
  0
LINE
  5
3F7
  8
SLD-0
 62
     0
 10
0.0
 20
0.0
 30
0.0
 11
-2.5
 21
0.0
 31
0.0
  0
LINE
  5
3F8
  8
SLD-0
 62
     0
 10
0.0
 20
0.0
 30
0.0
 11
0.0
 21
-2.5
 31
0.0
  0
LINE
  5
3F9
  8
SLD-0
 62
     0
 10
0.0
 20
0.0
 30
0.0
 11
2.5
 21
0.0
 31
0.0
  0
LINE
  5
3FA
  8
SLD-0
 62
     0
 10
0.0
 20
5.0
 30
0.0
 11
0.0
 21
269.2610514231
 31
0.0
  0
LINE
  5
3FB
  8
SLD-0
 62
     0
 10
-5.0
 20
0.0
 30
0.0
 11
-94.4285692604
 21
0.0
 31
0.0
  0
LINE
  5
3FC
  8
SLD-0
 62
     0
 10
0.0
 20
-5.0
 30
0.0
 11
0.0
 21
-242.0200975204
 31
0.0
  0
LINE
  5
3FD
  8
SLD-0
 62
     0
 10
5.0
 20
0.0
 30
0.0
 11
99.7676776992
 21
0.0
 31
0.0
  0
ENDBLK
  5
3F5
  8
0
  0
BLOCK
  8
0
  2
SW_CENTERMARKSYMBOL_1
 70
     0
 10
0.0
 20
0.0
 30
0.0
  3
SW_CENTERMARKSYMBOL_1
  1

  0
ARC
  5
558
  8
SLD-0
 62
     0
 10
76.0139789776
 20
-76.0139789776
 30
0.0
 40
107.5
 50
135.0
 51
136.3324599887
  0
ARC
  5
559
  8
SLD-0
 62
     0
 10
76.0139789776
 20
-76.0139789776
 30
0.0
 40
107.5
 50
133.6675400113
 51
135.0
  0
ARC
  5
55A
  8
SLD-0
 62
     0
 10
76.0139789776
 20
-76.0139789776
 30
0.0
 40
107.5
 50
45.0
 51
46.3324599887
  0
ARC
  5
55B
  8
SLD-0
 62
     0
 10
76.0139789776
 20
-76.0139789776
 30
0.0
 40
107.5
 50
43.6675400113
 51
45.0
  0
ARC
  5
55C
  8
SLD-0
 62
     0
 10
76.0139789776
 20
-76.0139789776
 30
0.0
 40
107.4999999999999
 50
315.0
 51
316.3324599887
  0
ARC
  5
55D
  8
SLD-0
 62
     0
 10
76.0139789776
 20
-76.0139789776
 30
0.0
 40
107.5
 50
313.6675400113
 51
315.0
  0
ARC
  5
55E
  8
SLD-0
 62
     0
 10
76.0139789776
 20
-76.0139789776
 30
0.0
 40
107.5
 50
225.0
 51
226.3324599887
  0
ARC
  5
55F
  8
SLD-0
 62
     0
 10
76.0139789776
 20
-76.0139789776
 30
0.0
 40
107.5
 50
223.6675400113
 51
225.0
  0
ARC
  5
560
  8
SLD-0
 62
     0
 10
76.0139789776
 20
-76.0139789776
 30
0.0
 40
107.4999999999999
 50
47.6649199774
 51
132.3350800226
  0
ARC
  5
561
  8
SLD-0
 62
     0
 10
76.0139789776
 20
-76.0139789776
 30
0.0
 40
107.5
 50
317.6649199774
 51
42.3350800226
  0
ARC
  5
562
  8
SLD-0
 62
     0
 10
76.0139789776
 20
-76.0139789776
 30
0.0
 40
107.5
 50
137.6649199774
 51
222.3350800226
  0
ARC
  5
563
  8
SLD-0
 62
     0
 10
76.0139789776
 20
-76.0139789776
 30
0.0
 40
107.5
 50
227.6649199774
 51
312.3350800226
  0
LINE
  5
564
  8
SLD-0
 62
     0
 10
0.0
 20
0.0
 30
0.0
 11
-1.767766953
 21
1.767766953
 31
0.0
  0
LINE
  5
565
  8
SLD-0
 62
     0
 10
0.0
 20
0.0
 30
0.0
 11
1.767766953
 21
-1.767766953
 31
0.0
  0
LINE
  5
566
  8
SLD-0
 62
     0
 10
-3.5355339059
 20
3.5355339059
 30
0.0
 11
-6.0104076401
 21
6.0104076401
 31
0.0
  0
LINE
  5
567
  8
SLD-0
 62
     0
 10
3.5355339059
 20
-3.5355339059
 30
0.0
 11
6.0104076401
 21
-6.0104076401
 31
0.0
  0
LINE
  5
568
  8
SLD-0
 62
     0
 10
152.0279579551
 20
0.0
 30
0.0
 11
153.7957249081
 21
1.767766953
 31
0.0
  0
LINE
  5
569
  8
SLD-0
 62
     0
 10
152.0279579551
 20
0.0
 30
0.0
 11
150.2601910021
 21
-1.767766953
 31
0.0
  0
LINE
  5
56A
  8
SLD-0
 62
     0
 10
155.563491861
 20
3.5355339059
 30
0.0
 11
158.0383655952
 21
6.0104076401
 31
0.0
  0
LINE
  5
56B
  8
SLD-0
 62
     0
 10
148.4924240492
 20
-3.5355339059
 30
0.0
 11
146.017550315
 21
-6.0104076401
 31
0.0
  0
LINE
  5
56C
  8
SLD-0
 62
     0
 10
152.0279579551
 20
-152.0279579551
 30
0.0
 11
153.7957249081
 21
-153.7957249081
 31
0.0
  0
LINE
  5
56D
  8
SLD-0
 62
     0
 10
152.0279579551
 20
-152.0279579551
 30
0.0
 11
150.2601910021
 21
-150.2601910021
 31
0.0
  0
LINE
  5
56E
  8
SLD-0
 62
     0
 10
155.563491861
 20
-155.563491861
 30
0.0
 11
158.0383655952
 21
-158.0383655952
 31
0.0
  0
LINE
  5
56F
  8
SLD-0
 62
     0
 10
148.4924240492
 20
-148.4924240492
 30
0.0
 11
146.017550315
 21
-146.017550315
 31
0.0
  0
LINE
  5
570
  8
SLD-0
 62
     0
 10
76.0139789776
 20
-76.0139789776
 30
0.0
 11
76.0139789776
 21
-73.5139789776
 31
0.0
  0
LINE
  5
571
  8
SLD-0
 62
     0
 10
76.0139789776
 20
-76.0139789776
 30
0.0
 11
73.5139789776
 21
-76.0139789776
 31
0.0
  0
LINE
  5
572
  8
SLD-0
 62
     0
 10
76.0139789776
 20
-76.0139789776
 30
0.0
 11
76.0139789776
 21
-78.5139789776
 31
0.0
  0
LINE
  5
573
  8
SLD-0
 62
     0
 10
76.0139789776
 20
-76.0139789776
 30
0.0
 11
78.5139789776
 21
-76.0139789776
 31
0.0
  0
LINE
  5
574
  8
SLD-0
 62
     0
 10
76.0139789776
 20
-71.0139789776
 30
0.0
 11
76.0139789776
 21
49.6340188432
 31
0.0
  0
LINE
  5
575
  8
SLD-0
 62
     0
 10
71.0139789776
 20
-76.0139789776
 30
0.0
 11
-38.1501181865
 21
-76.0139789776
 31
0.0
  0
LINE
  5
576
  8
SLD-0
 62
     0
 10
76.0139789776
 20
-81.0139789776
 30
0.0
 11
76.0139789776
 21
-188.3426771436
 31
0.0
  0
LINE
  5
577
  8
SLD-0
 62
     0
 10
81.0139789776
 20
-76.0139789776
 30
0.0
 11
175.5210311065
 21
-76.0139789776
 31
0.0
  0
LINE
  5
578
  8
SLD-0
 62
     0
 10
0.0
 20
-152.0279579551
 30
0.0
 11
-1.767766953
 21
-153.7957249081
 31
0.0
  0
LINE
  5
579
  8
SLD-0
 62
     0
 10
0.0
 20
-152.0279579551
 30
0.0
 11
1.767766953
 21
-150.2601910021
 31
0.0
  0
LINE
  5
57A
  8
SLD-0
 62
     0
 10
-3.5355339059
 20
-155.563491861
 30
0.0
 11
-6.0104076401
 21
-158.0383655952
 31
0.0
  0
LINE
  5
57B
  8
SLD-0
 62
     0
 10
3.5355339059
 20
-148.4924240492
 30
0.0
 11
6.0104076401
 21
-146.017550315
 31
0.0
  0
ENDBLK
  5
557
  8
0
  0
BLOCK
  8
0
  2
SW_CENTERMARKSYMBOL_2
 70
     0
 10
0.0
 20
0.0
 30
0.0
  3
SW_CENTERMARKSYMBOL_2
  1

  0
LINE
  5
580
  8
SLD-0
 62
     0
 10
0.0
 20
0.0
 30
0.0
 11
0.0
 21
2.5
 31
0.0
  0
LINE
  5
581
  8
SLD-0
 62
     0
 10
0.0
 20
0.0
 30
0.0
 11
-2.5
 21
0.0
 31
0.0
  0
LINE
  5
582
  8
SLD-0
 62
     0
 10
0.0
 20
0.0
 30
0.0
 11
0.0
 21
-2.5
 31
0.0
  0
LINE
  5
583
  8
SLD-0
 62
     0
 10
0.0
 20
0.0
 30
0.0
 11
2.5
 21
0.0
 31
0.0
  0
LINE
  5
584
  8
SLD-0
 62
     0
 10
0.0
 20
5.0
 30
0.0
 11
0.0
 21
13.5
 31
0.0
  0
LINE
  5
585
  8
SLD-0
 62
     0
 10
-5.0
 20
0.0
 30
0.0
 11
-13.5
 21
0.0
 31
0.0
  0
LINE
  5
586
  8
SLD-0
 62
     0
 10
0.0
 20
-5.0
 30
0.0
 11
0.0
 21
-13.5
 31
0.0
  0
LINE
  5
587
  8
SLD-0
 62
     0
 10
5.0
 20
0.0
 30
0.0
 11
30.2021439192
 21
0.0
 31
0.0
  0
ENDBLK
  5
57F
  8
0
  0
ENDSEC
  0
SECTION
  2
ENTITIES
  0
LINE
  5
7D
  8
0
  6
CONTINUOUS
 62
     7
 10
429.3972907825
 20
1267.2785533737
 30
0.0
 11
429.3972907825
 21
1248.9652348827
 31
0.0
  0
LINE
  5
7E
  8
0
  6
CONTINUOUS
 62
     7
 10
614.9972884222
 20
1223.9813072751
 30
0.0
 11
614.9972884222
 21
1267.2785533737
 31
0.0
  0
ARC
  5
7F
  8
0
  6
CONTINUOUS
 62
     7
 10
612.1972896023
 20
1267.2785562619
 30
0.0
 40
2.800000000000068
 50
0.0
 51
62.60975803
  0
ARC
  5
80
  8
0
  6
CONTINUOUS
 62
     7
 10
432.1972896023
 20
1267.2785562619
 30
0.0
 40
2.800000000000011
 50
117.39024197
 51
180.0
  0
LINE
  5
81
  8
0
  6
CONTINUOUS
 62
     7
 10
613.485424058
 20
1269.7646631072
 30
0.0
 11
596.3452292843
 21
1278.645591266
 31
0.0
  0
LINE
  5
82
  8
0
  6
CONTINUOUS
 62
     7
 10
448.0493499203
 20
1278.645591266
 30
0.0
 11
430.9091551466
 21
1269.7646631072
 31
0.0
  0
ARC
  5
83
  8
0
  6
CONTINUOUS
 62
     7
 10
447.4972896023
 20
1279.7110609451
 30
0.0
 40
1.200000000000045
 50
297.39024197
 51
0.0
  0
ARC
  5
84
  8
0
  6
CONTINUOUS
 62
     7
 10
596.8972896023
 20
1279.7110609451
 30
0.0
 40
1.200000000000045
 50
180.0
 51
242.60975803
  0
ARC
  5
85
  8
0
  6
CONTINUOUS
 62
     7
 10
593.8972896023
 20
1282.1813095401
 30
0.0
 40
1.800000000000182
 50
0.0
 51
90.0
  0
ARC
  5
86
  8
0
  6
CONTINUOUS
 62
     7
 10
450.4972896023
 20
1282.1813095401
 30
0.0
 40
1.800000000000182
 50
90.0
 51
180.0
  0
LINE
  5
87
  8
0
  6
CONTINUOUS
 62
     7
 10
448.6972896619
 20
1282.1813089918
 30
0.0
 11
448.6972896619
 21
1279.7110540937
 31
0.0
  0
LINE
  5
88
  8
0
  6
CONTINUOUS
 62
     7
 10
595.6972895427
 20
1279.7110540937
 30
0.0
 11
595.6972895427
 21
1282.1813089918
 31
0.0
  0
LINE
  5
89
  8
0
  6
CONTINUOUS
 62
     7
 10
595.7107005878
 20
1223.9813072751
 30
0.0
 11
595.7107005878
 21
1245.9813071559
 31
0.0
  0
ARC
  5
8A
  8
0
  6
CONTINUOUS
 62
     7
 10
592.7107038607
 20
1245.9813095401
 30
0.0
 40
3.000000000000009
 50
0.0
 51
84.753415462
  0
ARC
  5
8B
  8
0
  6
CONTINUOUS
 62
     7
 10
429.7074192103
 20
1245.9813095401
 30
0.0
 40
3.000000000000057
 50
94.0450781816
 51
180.0
  0
POLYLINE
  5
8C
  8
0
  6
CONTINUOUS
 62
     7
 66
     1
 10
0.0
 20
0.0
 30
0.0
 70
   128
  0
VERTEX
  5
589
  8
0
  6
CONTINUOUS
 62
     7
 10
430.7004718347
 20
1249.6253265212
 30
0.0
  0
VERTEX
  5
58A
  8
0
  6
CONTINUOUS
 62
     7
 10
430.7022897764
 20
1249.630109794
 30
0.0
  0
VERTEX
  5
58B
  8
0
  6
CONTINUOUS
 62
     7
 10
430.6198043986
 20
1249.5111538242
 30
0.0
  0
VERTEX
  5
58C
  8
0
  6
CONTINUOUS
 62
     7
 10
430.3202985092
 20
1249.2455853294
 30
0.0
  0
VERTEX
  5
58D
  8
0
  6
CONTINUOUS
 62
     7
 10
430.058112578
 20
1249.1385353874
 30
0.0
  0
SEQEND
  5
9A1
  8
0
  6
CONTINUOUS
 62
     7
  0
LINE
  5
8D
  8
0
  6
CONTINUOUS
 62
     7
 10
426.7074225708
 20
1245.9813071559
 30
0.0
 11
426.7074225708
 21
1243.6938149999
 31
0.0
  0
LINE
  5
8E
  8
0
  6
CONTINUOUS
 62
     7
 10
426.7074225708
 20
1235.1385368179
 30
0.0
 11
426.7074225708
 21
1223.9813072751
 31
0.0
  0
LINE
  5
8F
  8
0
  6
CONTINUOUS
 62
     7
 10
534.6972897886
 20
1283.9813096593
 30
0.0
 11
534.6972897886
 21
1284.0313030551
 31
0.0
  0
LINE
  5
90
  8
0
  6
CONTINUOUS
 62
     7
 10
509.6972894161
 20
1284.0313030551
 30
0.0
 11
509.6972894161
 21
1283.9813096593
 31
0.0
  0
LINE
  5
91
  8
0
  6
CONTINUOUS
 62
     7
 10
531.1972892149
 20
1284.0313030551
 30
0.0
 11
531.1972892149
 21
1284.0813113521
 31
0.0
  0
LINE
  5
92
  8
0
  6
CONTINUOUS
 62
     7
 10
513.1972899898
 20
1284.0813113521
 30
0.0
 11
513.1972899898
 21
1284.0313030551
 31
0.0
  0
ARC
  5
93
  8
0
  6
CONTINUOUS
 62
     7
 10
617.6972896023
 20
1220.4813095401
 30
0.0
 40
0.5
 50
0.0
 51
90.0
  0
ARC
  5
94
  8
0
  6
CONTINUOUS
 62
     7
 10
617.6972896023
 20
1181.4813095401
 30
0.0
 40
0.5
 50
270.0
 51
0.0
  0
LINE
  5
95
  8
0
  6
CONTINUOUS
 62
     7
 10
608.6972860857
 20
1180.9813095401
 30
0.0
 11
617.6972894235
 21
1180.9813095401
 31
0.0
  0
LINE
  5
96
  8
0
  6
CONTINUOUS
 62
     7
 10
617.6972894235
 20
1220.9813160966
 30
0.0
 11
608.6972860857
 21
1220.9813160966
 31
0.0
  0
ARC
  5
97
  8
0
  6
CONTINUOUS
 62
     7
 10
608.6972896023
 20
1220.4813095401
 30
0.0
 40
0.5000000000001137
 50
90.0
 51
180.0
  0
ARC
  5
98
  8
0
  6
CONTINUOUS
 62
     7
 10
608.6972896023
 20
1181.4813095401
 30
0.0
 40
0.5000000000001137
 50
180.0
 51
270.0
  0
LINE
  5
99
  8
0
  6
CONTINUOUS
 62
     7
 10
618.1972904368
 20
1184.4813091825
 30
0.0
 11
618.3972863718
 21
1184.4813091825
 31
0.0
  0
LINE
  5
9A
  8
0
  6
CONTINUOUS
 62
     7
 10
618.3972863718
 20
1217.4813164543
 30
0.0
 11
618.1972904368
 21
1217.4813164543
 31
0.0
  0
LINE
  5
9B
  8
0
  6
CONTINUOUS
 62
     7
 10
656.5879715844
 20
1145.160944588
 30
0.0
 11
655.1364345713
 21
1144.6326313685
 31
0.0
  0
LINE
  5
9C
  8
0
  6
CONTINUOUS
 62
     7
 10
657.8726006909
 20
1137.1150849532
 30
0.0
 11
659.3241377039
 21
1137.6434056233
 31
0.0
  0
ARC
  5
9D
  8
0
  6
CONTINUOUS
 62
     7
 10
656.711102134
 20
1144.8226559277
 30
0.0
 40
0.360000000000087
 50
56.3583676093
 51
110.0
  0
ARC
  5
9E
  8
0
  6
CONTINUOUS
 62
     7
 10
659.2010087774
 20
1137.9816936483
 30
0.0
 40
0.3600000000000481
 50
290.0
 51
343.6416323907
  0
ARC
  5
9F
  8
0
  6
CONTINUOUS
 62
     7
 10
653.3095628735
 20
1139.7109897943
 30
0.0
 40
6.500000000000007
 50
343.6416323907
 51
2.1374195081
  0
ARC
  5
A0
  8
0
  6
CONTINUOUS
 62
     7
 10
653.3095628735
 20
1139.7109897943
 30
0.0
 40
6.500000000000072
 50
37.8625804919
 51
56.3583676093
  0
ARC
  5
A1
  8
0
  6
CONTINUOUS
 62
     7
 10
625.5872690914
 20
1230.3346844192
 30
0.0
 40
0.360000000000087
 50
56.3583676093
 51
110.0
  0
ARC
  5
A2
  8
0
  6
CONTINUOUS
 62
     7
 10
628.0771757348
 20
1223.4937221399
 30
0.0
 40
0.3600000000000769
 50
290.0
 51
343.6416323907
  0
LINE
  5
A3
  8
0
  6
CONTINUOUS
 62
     7
 10
625.4641397162
 20
1230.6729717325
 30
0.0
 11
624.0126027031
 21
1230.1446510623
 31
0.0
  0
LINE
  5
A4
  8
0
  6
CONTINUOUS
 62
     7
 10
626.7487688227
 20
1222.6271195482
 30
0.0
 11
628.2003058358
 21
1223.1554402183
 31
0.0
  0
ARC
  5
A5
  8
0
  6
CONTINUOUS
 62
     7
 10
622.1857298308
 20
1225.2230182858
 30
0.0
 40
6.500000000000066
 50
343.6416323907
 51
2.1374195081
  0
ARC
  5
A6
  8
0
  6
CONTINUOUS
 62
     7
 10
622.1857298308
 20
1225.2230182858
 30
0.0
 40
6.500000000000072
 50
37.8625804919
 51
56.3583676093
  0
LINE
  5
A7
  8
0
  6
CONTINUOUS
 62
     7
 10
659.7021056576
 20
1198.8998962711
 30
0.0
 11
659.6520973607
 21
1198.8998962711
 31
0.0
  0
LINE
  5
A8
  8
0
  6
CONTINUOUS
 62
     7
 10
605.1972864433
 20
1053.9813094451
 30
0.0
 11
605.1972864433
 21
1063.9813099201
 31
0.0
  0
LINE
  5
A9
  8
0
  6
CONTINUOUS
 62
     7
 10
439.1972927614
 20
1063.9813099201
 30
0.0
 11
439.1972927614
 21
1053.9813094451
 31
0.0
  0
LINE
  5
AA
  8
0
  6
CONTINUOUS
 62
     7
 10
566.8448081477
 20
1063.9813099201
 30
0.0
 11
566.8448081477
 21
1223.9813072751
 31
0.0
  0
LINE
  5
AB
  8
0
  6
CONTINUOUS
 62
     7
 10
477.5497710569
 20
1223.9813072751
 30
0.0
 11
477.5497710569
 21
1063.9813099201
 31
0.0
  0
LINE
  5
AC
  8
0
  6
CONTINUOUS
 62
     7
 10
574.5327605172
 20
1063.9813099201
 30
0.0
 11
574.5327605172
 21
1223.9813072751
 31
0.0
  0
LINE
  5
AD
  8
0
  6
CONTINUOUS
 62
     7
 10
469.8618186875
 20
1223.9813072751
 30
0.0
 11
469.8618186875
 21
1063.9813099201
 31
0.0
  0
LINE
  5
AE
  8
0
  6
CONTINUOUS
 62
     7
 10
581.6582760079
 20
1063.9813099201
 30
0.0
 11
581.6582760079
 21
1223.9813072751
 31
0.0
  0
LINE
  5
AF
  8
0
  6
CONTINUOUS
 62
     7
 10
462.7363031967
 20
1223.9813072751
 30
0.0
 11
462.7363031967
 21
1063.9813099201
 31
0.0
  0
LINE
  5
B0
  8
0
  6
CONTINUOUS
 62
     7
 10
588.143279986
 20
1063.9813099201
 30
0.0
 11
588.143279986
 21
1223.9813072751
 31
0.0
  0
LINE
  5
B1
  8
0
  6
CONTINUOUS
 62
     7
 10
456.2512992187
 20
1223.9813072751
 30
0.0
 11
456.2512992187
 21
1063.9813099201
 31
0.0
  0
LINE
  5
B2
  8
0
  6
CONTINUOUS
 62
     7
 10
593.9167199894
 20
1063.9813099201
 30
0.0
 11
593.9167199894
 21
1223.9813072751
 31
0.0
  0
LINE
  5
B3
  8
0
  6
CONTINUOUS
 62
     7
 10
450.4778592153
 20
1223.9813072751
 30
0.0
 11
450.4778592153
 21
1063.9813099201
 31
0.0
  0
LINE
  5
B4
  8
0
  6
CONTINUOUS
 62
     7
 10
598.9153443141
 20
1063.9813099201
 30
0.0
 11
598.9153443141
 21
1223.9813072751
 31
0.0
  0
LINE
  5
B5
  8
0
  6
CONTINUOUS
 62
     7
 10
445.4792348905
 20
1223.9813072751
 30
0.0
 11
445.4792348905
 21
1063.9813099201
 31
0.0
  0
LINE
  5
B6
  8
0
  6
CONTINUOUS
 62
     7
 10
603.0843837424
 20
1063.9813099201
 30
0.0
 11
603.0843837424
 21
1223.9813072751
 31
0.0
  0
LINE
  5
B7
  8
0
  6
CONTINUOUS
 62
     7
 10
441.3101954623
 20
1223.9813072751
 30
0.0
 11
441.3101954623
 21
1063.9813099201
 31
0.0
  0
LINE
  5
B8
  8
0
  6
CONTINUOUS
 62
     7
 10
606.378166215
 20
1063.9813099201
 30
0.0
 11
606.378166215
 21
1223.9813072751
 31
0.0
  0
LINE
  5
B9
  8
0
  6
CONTINUOUS
 62
     7
 10
438.0164129897
 20
1223.9813072751
 30
0.0
 11
438.0164129897
 21
1063.9813099201
 31
0.0
  0
LINE
  5
BA
  8
0
  6
CONTINUOUS
 62
     7
 10
435.6339780851
 20
1223.9813072751
 30
0.0
 11
435.6339780851
 21
1063.9813099201
 31
0.0
  0
LINE
  5
BB
  8
0
  6
CONTINUOUS
 62
     7
 10
580.6525295837
 20
818.9813060831
 30
0.0
 11
580.6525295837
 21
819.9813081096
 31
0.0
  0
LINE
  5
BC
  8
0
  6
CONTINUOUS
 62
     7
 10
566.2725327774
 20
819.9813081096
 30
0.0
 11
566.2725327774
 21
818.9813060831
 31
0.0
  0
LINE
  5
BD
  8
0
  6
CONTINUOUS
 62
     7
 10
577.4625299736
 20
833.9813066791
 30
0.0
 11
577.4625299736
 21
907.9813076328
 31
0.0
  0
LINE
  5
BE
  8
0
  6
CONTINUOUS
 62
     7
 10
577.4625299736
 20
921.9813062023
 30
0.0
 11
577.4625299736
 21
928.981305487
 31
0.0
  0
LINE
  5
BF
  8
0
  6
CONTINUOUS
 62
     7
 10
569.4625323875
 20
928.981305487
 30
0.0
 11
569.4625323875
 21
921.9813062023
 31
0.0
  0
LINE
  5
C0
  8
0
  6
CONTINUOUS
 62
     7
 10
569.4625323875
 20
907.9813076328
 30
0.0
 11
569.4625323875
 21
833.9813066791
 31
0.0
  0
LINE
  5
C1
  8
0
  6
CONTINUOUS
 62
     7
 10
478.1220464273
 20
818.9813060831
 30
0.0
 11
478.1220464273
 21
819.9813081096
 31
0.0
  0
LINE
  5
C2
  8
0
  6
CONTINUOUS
 62
     7
 10
463.7420496209
 20
819.9813081096
 30
0.0
 11
463.7420496209
 21
818.9813060831
 31
0.0
  0
LINE
  5
C3
  8
0
  6
CONTINUOUS
 62
     7
 10
474.9320468171
 20
833.9813066791
 30
0.0
 11
474.9320468171
 21
907.9813076328
 31
0.0
  0
LINE
  5
C4
  8
0
  6
CONTINUOUS
 62
     7
 10
474.9320468171
 20
921.9813062023
 30
0.0
 11
474.9320468171
 21
928.981305487
 31
0.0
  0
LINE
  5
C5
  8
0
  6
CONTINUOUS
 62
     7
 10
466.9320492311
 20
928.981305487
 30
0.0
 11
466.9320492311
 21
921.9813062023
 31
0.0
  0
LINE
  5
C6
  8
0
  6
CONTINUOUS
 62
     7
 10
466.9320492311
 20
907.9813076328
 30
0.0
 11
466.9320492311
 21
833.9813066791
 31
0.0
  0
LINE
  5
C7
  8
0
  6
CONTINUOUS
 62
     7
 10
454.6972869201
 20
835.9813107322
 30
0.0
 11
454.6972869201
 21
819.9813081096
 31
0.0
  0
LINE
  5
C8
  8
0
  6
CONTINUOUS
 62
     7
 10
589.6972922845
 20
819.9813081096
 30
0.0
 11
589.6972922845
 21
835.9813107322
 31
0.0
  0
LINE
  5
C9
  8
0
  6
CONTINUOUS
 62
     7
 10
459.3310190602
 20
833.9813066791
 30
0.0
 11
459.3310190602
 21
819.9813081096
 31
0.0
  0
LINE
  5
CA
  8
0
  6
CONTINUOUS
 62
     7
 10
585.0635601445
 20
819.9813081096
 30
0.0
 11
585.0635601445
 21
833.9813066791
 31
0.0
  0
LINE
  5
CB
  8
0
  6
CONTINUOUS
 62
     7
 10
491.197290109
 20
819.9813081096
 30
0.0
 11
491.197290109
 21
803.981305487
 31
0.0
  0
LINE
  5
CC
  8
0
  6
CONTINUOUS
 62
     7
 10
553.1972890957
 20
803.981305487
 30
0.0
 11
553.1972890957
 21
819.9813081096
 31
0.0
  0
POLYLINE
  5
CD
  8
0
  6
CONTINUOUS
 62
     7
 66
     1
 10
0.0
 20
0.0
 30
0.0
 70
   128
  0
VERTEX
  5
58E
  8
0
  6
CONTINUOUS
 62
     7
 10
562.9722533985
 20
803.981305487
 30
0.0
  0
VERTEX
  5
58F
  8
0
  6
CONTINUOUS
 62
     7
 10
566.8693689867
 20
811.9813067983
 30
0.0
  0
VERTEX
  5
590
  8
0
  6
CONTINUOUS
 62
     7
 10
567.6975047453
 20
813.6813057731
 30
0.0
  0
SEQEND
  5
9A2
  8
0
  6
CONTINUOUS
 62
     7
  0
POLYLINE
  5
CE
  8
0
  6
CONTINUOUS
 62
     7
 66
     1
 10
0.0
 20
0.0
 30
0.0
 70
   128
  0
VERTEX
  5
591
  8
0
  6
CONTINUOUS
 62
     7
 10
476.6970744594
 20
813.6813057731
 30
0.0
  0
VERTEX
  5
592
  8
0
  6
CONTINUOUS
 62
     7
 10
477.525210218
 20
811.9813067983
 30
0.0
  0
VERTEX
  5
593
  8
0
  6
CONTINUOUS
 62
     7
 10
481.4223258062
 20
803.981305487
 30
0.0
  0
SEQEND
  5
9A3
  8
0
  6
CONTINUOUS
 62
     7
  0
LINE
  5
CF
  8
0
  6
CONTINUOUS
 62
     7
 10
589.6972922845
 20
882.4813081096
 30
0.0
 11
589.6972922845
 21
905.9813035797
 31
0.0
  0
LINE
  5
D0
  8
0
  6
CONTINUOUS
 62
     7
 10
454.6972869201
 20
905.9813035797
 30
0.0
 11
454.6972869201
 21
882.4813081096
 31
0.0
  0
LINE
  5
D1
  8
0
  6
CONTINUOUS
 62
     7
 10
589.6972922845
 20
858.9813126396
 30
0.0
 11
589.6972922845
 21
882.4813081096
 31
0.0
  0
LINE
  5
D2
  8
0
  6
CONTINUOUS
 62
     7
 10
454.6972869201
 20
882.4813081096
 30
0.0
 11
454.6972869201
 21
858.9813126396
 31
0.0
  0
LINE
  5
D3
  8
0
  6
CONTINUOUS
 62
     7
 10
589.6972922845
 20
835.4813022684
 30
0.0
 11
589.6972922845
 21
858.9813126396
 31
0.0
  0
LINE
  5
D4
  8
0
  6
CONTINUOUS
 62
     7
 10
454.6972869201
 20
858.9813126396
 30
0.0
 11
454.6972869201
 21
835.4813022684
 31
0.0
  0
LINE
  5
D5
  8
0
  6
CONTINUOUS
 62
     7
 10
437.1972887083
 20
1003.9813084672
 30
0.0
 11
437.1972887083
 21
1000.9813098381
 31
0.0
  0
LINE
  5
D6
  8
0
  6
CONTINUOUS
 62
     7
 10
607.1972904964
 20
1000.9813098381
 30
0.0
 11
607.1972904964
 21
1003.9813084672
 31
0.0
  0
LINE
  5
D7
  8
0
  6
CONTINUOUS
 62
     7
 10
606.1972884698
 20
1049.981309488
 30
0.0
 11
606.1972884698
 21
1053.9813094451
 31
0.0
  0
LINE
  5
D8
  8
0
  6
CONTINUOUS
 62
     7
 10
438.1972907348
 20
1053.9813094451
 30
0.0
 11
438.1972907348
 21
1049.981309488
 31
0.0
  0
LINE
  5
D9
  8
0
  6
CONTINUOUS
 62
     7
 10
589.6972922845
 20
905.9813035797
 30
0.0
 11
589.6972922845
 21
934.9813101958
 31
0.0
  0
LINE
  5
DA
  8
0
  6
CONTINUOUS
 62
     7
 10
454.6972869201
 20
934.9813101958
 30
0.0
 11
454.6972869201
 21
905.9813035797
 31
0.0
  0
ARC
  5
DB
  8
0
  6
CONTINUOUS
 62
     7
 10
457.6972896023
 20
934.9813095401
 30
0.0
 40
3.000000000000114
 50
90.0
 51
180.0
  0
ARC
  5
DC
  8
0
  6
CONTINUOUS
 62
     7
 10
586.6972896023
 20
934.9813095401
 30
0.0
 40
3.000000000000114
 50
0.0
 51
90.0
  0
ARC
  5
DD
  8
0
  6
CONTINUOUS
 62
     7
 10
458.4571742322
 20
1015.9813095401
 30
0.0
 40
2.0
 50
270.0
 51
0.0
  0
ARC
  5
DE
  8
0
  6
CONTINUOUS
 62
     7
 10
585.9374049725
 20
1015.9813095401
 30
0.0
 40
2.0
 50
180.0
 51
270.0
  0
LINE
  5
DF
  8
0
  6
CONTINUOUS
 62
     7
 10
460.4571743174
 20
1046.0313096787
 30
0.0
 11
460.4571743174
 21
1015.9813104342
 31
0.0
  0
LINE
  5
E0
  8
0
  6
CONTINUOUS
 62
     7
 10
583.9374048872
 20
1015.9813104342
 30
0.0
 11
583.9374048872
 21
1046.0313096787
 31
0.0
  0
ARC
  5
E1
  8
0
  6
CONTINUOUS
 62
     7
 10
458.554281857
 20
1046.1375415266
 30
0.0
 40
1.914203539824218
 50
355.3184766095
 51
31.8959677349
  0
ARC
  5
E2
  8
0
  6
CONTINUOUS
 62
     7
 10
585.8402973477
 20
1046.1375415266
 30
0.0
 40
1.914203539823163
 50
148.104032265
 51
184.6815233905
  0
ARC
  5
E3
  8
0
  6
CONTINUOUS
 62
     7
 10
458.7325724622
 20
1046.3914042374
 30
0.0
 40
1.633210365540336
 50
27.635695486
 51
98.1864714619
  0
ARC
  5
E4
  8
0
  6
CONTINUOUS
 62
     7
 10
585.6620067425
 20
1046.3914042374
 30
0.0
 40
1.633210365539527
 50
81.813528538
 51
152.364304514
  0
ARC
  5
E5
  8
0
  6
CONTINUOUS
 62
     7
 10
460.1650705879
 20
920.9813095401
 30
0.0
 40
1.0
 50
90.0
 51
180.0
  0
LINE
  5
E6
  8
0
  6
CONTINUOUS
 62
     7
 10
459.1650722786
 20
920.9813041757
 30
0.0
 11
459.1650722786
 21
907.9813076328
 31
0.0
  0
ARC
  5
E7
  8
0
  6
CONTINUOUS
 62
     7
 10
584.2295086168
 20
920.9813095401
 30
0.0
 40
1.0
 50
0.0
 51
90.0
  0
LINE
  5
E8
  8
0
  6
CONTINUOUS
 62
     7
 10
585.2295069261
 20
907.9813076328
 30
0.0
 11
585.2295069261
 21
920.9813041757
 31
0.0
  0
ARC
  5
E9
  8
0
  6
CONTINUOUS
 62
     7
 10
446.3793589147
 20
1015.9813095401
 30
0.0
 40
2.0
 50
270.0
 51
0.0
  0
ARC
  5
EA
  8
0
  6
CONTINUOUS
 62
     7
 10
598.0152202899
 20
1015.9813095401
 30
0.0
 40
1.999999999999886
 50
180.0
 51
270.0
  0
LINE
  5
EB
  8
0
  6
CONTINUOUS
 62
     7
 10
448.3793584867
 20
1046.0313096787
 30
0.0
 11
448.3793584867
 21
1015.9813104342
 31
0.0
  0
LINE
  5
EC
  8
0
  6
CONTINUOUS
 62
     7
 10
596.015220718
 20
1015.9813104342
 30
0.0
 11
596.015220718
 21
1046.0313096787
 31
0.0
  0
ARC
  5
ED
  8
0
  6
CONTINUOUS
 62
     7
 10
445.7457621789
 20
1046.4654296568
 30
0.0
 40
2.677723208848496
 50
349.5839101399
 51
13.8249287398
  0
ARC
  5
EE
  8
0
  6
CONTINUOUS
 62
     7
 10
599.8833625446
 20
1046.428693892
 30
0.0
 40
3.893927804875905
 50
169.993721239
 51
186.5974398813
  0
ARC
  5
EF
  8
0
  6
CONTINUOUS
 62
     7
 10
447.0308385551
 20
1046.6100071522
 30
0.0
 40
1.405248398091996
 50
20.6372693007
 51
84.1639288526
  0
ARC
  5
F0
  8
0
  6
CONTINUOUS
 62
     7
 10
597.3473696152
 20
1046.6312658334
 30
0.0
 40
1.382507407734337
 50
95.2506921544
 51
159.9481096923
  0
ARC
  5
F1
  8
0
  6
CONTINUOUS
 62
     7
 10
440.1972896023
 20
1049.9813095401
 30
0.0
 40
2.0
 50
180.0
 51
270.0
  0
ARC
  5
F2
  8
0
  6
CONTINUOUS
 62
     7
 10
604.1972896023
 20
1049.9813095401
 30
0.0
 40
2.0
 50
270.0
 51
0.0
  0
ARC
  5
F3
  8
0
  6
CONTINUOUS
 62
     7
 10
444.1972896023
 20
1045.9813095401
 30
0.0
 40
2.0
 50
0.0
 51
90.0
  0
ARC
  5
F4
  8
0
  6
CONTINUOUS
 62
     7
 10
444.1972896023
 20
1015.9813095401
 30
0.0
 40
2.0
 50
270.0
 51
0.0
  0
ARC
  5
F5
  8
0
  6
CONTINUOUS
 62
     7
 10
600.1972896023
 20
1045.9813095401
 30
0.0
 40
2.0
 50
90.0
 51
180.0
  0
ARC
  5
F6
  8
0
  6
CONTINUOUS
 62
     7
 10
600.1972896023
 20
1015.9813095401
 30
0.0
 40
2.0
 50
180.0
 51
270.0
  0
LINE
  5
F7
  8
0
  6
CONTINUOUS
 62
     7
 10
446.1972920461
 20
1045.9813097636
 30
0.0
 11
446.1972920461
 21
1015.9813104342
 31
0.0
  0
LINE
  5
F8
  8
0
  6
CONTINUOUS
 62
     7
 10
598.1972871585
 20
1015.9813104342
 30
0.0
 11
598.1972871585
 21
1045.9813097636
 31
0.0
  0
ARC
  5
F9
  8
0
  6
CONTINUOUS
 62
     7
 10
431.4968545138
 20
1239.4813095401
 30
0.0
 40
6.500000000000129
 50
184.5443517076
 51
220.1340404465
  0
ARC
  5
FA
  8
0
  6
CONTINUOUS
 62
     7
 10
431.4968545138
 20
1239.4813095401
 30
0.0
 40
6.499999999999998
 50
139.8659595536
 51
175.4556482924
  0
LINE
  5
FB
  8
0
  6
CONTINUOUS
 62
     7
 10
427.0272908969
 20
1235.0250197719
 30
0.0
 11
427.1218611165
 21
1235.0147826742
 31
0.0
  0
LINE
  5
FC
  8
0
  6
CONTINUOUS
 62
     7
 10
427.1170405908
 20
1243.9813031028
 30
0.0
 11
427.0515872403
 21
1243.9637048314
 31
0.0
  0
LINE
  5
FD
  8
0
  6
CONTINUOUS
 62
     7
 10
427.1170405908
 20
1234.9813146661
 30
0.0
 11
428.2127080722
 21
1234.9813146661
 31
0.0
  0
LINE
  5
FE
  8
0
  6
CONTINUOUS
 62
     7
 10
428.2127080722
 20
1243.9813031028
 30
0.0
 11
427.1170405908
 21
1243.9813031028
 31
0.0
  0
LINE
  5
FF
  8
0
  6
CONTINUOUS
 62
     7
 10
591.800859408
 20
1243.9813031028
 30
0.0
 11
590.998782055
 21
1243.9813031028
 31
0.0
  0
LINE
  5
100
  8
0
  6
CONTINUOUS
 62
     7
 10
590.998782055
 20
1234.9813146661
 30
0.0
 11
591.800859408
 21
1234.9813146661
 31
0.0
  0
LINE
  5
101
  8
0
  6
CONTINUOUS
 62
     7
 10
591.4617983861
 20
1250.9693963598
 30
0.0
 11
591.7624665661
 21
1250.9498013328
 31
0.0
  0
POLYLINE
  5
102
  8
0
  6
CONTINUOUS
 62
     7
 66
     1
 10
0.0
 20
0.0
 30
0.0
 70
   128
  0
VERTEX
  5
594
  8
0
  6
CONTINUOUS
 62
     7
 10
583.957048343
 20
1250.9693963598
 30
0.0
  0
VERTEX
  5
595
  8
0
  6
CONTINUOUS
 62
     7
 10
587.8167955442
 20
1250.9562535356
 30
0.0
  0
VERTEX
  5
596
  8
0
  6
CONTINUOUS
 62
     7
 10
591.4617983861
 20
1250.9693963598
 30
0.0
  0
SEQEND
  5
9A4
  8
0
  6
CONTINUOUS
 62
     7
  0
LINE
  5
103
  8
0
  6
CONTINUOUS
 62
     7
 10
583.6181884869
 20
1250.9498013328
 30
0.0
 11
583.957048343
 21
1250.9693963598
 31
0.0
  0
ARC
  5
104
  8
0
  6
CONTINUOUS
 62
     7
 10
584.3021246761
 20
1245.9608777499
 30
0.0
 40
5.035586085748444
 50
97.8060723347
 51
179.7675500062
  0
LINE
  5
105
  8
0
  6
CONTINUOUS
 62
     7
 10
579.2665800317
 20
1223.9813072751
 30
0.0
 11
579.2665800317
 21
1245.9813071559
 31
0.0
  0
LINE
  5
106
  8
0
  6
CONTINUOUS
 62
     7
 10
436.1851198836
 20
1245.9813071559
 30
0.0
 11
436.1851198836
 21
1223.9813072751
 31
0.0
  0
POLYLINE
  5
107
  8
0
  6
CONTINUOUS
 62
     7
 66
     1
 10
0.0
 20
0.0
 30
0.0
 70
   128
  0
VERTEX
  5
597
  8
0
  6
CONTINUOUS
 62
     7
 10
434.2226444049
 20
1250.9498013328
 30
0.0
  0
VERTEX
  5
598
  8
0
  6
CONTINUOUS
 62
     7
 10
434.6097393199
 20
1250.7460130523
 30
0.0
  0
VERTEX
  5
599
  8
0
  6
CONTINUOUS
 62
     7
 10
435.3514520689
 20
1249.7985674213
 30
0.0
  0
VERTEX
  5
59A
  8
0
  6
CONTINUOUS
 62
     7
 10
435.8448891206
 20
1248.5406262945
 30
0.0
  0
VERTEX
  5
59B
  8
0
  6
CONTINUOUS
 62
     7
 10
436.0927103324
 20
1247.3433328937
 30
0.0
  0
VERTEX
  5
59C
  8
0
  6
CONTINUOUS
 62
     7
 10
436.1851198836
 20
1245.9813071559
 30
0.0
  0
SEQEND
  5
9A5
  8
0
  6
CONTINUOUS
 62
     7
  0
LINE
  5
108
  8
0
  6
CONTINUOUS
 62
     7
 10
434.0795113011
 20
1250.9693963598
 30
0.0
 11
434.2226444049
 21
1250.9498013328
 31
0.0
  0
POLYLINE
  5
109
  8
0
  6
CONTINUOUS
 62
     7
 66
     1
 10
0.0
 20
0.0
 30
0.0
 70
   128
  0
VERTEX
  5
59D
  8
0
  6
CONTINUOUS
 62
     7
 10
431.3325865431
 20
1250.9693963598
 30
0.0
  0
VERTEX
  5
59E
  8
0
  6
CONTINUOUS
 62
     7
 10
432.5593693419
 20
1250.9562535356
 30
0.0
  0
VERTEX
  5
59F
  8
0
  6
CONTINUOUS
 62
     7
 10
434.0795113011
 20
1250.9693963598
 30
0.0
  0
SEQEND
  5
9A6
  8
0
  6
CONTINUOUS
 62
     7
  0
LINE
  5
10A
  8
0
  6
CONTINUOUS
 62
     7
 10
431.2416298552
 20
1250.9498013328
 30
0.0
 11
431.3325865431
 21
1250.9693963598
 31
0.0
  0
LINE
  5
10B
  8
0
  6
CONTINUOUS
 62
     7
 10
595.7107005878
 20
1223.9813072751
 30
0.0
 11
614.9972884222
 21
1223.9813072751
 31
0.0
  0
LINE
  5
10C
  8
0
  6
CONTINUOUS
 62
     7
 10
436.1851198836
 20
1223.9813072751
 30
0.0
 11
579.2665800317
 21
1223.9813072751
 31
0.0
  0
LINE
  5
10D
  8
0
  6
CONTINUOUS
 62
     7
 10
450.4972903295
 20
1283.9813096593
 30
0.0
 11
593.8972888752
 21
1283.9813096593
 31
0.0
  0
ARC
  5
10E
  8
0
  6
CONTINUOUS
 62
     7
 10
585.5920686274
 20
1250.8429493871
 30
0.0
 40
1.976770130165951
 50
176.9014349942
 51
252.0493656972
  0
POLYLINE
  5
10F
  8
0
  6
CONTINUOUS
 62
     7
 66
     1
 10
0.0
 20
0.0
 30
0.0
 70
   128
  0
VERTEX
  5
5A0
  8
0
  6
CONTINUOUS
 62
     7
 10
584.9828331037
 20
1248.9624036621
 30
0.0
  0
VERTEX
  5
5A1
  8
0
  6
CONTINUOUS
 62
     7
 10
584.1335004433
 20
1248.8401396345
 30
0.0
  0
VERTEX
  5
5A2
  8
0
  6
CONTINUOUS
 62
     7
 10
582.5596025451
 20
1248.2716603349
 30
0.0
  0
VERTEX
  5
5A3
  8
0
  6
CONTINUOUS
 62
     7
 10
581.5463608368
 20
1247.5169016193
 30
0.0
  0
VERTEX
  5
5A4
  8
0
  6
CONTINUOUS
 62
     7
 10
581.0465386375
 20
1246.7985166381
 30
0.0
  0
VERTEX
  5
5A5
  8
0
  6
CONTINUOUS
 62
     7
 10
580.8765052124
 20
1246.2150616716
 30
0.0
  0
VERTEX
  5
5A6
  8
0
  6
CONTINUOUS
 62
     7
 10
580.8616040512
 20
1245.9813071559
 30
0.0
  0
SEQEND
  5
9A7
  8
0
  6
CONTINUOUS
 62
     7
  0
LINE
  5
110
  8
0
  6
CONTINUOUS
 62
     7
 10
579.2665800317
 20
1245.9813071559
 30
0.0
 11
580.8616040512
 21
1245.9813071559
 31
0.0
  0
LINE
  5
111
  8
0
  6
CONTINUOUS
 62
     7
 10
584.4965895875
 20
1245.9813071559
 30
0.0
 11
580.8616040512
 21
1245.9813071559
 31
0.0
  0
ARC
  5
112
  8
0
  6
CONTINUOUS
 62
     7
 10
590.0959942582
 20
1246.5981977358
 30
0.0
 40
5.633283825068451
 50
155.1852846833
 51
186.2869642758
  0
LINE
  5
113
  8
0
  6
CONTINUOUS
 62
     7
 10
584.4965895875
 20
1223.9813072751
 30
0.0
 11
584.4965895875
 21
1245.9813071559
 31
0.0
  0
LINE
  5
114
  8
0
  6
CONTINUOUS
 62
     7
 10
580.8616040512
 20
1245.9813071559
 30
0.0
 11
580.8616040512
 21
1223.9813072751
 31
0.0
  0
LINE
  5
115
  8
0
  6
CONTINUOUS
 62
     7
 10
584.4965895875
 20
1223.9813072751
 30
0.0
 11
580.8616040512
 21
1223.9813072751
 31
0.0
  0
LINE
  5
116
  8
0
  6
CONTINUOUS
 62
     7
 10
584.4965895875
 20
1245.9813071559
 30
0.0
 11
587.1655328436
 21
1245.9813071559
 31
0.0
  0
LINE
  5
117
  8
0
  6
CONTINUOUS
 62
     7
 10
587.1655328436
 20
1245.9813071559
 30
0.0
 11
587.1655328436
 21
1223.9813072751
 31
0.0
  0
LINE
  5
118
  8
0
  6
CONTINUOUS
 62
     7
 10
587.1655328436
 20
1223.9813072751
 30
0.0
 11
584.4965895875
 21
1223.9813072751
 31
0.0
  0
LINE
  5
119
  8
0
  6
CONTINUOUS
 62
     7
 10
585.190532939
 20
1248.9741606782
 30
0.0
 11
584.9828331037
 21
1248.9624036621
 31
0.0
  0
ARC
  5
11A
  8
0
  6
CONTINUOUS
 62
     7
 10
584.4263005689
 20
1246.3217564715
 30
0.0
 40
2.760307807347822
 50
352.9152444829
 51
73.9268185532
  0
LINE
  5
11B
  8
0
  6
CONTINUOUS
 62
     7
 10
580.8616040512
 20
1223.9813072751
 30
0.0
 11
579.2665800317
 21
1223.9813072751
 31
0.0
  0
LINE
  5
11C
  8
0
  6
CONTINUOUS
 62
     7
 10
594.8320238157
 20
1245.9813071559
 30
0.0
 11
587.1655328436
 21
1245.9813071559
 31
0.0
  0
LINE
  5
11D
  8
0
  6
CONTINUOUS
 62
     7
 10
594.8320238157
 20
1223.9813072751
 30
0.0
 11
587.1655328436
 21
1223.9813072751
 31
0.0
  0
POLYLINE
  5
11E
  8
0
  6
CONTINUOUS
 62
     7
 66
     1
 10
0.0
 20
0.0
 30
0.0
 70
   128
  0
VERTEX
  5
5A7
  8
0
  6
CONTINUOUS
 62
     7
 10
592.857023911
 20
1248.9741606782
 30
0.0
  0
VERTEX
  5
5A8
  8
0
  6
CONTINUOUS
 62
     7
 10
589.0895931287
 20
1248.966277964
 30
0.0
  0
VERTEX
  5
5A9
  8
0
  6
CONTINUOUS
 62
     7
 10
585.190532939
 20
1248.9741606782
 30
0.0
  0
SEQEND
  5
9A8
  8
0
  6
CONTINUOUS
 62
     7
  0
ARC
  5
11F
  8
0
  6
CONTINUOUS
 62
     7
 10
592.0927846301
 20
1246.321751911
 30
0.0
 40
2.760314102945548
 50
352.9153561149
 51
73.9267069213
  0
ARC
  5
120
  8
0
  6
CONTINUOUS
 62
     7
 10
585.7685933502
 20
1250.7104234574
 30
0.0
 40
1.829962370489808
 50
171.8642950133
 51
251.5856606266
  0
ARC
  5
121
  8
0
  6
CONTINUOUS
 62
     7
 10
593.3064906664
 20
1250.7739066271
 30
0.0
 40
1.855021790864447
 50
173.9507055014
 51
255.9778318796
  0
LINE
  5
122
  8
0
  6
CONTINUOUS
 62
     7
 10
595.7107005878
 20
1223.9813072751
 30
0.0
 11
594.8320238157
 21
1223.9813072751
 31
0.0
  0
LINE
  5
123
  8
0
  6
CONTINUOUS
 62
     7
 10
592.985002534
 20
1248.9659948419
 30
0.0
 11
592.857023911
 21
1248.9741606782
 31
0.0
  0
ARC
  5
124
  8
0
  6
CONTINUOUS
 62
     7
 10
431.9581708094
 20
1245.9545011282
 30
0.0
 40
3.04038347226071
 50
0.5051639592
 51
81.6174697521
  0
ARC
  5
125
  8
0
  6
CONTINUOUS
 62
     7
 10
432.2014257111
 20
1250.9738490962
 30
0.0
 40
2.021361744800415
 50
275.6776468655
 51
359.3183467261
  0
LINE
  5
126
  8
0
  6
CONTINUOUS
 62
     7
 10
434.9984361096
 20
1245.9813071559
 30
0.0
 11
436.1851198836
 21
1245.9813071559
 31
0.0
  0
ARC
  5
127
  8
0
  6
CONTINUOUS
 62
     7
 10
435.0556836485
 20
1246.5484824828
 30
0.0
 40
3.587788431348828
 50
137.7152272347
 51
189.0957568642
  0
LINE
  5
128
  8
0
  6
CONTINUOUS
 62
     7
 10
434.9984361096
 20
1245.9813071559
 30
0.0
 11
431.5130098029
 21
1245.9813071559
 31
0.0
  0
LINE
  5
129
  8
0
  6
CONTINUOUS
 62
     7
 10
434.9984361096
 20
1223.9813072751
 30
0.0
 11
434.9984361096
 21
1245.9813071559
 31
0.0
  0
LINE
  5
12A
  8
0
  6
CONTINUOUS
 62
     7
 10
436.1851198836
 20
1223.9813072751
 30
0.0
 11
434.9984361096
 21
1223.9813072751
 31
0.0
  0
LINE
  5
12B
  8
0
  6
CONTINUOUS
 62
     7
 10
431.5130098029
 20
1245.9813071559
 30
0.0
 11
431.5130098029
 21
1223.9813072751
 31
0.0
  0
LINE
  5
12C
  8
0
  6
CONTINUOUS
 62
     7
 10
434.9984361096
 20
1223.9813072751
 30
0.0
 11
431.5130098029
 21
1223.9813072751
 31
0.0
  0
LINE
  5
12D
  8
0
  6
CONTINUOUS
 62
     7
 10
429.6157716079
 20
1245.9813071559
 30
0.0
 11
431.5130098029
 21
1245.9813071559
 31
0.0
  0
ARC
  5
12E
  8
0
  6
CONTINUOUS
 62
     7
 10
432.5741533065
 20
1246.0269159165
 30
0.0
 40
2.958733248093402
 50
95.0507602961
 51
180.8832472455
  0
LINE
  5
12F
  8
0
  6
CONTINUOUS
 62
     7
 10
432.4014021321
 20
1248.9624036621
 30
0.0
 11
432.3136715456
 21
1248.9741606782
 31
0.0
  0
LINE
  5
130
  8
0
  6
CONTINUOUS
 62
     7
 10
429.6157716079
 20
1223.9813072751
 30
0.0
 11
429.6157716079
 21
1245.9813071559
 31
0.0
  0
LINE
  5
131
  8
0
  6
CONTINUOUS
 62
     7
 10
431.5130098029
 20
1223.9813072751
 30
0.0
 11
429.6157716079
 21
1223.9813072751
 31
0.0
  0
LINE
  5
132
  8
0
  6
CONTINUOUS
 62
     7
 10
429.6157716079
 20
1245.9813071559
 30
0.0
 11
426.8096445365
 21
1245.9813071559
 31
0.0
  0
ARC
  5
133
  8
0
  6
CONTINUOUS
 62
     7
 10
429.76801748
 20
1246.0269238087
 30
0.0
 40
2.958724615740715
 50
95.0506048675
 51
180.883402674
  0
POLYLINE
  5
134
  8
0
  6
CONTINUOUS
 62
     7
 66
     1
 10
0.0
 20
0.0
 30
0.0
 70
   128
  0
VERTEX
  5
5AA
  8
0
  6
CONTINUOUS
 62
     7
 10
432.3136715456
 20
1248.9741606782
 30
0.0
  0
VERTEX
  5
5AB
  8
0
  6
CONTINUOUS
 62
     7
 10
430.8207093044
 20
1248.966277964
 30
0.0
  0
VERTEX
  5
5AC
  8
0
  6
CONTINUOUS
 62
     7
 10
429.5075444742
 20
1248.9741606782
 30
0.0
  0
SEQEND
  5
9A9
  8
0
  6
CONTINUOUS
 62
     7
  0
ARC
  5
135
  8
0
  6
CONTINUOUS
 62
     7
 10
432.1230468394
 20
1250.9218957023
 30
0.0
 40
1.957041006834242
 50
275.5897326211
 51
1.3908009497
  0
LINE
  5
136
  8
0
  6
CONTINUOUS
 62
     7
 10
429.6157716079
 20
1223.9813072751
 30
0.0
 11
426.8096445365
 21
1223.9813072751
 31
0.0
  0
ARC
  5
137
  8
0
  6
CONTINUOUS
 62
     7
 10
429.3478099404
 20
1250.9525706824
 30
0.0
 40
1.984847920124766
 50
274.6159821338
 51
0.4857056477
  0
POLYLINE
  5
138
  8
0
  6
CONTINUOUS
 62
     7
 66
     1
 10
0.0
 20
0.0
 30
0.0
 70
   128
  0
VERTEX
  5
5AD
  8
0
  6
CONTINUOUS
 62
     7
 10
429.4517992301
 20
1248.9624036621
 30
0.0
  0
VERTEX
  5
5AE
  8
0
  6
CONTINUOUS
 62
     7
 10
429.813279049
 20
1249.0229917835
 30
0.0
  0
VERTEX
  5
5AF
  8
0
  6
CONTINUOUS
 62
     7
 10
430.0670607253
 20
1249.1105957101
 30
0.0
  0
SEQEND
  5
9AA
  8
0
  6
CONTINUOUS
 62
     7
  0
LINE
  5
139
  8
0
  6
CONTINUOUS
 62
     7
 10
426.8096445365
 20
1223.9813072751
 30
0.0
 11
426.7074225708
 21
1223.9813072751
 31
0.0
  0
LINE
  5
13A
  8
0
  6
CONTINUOUS
 62
     7
 10
509.6972894161
 20
1284.0313030551
 30
0.0
 11
534.6972897886
 21
1284.0313030551
 31
0.0
  0
LINE
  5
13B
  8
0
  6
CONTINUOUS
 62
     7
 10
513.1972899898
 20
1284.0813113521
 30
0.0
 11
531.1972892149
 21
1284.0813113521
 31
0.0
  0
LINE
  5
13C
  8
0
  6
CONTINUOUS
 62
     7
 10
512.6710098474
 20
1284.0813113521
 30
0.0
 11
512.6710098474
 21
1284.0313030551
 31
0.0
  0
LINE
  5
13D
  8
0
  6
CONTINUOUS
 62
     7
 10
512.6710098474
 20
1284.0813113521
 30
0.0
 11
513.1972899898
 21
1284.0813113521
 31
0.0
  0
LINE
  5
13E
  8
0
  6
CONTINUOUS
 62
     7
 10
618.1972904368
 20
1220.4813076328
 30
0.0
 11
618.1972904368
 21
1181.4813031028
 31
0.0
  0
POLYLINE
  5
13F
  8
0
  6
CONTINUOUS
 62
     7
 66
     1
 10
0.0
 20
0.0
 30
0.0
 70
   128
  0
VERTEX
  5
5B0
  8
0
  6
CONTINUOUS
 62
     7
 10
656.5045250817
 20
1140.8738581608
 30
0.0
  0
VERTEX
  5
5B1
  8
0
  6
CONTINUOUS
 62
     7
 10
656.7084176703
 20
1140.3136415552
 30
0.0
  0
VERTEX
  5
5B2
  8
0
  6
CONTINUOUS
 62
     7
 10
657.0981128378
 20
1139.2429856728
 30
0.0
  0
VERTEX
  5
5B3
  8
0
  6
CONTINUOUS
 62
     7
 10
657.4350429936
 20
1138.3172435831
 30
0.0
  0
VERTEX
  5
5B4
  8
0
  6
CONTINUOUS
 62
     7
 10
657.6893164082
 20
1137.6186696957
 30
0.0
  0
VERTEX
  5
5B5
  8
0
  6
CONTINUOUS
 62
     7
 10
657.8382982178
 20
1137.2093273471
 30
0.0
  0
VERTEX
  5
5B6
  8
0
  6
CONTINUOUS
 62
     7
 10
657.8726006909
 20
1137.1150849532
 30
0.0
  0
SEQEND
  5
9AB
  8
0
  6
CONTINUOUS
 62
     7
  0
ARC
  5
140
  8
0
  6
CONTINUOUS
 62
     7
 10
653.3095628735
 20
1139.7109897943
 30
0.0
 40
6.479565957685798
 50
2.1648678204
 51
12.3032352969
  0
ARC
  5
141
  8
0
  6
CONTINUOUS
 62
     7
 10
657.5827664891
 20
1120.5396208999
 30
0.0
 40
19.54056941101148
 50
83.4698353522
 51
83.5304329449
  0
POLYLINE
  5
142
  8
0
  6
CONTINUOUS
 62
     7
 66
     1
 10
0.0
 20
0.0
 30
0.0
 70
   128
  0
VERTEX
  5
5B7
  8
0
  6
CONTINUOUS
 62
     7
 10
658.4269834919
 20
1143.6854986618
 30
0.0
  0
VERTEX
  5
5B8
  8
0
  6
CONTINUOUS
 62
     7
 10
658.4332121773
 20
1143.6920551728
 30
0.0
  0
VERTEX
  5
5B9
  8
0
  6
CONTINUOUS
 62
     7
 10
658.4376527234
 20
1143.696741588
 30
0.0
  0
VERTEX
  5
5BA
  8
0
  6
CONTINUOUS
 62
     7
 10
658.4403200312
 20
1143.6995579074
 30
0.0
  0
VERTEX
  5
5BB
  8
0
  6
CONTINUOUS
 62
     7
 10
658.4412141009
 20
1143.7004966806
 30
0.0
  0
SEQEND
  5
9AC
  8
0
  6
CONTINUOUS
 62
     7
  0
ARC
  5
143
  8
0
  6
CONTINUOUS
 62
     7
 10
653.3095628735
 20
1139.7109897943
 30
0.0
 40
6.479565957685798
 50
27.6967647031
 51
37.8351321796
  0
POLYLINE
  5
144
  8
0
  6
CONTINUOUS
 62
     7
 66
     1
 10
0.0
 20
0.0
 30
0.0
 70
   128
  0
VERTEX
  5
5BC
  8
0
  6
CONTINUOUS
 62
     7
 10
659.0466929837
 20
1142.7226377796
 30
0.0
  0
VERTEX
  5
5BD
  8
0
  6
CONTINUOUS
 62
     7
 10
659.0582711859
 20
1142.6908461522
 30
0.0
  0
VERTEX
  5
5BE
  8
0
  6
CONTINUOUS
 62
     7
 10
659.0709520741
 20
1142.6559997867
 30
0.0
  0
VERTEX
  5
5BF
  8
0
  6
CONTINUOUS
 62
     7
 10
659.0847058459
 20
1142.6182253431
 30
0.0
  0
VERTEX
  5
5C0
  8
0
  6
CONTINUOUS
 62
     7
 10
659.0994579955
 20
1142.577686734
 30
0.0
  0
VERTEX
  5
5C1
  8
0
  6
CONTINUOUS
 62
     7
 10
659.1151638194
 20
1142.5345329712
 30
0.0
  0
VERTEX
  5
5C2
  8
0
  6
CONTINUOUS
 62
     7
 10
659.1317637129
 20
1142.4889279674
 30
0.0
  0
VERTEX
  5
5C3
  8
0
  6
CONTINUOUS
 62
     7
 10
659.1491831704
 20
1142.4410579871
 30
0.0
  0
VERTEX
  5
5C4
  8
0
  6
CONTINUOUS
 62
     7
 10
659.167362587
 20
1142.3911092947
 30
0.0
  0
SEQEND
  5
9AD
  8
0
  6
CONTINUOUS
 62
     7
  0
POLYLINE
  5
145
  8
0
  6
CONTINUOUS
 62
     7
 66
     1
 10
0.0
 20
0.0
 30
0.0
 70
   128
  0
VERTEX
  5
5C5
  8
0
  6
CONTINUOUS
 62
     7
 10
659.167362587
 20
1142.3911092947
 30
0.0
  0
VERTEX
  5
5C6
  8
0
  6
CONTINUOUS
 62
     7
 10
659.147856967
 20
1142.3840088914
 30
0.0
  0
VERTEX
  5
5C7
  8
0
  6
CONTINUOUS
 62
     7
 10
659.1254009171
 20
1142.3758356045
 30
0.0
  0
VERTEX
  5
5C8
  8
0
  6
CONTINUOUS
 62
     7
 10
659.1000242396
 20
1142.3665968846
 30
0.0
  0
VERTEX
  5
5C9
  8
0
  6
CONTINUOUS
 62
     7
 10
659.0717120333
 20
1142.3562927316
 30
0.0
  0
VERTEX
  5
5CA
  8
0
  6
CONTINUOUS
 62
     7
 10
659.0405090018
 20
1142.3449305962
 30
0.0
  0
VERTEX
  5
5CB
  8
0
  6
CONTINUOUS
 62
     7
 10
659.0064002438
 20
1142.3325253795
 30
0.0
  0
VERTEX
  5
5CC
  8
0
  6
CONTINUOUS
 62
     7
 10
658.9694304629
 20
1142.3190621804
 30
0.0
  0
VERTEX
  5
5CD
  8
0
  6
CONTINUOUS
 62
     7
 10
658.929599659
 20
1142.3045708011
 30
0.0
  0
SEQEND
  5
9AE
  8
0
  6
CONTINUOUS
 62
     7
  0
ARC
  5
146
  8
0
  6
CONTINUOUS
 62
     7
 10
652.3778351207
 20
1139.3717810957
 30
0.0
 40
7.178222204783424
 50
15.8864473876
 51
24.1148913931
  0
POLYLINE
  5
147
  8
0
  6
CONTINUOUS
 62
     7
 66
     1
 10
0.0
 20
0.0
 30
0.0
 70
   128
  0
VERTEX
  5
5CE
  8
0
  6
CONTINUOUS
 62
     7
 10
659.281892912
 20
1141.3366882275
 30
0.0
  0
VERTEX
  5
5CF
  8
0
  6
CONTINUOUS
 62
     7
 10
659.3217088147
 20
1141.3511796068
 30
0.0
  0
VERTEX
  5
5D0
  8
0
  6
CONTINUOUS
 62
     7
 10
659.3586785956
 20
1141.3646353553
 30
0.0
  0
VERTEX
  5
5D1
  8
0
  6
CONTINUOUS
 62
     7
 10
659.3927873536
 20
1141.3770480226
 30
0.0
  0
VERTEX
  5
5D2
  8
0
  6
CONTINUOUS
 62
     7
 10
659.4239903851
 20
1141.388410158
 30
0.0
  0
VERTEX
  5
5D3
  8
0
  6
CONTINUOUS
 62
     7
 10
659.4523025914
 20
1141.398714311
 30
0.0
  0
VERTEX
  5
5D4
  8
0
  6
CONTINUOUS
 62
     7
 10
659.4776792689
 20
1141.4079530309
 30
0.0
  0
VERTEX
  5
5D5
  8
0
  6
CONTINUOUS
 62
     7
 10
659.5001353188
 20
1141.4161263178
 30
0.0
  0
VERTEX
  5
5D6
  8
0
  6
CONTINUOUS
 62
     7
 10
659.5196409388
 20
1141.4232267211
 30
0.0
  0
SEQEND
  5
9AF
  8
0
  6
CONTINUOUS
 62
     7
  0
POLYLINE
  5
148
  8
0
  6
CONTINUOUS
 62
     7
 66
     1
 10
0.0
 20
0.0
 30
0.0
 70
   128
  0
VERTEX
  5
5D7
  8
0
  6
CONTINUOUS
 62
     7
 10
659.5196409388
 20
1141.4232267211
 30
0.0
  0
VERTEX
  5
5D8
  8
0
  6
CONTINUOUS
 62
     7
 10
659.5378352566
 20
1141.3732705782
 30
0.0
  0
VERTEX
  5
5D9
  8
0
  6
CONTINUOUS
 62
     7
 10
659.5552547141
 20
1141.3254005979
 30
0.0
  0
VERTEX
  5
5DA
  8
0
  6
CONTINUOUS
 62
     7
 10
659.5718546076
 20
1141.2798030446
 30
0.0
  0
VERTEX
  5
5DB
  8
0
  6
CONTINUOUS
 62
     7
 10
659.5875604315
 20
1141.2366418312
 30
0.0
  0
VERTEX
  5
5DC
  8
0
  6
CONTINUOUS
 62
     7
 10
659.6023125811
 20
1141.1961032222
 30
0.0
  0
VERTEX
  5
5DD
  8
0
  6
CONTINUOUS
 62
     7
 10
659.6160663529
 20
1141.1583362292
 30
0.0
  0
VERTEX
  5
5DE
  8
0
  6
CONTINUOUS
 62
     7
 10
659.6287472411
 20
1141.1234824131
 30
0.0
  0
VERTEX
  5
5DF
  8
0
  6
CONTINUOUS
 62
     7
 10
659.6403105422
 20
1141.0916907857
 30
0.0
  0
SEQEND
  5
9B0
  8
0
  6
CONTINUOUS
 62
     7
  0
ARC
  5
149
  8
0
  6
CONTINUOUS
 62
     7
 10
622.1857298308
 20
1225.2230182858
 30
0.0
 40
6.479565957685798
 50
2.1648678204
 51
12.3032352969
  0
ARC
  5
14A
  8
0
  6
CONTINUOUS
 62
     7
 10
629.2186448002
 20
1230.2756020726
 30
0.0
 40
4.840084400296067
 50
263.3801042359
 51
263.624838905
  0
ARC
  5
14B
  8
0
  6
CONTINUOUS
 62
     7
 10
621.3183112547
 20
1234.8932170779
 30
0.0
 40
8.261908280317336
 50
316.4180927532
 51
316.5614342408
  0
ARC
  5
14C
  8
0
  6
CONTINUOUS
 62
     7
 10
622.1857298308
 20
1225.2230182858
 30
0.0
 40
6.479565957685693
 50
27.6967647031
 51
37.8351321796
  0
POLYLINE
  5
14D
  8
0
  6
CONTINUOUS
 62
     7
 66
     1
 10
0.0
 20
0.0
 30
0.0
 70
   128
  0
VERTEX
  5
5E0
  8
0
  6
CONTINUOUS
 62
     7
 10
627.9228685661
 20
1228.234664924
 30
0.0
  0
VERTEX
  5
5E1
  8
0
  6
CONTINUOUS
 62
     7
 10
627.9344393178
 20
1228.2028807472
 30
0.0
  0
VERTEX
  5
5E2
  8
0
  6
CONTINUOUS
 62
     7
 10
627.9471202059
 20
1228.1680269311
 30
0.0
  0
VERTEX
  5
5E3
  8
0
  6
CONTINUOUS
 62
     7
 10
627.9608665271
 20
1228.1302524875
 30
0.0
  0
VERTEX
  5
5E4
  8
0
  6
CONTINUOUS
 62
     7
 10
627.9756261273
 20
1228.0897213291
 30
0.0
  0
VERTEX
  5
5E5
  8
0
  6
CONTINUOUS
 62
     7
 10
627.9913319512
 20
1228.0465675662
 30
0.0
  0
VERTEX
  5
5E6
  8
0
  6
CONTINUOUS
 62
     7
 10
628.0079318448
 20
1228.0009551118
 30
0.0
  0
VERTEX
  5
5E7
  8
0
  6
CONTINUOUS
 62
     7
 10
628.0253513022
 20
1227.9530925821
 30
0.0
  0
VERTEX
  5
5E8
  8
0
  6
CONTINUOUS
 62
     7
 10
628.0435307189
 20
1227.9031289886
 30
0.0
  0
SEQEND
  5
9B1
  8
0
  6
CONTINUOUS
 62
     7
  0
POLYLINE
  5
14E
  8
0
  6
CONTINUOUS
 62
     7
 66
     1
 10
0.0
 20
0.0
 30
0.0
 70
   128
  0
VERTEX
  5
5E9
  8
0
  6
CONTINUOUS
 62
     7
 10
628.0435307189
 20
1227.9031289886
 30
0.0
  0
VERTEX
  5
5EA
  8
0
  6
CONTINUOUS
 62
     7
 10
628.0240250989
 20
1227.8960360359
 30
0.0
  0
VERTEX
  5
5EB
  8
0
  6
CONTINUOUS
 62
     7
 10
628.0015690489
 20
1227.8878552984
 30
0.0
  0
VERTEX
  5
5EC
  8
0
  6
CONTINUOUS
 62
     7
 10
627.9761849208
 20
1227.8786165784
 30
0.0
  0
VERTEX
  5
5ED
  8
0
  6
CONTINUOUS
 62
     7
 10
627.9478801652
 20
1227.868319876
 30
0.0
  0
VERTEX
  5
5EE
  8
0
  6
CONTINUOUS
 62
     7
 10
627.916669683
 20
1227.8569651912
 30
0.0
  0
VERTEX
  5
5EF
  8
0
  6
CONTINUOUS
 62
     7
 10
627.8825683756
 20
1227.8445525239
 30
0.0
  0
VERTEX
  5
5F0
  8
0
  6
CONTINUOUS
 62
     7
 10
627.8455985947
 20
1227.8310967754
 30
0.0
  0
VERTEX
  5
5F1
  8
0
  6
CONTINUOUS
 62
     7
 10
627.8057752414
 20
1227.8165979455
 30
0.0
  0
SEQEND
  5
9B2
  8
0
  6
CONTINUOUS
 62
     7
  0
ARC
  5
14F
  8
0
  6
CONTINUOUS
 62
     7
 10
621.2533945348
 20
1224.883705393
 30
0.0
 40
7.178826620625269
 50
15.8858660923
 51
24.1136313583
  0
POLYLINE
  5
150
  8
0
  6
CONTINUOUS
 62
     7
 66
     1
 10
0.0
 20
0.0
 30
0.0
 70
   128
  0
VERTEX
  5
5F2
  8
0
  6
CONTINUOUS
 62
     7
 10
628.1580535932
 20
1226.8487079214
 30
0.0
  0
VERTEX
  5
5F3
  8
0
  6
CONTINUOUS
 62
     7
 10
628.1978769465
 20
1226.8632067512
 30
0.0
  0
VERTEX
  5
5F4
  8
0
  6
CONTINUOUS
 62
     7
 10
628.234854178
 20
1226.8766624998
 30
0.0
  0
VERTEX
  5
5F5
  8
0
  6
CONTINUOUS
 62
     7
 10
628.2689480348
 20
1226.889075167
 30
0.0
  0
VERTEX
  5
5F6
  8
0
  6
CONTINUOUS
 62
     7
 10
628.3001585169
 20
1226.900444753
 30
0.0
  0
VERTEX
  5
5F7
  8
0
  6
CONTINUOUS
 62
     7
 10
628.3284632726
 20
1226.9107414554
 30
0.0
  0
VERTEX
  5
5F8
  8
0
  6
CONTINUOUS
 62
     7
 10
628.3538474007
 20
1226.9199801753
 30
0.0
  0
VERTEX
  5
5F9
  8
0
  6
CONTINUOUS
 62
     7
 10
628.3763034506
 20
1226.9281460117
 30
0.0
  0
VERTEX
  5
5FA
  8
0
  6
CONTINUOUS
 62
     7
 10
628.3958165212
 20
1226.9352538656
 30
0.0
  0
SEQEND
  5
9B3
  8
0
  6
CONTINUOUS
 62
     7
  0
POLYLINE
  5
151
  8
0
  6
CONTINUOUS
 62
     7
 66
     1
 10
0.0
 20
0.0
 30
0.0
 70
   128
  0
VERTEX
  5
5FB
  8
0
  6
CONTINUOUS
 62
     7
 10
628.3958165212
 20
1226.9352538656
 30
0.0
  0
VERTEX
  5
5FC
  8
0
  6
CONTINUOUS
 62
     7
 10
628.4139959379
 20
1226.8853051732
 30
0.0
  0
VERTEX
  5
5FD
  8
0
  6
CONTINUOUS
 62
     7
 10
628.4314228459
 20
1226.8374277423
 30
0.0
  0
VERTEX
  5
5FE
  8
0
  6
CONTINUOUS
 62
     7
 10
628.4480152889
 20
1226.7918301891
 30
0.0
  0
VERTEX
  5
5FF
  8
0
  6
CONTINUOUS
 62
     7
 10
628.4637211128
 20
1226.7486764263
 30
0.0
  0
VERTEX
  5
600
  8
0
  6
CONTINUOUS
 62
     7
 10
628.4784807129
 20
1226.7081303667
 30
0.0
  0
VERTEX
  5
601
  8
0
  6
CONTINUOUS
 62
     7
 10
628.4922270341
 20
1226.670355923
 30
0.0
  0
VERTEX
  5
602
  8
0
  6
CONTINUOUS
 62
     7
 10
628.5049079223
 20
1226.6355170082
 30
0.0
  0
VERTEX
  5
603
  8
0
  6
CONTINUOUS
 62
     7
 10
628.5164861246
 20
1226.6037179302
 30
0.0
  0
SEQEND
  5
9B4
  8
0
  6
CONTINUOUS
 62
     7
  0
LINE
  5
152
  8
0
  6
CONTINUOUS
 62
     7
 10
659.7021056576
 20
1179.9813075136
 30
0.0
 11
659.6520973607
 21
1179.9813075136
 31
0.0
  0
LINE
  5
153
  8
0
  6
CONTINUOUS
 62
     7
 10
659.6520973607
 20
1181.4813031028
 30
0.0
 11
659.7021056576
 21
1181.4813031028
 31
0.0
  0
LINE
  5
154
  8
0
  6
CONTINUOUS
 62
     7
 10
659.7021056576
 20
1181.4813031028
 30
0.0
 11
659.7021056576
 21
1179.9813075136
 31
0.0
  0
LINE
  5
155
  8
0
  6
CONTINUOUS
 62
     7
 10
659.7021056576
 20
1198.3998878072
 30
0.0
 11
659.6520973607
 21
1198.3998878072
 31
0.0
  0
LINE
  5
156
  8
0
  6
CONTINUOUS
 62
     7
 10
659.7021056576
 20
1198.3998878072
 30
0.0
 11
659.7021056576
 21
1181.4813031028
 31
0.0
  0
LINE
  5
157
  8
0
  6
CONTINUOUS
 62
     7
 10
659.7520990534
 20
1196.899892218
 30
0.0
 11
659.7021056576
 21
1196.899892218
 31
0.0
  0
LINE
  5
158
  8
0
  6
CONTINUOUS
 62
     7
 10
659.7520990534
 20
1196.899892218
 30
0.0
 11
659.7520990534
 21
1181.4813031028
 31
0.0
  0
LINE
  5
159
  8
0
  6
CONTINUOUS
 62
     7
 10
659.7520990534
 20
1181.4813031028
 30
0.0
 11
659.7021056576
 21
1181.4813031028
 31
0.0
  0
LINE
  5
15A
  8
0
  6
CONTINUOUS
 62
     7
 10
659.7021056576
 20
1198.8998962711
 30
0.0
 11
659.7021056576
 21
1198.3998878072
 31
0.0
  0
LINE
  5
15B
  8
0
  6
CONTINUOUS
 62
     7
 10
654.9070460959
 20
1140.2924223016
 30
0.0
 11
623.4411878748
 21
1226.7441464733
 31
0.0
  0
POLYLINE
  5
15C
  8
0
  6
CONTINUOUS
 62
     7
 66
     1
 10
0.0
 20
0.0
 30
0.0
 70
   128
  0
VERTEX
  5
604
  8
0
  6
CONTINUOUS
 62
     7
 10
623.4411878748
 20
1226.7441464733
 30
0.0
  0
VERTEX
  5
605
  8
0
  6
CONTINUOUS
 62
     7
 10
623.7528382106
 20
1226.8575741123
 30
0.0
  0
VERTEX
  5
606
  8
0
  6
CONTINUOUS
 62
     7
 10
624.0525154634
 20
1226.9666506122
 30
0.0
  0
VERTEX
  5
607
  8
0
  6
CONTINUOUS
 62
     7
 10
624.3287010356
 20
1227.0671738456
 30
0.0
  0
VERTEX
  5
608
  8
0
  6
CONTINUOUS
 62
     7
 10
624.5707778497
 20
1227.1552844118
 30
0.0
  0
VERTEX
  5
609
  8
0
  6
CONTINUOUS
 62
     7
 10
624.7694401308
 20
1227.2275848459
 30
0.0
  0
VERTEX
  5
60A
  8
0
  6
CONTINUOUS
 62
     7
 10
624.9170659347
 20
1227.2813184331
 30
0.0
  0
VERTEX
  5
60B
  8
0
  6
CONTINUOUS
 62
     7
 10
625.0079704686
 20
1227.3144139121
 30
0.0
  0
VERTEX
  5
60C
  8
0
  6
CONTINUOUS
 62
     7
 10
625.0386668606
 20
1227.3255748819
 30
0.0
  0
SEQEND
  5
9B5
  8
0
  6
CONTINUOUS
 62
     7
  0
LINE
  5
15D
  8
0
  6
CONTINUOUS
 62
     7
 10
625.0386668606
 20
1227.3255748819
 30
0.0
 11
656.5045250817
 21
1140.8738581608
 31
0.0
  0
POLYLINE
  5
15E
  8
0
  6
CONTINUOUS
 62
     7
 66
     1
 10
0.0
 20
0.0
 30
0.0
 70
   128
  0
VERTEX
  5
60D
  8
0
  6
CONTINUOUS
 62
     7
 10
654.9070460959
 20
1140.2924223016
 30
0.0
  0
VERTEX
  5
60E
  8
0
  6
CONTINUOUS
 62
     7
 10
655.2186889811
 20
1140.4058573912
 30
0.0
  0
VERTEX
  5
60F
  8
0
  6
CONTINUOUS
 62
     7
 10
655.5183662339
 20
1140.5149264406
 30
0.0
  0
VERTEX
  5
610
  8
0
  6
CONTINUOUS
 62
     7
 10
655.7945443554
 20
1140.615449674
 30
0.0
  0
VERTEX
  5
611
  8
0
  6
CONTINUOUS
 62
     7
 10
656.0366286202
 20
1140.7035602401
 30
0.0
  0
VERTEX
  5
612
  8
0
  6
CONTINUOUS
 62
     7
 10
656.2352909012
 20
1140.7758681248
 30
0.0
  0
VERTEX
  5
613
  8
0
  6
CONTINUOUS
 62
     7
 10
656.3829167052
 20
1140.8296017121
 30
0.0
  0
VERTEX
  5
614
  8
0
  6
CONTINUOUS
 62
     7
 10
656.4738286896
 20
1140.8626897405
 30
0.0
  0
VERTEX
  5
615
  8
0
  6
CONTINUOUS
 62
     7
 10
656.5045250817
 20
1140.8738581608
 30
0.0
  0
SEQEND
  5
9B6
  8
0
  6
CONTINUOUS
 62
     7
  0
LINE
  5
15F
  8
0
  6
CONTINUOUS
 62
     7
 10
650.8663578196
 20
1138.8217372964
 30
0.0
 11
619.4005070491
 21
1225.2734614681
 31
0.0
  0
LINE
  5
160
  8
0
  6
CONTINUOUS
 62
     7
 10
623.4411878748
 20
1226.7441464733
 30
0.0
 11
619.4005070491
 21
1225.2734614681
 31
0.0
  0
LINE
  5
161
  8
0
  6
CONTINUOUS
 62
     7
 10
650.8663578196
 20
1138.8217372964
 30
0.0
 11
654.9070460959
 21
1140.2924223016
 31
0.0
  0
POLYLINE
  5
162
  8
0
  6
CONTINUOUS
 62
     7
 66
     1
 10
0.0
 20
0.0
 30
0.0
 70
   128
  0
VERTEX
  5
616
  8
0
  6
CONTINUOUS
 62
     7
 10
623.4411878748
 20
1226.7441464733
 30
0.0
  0
VERTEX
  5
617
  8
0
  6
CONTINUOUS
 62
     7
 10
623.0608580871
 20
1227.789090402
 30
0.0
  0
VERTEX
  5
618
  8
0
  6
CONTINUOUS
 62
     7
 10
622.6951388879
 20
1228.7938906024
 30
0.0
  0
VERTEX
  5
619
  8
0
  6
CONTINUOUS
 62
     7
 10
622.3580969735
 20
1229.7199232648
 30
0.0
  0
VERTEX
  5
61A
  8
0
  6
CONTINUOUS
 62
     7
 10
622.0626740022
 20
1230.5315895151
 30
0.0
  0
VERTEX
  5
61B
  8
0
  6
CONTINUOUS
 62
     7
 10
621.820224659
 20
1231.1977012227
 30
0.0
  0
VERTEX
  5
61C
  8
0
  6
CONTINUOUS
 62
     7
 10
621.6400696202
 20
1231.6926730941
 30
0.0
  0
VERTEX
  5
61D
  8
0
  6
CONTINUOUS
 62
     7
 10
621.5291304751
 20
1231.9974763463
 30
0.0
  0
VERTEX
  5
61E
  8
0
  6
CONTINUOUS
 62
     7
 10
621.4916689559
 20
1232.1003986667
 30
0.0
  0
SEQEND
  5
9B7
  8
0
  6
CONTINUOUS
 62
     7
  0
ARC
  5
163
  8
0
  6
CONTINUOUS
 62
     7
 10
622.0731065695
 20
1230.5029156334
 30
0.0
 40
1.699999999999982
 50
20.0
 51
110.0
  0
POLYLINE
  5
164
  8
0
  6
CONTINUOUS
 62
     7
 66
     1
 10
0.0
 20
0.0
 30
0.0
 70
   128
  0
VERTEX
  5
61F
  8
0
  6
CONTINUOUS
 62
     7
 10
623.6705838008
 20
1231.0843480895
 30
0.0
  0
VERTEX
  5
620
  8
0
  6
CONTINUOUS
 62
     7
 10
623.6968694492
 20
1231.0121221612
 30
0.0
  0
VERTEX
  5
621
  8
0
  6
CONTINUOUS
 62
     7
 10
623.7747205658
 20
1230.7982308935
 30
0.0
  0
VERTEX
  5
622
  8
0
  6
CONTINUOUS
 62
     7
 10
623.901149468
 20
1230.450884826
 30
0.0
  0
VERTEX
  5
623
  8
0
  6
CONTINUOUS
 62
     7
 10
624.0712834759
 20
1229.9834353994
 30
0.0
  0
VERTEX
  5
624
  8
0
  6
CONTINUOUS
 62
     7
 10
624.2786033316
 20
1229.4138385127
 30
0.0
  0
VERTEX
  5
625
  8
0
  6
CONTINUOUS
 62
     7
 10
624.5151220127
 20
1228.7639988731
 30
0.0
  0
VERTEX
  5
626
  8
0
  6
CONTINUOUS
 62
     7
 10
624.7717647119
 20
1228.0588759254
 30
0.0
  0
VERTEX
  5
627
  8
0
  6
CONTINUOUS
 62
     7
 10
625.0386668606
 20
1227.3255748819
 30
0.0
  0
SEQEND
  5
9B8
  8
0
  6
CONTINUOUS
 62
     7
  0
LINE
  5
165
  8
0
  6
CONTINUOUS
 62
     7
 10
617.4509955807
 20
1230.6297136615
 30
0.0
 11
621.4916689559
 21
1232.1003986667
 31
0.0
  0
POLYLINE
  5
166
  8
0
  6
CONTINUOUS
 62
     7
 66
     1
 10
0.0
 20
0.0
 30
0.0
 70
   128
  0
VERTEX
  5
628
  8
0
  6
CONTINUOUS
 62
     7
 10
619.4005070491
 20
1225.2734614681
 30
0.0
  0
VERTEX
  5
629
  8
0
  6
CONTINUOUS
 62
     7
 10
619.0201772614
 20
1226.3184053968
 30
0.0
  0
VERTEX
  5
62A
  8
0
  6
CONTINUOUS
 62
     7
 10
618.6544655128
 20
1227.3232055972
 30
0.0
  0
VERTEX
  5
62B
  8
0
  6
CONTINUOUS
 62
     7
 10
618.3174161478
 20
1228.2492233585
 30
0.0
  0
VERTEX
  5
62C
  8
0
  6
CONTINUOUS
 62
     7
 10
618.0219931765
 20
1229.0609045099
 30
0.0
  0
VERTEX
  5
62D
  8
0
  6
CONTINUOUS
 62
     7
 10
617.7795438333
 20
1229.7270162176
 30
0.0
  0
VERTEX
  5
62E
  8
0
  6
CONTINUOUS
 62
     7
 10
617.5993887945
 20
1230.2219880889
 30
0.0
  0
VERTEX
  5
62F
  8
0
  6
CONTINUOUS
 62
     7
 10
617.4884571
 20
1230.5267913412
 30
0.0
  0
VERTEX
  5
630
  8
0
  6
CONTINUOUS
 62
     7
 10
617.4509955807
 20
1230.6297136615
 30
0.0
  0
SEQEND
  5
9B9
  8
0
  6
CONTINUOUS
 62
     7
  0
POLYLINE
  5
167
  8
0
  6
CONTINUOUS
 62
     7
 66
     1
 10
0.0
 20
0.0
 30
0.0
 70
   128
  0
VERTEX
  5
631
  8
0
  6
CONTINUOUS
 62
     7
 10
656.5045250817
 20
1140.8738581608
 30
0.0
  0
VERTEX
  5
632
  8
0
  6
CONTINUOUS
 62
     7
 10
656.7714197798
 20
1140.1405571173
 30
0.0
  0
VERTEX
  5
633
  8
0
  6
CONTINUOUS
 62
     7
 10
657.0280624791
 20
1139.4354416202
 30
0.0
  0
VERTEX
  5
634
  8
0
  6
CONTINUOUS
 62
     7
 10
657.2645886107
 20
1138.78559453
 30
0.0
  0
VERTEX
  5
635
  8
0
  6
CONTINUOUS
 62
     7
 10
657.4718935652
 20
1138.2160050939
 30
0.0
  0
VERTEX
  5
636
  8
0
  6
CONTINUOUS
 62
     7
 10
657.6420350237
 20
1137.7485556672
 30
0.0
  0
VERTEX
  5
637
  8
0
  6
CONTINUOUS
 62
     7
 10
657.7684564753
 20
1137.4012095998
 30
0.0
  0
VERTEX
  5
638
  8
0
  6
CONTINUOUS
 62
     7
 10
657.8463150425
 20
1137.1873108815
 30
0.0
  0
VERTEX
  5
639
  8
0
  6
CONTINUOUS
 62
     7
 10
657.8726006909
 20
1137.1150849532
 30
0.0
  0
SEQEND
  5
9BA
  8
0
  6
CONTINUOUS
 62
     7
  0
ARC
  5
168
  8
0
  6
CONTINUOUS
 62
     7
 10
656.2751209021
 20
1136.5336535548
 30
0.0
 40
1.699999999999982
 50
290.0
 51
20.0
  0
POLYLINE
  5
169
  8
0
  6
CONTINUOUS
 62
     7
 66
     1
 10
0.0
 20
0.0
 30
0.0
 70
   128
  0
VERTEX
  5
63A
  8
0
  6
CONTINUOUS
 62
     7
 10
656.8565501137
 20
1134.9361775587
 30
0.0
  0
VERTEX
  5
63B
  8
0
  6
CONTINUOUS
 62
     7
 10
656.8190885945
 20
1135.0390924285
 30
0.0
  0
VERTEX
  5
63C
  8
0
  6
CONTINUOUS
 62
     7
 10
656.7081643506
 20
1135.3438956808
 30
0.0
  0
VERTEX
  5
63D
  8
0
  6
CONTINUOUS
 62
     7
 10
656.5280093117
 20
1135.8388675521
 30
0.0
  0
VERTEX
  5
63E
  8
0
  6
CONTINUOUS
 62
     7
 10
656.2855525179
 20
1136.5049867104
 30
0.0
  0
VERTEX
  5
63F
  8
0
  6
CONTINUOUS
 62
     7
 10
655.9901369973
 20
1137.3166529606
 30
0.0
  0
VERTEX
  5
640
  8
0
  6
CONTINUOUS
 62
     7
 10
655.6530876322
 20
1138.2426781724
 30
0.0
  0
VERTEX
  5
641
  8
0
  6
CONTINUOUS
 62
     7
 10
655.287368433
 20
1139.2474709223
 30
0.0
  0
VERTEX
  5
642
  8
0
  6
CONTINUOUS
 62
     7
 10
654.9070460959
 20
1140.2924223016
 30
0.0
  0
SEQEND
  5
9BB
  8
0
  6
CONTINUOUS
 62
     7
  0
LINE
  5
16A
  8
0
  6
CONTINUOUS
 62
     7
 10
656.8565501137
 20
1134.9361775587
 30
0.0
 11
652.8158767386
 21
1133.4654925536
 31
0.0
  0
POLYLINE
  5
16B
  8
0
  6
CONTINUOUS
 62
     7
 66
     1
 10
0.0
 20
0.0
 30
0.0
 70
   128
  0
VERTEX
  5
643
  8
0
  6
CONTINUOUS
 62
     7
 10
652.8158767386
 20
1133.4654925536
 30
0.0
  0
VERTEX
  5
644
  8
0
  6
CONTINUOUS
 62
     7
 10
652.7784152194
 20
1133.5684074233
 30
0.0
  0
VERTEX
  5
645
  8
0
  6
CONTINUOUS
 62
     7
 10
652.6674760743
 20
1133.8732106756
 30
0.0
  0
VERTEX
  5
646
  8
0
  6
CONTINUOUS
 62
     7
 10
652.4873210354
 20
1134.3681825469
 30
0.0
  0
VERTEX
  5
647
  8
0
  6
CONTINUOUS
 62
     7
 10
652.2448791428
 20
1135.0343017052
 30
0.0
  0
VERTEX
  5
648
  8
0
  6
CONTINUOUS
 62
     7
 10
651.949448721
 20
1135.8459679554
 30
0.0
  0
VERTEX
  5
649
  8
0
  6
CONTINUOUS
 62
     7
 10
651.6124142571
 20
1136.7719931672
 30
0.0
  0
VERTEX
  5
64A
  8
0
  6
CONTINUOUS
 62
     7
 10
651.2466950579
 20
1137.7767859171
 30
0.0
  0
VERTEX
  5
64B
  8
0
  6
CONTINUOUS
 62
     7
 10
650.8663578196
 20
1138.8217372964
 30
0.0
  0
SEQEND
  5
9BC
  8
0
  6
CONTINUOUS
 62
     7
  0
LINE
  5
16C
  8
0
  6
CONTINUOUS
 62
     7
 10
629.3462423845
 20
1218.4143973659
 30
0.0
 11
654.4344259663
 21
1149.4851721595
 31
0.0
  0
POLYLINE
  5
16D
  8
0
  6
CONTINUOUS
 62
     7
 66
     1
 10
0.0
 20
0.0
 30
0.0
 70
   128
  0
VERTEX
  5
64C
  8
0
  6
CONTINUOUS
 62
     7
 10
654.4344259663
 20
1149.4851721595
 30
0.0
  0
VERTEX
  5
64D
  8
0
  6
CONTINUOUS
 62
     7
 10
654.2511118813
 20
1149.4184522103
 30
0.0
  0
VERTEX
  5
64E
  8
0
  6
CONTINUOUS
 62
     7
 10
654.0748311444
 20
1149.3542878102
 30
0.0
  0
VERTEX
  5
64F
  8
0
  6
CONTINUOUS
 62
     7
 10
653.9123637839
 20
1149.2951600026
 30
0.0
  0
VERTEX
  5
650
  8
0
  6
CONTINUOUS
 62
     7
 10
653.7699682875
 20
1149.2433263133
 30
0.0
  0
VERTEX
  5
651
  8
0
  6
CONTINUOUS
 62
     7
 10
653.6531133814
 20
1149.2007909487
 30
0.0
  0
VERTEX
  5
652
  8
0
  6
CONTINUOUS
 62
     7
 10
653.566269414
 20
1149.1691855858
 30
0.0
  0
VERTEX
  5
653
  8
0
  6
CONTINUOUS
 62
     7
 10
653.5127891465
 20
1149.1497246693
 30
0.0
  0
VERTEX
  5
654
  8
0
  6
CONTINUOUS
 62
     7
 10
653.4947438403
 20
1149.1431532572
 30
0.0
  0
SEQEND
  5
9BD
  8
0
  6
CONTINUOUS
 62
     7
  0
POLYLINE
  5
16E
  8
0
  6
CONTINUOUS
 62
     7
 66
     1
 10
0.0
 20
0.0
 30
0.0
 70
   128
  0
VERTEX
  5
655
  8
0
  6
CONTINUOUS
 62
     7
 10
629.3462423845
 20
1218.4143973659
 30
0.0
  0
VERTEX
  5
656
  8
0
  6
CONTINUOUS
 62
     7
 10
629.1629208489
 20
1218.3476848672
 30
0.0
  0
VERTEX
  5
657
  8
0
  6
CONTINUOUS
 62
     7
 10
628.986640112
 20
1218.2835204671
 30
0.0
  0
VERTEX
  5
658
  8
0
  6
CONTINUOUS
 62
     7
 10
628.8241802021
 20
1218.2243926595
 30
0.0
  0
VERTEX
  5
659
  8
0
  6
CONTINUOUS
 62
     7
 10
628.6817847057
 20
1218.1725515197
 30
0.0
  0
VERTEX
  5
65A
  8
0
  6
CONTINUOUS
 62
     7
 10
628.564922349
 20
1218.1300236057
 30
0.0
  0
VERTEX
  5
65B
  8
0
  6
CONTINUOUS
 62
     7
 10
628.4780858322
 20
1218.0984182428
 30
0.0
  0
VERTEX
  5
65C
  8
0
  6
CONTINUOUS
 62
     7
 10
628.4246055646
 20
1218.0789573263
 30
0.0
  0
VERTEX
  5
65D
  8
0
  6
CONTINUOUS
 62
     7
 10
628.4065528079
 20
1218.0723859142
 30
0.0
  0
SEQEND
  5
9BE
  8
0
  6
CONTINUOUS
 62
     7
  0
LINE
  5
16F
  8
0
  6
CONTINUOUS
 62
     7
 10
659.6520973607
 20
1221.4144034456
 30
0.0
 11
659.6520973607
 21
1218.4143973659
 31
0.0
  0
LINE
  5
170
  8
0
  6
CONTINUOUS
 62
     7
 10
657.6521082087
 20
1218.4143973659
 30
0.0
 11
659.6520973607
 21
1218.4143973659
 31
0.0
  0
LINE
  5
171
  8
0
  6
CONTINUOUS
 62
     7
 10
657.6521082087
 20
1218.4143973659
 30
0.0
 11
657.6521082087
 21
1223.4144074987
 31
0.0
  0
ARC
  5
172
  8
0
  6
CONTINUOUS
 62
     7
 10
657.6521016306
 20
1221.4144032661
 30
0.0
 40
2.000000000000227
 50
0.0
 51
90.0
  0
LINE
  5
173
  8
0
  6
CONTINUOUS
 62
     7
 10
628.4290386601
 20
1223.4144074987
 30
0.0
 11
657.6521082087
 21
1223.4144074987
 31
0.0
  0
LINE
  5
174
  8
0
  6
CONTINUOUS
 62
     7
 10
657.6521082087
 20
1218.4143973659
 30
0.0
 11
629.3462423845
 21
1218.4143973659
 31
0.0
  0
LINE
  5
175
  8
0
  6
CONTINUOUS
 62
     7
 10
657.6521082087
 20
1150.6563065718
 30
0.0
 11
657.6521082087
 21
1218.4143973659
 31
0.0
  0
LINE
  5
176
  8
0
  6
CONTINUOUS
 62
     7
 10
659.6520973607
 20
1218.4143973659
 30
0.0
 11
659.6520973607
 21
1150.6563065718
 31
0.0
  0
LINE
  5
177
  8
0
  6
CONTINUOUS
 62
     7
 10
657.6521082087
 20
1150.6563065718
 30
0.0
 11
659.6520973607
 21
1150.6563065718
 31
0.0
  0
LINE
  5
178
  8
0
  6
CONTINUOUS
 62
     7
 10
654.4344259663
 20
1149.4851721595
 30
0.0
 11
657.6521082087
 21
1150.6563065718
 31
0.0
  0
POLYLINE
  5
179
  8
0
  6
CONTINUOUS
 62
     7
 66
     1
 10
0.0
 20
0.0
 30
0.0
 70
   128
  0
VERTEX
  5
65E
  8
0
  6
CONTINUOUS
 62
     7
 10
658.3361460133
 20
1145.5843908857
 30
0.0
  0
VERTEX
  5
65F
  8
0
  6
CONTINUOUS
 62
     7
 10
658.3230031891
 20
1145.6818444799
 30
0.0
  0
VERTEX
  5
660
  8
0
  6
CONTINUOUS
 62
     7
 10
658.2840664549
 20
1145.970465071
 30
0.0
  0
VERTEX
  5
661
  8
0
  6
CONTINUOUS
 62
     7
 10
658.2208557292
 20
1146.4391661952
 30
0.0
  0
VERTEX
  5
662
  8
0
  6
CONTINUOUS
 62
     7
 10
658.1357849999
 20
1147.0699174474
 30
0.0
  0
VERTEX
  5
663
  8
0
  6
CONTINUOUS
 62
     7
 10
658.0321325226
 20
1147.8385044406
 30
0.0
  0
VERTEX
  5
664
  8
0
  6
CONTINUOUS
 62
     7
 10
657.9138769074
 20
1148.7153707217
 30
0.0
  0
VERTEX
  5
665
  8
0
  6
CONTINUOUS
 62
     7
 10
657.7855481072
 20
1149.6668247651
 30
0.0
  0
VERTEX
  5
666
  8
0
  6
CONTINUOUS
 62
     7
 10
657.6521082087
 20
1150.6563065718
 30
0.0
  0
SEQEND
  5
9BF
  8
0
  6
CONTINUOUS
 62
     7
  0
LINE
  5
17A
  8
0
  6
CONTINUOUS
 62
     7
 10
659.6520973607
 20
1150.6563065718
 30
0.0
 11
659.6520973607
 21
1147.4637774895
 31
0.0
  0
ARC
  5
17B
  8
0
  6
CONTINUOUS
 62
     7
 10
657.6521016306
 20
1147.4637757234
 30
0.0
 40
2.000000000000116
 50
290.0
 51
0.0
  0
LINE
  5
17C
  8
0
  6
CONTINUOUS
 62
     7
 10
658.3361460133
 20
1145.5843908857
 30
0.0
 11
656.9653732939
 21
1145.0854702066
 31
0.0
  0
LINE
  5
17D
  8
0
  6
CONTINUOUS
 62
     7
 10
620.3972904249
 20
1215.739400513
 30
0.0
 11
620.3972904249
 21
1147.9813097189
 31
0.0
  0
ARC
  5
17E
  8
0
  6
CONTINUOUS
 62
     7
 10
626.1972896023
 20
1176.4813095401
 30
0.0
 40
0.5
 50
180.0
 51
270.0
  0
LINE
  5
17F
  8
0
  6
CONTINUOUS
 62
     7
 10
626.1972917481
 20
1175.9813068579
 30
0.0
 11
626.5972910686
 21
1175.9813068579
 31
0.0
  0
ARC
  5
180
  8
0
  6
CONTINUOUS
 62
     7
 10
626.5972896023
 20
1176.4813095401
 30
0.0
 40
0.5
 50
270.0
 51
0.0
  0
LINE
  5
181
  8
0
  6
CONTINUOUS
 62
     7
 10
627.0972920819
 20
1176.4813078712
 30
0.0
 11
627.0972920819
 21
1183.4813071559
 31
0.0
  0
ARC
  5
182
  8
0
  6
CONTINUOUS
 62
     7
 10
626.5972896023
 20
1183.4813095401
 30
0.0
 40
0.5
 50
0.0
 51
90.0
  0
LINE
  5
183
  8
0
  6
CONTINUOUS
 62
     7
 10
626.5972910686
 20
1183.9813156198
 30
0.0
 11
626.1972917481
 21
1183.9813156198
 31
0.0
  0
ARC
  5
184
  8
0
  6
CONTINUOUS
 62
     7
 10
626.1972896023
 20
1183.4813095401
 30
0.0
 40
0.5
 50
90.0
 51
180.0
  0
LINE
  5
185
  8
0
  6
CONTINUOUS
 62
     7
 10
625.6972907348
 20
1183.4813071559
 30
0.0
 11
625.6972907348
 21
1176.4813078712
 31
0.0
  0
POLYLINE
  5
186
  8
0
  6
CONTINUOUS
 62
     7
 66
     1
 10
0.0
 20
0.0
 30
0.0
 70
   128
  0
VERTEX
  5
667
  8
0
  6
CONTINUOUS
 62
     7
 10
619.7132526203
 20
1220.8113236497
 30
0.0
  0
VERTEX
  5
668
  8
0
  6
CONTINUOUS
 62
     7
 10
619.7236387296
 20
1220.7342697452
 30
0.0
  0
VERTEX
  5
669
  8
0
  6
CONTINUOUS
 62
     7
 10
619.7544990345
 20
1220.5054475139
 30
0.0
  0
VERTEX
  5
66A
  8
0
  6
CONTINUOUS
 62
     7
 10
619.8048947616
 20
1220.1318157981
 30
0.0
  0
VERTEX
  5
66B
  8
0
  6
CONTINUOUS
 62
     7
 10
619.8732836409
 20
1219.6247143815
 30
0.0
  0
VERTEX
  5
66C
  8
0
  6
CONTINUOUS
 62
     7
 10
619.9575944109
 20
1218.999565966
 30
0.0
  0
VERTEX
  5
66D
  8
0
  6
CONTINUOUS
 62
     7
 10
620.0552715226
 20
1218.275369532
 30
0.0
  0
VERTEX
  5
66E
  8
0
  6
CONTINUOUS
 62
     7
 10
620.1633347436
 20
1217.4741042922
 30
0.0
  0
VERTEX
  5
66F
  8
0
  6
CONTINUOUS
 62
     7
 10
620.2785058184
 20
1216.6201336454
 30
0.0
  0
VERTEX
  5
670
  8
0
  6
CONTINUOUS
 62
     7
 10
620.3972904249
 20
1215.739400513
 30
0.0
  0
SEQEND
  5
9C0
  8
0
  6
CONTINUOUS
 62
     7
  0
LINE
  5
187
  8
0
  6
CONTINUOUS
 62
     7
 10
619.7132526203
 20
1220.8113236497
 30
0.0
 11
620.8711920543
 21
1221.2327731918
 31
0.0
  0
LINE
  5
188
  8
0
  6
CONTINUOUS
 62
     7
 10
620.3972904249
 20
1215.739400513
 30
0.0
 11
618.3972863718
 21
1215.739400513
 31
0.0
  0
LINE
  5
189
  8
0
  6
CONTINUOUS
 62
     7
 10
618.3972863718
 20
1215.739400513
 30
0.0
 11
618.3972863718
 21
1218.9319444965
 31
0.0
  0
ARC
  5
18A
  8
0
  6
CONTINUOUS
 62
     7
 10
620.3972896023
 20
1218.9319370828
 30
0.0
 40
2.0
 50
110.0
 51
180.0
  0
LINE
  5
18B
  8
0
  6
CONTINUOUS
 62
     7
 10
649.3523998423
 20
1142.9813070367
 30
0.0
 11
620.3972904249
 21
1142.9813070367
 31
0.0
  0
LINE
  5
18C
  8
0
  6
CONTINUOUS
 62
     7
 10
620.3972904249
 20
1147.9813097189
 30
0.0
 11
620.3972904249
 21
1142.9813070367
 31
0.0
  0
LINE
  5
18D
  8
0
  6
CONTINUOUS
 62
     7
 10
620.3972904249
 20
1147.9813097189
 30
0.0
 11
618.3972863718
 21
1147.9813097189
 31
0.0
  0
LINE
  5
18E
  8
0
  6
CONTINUOUS
 62
     7
 10
618.3972863718
 20
1147.9813097189
 30
0.0
 11
618.3972863718
 21
1215.739400513
 31
0.0
  0
LINE
  5
18F
  8
0
  6
CONTINUOUS
 62
     7
 10
618.3972863718
 20
1144.9813110898
 30
0.0
 11
618.3972863718
 21
1147.9813097189
 31
0.0
  0
ARC
  5
190
  8
0
  6
CONTINUOUS
 62
     7
 10
620.3972896023
 20
1144.9813095401
 30
0.0
 40
2.0
 50
180.0
 51
270.0
  0
LINE
  5
191
  8
0
  6
CONTINUOUS
 62
     7
 10
626.5972910686
 20
1183.4813071559
 30
0.0
 11
626.5972910686
 21
1183.9813156198
 31
0.0
  0
LINE
  5
192
  8
0
  6
CONTINUOUS
 62
     7
 10
626.5972910686
 20
1183.4813071559
 30
0.0
 11
627.0972920819
 21
1183.4813071559
 31
0.0
  0
LINE
  5
193
  8
0
  6
CONTINUOUS
 62
     7
 10
626.5972910686
 20
1176.4813078712
 30
0.0
 11
626.5972910686
 21
1183.4813071559
 31
0.0
  0
LINE
  5
194
  8
0
  6
CONTINUOUS
 62
     7
 10
626.5972910686
 20
1176.4813078712
 30
0.0
 11
627.0972920819
 21
1176.4813078712
 31
0.0
  0
LINE
  5
195
  8
0
  6
CONTINUOUS
 62
     7
 10
626.5972910686
 20
1183.4813071559
 30
0.0
 11
626.1972917481
 21
1183.4813071559
 31
0.0
  0
LINE
  5
196
  8
0
  6
CONTINUOUS
 62
     7
 10
626.1972917481
 20
1183.9813156198
 30
0.0
 11
626.1972917481
 21
1183.4813071559
 31
0.0
  0
LINE
  5
197
  8
0
  6
CONTINUOUS
 62
     7
 10
625.6972907348
 20
1183.4813071559
 30
0.0
 11
626.1972917481
 21
1183.4813071559
 31
0.0
  0
LINE
  5
198
  8
0
  6
CONTINUOUS
 62
     7
 10
626.1972917481
 20
1183.4813071559
 30
0.0
 11
626.1972917481
 21
1176.4813078712
 31
0.0
  0
LINE
  5
199
  8
0
  6
CONTINUOUS
 62
     7
 10
625.6972907348
 20
1176.4813078712
 30
0.0
 11
626.1972917481
 21
1176.4813078712
 31
0.0
  0
LINE
  5
19A
  8
0
  6
CONTINUOUS
 62
     7
 10
626.5972910686
 20
1176.4813078712
 30
0.0
 11
626.5972910686
 21
1175.9813068579
 31
0.0
  0
LINE
  5
19B
  8
0
  6
CONTINUOUS
 62
     7
 10
626.1972917481
 20
1176.4813078712
 30
0.0
 11
626.5972910686
 21
1176.4813078712
 31
0.0
  0
LINE
  5
19C
  8
0
  6
CONTINUOUS
 62
     7
 10
626.1972917481
 20
1175.9813068579
 30
0.0
 11
626.1972917481
 21
1176.4813078712
 31
0.0
  0
LINE
  5
19D
  8
0
  6
CONTINUOUS
 62
     7
 10
456.2142623826
 20
1223.9813072751
 30
0.0
 11
456.2142623826
 21
1063.9813099201
 31
0.0
  0
LINE
  5
19E
  8
0
  6
CONTINUOUS
 62
     7
 10
461.8388546868
 20
1223.9813072751
 30
0.0
 11
461.8388546868
 21
1063.9813099201
 31
0.0
  0
LINE
  5
19F
  8
0
  6
CONTINUOUS
 62
     7
 10
468.1247456236
 20
1223.9813072751
 30
0.0
 11
468.1247456236
 21
1063.9813099201
 31
0.0
  0
LINE
  5
1A0
  8
0
  6
CONTINUOUS
 62
     7
 10
475.0030694767
 20
1223.9813072751
 30
0.0
 11
475.0030694767
 21
1063.9813099201
 31
0.0
  0
LINE
  5
1A1
  8
0
  6
CONTINUOUS
 62
     7
 10
482.3984598978
 20
1223.9813072751
 30
0.0
 11
482.3984598978
 21
1063.9813099201
 31
0.0
  0
LINE
  5
1A2
  8
0
  6
CONTINUOUS
 62
     7
 10
561.9961193069
 20
1063.9813099201
 30
0.0
 11
561.9961193069
 21
1223.9813072751
 31
0.0
  0
LINE
  5
1A3
  8
0
  6
CONTINUOUS
 62
     7
 10
569.391509728
 20
1063.9813099201
 30
0.0
 11
569.391509728
 21
1223.9813072751
 31
0.0
  0
LINE
  5
1A4
  8
0
  6
CONTINUOUS
 62
     7
 10
576.269833581
 20
1063.9813099201
 30
0.0
 11
576.269833581
 21
1223.9813072751
 31
0.0
  0
LINE
  5
1A5
  8
0
  6
CONTINUOUS
 62
     7
 10
582.5557245179
 20
1063.9813099201
 30
0.0
 11
582.5557245179
 21
1223.9813072751
 31
0.0
  0
LINE
  5
1A6
  8
0
  6
CONTINUOUS
 62
     7
 10
588.1803168221
 20
1063.9813099201
 30
0.0
 11
588.1803168221
 21
1223.9813072751
 31
0.0
  0
LINE
  5
1A7
  8
0
  6
CONTINUOUS
 62
     7
 10
566.4437769218
 20
1063.9813099201
 30
0.0
 11
566.4437769218
 21
1223.9813072751
 31
0.0
  0
LINE
  5
1A8
  8
0
  6
CONTINUOUS
 62
     7
 10
565.1971308752
 20
1063.9813099201
 30
0.0
 11
566.4437769218
 21
1063.9813099201
 31
0.0
  0
LINE
  5
1A9
  8
0
  6
CONTINUOUS
 62
     7
 10
565.1971308752
 20
1063.9813099201
 30
0.0
 11
565.1971308752
 21
1223.9813072751
 31
0.0
  0
LINE
  5
1AA
  8
0
  6
CONTINUOUS
 62
     7
 10
479.1974483295
 20
1223.9813072751
 30
0.0
 11
479.1974483295
 21
1063.9813099201
 31
0.0
  0
LINE
  5
1AB
  8
0
  6
CONTINUOUS
 62
     7
 10
477.9508022829
 20
1063.9813099201
 30
0.0
 11
479.1974483295
 21
1063.9813099201
 31
0.0
  0
LINE
  5
1AC
  8
0
  6
CONTINUOUS
 62
     7
 10
477.9508022829
 20
1063.9813099201
 30
0.0
 11
477.9508022829
 21
1223.9813072751
 31
0.0
  0
LINE
  5
1AD
  8
0
  6
CONTINUOUS
 62
     7
 10
566.4437769218
 20
1063.9813099201
 30
0.0
 11
566.8448081477
 21
1063.9813099201
 31
0.0
  0
LINE
  5
1AE
  8
0
  6
CONTINUOUS
 62
     7
 10
477.5497710569
 20
1063.9813099201
 30
0.0
 11
477.9508022829
 21
1063.9813099201
 31
0.0
  0
LINE
  5
1AF
  8
0
  6
CONTINUOUS
 62
     7
 10
563.3282644911
 20
1223.9813072751
 30
0.0
 11
563.3282644911
 21
1063.9813099201
 31
0.0
  0
LINE
  5
1B0
  8
0
  6
CONTINUOUS
 62
     7
 10
563.3282644911
 20
1063.9813099201
 30
0.0
 11
565.1971308752
 21
1063.9813099201
 31
0.0
  0
LINE
  5
1B1
  8
0
  6
CONTINUOUS
 62
     7
 10
481.0663147135
 20
1063.9813099201
 30
0.0
 11
481.0663147135
 21
1223.9813072751
 31
0.0
  0
LINE
  5
1B2
  8
0
  6
CONTINUOUS
 62
     7
 10
479.1974483295
 20
1063.9813099201
 30
0.0
 11
481.0663147135
 21
1063.9813099201
 31
0.0
  0
LINE
  5
1B3
  8
0
  6
CONTINUOUS
 62
     7
 10
563.3282644911
 20
1063.9813099201
 30
0.0
 11
561.9961193069
 21
1063.9813099201
 31
0.0
  0
LINE
  5
1B4
  8
0
  6
CONTINUOUS
 62
     7
 10
482.3984598978
 20
1063.9813099201
 30
0.0
 11
481.0663147135
 21
1063.9813099201
 31
0.0
  0
LINE
  5
1B5
  8
0
  6
CONTINUOUS
 62
     7
 10
574.2121545835
 20
1063.9813099201
 30
0.0
 11
574.2121545835
 21
1223.9813072751
 31
0.0
  0
LINE
  5
1B6
  8
0
  6
CONTINUOUS
 62
     7
 10
572.9308819635
 20
1063.9813099201
 30
0.0
 11
574.2121545835
 21
1063.9813099201
 31
0.0
  0
LINE
  5
1B7
  8
0
  6
CONTINUOUS
 62
     7
 10
572.9308819635
 20
1063.9813099201
 30
0.0
 11
572.9308819635
 21
1223.9813072751
 31
0.0
  0
LINE
  5
1B8
  8
0
  6
CONTINUOUS
 62
     7
 10
471.4636972411
 20
1223.9813072751
 30
0.0
 11
471.4636972411
 21
1063.9813099201
 31
0.0
  0
LINE
  5
1B9
  8
0
  6
CONTINUOUS
 62
     7
 10
470.1824246212
 20
1063.9813099201
 30
0.0
 11
471.4636972411
 21
1063.9813099201
 31
0.0
  0
LINE
  5
1BA
  8
0
  6
CONTINUOUS
 62
     7
 10
470.1824246212
 20
1063.9813099201
 30
0.0
 11
470.1824246212
 21
1223.9813072751
 31
0.0
  0
LINE
  5
1BB
  8
0
  6
CONTINUOUS
 62
     7
 10
574.2121545835
 20
1063.9813099201
 30
0.0
 11
574.5327605172
 21
1063.9813099201
 31
0.0
  0
LINE
  5
1BC
  8
0
  6
CONTINUOUS
 62
     7
 10
469.8618186875
 20
1063.9813099201
 30
0.0
 11
470.1824246212
 21
1063.9813099201
 31
0.0
  0
LINE
  5
1BD
  8
0
  6
CONTINUOUS
 62
     7
 10
570.7534684105
 20
1223.9813072751
 30
0.0
 11
570.7534684105
 21
1063.9813099201
 31
0.0
  0
LINE
  5
1BE
  8
0
  6
CONTINUOUS
 62
     7
 10
570.7534684105
 20
1063.9813099201
 30
0.0
 11
572.9308819635
 21
1063.9813099201
 31
0.0
  0
LINE
  5
1BF
  8
0
  6
CONTINUOUS
 62
     7
 10
473.6411107941
 20
1063.9813099201
 30
0.0
 11
473.6411107941
 21
1223.9813072751
 31
0.0
  0
LINE
  5
1C0
  8
0
  6
CONTINUOUS
 62
     7
 10
471.4636972411
 20
1063.9813099201
 30
0.0
 11
473.6411107941
 21
1063.9813099201
 31
0.0
  0
LINE
  5
1C1
  8
0
  6
CONTINUOUS
 62
     7
 10
570.7534684105
 20
1063.9813099201
 30
0.0
 11
569.391509728
 21
1063.9813099201
 31
0.0
  0
LINE
  5
1C2
  8
0
  6
CONTINUOUS
 62
     7
 10
475.0030694767
 20
1063.9813099201
 30
0.0
 11
473.6411107941
 21
1063.9813099201
 31
0.0
  0
LINE
  5
1C3
  8
0
  6
CONTINUOUS
 62
     7
 10
581.4106447859
 20
1063.9813099201
 30
0.0
 11
581.4106447859
 21
1223.9813072751
 31
0.0
  0
LINE
  5
1C4
  8
0
  6
CONTINUOUS
 62
     7
 10
580.1087862118
 20
1063.9813099201
 30
0.0
 11
581.4106447859
 21
1063.9813099201
 31
0.0
  0
LINE
  5
1C5
  8
0
  6
CONTINUOUS
 62
     7
 10
580.1087862118
 20
1063.9813099201
 30
0.0
 11
580.1087862118
 21
1223.9813072751
 31
0.0
  0
LINE
  5
1C6
  8
0
  6
CONTINUOUS
 62
     7
 10
464.2857929929
 20
1223.9813072751
 30
0.0
 11
464.2857929929
 21
1063.9813099201
 31
0.0
  0
LINE
  5
1C7
  8
0
  6
CONTINUOUS
 62
     7
 10
462.9839344187
 20
1063.9813099201
 30
0.0
 11
464.2857929929
 21
1063.9813099201
 31
0.0
  0
LINE
  5
1C8
  8
0
  6
CONTINUOUS
 62
     7
 10
462.9839344187
 20
1063.9813099201
 30
0.0
 11
462.9839344187
 21
1223.9813072751
 31
0.0
  0
LINE
  5
1C9
  8
0
  6
CONTINUOUS
 62
     7
 10
581.4106447859
 20
1063.9813099201
 30
0.0
 11
581.6582760079
 21
1063.9813099201
 31
0.0
  0
LINE
  5
1CA
  8
0
  6
CONTINUOUS
 62
     7
 10
462.7363031967
 20
1063.9813099201
 30
0.0
 11
462.9839344187
 21
1063.9813099201
 31
0.0
  0
LINE
  5
1CB
  8
0
  6
CONTINUOUS
 62
     7
 10
577.6466859742
 20
1223.9813072751
 30
0.0
 11
577.6466859742
 21
1063.9813099201
 31
0.0
  0
LINE
  5
1CC
  8
0
  6
CONTINUOUS
 62
     7
 10
577.6466859742
 20
1063.9813099201
 30
0.0
 11
580.1087862118
 21
1063.9813099201
 31
0.0
  0
LINE
  5
1CD
  8
0
  6
CONTINUOUS
 62
     7
 10
466.7478932305
 20
1063.9813099201
 30
0.0
 11
466.7478932305
 21
1223.9813072751
 31
0.0
  0
LINE
  5
1CE
  8
0
  6
CONTINUOUS
 62
     7
 10
464.2857929929
 20
1063.9813099201
 30
0.0
 11
466.7478932305
 21
1063.9813099201
 31
0.0
  0
LINE
  5
1CF
  8
0
  6
CONTINUOUS
 62
     7
 10
577.6466859742
 20
1063.9813099201
 30
0.0
 11
576.269833581
 21
1063.9813099201
 31
0.0
  0
LINE
  5
1D0
  8
0
  6
CONTINUOUS
 62
     7
 10
468.1247456236
 20
1063.9813099201
 30
0.0
 11
466.7478932305
 21
1063.9813099201
 31
0.0
  0
LINE
  5
1D1
  8
0
  6
CONTINUOUS
 62
     7
 10
587.9603831335
 20
1063.9813099201
 30
0.0
 11
587.9603831335
 21
1223.9813072751
 31
0.0
  0
LINE
  5
1D2
  8
0
  6
CONTINUOUS
 62
     7
 10
586.6521952911
 20
1063.9813099201
 30
0.0
 11
587.9603831335
 21
1063.9813099201
 31
0.0
  0
LINE
  5
1D3
  8
0
  6
CONTINUOUS
 62
     7
 10
586.6521952911
 20
1063.9813099201
 30
0.0
 11
586.6521952911
 21
1223.9813072751
 31
0.0
  0
LINE
  5
1D4
  8
0
  6
CONTINUOUS
 62
     7
 10
457.7423839136
 20
1223.9813072751
 30
0.0
 11
457.7423839136
 21
1063.9813099201
 31
0.0
  0
LINE
  5
1D5
  8
0
  6
CONTINUOUS
 62
     7
 10
456.4341960712
 20
1063.9813099201
 30
0.0
 11
457.7423839136
 21
1063.9813099201
 31
0.0
  0
LINE
  5
1D6
  8
0
  6
CONTINUOUS
 62
     7
 10
456.4341960712
 20
1063.9813099201
 30
0.0
 11
456.4341960712
 21
1223.9813072751
 31
0.0
  0
LINE
  5
1D7
  8
0
  6
CONTINUOUS
 62
     7
 10
583.9323831959
 20
1223.9813072751
 30
0.0
 11
583.9323831959
 21
1063.9813099201
 31
0.0
  0
LINE
  5
1D8
  8
0
  6
CONTINUOUS
 62
     7
 10
583.9323831959
 20
1063.9813099201
 30
0.0
 11
586.6521952911
 21
1063.9813099201
 31
0.0
  0
LINE
  5
1D9
  8
0
  6
CONTINUOUS
 62
     7
 10
460.4621960087
 20
1063.9813099201
 30
0.0
 11
460.4621960087
 21
1223.9813072751
 31
0.0
  0
LINE
  5
1DA
  8
0
  6
CONTINUOUS
 62
     7
 10
457.7423839136
 20
1063.9813099201
 30
0.0
 11
460.4621960087
 21
1063.9813099201
 31
0.0
  0
LINE
  5
1DB
  8
0
  6
CONTINUOUS
 62
     7
 10
587.9603831335
 20
1063.9813099201
 30
0.0
 11
588.143279986
 21
1063.9813099201
 31
0.0
  0
LINE
  5
1DC
  8
0
  6
CONTINUOUS
 62
     7
 10
456.2512992187
 20
1063.9813099201
 30
0.0
 11
456.4341960712
 21
1063.9813099201
 31
0.0
  0
LINE
  5
1DD
  8
0
  6
CONTINUOUS
 62
     7
 10
583.9323831959
 20
1063.9813099201
 30
0.0
 11
582.5557245179
 21
1063.9813099201
 31
0.0
  0
LINE
  5
1DE
  8
0
  6
CONTINUOUS
 62
     7
 10
461.8388546868
 20
1063.9813099201
 30
0.0
 11
460.4621960087
 21
1063.9813099201
 31
0.0
  0
LINE
  5
1DF
  8
0
  6
CONTINUOUS
 62
     7
 10
593.7896056338
 20
1063.9813099201
 30
0.0
 11
593.7896056338
 21
1223.9813072751
 31
0.0
  0
LINE
  5
1E0
  8
0
  6
CONTINUOUS
 62
     7
 10
592.4894271656
 20
1063.9813099201
 30
0.0
 11
593.7896056338
 21
1063.9813099201
 31
0.0
  0
LINE
  5
1E1
  8
0
  6
CONTINUOUS
 62
     7
 10
592.4894271656
 20
1063.9813099201
 30
0.0
 11
592.4894271656
 21
1223.9813072751
 31
0.0
  0
LINE
  5
1E2
  8
0
  6
CONTINUOUS
 62
     7
 10
451.9051520391
 20
1223.9813072751
 30
0.0
 11
451.9051520391
 21
1063.9813099201
 31
0.0
  0
LINE
  5
1E3
  8
0
  6
CONTINUOUS
 62
     7
 10
450.6049735709
 20
1063.9813099201
 30
0.0
 11
451.9051520391
 21
1063.9813099201
 31
0.0
  0
LINE
  5
1E4
  8
0
  6
CONTINUOUS
 62
     7
 10
450.6049735709
 20
1063.9813099201
 30
0.0
 11
450.6049735709
 21
1223.9813072751
 31
0.0
  0
LINE
  5
1E5
  8
0
  6
CONTINUOUS
 62
     7
 10
589.5417018099
 20
1223.9813072751
 30
0.0
 11
589.5417018099
 21
1063.9813099201
 31
0.0
  0
LINE
  5
1E6
  8
0
  6
CONTINUOUS
 62
     7
 10
589.5417018099
 20
1063.9813099201
 30
0.0
 11
592.4894271656
 21
1063.9813099201
 31
0.0
  0
LINE
  5
1E7
  8
0
  6
CONTINUOUS
 62
     7
 10
454.8528773947
 20
1063.9813099201
 30
0.0
 11
454.8528773947
 21
1223.9813072751
 31
0.0
  0
LINE
  5
1E8
  8
0
  6
CONTINUOUS
 62
     7
 10
451.9051520391
 20
1063.9813099201
 30
0.0
 11
454.8528773947
 21
1063.9813099201
 31
0.0
  0
LINE
  5
1E9
  8
0
  6
CONTINUOUS
 62
     7
 10
593.7896056338
 20
1063.9813099201
 30
0.0
 11
593.9167199894
 21
1063.9813099201
 31
0.0
  0
LINE
  5
1EA
  8
0
  6
CONTINUOUS
 62
     7
 10
450.4778592153
 20
1063.9813099201
 30
0.0
 11
450.6049735709
 21
1063.9813099201
 31
0.0
  0
LINE
  5
1EB
  8
0
  6
CONTINUOUS
 62
     7
 10
589.5417018099
 20
1063.9813099201
 30
0.0
 11
588.1803168221
 21
1063.9813099201
 31
0.0
  0
LINE
  5
1EC
  8
0
  6
CONTINUOUS
 62
     7
 10
456.2142623826
 20
1063.9813099201
 30
0.0
 11
454.8528773947
 21
1063.9813099201
 31
0.0
  0
LINE
  5
1ED
  8
0
  6
CONTINUOUS
 62
     7
 10
598.8344533606
 20
1063.9813099201
 30
0.0
 11
598.8344533606
 21
1223.9813072751
 31
0.0
  0
LINE
  5
1EE
  8
0
  6
CONTINUOUS
 62
     7
 10
597.556522326
 20
1063.9813099201
 30
0.0
 11
598.8344533606
 21
1063.9813099201
 31
0.0
  0
LINE
  5
1EF
  8
0
  6
CONTINUOUS
 62
     7
 10
597.556522326
 20
1063.9813099201
 30
0.0
 11
597.556522326
 21
1223.9813072751
 31
0.0
  0
LINE
  5
1F0
  8
0
  6
CONTINUOUS
 62
     7
 10
446.8380568786
 20
1223.9813072751
 30
0.0
 11
446.8380568786
 21
1063.9813099201
 31
0.0
  0
LINE
  5
1F1
  8
0
  6
CONTINUOUS
 62
     7
 10
445.5601258441
 20
1063.9813099201
 30
0.0
 11
446.8380568786
 21
1063.9813099201
 31
0.0
  0
LINE
  5
1F2
  8
0
  6
CONTINUOUS
 62
     7
 10
445.5601258441
 20
1063.9813099201
 30
0.0
 11
445.5601258441
 21
1223.9813072751
 31
0.0
  0
LINE
  5
1F3
  8
0
  6
CONTINUOUS
 62
     7
 10
594.4131745263
 20
1223.9813072751
 30
0.0
 11
594.4131745263
 21
1063.9813099201
 31
0.0
  0
LINE
  5
1F4
  8
0
  6
CONTINUOUS
 62
     7
 10
594.4131745263
 20
1063.9813099201
 30
0.0
 11
597.556522326
 21
1063.9813099201
 31
0.0
  0
LINE
  5
1F5
  8
0
  6
CONTINUOUS
 62
     7
 10
449.9814046784
 20
1063.9813099201
 30
0.0
 11
449.9814046784
 21
1223.9813072751
 31
0.0
  0
LINE
  5
1F6
  8
0
  6
CONTINUOUS
 62
     7
 10
446.8380568786
 20
1063.9813099201
 30
0.0
 11
449.9814046784
 21
1063.9813099201
 31
0.0
  0
LINE
  5
1F7
  8
0
  6
CONTINUOUS
 62
     7
 10
598.8344533606
 20
1063.9813099201
 30
0.0
 11
598.9153443141
 21
1063.9813099201
 31
0.0
  0
LINE
  5
1F8
  8
0
  6
CONTINUOUS
 62
     7
 10
445.4792348905
 20
1063.9813099201
 30
0.0
 11
445.5601258441
 21
1063.9813099201
 31
0.0
  0
LINE
  5
1F9
  8
0
  6
CONTINUOUS
 62
     7
 10
594.4131745263
 20
1063.9813099201
 30
0.0
 11
593.9167199894
 21
1063.9813099201
 31
0.0
  0
LINE
  5
1FA
  8
0
  6
CONTINUOUS
 62
     7
 10
450.4778592153
 20
1063.9813099201
 30
0.0
 11
449.9814046784
 21
1063.9813099201
 31
0.0
  0
LINE
  5
1FB
  8
0
  6
CONTINUOUS
 62
     7
 10
603.0396430059
 20
1063.9813099201
 30
0.0
 11
603.0396430059
 21
1223.9813072751
 31
0.0
  0
LINE
  5
1FC
  8
0
  6
CONTINUOUS
 62
     7
 10
601.7979664965
 20
1063.9813099201
 30
0.0
 11
603.0396430059
 21
1063.9813099201
 31
0.0
  0
LINE
  5
1FD
  8
0
  6
CONTINUOUS
 62
     7
 10
601.7979664965
 20
1063.9813099201
 30
0.0
 11
601.7979664965
 21
1223.9813072751
 31
0.0
  0
LINE
  5
1FE
  8
0
  6
CONTINUOUS
 62
     7
 10
442.5966127081
 20
1223.9813072751
 30
0.0
 11
442.5966127081
 21
1063.9813099201
 31
0.0
  0
LINE
  5
1FF
  8
0
  6
CONTINUOUS
 62
     7
 10
441.3549361988
 20
1063.9813099201
 30
0.0
 11
442.5966127081
 21
1063.9813099201
 31
0.0
  0
LINE
  5
200
  8
0
  6
CONTINUOUS
 62
     7
 10
441.3549361988
 20
1063.9813099201
 30
0.0
 11
441.3549361988
 21
1223.9813072751
 31
0.0
  0
LINE
  5
201
  8
0
  6
CONTINUOUS
 62
     7
 10
598.9153443141
 20
1063.9813099201
 30
0.0
 11
601.7979664965
 21
1063.9813099201
 31
0.0
  0
LINE
  5
202
  8
0
  6
CONTINUOUS
 62
     7
 10
442.5966127081
 20
1063.9813099201
 30
0.0
 11
445.4792348905
 21
1063.9813099201
 31
0.0
  0
LINE
  5
203
  8
0
  6
CONTINUOUS
 62
     7
 10
603.0396430059
 20
1063.9813099201
 30
0.0
 11
603.0843837424
 21
1063.9813099201
 31
0.0
  0
LINE
  5
204
  8
0
  6
CONTINUOUS
 62
     7
 10
441.3101954623
 20
1063.9813099201
 30
0.0
 11
441.3549361988
 21
1063.9813099201
 31
0.0
  0
LINE
  5
205
  8
0
  6
CONTINUOUS
 62
     7
 10
606.3591076298
 20
1063.9813099201
 30
0.0
 11
606.3591076298
 21
1223.9813072751
 31
0.0
  0
LINE
  5
206
  8
0
  6
CONTINUOUS
 62
     7
 10
605.1672904058
 20
1063.9813099201
 30
0.0
 11
606.3591076298
 21
1063.9813099201
 31
0.0
  0
LINE
  5
207
  8
0
  6
CONTINUOUS
 62
     7
 10
605.1672904058
 20
1063.9813099201
 30
0.0
 11
605.1672904058
 21
1223.9813072751
 31
0.0
  0
LINE
  5
208
  8
0
  6
CONTINUOUS
 62
     7
 10
439.2272887989
 20
1223.9813072751
 30
0.0
 11
439.2272887989
 21
1063.9813099201
 31
0.0
  0
LINE
  5
209
  8
0
  6
CONTINUOUS
 62
     7
 10
438.0354715748
 20
1063.9813099201
 30
0.0
 11
439.2272887989
 21
1063.9813099201
 31
0.0
  0
LINE
  5
20A
  8
0
  6
CONTINUOUS
 62
     7
 10
438.0354715748
 20
1063.9813099201
 30
0.0
 11
438.0354715748
 21
1223.9813072751
 31
0.0
  0
LINE
  5
20B
  8
0
  6
CONTINUOUS
 62
     7
 10
603.0843837424
 20
1063.9813099201
 30
0.0
 11
605.1672904058
 21
1063.9813099201
 31
0.0
  0
LINE
  5
20C
  8
0
  6
CONTINUOUS
 62
     7
 10
439.2272887989
 20
1063.9813099201
 30
0.0
 11
441.3101954623
 21
1063.9813099201
 31
0.0
  0
LINE
  5
20D
  8
0
  6
CONTINUOUS
 62
     7
 10
606.3591076298
 20
1063.9813099201
 30
0.0
 11
606.378166215
 21
1063.9813099201
 31
0.0
  0
LINE
  5
20E
  8
0
  6
CONTINUOUS
 62
     7
 10
438.0164129897
 20
1063.9813099201
 30
0.0
 11
438.0354715748
 21
1063.9813099201
 31
0.0
  0
LINE
  5
20F
  8
0
  6
CONTINUOUS
 62
     7
 10
608.197292523
 20
1223.9813072751
 30
0.0
 11
608.197292523
 21
1063.9813099201
 31
0.0
  0
LINE
  5
210
  8
0
  6
CONTINUOUS
 62
     7
 10
608.197292523
 20
1063.9813099201
 30
0.0
 11
606.378166215
 21
1063.9813099201
 31
0.0
  0
LINE
  5
211
  8
0
  6
CONTINUOUS
 62
     7
 10
436.7670027776
 20
1223.9813072751
 30
0.0
 11
436.7670027776
 21
1063.9813099201
 31
0.0
  0
LINE
  5
212
  8
0
  6
CONTINUOUS
 62
     7
 10
435.6380982562
 20
1063.9813099201
 30
0.0
 11
435.6380982562
 21
1223.9813072751
 31
0.0
  0
LINE
  5
213
  8
0
  6
CONTINUOUS
 62
     7
 10
435.6380982562
 20
1063.9813099201
 30
0.0
 11
436.7670027776
 21
1063.9813099201
 31
0.0
  0
LINE
  5
214
  8
0
  6
CONTINUOUS
 62
     7
 10
436.7670027776
 20
1063.9813099201
 30
0.0
 11
438.0164129897
 21
1063.9813099201
 31
0.0
  0
LINE
  5
215
  8
0
  6
CONTINUOUS
 62
     7
 10
435.6339780851
 20
1063.9813099201
 30
0.0
 11
435.6380982562
 21
1063.9813099201
 31
0.0
  0
LINE
  5
216
  8
0
  6
CONTINUOUS
 62
     7
 10
435.242710845
 20
1223.9813072751
 30
0.0
 11
435.242710845
 21
1063.9813099201
 31
0.0
  0
LINE
  5
217
  8
0
  6
CONTINUOUS
 62
     7
 10
434.1890869899
 20
1063.9813099201
 30
0.0
 11
434.1890869899
 21
1223.9813072751
 31
0.0
  0
LINE
  5
218
  8
0
  6
CONTINUOUS
 62
     7
 10
434.1890869899
 20
1063.9813099201
 30
0.0
 11
435.242710845
 21
1063.9813099201
 31
0.0
  0
LINE
  5
219
  8
0
  6
CONTINUOUS
 62
     7
 10
435.242710845
 20
1063.9813099201
 30
0.0
 11
435.6339780851
 21
1063.9813099201
 31
0.0
  0
LINE
  5
21A
  8
0
  6
CONTINUOUS
 62
     7
 10
433.7043149634
 20
1063.9813099201
 30
0.0
 11
433.7043149634
 21
1223.9813072751
 31
0.0
  0
LINE
  5
21B
  8
0
  6
CONTINUOUS
 62
     7
 10
433.7043149634
 20
1063.9813099201
 30
0.0
 11
434.1890869899
 21
1063.9813099201
 31
0.0
  0
LINE
  5
21C
  8
0
  6
CONTINUOUS
 62
     7
 10
577.0575313135
 20
818.9813060831
 30
0.0
 11
580.6525295837
 21
818.9813060831
 31
0.0
  0
LINE
  5
21D
  8
0
  6
CONTINUOUS
 62
     7
 10
569.8675310476
 20
818.9813060831
 30
0.0
 11
577.0575313135
 21
818.9813060831
 31
0.0
  0
LINE
  5
21E
  8
0
  6
CONTINUOUS
 62
     7
 10
566.2725327774
 20
818.9813060831
 30
0.0
 11
569.8675310476
 21
818.9813060831
 31
0.0
  0
LINE
  5
21F
  8
0
  6
CONTINUOUS
 62
     7
 10
569.8675310476
 20
818.9813060831
 30
0.0
 11
569.8675310476
 21
813.6813057731
 31
0.0
  0
LINE
  5
220
  8
0
  6
CONTINUOUS
 62
     7
 10
577.0575313135
 20
818.9813060831
 30
0.0
 11
577.0575313135
 21
813.6813057731
 31
0.0
  0
LINE
  5
221
  8
0
  6
CONTINUOUS
 62
     7
 10
569.8675310476
 20
813.6813057731
 30
0.0
 11
577.0575313135
 21
813.6813057731
 31
0.0
  0
LINE
  5
222
  8
0
  6
CONTINUOUS
 62
     7
 10
566.2725327774
 20
818.9813060831
 30
0.0
 11
566.2725327774
 21
813.6813057731
 31
0.0
  0
LINE
  5
223
  8
0
  6
CONTINUOUS
 62
     7
 10
566.2725327774
 20
813.6813057731
 30
0.0
 11
569.8675310476
 21
813.6813057731
 31
0.0
  0
LINE
  5
224
  8
0
  6
CONTINUOUS
 62
     7
 10
580.6525295837
 20
818.9813060831
 30
0.0
 11
580.6525295837
 21
813.6813057731
 31
0.0
  0
LINE
  5
225
  8
0
  6
CONTINUOUS
 62
     7
 10
577.0575313135
 20
813.6813057731
 30
0.0
 11
580.6525295837
 21
813.6813057731
 31
0.0
  0
LINE
  5
226
  8
0
  6
CONTINUOUS
 62
     7
 10
569.4625323875
 20
928.981305487
 30
0.0
 11
577.4625299736
 21
928.981305487
 31
0.0
  0
LINE
  5
227
  8
0
  6
CONTINUOUS
 62
     7
 10
474.527048157
 20
818.9813060831
 30
0.0
 11
478.1220464273
 21
818.9813060831
 31
0.0
  0
LINE
  5
228
  8
0
  6
CONTINUOUS
 62
     7
 10
467.3370478912
 20
818.9813060831
 30
0.0
 11
474.527048157
 21
818.9813060831
 31
0.0
  0
LINE
  5
229
  8
0
  6
CONTINUOUS
 62
     7
 10
463.7420496209
 20
818.9813060831
 30
0.0
 11
467.3370478912
 21
818.9813060831
 31
0.0
  0
LINE
  5
22A
  8
0
  6
CONTINUOUS
 62
     7
 10
463.7420496209
 20
818.9813060831
 30
0.0
 11
463.7420496209
 21
813.6813057731
 31
0.0
  0
LINE
  5
22B
  8
0
  6
CONTINUOUS
 62
     7
 10
467.3370478912
 20
818.9813060831
 30
0.0
 11
467.3370478912
 21
813.6813057731
 31
0.0
  0
LINE
  5
22C
  8
0
  6
CONTINUOUS
 62
     7
 10
463.7420496209
 20
813.6813057731
 30
0.0
 11
467.3370478912
 21
813.6813057731
 31
0.0
  0
LINE
  5
22D
  8
0
  6
CONTINUOUS
 62
     7
 10
474.527048157
 20
818.9813060831
 30
0.0
 11
474.527048157
 21
813.6813057731
 31
0.0
  0
LINE
  5
22E
  8
0
  6
CONTINUOUS
 62
     7
 10
467.3370478912
 20
813.6813057731
 30
0.0
 11
474.527048157
 21
813.6813057731
 31
0.0
  0
LINE
  5
22F
  8
0
  6
CONTINUOUS
 62
     7
 10
478.1220464273
 20
818.9813060831
 30
0.0
 11
478.1220464273
 21
813.6813057731
 31
0.0
  0
LINE
  5
230
  8
0
  6
CONTINUOUS
 62
     7
 10
474.527048157
 20
813.6813057731
 30
0.0
 11
478.1220464273
 21
813.6813057731
 31
0.0
  0
LINE
  5
231
  8
0
  6
CONTINUOUS
 62
     7
 10
466.9320492311
 20
928.981305487
 30
0.0
 11
474.9320468171
 21
928.981305487
 31
0.0
  0
LINE
  5
232
  8
0
  6
CONTINUOUS
 62
     7
 10
589.6972922845
 20
819.9813081096
 30
0.0
 11
585.0635601445
 21
819.9813081096
 31
0.0
  0
LINE
  5
233
  8
0
  6
CONTINUOUS
 62
     7
 10
556.7891357704
 20
819.9813081096
 30
0.0
 11
556.7891357704
 21
833.9813066791
 31
0.0
  0
LINE
  5
234
  8
0
  6
CONTINUOUS
 62
     7
 10
556.7891357704
 20
819.9813081096
 30
0.0
 11
487.6054434343
 21
819.9813081096
 31
0.0
  0
LINE
  5
235
  8
0
  6
CONTINUOUS
 62
     7
 10
487.6054434343
 20
833.9813066791
 30
0.0
 11
487.6054434343
 21
819.9813081096
 31
0.0
  0
LINE
  5
236
  8
0
  6
CONTINUOUS
 62
     7
 10
459.3310190602
 20
819.9813081096
 30
0.0
 11
454.6972869201
 21
819.9813081096
 31
0.0
  0
LINE
  5
237
  8
0
  6
CONTINUOUS
 62
     7
 10
589.6972922845
 20
835.9813107322
 30
0.0
 11
577.4625299736
 21
835.9813107322
 31
0.0
  0
LINE
  5
238
  8
0
  6
CONTINUOUS
 62
     7
 10
569.4625323875
 20
835.9813107322
 30
0.0
 11
474.9320468171
 21
835.9813107322
 31
0.0
  0
LINE
  5
239
  8
0
  6
CONTINUOUS
 62
     7
 10
466.9320492311
 20
835.9813107322
 30
0.0
 11
454.6972869201
 21
835.9813107322
 31
0.0
  0
LINE
  5
23A
  8
0
  6
CONTINUOUS
 62
     7
 10
474.2568863793
 20
833.9813066791
 30
0.0
 11
474.2568863793
 21
819.9813081096
 31
0.0
  0
LINE
  5
23B
  8
0
  6
CONTINUOUS
 62
     7
 10
472.1685370667
 20
819.9813081096
 30
0.0
 11
472.1685370667
 21
833.9813066791
 31
0.0
  0
LINE
  5
23C
  8
0
  6
CONTINUOUS
 62
     7
 10
472.1685370667
 20
833.9813066791
 30
0.0
 11
474.2568863793
 21
833.9813066791
 31
0.0
  0
LINE
  5
23D
  8
0
  6
CONTINUOUS
 62
     7
 10
474.2568863793
 20
819.9813081096
 30
0.0
 11
472.1685370667
 21
819.9813081096
 31
0.0
  0
LINE
  5
23E
  8
0
  6
CONTINUOUS
 62
     7
 10
572.2260421379
 20
833.9813066791
 30
0.0
 11
572.2260421379
 21
819.9813081096
 31
0.0
  0
LINE
  5
23F
  8
0
  6
CONTINUOUS
 62
     7
 10
570.1376928254
 20
819.9813081096
 30
0.0
 11
570.1376928254
 21
833.9813066791
 31
0.0
  0
LINE
  5
240
  8
0
  6
CONTINUOUS
 62
     7
 10
570.1376928254
 20
833.9813066791
 30
0.0
 11
572.2260421379
 21
833.9813066791
 31
0.0
  0
LINE
  5
241
  8
0
  6
CONTINUOUS
 62
     7
 10
572.2260421379
 20
819.9813081096
 30
0.0
 11
570.1376928254
 21
819.9813081096
 31
0.0
  0
LINE
  5
242
  8
0
  6
CONTINUOUS
 62
     7
 10
484.8115800186
 20
819.9813081096
 30
0.0
 11
484.8115800186
 21
833.9813066791
 31
0.0
  0
LINE
  5
243
  8
0
  6
CONTINUOUS
 62
     7
 10
484.8115800186
 20
833.9813066791
 30
0.0
 11
474.2568863793
 21
833.9813066791
 31
0.0
  0
LINE
  5
244
  8
0
  6
CONTINUOUS
 62
     7
 10
484.8115800186
 20
819.9813081096
 30
0.0
 11
474.2568863793
 21
819.9813081096
 31
0.0
  0
LINE
  5
245
  8
0
  6
CONTINUOUS
 62
     7
 10
559.5829991861
 20
833.9813066791
 30
0.0
 11
559.5829991861
 21
819.9813081096
 31
0.0
  0
LINE
  5
246
  8
0
  6
CONTINUOUS
 62
     7
 10
570.1376928254
 20
833.9813066791
 30
0.0
 11
559.5829991861
 21
833.9813066791
 31
0.0
  0
LINE
  5
247
  8
0
  6
CONTINUOUS
 62
     7
 10
570.1376928254
 20
819.9813081096
 30
0.0
 11
559.5829991861
 21
819.9813081096
 31
0.0
  0
LINE
  5
248
  8
0
  6
CONTINUOUS
 62
     7
 10
459.7703425451
 20
833.9813066791
 30
0.0
 11
459.7703425451
 21
819.9813081096
 31
0.0
  0
LINE
  5
249
  8
0
  6
CONTINUOUS
 62
     7
 10
472.1685370667
 20
833.9813066791
 30
0.0
 11
459.7703425451
 21
833.9813066791
 31
0.0
  0
LINE
  5
24A
  8
0
  6
CONTINUOUS
 62
     7
 10
472.1685370667
 20
819.9813081096
 30
0.0
 11
459.7703425451
 21
819.9813081096
 31
0.0
  0
LINE
  5
24B
  8
0
  6
CONTINUOUS
 62
     7
 10
584.6242366596
 20
819.9813081096
 30
0.0
 11
584.6242366596
 21
833.9813066791
 31
0.0
  0
LINE
  5
24C
  8
0
  6
CONTINUOUS
 62
     7
 10
584.6242366596
 20
833.9813066791
 30
0.0
 11
572.2260421379
 21
833.9813066791
 31
0.0
  0
LINE
  5
24D
  8
0
  6
CONTINUOUS
 62
     7
 10
584.6242366596
 20
819.9813081096
 30
0.0
 11
572.2260421379
 21
819.9813081096
 31
0.0
  0
LINE
  5
24E
  8
0
  6
CONTINUOUS
 62
     7
 10
484.8115800186
 20
833.9813066791
 30
0.0
 11
487.6054434343
 21
833.9813066791
 31
0.0
  0
LINE
  5
24F
  8
0
  6
CONTINUOUS
 62
     7
 10
487.6054434343
 20
819.9813081096
 30
0.0
 11
484.8115800186
 21
819.9813081096
 31
0.0
  0
LINE
  5
250
  8
0
  6
CONTINUOUS
 62
     7
 10
556.7891357704
 20
833.9813066791
 30
0.0
 11
559.5829991861
 21
833.9813066791
 31
0.0
  0
LINE
  5
251
  8
0
  6
CONTINUOUS
 62
     7
 10
559.5829991861
 20
819.9813081096
 30
0.0
 11
556.7891357704
 21
819.9813081096
 31
0.0
  0
LINE
  5
252
  8
0
  6
CONTINUOUS
 62
     7
 10
529.1972898184
 20
803.981305487
 30
0.0
 11
529.1972898184
 21
819.9813081096
 31
0.0
  0
LINE
  5
253
  8
0
  6
CONTINUOUS
 62
     7
 10
529.1972898184
 20
803.981305487
 30
0.0
 11
515.1972893863
 21
803.981305487
 31
0.0
  0
LINE
  5
254
  8
0
  6
CONTINUOUS
 62
     7
 10
515.1972893863
 20
819.9813081096
 30
0.0
 11
515.1972893863
 21
803.981305487
 31
0.0
  0
LINE
  5
255
  8
0
  6
CONTINUOUS
 62
     7
 10
459.3310190602
 20
833.9813066791
 30
0.0
 11
459.7703425451
 21
833.9813066791
 31
0.0
  0
LINE
  5
256
  8
0
  6
CONTINUOUS
 62
     7
 10
459.7703425451
 20
819.9813081096
 30
0.0
 11
459.3310190602
 21
819.9813081096
 31
0.0
  0
LINE
  5
257
  8
0
  6
CONTINUOUS
 62
     7
 10
584.6242366596
 20
833.9813066791
 30
0.0
 11
585.0635601445
 21
833.9813066791
 31
0.0
  0
LINE
  5
258
  8
0
  6
CONTINUOUS
 62
     7
 10
585.0635601445
 20
819.9813081096
 30
0.0
 11
584.6242366596
 21
819.9813081096
 31
0.0
  0
LINE
  5
259
  8
0
  6
CONTINUOUS
 62
     7
 10
515.1972893863
 20
803.981305487
 30
0.0
 11
511.8639564379
 21
803.981305487
 31
0.0
  0
LINE
  5
25A
  8
0
  6
CONTINUOUS
 62
     7
 10
532.5306227668
 20
803.981305487
 30
0.0
 11
529.1972898184
 21
803.981305487
 31
0.0
  0
LINE
  5
25B
  8
0
  6
CONTINUOUS
 62
     7
 10
511.8639564379
 20
803.981305487
 30
0.0
 11
491.197290109
 21
803.981305487
 31
0.0
  0
LINE
  5
25C
  8
0
  6
CONTINUOUS
 62
     7
 10
553.1972890957
 20
803.981305487
 30
0.0
 11
532.5306227668
 21
803.981305487
 31
0.0
  0
LINE
  5
25D
  8
0
  6
CONTINUOUS
 62
     7
 10
491.197290109
 20
803.981305487
 30
0.0
 11
489.3034121259
 21
803.981305487
 31
0.0
  0
LINE
  5
25E
  8
0
  6
CONTINUOUS
 62
     7
 10
555.0911670788
 20
803.981305487
 30
0.0
 11
553.1972890957
 21
803.981305487
 31
0.0
  0
LINE
  5
25F
  8
0
  6
CONTINUOUS
 62
     7
 10
489.3034121259
 20
803.981305487
 30
0.0
 11
484.9222993715
 21
803.981305487
 31
0.0
  0
LINE
  5
260
  8
0
  6
CONTINUOUS
 62
     7
 10
559.4722798331
 20
803.981305487
 30
0.0
 11
555.0911670788
 21
803.981305487
 31
0.0
  0
LINE
  5
261
  8
0
  6
CONTINUOUS
 62
     7
 10
562.8535805507
 20
803.981305487
 30
0.0
 11
559.4722798331
 21
803.981305487
 31
0.0
  0
LINE
  5
262
  8
0
  6
CONTINUOUS
 62
     7
 10
484.9222993715
 20
803.981305487
 30
0.0
 11
481.5409986539
 21
803.981305487
 31
0.0
  0
LINE
  5
263
  8
0
  6
CONTINUOUS
 62
     7
 10
589.6972922845
 20
882.4813081096
 30
0.0
 11
577.4625299736
 21
882.4813081096
 31
0.0
  0
LINE
  5
264
  8
0
  6
CONTINUOUS
 62
     7
 10
569.4625323875
 20
882.4813081096
 30
0.0
 11
474.9320468171
 21
882.4813081096
 31
0.0
  0
LINE
  5
265
  8
0
  6
CONTINUOUS
 62
     7
 10
466.9320492311
 20
882.4813081096
 30
0.0
 11
454.6972869201
 21
882.4813081096
 31
0.0
  0
LINE
  5
266
  8
0
  6
CONTINUOUS
 62
     7
 10
454.6972869201
 20
905.9813035797
 30
0.0
 11
466.9320492311
 21
905.9813035797
 31
0.0
  0
LINE
  5
267
  8
0
  6
CONTINUOUS
 62
     7
 10
474.9320468171
 20
905.9813035797
 30
0.0
 11
569.4625323875
 21
905.9813035797
 31
0.0
  0
LINE
  5
268
  8
0
  6
CONTINUOUS
 62
     7
 10
577.4625299736
 20
905.9813035797
 30
0.0
 11
589.6972922845
 21
905.9813035797
 31
0.0
  0
LINE
  5
269
  8
0
  6
CONTINUOUS
 62
     7
 10
589.6972922845
 20
858.9813126396
 30
0.0
 11
577.4625299736
 21
858.9813126396
 31
0.0
  0
LINE
  5
26A
  8
0
  6
CONTINUOUS
 62
     7
 10
569.4625323875
 20
858.9813126396
 30
0.0
 11
474.9320468171
 21
858.9813126396
 31
0.0
  0
LINE
  5
26B
  8
0
  6
CONTINUOUS
 62
     7
 10
466.9320492311
 20
858.9813126396
 30
0.0
 11
454.6972869201
 21
858.9813126396
 31
0.0
  0
LINE
  5
26C
  8
0
  6
CONTINUOUS
 62
     7
 10
589.6972922845
 20
835.4813022684
 30
0.0
 11
577.4625299736
 21
835.4813022684
 31
0.0
  0
LINE
  5
26D
  8
0
  6
CONTINUOUS
 62
     7
 10
569.4625323875
 20
835.4813022684
 30
0.0
 11
474.9320468171
 21
835.4813022684
 31
0.0
  0
LINE
  5
26E
  8
0
  6
CONTINUOUS
 62
     7
 10
466.9320492311
 20
835.4813022684
 30
0.0
 11
454.6972869201
 21
835.4813022684
 31
0.0
  0
ARC
  5
26F
  8
0
  6
CONTINUOUS
 62
     7
 10
487.1972899424
 20
1023.9813093938
 30
0.0
 40
9.999999287422876
 50
269.9999971979
 51
359.9999921299
  0
LINE
  5
270
  8
0
  6
CONTINUOUS
 62
     7
 10
497.1972892298
 20
1003.9813084672
 30
0.0
 11
497.1972892298
 21
1023.9813080202
 31
0.0
  0
LINE
  5
271
  8
0
  6
CONTINUOUS
 62
     7
 10
480.1972901686
 20
1013.9813101064
 30
0.0
 11
480.1972901686
 21
1003.9813084672
 31
0.0
  0
LINE
  5
272
  8
0
  6
CONTINUOUS
 62
     7
 10
480.1972901686
 20
1013.9813101064
 30
0.0
 11
487.1972894533
 21
1013.9813101064
 31
0.0
  0
LINE
  5
273
  8
0
  6
CONTINUOUS
 62
     7
 10
497.1972892298
 20
1003.9813084672
 30
0.0
 11
480.1972901686
 21
1003.9813084672
 31
0.0
  0
LINE
  5
274
  8
0
  6
CONTINUOUS
 62
     7
 10
497.1972892298
 20
1023.9813080202
 30
0.0
 11
497.1972892298
 21
1042.9813092719
 31
0.0
  0
LINE
  5
275
  8
0
  6
CONTINUOUS
 62
     7
 10
537.1972892671
 20
1052.981309514
 30
0.0
 11
507.1972899376
 21
1052.981309514
 31
0.0
  0
ARC
  5
276
  8
0
  6
CONTINUOUS
 62
     7
 10
537.1972896023
 20
1042.9813095401
 30
0.0
 40
10.0
 50
0.0
 51
90.0
  0
LINE
  5
277
  8
0
  6
CONTINUOUS
 62
     7
 10
547.1972899749
 20
1023.9813080202
 30
0.0
 11
547.1972899749
 21
1042.9813092719
 31
0.0
  0
LINE
  5
278
  8
0
  6
CONTINUOUS
 62
     7
 10
547.1972899749
 20
1003.9813084672
 30
0.0
 11
547.1972899749
 21
1023.9813080202
 31
0.0
  0
CIRCLE
  5
279
  8
0
  6
CONTINUOUS
 62
     7
 10
522.1972896023
 20
1028.9813095401
 30
0.0
 40
10.5
  0
ARC
  5
27A
  8
0
  6
CONTINUOUS
 62
     7
 10
507.1972896023
 20
1042.9813095401
 30
0.0
 40
10.0
 50
90.0
 51
180.0
  0
LINE
  5
27B
  8
0
  6
CONTINUOUS
 62
     7
 10
497.1972892298
 20
1003.9813084672
 30
0.0
 11
547.1972899749
 21
1003.9813084672
 31
0.0
  0
LINE
  5
27C
  8
0
  6
CONTINUOUS
 62
     7
 10
564.1972890361
 20
1013.9813101064
 30
0.0
 11
564.1972890361
 21
1003.9813084672
 31
0.0
  0
LINE
  5
27D
  8
0
  6
CONTINUOUS
 62
     7
 10
557.1972897513
 20
1013.9813101064
 30
0.0
 11
564.1972890361
 21
1013.9813101064
 31
0.0
  0
ARC
  5
27E
  8
0
  6
CONTINUOUS
 62
     7
 10
557.1972890751
 20
1023.9813092066
 30
0.0
 40
9.999999100236346
 50
180.0000067976
 51
270.0000038746
  0
LINE
  5
27F
  8
0
  6
CONTINUOUS
 62
     7
 10
564.1972890361
 20
1003.9813084672
 30
0.0
 11
547.1972899749
 21
1003.9813084672
 31
0.0
  0
LINE
  5
280
  8
0
  6
CONTINUOUS
 62
     7
 10
457.3725221916
 20
1013.9813101064
 30
0.0
 11
457.3725221916
 21
1003.9813084672
 31
0.0
  0
LINE
  5
281
  8
0
  6
CONTINUOUS
 62
     7
 10
424.1972921653
 20
1013.9813101064
 30
0.0
 11
424.1972921653
 21
1003.9813084672
 31
0.0
  0
LINE
  5
282
  8
0
  6
CONTINUOUS
 62
     7
 10
424.1972921653
 20
1013.9813101064
 30
0.0
 11
457.3725221916
 21
1013.9813101064
 31
0.0
  0
LINE
  5
283
  8
0
  6
CONTINUOUS
 62
     7
 10
424.1972921653
 20
1003.9813084672
 30
0.0
 11
457.3725221916
 21
1003.9813084672
 31
0.0
  0
LINE
  5
284
  8
0
  6
CONTINUOUS
 62
     7
 10
480.1972901686
 20
1013.9813101064
 30
0.0
 11
457.3725221916
 21
1013.9813101064
 31
0.0
  0
LINE
  5
285
  8
0
  6
CONTINUOUS
 62
     7
 10
457.3725221916
 20
1003.9813084672
 30
0.0
 11
480.1972901686
 21
1003.9813084672
 31
0.0
  0
LINE
  5
286
  8
0
  6
CONTINUOUS
 62
     7
 10
587.0220570131
 20
1013.9813101064
 30
0.0
 11
587.0220570131
 21
1003.9813084672
 31
0.0
  0
LINE
  5
287
  8
0
  6
CONTINUOUS
 62
     7
 10
587.0220570131
 20
1013.9813101064
 30
0.0
 11
564.1972890361
 21
1013.9813101064
 31
0.0
  0
LINE
  5
288
  8
0
  6
CONTINUOUS
 62
     7
 10
564.1972890361
 20
1003.9813084672
 30
0.0
 11
587.0220570131
 21
1003.9813084672
 31
0.0
  0
LINE
  5
289
  8
0
  6
CONTINUOUS
 62
     7
 10
620.1972870393
 20
1013.9813101064
 30
0.0
 11
620.1972870393
 21
1003.9813084672
 31
0.0
  0
LINE
  5
28A
  8
0
  6
CONTINUOUS
 62
     7
 10
587.0220570131
 20
1013.9813101064
 30
0.0
 11
620.1972870393
 21
1013.9813101064
 31
0.0
  0
LINE
  5
28B
  8
0
  6
CONTINUOUS
 62
     7
 10
587.0220570131
 20
1003.9813084672
 30
0.0
 11
620.1972870393
 21
1003.9813084672
 31
0.0
  0
LINE
  5
28C
  8
0
  6
CONTINUOUS
 62
     7
 10
437.1972887083
 20
1000.9813098381
 30
0.0
 11
607.1972904964
 21
1000.9813098381
 31
0.0
  0
POLYLINE
  5
28D
  8
0
  6
CONTINUOUS
 62
     7
 66
     1
 10
0.0
 20
0.0
 30
0.0
 70
   128
  0
VERTEX
  5
671
  8
0
  6
CONTINUOUS
 62
     7
 10
497.4504953487
 20
1047.9813091601
 30
0.0
  0
VERTEX
  5
672
  8
0
  6
CONTINUOUS
 62
     7
 10
497.9920538379
 20
1047.9065919439
 30
0.0
  0
VERTEX
  5
673
  8
0
  6
CONTINUOUS
 62
     7
 10
498.4022958441
 20
1047.7403080235
 30
0.0
  0
SEQEND
  5
9C1
  8
0
  6
CONTINUOUS
 62
     7
  0
POLYLINE
  5
28E
  8
0
  6
CONTINUOUS
 62
     7
 66
     1
 10
0.0
 20
0.0
 30
0.0
 70
   128
  0
VERTEX
  5
674
  8
0
  6
CONTINUOUS
 62
     7
 10
545.9922833605
 20
1047.7403080235
 30
0.0
  0
VERTEX
  5
675
  8
0
  6
CONTINUOUS
 62
     7
 10
546.4025253667
 20
1047.9065919439
 30
0.0
  0
VERTEX
  5
676
  8
0
  6
CONTINUOUS
 62
     7
 10
546.9440838559
 20
1047.9813091601
 30
0.0
  0
SEQEND
  5
9C2
  8
0
  6
CONTINUOUS
 62
     7
  0
LINE
  5
28F
  8
0
  6
CONTINUOUS
 62
     7
 10
449.4511543079
 20
1049.981309488
 30
0.0
 11
445.5739243193
 21
1049.981309488
 31
0.0
  0
LINE
  5
290
  8
0
  6
CONTINUOUS
 62
     7
 10
598.8206548853
 20
1049.981309488
 30
0.0
 11
594.9434248968
 21
1049.981309488
 31
0.0
  0
LINE
  5
291
  8
0
  6
CONTINUOUS
 62
     7
 10
594.9434248968
 20
1049.981309488
 30
0.0
 11
590.3191177412
 21
1049.981309488
 31
0.0
  0
LINE
  5
292
  8
0
  6
CONTINUOUS
 62
     7
 10
587.3007608815
 20
1049.981309488
 30
0.0
 11
590.3191177412
 21
1049.981309488
 31
0.0
  0
LINE
  5
293
  8
0
  6
CONTINUOUS
 62
     7
 10
587.3007608815
 20
1049.981309488
 30
0.0
 11
581.5942606195
 21
1049.981309488
 31
0.0
  0
LINE
  5
294
  8
0
  6
CONTINUOUS
 62
     7
 10
581.5942606195
 20
1049.981309488
 30
0.0
 11
575.2777738734
 21
1049.981309488
 31
0.0
  0
LINE
  5
295
  8
0
  6
CONTINUOUS
 62
     7
 10
469.1168053313
 20
1049.981309488
 30
0.0
 11
462.8003185852
 21
1049.981309488
 31
0.0
  0
LINE
  5
296
  8
0
  6
CONTINUOUS
 62
     7
 10
462.8003185852
 20
1049.981309488
 30
0.0
 11
457.0938183232
 21
1049.981309488
 31
0.0
  0
LINE
  5
297
  8
0
  6
CONTINUOUS
 62
     7
 10
454.0754614635
 20
1049.981309488
 30
0.0
 11
457.0938183232
 21
1049.981309488
 31
0.0
  0
LINE
  5
298
  8
0
  6
CONTINUOUS
 62
     7
 10
454.0754614635
 20
1049.981309488
 30
0.0
 11
449.4511543079
 21
1049.981309488
 31
0.0
  0
LINE
  5
299
  8
0
  6
CONTINUOUS
 62
     7
 10
438.1972907348
 20
1053.9813094451
 30
0.0
 11
606.1972884698
 21
1053.9813094451
 31
0.0
  0
ARC
  5
29A
  8
0
  6
CONTINUOUS
 62
     7
 10
472.2311514608
 20
1049.7686243125
 30
0.0
 40
3.121600038138097
 50
176.0932179935
 51
202.6361541693
  0
LINE
  5
29B
  8
0
  6
CONTINUOUS
 62
     7
 10
497.4504953487
 20
1047.9813091601
 30
0.0
 11
470.3806249662
 21
1047.9813091601
 31
0.0
  0
ARC
  5
29C
  8
0
  6
CONTINUOUS
 62
     7
 10
470.3002376316
 20
1049.0393021993
 30
0.0
 40
1.061042597809474
 50
206.4202326241
 51
274.3450401251
  0
ARC
  5
29D
  8
0
  6
CONTINUOUS
 62
     7
 10
574.1077166657
 20
1049.0157743829
 30
0.0
 40
1.038705776362018
 50
264.8209452929
 51
334.4137819578
  0
LINE
  5
29E
  8
0
  6
CONTINUOUS
 62
     7
 10
574.0139542385
 20
1047.9813091601
 30
0.0
 11
546.9440838559
 21
1047.9813091601
 31
0.0
  0
ARC
  5
29F
  8
0
  6
CONTINUOUS
 62
     7
 10
572.2374351702
 20
1049.756419322
 30
0.0
 40
3.048644783619637
 50
337.0402326688
 51
4.2303951683
  0
LINE
  5
2A0
  8
0
  6
CONTINUOUS
 62
     7
 10
495.889596851
 20
1038.9813086162
 30
0.0
 11
497.1972892298
 21
1038.9813086162
 31
0.0
  0
LINE
  5
2A1
  8
0
  6
CONTINUOUS
 62
     7
 10
547.1972899749
 20
1038.9813086162
 30
0.0
 11
548.5049823536
 21
1038.9813086162
 31
0.0
  0
POLYLINE
  5
2A2
  8
0
  6
CONTINUOUS
 62
     7
 66
     1
 10
0.0
 20
0.0
 30
0.0
 70
   128
  0
VERTEX
  5
677
  8
0
  6
CONTINUOUS
 62
     7
 10
474.4941054149
 20
1047.9813091601
 30
0.0
  0
VERTEX
  5
678
  8
0
  6
CONTINUOUS
 62
     7
 10
474.732728885
 20
1047.9428799967
 30
0.0
  0
VERTEX
  5
679
  8
0
  6
CONTINUOUS
 62
     7
 10
474.9621881409
 20
1047.8290686528
 30
0.0
  0
VERTEX
  5
67A
  8
0
  6
CONTINUOUS
 62
     7
 10
475.1736542447
 20
1047.6442486192
 30
0.0
  0
VERTEX
  5
67B
  8
0
  6
CONTINUOUS
 62
     7
 10
475.3590060635
 20
1047.3955230932
 30
0.0
  0
VERTEX
  5
67C
  8
0
  6
CONTINUOUS
 62
     7
 10
475.5111245676
 20
1047.0924502383
 30
0.0
  0
VERTEX
  5
67D
  8
0
  6
CONTINUOUS
 62
     7
 10
475.6241536005
 20
1046.7466762434
 30
0.0
  0
VERTEX
  5
67E
  8
0
  6
CONTINUOUS
 62
     7
 10
475.6937606497
 20
1046.3714901502
 30
0.0
  0
VERTEX
  5
67F
  8
0
  6
CONTINUOUS
 62
     7
 10
475.7172635062
 20
1045.9813097636
 30
0.0
  0
SEQEND
  5
9C3
  8
0
  6
CONTINUOUS
 62
     7
  0
ARC
  5
2A3
  8
0
  6
CONTINUOUS
 62
     7
 10
550.2578562794
 20
1046.0934989206
 30
0.0
 40
19.73312570671978
 50
359.6742533379
 51
5.4897147541
  0
LINE
  5
2A4
  8
0
  6
CONTINUOUS
 62
     7
 10
547.1972899749
 20
1023.9813080202
 30
0.0
 11
548.5049823536
 21
1023.9813080202
 31
0.0
  0
ARC
  5
2A5
  8
0
  6
CONTINUOUS
 62
     7
 10
556.4104329327
 20
1023.8865554561
 30
0.0
 40
7.906018397787516
 50
179.3133013706
 51
269.1985847858
  0
POLYLINE
  5
2A6
  8
0
  6
CONTINUOUS
 62
     7
 66
     1
 10
0.0
 20
0.0
 30
0.0
 70
   128
  0
VERTEX
  5
680
  8
0
  6
CONTINUOUS
 62
     7
 10
557.1972897513
 20
1013.9813101064
 30
0.0
  0
VERTEX
  5
681
  8
0
  6
CONTINUOUS
 62
     7
 10
557.0222085579
 20
1014.0197402011
 30
0.0
  0
VERTEX
  5
682
  8
0
  6
CONTINUOUS
 62
     7
 10
556.8538552387
 20
1014.133551545
 30
0.0
  0
VERTEX
  5
683
  8
0
  6
CONTINUOUS
 62
     7
 10
556.6987006231
 20
1014.3183706473
 30
0.0
  0
VERTEX
  5
684
  8
0
  6
CONTINUOUS
 62
     7
 10
556.5627051755
 20
1014.5670971046
 30
0.0
  0
VERTEX
  5
685
  8
0
  6
CONTINUOUS
 62
     7
 10
556.4510992034
 20
1014.8701680969
 30
0.0
  0
VERTEX
  5
686
  8
0
  6
CONTINUOUS
 62
     7
 10
556.3681667908
 20
1015.2159420918
 30
0.0
  0
VERTEX
  5
687
  8
0
  6
CONTINUOUS
 62
     7
 10
556.3170967861
 20
1015.5911272536
 30
0.0
  0
VERTEX
  5
688
  8
0
  6
CONTINUOUS
 62
     7
 10
556.2998524173
 20
1015.9813104342
 30
0.0
  0
SEQEND
  5
9C4
  8
0
  6
CONTINUOUS
 62
     7
  0
ARC
  5
2A7
  8
0
  6
CONTINUOUS
 62
     7
 10
487.9843610317
 20
1023.886346203
 30
0.0
 40
7.905806164176881
 50
270.7998801487
 51
0.6882336948
  0
LINE
  5
2A8
  8
0
  6
CONTINUOUS
 62
     7
 10
495.889596851
 20
1023.9813080202
 30
0.0
 11
497.1972892298
 21
1023.9813080202
 31
0.0
  0
POLYLINE
  5
2A9
  8
0
  6
CONTINUOUS
 62
     7
 66
     1
 10
0.0
 20
0.0
 30
0.0
 70
   128
  0
VERTEX
  5
689
  8
0
  6
CONTINUOUS
 62
     7
 10
488.0947267874
 20
1015.9813104342
 30
0.0
  0
VERTEX
  5
68A
  8
0
  6
CONTINUOUS
 62
     7
 10
488.0774824186
 20
1015.5911272536
 30
0.0
  0
VERTEX
  5
68B
  8
0
  6
CONTINUOUS
 62
     7
 10
488.0264124139
 20
1015.2159420918
 30
0.0
  0
VERTEX
  5
68C
  8
0
  6
CONTINUOUS
 62
     7
 10
487.9434800013
 20
1014.8701680969
 30
0.0
  0
VERTEX
  5
68D
  8
0
  6
CONTINUOUS
 62
     7
 10
487.8318740292
 20
1014.5670971046
 30
0.0
  0
VERTEX
  5
68E
  8
0
  6
CONTINUOUS
 62
     7
 10
487.6958785816
 20
1014.3183706473
 30
0.0
  0
VERTEX
  5
68F
  8
0
  6
CONTINUOUS
 62
     7
 10
487.5407239659
 20
1014.133551545
 30
0.0
  0
VERTEX
  5
690
  8
0
  6
CONTINUOUS
 62
     7
 10
487.3723706468
 20
1014.0197402011
 30
0.0
  0
VERTEX
  5
691
  8
0
  6
CONTINUOUS
 62
     7
 10
487.1972894533
 20
1013.9813101064
 30
0.0
  0
SEQEND
  5
9C5
  8
0
  6
CONTINUOUS
 62
     7
  0
LINE
  5
2AA
  8
0
  6
CONTINUOUS
 62
     7
 10
495.889596851
 20
1023.9813080202
 30
0.0
 11
495.889596851
 21
1038.9813086162
 31
0.0
  0
LINE
  5
2AB
  8
0
  6
CONTINUOUS
 62
     7
 10
548.5049823536
 20
1038.9813086162
 30
0.0
 11
548.5049823536
 21
1023.9813080202
 31
0.0
  0
LINE
  5
2AC
  8
0
  6
CONTINUOUS
 62
     7
 10
475.7172635062
 20
1015.9813104342
 30
0.0
 11
488.0947267874
 21
1015.9813104342
 31
0.0
  0
LINE
  5
2AD
  8
0
  6
CONTINUOUS
 62
     7
 10
475.7172635062
 20
1045.9813097636
 30
0.0
 11
475.7172635062
 21
1015.9813104342
 31
0.0
  0
LINE
  5
2AE
  8
0
  6
CONTINUOUS
 62
     7
 10
556.2998524173
 20
1015.9813104342
 30
0.0
 11
569.9906630679
 21
1015.9813104342
 31
0.0
  0
LINE
  5
2AF
  8
0
  6
CONTINUOUS
 62
     7
 10
569.9906630679
 20
1015.9813104342
 30
0.0
 11
569.9906630679
 21
1045.9813097636
 31
0.0
  0
LINE
  5
2B0
  8
0
  6
CONTINUOUS
 62
     7
 10
541.0020521148
 20
997.981311209
 30
0.0
 11
503.3925270899
 21
997.981311209
 31
0.0
  0
POLYLINE
  5
2B1
  8
0
  6
CONTINUOUS
 62
     7
 66
     1
 10
0.0
 20
0.0
 30
0.0
 70
   128
  0
VERTEX
  5
692
  8
0
  6
CONTINUOUS
 62
     7
 10
503.3925270899
 20
997.981311209
 30
0.0
  0
VERTEX
  5
693
  8
0
  6
CONTINUOUS
 62
     7
 10
503.3103714003
 20
998.9551616977
 30
0.0
  0
VERTEX
  5
694
  8
0
  6
CONTINUOUS
 62
     7
 10
503.0760711296
 20
999.8190118144
 30
0.0
  0
VERTEX
  5
695
  8
0
  6
CONTINUOUS
 62
     7
 10
502.7159063383
 20
1000.4891803633
 30
0.0
  0
VERTEX
  5
696
  8
0
  6
CONTINUOUS
 62
     7
 10
502.2643825276
 20
1000.8924318622
 30
0.0
  0
VERTEX
  5
697
  8
0
  6
CONTINUOUS
 62
     7
 10
501.9219724699
 20
1000.9812614094
 30
0.0
  0
VERTEX
  5
698
  8
0
  6
CONTINUOUS
 62
     7
 10
501.9136799737
 20
1000.9813098381
 30
0.0
  0
SEQEND
  5
9C6
  8
0
  6
CONTINUOUS
 62
     7
  0
POLYLINE
  5
2B2
  8
0
  6
CONTINUOUS
 62
     7
 66
     1
 10
0.0
 20
0.0
 30
0.0
 70
   128
  0
VERTEX
  5
699
  8
0
  6
CONTINUOUS
 62
     7
 10
542.480899231
 20
1000.9813098381
 30
0.0
  0
VERTEX
  5
69A
  8
0
  6
CONTINUOUS
 62
     7
 10
542.4726067348
 20
1000.9812614094
 30
0.0
  0
VERTEX
  5
69B
  8
0
  6
CONTINUOUS
 62
     7
 10
542.130196677
 20
1000.8924318622
 30
0.0
  0
VERTEX
  5
69C
  8
0
  6
CONTINUOUS
 62
     7
 10
541.6786728664
 20
1000.4891803633
 30
0.0
  0
VERTEX
  5
69D
  8
0
  6
CONTINUOUS
 62
     7
 10
541.318508075
 20
999.8190118144
 30
0.0
  0
VERTEX
  5
69E
  8
0
  6
CONTINUOUS
 62
     7
 10
541.0842078044
 20
998.9551616977
 30
0.0
  0
VERTEX
  5
69F
  8
0
  6
CONTINUOUS
 62
     7
 10
541.0020521148
 20
997.981311209
 30
0.0
  0
SEQEND
  5
9C7
  8
0
  6
CONTINUOUS
 62
     7
  0
POLYLINE
  5
2B3
  8
0
  6
CONTINUOUS
 62
     7
 66
     1
 10
0.0
 20
0.0
 30
0.0
 70
   128
  0
VERTEX
  5
6A0
  8
0
  6
CONTINUOUS
 62
     7
 10
475.7172635062
 20
1015.9813104342
 30
0.0
  0
VERTEX
  5
6A1
  8
0
  6
CONTINUOUS
 62
     7
 10
475.6937606497
 20
1015.5911272536
 30
0.0
  0
VERTEX
  5
6A2
  8
0
  6
CONTINUOUS
 62
     7
 10
475.6241536005
 20
1015.2159420918
 30
0.0
  0
VERTEX
  5
6A3
  8
0
  6
CONTINUOUS
 62
     7
 10
475.5111245676
 20
1014.8701680969
 30
0.0
  0
VERTEX
  5
6A4
  8
0
  6
CONTINUOUS
 62
     7
 10
475.3590060635
 20
1014.5670971046
 30
0.0
  0
VERTEX
  5
6A5
  8
0
  6
CONTINUOUS
 62
     7
 10
475.1736542447
 20
1014.3183706473
 30
0.0
  0
VERTEX
  5
6A6
  8
0
  6
CONTINUOUS
 62
     7
 10
474.9621881409
 20
1014.133551545
 30
0.0
  0
VERTEX
  5
6A7
  8
0
  6
CONTINUOUS
 62
     7
 10
474.732728885
 20
1014.0197402011
 30
0.0
  0
VERTEX
  5
6A8
  8
0
  6
CONTINUOUS
 62
     7
 10
474.4941054149
 20
1013.9813101064
 30
0.0
  0
SEQEND
  5
9C8
  8
0
  6
CONTINUOUS
 62
     7
  0
ARC
  5
2B4
  8
0
  6
CONTINUOUS
 62
     7
 10
550.2430761682
 20
1015.8697869018
 30
0.0
 40
19.74790180898188
 50
354.5124626333
 51
0.3235716762
  0
LINE
  5
2B5
  8
0
  6
CONTINUOUS
 62
     7
 10
503.3925270899
 20
997.981311209
 30
0.0
 11
500.1972897215
 21
997.981311209
 31
0.0
  0
ARC
  5
2B6
  8
0
  6
CONTINUOUS
 62
     7
 10
497.1972896023
 20
997.9813095401
 30
0.0
 40
3.0
 50
0.0
 51
90.0
  0
ARC
  5
2B7
  8
0
  6
CONTINUOUS
 62
     7
 10
547.1972896023
 20
997.9813095401
 30
0.0
 40
2.999999999999886
 50
90.0
 51
180.0
  0
LINE
  5
2B8
  8
0
  6
CONTINUOUS
 62
     7
 10
544.1972894831
 20
997.981311209
 30
0.0
 11
541.0020521148
 21
997.981311209
 31
0.0
  0
ARC
  5
2B9
  8
0
  6
CONTINUOUS
 62
     7
 10
543.5400040922
 20
936.6533801651
 30
0.0
 40
2.54770806231926
 50
174.9842108526
 51
221.0185697608
  0
ARC
  5
2BA
  8
0
  6
CONTINUOUS
 62
     7
 10
500.8894517034
 20
936.6420471381
 30
0.0
 40
2.513996768012409
 50
318.6546347472
 51
5.3425846394
  0
LINE
  5
2BB
  8
0
  6
CONTINUOUS
 62
     7
 10
503.3925270899
 20
997.981311209
 30
0.0
 11
503.3925270899
 21
936.876126952
 31
0.0
  0
LINE
  5
2BC
  8
0
  6
CONTINUOUS
 62
     7
 10
541.0020521148
 20
936.876126952
 30
0.0
 11
541.0020521148
 21
997.981311209
 31
0.0
  0
POLYLINE
  5
2BD
  8
0
  6
CONTINUOUS
 62
     7
 66
     1
 10
0.0
 20
0.0
 30
0.0
 70
   128
  0
VERTEX
  5
6A9
  8
0
  6
CONTINUOUS
 62
     7
 10
486.5221923454
 20
923.9813102554
 30
0.0
  0
VERTEX
  5
6AA
  8
0
  6
CONTINUOUS
 62
     7
 10
487.7076989277
 20
923.9570660661
 30
0.0
  0
VERTEX
  5
6AB
  8
0
  6
CONTINUOUS
 62
     7
 10
488.668622659
 20
923.8542480539
 30
0.0
  0
VERTEX
  5
6AC
  8
0
  6
CONTINUOUS
 62
     7
 10
489.6320237084
 20
923.6065907548
 30
0.0
  0
VERTEX
  5
6AD
  8
0
  6
CONTINUOUS
 62
     7
 10
490.3572222455
 20
923.2765300344
 30
0.0
  0
VERTEX
  5
6AE
  8
0
  6
CONTINUOUS
 62
     7
 10
490.9684585645
 20
922.843308575
 30
0.0
  0
VERTEX
  5
6AF
  8
0
  6
CONTINUOUS
 62
     7
 10
491.2828264995
 20
922.5280298065
 30
0.0
  0
VERTEX
  5
6B0
  8
0
  6
CONTINUOUS
 62
     7
 10
491.5378952636
 20
922.1844835351
 30
0.0
  0
VERTEX
  5
6B1
  8
0
  6
CONTINUOUS
 62
     7
 10
491.8101283027
 20
921.5959770749
 30
0.0
  0
VERTEX
  5
6B2
  8
0
  6
CONTINUOUS
 62
     7
 10
491.9012451782
 20
920.9813041757
 30
0.0
  0
SEQEND
  5
9C9
  8
0
  6
CONTINUOUS
 62
     7
  0
LINE
  5
2BE
  8
0
  6
CONTINUOUS
 62
     7
 10
491.9012451782
 20
920.9813041757
 30
0.0
 11
491.9012451782
 21
906.9813056062
 31
0.0
  0
POLYLINE
  5
2BF
  8
0
  6
CONTINUOUS
 62
     7
 66
     1
 10
0.0
 20
0.0
 30
0.0
 70
   128
  0
VERTEX
  5
6B3
  8
0
  6
CONTINUOUS
 62
     7
 10
552.4933340265
 20
920.9813041757
 30
0.0
  0
VERTEX
  5
6B4
  8
0
  6
CONTINUOUS
 62
     7
 10
552.5844509019
 20
921.5959323715
 30
0.0
  0
VERTEX
  5
6B5
  8
0
  6
CONTINUOUS
 62
     7
 10
552.6979865743
 20
921.893463857
 30
0.0
  0
VERTEX
  5
6B6
  8
0
  6
CONTINUOUS
 62
     7
 10
552.8566839411
 20
922.1844835351
 30
0.0
  0
VERTEX
  5
6B7
  8
0
  6
CONTINUOUS
 62
     7
 10
553.1116837873
 20
922.5279553007
 30
0.0
  0
VERTEX
  5
6B8
  8
0
  6
CONTINUOUS
 62
     7
 10
553.4261206402
 20
922.843308575
 30
0.0
  0
VERTEX
  5
6B9
  8
0
  6
CONTINUOUS
 62
     7
 10
554.0372750028
 20
923.2764853309
 30
0.0
  0
VERTEX
  5
6BA
  8
0
  6
CONTINUOUS
 62
     7
 10
554.7625554963
 20
923.6065907548
 30
0.0
  0
VERTEX
  5
6BB
  8
0
  6
CONTINUOUS
 62
     7
 10
556.264212565
 20
923.9267720054
 30
0.0
  0
VERTEX
  5
6BC
  8
0
  6
CONTINUOUS
 62
     7
 10
557.8723868592
 20
923.9813102554
 30
0.0
  0
SEQEND
  5
9CA
  8
0
  6
CONTINUOUS
 62
     7
  0
LINE
  5
2C0
  8
0
  6
CONTINUOUS
 62
     7
 10
552.4933340265
 20
906.9813056062
 30
0.0
 11
552.4933340265
 21
920.9813041757
 31
0.0
  0
ARC
  5
2C1
  8
0
  6
CONTINUOUS
 62
     7
 10
493.5787688912
 20
932.7322374569
 30
0.0
 40
10.65277757815003
 50
22.8920515127
 51
50.746917735
  0
LINE
  5
2C2
  8
0
  6
CONTINUOUS
 62
     7
 10
500.1972897215
 20
940.981307454
 30
0.0
 11
500.3192818029
 21
940.981307454
 31
0.0
  0
LINE
  5
2C3
  8
0
  6
CONTINUOUS
 62
     7
 10
500.1972897215
 20
940.981307454
 30
0.0
 11
500.1972897215
 21
997.981311209
 31
0.0
  0
POLYLINE
  5
2C4
  8
0
  6
CONTINUOUS
 62
     7
 66
     1
 10
0.0
 20
0.0
 30
0.0
 70
   128
  0
VERTEX
  5
6BD
  8
0
  6
CONTINUOUS
 62
     7
 10
502.776812972
 20
934.9813101958
 30
0.0
  0
VERTEX
  5
6BE
  8
0
  6
CONTINUOUS
 62
     7
 10
502.7586708082
 20
935.1451410125
 30
0.0
  0
VERTEX
  5
6BF
  8
0
  6
CONTINUOUS
 62
     7
 10
502.6286674901
 20
935.4519559215
 30
0.0
  0
VERTEX
  5
6C0
  8
0
  6
CONTINUOUS
 62
     7
 10
502.4595709755
 20
935.6747059296
 30
0.0
  0
VERTEX
  5
6C1
  8
0
  6
CONTINUOUS
 62
     7
 10
501.9516350939
 20
936.1212639283
 30
0.0
  0
VERTEX
  5
6C2
  8
0
  6
CONTINUOUS
 62
     7
 10
500.4044307633
 20
937.0074806879
 30
0.0
  0
VERTEX
  5
6C3
  8
0
  6
CONTINUOUS
 62
     7
 10
498.6001515998
 20
937.7314759563
 30
0.0
  0
VERTEX
  5
6C4
  8
0
  6
CONTINUOUS
 62
     7
 10
497.3558804257
 20
937.9813088249
 30
0.0
  0
SEQEND
  5
9CB
  8
0
  6
CONTINUOUS
 62
     7
  0
ARC
  5
2C5
  8
0
  6
CONTINUOUS
 62
     7
 10
497.3374700679
 20
940.9631191969
 30
0.0
 40
2.981867206289368
 50
270.3537523412
 51
0.3494846541
  0
LINE
  5
2C6
  8
0
  6
CONTINUOUS
 62
     7
 10
544.0752974017
 20
940.981307454
 30
0.0
 11
544.1972894831
 21
940.981307454
 31
0.0
  0
POLYLINE
  5
2C7
  8
0
  6
CONTINUOUS
 62
     7
 66
     1
 10
0.0
 20
0.0
 30
0.0
 70
   128
  0
VERTEX
  5
6C5
  8
0
  6
CONTINUOUS
 62
     7
 10
541.0020521148
 20
936.876126952
 30
0.0
  0
VERTEX
  5
6C6
  8
0
  6
CONTINUOUS
 62
     7
 10
541.1824846877
 20
937.2612102102
 30
0.0
  0
VERTEX
  5
6C7
  8
0
  6
CONTINUOUS
 62
     7
 10
542.2861932083
 20
939.0336511801
 30
0.0
  0
VERTEX
  5
6C8
  8
0
  6
CONTINUOUS
 62
     7
 10
543.4493145211
 20
940.4816491674
 30
0.0
  0
VERTEX
  5
6C9
  8
0
  6
CONTINUOUS
 62
     7
 10
543.9629147066
 20
940.9449933241
 30
0.0
  0
VERTEX
  5
6CA
  8
0
  6
CONTINUOUS
 62
     7
 10
544.0752974017
 20
940.981307454
 30
0.0
  0
SEQEND
  5
9CC
  8
0
  6
CONTINUOUS
 62
     7
  0
LINE
  5
2C8
  8
0
  6
CONTINUOUS
 62
     7
 10
544.1972894831
 20
997.981311209
 30
0.0
 11
544.1972894831
 21
940.981307454
 31
0.0
  0
ARC
  5
2C9
  8
0
  6
CONTINUOUS
 62
     7
 10
547.0571091368
 20
940.9631191969
 30
0.0
 40
2.981867206289367
 50
179.6505153459
 51
269.6462476588
  0
POLYLINE
  5
2CA
  8
0
  6
CONTINUOUS
 62
     7
 66
     1
 10
0.0
 20
0.0
 30
0.0
 70
   128
  0
VERTEX
  5
6CB
  8
0
  6
CONTINUOUS
 62
     7
 10
547.0386987789
 20
937.9813088249
 30
0.0
  0
VERTEX
  5
6CC
  8
0
  6
CONTINUOUS
 62
     7
 10
545.7944276048
 20
937.7314759563
 30
0.0
  0
VERTEX
  5
6CD
  8
0
  6
CONTINUOUS
 62
     7
 10
543.9901484414
 20
937.0074806879
 30
0.0
  0
VERTEX
  5
6CE
  8
0
  6
CONTINUOUS
 62
     7
 10
542.4429441108
 20
936.1212639283
 30
0.0
  0
VERTEX
  5
6CF
  8
0
  6
CONTINUOUS
 62
     7
 10
541.9350082292
 20
935.6747059296
 30
0.0
  0
VERTEX
  5
6D0
  8
0
  6
CONTINUOUS
 62
     7
 10
541.741984175
 20
935.4118568967
 30
0.0
  0
VERTEX
  5
6D1
  8
0
  6
CONTINUOUS
 62
     7
 10
541.6359083964
 20
935.1451410125
 30
0.0
  0
VERTEX
  5
6D2
  8
0
  6
CONTINUOUS
 62
     7
 10
541.6177662327
 20
934.9813101958
 30
0.0
  0
SEQEND
  5
9CD
  8
0
  6
CONTINUOUS
 62
     7
  0
ARC
  5
2CB
  8
0
  6
CONTINUOUS
 62
     7
 10
471.5964957457
 20
996.7120537944
 30
0.0
 40
51.90377440113522
 50
92.480629449
 51
99.7054475496
  0
POLYLINE
  5
2CC
  8
0
  6
CONTINUOUS
 62
     7
 66
     1
 10
0.0
 20
0.0
 30
0.0
 70
   128
  0
VERTEX
  5
6D3
  8
0
  6
CONTINUOUS
 62
     7
 10
462.8003185852
 20
1049.981309488
 30
0.0
  0
VERTEX
  5
6D4
  8
0
  6
CONTINUOUS
 62
     7
 10
462.829483883
 20
1048.8527509528
 30
0.0
  0
VERTEX
  5
6D5
  8
0
  6
CONTINUOUS
 62
     7
 10
462.8463967009
 20
1047.8729525726
 30
0.0
  0
SEQEND
  5
9CE
  8
0
  6
CONTINUOUS
 62
     7
  0
ARC
  5
2CD
  8
0
  6
CONTINUOUS
 62
     7
 10
572.7980834589
 20
996.7120537944
 30
0.0
 40
51.90377440112597
 50
80.2945524504
 51
87.519370551
  0
POLYLINE
  5
2CE
  8
0
  6
CONTINUOUS
 62
     7
 66
     1
 10
0.0
 20
0.0
 30
0.0
 70
   128
  0
VERTEX
  5
6D6
  8
0
  6
CONTINUOUS
 62
     7
 10
581.5942606195
 20
1049.981309488
 30
0.0
  0
VERTEX
  5
6D7
  8
0
  6
CONTINUOUS
 62
     7
 10
581.5650953217
 20
1048.8527509528
 30
0.0
  0
VERTEX
  5
6D8
  8
0
  6
CONTINUOUS
 62
     7
 10
581.5481825038
 20
1047.8729525726
 30
0.0
  0
SEQEND
  5
9CF
  8
0
  6
CONTINUOUS
 62
     7
  0
LINE
  5
2CF
  8
0
  6
CONTINUOUS
 62
     7
 10
457.6972929998
 20
937.9813088249
 30
0.0
 11
476.6972905262
 21
937.9813088249
 31
0.0
  0
LINE
  5
2D0
  8
0
  6
CONTINUOUS
 62
     7
 10
477.5027429922
 20
937.7379132579
 30
0.0
 11
476.6972905262
 21
937.9813088249
 31
0.0
  0
POLYLINE
  5
2D1
  8
0
  6
CONTINUOUS
 62
     7
 66
     1
 10
0.0
 20
0.0
 30
0.0
 70
   128
  0
VERTEX
  5
6D9
  8
0
  6
CONTINUOUS
 62
     7
 10
483.6348427697
 20
937.5144479941
 30
0.0
  0
VERTEX
  5
6DA
  8
0
  6
CONTINUOUS
 62
     7
 10
483.42054172
 20
937.4657808016
 30
0.0
  0
VERTEX
  5
6DB
  8
0
  6
CONTINUOUS
 62
     7
 10
481.7788062854
 20
937.1310485671
 30
0.0
  0
VERTEX
  5
6DC
  8
0
  6
CONTINUOUS
 62
     7
 10
480.6178903444
 20
937.0061246823
 30
0.0
  0
VERTEX
  5
6DD
  8
0
  6
CONTINUOUS
 62
     7
 10
479.5454873009
 20
937.0478628348
 30
0.0
  0
VERTEX
  5
6DE
  8
0
  6
CONTINUOUS
 62
     7
 10
478.2748801871
 20
937.3609809349
 30
0.0
  0
VERTEX
  5
6DF
  8
0
  6
CONTINUOUS
 62
     7
 10
477.5027429922
 20
937.7379132579
 30
0.0
  0
SEQEND
  5
9D0
  8
0
  6
CONTINUOUS
 62
     7
  0
POLYLINE
  5
2D2
  8
0
  6
CONTINUOUS
 62
     7
 66
     1
 10
0.0
 20
0.0
 30
0.0
 70
   128
  0
VERTEX
  5
6E0
  8
0
  6
CONTINUOUS
 62
     7
 10
488.5038195415
 20
937.9813088249
 30
0.0
  0
VERTEX
  5
6E1
  8
0
  6
CONTINUOUS
 62
     7
 10
487.639716105
 20
937.9695369075
 30
0.0
  0
VERTEX
  5
6E2
  8
0
  6
CONTINUOUS
 62
     7
 10
483.6348427697
 20
937.5144479941
 30
0.0
  0
SEQEND
  5
9D1
  8
0
  6
CONTINUOUS
 62
     7
  0
LINE
  5
2D3
  8
0
  6
CONTINUOUS
 62
     7
 10
488.5038195415
 20
937.9813088249
 30
0.0
 11
497.3558804257
 21
937.9813088249
 31
0.0
  0
LINE
  5
2D4
  8
0
  6
CONTINUOUS
 62
     7
 10
547.0386987789
 20
937.9813088249
 30
0.0
 11
555.8907596632
 21
937.9813088249
 31
0.0
  0
POLYLINE
  5
2D5
  8
0
  6
CONTINUOUS
 62
     7
 66
     1
 10
0.0
 20
0.0
 30
0.0
 70
   128
  0
VERTEX
  5
6E3
  8
0
  6
CONTINUOUS
 62
     7
 10
560.759736435
 20
937.5144479941
 30
0.0
  0
VERTEX
  5
6E4
  8
0
  6
CONTINUOUS
 62
     7
 10
558.355840133
 20
937.87820024
 30
0.0
  0
VERTEX
  5
6E5
  8
0
  6
CONTINUOUS
 62
     7
 10
555.8907596632
 20
937.9813088249
 30
0.0
  0
SEQEND
  5
9D2
  8
0
  6
CONTINUOUS
 62
     7
  0
POLYLINE
  5
2D6
  8
0
  6
CONTINUOUS
 62
     7
 66
     1
 10
0.0
 20
0.0
 30
0.0
 70
   128
  0
VERTEX
  5
6E6
  8
0
  6
CONTINUOUS
 62
     7
 10
566.8918362124
 20
937.7379132579
 30
0.0
  0
VERTEX
  5
6E7
  8
0
  6
CONTINUOUS
 62
     7
 10
566.7868798836
 20
937.6730112503
 30
0.0
  0
VERTEX
  5
6E8
  8
0
  6
CONTINUOUS
 62
     7
 10
565.9031441672
 20
937.2846944402
 30
0.0
  0
VERTEX
  5
6E9
  8
0
  6
CONTINUOUS
 62
     7
 10
564.8393353684
 20
937.046633489
 30
0.0
  0
VERTEX
  5
6EA
  8
0
  6
CONTINUOUS
 62
     7
 10
563.6437965794
 20
937.0127706002
 30
0.0
  0
VERTEX
  5
6EB
  8
0
  6
CONTINUOUS
 62
     7
 10
562.3623600467
 20
937.1745152543
 30
0.0
  0
VERTEX
  5
6EC
  8
0
  6
CONTINUOUS
 62
     7
 10
560.759736435
 20
937.5144479941
 30
0.0
  0
SEQEND
  5
9D3
  8
0
  6
CONTINUOUS
 62
     7
  0
LINE
  5
2D7
  8
0
  6
CONTINUOUS
 62
     7
 10
567.6972886785
 20
937.9813088249
 30
0.0
 11
566.8918362124
 21
937.7379132579
 31
0.0
  0
LINE
  5
2D8
  8
0
  6
CONTINUOUS
 62
     7
 10
567.6972886785
 20
937.9813088249
 30
0.0
 11
586.6972862049
 21
937.9813088249
 31
0.0
  0
POLYLINE
  5
2D9
  8
0
  6
CONTINUOUS
 62
     7
 66
     1
 10
0.0
 20
0.0
 30
0.0
 70
   128
  0
VERTEX
  5
6ED
  8
0
  6
CONTINUOUS
 62
     7
 10
469.9619470401
 20
1047.396172225
 30
0.0
  0
VERTEX
  5
6EE
  8
0
  6
CONTINUOUS
 62
     7
 10
469.9870703979
 20
1047.6933637778
 30
0.0
  0
VERTEX
  5
6EF
  8
0
  6
CONTINUOUS
 62
     7
 10
470.0410871072
 20
1047.856811821
 30
0.0
  0
VERTEX
  5
6F0
  8
0
  6
CONTINUOUS
 62
     7
 10
470.1743779941
 20
1047.959158584
 30
0.0
  0
VERTEX
  5
6F1
  8
0
  6
CONTINUOUS
 62
     7
 10
470.2683149143
 20
1047.9767698939
 30
0.0
  0
VERTEX
  5
6F2
  8
0
  6
CONTINUOUS
 62
     7
 10
470.3806249662
 20
1047.9813091601
 30
0.0
  0
SEQEND
  5
9D4
  8
0
  6
CONTINUOUS
 62
     7
  0
POLYLINE
  5
2DA
  8
0
  6
CONTINUOUS
 62
     7
 66
     1
 10
0.0
 20
0.0
 30
0.0
 70
   128
  0
VERTEX
  5
6F3
  8
0
  6
CONTINUOUS
 62
     7
 10
469.9619470401
 20
1047.396172225
 30
0.0
  0
VERTEX
  5
6F4
  8
0
  6
CONTINUOUS
 62
     7
 10
467.7193334563
 20
1047.1001746277
 30
0.0
  0
VERTEX
  5
6F5
  8
0
  6
CONTINUOUS
 62
     7
 10
465.5948935314
 20
1047.3402742441
 30
0.0
  0
VERTEX
  5
6F6
  8
0
  6
CONTINUOUS
 62
     7
 10
464.1389979287
 20
1047.6253073807
 30
0.0
  0
VERTEX
  5
6F7
  8
0
  6
CONTINUOUS
 62
     7
 10
462.8463967009
 20
1047.8729525726
 30
0.0
  0
SEQEND
  5
9D5
  8
0
  6
CONTINUOUS
 62
     7
  0
POLYLINE
  5
2DB
  8
0
  6
CONTINUOUS
 62
     7
 66
     1
 10
0.0
 20
0.0
 30
0.0
 70
   128
  0
VERTEX
  5
6F8
  8
0
  6
CONTINUOUS
 62
     7
 10
574.4326321645
 20
1047.396172225
 30
0.0
  0
VERTEX
  5
6F9
  8
0
  6
CONTINUOUS
 62
     7
 10
576.6752457483
 20
1047.1001746277
 30
0.0
  0
VERTEX
  5
6FA
  8
0
  6
CONTINUOUS
 62
     7
 10
578.7996856733
 20
1047.3402742441
 30
0.0
  0
VERTEX
  5
6FB
  8
0
  6
CONTINUOUS
 62
     7
 10
580.255581276
 20
1047.6253073807
 30
0.0
  0
VERTEX
  5
6FC
  8
0
  6
CONTINUOUS
 62
     7
 10
581.5481825038
 20
1047.8729525726
 30
0.0
  0
SEQEND
  5
9D6
  8
0
  6
CONTINUOUS
 62
     7
  0
POLYLINE
  5
2DC
  8
0
  6
CONTINUOUS
 62
     7
 66
     1
 10
0.0
 20
0.0
 30
0.0
 70
   128
  0
VERTEX
  5
6FD
  8
0
  6
CONTINUOUS
 62
     7
 10
574.0139542385
 20
1047.9813091601
 30
0.0
  0
VERTEX
  5
6FE
  8
0
  6
CONTINUOUS
 62
     7
 10
574.1262791915
 20
1047.9767689626
 30
0.0
  0
VERTEX
  5
6FF
  8
0
  6
CONTINUOUS
 62
     7
 10
574.220219837
 20
1047.9591557901
 30
0.0
  0
VERTEX
  5
700
  8
0
  6
CONTINUOUS
 62
     7
 10
574.3534920974
 20
1047.856811821
 30
0.0
  0
VERTEX
  5
701
  8
0
  6
CONTINUOUS
 62
     7
 10
574.407512532
 20
1047.6933330442
 30
0.0
  0
VERTEX
  5
702
  8
0
  6
CONTINUOUS
 62
     7
 10
574.4326321645
 20
1047.396172225
 30
0.0
  0
SEQEND
  5
9D7
  8
0
  6
CONTINUOUS
 62
     7
  0
POLYLINE
  5
2DD
  8
0
  6
CONTINUOUS
 62
     7
 66
     1
 10
0.0
 20
0.0
 30
0.0
 70
   128
  0
VERTEX
  5
703
  8
0
  6
CONTINUOUS
 62
     7
 10
473.2867164774
 20
1015.9813104342
 30
0.0
  0
VERTEX
  5
704
  8
0
  6
CONTINUOUS
 62
     7
 10
473.3099175854
 20
1015.5911272536
 30
0.0
  0
VERTEX
  5
705
  8
0
  6
CONTINUOUS
 62
     7
 10
473.3786231144
 20
1015.2159420918
 30
0.0
  0
VERTEX
  5
706
  8
0
  6
CONTINUOUS
 62
     7
 10
473.4901992841
 20
1014.8701680969
 30
0.0
  0
VERTEX
  5
707
  8
0
  6
CONTINUOUS
 62
     7
 10
473.6403545602
 20
1014.5670971046
 30
0.0
  0
VERTEX
  5
708
  8
0
  6
CONTINUOUS
 62
     7
 10
473.8233147426
 20
1014.3183706473
 30
0.0
  0
VERTEX
  5
709
  8
0
  6
CONTINUOUS
 62
     7
 10
474.0320576592
 20
1014.133551545
 30
0.0
  0
VERTEX
  5
70A
  8
0
  6
CONTINUOUS
 62
     7
 10
474.2585553093
 20
1014.0197402011
 30
0.0
  0
VERTEX
  5
70B
  8
0
  6
CONTINUOUS
 62
     7
 10
474.4941054149
 20
1013.9813101064
 30
0.0
  0
SEQEND
  5
9D8
  8
0
  6
CONTINUOUS
 62
     7
  0
LINE
  5
2DE
  8
0
  6
CONTINUOUS
 62
     7
 10
473.2867164774
 20
1045.9813097636
 30
0.0
 11
469.9959328635
 21
1045.9813097636
 31
0.0
  0
ARC
  5
2DF
  8
0
  6
CONTINUOUS
 62
     7
 10
521.8077074293
 20
1047.9336982861
 30
0.0
 40
51.84854679346373
 50
180.5940094429
 51
182.1580175758
  0
POLYLINE
  5
2E0
  8
0
  6
CONTINUOUS
 62
     7
 66
     1
 10
0.0
 20
0.0
 30
0.0
 70
   128
  0
VERTEX
  5
70C
  8
0
  6
CONTINUOUS
 62
     7
 10
473.2867164774
 20
1045.9813097636
 30
0.0
  0
VERTEX
  5
70D
  8
0
  6
CONTINUOUS
 62
     7
 10
473.3099175854
 20
1046.3714901502
 30
0.0
  0
VERTEX
  5
70E
  8
0
  6
CONTINUOUS
 62
     7
 10
473.3786231144
 20
1046.7466762434
 30
0.0
  0
VERTEX
  5
70F
  8
0
  6
CONTINUOUS
 62
     7
 10
473.4901992841
 20
1047.0924502383
 30
0.0
  0
VERTEX
  5
710
  8
0
  6
CONTINUOUS
 62
     7
 10
473.6403545602
 20
1047.3955230932
 30
0.0
  0
VERTEX
  5
711
  8
0
  6
CONTINUOUS
 62
     7
 10
473.8233147426
 20
1047.6442486192
 30
0.0
  0
VERTEX
  5
712
  8
0
  6
CONTINUOUS
 62
     7
 10
474.0320576592
 20
1047.8290686528
 30
0.0
  0
VERTEX
  5
713
  8
0
  6
CONTINUOUS
 62
     7
 10
474.2585553093
 20
1047.9428799967
 30
0.0
  0
VERTEX
  5
714
  8
0
  6
CONTINUOUS
 62
     7
 10
474.4941054149
 20
1047.9813091601
 30
0.0
  0
SEQEND
  5
9D9
  8
0
  6
CONTINUOUS
 62
     7
  0
ARC
  5
2E1
  8
0
  6
CONTINUOUS
 62
     7
 10
513.6949496966
 20
1048.1472874523
 30
0.0
 40
60.74232664011798
 50
357.9564876473
 51
359.2914853339
  0
LINE
  5
2E2
  8
0
  6
CONTINUOUS
 62
     7
 10
574.3986463411
 20
1045.9813097636
 30
0.0
 11
569.9906630679
 21
1045.9813097636
 31
0.0
  0
LINE
  5
2E3
  8
0
  6
CONTINUOUS
 62
     7
 10
462.8003185852
 20
1045.9813097636
 30
0.0
 11
469.9959328635
 21
1045.9813097636
 31
0.0
  0
POLYLINE
  5
2E4
  8
0
  6
CONTINUOUS
 62
     7
 66
     1
 10
0.0
 20
0.0
 30
0.0
 70
   128
  0
VERTEX
  5
715
  8
0
  6
CONTINUOUS
 62
     7
 10
462.8003185852
 20
1045.9813097636
 30
0.0
  0
VERTEX
  5
716
  8
0
  6
CONTINUOUS
 62
     7
 10
462.824749039
 20
1046.9795543845
 30
0.0
  0
VERTEX
  5
717
  8
0
  6
CONTINUOUS
 62
     7
 10
462.8463967009
 20
1047.8729525726
 30
0.0
  0
SEQEND
  5
9DA
  8
0
  6
CONTINUOUS
 62
     7
  0
POLYLINE
  5
2E5
  8
0
  6
CONTINUOUS
 62
     7
 66
     1
 10
0.0
 20
0.0
 30
0.0
 70
   128
  0
VERTEX
  5
718
  8
0
  6
CONTINUOUS
 62
     7
 10
581.5942606195
 20
1045.9813097636
 30
0.0
  0
VERTEX
  5
719
  8
0
  6
CONTINUOUS
 62
     7
 10
581.5698301657
 20
1046.9795543845
 30
0.0
  0
VERTEX
  5
71A
  8
0
  6
CONTINUOUS
 62
     7
 10
581.5481825038
 20
1047.8729525726
 30
0.0
  0
SEQEND
  5
9DB
  8
0
  6
CONTINUOUS
 62
     7
  0
LINE
  5
2E6
  8
0
  6
CONTINUOUS
 62
     7
 10
574.3986463411
 20
1045.9813097636
 30
0.0
 11
581.5942606195
 21
1045.9813097636
 31
0.0
  0
LINE
  5
2E7
  8
0
  6
CONTINUOUS
 62
     7
 10
473.2867164774
 20
1015.9813104342
 30
0.0
 11
473.2867164774
 21
1045.9813097636
 31
0.0
  0
LINE
  5
2E8
  8
0
  6
CONTINUOUS
 62
     7
 10
583.9191099866
 20
1045.9813097636
 30
0.0
 11
583.8979428871
 21
1045.9813097636
 31
0.0
  0
LINE
  5
2E9
  8
0
  6
CONTINUOUS
 62
     7
 10
475.7172635062
 20
1045.9813097636
 30
0.0
 11
473.2867164774
 21
1045.9813097636
 31
0.0
  0
LINE
  5
2EA
  8
0
  6
CONTINUOUS
 62
     7
 10
475.7172635062
 20
1015.9813104342
 30
0.0
 11
473.2867164774
 21
1015.9813104342
 31
0.0
  0
LINE
  5
2EB
  8
0
  6
CONTINUOUS
 62
     7
 10
489.1480824216
 20
907.9813076328
 30
0.0
 11
490.5547557636
 21
907.7259315322
 31
0.0
  0
ARC
  5
2EC
  8
0
  6
CONTINUOUS
 62
     7
 10
486.7484463215
 20
899.2533469653
 30
0.0
 40
9.288308824166077
 50
56.305690761
 51
65.8079954792
  0
ARC
  5
2ED
  8
0
  6
CONTINUOUS
 62
     7
 10
462.5850410805
 20
908.4213485989
 30
0.0
 40
2.189819495072378
 50
318.8822945347
 51
338.9698355339
  0
LINE
  5
2EE
  8
0
  6
CONTINUOUS
 62
     7
 10
490.5547557636
 20
920.9813041757
 30
0.0
 11
491.9012451782
 21
920.9813041757
 31
0.0
  0
LINE
  5
2EF
  8
0
  6
CONTINUOUS
 62
     7
 10
490.5547557636
 20
907.7259315322
 30
0.0
 11
490.5547557636
 21
920.9813041757
 31
0.0
  0
LINE
  5
2F0
  8
0
  6
CONTINUOUS
 62
     7
 10
552.4933340265
 20
920.9813041757
 30
0.0
 11
553.8398234411
 21
920.9813041757
 31
0.0
  0
LINE
  5
2F1
  8
0
  6
CONTINUOUS
 62
     7
 10
553.8398234411
 20
920.9813041757
 30
0.0
 11
553.8398234411
 21
907.7259315322
 31
0.0
  0
ARC
  5
2F2
  8
0
  6
CONTINUOUS
 62
     7
 10
557.6461328832
 20
899.2533469651
 30
0.0
 40
9.28830882435704
 50
114.1920045209
 51
123.6943092389
  0
POLYLINE
  5
2F3
  8
0
  6
CONTINUOUS
 62
     7
 66
     1
 10
0.0
 20
0.0
 30
0.0
 70
   128
  0
VERTEX
  5
71B
  8
0
  6
CONTINUOUS
 62
     7
 10
553.8398234411
 20
907.7259315322
 30
0.0
  0
VERTEX
  5
71C
  8
0
  6
CONTINUOUS
 62
     7
 10
554.8213852807
 20
907.9602671932
 30
0.0
  0
VERTEX
  5
71D
  8
0
  6
CONTINUOUS
 62
     7
 10
555.2464967831
 20
907.9813076328
 30
0.0
  0
SEQEND
  5
9DC
  8
0
  6
CONTINUOUS
 62
     7
  0
ARC
  5
2F4
  8
0
  6
CONTINUOUS
 62
     7
 10
581.2019550398
 20
907.9981259474
 30
0.0
 40
1.45601475683476
 50
188.2836435957
 51
224.2954574167
  0
POLYLINE
  5
2F5
  8
0
  6
CONTINUOUS
 62
     7
 66
     1
 10
0.0
 20
0.0
 30
0.0
 70
   128
  0
VERTEX
  5
71E
  8
0
  6
CONTINUOUS
 62
     7
 10
485.4651523991
 20
921.9813062023
 30
0.0
  0
VERTEX
  5
71F
  8
0
  6
CONTINUOUS
 62
     7
 10
485.8696630462
 20
922.1335513662
 30
0.0
  0
VERTEX
  5
720
  8
0
  6
CONTINUOUS
 62
     7
 10
486.2125909193
 20
922.5671006511
 30
0.0
  0
VERTEX
  5
721
  8
0
  6
CONTINUOUS
 62
     7
 10
486.4417298003
 20
923.215941913
 30
0.0
  0
VERTEX
  5
722
  8
0
  6
CONTINUOUS
 62
     7
 10
486.5221923454
 20
923.9813102554
 30
0.0
  0
SEQEND
  5
9DD
  8
0
  6
CONTINUOUS
 62
     7
  0
POLYLINE
  5
2F6
  8
0
  6
CONTINUOUS
 62
     7
 66
     1
 10
0.0
 20
0.0
 30
0.0
 70
   128
  0
VERTEX
  5
723
  8
0
  6
CONTINUOUS
 62
     7
 10
490.5547557636
 20
920.9813041757
 30
0.0
  0
VERTEX
  5
724
  8
0
  6
CONTINUOUS
 62
     7
 10
490.5495291813
 20
921.0166795324
 30
0.0
  0
VERTEX
  5
725
  8
0
  6
CONTINUOUS
 62
     7
 10
490.533972369
 20
921.0524423192
 30
0.0
  0
VERTEX
  5
726
  8
0
  6
CONTINUOUS
 62
     7
 10
490.471875505
 20
921.1249960731
 30
0.0
  0
VERTEX
  5
727
  8
0
  6
CONTINUOUS
 62
     7
 10
490.2237488194
 20
921.2725473712
 30
0.0
  0
VERTEX
  5
728
  8
0
  6
CONTINUOUS
 62
     7
 10
488.4259050949
 20
921.7313839267
 30
0.0
  0
VERTEX
  5
729
  8
0
  6
CONTINUOUS
 62
     7
 10
485.4651523991
 20
921.9813062023
 30
0.0
  0
SEQEND
  5
9DE
  8
0
  6
CONTINUOUS
 62
     7
  0
POLYLINE
  5
2F7
  8
0
  6
CONTINUOUS
 62
     7
 66
     1
 10
0.0
 20
0.0
 30
0.0
 70
   128
  0
VERTEX
  5
72A
  8
0
  6
CONTINUOUS
 62
     7
 10
557.8723868592
 20
923.9813102554
 30
0.0
  0
VERTEX
  5
72B
  8
0
  6
CONTINUOUS
 62
     7
 10
557.9528494044
 20
923.215941913
 30
0.0
  0
VERTEX
  5
72C
  8
0
  6
CONTINUOUS
 62
     7
 10
558.1819882854
 20
922.5671006511
 30
0.0
  0
VERTEX
  5
72D
  8
0
  6
CONTINUOUS
 62
     7
 10
558.5249161585
 20
922.1335513662
 30
0.0
  0
VERTEX
  5
72E
  8
0
  6
CONTINUOUS
 62
     7
 10
558.9294268055
 20
921.9813062023
 30
0.0
  0
SEQEND
  5
9DF
  8
0
  6
CONTINUOUS
 62
     7
  0
POLYLINE
  5
2F8
  8
0
  6
CONTINUOUS
 62
     7
 66
     1
 10
0.0
 20
0.0
 30
0.0
 70
   128
  0
VERTEX
  5
72F
  8
0
  6
CONTINUOUS
 62
     7
 10
558.9294268055
 20
921.9813062023
 30
0.0
  0
VERTEX
  5
730
  8
0
  6
CONTINUOUS
 62
     7
 10
555.9686741097
 20
921.7313839267
 30
0.0
  0
VERTEX
  5
731
  8
0
  6
CONTINUOUS
 62
     7
 10
554.7417795523
 20
921.465726025
 30
0.0
  0
VERTEX
  5
732
  8
0
  6
CONTINUOUS
 62
     7
 10
554.1605672105
 20
921.2678237031
 30
0.0
  0
VERTEX
  5
733
  8
0
  6
CONTINUOUS
 62
     7
 10
553.9201332493
 20
921.1225522827
 30
0.0
  0
VERTEX
  5
734
  8
0
  6
CONTINUOUS
 62
     7
 10
553.8599660857
 20
921.051220424
 30
0.0
  0
VERTEX
  5
735
  8
0
  6
CONTINUOUS
 62
     7
 10
553.8448898359
 20
921.0160536836
 30
0.0
  0
VERTEX
  5
736
  8
0
  6
CONTINUOUS
 62
     7
 10
553.8398234411
 20
920.9813041757
 30
0.0
  0
SEQEND
  5
9E0
  8
0
  6
CONTINUOUS
 62
     7
  0
LINE
  5
2F9
  8
0
  6
CONTINUOUS
 62
     7
 10
469.6615880592
 20
921.9813062023
 30
0.0
 11
485.4651523991
 21
921.9813062023
 31
0.0
  0
LINE
  5
2FA
  8
0
  6
CONTINUOUS
 62
     7
 10
490.5547557636
 20
920.9813041757
 30
0.0
 11
469.6615880592
 21
920.9813041757
 31
0.0
  0
LINE
  5
2FB
  8
0
  6
CONTINUOUS
 62
     7
 10
469.6615880592
 20
921.9813062023
 30
0.0
 11
469.6615880592
 21
920.9813041757
 31
0.0
  0
LINE
  5
2FC
  8
0
  6
CONTINUOUS
 62
     7
 10
489.1480824216
 20
907.9813076328
 30
0.0
 11
469.6615880592
 21
907.9813076328
 31
0.0
  0
LINE
  5
2FD
  8
0
  6
CONTINUOUS
 62
     7
 10
469.6615880592
 20
920.9813041757
 30
0.0
 11
469.6615880592
 21
907.9813076328
 31
0.0
  0
LINE
  5
2FE
  8
0
  6
CONTINUOUS
 62
     7
 10
574.7329911454
 20
920.9813041757
 30
0.0
 11
553.8398234411
 21
920.9813041757
 31
0.0
  0
LINE
  5
2FF
  8
0
  6
CONTINUOUS
 62
     7
 10
558.9294268055
 20
921.9813062023
 30
0.0
 11
574.7329911454
 21
921.9813062023
 31
0.0
  0
LINE
  5
300
  8
0
  6
CONTINUOUS
 62
     7
 10
574.7329911454
 20
920.9813041757
 30
0.0
 11
574.7329911454
 21
921.9813062023
 31
0.0
  0
LINE
  5
301
  8
0
  6
CONTINUOUS
 62
     7
 10
574.7329911454
 20
907.9813076328
 30
0.0
 11
574.7329911454
 21
920.9813041757
 31
0.0
  0
LINE
  5
302
  8
0
  6
CONTINUOUS
 62
     7
 10
555.2464967831
 20
907.9813076328
 30
0.0
 11
574.7329911454
 21
907.9813076328
 31
0.0
  0
LINE
  5
303
  8
0
  6
CONTINUOUS
 62
     7
 10
468.9965790375
 20
920.9813041757
 30
0.0
 11
469.6615880592
 21
920.9813041757
 31
0.0
  0
ARC
  5
304
  8
0
  6
CONTINUOUS
 62
     7
 10
469.871261066
 20
921.1207529791
 30
0.0
 40
0.8857282990421901
 50
103.6932592252
 51
189.0583187407
  0
LINE
  5
305
  8
0
  6
CONTINUOUS
 62
     7
 10
468.9965790375
 20
907.9813076328
 30
0.0
 11
468.9965790375
 21
920.9813041757
 31
0.0
  0
LINE
  5
306
  8
0
  6
CONTINUOUS
 62
     7
 10
469.6615880592
 20
907.9813076328
 30
0.0
 11
468.9965790375
 21
907.9813076328
 31
0.0
  0
ARC
  5
307
  8
0
  6
CONTINUOUS
 62
     7
 10
574.5233181387
 20
921.1207529791
 30
0.0
 40
0.8857282990423673
 50
350.9416812593
 51
76.3067407748
  0
LINE
  5
308
  8
0
  6
CONTINUOUS
 62
     7
 10
574.7329911454
 20
920.9813041757
 30
0.0
 11
575.3980001672
 21
920.9813041757
 31
0.0
  0
LINE
  5
309
  8
0
  6
CONTINUOUS
 62
     7
 10
575.3980001672
 20
920.9813041757
 30
0.0
 11
575.3980001672
 21
907.9813076328
 31
0.0
  0
LINE
  5
30A
  8
0
  6
CONTINUOUS
 62
     7
 10
575.3980001672
 20
907.9813076328
 30
0.0
 11
574.7329911454
 21
907.9813076328
 31
0.0
  0
LINE
  5
30B
  8
0
  6
CONTINUOUS
 62
     7
 10
460.1650705798
 20
921.9813062023
 30
0.0
 11
469.6615880592
 21
921.9813062023
 31
0.0
  0
LINE
  5
30C
  8
0
  6
CONTINUOUS
 62
     7
 10
468.9965790375
 20
920.9813041757
 30
0.0
 11
459.3798501654
 21
920.9813041757
 31
0.0
  0
ARC
  5
30D
  8
0
  6
CONTINUOUS
 62
     7
 10
460.2871472541
 20
921.0771633616
 30
0.0
 40
0.9123469683957508
 50
97.689530104
 51
186.0311294719
  0
LINE
  5
30E
  8
0
  6
CONTINUOUS
 62
     7
 10
459.3798501654
 20
920.9813041757
 30
0.0
 11
459.3798501654
 21
907.9813076328
 31
0.0
  0
LINE
  5
30F
  8
0
  6
CONTINUOUS
 62
     7
 10
468.9965790375
 20
907.9813076328
 30
0.0
 11
459.3798501654
 21
907.9813076328
 31
0.0
  0
LINE
  5
310
  8
0
  6
CONTINUOUS
 62
     7
 10
585.0147290392
 20
920.9813041757
 30
0.0
 11
575.3980001672
 21
920.9813041757
 31
0.0
  0
LINE
  5
311
  8
0
  6
CONTINUOUS
 62
     7
 10
574.7329911454
 20
921.9813062023
 30
0.0
 11
584.2295086248
 21
921.9813062023
 31
0.0
  0
ARC
  5
312
  8
0
  6
CONTINUOUS
 62
     7
 10
584.1074319505
 20
921.0771633616
 30
0.0
 40
0.9123469683958074
 50
353.9688705281
 51
82.310469896
  0
LINE
  5
313
  8
0
  6
CONTINUOUS
 62
     7
 10
585.0147290392
 20
907.9813076328
 30
0.0
 11
585.0147290392
 21
920.9813041757
 31
0.0
  0
LINE
  5
314
  8
0
  6
CONTINUOUS
 62
     7
 10
575.3980001672
 20
907.9813076328
 30
0.0
 11
585.0147290392
 21
907.9813076328
 31
0.0
  0
ARC
  5
315
  8
0
  6
CONTINUOUS
 62
     7
 10
497.1972896023
 20
940.9813095401
 30
0.0
 40
3.0
 50
270.0
 51
0.0
  0
ARC
  5
316
  8
0
  6
CONTINUOUS
 62
     7
 10
547.1972896023
 20
940.9813095401
 30
0.0
 40
2.999999999999886
 50
180.0
 51
270.0
  0
ARC
  5
317
  8
0
  6
CONTINUOUS
 62
     7
 10
455.7029363655
 20
1014.2255928183
 30
0.0
 40
34.39729413771447
 50
78.0138601234
 51
86.7390000685
  0
ARC
  5
318
  8
0
  6
CONTINUOUS
 62
     7
 10
459.3159014597
 20
1050.0501193274
 30
0.0
 40
2.223148276553593
 50
181.7736752825
 51
221.8390453552
  0
LINE
  5
319
  8
0
  6
CONTINUOUS
 62
     7
 10
460.0036239489
 20
1047.396172225
 30
0.0
 11
460.2354673906
 21
1047.1149314339
 31
0.0
  0
POLYLINE
  5
31A
  8
0
  6
CONTINUOUS
 62
     7
 66
     1
 10
0.0
 20
0.0
 30
0.0
 70
   128
  0
VERTEX
  5
737
  8
0
  6
CONTINUOUS
 62
     7
 10
460.0036239489
 20
1047.396172225
 30
0.0
  0
VERTEX
  5
738
  8
0
  6
CONTINUOUS
 62
     7
 10
460.3519609435
 20
1047.1001746277
 30
0.0
  0
VERTEX
  5
739
  8
0
  6
CONTINUOUS
 62
     7
 10
460.9465060993
 20
1047.3402742441
 30
0.0
  0
VERTEX
  5
73A
  8
0
  6
CONTINUOUS
 62
     7
 10
461.7383575304
 20
1047.6253073807
 30
0.0
  0
VERTEX
  5
73B
  8
0
  6
CONTINUOUS
 62
     7
 10
462.8463967009
 20
1047.8729525726
 30
0.0
  0
SEQEND
  5
9E1
  8
0
  6
CONTINUOUS
 62
     7
  0
POLYLINE
  5
31B
  8
0
  6
CONTINUOUS
 62
     7
 66
     1
 10
0.0
 20
0.0
 30
0.0
 70
   128
  0
VERTEX
  5
73C
  8
0
  6
CONTINUOUS
 62
     7
 10
584.3909552558
 20
1047.396172225
 30
0.0
  0
VERTEX
  5
73D
  8
0
  6
CONTINUOUS
 62
     7
 10
584.0426182611
 20
1047.1001746277
 30
0.0
  0
VERTEX
  5
73E
  8
0
  6
CONTINUOUS
 62
     7
 10
583.4480731054
 20
1047.3402742441
 30
0.0
  0
VERTEX
  5
73F
  8
0
  6
CONTINUOUS
 62
     7
 10
582.6562216743
 20
1047.6253073807
 30
0.0
  0
VERTEX
  5
740
  8
0
  6
CONTINUOUS
 62
     7
 10
581.5481825038
 20
1047.8729525726
 30
0.0
  0
SEQEND
  5
9E2
  8
0
  6
CONTINUOUS
 62
     7
  0
ARC
  5
31C
  8
0
  6
CONTINUOUS
 62
     7
 10
585.1041423508
 20
1050.0399309326
 30
0.0
 40
2.197400610513986
 50
317.9159764422
 51
358.4713029202
  0
ARC
  5
31D
  8
0
  6
CONTINUOUS
 62
     7
 10
588.6916428391
 20
1014.2255928183
 30
0.0
 40
34.39729413771449
 50
93.2609999315
 51
101.9861398766
  0
ARC
  5
31E
  8
0
  6
CONTINUOUS
 62
     7
 10
458.8534921225
 20
1049.4531861591
 30
0.0
 40
1.486724255403147
 50
216.5795732318
 51
261.8958473832
  0
ARC
  5
31F
  8
0
  6
CONTINUOUS
 62
     7
 10
585.5015433478
 20
1049.5196207668
 30
0.0
 40
1.558354644722667
 50
279.1992587916
 51
322.3253205934
  0
ARC
  5
320
  8
0
  6
CONTINUOUS
 62
     7
 10
585.7609684621
 20
1046.0460475263
 30
0.0
 40
1.923479370195801
 50
100.9304519634
 51
135.4189152459
  0
ARC
  5
321
  8
0
  6
CONTINUOUS
 62
     7
 10
464.5209606169
 20
923.8233841432
 30
0.0
 40
1.851948030655312
 50
275.9180258185
 51
4.8918772495
  0
ARC
  5
322
  8
0
  6
CONTINUOUS
 62
     7
 10
579.8736185877
 20
923.8233841432
 30
0.0
 40
1.851948030655561
 50
175.1081227505
 51
264.0819741815
  0
LINE
  5
323
  8
0
  6
CONTINUOUS
 62
     7
 10
482.6972877844
 20
1000.9813098381
 30
0.0
 11
482.6972877844
 21
997.981311209
 31
0.0
  0
LINE
  5
324
  8
0
  6
CONTINUOUS
 62
     7
 10
482.6972877844
 20
997.981311209
 30
0.0
 11
479.6972891553
 21
997.981311209
 31
0.0
  0
ARC
  5
325
  8
0
  6
CONTINUOUS
 62
     7
 10
476.6972896023
 20
997.9813095401
 30
0.0
 40
3.000000000000057
 50
0.0
 51
90.0
  0
LINE
  5
326
  8
0
  6
CONTINUOUS
 62
     7
 10
497.1972892298
 20
1000.9813098381
 30
0.0
 11
497.1972892298
 21
997.981311209
 31
0.0
  0
LINE
  5
327
  8
0
  6
CONTINUOUS
 62
     7
 10
497.1972892298
 20
997.981311209
 30
0.0
 11
482.6972877844
 21
997.981311209
 31
0.0
  0
POLYLINE
  5
328
  8
0
  6
CONTINUOUS
 62
     7
 66
     1
 10
0.0
 20
0.0
 30
0.0
 70
   128
  0
VERTEX
  5
741
  8
0
  6
CONTINUOUS
 62
     7
 10
483.6348427697
 20
937.5144479941
 30
0.0
  0
VERTEX
  5
742
  8
0
  6
CONTINUOUS
 62
     7
 10
483.5623970492
 20
937.7101896475
 30
0.0
  0
VERTEX
  5
743
  8
0
  6
CONTINUOUS
 62
     7
 10
483.4730012579
 20
937.9517151187
 30
0.0
  0
VERTEX
  5
744
  8
0
  6
CONTINUOUS
 62
     7
 10
483.3684137328
 20
938.2343007396
 30
0.0
  0
VERTEX
  5
745
  8
0
  6
CONTINUOUS
 62
     7
 10
483.2506796582
 20
938.5524032782
 30
0.0
  0
VERTEX
  5
746
  8
0
  6
CONTINUOUS
 62
     7
 10
483.1221049889
 20
938.8997940491
 30
0.0
  0
VERTEX
  5
747
  8
0
  6
CONTINUOUS
 62
     7
 10
482.985208021
 20
939.2696632217
 30
0.0
  0
VERTEX
  5
748
  8
0
  6
CONTINUOUS
 62
     7
 10
482.8426746889
 20
939.6547762822
 30
0.0
  0
VERTEX
  5
749
  8
0
  6
CONTINUOUS
 62
     7
 10
482.6972877844
 20
940.0475857924
 30
0.0
  0
SEQEND
  5
9E3
  8
0
  6
CONTINUOUS
 62
     7
  0
ARC
  5
329
  8
0
  6
CONTINUOUS
 62
     7
 10
488.3129737508
 20
923.6467289436
 30
0.0
 40
17.33562904101446
 50
89.3692251256
 51
108.9013057275
  0
LINE
  5
32A
  8
0
  6
CONTINUOUS
 62
     7
 10
488.5038195415
 20
937.9813088249
 30
0.0
 11
488.5038195415
 21
940.981307454
 31
0.0
  0
LINE
  5
32B
  8
0
  6
CONTINUOUS
 62
     7
 10
488.5038195415
 20
940.981307454
 30
0.0
 11
497.1972892298
 21
940.981307454
 31
0.0
  0
LINE
  5
32C
  8
0
  6
CONTINUOUS
 62
     7
 10
497.1972892298
 20
937.9813088249
 30
0.0
 11
497.1972892298
 21
940.981307454
 31
0.0
  0
LINE
  5
32D
  8
0
  6
CONTINUOUS
 62
     7
 10
500.1972897215
 20
997.981311209
 30
0.0
 11
497.1972892298
 21
997.981311209
 31
0.0
  0
LINE
  5
32E
  8
0
  6
CONTINUOUS
 62
     7
 10
500.1972897215
 20
940.981307454
 30
0.0
 11
497.1972892298
 21
940.981307454
 31
0.0
  0
LINE
  5
32F
  8
0
  6
CONTINUOUS
 62
     7
 10
497.1972892298
 20
940.981307454
 30
0.0
 11
497.1972892298
 21
997.981311209
 31
0.0
  0
LINE
  5
330
  8
0
  6
CONTINUOUS
 62
     7
 10
547.1972899749
 20
1000.9813098381
 30
0.0
 11
547.1972899749
 21
997.981311209
 31
0.0
  0
LINE
  5
331
  8
0
  6
CONTINUOUS
 62
     7
 10
547.1972899749
 20
997.981311209
 30
0.0
 11
544.1972894831
 21
997.981311209
 31
0.0
  0
LINE
  5
332
  8
0
  6
CONTINUOUS
 62
     7
 10
547.1972899749
 20
940.981307454
 30
0.0
 11
544.1972894831
 21
940.981307454
 31
0.0
  0
LINE
  5
333
  8
0
  6
CONTINUOUS
 62
     7
 10
547.1972899749
 20
997.981311209
 30
0.0
 11
547.1972899749
 21
940.981307454
 31
0.0
  0
LINE
  5
334
  8
0
  6
CONTINUOUS
 62
     7
 10
561.6972914203
 20
1000.9813098381
 30
0.0
 11
561.6972914203
 21
997.981311209
 31
0.0
  0
LINE
  5
335
  8
0
  6
CONTINUOUS
 62
     7
 10
561.6972914203
 20
997.981311209
 30
0.0
 11
547.1972899749
 21
997.981311209
 31
0.0
  0
ARC
  5
336
  8
0
  6
CONTINUOUS
 62
     7
 10
567.6972896023
 20
997.9813095401
 30
0.0
 40
3.000000000000114
 50
90.0
 51
180.0
  0
LINE
  5
337
  8
0
  6
CONTINUOUS
 62
     7
 10
564.6972900494
 20
997.981311209
 30
0.0
 11
561.6972914203
 21
997.981311209
 31
0.0
  0
LINE
  5
338
  8
0
  6
CONTINUOUS
 62
     7
 10
547.1972899749
 20
940.981307454
 30
0.0
 11
547.1972899749
 21
937.9813088249
 31
0.0
  0
LINE
  5
339
  8
0
  6
CONTINUOUS
 62
     7
 10
547.1972899749
 20
940.981307454
 30
0.0
 11
555.8907596632
 21
940.981307454
 31
0.0
  0
LINE
  5
33A
  8
0
  6
CONTINUOUS
 62
     7
 10
555.8907596632
 20
940.981307454
 30
0.0
 11
555.8907596632
 21
937.9813088249
 31
0.0
  0
POLYLINE
  5
33B
  8
0
  6
CONTINUOUS
 62
     7
 66
     1
 10
0.0
 20
0.0
 30
0.0
 70
   128
  0
VERTEX
  5
74A
  8
0
  6
CONTINUOUS
 62
     7
 10
555.8907596632
 20
940.981307454
 30
0.0
  0
VERTEX
  5
74B
  8
0
  6
CONTINUOUS
 62
     7
 10
558.7940236791
 20
940.774151511
 30
0.0
  0
VERTEX
  5
74C
  8
0
  6
CONTINUOUS
 62
     7
 10
561.6972914203
 20
940.0475857924
 30
0.0
  0
SEQEND
  5
9E4
  8
0
  6
CONTINUOUS
 62
     7
  0
POLYLINE
  5
33C
  8
0
  6
CONTINUOUS
 62
     7
 66
     1
 10
0.0
 20
0.0
 30
0.0
 70
   128
  0
VERTEX
  5
74D
  8
0
  6
CONTINUOUS
 62
     7
 10
561.6972914203
 20
940.0475857924
 30
0.0
  0
VERTEX
  5
74E
  8
0
  6
CONTINUOUS
 62
     7
 10
561.5519045158
 20
939.6547762822
 30
0.0
  0
VERTEX
  5
74F
  8
0
  6
CONTINUOUS
 62
     7
 10
561.4093711837
 20
939.2696632217
 30
0.0
  0
VERTEX
  5
750
  8
0
  6
CONTINUOUS
 62
     7
 10
561.2724742158
 20
938.8997940491
 30
0.0
  0
VERTEX
  5
751
  8
0
  6
CONTINUOUS
 62
     7
 10
561.1438995464
 20
938.5524032782
 30
0.0
  0
VERTEX
  5
752
  8
0
  6
CONTINUOUS
 62
     7
 10
561.0261654718
 20
938.2343007396
 30
0.0
  0
VERTEX
  5
753
  8
0
  6
CONTINUOUS
 62
     7
 10
560.9215779467
 20
937.9517151187
 30
0.0
  0
VERTEX
  5
754
  8
0
  6
CONTINUOUS
 62
     7
 10
560.8321821554
 20
937.7101896475
 30
0.0
  0
VERTEX
  5
755
  8
0
  6
CONTINUOUS
 62
     7
 10
560.759736435
 20
937.5144479941
 30
0.0
  0
SEQEND
  5
9E5
  8
0
  6
CONTINUOUS
 62
     7
  0
ARC
  5
33D
  8
0
  6
CONTINUOUS
 62
     7
 10
476.8109015596
 20
940.5405383665
 30
0.0
 40
2.886754590740651
 50
283.866511522
 51
359.0863762072
  0
POLYLINE
  5
33E
  8
0
  6
CONTINUOUS
 62
     7
 66
     1
 10
0.0
 20
0.0
 30
0.0
 70
   128
  0
VERTEX
  5
756
  8
0
  6
CONTINUOUS
 62
     7
 10
479.6972891553
 20
940.4945088695
 30
0.0
  0
VERTEX
  5
757
  8
0
  6
CONTINUOUS
 62
     7
 10
479.8812253638
 20
939.7406516741
 30
0.0
  0
VERTEX
  5
758
  8
0
  6
CONTINUOUS
 62
     7
 10
480.1790027185
 20
939.3014846514
 30
0.0
  0
VERTEX
  5
759
  8
0
  6
CONTINUOUS
 62
     7
 10
480.4258069261
 20
939.1144154738
 30
0.0
  0
VERTEX
  5
75A
  8
0
  6
CONTINUOUS
 62
     7
 10
480.791894929
 20
939.0189288329
 30
0.0
  0
VERTEX
  5
75B
  8
0
  6
CONTINUOUS
 62
     7
 10
480.9677696093
 20
939.0309466194
 30
0.0
  0
VERTEX
  5
75C
  8
0
  6
CONTINUOUS
 62
     7
 10
481.5333655341
 20
939.2417607973
 30
0.0
  0
VERTEX
  5
75D
  8
0
  6
CONTINUOUS
 62
     7
 10
481.6030210121
 20
939.2807943891
 30
0.0
  0
VERTEX
  5
75E
  8
0
  6
CONTINUOUS
 62
     7
 10
482.5663103028
 20
939.9502514075
 30
0.0
  0
VERTEX
  5
75F
  8
0
  6
CONTINUOUS
 62
     7
 10
482.6972877844
 20
940.0475857924
 30
0.0
  0
SEQEND
  5
9E6
  8
0
  6
CONTINUOUS
 62
     7
  0
POLYLINE
  5
33F
  8
0
  6
CONTINUOUS
 62
     7
 66
     1
 10
0.0
 20
0.0
 30
0.0
 70
   128
  0
VERTEX
  5
760
  8
0
  6
CONTINUOUS
 62
     7
 10
561.6972914203
 20
940.0475857924
 30
0.0
  0
VERTEX
  5
761
  8
0
  6
CONTINUOUS
 62
     7
 10
562.6475421949
 20
939.3677203129
 30
0.0
  0
VERTEX
  5
762
  8
0
  6
CONTINUOUS
 62
     7
 10
563.1422458454
 20
939.1097365092
 30
0.0
  0
VERTEX
  5
763
  8
0
  6
CONTINUOUS
 62
     7
 10
563.356327103
 20
939.0442384551
 30
0.0
  0
VERTEX
  5
764
  8
0
  6
CONTINUOUS
 62
     7
 10
563.7192113562
 20
939.0298588346
 30
0.0
  0
VERTEX
  5
765
  8
0
  6
CONTINUOUS
 62
     7
 10
563.964093314
 20
939.1119567822
 30
0.0
  0
VERTEX
  5
766
  8
0
  6
CONTINUOUS
 62
     7
 10
564.4325858219
 20
939.5880861352
 30
0.0
  0
VERTEX
  5
767
  8
0
  6
CONTINUOUS
 62
     7
 10
564.6907447143
 20
940.3647197555
 30
0.0
  0
VERTEX
  5
768
  8
0
  6
CONTINUOUS
 62
     7
 10
564.6972900494
 20
940.4945088695
 30
0.0
  0
SEQEND
  5
9E7
  8
0
  6
CONTINUOUS
 62
     7
  0
ARC
  5
340
  8
0
  6
CONTINUOUS
 62
     7
 10
567.5836776451
 20
940.5405383665
 30
0.0
 40
2.886754590740624
 50
180.9136237928
 51
256.133488478
  0
ARC
  5
341
  8
0
  6
CONTINUOUS
 62
     7
 10
456.4485592945
 20
1049.8491684457
 30
0.0
 40
2.37677398394374
 50
176.8128943231
 51
212.6412806335
  0
LINE
  5
342
  8
0
  6
CONTINUOUS
 62
     7
 10
458.6439041658
 20
1047.9813091601
 30
0.0
 11
455.697408156
 21
1047.9813091601
 31
0.0
  0
ARC
  5
343
  8
0
  6
CONTINUOUS
 62
     7
 10
455.6222633213
 20
1049.4478784386
 30
0.0
 40
1.468493171460773
 50
216.8500397122
 51
272.9331856437
  0
ARC
  5
344
  8
0
  6
CONTINUOUS
 62
     7
 10
588.7862120969
 20
1049.4182245003
 30
0.0
 40
1.439671491337755
 50
266.4540977607
 51
323.7626768833
  0
LINE
  5
345
  8
0
  6
CONTINUOUS
 62
     7
 10
588.6971710487
 20
1047.9813091601
 30
0.0
 11
585.7506750389
 21
1047.9813091601
 31
0.0
  0
ARC
  5
346
  8
0
  6
CONTINUOUS
 62
     7
 10
587.9763088314
 20
1049.8412069889
 30
0.0
 40
2.346994311385009
 50
327.1235513059
 51
3.4222737375
  0
LINE
  5
347
  8
0
  6
CONTINUOUS
 62
     7
 10
479.6972891553
 20
940.4945088695
 30
0.0
 11
479.6972891553
 21
997.981311209
 31
0.0
  0
LINE
  5
348
  8
0
  6
CONTINUOUS
 62
     7
 10
482.6972877844
 20
997.981311209
 30
0.0
 11
482.6972877844
 21
940.0475857924
 31
0.0
  0
LINE
  5
349
  8
0
  6
CONTINUOUS
 62
     7
 10
561.6972914203
 20
940.0475857924
 30
0.0
 11
561.6972914203
 21
997.981311209
 31
0.0
  0
LINE
  5
34A
  8
0
  6
CONTINUOUS
 62
     7
 10
564.6972900494
 20
997.981311209
 30
0.0
 11
564.6972900494
 21
940.4945088695
 31
0.0
  0
LINE
  5
34B
  8
0
  6
CONTINUOUS
 62
     7
 10
459.3798501654
 20
907.9813076328
 30
0.0
 11
459.1650722786
 21
907.9813076328
 31
0.0
  0
LINE
  5
34C
  8
0
  6
CONTINUOUS
 62
     7
 10
585.2295069261
 20
907.9813076328
 30
0.0
 11
585.0147290392
 21
907.9813076328
 31
0.0
  0
ARC
  5
34D
  8
0
  6
CONTINUOUS
 62
     7
 10
456.153496909
 20
1018.506471677
 30
0.0
 40
30.10910734679867
 50
93.2487881701
 51
102.7517737836
  0
POLYLINE
  5
34E
  8
0
  6
CONTINUOUS
 62
     7
 66
     1
 10
0.0
 20
0.0
 30
0.0
 70
   128
  0
VERTEX
  5
769
  8
0
  6
CONTINUOUS
 62
     7
 10
449.4511543079
 20
1049.981309488
 30
0.0
  0
VERTEX
  5
76A
  8
0
  6
CONTINUOUS
 62
     7
 10
449.4868723913
 20
1048.8527500215
 30
0.0
  0
VERTEX
  5
76B
  8
0
  6
CONTINUOUS
 62
     7
 10
449.5075850053
 20
1047.8729525726
 30
0.0
  0
SEQEND
  5
9E8
  8
0
  6
CONTINUOUS
 62
     7
  0
ARC
  5
34F
  8
0
  6
CONTINUOUS
 62
     7
 10
588.2410822957
 20
1018.506471677
 30
0.0
 40
30.10910734680106
 50
77.2482262164
 51
86.7512118299
  0
POLYLINE
  5
350
  8
0
  6
CONTINUOUS
 62
     7
 66
     1
 10
0.0
 20
0.0
 30
0.0
 70
   128
  0
VERTEX
  5
76C
  8
0
  6
CONTINUOUS
 62
     7
 10
594.9434248968
 20
1049.981309488
 30
0.0
  0
VERTEX
  5
76D
  8
0
  6
CONTINUOUS
 62
     7
 10
594.9077068134
 20
1048.8527500215
 30
0.0
  0
VERTEX
  5
76E
  8
0
  6
CONTINUOUS
 62
     7
 10
594.8869941993
 20
1047.8729525726
 30
0.0
  0
SEQEND
  5
9E9
  8
0
  6
CONTINUOUS
 62
     7
  0
ARC
  5
351
  8
0
  6
CONTINUOUS
 62
     7
 10
476.6972896023
 20
940.9813095401
 30
0.0
 40
3.000000000000057
 50
270.0
 51
0.0
  0
ARC
  5
352
  8
0
  6
CONTINUOUS
 62
     7
 10
567.6972896023
 20
940.9813095401
 30
0.0
 40
3.000000000000114
 50
180.0
 51
270.0
  0
POLYLINE
  5
353
  8
0
  6
CONTINUOUS
 62
     7
 66
     1
 10
0.0
 20
0.0
 30
0.0
 70
   128
  0
VERTEX
  5
76F
  8
0
  6
CONTINUOUS
 62
     7
 10
455.6449188157
 20
1047.396172225
 30
0.0
  0
VERTEX
  5
770
  8
0
  6
CONTINUOUS
 62
     7
 10
455.5705471201
 20
1047.6933637778
 30
0.0
  0
VERTEX
  5
771
  8
0
  6
CONTINUOUS
 62
     7
 10
455.5360360308
 20
1047.856811821
 30
0.0
  0
VERTEX
  5
772
  8
0
  6
CONTINUOUS
 62
     7
 10
455.5663300915
 20
1047.959158584
 30
0.0
  0
VERTEX
  5
773
  8
0
  6
CONTINUOUS
 62
     7
 10
455.6188492342
 20
1047.9767698939
 30
0.0
  0
VERTEX
  5
774
  8
0
  6
CONTINUOUS
 62
     7
 10
455.697408156
 20
1047.9813091601
 30
0.0
  0
SEQEND
  5
9EA
  8
0
  6
CONTINUOUS
 62
     7
  0
POLYLINE
  5
354
  8
0
  6
CONTINUOUS
 62
     7
 66
     1
 10
0.0
 20
0.0
 30
0.0
 70
   128
  0
VERTEX
  5
775
  8
0
  6
CONTINUOUS
 62
     7
 10
455.6449188157
 20
1047.396172225
 30
0.0
  0
VERTEX
  5
776
  8
0
  6
CONTINUOUS
 62
     7
 10
453.5688666864
 20
1047.1001755591
 30
0.0
  0
VERTEX
  5
777
  8
0
  6
CONTINUOUS
 62
     7
 10
451.6706748171
 20
1047.3402742441
 30
0.0
  0
VERTEX
  5
778
  8
0
  6
CONTINUOUS
 62
     7
 10
450.4693432017
 20
1047.6253073807
 30
0.0
  0
VERTEX
  5
779
  8
0
  6
CONTINUOUS
 62
     7
 10
449.5075850053
 20
1047.8729525726
 30
0.0
  0
SEQEND
  5
9EB
  8
0
  6
CONTINUOUS
 62
     7
  0
POLYLINE
  5
355
  8
0
  6
CONTINUOUS
 62
     7
 66
     1
 10
0.0
 20
0.0
 30
0.0
 70
   128
  0
VERTEX
  5
77A
  8
0
  6
CONTINUOUS
 62
     7
 10
588.749660389
 20
1047.396172225
 30
0.0
  0
VERTEX
  5
77B
  8
0
  6
CONTINUOUS
 62
     7
 10
590.8257125183
 20
1047.1001755591
 30
0.0
  0
VERTEX
  5
77C
  8
0
  6
CONTINUOUS
 62
     7
 10
592.7239043875
 20
1047.3402742441
 30
0.0
  0
VERTEX
  5
77D
  8
0
  6
CONTINUOUS
 62
     7
 10
593.925236003
 20
1047.6253073807
 30
0.0
  0
VERTEX
  5
77E
  8
0
  6
CONTINUOUS
 62
     7
 10
594.8869941993
 20
1047.8729525726
 30
0.0
  0
SEQEND
  5
9EC
  8
0
  6
CONTINUOUS
 62
     7
  0
POLYLINE
  5
356
  8
0
  6
CONTINUOUS
 62
     7
 66
     1
 10
0.0
 20
0.0
 30
0.0
 70
   128
  0
VERTEX
  5
77F
  8
0
  6
CONTINUOUS
 62
     7
 10
588.6971710487
 20
1047.9813091601
 30
0.0
  0
VERTEX
  5
780
  8
0
  6
CONTINUOUS
 62
     7
 10
588.7757374211
 20
1047.9767689626
 30
0.0
  0
VERTEX
  5
781
  8
0
  6
CONTINUOUS
 62
     7
 10
588.8282640143
 20
1047.9591557901
 30
0.0
  0
VERTEX
  5
782
  8
0
  6
CONTINUOUS
 62
     7
 10
588.8585431738
 20
1047.856811821
 30
0.0
  0
VERTEX
  5
783
  8
0
  6
CONTINUOUS
 62
     7
 10
588.8240171834
 20
1047.6933330442
 30
0.0
  0
VERTEX
  5
784
  8
0
  6
CONTINUOUS
 62
     7
 10
588.749660389
 20
1047.396172225
 30
0.0
  0
SEQEND
  5
9ED
  8
0
  6
CONTINUOUS
 62
     7
  0
LINE
  5
357
  8
0
  6
CONTINUOUS
 62
     7
 10
459.3936635418
 20
1045.9813097636
 30
0.0
 11
455.8337984844
 21
1045.9813097636
 31
0.0
  0
ARC
  5
358
  8
0
  6
CONTINUOUS
 62
     7
 10
448.9977153356
 20
1045.7887529103
 30
0.0
 40
6.838794554467529
 50
1.6134646561
 51
13.5942309818
  0
ARC
  5
359
  8
0
  6
CONTINUOUS
 62
     7
 10
594.931540969
 20
1045.8508720474
 30
0.0
 40
6.372095428067441
 50
165.9652391915
 51
178.8270651706
  0
LINE
  5
35A
  8
0
  6
CONTINUOUS
 62
     7
 10
588.5607807203
 20
1045.9813097636
 30
0.0
 11
585.0009156628
 21
1045.9813097636
 31
0.0
  0
LINE
  5
35B
  8
0
  6
CONTINUOUS
 62
     7
 10
449.4511543079
 20
1045.9813097636
 30
0.0
 11
455.8337984844
 21
1045.9813097636
 31
0.0
  0
POLYLINE
  5
35C
  8
0
  6
CONTINUOUS
 62
     7
 66
     1
 10
0.0
 20
0.0
 30
0.0
 70
   128
  0
VERTEX
  5
785
  8
0
  6
CONTINUOUS
 62
     7
 10
449.4511543079
 20
1045.9813097636
 30
0.0
  0
VERTEX
  5
786
  8
0
  6
CONTINUOUS
 62
     7
 10
449.4810758396
 20
1046.9795543845
 30
0.0
  0
VERTEX
  5
787
  8
0
  6
CONTINUOUS
 62
     7
 10
449.5075850053
 20
1047.8729525726
 30
0.0
  0
SEQEND
  5
9EE
  8
0
  6
CONTINUOUS
 62
     7
  0
POLYLINE
  5
35D
  8
0
  6
CONTINUOUS
 62
     7
 66
     1
 10
0.0
 20
0.0
 30
0.0
 70
   128
  0
VERTEX
  5
788
  8
0
  6
CONTINUOUS
 62
     7
 10
594.9434248968
 20
1045.9813097636
 30
0.0
  0
VERTEX
  5
789
  8
0
  6
CONTINUOUS
 62
     7
 10
594.9135033651
 20
1046.9795543845
 30
0.0
  0
VERTEX
  5
78A
  8
0
  6
CONTINUOUS
 62
     7
 10
594.8869941993
 20
1047.8729525726
 30
0.0
  0
SEQEND
  5
9EF
  8
0
  6
CONTINUOUS
 62
     7
  0
LINE
  5
35E
  8
0
  6
CONTINUOUS
 62
     7
 10
588.5607807203
 20
1045.9813097636
 30
0.0
 11
594.9434248968
 21
1045.9813097636
 31
0.0
  0
LINE
  5
35F
  8
0
  6
CONTINUOUS
 62
     7
 10
459.3936635418
 20
1015.9813104342
 30
0.0
 11
459.3936635418
 21
1045.9813097636
 31
0.0
  0
LINE
  5
360
  8
0
  6
CONTINUOUS
 62
     7
 10
585.0009156628
 20
1045.9813097636
 30
0.0
 11
585.0009156628
 21
1015.9813104342
 31
0.0
  0
ARC
  5
361
  8
0
  6
CONTINUOUS
 62
     7
 10
444.8033465999
 20
1033.6483287336
 30
0.0
 40
14.98231565327811
 50
71.7003854034
 51
84.7248693706
  0
ARC
  5
362
  8
0
  6
CONTINUOUS
 62
     7
 10
447.6481320203
 20
1050.0341795963
 30
0.0
 40
2.074881402653273
 50
181.4601133191
 51
224.9932494621
  0
ARC
  5
363
  8
0
  6
CONTINUOUS
 62
     7
 10
596.7599441568
 20
1050.0283873452
 30
0.0
 40
2.061248415724313
 50
314.8553572515
 51
358.6912799673
  0
ARC
  5
364
  8
0
  6
CONTINUOUS
 62
     7
 10
599.5912326047
 20
1033.6483287336
 30
0.0
 40
14.98231565327809
 50
95.2751306294
 51
108.2996145966
  0
ARC
  5
365
  8
0
  6
CONTINUOUS
 62
     7
 10
447.4990874256
 20
1049.7487227834
 30
0.0
 40
1.770285672501717
 50
221.868639679
 51
266.7358461157
  0
ARC
  5
366
  8
0
  6
CONTINUOUS
 62
     7
 10
596.8748618224
 20
1049.7915929618
 30
0.0
 40
1.814351797168946
 50
273.8374991339
 51
317.5580150714
  0
LINE
  5
367
  8
0
  6
CONTINUOUS
 62
     7
 10
447.3982883854
 20
1047.9813091601
 30
0.0
 11
440.1972873374
 21
1047.9813091601
 31
0.0
  0
LINE
  5
368
  8
0
  6
CONTINUOUS
 62
     7
 10
604.1972918673
 20
1047.9813091601
 30
0.0
 11
596.9962908192
 21
1047.9813091601
 31
0.0
  0
LINE
  5
369
  8
0
  6
CONTINUOUS
 62
     7
 10
425.5190698667
 20
1238.9663024019
 30
0.0
 11
426.0525016351
 21
1238.9663024019
 31
0.0
  0
ARC
  5
36A
  8
0
  6
CONTINUOUS
 62
     7
 10
434.6104916034
 20
1239.4813088845
 30
0.0
 40
8.57347210722879
 50
176.5561825828
 51
183.4438174172
  0
LINE
  5
36B
  8
0
  6
CONTINUOUS
 62
     7
 10
426.0525016351
 20
1239.9963153671
 30
0.0
 11
425.5190698667
 21
1239.9963153671
 31
0.0
  0
ARC
  5
36C
  8
0
  6
CONTINUOUS
 62
     7
 10
424.0479484274
 20
1239.8037659504
 30
0.0
 40
1.483668954672775
 50
7.4568351389
 51
21.5657107895
  0
ARC
  5
36D
  8
0
  6
CONTINUOUS
 62
     7
 10
432.0460401927
 20
1239.4858656395
 30
0.0
 40
6.67434577363233
 50
162.7429774882
 51
172.5686337267
  0
ARC
  5
36E
  8
0
  6
CONTINUOUS
 62
     7
 10
425.5388586088
 20
1240.5210436949
 30
0.0
 40
0.9541798618652741
 50
81.9700006311
 51
98.0299993689
  0
ARC
  5
36F
  8
0
  6
CONTINUOUS
 62
     7
 10
431.7800042812
 20
1239.4857020226
 30
0.0
 40
6.674915601547718
 50
162.7430262723
 51
172.5678553702
  0
ARC
  5
370
  8
0
  6
CONTINUOUS
 62
     7
 10
426.5409734501
 20
1239.8037659504
 30
0.0
 40
1.483668954668232
 50
158.4342892105
 51
172.5431648611
  0
LINE
  5
371
  8
0
  6
CONTINUOUS
 62
     7
 10
425.0698520108
 20
1239.9963153671
 30
0.0
 11
425.0172881647
 21
1239.9963153671
 31
0.0
  0
ARC
  5
372
  8
0
  6
CONTINUOUS
 62
     7
 10
431.561304157
 20
1239.4813088845
 30
0.0
 40
6.55633953791961
 50
175.4947227439
 51
184.5052772561
  0
LINE
  5
373
  8
0
  6
CONTINUOUS
 62
     7
 10
425.0172881647
 20
1238.9663024019
 30
0.0
 11
425.0698520108
 21
1238.9663024019
 31
0.0
  0
ARC
  5
374
  8
0
  6
CONTINUOUS
 62
     7
 10
426.5409734501
 20
1239.1588518186
 30
0.0
 40
1.483668954668202
 50
187.4568351389
 51
201.5657107895
  0
ARC
  5
375
  8
0
  6
CONTINUOUS
 62
     7
 10
431.7800042812
 20
1239.4769157463
 30
0.0
 40
6.674915601547707
 50
187.4321446298
 51
197.2569737277
  0
ARC
  5
376
  8
0
  6
CONTINUOUS
 62
     7
 10
425.5388586088
 20
1238.441574074
 30
0.0
 40
0.954179861865049
 50
261.9700006311
 51
278.0299993689
  0
ARC
  5
377
  8
0
  6
CONTINUOUS
 62
     7
 10
432.0460401927
 20
1239.4767521294
 30
0.0
 40
6.674345773632326
 50
187.4313662733
 51
197.2570225118
  0
ARC
  5
378
  8
0
  6
CONTINUOUS
 62
     7
 10
424.0479484274
 20
1239.1588518186
 30
0.0
 40
1.483668954672746
 50
338.4342892105
 51
352.5431648611
  0
POLYLINE
  5
379
  8
0
  6
CONTINUOUS
 62
     7
 66
     1
 10
0.0
 20
0.0
 30
0.0
 70
   128
  0
VERTEX
  5
78B
  8
0
  6
CONTINUOUS
 62
     7
 10
426.86024888
 20
1243.8640458654
 30
0.0
  0
VERTEX
  5
78C
  8
0
  6
CONTINUOUS
 62
     7
 10
426.5406711264
 20
1243.6865134309
 30
0.0
  0
VERTEX
  5
78D
  8
0
  6
CONTINUOUS
 62
     7
 10
426.5273569389
 20
1243.6710609268
 30
0.0
  0
SEQEND
  5
9F0
  8
0
  6
CONTINUOUS
 62
     7
  0
POLYLINE
  5
37A
  8
0
  6
CONTINUOUS
 62
     7
 66
     1
 10
0.0
 20
0.0
 30
0.0
 70
   128
  0
VERTEX
  5
78E
  8
0
  6
CONTINUOUS
 62
     7
 10
426.5273569389
 20
1235.2915568422
 30
0.0
  0
VERTEX
  5
78F
  8
0
  6
CONTINUOUS
 62
     7
 10
426.5406711264
 20
1235.276104338
 30
0.0
  0
VERTEX
  5
790
  8
0
  6
CONTINUOUS
 62
     7
 10
426.818145649
 20
1235.1015968393
 30
0.0
  0
SEQEND
  5
9F1
  8
0
  6
CONTINUOUS
 62
     7
  0
POLYLINE
  5
37B
  8
0
  6
CONTINUOUS
 62
     7
 66
     1
 10
0.0
 20
0.0
 30
0.0
 70
   128
  0
VERTEX
  5
791
  8
0
  6
CONTINUOUS
 62
     7
 10
427.1170405908
 20
1243.9813031028
 30
0.0
  0
VERTEX
  5
792
  8
0
  6
CONTINUOUS
 62
     7
 10
426.7889170213
 20
1243.7990320991
 30
0.0
  0
VERTEX
  5
793
  8
0
  6
CONTINUOUS
 62
     7
 10
426.4873696728
 20
1243.2669563363
 30
0.0
  0
VERTEX
  5
794
  8
0
  6
CONTINUOUS
 62
     7
 10
426.2368364497
 20
1242.4281848739
 30
0.0
  0
VERTEX
  5
795
  8
0
  6
CONTINUOUS
 62
     7
 10
426.0576052828
 20
1241.350681908
 30
0.0
  0
VERTEX
  5
796
  8
0
  6
CONTINUOUS
 62
     7
 10
425.9642122551
 20
1240.1217235397
 30
0.0
  0
VERTEX
  5
797
  8
0
  6
CONTINUOUS
 62
     7
 10
425.9603975578
 20
1240.0090111564
 30
0.0
  0
SEQEND
  5
9F2
  8
0
  6
CONTINUOUS
 62
     7
  0
POLYLINE
  5
37C
  8
0
  6
CONTINUOUS
 62
     7
 66
     1
 10
0.0
 20
0.0
 30
0.0
 70
   128
  0
VERTEX
  5
798
  8
0
  6
CONTINUOUS
 62
     7
 10
427.1172715588
 20
1234.9813146661
 30
0.0
  0
VERTEX
  5
799
  8
0
  6
CONTINUOUS
 62
     7
 10
427.4451716109
 20
1235.1635856698
 30
0.0
  0
VERTEX
  5
79A
  8
0
  6
CONTINUOUS
 62
     7
 10
427.7467189594
 20
1235.6956614326
 30
0.0
  0
VERTEX
  5
79B
  8
0
  6
CONTINUOUS
 62
     7
 10
427.9972521825
 20
1236.534432895
 30
0.0
  0
VERTEX
  5
79C
  8
0
  6
CONTINUOUS
 62
     7
 10
428.1764758988
 20
1237.611935861
 30
0.0
  0
VERTEX
  5
79D
  8
0
  6
CONTINUOUS
 62
     7
 10
428.2698763772
 20
1238.8408942293
 30
0.0
  0
VERTEX
  5
79E
  8
0
  6
CONTINUOUS
 62
     7
 10
428.2698763772
 20
1240.1217235397
 30
0.0
  0
VERTEX
  5
79F
  8
0
  6
CONTINUOUS
 62
     7
 10
428.1764758988
 20
1241.350681908
 30
0.0
  0
VERTEX
  5
7A0
  8
0
  6
CONTINUOUS
 62
     7
 10
427.9972521825
 20
1242.4281848739
 30
0.0
  0
VERTEX
  5
7A1
  8
0
  6
CONTINUOUS
 62
     7
 10
427.7467189594
 20
1243.2669563363
 30
0.0
  0
VERTEX
  5
7A2
  8
0
  6
CONTINUOUS
 62
     7
 10
427.4451716109
 20
1243.7990320991
 30
0.0
  0
VERTEX
  5
7A3
  8
0
  6
CONTINUOUS
 62
     7
 10
427.1170405908
 20
1243.9813031028
 30
0.0
  0
SEQEND
  5
9F3
  8
0
  6
CONTINUOUS
 62
     7
  0
POLYLINE
  5
37D
  8
0
  6
CONTINUOUS
 62
     7
 66
     1
 10
0.0
 20
0.0
 30
0.0
 70
   128
  0
VERTEX
  5
7A4
  8
0
  6
CONTINUOUS
 62
     7
 10
428.2127080722
 20
1234.9813146661
 30
0.0
  0
VERTEX
  5
7A5
  8
0
  6
CONTINUOUS
 62
     7
 10
428.5408390923
 20
1235.1635856698
 30
0.0
  0
VERTEX
  5
7A6
  8
0
  6
CONTINUOUS
 62
     7
 10
428.8423864408
 20
1235.6956614326
 30
0.0
  0
VERTEX
  5
7A7
  8
0
  6
CONTINUOUS
 62
     7
 10
429.092919664
 20
1236.534432895
 30
0.0
  0
VERTEX
  5
7A8
  8
0
  6
CONTINUOUS
 62
     7
 10
429.2721433802
 20
1237.611935861
 30
0.0
  0
VERTEX
  5
7A9
  8
0
  6
CONTINUOUS
 62
     7
 10
429.365536408
 20
1238.8408942293
 30
0.0
  0
VERTEX
  5
7AA
  8
0
  6
CONTINUOUS
 62
     7
 10
429.365536408
 20
1240.1217235397
 30
0.0
  0
VERTEX
  5
7AB
  8
0
  6
CONTINUOUS
 62
     7
 10
429.2721433802
 20
1241.350681908
 30
0.0
  0
VERTEX
  5
7AC
  8
0
  6
CONTINUOUS
 62
     7
 10
429.092919664
 20
1242.4281848739
 30
0.0
  0
VERTEX
  5
7AD
  8
0
  6
CONTINUOUS
 62
     7
 10
428.8423864408
 20
1243.2669563363
 30
0.0
  0
VERTEX
  5
7AE
  8
0
  6
CONTINUOUS
 62
     7
 10
428.5408390923
 20
1243.7990320991
 30
0.0
  0
VERTEX
  5
7AF
  8
0
  6
CONTINUOUS
 62
     7
 10
428.2127080722
 20
1243.9813031028
 30
0.0
  0
VERTEX
  5
7B0
  8
0
  6
CONTINUOUS
 62
     7
 10
428.2127080722
 20
1243.9813031028
 30
0.0
  0
SEQEND
  5
9F4
  8
0
  6
CONTINUOUS
 62
     7
  0
LINE
  5
37E
  8
0
  6
CONTINUOUS
 62
     7
 10
425.4055677219
 20
1241.465867884
 30
0.0
 11
425.6363494559
 21
1241.3467480014
 31
0.0
  0
LINE
  5
37F
  8
0
  6
CONTINUOUS
 62
     7
 10
425.4055677219
 20
1237.4967498849
 30
0.0
 11
425.6363494559
 21
1237.6158697675
 31
0.0
  0
POLYLINE
  5
380
  8
0
  6
CONTINUOUS
 62
     7
 66
     1
 10
0.0
 20
0.0
 30
0.0
 70
   128
  0
VERTEX
  5
7B1
  8
0
  6
CONTINUOUS
 62
     7
 10
425.1611663266
 20
1240.3491152595
 30
0.0
  0
VERTEX
  5
7B2
  8
0
  6
CONTINUOUS
 62
     7
 10
425.4088534279
 20
1240.3282089303
 30
0.0
  0
VERTEX
  5
7B3
  8
0
  6
CONTINUOUS
 62
     7
 10
425.4368825121
 20
1240.3257502387
 30
0.0
  0
SEQEND
  5
9F5
  8
0
  6
CONTINUOUS
 62
     7
  0
POLYLINE
  5
381
  8
0
  6
CONTINUOUS
 62
     7
 66
     1
 10
0.0
 20
0.0
 30
0.0
 70
   128
  0
VERTEX
  5
7B4
  8
0
  6
CONTINUOUS
 62
     7
 10
425.4343642159
 20
1238.6366440128
 30
0.0
  0
VERTEX
  5
7B5
  8
0
  6
CONTINUOUS
 62
     7
 10
425.4088534279
 20
1238.6344237398
 30
0.0
  0
VERTEX
  5
7B6
  8
0
  6
CONTINUOUS
 62
     7
 10
425.1611663266
 20
1238.6135025094
 30
0.0
  0
SEQEND
  5
9F6
  8
0
  6
CONTINUOUS
 62
     7
  0
LINE
  5
382
  8
0
  6
CONTINUOUS
 62
     7
 10
593.7487168475
 20
1238.9663024019
 30
0.0
 11
594.3594632907
 21
1238.9663024019
 31
0.0
  0
ARC
  5
383
  8
0
  6
CONTINUOUS
 62
     7
 10
587.6041935376
 20
1239.4813088845
 30
0.0
 40
6.774872774773543
 50
355.6403327551
 51
4.3596672449
  0
LINE
  5
384
  8
0
  6
CONTINUOUS
 62
     7
 10
594.3594632907
 20
1239.9963153671
 30
0.0
 11
593.7487168475
 21
1239.9963153671
 31
0.0
  0
ARC
  5
385
  8
0
  6
CONTINUOUS
 62
     7
 10
592.8906578123
 20
1239.6541620472
 30
0.0
 40
0.9237609010003873
 50
21.7397730777
 51
48.7907481764
  0
ARC
  5
386
  8
0
  6
CONTINUOUS
 62
     7
 10
584.7181214705
 20
1239.5150322327
 30
0.0
 40
8.820644270298965
 50
5.4260146181
 51
12.777587224
  0
ARC
  5
387
  8
0
  6
CONTINUOUS
 62
     7
 10
592.9561725123
 20
1234.2889185954
 30
0.0
 40
7.18618204333164
 50
87.0953040294
 51
92.9046959706
  0
ARC
  5
388
  8
0
  6
CONTINUOUS
 62
     7
 10
583.9882202662
 20
1239.51477837
 30
0.0
 40
8.822245775101946
 50
5.4266828014
 51
12.7769190408
  0
ARC
  5
389
  8
0
  6
CONTINUOUS
 62
     7
 10
593.3795087962
 20
1239.6541620472
 30
0.0
 40
0.9237609009996356
 50
131.2092518236
 51
158.2602269223
  0
LINE
  5
38A
  8
0
  6
CONTINUOUS
 62
     7
 10
592.521449761
 20
1239.9963153671
 30
0.0
 11
591.5528817339
 21
1239.9963153671
 31
0.0
  0
ARC
  5
38B
  8
0
  6
CONTINUOUS
 62
     7
 10
571.3361823416
 20
1239.4813088845
 30
0.0
 40
20.22325804607178
 50
358.5407451101
 51
1.4592548899
  0
LINE
  5
38C
  8
0
  6
CONTINUOUS
 62
     7
 10
591.5528817339
 20
1238.9663024019
 30
0.0
 11
592.521449761
 21
1238.9663024019
 31
0.0
  0
ARC
  5
38D
  8
0
  6
CONTINUOUS
 62
     7
 10
593.3795087962
 20
1239.3084557217
 30
0.0
 40
0.9237609009998418
 50
201.7397730777
 51
228.7907481764
  0
ARC
  5
38E
  8
0
  6
CONTINUOUS
 62
     7
 10
583.9882202662
 20
1239.447839399
 30
0.0
 40
8.822245775101832
 50
347.2230809592
 51
354.5733171986
  0
ARC
  5
38F
  8
0
  6
CONTINUOUS
 62
     7
 10
592.9561725123
 20
1244.6736991735
 30
0.0
 40
7.186182043331413
 50
267.0953040294
 51
272.9046959706
  0
ARC
  5
390
  8
0
  6
CONTINUOUS
 62
     7
 10
584.7181214705
 20
1239.4475855362
 30
0.0
 40
8.820644270298875
 50
347.222412776
 51
354.5739853819
  0
ARC
  5
391
  8
0
  6
CONTINUOUS
 62
     7
 10
592.8906578123
 20
1239.3084557217
 30
0.0
 40
0.9237609010002162
 50
311.2092518236
 51
338.2602269223
  0
POLYLINE
  5
392
  8
0
  6
CONTINUOUS
 62
     7
 66
     1
 10
0.0
 20
0.0
 30
0.0
 70
   128
  0
VERTEX
  5
7B7
  8
0
  6
CONTINUOUS
 62
     7
 10
592.1601711078
 20
1235.1052774261
 30
0.0
  0
VERTEX
  5
7B8
  8
0
  6
CONTINUOUS
 62
     7
 10
592.8619561954
 20
1235.276104338
 30
0.0
  0
VERTEX
  5
7B9
  8
0
  6
CONTINUOUS
 62
     7
 10
593.6643315716
 20
1235.7943220209
 30
0.0
  0
VERTEX
  5
7BA
  8
0
  6
CONTINUOUS
 62
     7
 10
594.33096482
 20
1236.6112334798
 30
0.0
  0
VERTEX
  5
7BB
  8
0
  6
CONTINUOUS
 62
     7
 10
594.8078541322
 20
1237.6606477569
 30
0.0
  0
VERTEX
  5
7BC
  8
0
  6
CONTINUOUS
 62
     7
 10
595.056368248
 20
1238.8575835298
 30
0.0
  0
VERTEX
  5
7BD
  8
0
  6
CONTINUOUS
 62
     7
 10
595.056368248
 20
1240.1050342391
 30
0.0
  0
VERTEX
  5
7BE
  8
0
  6
CONTINUOUS
 62
     7
 10
594.8078541322
 20
1241.301970012
 30
0.0
  0
VERTEX
  5
7BF
  8
0
  6
CONTINUOUS
 62
     7
 10
594.33096482
 20
1242.3513842891
 30
0.0
  0
VERTEX
  5
7C0
  8
0
  6
CONTINUOUS
 62
     7
 10
593.6643315716
 20
1243.1682957481
 30
0.0
  0
VERTEX
  5
7C1
  8
0
  6
CONTINUOUS
 62
     7
 10
592.8619561954
 20
1243.6865134309
 30
0.0
  0
VERTEX
  5
7C2
  8
0
  6
CONTINUOUS
 62
     7
 10
592.255776958
 20
1243.8477588962
 30
0.0
  0
SEQEND
  5
9F7
  8
0
  6
CONTINUOUS
 62
     7
  0
POLYLINE
  5
393
  8
0
  6
CONTINUOUS
 62
     7
 66
     1
 10
0.0
 20
0.0
 30
0.0
 70
   128
  0
VERTEX
  5
7C3
  8
0
  6
CONTINUOUS
 62
     7
 10
591.800859408
 20
1243.9813031028
 30
0.0
  0
VERTEX
  5
7C4
  8
0
  6
CONTINUOUS
 62
     7
 10
590.9043906494
 20
1243.7990320991
 30
0.0
  0
VERTEX
  5
7C5
  8
0
  6
CONTINUOUS
 62
     7
 10
590.0805501504
 20
1243.2669563363
 30
0.0
  0
VERTEX
  5
7C6
  8
0
  6
CONTINUOUS
 62
     7
 10
589.3960802122
 20
1242.4281848739
 30
0.0
  0
VERTEX
  5
7C7
  8
0
  6
CONTINUOUS
 62
     7
 10
588.9064280553
 20
1241.350681908
 30
0.0
  0
VERTEX
  5
7C8
  8
0
  6
CONTINUOUS
 62
     7
 10
588.6512680216
 20
1240.1217235397
 30
0.0
  0
VERTEX
  5
7C9
  8
0
  6
CONTINUOUS
 62
     7
 10
588.6512680216
 20
1238.8408942293
 30
0.0
  0
VERTEX
  5
7CA
  8
0
  6
CONTINUOUS
 62
     7
 10
588.9064280553
 20
1237.611935861
 30
0.0
  0
VERTEX
  5
7CB
  8
0
  6
CONTINUOUS
 62
     7
 10
589.3960802122
 20
1236.534432895
 30
0.0
  0
VERTEX
  5
7CC
  8
0
  6
CONTINUOUS
 62
     7
 10
590.0805501504
 20
1235.6956614326
 30
0.0
  0
VERTEX
  5
7CD
  8
0
  6
CONTINUOUS
 62
     7
 10
590.9043906494
 20
1235.1635856698
 30
0.0
  0
VERTEX
  5
7CE
  8
0
  6
CONTINUOUS
 62
     7
 10
591.800859408
 20
1234.9813146661
 30
0.0
  0
SEQEND
  5
9F8
  8
0
  6
CONTINUOUS
 62
     7
  0
POLYLINE
  5
394
  8
0
  6
CONTINUOUS
 62
     7
 66
     1
 10
0.0
 20
0.0
 30
0.0
 70
   128
  0
VERTEX
  5
7CF
  8
0
  6
CONTINUOUS
 62
     7
 10
590.998782055
 20
1243.9813031028
 30
0.0
  0
VERTEX
  5
7D0
  8
0
  6
CONTINUOUS
 62
     7
 10
590.1023132964
 20
1243.7990320991
 30
0.0
  0
VERTEX
  5
7D1
  8
0
  6
CONTINUOUS
 62
     7
 10
589.2784727974
 20
1243.2669563363
 30
0.0
  0
VERTEX
  5
7D2
  8
0
  6
CONTINUOUS
 62
     7
 10
588.5939954086
 20
1242.4281848739
 30
0.0
  0
VERTEX
  5
7D3
  8
0
  6
CONTINUOUS
 62
     7
 10
588.1043507023
 20
1241.350681908
 30
0.0
  0
VERTEX
  5
7D4
  8
0
  6
CONTINUOUS
 62
     7
 10
587.8491832181
 20
1240.1217235397
 30
0.0
  0
VERTEX
  5
7D5
  8
0
  6
CONTINUOUS
 62
     7
 10
587.8491832181
 20
1238.8408942293
 30
0.0
  0
VERTEX
  5
7D6
  8
0
  6
CONTINUOUS
 62
     7
 10
588.1043507023
 20
1237.611935861
 30
0.0
  0
VERTEX
  5
7D7
  8
0
  6
CONTINUOUS
 62
     7
 10
588.5939954086
 20
1236.534432895
 30
0.0
  0
VERTEX
  5
7D8
  8
0
  6
CONTINUOUS
 62
     7
 10
589.2784727974
 20
1235.6956614326
 30
0.0
  0
VERTEX
  5
7D9
  8
0
  6
CONTINUOUS
 62
     7
 10
590.1023132964
 20
1235.1635856698
 30
0.0
  0
VERTEX
  5
7DA
  8
0
  6
CONTINUOUS
 62
     7
 10
590.998782055
 20
1234.9813146661
 30
0.0
  0
SEQEND
  5
9F9
  8
0
  6
CONTINUOUS
 62
     7
  0
LINE
  5
395
  8
0
  6
CONTINUOUS
 62
     7
 10
593.3203308149
 20
1237.4967498849
 30
0.0
 11
592.681883113
 21
1237.9469288658
 31
0.0
  0
LINE
  5
396
  8
0
  6
CONTINUOUS
 62
     7
 10
593.3203308149
 20
1241.465867884
 30
0.0
 11
592.681883113
 21
1241.0156889032
 31
0.0
  0
POLYLINE
  5
397
  8
0
  6
CONTINUOUS
 62
     7
 66
     1
 10
0.0
 20
0.0
 30
0.0
 70
   128
  0
VERTEX
  5
7DB
  8
0
  6
CONTINUOUS
 62
     7
 10
593.4992416068
 20
1238.6135025094
 30
0.0
  0
VERTEX
  5
7DC
  8
0
  6
CONTINUOUS
 62
     7
 10
593.3179242774
 20
1238.6344237398
 30
0.0
  0
VERTEX
  5
7DD
  8
0
  6
CONTINUOUS
 62
     7
 10
592.7638767524
 20
1238.7004358838
 30
0.0
  0
SEQEND
  5
9FA
  8
0
  6
CONTINUOUS
 62
     7
  0
LINE
  5
398
  8
0
  6
CONTINUOUS
 62
     7
 10
593.7487168475
 20
1239.9963153671
 30
0.0
 11
592.4065022035
 21
1239.9963153671
 31
0.0
  0
POLYLINE
  5
399
  8
0
  6
CONTINUOUS
 62
     7
 66
     1
 10
0.0
 20
0.0
 30
0.0
 70
   128
  0
VERTEX
  5
7DE
  8
0
  6
CONTINUOUS
 62
     7
 10
592.7418602868
 20
1240.2595592807
 30
0.0
  0
VERTEX
  5
7DF
  8
0
  6
CONTINUOUS
 62
     7
 10
593.3179242774
 20
1240.3282089303
 30
0.0
  0
VERTEX
  5
7E0
  8
0
  6
CONTINUOUS
 62
     7
 10
593.4992416068
 20
1240.3491152595
 30
0.0
  0
SEQEND
  5
9FB
  8
0
  6
CONTINUOUS
 62
     7
  0
LINE
  5
39A
  8
0
  6
CONTINUOUS
 62
     7
 10
592.4065022035
 20
1238.9663024019
 30
0.0
 11
593.7487168475
 21
1238.9663024019
 31
0.0
  0
LINE
  5
39B
  8
0
  6
CONTINUOUS
 62
     7
 10
592.2314955159
 20
1238.9663024019
 30
0.0
 11
592.2314955159
 21
1239.9963153671
 31
0.0
  0
ARC
  5
39C
  8
0
  6
CONTINUOUS
 62
     7
 10
591.0062969634
 20
1239.4813088845
 30
0.0
 40
1.132772055985754
 50
332.9580563252
 51
27.0419436748
  0
LINE
  5
39D
  8
0
  6
CONTINUOUS
 62
     7
 10
614.9972884222
 20
1267.2785533737
 30
0.0
 11
429.3972907825
 21
1267.2785533737
 31
0.0
  0
ARC
  5
39E
  8
0
  6
CONTINUOUS
 62
     7
 10
590.9975959649
 20
1246.8272512348
 30
0.0
 40
4.19290428548338
 50
12.0235756018
 51
79.4892362801
  0
ARC
  5
39F
  8
0
  6
CONTINUOUS
 62
     7
 10
432.5184519992
 20
1249.5244909915
 30
0.0
 40
1.913578939119227
 50
131.8546328526
 51
176.1551994702
  0
LINE
  5
3A0
  8
0
  6
CONTINUOUS
 62
     7
 10
457.6468302174
 20
1269.7646631072
 30
0.0
 11
613.485424058
 21
1269.7646631072
 31
0.0
  0
LINE
  5
3A1
  8
0
  6
CONTINUOUS
 62
     7
 10
430.9091551466
 20
1269.7646631072
 30
0.0
 11
457.6468302174
 21
1269.7646631072
 31
0.0
  0
LINE
  5
3A2
  8
0
  6
CONTINUOUS
 62
     7
 10
596.3452292843
 20
1278.645591266
 30
0.0
 11
448.0493499203
 21
1278.645591266
 31
0.0
  0
LINE
  5
3A3
  8
0
  6
CONTINUOUS
 62
     7
 10
470.2249413593
 20
1279.7110540937
 30
0.0
 11
595.6972895427
 21
1279.7110540937
 31
0.0
  0
LINE
  5
3A4
  8
0
  6
CONTINUOUS
 62
     7
 10
448.6972896619
 20
1279.7110540937
 30
0.0
 11
470.2249413593
 21
1279.7110540937
 31
0.0
  0
LINE
  5
3A5
  8
0
  6
CONTINUOUS
 62
     7
 10
595.6972895427
 20
1282.1813089918
 30
0.0
 11
448.6972896619
 21
1282.1813089918
 31
0.0
  0
LINE
  5
3A6
  8
0
  6
CONTINUOUS
 62
     7
 10
594.8320238157
 20
1223.9813072751
 30
0.0
 11
594.8320238157
 21
1238.112331755
 31
0.0
  0
LINE
  5
3A7
  8
0
  6
CONTINUOUS
 62
     7
 10
594.8320238157
 20
1240.8502860139
 30
0.0
 11
594.8320238157
 21
1245.9813071559
 31
0.0
  0
LINE
  5
3A8
  8
0
  6
CONTINUOUS
 62
     7
 10
594.8320238157
 20
1245.9813071559
 30
0.0
 11
595.7107005878
 21
1245.9813071559
 31
0.0
  0
ARC
  5
3A9
  8
0
  6
CONTINUOUS
 62
     7
 10
593.4748670378
 20
1250.6398953375
 30
0.0
 40
1.740217544212474
 50
169.7417853187
 51
253.8768514733
  0
LINE
  5
3AA
  8
0
  6
CONTINUOUS
 62
     7
 10
426.8096445365
 20
1245.9813071559
 30
0.0
 11
426.8096445365
 21
1243.8217414688
 31
0.0
  0
LINE
  5
3AB
  8
0
  6
CONTINUOUS
 62
     7
 10
426.8096445365
 20
1235.1029379438
 30
0.0
 11
426.8096445365
 21
1223.9813072751
 31
0.0
  0
LINE
  5
3AC
  8
0
  6
CONTINUOUS
 62
     7
 10
426.7074225708
 20
1245.9813071559
 30
0.0
 11
426.8096445365
 21
1245.9813071559
 31
0.0
  0
ARC
  5
3AD
  8
0
  6
CONTINUOUS
 62
     7
 10
429.2900563907
 20
1250.9014722964
 30
0.0
 40
1.952171786300714
 50
293.4544867757
 51
1.4185907016
  0
LINE
  5
3AE
  8
0
  6
CONTINUOUS
 62
     7
 10
617.6972894235
 20
1180.9813095401
 30
0.0
 11
617.6972894235
 21
1220.9813160966
 31
0.0
  0
LINE
  5
3AF
  8
0
  6
CONTINUOUS
 62
     7
 10
608.6972860857
 20
1220.9813160966
 30
0.0
 11
608.6972860857
 21
1180.9813095401
 31
0.0
  0
POLYLINE
  5
3B0
  8
0
  6
CONTINUOUS
 62
     7
 66
     1
 10
0.0
 20
0.0
 30
0.0
 70
   128
  0
VERTEX
  5
7E1
  8
0
  6
CONTINUOUS
 62
     7
 10
656.5879715844
 20
1145.160944588
 30
0.0
  0
VERTEX
  5
7E2
  8
0
  6
CONTINUOUS
 62
     7
 10
656.6222740574
 20
1145.0667021941
 30
0.0
  0
VERTEX
  5
7E3
  8
0
  6
CONTINUOUS
 62
     7
 10
656.7712558671
 20
1144.6573672961
 30
0.0
  0
VERTEX
  5
7E4
  8
0
  6
CONTINUOUS
 62
     7
 10
657.0255292817
 20
1143.9587859581
 30
0.0
  0
VERTEX
  5
7E5
  8
0
  6
CONTINUOUS
 62
     7
 10
657.3624743386
 20
1143.0330438684
 30
0.0
  0
VERTEX
  5
7E6
  8
0
  6
CONTINUOUS
 62
     7
 10
657.752154605
 20
1141.962387986
 30
0.0
  0
VERTEX
  5
7E7
  8
0
  6
CONTINUOUS
 62
     7
 10
658.1599546834
 20
1140.8419622253
 30
0.0
  0
VERTEX
  5
7E8
  8
0
  6
CONTINUOUS
 62
     7
 10
658.5496498509
 20
1139.7713063429
 30
0.0
  0
VERTEX
  5
7E9
  8
0
  6
CONTINUOUS
 62
     7
 10
658.8865800066
 20
1138.8455642532
 30
0.0
  0
VERTEX
  5
7EA
  8
0
  6
CONTINUOUS
 62
     7
 10
659.1408534213
 20
1138.1469829152
 30
0.0
  0
VERTEX
  5
7EB
  8
0
  6
CONTINUOUS
 62
     7
 10
659.2898352309
 20
1137.7376480173
 30
0.0
  0
VERTEX
  5
7EC
  8
0
  6
CONTINUOUS
 62
     7
 10
659.3241377039
 20
1137.6434056233
 30
0.0
  0
SEQEND
  5
9FC
  8
0
  6
CONTINUOUS
 62
     7
  0
POLYLINE
  5
3B1
  8
0
  6
CONTINUOUS
 62
     7
 66
     1
 10
0.0
 20
0.0
 30
0.0
 70
   128
  0
VERTEX
  5
7ED
  8
0
  6
CONTINUOUS
 62
     7
 10
656.9105370207
 20
1145.1223654817
 30
0.0
  0
VERTEX
  5
7EE
  8
0
  6
CONTINUOUS
 62
     7
 10
656.9750441475
 20
1144.945138521
 30
0.0
  0
VERTEX
  5
7EF
  8
0
  6
CONTINUOUS
 62
     7
 10
657.1622474356
 20
1144.4308100413
 30
0.0
  0
VERTEX
  5
7F0
  8
0
  6
CONTINUOUS
 62
     7
 10
657.4538184567
 20
1143.6297236155
 30
0.0
  0
VERTEX
  5
7F1
  8
0
  6
CONTINUOUS
 62
     7
 10
657.8212214871
 20
1142.6202891539
 30
0.0
  0
VERTEX
  5
7F2
  8
0
  6
CONTINUOUS
 62
     7
 10
658.2284851237
 20
1141.5013311575
 30
0.0
  0
VERTEX
  5
7F3
  8
0
  6
CONTINUOUS
 62
     7
 10
658.6357636614
 20
1140.3823731612
 30
0.0
  0
VERTEX
  5
7F4
  8
0
  6
CONTINUOUS
 62
     7
 10
659.0031517907
 20
1139.3729461502
 30
0.0
  0
VERTEX
  5
7F5
  8
0
  6
CONTINUOUS
 62
     7
 10
659.2947228117
 20
1138.5718597244
 30
0.0
  0
VERTEX
  5
7F6
  8
0
  6
CONTINUOUS
 62
     7
 10
659.4819260998
 20
1138.0575312446
 30
0.0
  0
VERTEX
  5
7F7
  8
0
  6
CONTINUOUS
 62
     7
 10
659.5464332266
 20
1137.8803042839
 30
0.0
  0
VERTEX
  5
7F8
  8
0
  6
CONTINUOUS
 62
     7
 10
659.5464332266
 20
1137.8803042839
 30
0.0
  0
SEQEND
  5
9FD
  8
0
  6
CONTINUOUS
 62
     7
  0
POLYLINE
  5
3B2
  8
0
  6
CONTINUOUS
 62
     7
 66
     1
 10
0.0
 20
0.0
 30
0.0
 70
   128
  0
VERTEX
  5
7F9
  8
0
  6
CONTINUOUS
 62
     7
 10
625.7867051526
 20
1230.6343926261
 30
0.0
  0
VERTEX
  5
7FA
  8
0
  6
CONTINUOUS
 62
     7
 10
625.8512122794
 20
1230.4571582149
 30
0.0
  0
VERTEX
  5
7FB
  8
0
  6
CONTINUOUS
 62
     7
 10
626.0384155674
 20
1229.9428297351
 30
0.0
  0
VERTEX
  5
7FC
  8
0
  6
CONTINUOUS
 62
     7
 10
626.3299865885
 20
1229.1417433093
 30
0.0
  0
VERTEX
  5
7FD
  8
0
  6
CONTINUOUS
 62
     7
 10
626.6973896189
 20
1228.1323237489
 30
0.0
  0
VERTEX
  5
7FE
  8
0
  6
CONTINUOUS
 62
     7
 10
627.1046532555
 20
1227.0133657525
 30
0.0
  0
VERTEX
  5
7FF
  8
0
  6
CONTINUOUS
 62
     7
 10
627.5119243427
 20
1225.8944077562
 30
0.0
  0
VERTEX
  5
800
  8
0
  6
CONTINUOUS
 62
     7
 10
627.8793273731
 20
1224.8849732946
 30
0.0
  0
VERTEX
  5
801
  8
0
  6
CONTINUOUS
 62
     7
 10
628.1708983942
 20
1224.0838868688
 30
0.0
  0
VERTEX
  5
802
  8
0
  6
CONTINUOUS
 62
     7
 10
628.3580942317
 20
1223.569558389
 30
0.0
  0
VERTEX
  5
803
  8
0
  6
CONTINUOUS
 62
     7
 10
628.4226013585
 20
1223.3923239778
 30
0.0
  0
VERTEX
  5
804
  8
0
  6
CONTINUOUS
 62
     7
 10
628.4226013585
 20
1223.3923239778
 30
0.0
  0
SEQEND
  5
9FE
  8
0
  6
CONTINUOUS
 62
     7
  0
POLYLINE
  5
3B3
  8
0
  6
CONTINUOUS
 62
     7
 66
     1
 10
0.0
 20
0.0
 30
0.0
 70
   128
  0
VERTEX
  5
805
  8
0
  6
CONTINUOUS
 62
     7
 10
625.4641397162
 20
1230.6729717325
 30
0.0
  0
VERTEX
  5
806
  8
0
  6
CONTINUOUS
 62
     7
 10
625.4984421893
 20
1230.5787367891
 30
0.0
  0
VERTEX
  5
807
  8
0
  6
CONTINUOUS
 62
     7
 10
625.6474314495
 20
1230.1693869899
 30
0.0
  0
VERTEX
  5
808
  8
0
  6
CONTINUOUS
 62
     7
 10
625.9016899629
 20
1229.4708205532
 30
0.0
  0
VERTEX
  5
809
  8
0
  6
CONTINUOUS
 62
     7
 10
626.2386350198
 20
1228.5450710128
 30
0.0
  0
VERTEX
  5
80A
  8
0
  6
CONTINUOUS
 62
     7
 10
626.6283227368
 20
1227.474422581
 30
0.0
  0
VERTEX
  5
80B
  8
0
  6
CONTINUOUS
 62
     7
 10
627.0361228152
 20
1226.3539893697
 30
0.0
  0
VERTEX
  5
80C
  8
0
  6
CONTINUOUS
 62
     7
 10
627.4258105321
 20
1225.2833409379
 30
0.0
  0
VERTEX
  5
80D
  8
0
  6
CONTINUOUS
 62
     7
 10
627.7627555891
 20
1224.3575913976
 30
0.0
  0
VERTEX
  5
80E
  8
0
  6
CONTINUOUS
 62
     7
 10
628.0170141025
 20
1223.6590100597
 30
0.0
  0
VERTEX
  5
80F
  8
0
  6
CONTINUOUS
 62
     7
 10
628.1660033627
 20
1223.2496751617
 30
0.0
  0
VERTEX
  5
810
  8
0
  6
CONTINUOUS
 62
     7
 10
628.2003058358
 20
1223.1554402183
 30
0.0
  0
SEQEND
  5
9FF
  8
0
  6
CONTINUOUS
 62
     7
  0
POLYLINE
  5
3B4
  8
0
  6
CONTINUOUS
 62
     7
 66
     1
 10
0.0
 20
0.0
 30
0.0
 70
   128
  0
VERTEX
  5
811
  8
0
  6
CONTINUOUS
 62
     7
 10
627.4023784562
 20
1222.8650165866
 30
0.0
  0
VERTEX
  5
812
  8
0
  6
CONTINUOUS
 62
     7
 10
627.5304613872
 20
1222.5717468332
 30
0.0
  0
VERTEX
  5
813
  8
0
  6
CONTINUOUS
 62
     7
 10
627.8020499511
 20
1221.9499362777
 30
0.0
  0
VERTEX
  5
814
  8
0
  6
CONTINUOUS
 62
     7
 10
628.1329823895
 20
1221.1922569345
 30
0.0
  0
VERTEX
  5
815
  8
0
  6
CONTINUOUS
 62
     7
 10
628.5105331107
 20
1220.3278256725
 30
0.0
  0
VERTEX
  5
816
  8
0
  6
CONTINUOUS
 62
     7
 10
628.9202032848
 20
1219.38985718
 30
0.0
  0
VERTEX
  5
817
  8
0
  6
CONTINUOUS
 62
     7
 10
629.3462423845
 20
1218.4143973659
 30
0.0
  0
SEQEND
  5
A00
  8
0
  6
CONTINUOUS
 62
     7
  0
POLYLINE
  5
3B5
  8
0
  6
CONTINUOUS
 62
     7
 66
     1
 10
0.0
 20
0.0
 30
0.0
 70
   128
  0
VERTEX
  5
818
  8
0
  6
CONTINUOUS
 62
     7
 10
654.4344259663
 20
1149.4851721595
 30
0.0
  0
VERTEX
  5
819
  8
0
  6
CONTINUOUS
 62
     7
 10
654.7680629654
 20
1148.5685495804
 30
0.0
  0
VERTEX
  5
81A
  8
0
  6
CONTINUOUS
 62
     7
 10
655.0888551636
 20
1147.6871458958
 30
0.0
  0
VERTEX
  5
81B
  8
0
  6
CONTINUOUS
 62
     7
 10
655.3845091029
 20
1146.8748463462
 30
0.0
  0
VERTEX
  5
81C
  8
0
  6
CONTINUOUS
 62
     7
 10
655.6436551972
 20
1146.1628614138
 30
0.0
  0
VERTEX
  5
81D
  8
0
  6
CONTINUOUS
 62
     7
 10
655.8563245698
 20
1145.5785421799
 30
0.0
  0
VERTEX
  5
81E
  8
0
  6
CONTINUOUS
 62
     7
 10
656.0143662854
 20
1145.1443595956
 30
0.0
  0
VERTEX
  5
81F
  8
0
  6
CONTINUOUS
 62
     7
 10
656.0761315985
 20
1144.9746502708
 30
0.0
  0
SEQEND
  5
A01
  8
0
  6
CONTINUOUS
 62
     7
  0
LINE
  5
3B6
  8
0
  6
CONTINUOUS
 62
     7
 10
620.3972904249
 20
1147.9813097189
 30
0.0
 11
647.532550828
 21
1147.9813097189
 31
0.0
  0
LINE
  5
3B7
  8
0
  6
CONTINUOUS
 62
     7
 10
622.5812940164
 20
1216.5343178581
 30
0.0
 11
620.3972904249
 21
1215.739400513
 31
0.0
  0
LINE
  5
3B8
  8
0
  6
CONTINUOUS
 62
     7
 10
511.8639564379
 20
803.981305487
 30
0.0
 11
511.8639564379
 21
819.9813081096
 31
0.0
  0
LINE
  5
3B9
  8
0
  6
CONTINUOUS
 62
     7
 10
532.5306227668
 20
819.9813081096
 30
0.0
 11
532.5306227668
 21
803.981305487
 31
0.0
  0
LINE
  5
3BA
  8
0
  6
CONTINUOUS
 62
     7
 10
489.3034121259
 20
803.981305487
 30
0.0
 11
489.3034121259
 21
819.9813081096
 31
0.0
  0
LINE
  5
3BB
  8
0
  6
CONTINUOUS
 62
     7
 10
555.0911670788
 20
819.9813081096
 30
0.0
 11
555.0911670788
 21
803.981305487
 31
0.0
  0
LINE
  5
3BC
  8
0
  6
CONTINUOUS
 62
     7
 10
478.1220464273
 20
817.9408772062
 30
0.0
 11
484.9222993715
 21
803.981305487
 31
0.0
  0
LINE
  5
3BD
  8
0
  6
CONTINUOUS
 62
     7
 10
559.4722798331
 20
803.981305487
 30
0.0
 11
566.2725327774
 21
817.9408772062
 31
0.0
  0
ARC
  5
3BE
  8
0
  6
CONTINUOUS
 62
     7
 10
472.1520444793
 20
1108.799661709
 30
0.0
 40
65.87020284733558
 50
292.5857173319
 51
294.2951019021
  0
POLYLINE
  5
3BF
  8
0
  6
CONTINUOUS
 62
     7
 66
     1
 10
0.0
 20
0.0
 30
0.0
 70
   128
  0
VERTEX
  5
820
  8
0
  6
CONTINUOUS
 62
     7
 10
546.9440838559
 20
1047.9813091601
 30
0.0
  0
VERTEX
  5
821
  8
0
  6
CONTINUOUS
 62
     7
 10
546.6094093634
 20
1048.0827190126
 30
0.0
  0
VERTEX
  5
822
  8
0
  6
CONTINUOUS
 62
     7
 10
546.0526461019
 20
1048.3428625534
 30
0.0
  0
VERTEX
  5
823
  8
0
  6
CONTINUOUS
 62
     7
 10
545.1860001548
 20
1048.7547557946
 30
0.0
  0
VERTEX
  5
824
  8
0
  6
CONTINUOUS
 62
     7
 10
545.1677220179
 20
1048.7620643485
 30
0.0
  0
SEQEND
  5
A02
  8
0
  6
CONTINUOUS
 62
     7
  0
LINE
  5
3C0
  8
0
  6
CONTINUOUS
 62
     7
 10
438.1972907348
 20
1049.981309488
 30
0.0
 11
445.5739243193
 21
1049.981309488
 31
0.0
  0
LINE
  5
3C1
  8
0
  6
CONTINUOUS
 62
     7
 10
598.8206548853
 20
1049.981309488
 30
0.0
 11
606.1972884698
 21
1049.981309488
 31
0.0
  0
LINE
  5
3C2
  8
0
  6
CONTINUOUS
 62
     7
 10
544.3387182667
 20
1049.981309488
 30
0.0
 11
575.2777738734
 21
1049.981309488
 31
0.0
  0
LINE
  5
3C3
  8
0
  6
CONTINUOUS
 62
     7
 10
469.1168053313
 20
1049.981309488
 30
0.0
 11
500.055860938
 21
1049.981309488
 31
0.0
  0
POLYLINE
  5
3C4
  8
0
  6
CONTINUOUS
 62
     7
 66
     1
 10
0.0
 20
0.0
 30
0.0
 70
   128
  0
VERTEX
  5
825
  8
0
  6
CONTINUOUS
 62
     7
 10
495.889596851
 20
1038.9813086162
 30
0.0
  0
VERTEX
  5
826
  8
0
  6
CONTINUOUS
 62
     7
 10
496.4948205514
 20
1042.7920533489
 30
0.0
  0
VERTEX
  5
827
  8
0
  6
CONTINUOUS
 62
     7
 10
497.5364284827
 20
1044.8810601751
 30
0.0
  0
SEQEND
  5
A03
  8
0
  6
CONTINUOUS
 62
     7
  0
POLYLINE
  5
3C5
  8
0
  6
CONTINUOUS
 62
     7
 66
     1
 10
0.0
 20
0.0
 30
0.0
 70
   128
  0
VERTEX
  5
828
  8
0
  6
CONTINUOUS
 62
     7
 10
546.824241267
 20
1044.9490662809
 30
0.0
  0
VERTEX
  5
829
  8
0
  6
CONTINUOUS
 62
     7
 10
547.8997586532
 20
1042.7920533489
 30
0.0
  0
VERTEX
  5
82A
  8
0
  6
CONTINUOUS
 62
     7
 10
548.5049823536
 20
1038.9813086162
 30
0.0
  0
SEQEND
  5
A04
  8
0
  6
CONTINUOUS
 62
     7
  0
POLYLINE
  5
3C6
  8
0
  6
CONTINUOUS
 62
     7
 66
     1
 10
0.0
 20
0.0
 30
0.0
 70
   128
  0
VERTEX
  5
82B
  8
0
  6
CONTINUOUS
 62
     7
 10
497.4504953487
 20
1047.9813091601
 30
0.0
  0
VERTEX
  5
82C
  8
0
  6
CONTINUOUS
 62
     7
 10
497.5742867454
 20
1047.9428799967
 30
0.0
  0
VERTEX
  5
82D
  8
0
  6
CONTINUOUS
 62
     7
 10
497.6933209463
 20
1047.8290686528
 30
0.0
  0
VERTEX
  5
82E
  8
0
  6
CONTINUOUS
 62
     7
 10
497.803023295
 20
1047.6442486192
 30
0.0
  0
VERTEX
  5
82F
  8
0
  6
CONTINUOUS
 62
     7
 10
497.8991786255
 20
1047.3955230932
 30
0.0
  0
VERTEX
  5
830
  8
0
  6
CONTINUOUS
 62
     7
 10
497.9780895873
 20
1047.0924502383
 30
0.0
  0
VERTEX
  5
831
  8
0
  6
CONTINUOUS
 62
     7
 10
498.0093317344
 20
1046.928640842
 30
0.0
  0
SEQEND
  5
A05
  8
0
  6
CONTINUOUS
 62
     7
  0
LINE
  5
3C7
  8
0
  6
CONTINUOUS
 62
     7
 10
497.6578971608
 20
1045.9813097636
 30
0.0
 11
475.7172635062
 21
1045.9813097636
 31
0.0
  0
POLYLINE
  5
3C8
  8
0
  6
CONTINUOUS
 62
     7
 66
     1
 10
0.0
 20
0.0
 30
0.0
 70
   128
  0
VERTEX
  5
832
  8
0
  6
CONTINUOUS
 62
     7
 10
546.3852474703
 20
1046.928640842
 30
0.0
  0
VERTEX
  5
833
  8
0
  6
CONTINUOUS
 62
     7
 10
546.4164896174
 20
1047.0924502383
 30
0.0
  0
VERTEX
  5
834
  8
0
  6
CONTINUOUS
 62
     7
 10
546.4954005791
 20
1047.3955230932
 30
0.0
  0
VERTEX
  5
835
  8
0
  6
CONTINUOUS
 62
     7
 10
546.5915559097
 20
1047.6442486192
 30
0.0
  0
VERTEX
  5
836
  8
0
  6
CONTINUOUS
 62
     7
 10
546.7012582584
 20
1047.8290686528
 30
0.0
  0
VERTEX
  5
837
  8
0
  6
CONTINUOUS
 62
     7
 10
546.8202924593
 20
1047.9428799967
 30
0.0
  0
VERTEX
  5
838
  8
0
  6
CONTINUOUS
 62
     7
 10
546.9440838559
 20
1047.9813091601
 30
0.0
  0
SEQEND
  5
A06
  8
0
  6
CONTINUOUS
 62
     7
  0
LINE
  5
3C9
  8
0
  6
CONTINUOUS
 62
     7
 10
569.9906630679
 20
1045.9813097636
 30
0.0
 11
546.7366820438
 21
1045.9813097636
 31
0.0
  0
LINE
  5
3CA
  8
0
  6
CONTINUOUS
 62
     7
 10
589.6972922845
 20
934.9813101958
 30
0.0
 11
541.6177662327
 21
934.9813101958
 31
0.0
  0
LINE
  5
3CB
  8
0
  6
CONTINUOUS
 62
     7
 10
502.776812972
 20
934.9813101958
 30
0.0
 11
454.6972869201
 21
934.9813101958
 31
0.0
  0
LINE
  5
3CC
  8
0
  6
CONTINUOUS
 62
     7
 10
466.3661627336
 20
923.9813102554
 30
0.0
 11
466.9320492311
 21
923.9813102554
 31
0.0
  0
LINE
  5
3CD
  8
0
  6
CONTINUOUS
 62
     7
 10
474.9320468171
 20
923.9813102554
 30
0.0
 11
486.5221923454
 21
923.9813102554
 31
0.0
  0
ARC
  5
3CE
  8
0
  6
CONTINUOUS
 62
     7
 10
466.4368629626
 20
921.8816328068
 30
0.0
 40
2.100867418622314
 50
91.9285318495
 51
177.1801465418
  0
LINE
  5
3CF
  8
0
  6
CONTINUOUS
 62
     7
 10
464.2347639664
 20
906.9813056062
 30
0.0
 11
464.2347639664
 21
907.9813076328
 31
0.0
  0
LINE
  5
3D0
  8
0
  6
CONTINUOUS
 62
     7
 10
491.9012451782
 20
906.9813056062
 30
0.0
 11
474.9320468171
 21
906.9813056062
 31
0.0
  0
LINE
  5
3D1
  8
0
  6
CONTINUOUS
 62
     7
 10
466.9320492311
 20
906.9813056062
 30
0.0
 11
464.2347639664
 21
906.9813056062
 31
0.0
  0
LINE
  5
3D2
  8
0
  6
CONTINUOUS
 62
     7
 10
580.1598152383
 20
907.9813076328
 30
0.0
 11
580.1598152383
 21
906.9813056062
 31
0.0
  0
ARC
  5
3D3
  8
0
  6
CONTINUOUS
 62
     7
 10
577.9278793326
 20
921.8513181531
 30
0.0
 40
2.132363494372518
 50
3.5947831072
 51
87.29760426
  0
LINE
  5
3D4
  8
0
  6
CONTINUOUS
 62
     7
 10
557.8723868592
 20
923.9813102554
 30
0.0
 11
569.4625323875
 21
923.9813102554
 31
0.0
  0
LINE
  5
3D5
  8
0
  6
CONTINUOUS
 62
     7
 10
577.4625299736
 20
923.9813102554
 30
0.0
 11
578.0284164711
 21
923.9813102554
 31
0.0
  0
LINE
  5
3D6
  8
0
  6
CONTINUOUS
 62
     7
 10
580.1598152383
 20
906.9813056062
 30
0.0
 11
577.4625299736
 21
906.9813056062
 31
0.0
  0
LINE
  5
3D7
  8
0
  6
CONTINUOUS
 62
     7
 10
569.4625323875
 20
906.9813056062
 30
0.0
 11
552.4933340265
 21
906.9813056062
 31
0.0
  0
LINE
  5
3D8
  8
0
  6
CONTINUOUS
 62
     7
 10
460.4571743174
 20
1015.9813104342
 30
0.0
 11
473.2867164774
 21
1015.9813104342
 31
0.0
  0
LINE
  5
3D9
  8
0
  6
CONTINUOUS
 62
     7
 10
569.9906630679
 20
1015.9813104342
 30
0.0
 11
583.9374048872
 21
1015.9813104342
 31
0.0
  0
LINE
  5
3DA
  8
0
  6
CONTINUOUS
 62
     7
 10
462.8003185852
 20
1045.9813097636
 30
0.0
 11
460.467653559
 21
1045.9813097636
 31
0.0
  0
LINE
  5
3DB
  8
0
  6
CONTINUOUS
 62
     7
 10
581.5942606195
 20
1045.9813097636
 30
0.0
 11
583.9269256456
 21
1045.9813097636
 31
0.0
  0
LINE
  5
3DC
  8
0
  6
CONTINUOUS
 62
     7
 10
459.1650722786
 20
920.9813041757
 30
0.0
 11
459.3798501654
 21
920.9813041757
 31
0.0
  0
LINE
  5
3DD
  8
0
  6
CONTINUOUS
 62
     7
 10
585.0147290392
 20
920.9813041757
 30
0.0
 11
585.2295069261
 21
920.9813041757
 31
0.0
  0
ARC
  5
3DE
  8
0
  6
CONTINUOUS
 62
     7
 10
462.7513157754
 20
1046.1647684763
 30
0.0
 40
3.362660497439205
 50
153.232510289
 51
183.1274734832
  0
ARC
  5
3DF
  8
0
  6
CONTINUOUS
 62
     7
 10
581.3304870957
 20
1046.1083184844
 30
0.0
 40
3.672625366368543
 50
358.0181711398
 51
24.635709035
  0
LINE
  5
3E0
  8
0
  6
CONTINUOUS
 62
     7
 10
448.3793584867
 20
1015.9813104342
 30
0.0
 11
459.3936635418
 21
1015.9813104342
 31
0.0
  0
ARC
  5
3E1
  8
0
  6
CONTINUOUS
 62
     7
 10
463.090955684
 20
1015.8465164916
 30
0.0
 40
3.699748449730525
 50
177.9120651764
 51
202.9759594707
  0
LINE
  5
3E2
  8
0
  6
CONTINUOUS
 62
     7
 10
585.0009156628
 20
1015.9813104342
 30
0.0
 11
596.015220718
 21
1015.9813104342
 31
0.0
  0
ARC
  5
3E3
  8
0
  6
CONTINUOUS
 62
     7
 10
581.1951605434
 20
1015.8665093086
 30
0.0
 40
3.807486221545874
 50
337.3841642379
 51
1.7278111149
  0
LINE
  5
3E4
  8
0
  6
CONTINUOUS
 62
     7
 10
460.4571743174
 20
1045.9813097636
 30
0.0
 11
459.3936635418
 21
1045.9813097636
 31
0.0
  0
LINE
  5
3E5
  8
0
  6
CONTINUOUS
 62
     7
 10
459.3936635418
 20
1015.9813104342
 30
0.0
 11
460.4571743174
 21
1015.9813104342
 31
0.0
  0
LINE
  5
3E6
  8
0
  6
CONTINUOUS
 62
     7
 10
585.0009156628
 20
1045.9813097636
 30
0.0
 11
584.1316154464
 21
1045.9813097636
 31
0.0
  0
LINE
  5
3E7
  8
0
  6
CONTINUOUS
 62
     7
 10
583.9374048872
 20
1015.9813104342
 30
0.0
 11
585.0009156628
 21
1015.9813104342
 31
0.0
  0
LINE
  5
3E8
  8
0
  6
CONTINUOUS
 62
     7
 10
449.4511543079
 20
1045.9813097636
 30
0.0
 11
448.3840150996
 21
1045.9813097636
 31
0.0
  0
LINE
  5
3E9
  8
0
  6
CONTINUOUS
 62
     7
 10
594.9434248968
 20
1045.9813097636
 30
0.0
 11
596.0105641051
 21
1045.9813097636
 31
0.0
  0
POLYLINE
  5
3EA
  8
0
  6
CONTINUOUS
 62
     7
 66
     1
 10
0.0
 20
0.0
 30
0.0
 70
   128
  0
VERTEX
  5
839
  8
0
  6
CONTINUOUS
 62
     7
 10
448.3593536778
 20
1047.1001755591
 30
0.0
  0
VERTEX
  5
83A
  8
0
  6
CONTINUOUS
 62
     7
 10
448.3837841316
 20
1047.3402742441
 30
0.0
  0
VERTEX
  5
83B
  8
0
  6
CONTINUOUS
 62
     7
 10
448.771847622
 20
1047.6253073807
 30
0.0
  0
VERTEX
  5
83C
  8
0
  6
CONTINUOUS
 62
     7
 10
449.5075850053
 20
1047.8729525726
 30
0.0
  0
SEQEND
  5
A07
  8
0
  6
CONTINUOUS
 62
     7
  0
POLYLINE
  5
3EB
  8
0
  6
CONTINUOUS
 62
     7
 66
     1
 10
0.0
 20
0.0
 30
0.0
 70
   128
  0
VERTEX
  5
83D
  8
0
  6
CONTINUOUS
 62
     7
 10
596.0352255269
 20
1047.1001755591
 30
0.0
  0
VERTEX
  5
83E
  8
0
  6
CONTINUOUS
 62
     7
 10
596.0107950731
 20
1047.3402742441
 30
0.0
  0
VERTEX
  5
83F
  8
0
  6
CONTINUOUS
 62
     7
 10
595.6227315827
 20
1047.6253073807
 30
0.0
  0
VERTEX
  5
840
  8
0
  6
CONTINUOUS
 62
     7
 10
594.8869941993
 20
1047.8729525726
 30
0.0
  0
SEQEND
  5
A08
  8
0
  6
CONTINUOUS
 62
     7
  0
LINE
  5
3EC
  8
0
  6
CONTINUOUS
 62
     7
 10
448.3793584867
 20
1045.9813097636
 30
0.0
 11
446.1972920461
 21
1045.9813097636
 31
0.0
  0
LINE
  5
3ED
  8
0
  6
CONTINUOUS
 62
     7
 10
446.1972920461
 20
1015.9813104342
 30
0.0
 11
448.3793584867
 21
1015.9813104342
 31
0.0
  0
LINE
  5
3EE
  8
0
  6
CONTINUOUS
 62
     7
 10
598.1972871585
 20
1045.9813097636
 30
0.0
 11
596.015220718
 21
1045.9813097636
 31
0.0
  0
LINE
  5
3EF
  8
0
  6
CONTINUOUS
 62
     7
 10
596.015220718
 20
1015.9813104342
 30
0.0
 11
598.1972871585
 21
1015.9813104342
 31
0.0
  0
POLYLINE
  5
3F0
  8
0
  6
CONTINUOUS
 62
     7
 66
     1
 10
0.0
 20
0.0
 30
0.0
 70
   128
  0
VERTEX
  5
841
  8
0
  6
CONTINUOUS
 62
     7
 10
426.818145649
 20
1235.1015968393
 30
0.0
  0
VERTEX
  5
842
  8
0
  6
CONTINUOUS
 62
     7
 10
426.86024888
 20
1235.0985719036
 30
0.0
  0
VERTEX
  5
843
  8
0
  6
CONTINUOUS
 62
     7
 10
427.1798266335
 20
1235.276104338
 30
0.0
  0
VERTEX
  5
844
  8
0
  6
CONTINUOUS
 62
     7
 10
427.4735136195
 20
1235.7943220209
 30
0.0
  0
VERTEX
  5
845
  8
0
  6
CONTINUOUS
 62
     7
 10
427.717520134
 20
1236.6112334798
 30
0.0
  0
VERTEX
  5
846
  8
0
  6
CONTINUOUS
 62
     7
 10
427.8920723362
 20
1237.6606477569
 30
0.0
  0
VERTEX
  5
847
  8
0
  6
CONTINUOUS
 62
     7
 10
427.9830364748
 20
1238.8575835298
 30
0.0
  0
VERTEX
  5
848
  8
0
  6
CONTINUOUS
 62
     7
 10
427.9830364748
 20
1240.1050342391
 30
0.0
  0
VERTEX
  5
849
  8
0
  6
CONTINUOUS
 62
     7
 10
427.8920723362
 20
1241.301970012
 30
0.0
  0
VERTEX
  5
84A
  8
0
  6
CONTINUOUS
 62
     7
 10
427.717520134
 20
1242.3513842891
 30
0.0
  0
VERTEX
  5
84B
  8
0
  6
CONTINUOUS
 62
     7
 10
427.4735136195
 20
1243.1682957481
 30
0.0
  0
VERTEX
  5
84C
  8
0
  6
CONTINUOUS
 62
     7
 10
427.1798266335
 20
1243.6865134309
 30
0.0
  0
VERTEX
  5
84D
  8
0
  6
CONTINUOUS
 62
     7
 10
426.86024888
 20
1243.8640458654
 30
0.0
  0
VERTEX
  5
84E
  8
0
  6
CONTINUOUS
 62
     7
 10
426.86024888
 20
1243.8640458654
 30
0.0
  0
SEQEND
  5
A09
  8
0
  6
CONTINUOUS
 62
     7
  0
POLYLINE
  5
3F1
  8
0
  6
CONTINUOUS
 62
     7
 66
     1
 10
0.0
 20
0.0
 30
0.0
 70
   128
  0
VERTEX
  5
84F
  8
0
  6
CONTINUOUS
 62
     7
 10
592.255776958
 20
1243.8477588962
 30
0.0
  0
VERTEX
  5
850
  8
0
  6
CONTINUOUS
 62
     7
 10
591.988845007
 20
1243.8640458654
 30
0.0
  0
VERTEX
  5
851
  8
0
  6
CONTINUOUS
 62
     7
 10
591.1157412692
 20
1243.6865134309
 30
0.0
  0
VERTEX
  5
852
  8
0
  6
CONTINUOUS
 62
     7
 10
590.3133658929
 20
1243.1682957481
 30
0.0
  0
VERTEX
  5
853
  8
0
  6
CONTINUOUS
 62
     7
 10
589.6467326446
 20
1242.3513842891
 30
0.0
  0
VERTEX
  5
854
  8
0
  6
CONTINUOUS
 62
     7
 10
589.1698433323
 20
1241.301970012
 30
0.0
  0
VERTEX
  5
855
  8
0
  6
CONTINUOUS
 62
     7
 10
588.9213292165
 20
1240.1050342391
 30
0.0
  0
VERTEX
  5
856
  8
0
  6
CONTINUOUS
 62
     7
 10
588.9213292165
 20
1238.8575835298
 30
0.0
  0
VERTEX
  5
857
  8
0
  6
CONTINUOUS
 62
     7
 10
589.1698433323
 20
1237.6606477569
 30
0.0
  0
VERTEX
  5
858
  8
0
  6
CONTINUOUS
 62
     7
 10
589.6467326446
 20
1236.6112334798
 30
0.0
  0
VERTEX
  5
859
  8
0
  6
CONTINUOUS
 62
     7
 10
590.3133658929
 20
1235.7943220209
 30
0.0
  0
VERTEX
  5
85A
  8
0
  6
CONTINUOUS
 62
     7
 10
591.1157412692
 20
1235.276104338
 30
0.0
  0
VERTEX
  5
85B
  8
0
  6
CONTINUOUS
 62
     7
 10
591.988845007
 20
1235.0985719036
 30
0.0
  0
VERTEX
  5
85C
  8
0
  6
CONTINUOUS
 62
     7
 10
592.1601711078
 20
1235.1052774261
 30
0.0
  0
SEQEND
  5
A0A
  8
0
  6
CONTINUOUS
 62
     7
  0
CIRCLE
  5
3F2
  8
SLD-0
  6
CONTINUOUS
 62
     7
 10
522.1972896023
 20
1028.9813095401
 30
0.0
 40
9.941304535795709
  0
INSERT
  5
3FE
  8
SLD-0
 62
    11
  2
SW_CENTERMARKSYMBOL_0
 10
522.1972896023
 20
1028.9813095401
 30
0.0
  0
LINE
  5
3FF
  8
0
  6
CONTINUOUS
 62
     7
 10
652.2450877591
 20
491.2931009319
 30
0.0
 11
650.8663578196
 21
491.2931009319
 31
0.0
  0
LINE
  5
400
  8
0
  6
CONTINUOUS
 62
     7
 10
650.8663578196
 20
487.2931021389
 30
0.0
 11
652.4054540558
 21
487.2931021389
 31
0.0
  0
LINE
  5
401
  8
0
  6
CONTINUOUS
 62
     7
 10
657.9560620947
 20
493.2931012597
 30
0.0
 11
657.2159661217
 21
493.2931012597
 31
0.0
  0
LINE
  5
402
  8
0
  6
CONTINUOUS
 62
     7
 10
658.1031365557
 20
493.2432382491
 30
0.0
 11
657.9855365916
 21
493.2675085154
 31
0.0
  0
LINE
  5
403
  8
0
  6
CONTINUOUS
 62
     7
 10
657.9560620947
 20
485.2931018111
 30
0.0
 11
658.1694765254
 21
485.3401317385
 31
0.0
  0
ARC
  5
404
  8
0
  6
CONTINUOUS
 62
     7
 10
653.3095628735
 20
489.2931014386
 30
0.0
 40
6.500000000000051
 50
328.9823638146
 51
31.0176361854
  0
LINE
  5
405
  8
0
  6
CONTINUOUS
 62
     7
 10
621.7158867283
 20
491.2931009319
 30
0.0
 11
620.1972870393
 21
491.2931009319
 31
0.0
  0
LINE
  5
406
  8
0
  6
CONTINUOUS
 62
     7
 10
620.1972870393
 20
487.2931021389
 30
0.0
 11
621.7158867283
 21
487.2931021389
 31
0.0
  0
LINE
  5
407
  8
0
  6
CONTINUOUS
 62
     7
 10
621.7158867283
 20
433.2931007382
 30
0.0
 11
620.1972870393
 21
433.2931007382
 31
0.0
  0
LINE
  5
408
  8
0
  6
CONTINUOUS
 62
     7
 10
620.1972870393
 20
429.2931019452
 30
0.0
 11
621.7158867283
 21
429.2931019452
 31
0.0
  0
LINE
  5
409
  8
0
  6
CONTINUOUS
 62
     7
 10
652.4054540558
 20
433.2931007382
 30
0.0
 11
650.8663578196
 21
433.2931007382
 31
0.0
  0
LINE
  5
40A
  8
0
  6
CONTINUOUS
 62
     7
 10
650.8663578196
 20
429.2931019452
 30
0.0
 11
652.3669643565
 21
429.2931019452
 31
0.0
  0
LINE
  5
40B
  8
0
  6
CONTINUOUS
 62
     7
 10
657.6000733538
 20
427.2931016174
 30
0.0
 11
657.9560620947
 21
427.2931016174
 31
0.0
  0
LINE
  5
40C
  8
0
  6
CONTINUOUS
 62
     7
 10
658.1031365557
 20
435.2432380554
 30
0.0
 11
657.9855365916
 21
435.2675101843
 31
0.0
  0
LINE
  5
40D
  8
0
  6
CONTINUOUS
 62
     7
 10
657.9560620947
 20
427.2931016174
 30
0.0
 11
658.1694765254
 21
427.3401334074
 31
0.0
  0
ARC
  5
40E
  8
0
  6
CONTINUOUS
 62
     7
 10
653.3095628735
 20
431.2931014386
 30
0.0
 40
6.500000000000128
 50
328.9823638146
 51
31.0176361854
  0
LINE
  5
40F
  8
0
  6
CONTINUOUS
 62
     7
 10
659.7021056576
 20
471.0610502523
 30
0.0
 11
659.6520973607
 21
471.0610502523
 31
0.0
  0
LINE
  5
410
  8
0
  6
CONTINUOUS
 62
     7
 10
659.6520973607
 20
449.5251526248
 30
0.0
 11
659.7021056576
 21
449.5251526248
 31
0.0
  0
POLYLINE
  5
411
  8
0
  6
CONTINUOUS
 62
     7
 66
     1
 10
0.0
 20
0.0
 30
0.0
 70
   128
  0
VERTEX
  5
85D
  8
0
  6
CONTINUOUS
 62
     7
 10
657.9751206799
 20
489.2931006041
 30
0.0
  0
VERTEX
  5
85E
  8
0
  6
CONTINUOUS
 62
     7
 10
657.9583568736
 20
489.9616710034
 30
0.0
  0
VERTEX
  5
85F
  8
0
  6
CONTINUOUS
 62
     7
 10
657.833410637
 20
491.2024106022
 30
0.0
  0
VERTEX
  5
860
  8
0
  6
CONTINUOUS
 62
     7
 10
657.5811488791
 20
492.3606871751
 30
0.0
  0
VERTEX
  5
861
  8
0
  6
CONTINUOUS
 62
     7
 10
657.1648104353
 20
493.4237173882
 30
0.0
  0
VERTEX
  5
862
  8
0
  6
CONTINUOUS
 62
     7
 10
656.6638035937
 20
494.1614478019
 30
0.0
  0
VERTEX
  5
863
  8
0
  6
CONTINUOUS
 62
     7
 10
656.083105342
 20
494.6531041649
 30
0.0
  0
VERTEX
  5
864
  8
0
  6
CONTINUOUS
 62
     7
 10
655.3748382493
 20
494.9421457138
 30
0.0
  0
VERTEX
  5
865
  8
0
  6
CONTINUOUS
 62
     7
 10
654.9070460959
 20
494.9931002345
 30
0.0
  0
SEQEND
  5
A0B
  8
0
  6
CONTINUOUS
 62
     7
  0
LINE
  5
412
  8
0
  6
CONTINUOUS
 62
     7
 10
657.9751206799
 20
430.2931021091
 30
0.0
 11
657.9751206799
 21
489.2931006041
 31
0.0
  0
POLYLINE
  5
413
  8
0
  6
CONTINUOUS
 62
     7
 66
     1
 10
0.0
 20
0.0
 30
0.0
 70
   128
  0
VERTEX
  5
866
  8
0
  6
CONTINUOUS
 62
     7
 10
654.9070460959
 20
424.593100616
 30
0.0
  0
VERTEX
  5
867
  8
0
  6
CONTINUOUS
 62
     7
 10
655.6838287278
 20
424.7360362795
 30
0.0
  0
VERTEX
  5
868
  8
0
  6
CONTINUOUS
 62
     7
 10
656.3152654334
 20
425.0956795302
 30
0.0
  0
VERTEX
  5
869
  8
0
  6
CONTINUOUS
 62
     7
 10
656.811921136
 20
425.6036861923
 30
0.0
  0
VERTEX
  5
86A
  8
0
  6
CONTINUOUS
 62
     7
 10
657.2324319048
 20
426.2975587633
 30
0.0
  0
VERTEX
  5
86B
  8
0
  6
CONTINUOUS
 62
     7
 10
657.6018018885
 20
427.2977880326
 30
0.0
  0
VERTEX
  5
86C
  8
0
  6
CONTINUOUS
 62
     7
 10
657.8539891406
 20
428.5225815263
 30
0.0
  0
VERTEX
  5
86D
  8
0
  6
CONTINUOUS
 62
     7
 10
657.96588196
 20
429.7962657299
 30
0.0
  0
VERTEX
  5
86E
  8
0
  6
CONTINUOUS
 62
     7
 10
657.9751206799
 20
430.2931021091
 30
0.0
  0
SEQEND
  5
A0C
  8
0
  6
CONTINUOUS
 62
     7
  0
POLYLINE
  5
414
  8
0
  6
CONTINUOUS
 62
     7
 66
     1
 10
0.0
 20
0.0
 30
0.0
 70
   128
  0
VERTEX
  5
86F
  8
0
  6
CONTINUOUS
 62
     7
 10
650.8663578196
 20
487.2931021389
 30
0.0
  0
VERTEX
  5
870
  8
0
  6
CONTINUOUS
 62
     7
 10
650.6045891209
 20
487.4453417149
 30
0.0
  0
VERTEX
  5
871
  8
0
  6
CONTINUOUS
 62
     7
 10
650.3826661273
 20
487.8788872745
 30
0.0
  0
VERTEX
  5
872
  8
0
  6
CONTINUOUS
 62
     7
 10
650.2343846722
 20
488.5277341243
 30
0.0
  0
VERTEX
  5
873
  8
0
  6
CONTINUOUS
 62
     7
 10
650.182320015
 20
489.2931006041
 30
0.0
  0
VERTEX
  5
874
  8
0
  6
CONTINUOUS
 62
     7
 10
650.2343846722
 20
490.0584689465
 30
0.0
  0
VERTEX
  5
875
  8
0
  6
CONTINUOUS
 62
     7
 10
650.3826661273
 20
490.7073157963
 30
0.0
  0
VERTEX
  5
876
  8
0
  6
CONTINUOUS
 62
     7
 10
650.6045891209
 20
491.1408613559
 30
0.0
  0
VERTEX
  5
877
  8
0
  6
CONTINUOUS
 62
     7
 10
650.8663578196
 20
491.2931009319
 30
0.0
  0
VERTEX
  5
878
  8
0
  6
CONTINUOUS
 62
     7
 10
651.1281265183
 20
491.1408613559
 30
0.0
  0
VERTEX
  5
879
  8
0
  6
CONTINUOUS
 62
     7
 10
651.350049512
 20
490.7073157963
 30
0.0
  0
VERTEX
  5
87A
  8
0
  6
CONTINUOUS
 62
     7
 10
651.498330967
 20
490.0584689465
 30
0.0
  0
VERTEX
  5
87B
  8
0
  6
CONTINUOUS
 62
     7
 10
651.5503956242
 20
489.2931006041
 30
0.0
  0
VERTEX
  5
87C
  8
0
  6
CONTINUOUS
 62
     7
 10
651.498330967
 20
488.5277341243
 30
0.0
  0
VERTEX
  5
87D
  8
0
  6
CONTINUOUS
 62
     7
 10
651.350049512
 20
487.8788872745
 30
0.0
  0
VERTEX
  5
87E
  8
0
  6
CONTINUOUS
 62
     7
 10
651.1281265183
 20
487.4453417149
 30
0.0
  0
VERTEX
  5
87F
  8
0
  6
CONTINUOUS
 62
     7
 10
650.8663578196
 20
487.2931021389
 30
0.0
  0
SEQEND
  5
A0D
  8
0
  6
CONTINUOUS
 62
     7
  0
POLYLINE
  5
415
  8
0
  6
CONTINUOUS
 62
     7
 66
     1
 10
0.0
 20
0.0
 30
0.0
 70
   128
  0
VERTEX
  5
880
  8
0
  6
CONTINUOUS
 62
     7
 10
658.3124680682
 20
493.1386917022
 30
0.0
  0
VERTEX
  5
881
  8
0
  6
CONTINUOUS
 62
     7
 10
658.6357636614
 20
492.9579219904
 30
0.0
  0
VERTEX
  5
882
  8
0
  6
CONTINUOUS
 62
     7
 10
659.0031517907
 20
492.4105837133
 30
0.0
  0
VERTEX
  5
883
  8
0
  6
CONTINUOUS
 62
     7
 10
659.2947228117
 20
491.5580845561
 30
0.0
  0
VERTEX
  5
884
  8
0
  6
CONTINUOUS
 62
     7
 10
659.4819260998
 20
490.4838728842
 30
0.0
  0
VERTEX
  5
885
  8
0
  6
CONTINUOUS
 62
     7
 10
659.5464332266
 20
489.2931006041
 30
0.0
  0
VERTEX
  5
886
  8
0
  6
CONTINUOUS
 62
     7
 10
659.4819260998
 20
488.102328324
 30
0.0
  0
VERTEX
  5
887
  8
0
  6
CONTINUOUS
 62
     7
 10
659.2947228117
 20
487.0281185147
 30
0.0
  0
VERTEX
  5
888
  8
0
  6
CONTINUOUS
 62
     7
 10
659.0031517907
 20
486.1756193575
 30
0.0
  0
VERTEX
  5
889
  8
0
  6
CONTINUOUS
 62
     7
 10
658.6357636614
 20
485.6282810804
 30
0.0
  0
VERTEX
  5
88A
  8
0
  6
CONTINUOUS
 62
     7
 10
658.3536995812
 20
485.4571095791
 30
0.0
  0
SEQEND
  5
A0E
  8
0
  6
CONTINUOUS
 62
     7
  0
ARC
  5
416
  8
0
  6
CONTINUOUS
 62
     7
 10
615.9486526429
 20
489.2931015354
 30
0.0
 40
4.503662592713693
 50
340.6259768302
 51
19.3740231698
  0
ARC
  5
417
  8
0
  6
CONTINUOUS
 62
     7
 10
615.9486526429
 20
431.2931013417
 30
0.0
 40
4.503662592714569
 50
340.6259768302
 51
19.3740231698
  0
POLYLINE
  5
418
  8
0
  6
CONTINUOUS
 62
     7
 66
     1
 10
0.0
 20
0.0
 30
0.0
 70
   128
  0
VERTEX
  5
88B
  8
0
  6
CONTINUOUS
 62
     7
 10
650.8663578196
 20
429.2931019452
 30
0.0
  0
VERTEX
  5
88C
  8
0
  6
CONTINUOUS
 62
     7
 10
650.6045891209
 20
429.4453415212
 30
0.0
  0
VERTEX
  5
88D
  8
0
  6
CONTINUOUS
 62
     7
 10
650.3826661273
 20
429.8788870808
 30
0.0
  0
VERTEX
  5
88E
  8
0
  6
CONTINUOUS
 62
     7
 10
650.2343846722
 20
430.5277339306
 30
0.0
  0
VERTEX
  5
88F
  8
0
  6
CONTINUOUS
 62
     7
 10
650.182320015
 20
431.293102273
 30
0.0
  0
VERTEX
  5
890
  8
0
  6
CONTINUOUS
 62
     7
 10
650.2343846722
 20
432.0584687528
 30
0.0
  0
VERTEX
  5
891
  8
0
  6
CONTINUOUS
 62
     7
 10
650.3826661273
 20
432.7073156026
 30
0.0
  0
VERTEX
  5
892
  8
0
  6
CONTINUOUS
 62
     7
 10
650.6045891209
 20
433.1408611622
 30
0.0
  0
VERTEX
  5
893
  8
0
  6
CONTINUOUS
 62
     7
 10
650.8663578196
 20
433.2931007382
 30
0.0
  0
VERTEX
  5
894
  8
0
  6
CONTINUOUS
 62
     7
 10
651.1281265183
 20
433.1408611622
 30
0.0
  0
VERTEX
  5
895
  8
0
  6
CONTINUOUS
 62
     7
 10
651.350049512
 20
432.7073156026
 30
0.0
  0
VERTEX
  5
896
  8
0
  6
CONTINUOUS
 62
     7
 10
651.498330967
 20
432.0584687528
 30
0.0
  0
VERTEX
  5
897
  8
0
  6
CONTINUOUS
 62
     7
 10
651.5503956242
 20
431.293102273
 30
0.0
  0
VERTEX
  5
898
  8
0
  6
CONTINUOUS
 62
     7
 10
651.498330967
 20
430.5277339306
 30
0.0
  0
VERTEX
  5
899
  8
0
  6
CONTINUOUS
 62
     7
 10
651.350049512
 20
429.8788870808
 30
0.0
  0
VERTEX
  5
89A
  8
0
  6
CONTINUOUS
 62
     7
 10
651.1281265183
 20
429.4453415212
 30
0.0
  0
VERTEX
  5
89B
  8
0
  6
CONTINUOUS
 62
     7
 10
650.8663578196
 20
429.2931019452
 30
0.0
  0
SEQEND
  5
A0F
  8
0
  6
CONTINUOUS
 62
     7
  0
POLYLINE
  5
419
  8
0
  6
CONTINUOUS
 62
     7
 66
     1
 10
0.0
 20
0.0
 30
0.0
 70
   128
  0
VERTEX
  5
89C
  8
0
  6
CONTINUOUS
 62
     7
 10
658.3124680682
 20
435.1386896458
 30
0.0
  0
VERTEX
  5
89D
  8
0
  6
CONTINUOUS
 62
     7
 10
658.6357636614
 20
434.9579217967
 30
0.0
  0
VERTEX
  5
89E
  8
0
  6
CONTINUOUS
 62
     7
 10
659.0031517907
 20
434.4105835196
 30
0.0
  0
VERTEX
  5
89F
  8
0
  6
CONTINUOUS
 62
     7
 10
659.2947228117
 20
433.5580843624
 30
0.0
  0
VERTEX
  5
8A0
  8
0
  6
CONTINUOUS
 62
     7
 10
659.4819260998
 20
432.4838745531
 30
0.0
  0
VERTEX
  5
8A1
  8
0
  6
CONTINUOUS
 62
     7
 10
659.5464332266
 20
431.293102273
 30
0.0
  0
VERTEX
  5
8A2
  8
0
  6
CONTINUOUS
 62
     7
 10
659.4819260998
 20
430.1023299929
 30
0.0
  0
VERTEX
  5
8A3
  8
0
  6
CONTINUOUS
 62
     7
 10
659.2947228117
 20
429.028118321
 30
0.0
  0
VERTEX
  5
8A4
  8
0
  6
CONTINUOUS
 62
     7
 10
659.0031517907
 20
428.1756191638
 30
0.0
  0
VERTEX
  5
8A5
  8
0
  6
CONTINUOUS
 62
     7
 10
658.6357636614
 20
427.6282808867
 30
0.0
  0
VERTEX
  5
8A6
  8
0
  6
CONTINUOUS
 62
     7
 10
658.3536995812
 20
427.4571075228
 30
0.0
  0
SEQEND
  5
A10
  8
0
  6
CONTINUOUS
 62
     7
  0
LINE
  5
41A
  8
0
  6
CONTINUOUS
 62
     7
 10
659.6520973607
 20
450.5251518574
 30
0.0
 11
659.7021056576
 21
450.5251518574
 31
0.0
  0
LINE
  5
41B
  8
0
  6
CONTINUOUS
 62
     7
 10
659.7021056576
 20
470.0610510197
 30
0.0
 11
659.6520973607
 21
470.0610510197
 31
0.0
  0
LINE
  5
41C
  8
0
  6
CONTINUOUS
 62
     7
 10
659.7021056576
 20
470.0610510197
 30
0.0
 11
659.7021056576
 21
450.5251518574
 31
0.0
  0
LINE
  5
41D
  8
0
  6
CONTINUOUS
 62
     7
 10
659.7021056576
 20
471.0610502523
 30
0.0
 11
659.7021056576
 21
470.0610510197
 31
0.0
  0
LINE
  5
41E
  8
0
  6
CONTINUOUS
 62
     7
 10
659.7021056576
 20
450.5251518574
 30
0.0
 11
659.7021056576
 21
449.5251526248
 31
0.0
  0
LINE
  5
41F
  8
0
  6
CONTINUOUS
 62
     7
 10
659.7520990534
 20
469.1950253334
 30
0.0
 11
659.7520990534
 21
451.3911775437
 31
0.0
  0
LINE
  5
420
  8
0
  6
CONTINUOUS
 62
     7
 10
659.7520990534
 20
451.3911775437
 30
0.0
 11
659.7021056576
 21
451.3911775437
 31
0.0
  0
LINE
  5
421
  8
0
  6
CONTINUOUS
 62
     7
 10
659.7520990534
 20
469.1950253334
 30
0.0
 11
659.7021056576
 21
469.1950253334
 31
0.0
  0
LINE
  5
422
  8
0
  6
CONTINUOUS
 62
     7
 10
650.8663578196
 20
494.9931002345
 30
0.0
 11
620.1972870393
 21
494.9931002345
 31
0.0
  0
POLYLINE
  5
423
  8
0
  6
CONTINUOUS
 62
     7
 66
     1
 10
0.0
 20
0.0
 30
0.0
 70
   128
  0
VERTEX
  5
8A7
  8
0
  6
CONTINUOUS
 62
     7
 10
652.8158767386
 20
489.2931006041
 30
0.0
  0
VERTEX
  5
8A8
  8
0
  6
CONTINUOUS
 62
     7
 10
652.7784152194
 20
490.405116522
 30
0.0
  0
VERTEX
  5
8A9
  8
0
  6
CONTINUOUS
 62
     7
 10
652.6674760743
 20
491.4743977722
 30
0.0
  0
VERTEX
  5
8AA
  8
0
  6
CONTINUOUS
 62
     7
 10
652.4873210354
 20
492.4598506775
 30
0.0
  0
VERTEX
  5
8AB
  8
0
  6
CONTINUOUS
 62
     7
 10
652.2448791428
 20
493.3236113873
 30
0.0
  0
VERTEX
  5
8AC
  8
0
  6
CONTINUOUS
 62
     7
 10
651.949448721
 20
494.0324782517
 30
0.0
  0
VERTEX
  5
8AD
  8
0
  6
CONTINUOUS
 62
     7
 10
651.6124142571
 20
494.5592156735
 30
0.0
  0
VERTEX
  5
8AE
  8
0
  6
CONTINUOUS
 62
     7
 10
651.2466950579
 20
494.8835766998
 30
0.0
  0
VERTEX
  5
8AF
  8
0
  6
CONTINUOUS
 62
     7
 10
650.8663578196
 20
494.9931002345
 30
0.0
  0
SEQEND
  5
A11
  8
0
  6
CONTINUOUS
 62
     7
  0
LINE
  5
424
  8
0
  6
CONTINUOUS
 62
     7
 10
652.8158767386
 20
430.2931021091
 30
0.0
 11
652.8158767386
 21
489.2931006041
 31
0.0
  0
POLYLINE
  5
425
  8
0
  6
CONTINUOUS
 62
     7
 66
     1
 10
0.0
 20
0.0
 30
0.0
 70
   128
  0
VERTEX
  5
8B0
  8
0
  6
CONTINUOUS
 62
     7
 10
650.8663578196
 20
424.593100616
 30
0.0
  0
VERTEX
  5
8B1
  8
0
  6
CONTINUOUS
 62
     7
 10
651.2466950579
 20
424.7026241508
 30
0.0
  0
VERTEX
  5
8B2
  8
0
  6
CONTINUOUS
 62
     7
 10
651.6124142571
 20
425.0269889024
 30
0.0
  0
VERTEX
  5
8B3
  8
0
  6
CONTINUOUS
 62
     7
 10
651.949448721
 20
425.5537263241
 30
0.0
  0
VERTEX
  5
8B4
  8
0
  6
CONTINUOUS
 62
     7
 10
652.2448791428
 20
426.2625931886
 30
0.0
  0
VERTEX
  5
8B5
  8
0
  6
CONTINUOUS
 62
     7
 10
652.4873210354
 20
427.126350173
 30
0.0
  0
VERTEX
  5
8B6
  8
0
  6
CONTINUOUS
 62
     7
 10
652.6674760743
 20
428.111804941
 30
0.0
  0
VERTEX
  5
8B7
  8
0
  6
CONTINUOUS
 62
     7
 10
652.7784152194
 20
429.1810861912
 30
0.0
  0
VERTEX
  5
8B8
  8
0
  6
CONTINUOUS
 62
     7
 10
652.8158767386
 20
430.2931021091
 30
0.0
  0
SEQEND
  5
A12
  8
0
  6
CONTINUOUS
 62
     7
  0
LINE
  5
426
  8
0
  6
CONTINUOUS
 62
     7
 10
620.1972870393
 20
424.593100616
 30
0.0
 11
650.8663578196
 21
424.593100616
 31
0.0
  0
LINE
  5
427
  8
0
  6
CONTINUOUS
 62
     7
 10
620.1972870393
 20
425.7931023028
 30
0.0
 11
650.8663578196
 21
425.7931023028
 31
0.0
  0
POLYLINE
  5
428
  8
0
  6
CONTINUOUS
 62
     7
 66
     1
 10
0.0
 20
0.0
 30
0.0
 70
   128
  0
VERTEX
  5
8B9
  8
0
  6
CONTINUOUS
 62
     7
 10
652.4054540558
 20
430.2931021091
 30
0.0
  0
VERTEX
  5
8BA
  8
0
  6
CONTINUOUS
 62
     7
 10
652.3758752509
 20
429.4151946094
 30
0.0
  0
VERTEX
  5
8BB
  8
0
  6
CONTINUOUS
 62
     7
 10
652.2883011265
 20
428.5710252014
 30
0.0
  0
VERTEX
  5
8BC
  8
0
  6
CONTINUOUS
 62
     7
 10
652.1460695429
 20
427.7930355754
 30
0.0
  0
VERTEX
  5
8BD
  8
0
  6
CONTINUOUS
 62
     7
 10
651.9546641274
 20
427.1111211863
 30
0.0
  0
VERTEX
  5
8BE
  8
0
  6
CONTINUOUS
 62
     7
 10
651.7214311524
 20
426.5514894512
 30
0.0
  0
VERTEX
  5
8BF
  8
0
  6
CONTINUOUS
 62
     7
 10
651.455341117
 20
426.1356427458
 30
0.0
  0
VERTEX
  5
8C0
  8
0
  6
CONTINUOUS
 62
     7
 10
651.1666311188
 20
425.8795662907
 30
0.0
  0
VERTEX
  5
8C1
  8
0
  6
CONTINUOUS
 62
     7
 10
650.8663578196
 20
425.7931023028
 30
0.0
  0
SEQEND
  5
A13
  8
0
  6
CONTINUOUS
 62
     7
  0
LINE
  5
429
  8
0
  6
CONTINUOUS
 62
     7
 10
652.4054540558
 20
430.2931021091
 30
0.0
 11
652.4054540558
 21
489.2931006041
 31
0.0
  0
POLYLINE
  5
42A
  8
0
  6
CONTINUOUS
 62
     7
 66
     1
 10
0.0
 20
0.0
 30
0.0
 70
   128
  0
VERTEX
  5
8C2
  8
0
  6
CONTINUOUS
 62
     7
 10
650.8663578196
 20
493.793102273
 30
0.0
  0
VERTEX
  5
8C3
  8
0
  6
CONTINUOUS
 62
     7
 10
651.1666311188
 20
493.7066345599
 30
0.0
  0
VERTEX
  5
8C4
  8
0
  6
CONTINUOUS
 62
     7
 10
651.455341117
 20
493.4505581048
 30
0.0
  0
VERTEX
  5
8C5
  8
0
  6
CONTINUOUS
 62
     7
 10
651.7214311524
 20
493.0347151246
 30
0.0
  0
VERTEX
  5
8C6
  8
0
  6
CONTINUOUS
 62
     7
 10
651.9546641274
 20
492.4750833896
 30
0.0
  0
VERTEX
  5
8C7
  8
0
  6
CONTINUOUS
 62
     7
 10
652.1460695429
 20
491.7931690004
 30
0.0
  0
VERTEX
  5
8C8
  8
0
  6
CONTINUOUS
 62
     7
 10
652.2883011265
 20
491.0151775118
 30
0.0
  0
VERTEX
  5
8C9
  8
0
  6
CONTINUOUS
 62
     7
 10
652.3758752509
 20
490.1710081038
 30
0.0
  0
VERTEX
  5
8CA
  8
0
  6
CONTINUOUS
 62
     7
 10
652.4054540558
 20
489.2931006041
 30
0.0
  0
SEQEND
  5
A14
  8
0
  6
CONTINUOUS
 62
     7
  0
LINE
  5
42B
  8
0
  6
CONTINUOUS
 62
     7
 10
650.8663578196
 20
493.793102273
 30
0.0
 11
620.1972870393
 21
493.793102273
 31
0.0
  0
LINE
  5
42C
  8
0
  6
CONTINUOUS
 62
     7
 10
650.8663578196
 20
494.9931002345
 30
0.0
 11
654.9070460959
 21
494.9931002345
 31
0.0
  0
POLYLINE
  5
42D
  8
0
  6
CONTINUOUS
 62
     7
 66
     1
 10
0.0
 20
0.0
 30
0.0
 70
   128
  0
VERTEX
  5
8CB
  8
0
  6
CONTINUOUS
 62
     7
 10
656.8565501137
 20
489.2931006041
 30
0.0
  0
VERTEX
  5
8CC
  8
0
  6
CONTINUOUS
 62
     7
 10
656.8190885945
 20
490.405116522
 30
0.0
  0
VERTEX
  5
8CD
  8
0
  6
CONTINUOUS
 62
     7
 10
656.7081643506
 20
491.4743977722
 30
0.0
  0
VERTEX
  5
8CE
  8
0
  6
CONTINUOUS
 62
     7
 10
656.5280093117
 20
492.4598506775
 30
0.0
  0
VERTEX
  5
8CF
  8
0
  6
CONTINUOUS
 62
     7
 10
656.2855525179
 20
493.3236113873
 30
0.0
  0
VERTEX
  5
8D0
  8
0
  6
CONTINUOUS
 62
     7
 10
655.9901369973
 20
494.0324782517
 30
0.0
  0
VERTEX
  5
8D1
  8
0
  6
CONTINUOUS
 62
     7
 10
655.6530876322
 20
494.5592156735
 30
0.0
  0
VERTEX
  5
8D2
  8
0
  6
CONTINUOUS
 62
     7
 10
655.287368433
 20
494.8835766998
 30
0.0
  0
VERTEX
  5
8D3
  8
0
  6
CONTINUOUS
 62
     7
 10
654.9070460959
 20
494.9931002345
 30
0.0
  0
SEQEND
  5
A15
  8
0
  6
CONTINUOUS
 62
     7
  0
LINE
  5
42E
  8
0
  6
CONTINUOUS
 62
     7
 10
656.8565501137
 20
489.2931006041
 30
0.0
 11
652.8158767386
 21
489.2931006041
 31
0.0
  0
LINE
  5
42F
  8
0
  6
CONTINUOUS
 62
     7
 10
656.8565501137
 20
430.2931021091
 30
0.0
 11
656.8565501137
 21
489.2931006041
 31
0.0
  0
LINE
  5
430
  8
0
  6
CONTINUOUS
 62
     7
 10
652.8158767386
 20
430.2931021091
 30
0.0
 11
656.8565501137
 21
430.2931021091
 31
0.0
  0
POLYLINE
  5
431
  8
0
  6
CONTINUOUS
 62
     7
 66
     1
 10
0.0
 20
0.0
 30
0.0
 70
   128
  0
VERTEX
  5
8D4
  8
0
  6
CONTINUOUS
 62
     7
 10
654.9070460959
 20
424.593100616
 30
0.0
  0
VERTEX
  5
8D5
  8
0
  6
CONTINUOUS
 62
     7
 10
655.287368433
 20
424.7026241508
 30
0.0
  0
VERTEX
  5
8D6
  8
0
  6
CONTINUOUS
 62
     7
 10
655.6530876322
 20
425.0269889024
 30
0.0
  0
VERTEX
  5
8D7
  8
0
  6
CONTINUOUS
 62
     7
 10
655.9901369973
 20
425.5537263241
 30
0.0
  0
VERTEX
  5
8D8
  8
0
  6
CONTINUOUS
 62
     7
 10
656.2855525179
 20
426.2625931886
 30
0.0
  0
VERTEX
  5
8D9
  8
0
  6
CONTINUOUS
 62
     7
 10
656.5280093117
 20
427.126350173
 30
0.0
  0
VERTEX
  5
8DA
  8
0
  6
CONTINUOUS
 62
     7
 10
656.7081643506
 20
428.111804941
 30
0.0
  0
VERTEX
  5
8DB
  8
0
  6
CONTINUOUS
 62
     7
 10
656.8190885945
 20
429.1810861912
 30
0.0
  0
VERTEX
  5
8DC
  8
0
  6
CONTINUOUS
 62
     7
 10
656.8565501137
 20
430.2931021091
 30
0.0
  0
SEQEND
  5
A16
  8
0
  6
CONTINUOUS
 62
     7
  0
LINE
  5
432
  8
0
  6
CONTINUOUS
 62
     7
 10
654.9070460959
 20
424.593100616
 30
0.0
 11
650.8663578196
 21
424.593100616
 31
0.0
  0
ARC
  5
433
  8
0
  6
CONTINUOUS
 62
     7
 10
623.4256185936
 20
493.3077142104
 30
0.0
 40
0.4856376981789555
 50
358.2756964771
 51
88.1628135742
  0
ARC
  5
434
  8
0
  6
CONTINUOUS
 62
     7
 10
623.425624622
 20
426.2784845917
 30
0.0
 40
0.48563173412174
 50
271.8364973843
 51
1.7245665013
  0
LINE
  5
435
  8
0
  6
CONTINUOUS
 62
     7
 10
658.3361460133
 20
439.0931020614
 30
0.0
 11
658.3361460133
 21
480.4931006518
 31
0.0
  0
ARC
  5
436
  8
0
  6
CONTINUOUS
 62
     7
 10
657.6521016306
 20
483.4931014386
 30
0.0
 40
2.0
 50
0.0
 51
77.6654072805
  0
LINE
  5
437
  8
0
  6
CONTINUOUS
 62
     7
 10
659.6520973607
 20
483.4931011435
 30
0.0
 11
659.6520973607
 21
480.4931006518
 31
0.0
  0
LINE
  5
438
  8
0
  6
CONTINUOUS
 62
     7
 10
658.3361460133
 20
480.4931006518
 30
0.0
 11
659.6520973607
 21
480.4931006518
 31
0.0
  0
LINE
  5
439
  8
0
  6
CONTINUOUS
 62
     7
 10
659.6520973607
 20
480.4931006518
 30
0.0
 11
659.6520973607
 21
439.0931020614
 31
0.0
  0
LINE
  5
43A
  8
0
  6
CONTINUOUS
 62
     7
 10
658.3361460133
 20
439.0931020614
 30
0.0
 11
659.6520973607
 21
439.0931020614
 31
0.0
  0
LINE
  5
43B
  8
0
  6
CONTINUOUS
 62
     7
 10
659.6520973607
 20
439.0931020614
 30
0.0
 11
659.6520973607
 21
436.0931015697
 31
0.0
  0
ARC
  5
43C
  8
0
  6
CONTINUOUS
 62
     7
 10
657.6521016306
 20
436.0931014386
 30
0.0
 40
2.0
 50
309.7655702553
 51
0.0
  0
POLYLINE
  5
43D
  8
0
  6
CONTINUOUS
 62
     7
 66
     1
 10
0.0
 20
0.0
 30
0.0
 70
   128
  0
VERTEX
  5
8DD
  8
0
  6
CONTINUOUS
 62
     7
 10
623.5321371122
 20
431.7931014237
 30
0.0
  0
VERTEX
  5
8DE
  8
0
  6
CONTINUOUS
 62
     7
 10
623.4137473865
 20
431.8153823849
 30
0.0
  0
VERTEX
  5
8DF
  8
0
  6
CONTINUOUS
 62
     7
 10
623.2973097129
 20
431.8818583277
 30
0.0
  0
VERTEX
  5
8E0
  8
0
  6
CONTINUOUS
 62
     7
 10
623.1847463413
 20
431.9914321539
 30
0.0
  0
VERTEX
  5
8E1
  8
0
  6
CONTINUOUS
 62
     7
 10
623.0779199167
 20
432.1422952351
 30
0.0
  0
VERTEX
  5
8E2
  8
0
  6
CONTINUOUS
 62
     7
 10
622.9785887762
 20
432.3319572147
 30
0.0
  0
VERTEX
  5
8E3
  8
0
  6
CONTINUOUS
 62
     7
 10
622.8883920475
 20
432.557288849
 30
0.0
  0
VERTEX
  5
8E4
  8
0
  6
CONTINUOUS
 62
     7
 10
622.8088198467
 20
432.8145685729
 30
0.0
  0
VERTEX
  5
8E5
  8
0
  6
CONTINUOUS
 62
     7
 10
622.7411909266
 20
433.0995532807
 30
0.0
  0
SEQEND
  5
A17
  8
0
  6
CONTINUOUS
 62
     7
  0
LINE
  5
43E
  8
0
  6
CONTINUOUS
 62
     7
 10
650.204045908
 20
431.7931014237
 30
0.0
 11
623.5321371122
 21
431.7931014237
 31
0.0
  0
ARC
  5
43F
  8
0
  6
CONTINUOUS
 62
     7
 10
655.3146548974
 20
432.5755015978
 30
0.0
 40
3.530997411065045
 50
148.054635151
 51
168.2741860229
  0
LINE
  5
440
  8
0
  6
CONTINUOUS
 62
     7
 10
652.4054540558
 20
434.5842882183
 30
0.0
 11
652.3184163733
 21
434.4437888947
 31
0.0
  0
LINE
  5
441
  8
0
  6
CONTINUOUS
 62
     7
 10
652.3184163733
 20
486.1424139824
 30
0.0
 11
652.4054540558
 21
486.0019146588
 31
0.0
  0
ARC
  5
442
  8
0
  6
CONTINUOUS
 62
     7
 10
655.3146548974
 20
488.0107012793
 30
0.0
 40
3.530997411065291
 50
191.7258139771
 51
211.945364849
  0
LINE
  5
443
  8
0
  6
CONTINUOUS
 62
     7
 10
623.5321371122
 20
488.7931014535
 30
0.0
 11
650.204045908
 21
488.7931014535
 31
0.0
  0
POLYLINE
  5
444
  8
0
  6
CONTINUOUS
 62
     7
 66
     1
 10
0.0
 20
0.0
 30
0.0
 70
   128
  0
VERTEX
  5
8E6
  8
0
  6
CONTINUOUS
 62
     7
 10
622.7411909266
 20
487.4866495964
 30
0.0
  0
VERTEX
  5
8E7
  8
0
  6
CONTINUOUS
 62
     7
 10
622.8088198467
 20
487.7716343042
 30
0.0
  0
VERTEX
  5
8E8
  8
0
  6
CONTINUOUS
 62
     7
 10
622.8883920475
 20
488.0289140281
 30
0.0
  0
VERTEX
  5
8E9
  8
0
  6
CONTINUOUS
 62
     7
 10
622.9785887762
 20
488.2542456624
 30
0.0
  0
VERTEX
  5
8EA
  8
0
  6
CONTINUOUS
 62
     7
 10
623.0779199167
 20
488.443907642
 30
0.0
  0
VERTEX
  5
8EB
  8
0
  6
CONTINUOUS
 62
     7
 10
623.1847463413
 20
488.5947707233
 30
0.0
  0
VERTEX
  5
8EC
  8
0
  6
CONTINUOUS
 62
     7
 10
623.2973097129
 20
488.7043445495
 30
0.0
  0
VERTEX
  5
8ED
  8
0
  6
CONTINUOUS
 62
     7
 10
623.4137473865
 20
488.7708204922
 30
0.0
  0
VERTEX
  5
8EE
  8
0
  6
CONTINUOUS
 62
     7
 10
623.5321371122
 20
488.7931014535
 30
0.0
  0
SEQEND
  5
A18
  8
0
  6
CONTINUOUS
 62
     7
  0
ARC
  5
445
  8
0
  6
CONTINUOUS
 62
     7
 10
619.0741810376
 20
488.09494068
 30
0.0
 40
3.717119794712259
 50
328.3129413867
 51
350.5814240857
  0
LINE
  5
446
  8
0
  6
CONTINUOUS
 62
     7
 10
622.1453530951
 20
485.993100622
 30
0.0
 11
622.2371889515
 21
486.1424139824
 31
0.0
  0
LINE
  5
447
  8
0
  6
CONTINUOUS
 62
     7
 10
622.2371889515
 20
434.4437888947
 30
0.0
 11
622.1453530951
 21
434.5931022551
 31
0.0
  0
ARC
  5
448
  8
0
  6
CONTINUOUS
 62
     7
 10
619.0741810376
 20
432.4912621971
 30
0.0
 40
3.717119794712461
 50
9.4185759143
 51
31.6870586133
  0
POLYLINE
  5
449
  8
0
  6
CONTINUOUS
 62
     7
 66
     1
 10
0.0
 20
0.0
 30
0.0
 70
   128
  0
VERTEX
  5
8EF
  8
0
  6
CONTINUOUS
 62
     7
 10
620.656280057
 20
429.2931019452
 30
0.0
  0
VERTEX
  5
8F0
  8
0
  6
CONTINUOUS
 62
     7
 10
620.6917373701
 20
429.126391479
 30
0.0
  0
VERTEX
  5
8F1
  8
0
  6
CONTINUOUS
 62
     7
 10
620.8193360134
 20
428.6717794028
 30
0.0
  0
VERTEX
  5
8F2
  8
0
  6
CONTINUOUS
 62
     7
 10
620.9748221798
 20
428.2986915794
 30
0.0
  0
VERTEX
  5
8F3
  8
0
  6
CONTINUOUS
 62
     7
 10
621.1522205039
 20
428.0214629259
 30
0.0
  0
VERTEX
  5
8F4
  8
0
  6
CONTINUOUS
 62
     7
 10
621.344698803
 20
427.8507440474
 30
0.0
  0
VERTEX
  5
8F5
  8
0
  6
CONTINUOUS
 62
     7
 10
621.5448735519
 20
427.7931026306
 30
0.0
  0
SEQEND
  5
A19
  8
0
  6
CONTINUOUS
 62
     7
  0
LINE
  5
44A
  8
0
  6
CONTINUOUS
 62
     7
 10
620.5188093944
 20
433.2931007382
 30
0.0
 11
620.5188093944
 21
434.5931022551
 31
0.0
  0
LINE
  5
44B
  8
0
  6
CONTINUOUS
 62
     7
 10
620.5188093944
 20
485.993100622
 30
0.0
 11
620.5188093944
 21
487.2931021389
 31
0.0
  0
POLYLINE
  5
44C
  8
0
  6
CONTINUOUS
 62
     7
 66
     1
 10
0.0
 20
0.0
 30
0.0
 70
   128
  0
VERTEX
  5
8F6
  8
0
  6
CONTINUOUS
 62
     7
 10
621.5448735519
 20
492.7931002465
 30
0.0
  0
VERTEX
  5
8F7
  8
0
  6
CONTINUOUS
 62
     7
 10
621.344698803
 20
492.7354588297
 30
0.0
  0
VERTEX
  5
8F8
  8
0
  6
CONTINUOUS
 62
     7
 10
621.1522205039
 20
492.5647399512
 30
0.0
  0
VERTEX
  5
8F9
  8
0
  6
CONTINUOUS
 62
     7
 10
620.9748221798
 20
492.2875112977
 30
0.0
  0
VERTEX
  5
8FA
  8
0
  6
CONTINUOUS
 62
     7
 10
620.8193360134
 20
491.9144234743
 30
0.0
  0
VERTEX
  5
8FB
  8
0
  6
CONTINUOUS
 62
     7
 10
620.6917373701
 20
491.4598113981
 30
0.0
  0
VERTEX
  5
8FC
  8
0
  6
CONTINUOUS
 62
     7
 10
620.656280057
 20
491.2931009319
 30
0.0
  0
SEQEND
  5
A1A
  8
0
  6
CONTINUOUS
 62
     7
  0
LINE
  5
44D
  8
0
  6
CONTINUOUS
 62
     7
 10
621.5448735519
 20
492.7931002465
 30
0.0
 11
651.8337412043
 21
492.7931002465
 31
0.0
  0
LINE
  5
44E
  8
0
  6
CONTINUOUS
 62
     7
 10
652.1460844441
 20
427.7931026306
 30
0.0
 11
621.5448735519
 21
427.7931026306
 31
0.0
  0
POLYLINE
  5
44F
  8
0
  6
CONTINUOUS
 62
     7
 66
     1
 10
0.0
 20
0.0
 30
0.0
 70
   128
  0
VERTEX
  5
8FD
  8
0
  6
CONTINUOUS
 62
     7
 10
622.3999245329
 20
489.2931006041
 30
0.0
  0
VERTEX
  5
8FE
  8
0
  6
CONTINUOUS
 62
     7
 10
622.3478524251
 20
488.5277341243
 30
0.0
  0
VERTEX
  5
8FF
  8
0
  6
CONTINUOUS
 62
     7
 10
622.1995709701
 20
487.8788872745
 30
0.0
  0
VERTEX
  5
900
  8
0
  6
CONTINUOUS
 62
     7
 10
621.977655427
 20
487.4453417149
 30
0.0
  0
VERTEX
  5
901
  8
0
  6
CONTINUOUS
 62
     7
 10
621.7158867283
 20
487.2931021389
 30
0.0
  0
SEQEND
  5
A1B
  8
0
  6
CONTINUOUS
 62
     7
  0
POLYLINE
  5
450
  8
0
  6
CONTINUOUS
 62
     7
 66
     1
 10
0.0
 20
0.0
 30
0.0
 70
   128
  0
VERTEX
  5
902
  8
0
  6
CONTINUOUS
 62
     7
 10
621.7158867283
 20
491.2931009319
 30
0.0
  0
VERTEX
  5
903
  8
0
  6
CONTINUOUS
 62
     7
 10
621.977655427
 20
491.1408613559
 30
0.0
  0
VERTEX
  5
904
  8
0
  6
CONTINUOUS
 62
     7
 10
622.1995709701
 20
490.7073157963
 30
0.0
  0
VERTEX
  5
905
  8
0
  6
CONTINUOUS
 62
     7
 10
622.3478524251
 20
490.0584689465
 30
0.0
  0
VERTEX
  5
906
  8
0
  6
CONTINUOUS
 62
     7
 10
622.3999245329
 20
489.2931006041
 30
0.0
  0
SEQEND
  5
A1C
  8
0
  6
CONTINUOUS
 62
     7
  0
POLYLINE
  5
451
  8
0
  6
CONTINUOUS
 62
     7
 66
     1
 10
0.0
 20
0.0
 30
0.0
 70
   128
  0
VERTEX
  5
907
  8
0
  6
CONTINUOUS
 62
     7
 10
622.3999245329
 20
431.293102273
 30
0.0
  0
VERTEX
  5
908
  8
0
  6
CONTINUOUS
 62
     7
 10
622.3478524251
 20
430.5277339306
 30
0.0
  0
VERTEX
  5
909
  8
0
  6
CONTINUOUS
 62
     7
 10
622.1995709701
 20
429.8788870808
 30
0.0
  0
VERTEX
  5
90A
  8
0
  6
CONTINUOUS
 62
     7
 10
621.977655427
 20
429.4453415212
 30
0.0
  0
VERTEX
  5
90B
  8
0
  6
CONTINUOUS
 62
     7
 10
621.7158867283
 20
429.2931019452
 30
0.0
  0
SEQEND
  5
A1D
  8
0
  6
CONTINUOUS
 62
     7
  0
POLYLINE
  5
452
  8
0
  6
CONTINUOUS
 62
     7
 66
     1
 10
0.0
 20
0.0
 30
0.0
 70
   128
  0
VERTEX
  5
90C
  8
0
  6
CONTINUOUS
 62
     7
 10
621.7158867283
 20
433.2931007382
 30
0.0
  0
VERTEX
  5
90D
  8
0
  6
CONTINUOUS
 62
     7
 10
621.977655427
 20
433.1408611622
 30
0.0
  0
VERTEX
  5
90E
  8
0
  6
CONTINUOUS
 62
     7
 10
622.1995709701
 20
432.7073156026
 30
0.0
  0
VERTEX
  5
90F
  8
0
  6
CONTINUOUS
 62
     7
 10
622.3478524251
 20
432.0584687528
 30
0.0
  0
VERTEX
  5
910
  8
0
  6
CONTINUOUS
 62
     7
 10
622.3999245329
 20
431.293102273
 30
0.0
  0
SEQEND
  5
A1E
  8
0
  6
CONTINUOUS
 62
     7
  0
LINE
  5
453
  8
0
  6
CONTINUOUS
 62
     7
 10
624.5546473427
 20
486.9931007859
 30
0.0
 11
649.6428383751
 21
486.9931007859
 31
0.0
  0
LINE
  5
454
  8
0
  6
CONTINUOUS
 62
     7
 10
649.6428383751
 20
433.5931020912
 30
0.0
 11
624.5546473427
 21
433.5931020912
 31
0.0
  0
POLYLINE
  5
455
  8
0
  6
CONTINUOUS
 62
     7
 66
     1
 10
0.0
 20
0.0
 30
0.0
 70
   128
  0
VERTEX
  5
911
  8
0
  6
CONTINUOUS
 62
     7
 10
651.8266631527
 20
439.5931012121
 30
0.0
  0
VERTEX
  5
912
  8
0
  6
CONTINUOUS
 62
     7
 10
651.7847014828
 20
438.4225591209
 30
0.0
  0
VERTEX
  5
913
  8
0
  6
CONTINUOUS
 62
     7
 10
651.6604257985
 20
437.2970017728
 30
0.0
  0
VERTEX
  5
914
  8
0
  6
CONTINUOUS
 62
     7
 10
651.4586193724
 20
436.259679788
 30
0.0
  0
VERTEX
  5
915
  8
0
  6
CONTINUOUS
 62
     7
 10
651.1870308085
 20
435.3504612234
 30
0.0
  0
VERTEX
  5
916
  8
0
  6
CONTINUOUS
 62
     7
 10
650.8561058207
 20
434.604283714
 30
0.0
  0
VERTEX
  5
917
  8
0
  6
CONTINUOUS
 62
     7
 10
650.4785550995
 20
434.0498245445
 30
0.0
  0
VERTEX
  5
918
  8
0
  6
CONTINUOUS
 62
     7
 10
650.0688774748
 20
433.7083905127
 30
0.0
  0
VERTEX
  5
919
  8
0
  6
CONTINUOUS
 62
     7
 10
649.6428383751
 20
433.5931020912
 30
0.0
  0
SEQEND
  5
A1F
  8
0
  6
CONTINUOUS
 62
     7
  0
LINE
  5
456
  8
0
  6
CONTINUOUS
 62
     7
 10
651.8266631527
 20
480.9931016651
 30
0.0
 11
651.8266631527
 21
439.5931012121
 31
0.0
  0
POLYLINE
  5
457
  8
0
  6
CONTINUOUS
 62
     7
 66
     1
 10
0.0
 20
0.0
 30
0.0
 70
   128
  0
VERTEX
  5
91A
  8
0
  6
CONTINUOUS
 62
     7
 10
649.6428383751
 20
486.9931007859
 30
0.0
  0
VERTEX
  5
91B
  8
0
  6
CONTINUOUS
 62
     7
 10
650.0688774748
 20
486.8778123644
 30
0.0
  0
VERTEX
  5
91C
  8
0
  6
CONTINUOUS
 62
     7
 10
650.4785550995
 20
486.5363783326
 30
0.0
  0
VERTEX
  5
91D
  8
0
  6
CONTINUOUS
 62
     7
 10
650.8561058207
 20
485.9819191631
 30
0.0
  0
VERTEX
  5
91E
  8
0
  6
CONTINUOUS
 62
     7
 10
651.1870308085
 20
485.2357416537
 30
0.0
  0
VERTEX
  5
91F
  8
0
  6
CONTINUOUS
 62
     7
 10
651.4586193724
 20
484.3265230891
 30
0.0
  0
VERTEX
  5
920
  8
0
  6
CONTINUOUS
 62
     7
 10
651.6604257985
 20
483.2892011043
 30
0.0
  0
VERTEX
  5
921
  8
0
  6
CONTINUOUS
 62
     7
 10
651.7847014828
 20
482.1636437562
 30
0.0
  0
VERTEX
  5
922
  8
0
  6
CONTINUOUS
 62
     7
 10
651.8266631527
 20
480.9931016651
 30
0.0
  0
SEQEND
  5
A20
  8
0
  6
CONTINUOUS
 62
     7
  0
POLYLINE
  5
458
  8
0
  6
CONTINUOUS
 62
     7
 66
     1
 10
0.0
 20
0.0
 30
0.0
 70
   128
  0
VERTEX
  5
923
  8
0
  6
CONTINUOUS
 62
     7
 10
651.4353139563
 20
487.2931021389
 30
0.0
  0
VERTEX
  5
924
  8
0
  6
CONTINUOUS
 62
     7
 10
651.4788849516
 20
487.1499559965
 30
0.0
  0
VERTEX
  5
925
  8
0
  6
CONTINUOUS
 62
     7
 10
651.5214724703
 20
486.9705199387
 30
0.0
  0
SEQEND
  5
A21
  8
0
  6
CONTINUOUS
 62
     7
  0
ARC
  5
459
  8
0
  6
CONTINUOUS
 62
     7
 10
656.2360209526
 20
487.752515339
 30
0.0
 40
4.778962669577769
 50
189.4178245935
 51
211.6871738056
  0
ARC
  5
45A
  8
0
  6
CONTINUOUS
 62
     7
 10
650.6810751866
 20
484.3165328861
 30
0.0
 40
1.752766944716695
 50
10.3259834566
 51
31.8789822001
  0
ARC
  5
45B
  8
0
  6
CONTINUOUS
 62
     7
 10
650.6810751866
 20
436.2696699911
 30
0.0
 40
1.752766944716494
 50
328.1210177999
 51
349.6740165434
  0
ARC
  5
45C
  8
0
  6
CONTINUOUS
 62
     7
 10
656.2360209526
 20
432.8336875382
 30
0.0
 40
4.778962669577836
 50
148.3128261944
 51
170.5821754065
  0
POLYLINE
  5
45D
  8
0
  6
CONTINUOUS
 62
     7
 66
     1
 10
0.0
 20
0.0
 30
0.0
 70
   128
  0
VERTEX
  5
926
  8
0
  6
CONTINUOUS
 62
     7
 10
651.5214724703
 20
433.6156829384
 30
0.0
  0
VERTEX
  5
927
  8
0
  6
CONTINUOUS
 62
     7
 10
651.4788849516
 20
433.4362468806
 30
0.0
  0
VERTEX
  5
928
  8
0
  6
CONTINUOUS
 62
     7
 10
651.4353139563
 20
433.2931007382
 30
0.0
  0
SEQEND
  5
A22
  8
0
  6
CONTINUOUS
 62
     7
  0
LINE
  5
45E
  8
0
  6
CONTINUOUS
 62
     7
 10
650.4139138623
 20
432.7931015876
 30
0.0
 11
623.5321371122
 21
432.7931015876
 31
0.0
  0
POLYLINE
  5
45F
  8
0
  6
CONTINUOUS
 62
     7
 66
     1
 10
0.0
 20
0.0
 30
0.0
 70
   128
  0
VERTEX
  5
929
  8
0
  6
CONTINUOUS
 62
     7
 10
623.5321371122
 20
432.7931015876
 30
0.0
  0
VERTEX
  5
92A
  8
0
  6
CONTINUOUS
 62
     7
 10
623.4575940533
 20
432.8071310308
 30
0.0
  0
VERTEX
  5
92B
  8
0
  6
CONTINUOUS
 62
     7
 10
623.3842803402
 20
432.84898653
 30
0.0
  0
VERTEX
  5
92C
  8
0
  6
CONTINUOUS
 62
     7
 10
623.3134104176
 20
432.9179770437
 30
0.0
  0
VERTEX
  5
92D
  8
0
  6
CONTINUOUS
 62
     7
 10
623.246146576
 20
433.0129644957
 30
0.0
  0
VERTEX
  5
92E
  8
0
  6
CONTINUOUS
 62
     7
 10
623.1836064024
 20
433.1323805389
 30
0.0
  0
VERTEX
  5
92F
  8
0
  6
CONTINUOUS
 62
     7
 10
623.1268180771
 20
433.2742563572
 30
0.0
  0
VERTEX
  5
930
  8
0
  6
CONTINUOUS
 62
     7
 10
623.0767129226
 20
433.4362468806
 30
0.0
  0
VERTEX
  5
931
  8
0
  6
CONTINUOUS
 62
     7
 10
623.0341328545
 20
433.6156829384
 30
0.0
  0
SEQEND
  5
A23
  8
0
  6
CONTINUOUS
 62
     7
  0
ARC
  5
460
  8
0
  6
CONTINUOUS
 62
     7
 10
616.3533095216
 20
432.283915381
 30
0.0
 40
6.812268728714841
 50
11.2736679927
 51
19.8144206915
  0
ARC
  5
461
  8
0
  6
CONTINUOUS
 62
     7
 10
616.3533095216
 20
488.3022874961
 30
0.0
 40
6.81226872871486
 50
340.1855793085
 51
348.7263320073
  0
POLYLINE
  5
462
  8
0
  6
CONTINUOUS
 62
     7
 66
     1
 10
0.0
 20
0.0
 30
0.0
 70
   128
  0
VERTEX
  5
932
  8
0
  6
CONTINUOUS
 62
     7
 10
623.0341328545
 20
486.9705199387
 30
0.0
  0
VERTEX
  5
933
  8
0
  6
CONTINUOUS
 62
     7
 10
623.0767129226
 20
487.1499559965
 30
0.0
  0
VERTEX
  5
934
  8
0
  6
CONTINUOUS
 62
     7
 10
623.1268180771
 20
487.3119465199
 30
0.0
  0
VERTEX
  5
935
  8
0
  6
CONTINUOUS
 62
     7
 10
623.1836064024
 20
487.4538223383
 30
0.0
  0
VERTEX
  5
936
  8
0
  6
CONTINUOUS
 62
     7
 10
623.246146576
 20
487.5732383814
 30
0.0
  0
VERTEX
  5
937
  8
0
  6
CONTINUOUS
 62
     7
 10
623.3134104176
 20
487.6682258335
 30
0.0
  0
VERTEX
  5
938
  8
0
  6
CONTINUOUS
 62
     7
 10
623.3842803402
 20
487.7372163471
 30
0.0
  0
VERTEX
  5
939
  8
0
  6
CONTINUOUS
 62
     7
 10
623.4575940533
 20
487.7790718463
 30
0.0
  0
VERTEX
  5
93A
  8
0
  6
CONTINUOUS
 62
     7
 10
623.5321371122
 20
487.7931012895
 30
0.0
  0
SEQEND
  5
A24
  8
0
  6
CONTINUOUS
 62
     7
  0
LINE
  5
463
  8
0
  6
CONTINUOUS
 62
     7
 10
623.5321371122
 20
487.7931012895
 30
0.0
 11
650.4139138623
 21
487.7931012895
 31
0.0
  0
LINE
  5
464
  8
0
  6
CONTINUOUS
 62
     7
 10
651.8266631527
 20
480.9931016651
 30
0.0
 11
650.8869661255
 21
480.9931016651
 31
0.0
  0
POLYLINE
  5
465
  8
0
  6
CONTINUOUS
 62
     7
 66
     1
 10
0.0
 20
0.0
 30
0.0
 70
   128
  0
VERTEX
  5
93B
  8
0
  6
CONTINUOUS
 62
     7
 10
650.8869661255
 20
480.9931016651
 30
0.0
  0
VERTEX
  5
93C
  8
0
  6
CONTINUOUS
 62
     7
 10
650.8450044556
 20
481.9685521659
 30
0.0
  0
VERTEX
  5
93D
  8
0
  6
CONTINUOUS
 62
     7
 10
650.7207287713
 20
482.9065187958
 30
0.0
  0
VERTEX
  5
93E
  8
0
  6
CONTINUOUS
 62
     7
 10
650.5189223452
 20
483.7709519204
 30
0.0
  0
VERTEX
  5
93F
  8
0
  6
CONTINUOUS
 62
     7
 10
650.2473337813
 20
484.5286349889
 30
0.0
  0
VERTEX
  5
940
  8
0
  6
CONTINUOUS
 62
     7
 10
649.9164087935
 20
485.1504492697
 30
0.0
  0
VERTEX
  5
941
  8
0
  6
CONTINUOUS
 62
     7
 10
649.5388580723
 20
485.6124988881
 30
0.0
  0
VERTEX
  5
942
  8
0
  6
CONTINUOUS
 62
     7
 10
649.1291953488
 20
485.8970272478
 30
0.0
  0
VERTEX
  5
943
  8
0
  6
CONTINUOUS
 62
     7
 10
648.7031413479
 20
485.993100622
 30
0.0
  0
SEQEND
  5
A25
  8
0
  6
CONTINUOUS
 62
     7
  0
ARC
  5
466
  8
0
  6
CONTINUOUS
 62
     7
 10
648.6720315538
 20
486.9638496593
 30
0.0
 40
0.9712474003851734
 50
271.8355414251
 51
1.7258420081
  0
LINE
  5
467
  8
0
  6
CONTINUOUS
 62
     7
 10
651.8266631527
 20
439.5931012121
 30
0.0
 11
650.8869661255
 21
439.5931012121
 31
0.0
  0
LINE
  5
468
  8
0
  6
CONTINUOUS
 62
     7
 10
650.8869661255
 20
439.5931012121
 30
0.0
 11
650.8869661255
 21
480.9931016651
 31
0.0
  0
ARC
  5
469
  8
0
  6
CONTINUOUS
 62
     7
 10
648.6720315538
 20
433.6223532178
 30
0.0
 40
0.971247400385116
 50
358.2741579919
 51
88.1644585749
  0
POLYLINE
  5
46A
  8
0
  6
CONTINUOUS
 62
     7
 66
     1
 10
0.0
 20
0.0
 30
0.0
 70
   128
  0
VERTEX
  5
944
  8
0
  6
CONTINUOUS
 62
     7
 10
648.7031413479
 20
434.5931022551
 30
0.0
  0
VERTEX
  5
945
  8
0
  6
CONTINUOUS
 62
     7
 10
649.1291953488
 20
434.6891756293
 30
0.0
  0
VERTEX
  5
946
  8
0
  6
CONTINUOUS
 62
     7
 10
649.5388580723
 20
434.9737039891
 30
0.0
  0
VERTEX
  5
947
  8
0
  6
CONTINUOUS
 62
     7
 10
649.9164087935
 20
435.4357536074
 30
0.0
  0
VERTEX
  5
948
  8
0
  6
CONTINUOUS
 62
     7
 10
650.2473337813
 20
436.0575678882
 30
0.0
  0
VERTEX
  5
949
  8
0
  6
CONTINUOUS
 62
     7
 10
650.5189223452
 20
436.8152509567
 30
0.0
  0
VERTEX
  5
94A
  8
0
  6
CONTINUOUS
 62
     7
 10
650.7207287713
 20
437.6796840814
 30
0.0
  0
VERTEX
  5
94B
  8
0
  6
CONTINUOUS
 62
     7
 10
650.8450044556
 20
438.6176507112
 30
0.0
  0
VERTEX
  5
94C
  8
0
  6
CONTINUOUS
 62
     7
 10
650.8869661255
 20
439.5931012121
 30
0.0
  0
SEQEND
  5
A26
  8
0
  6
CONTINUOUS
 62
     7
  0
LINE
  5
46B
  8
0
  6
CONTINUOUS
 62
     7
 10
650.8869661255
 20
480.9931016651
 30
0.0
 11
620.3972904249
 21
480.9931016651
 31
0.0
  0
LINE
  5
46C
  8
0
  6
CONTINUOUS
 62
     7
 10
620.3972904249
 20
485.993100622
 30
0.0
 11
620.3972904249
 21
480.9931016651
 31
0.0
  0
LINE
  5
46D
  8
0
  6
CONTINUOUS
 62
     7
 10
620.3972904249
 20
485.993100622
 30
0.0
 11
648.7031413479
 21
485.993100622
 31
0.0
  0
LINE
  5
46E
  8
0
  6
CONTINUOUS
 62
     7
 10
620.3972904249
 20
480.9931016651
 30
0.0
 11
620.3972904249
 21
439.5931012121
 31
0.0
  0
LINE
  5
46F
  8
0
  6
CONTINUOUS
 62
     7
 10
620.3972904249
 20
439.5931012121
 30
0.0
 11
650.8869661255
 21
439.5931012121
 31
0.0
  0
CIRCLE
  5
470
  8
0
  6
CONTINUOUS
 62
     7
 10
635.3972896023
 20
460.2931014386
 30
0.0
 40
11.00000000000011
  0
LINE
  5
471
  8
0
  6
CONTINUOUS
 62
     7
 10
620.3972904249
 20
485.993100622
 30
0.0
 11
620.1972870393
 21
485.9830758658
 31
0.0
  0
LINE
  5
472
  8
0
  6
CONTINUOUS
 62
     7
 10
620.3972904249
 20
439.5931012121
 30
0.0
 11
620.3972904249
 21
434.5931022551
 31
0.0
  0
LINE
  5
473
  8
0
  6
CONTINUOUS
 62
     7
 10
620.1972870393
 20
434.6031270113
 30
0.0
 11
620.3972904249
 21
434.5931022551
 31
0.0
  0
LINE
  5
474
  8
0
  6
CONTINUOUS
 62
     7
 10
648.7031413479
 20
434.5931022551
 30
0.0
 11
620.3972904249
 21
434.5931022551
 31
0.0
  0
ARC
  5
475
  8
0
  6
CONTINUOUS
 62
     7
 10
624.1743651402
 20
488.3077278702
 30
0.0
 40
0.4856227342728497
 50
358.2741540717
 51
88.1645690108
  0
ARC
  5
476
  8
0
  6
CONTINUOUS
 62
     7
 10
624.1743632072
 20
488.2784767437
 30
0.0
 40
0.485624666122409
 50
271.8356518618
 51
1.7258380869
  0
ARC
  5
477
  8
0
  6
CONTINUOUS
 62
     7
 10
624.1743632072
 20
432.3077261335
 30
0.0
 40
0.4856246661223285
 50
358.274161913
 51
88.1643481382
  0
ARC
  5
478
  8
0
  6
CONTINUOUS
 62
     7
 10
624.1743651402
 20
432.2784750069
 30
0.0
 40
0.4856227342728497
 50
271.8354309892
 51
1.7258459283
  0
ARC
  5
479
  8
0
  6
CONTINUOUS
 62
     7
 10
623.5838401091
 20
486.9638498149
 30
0.0
 40
0.97124780779655
 50
271.8360047387
 51
1.7258321003
  0
ARC
  5
47A
  8
0
  6
CONTINUOUS
 62
     7
 10
623.5838401091
 20
433.6223530622
 30
0.0
 40
0.9712478077966068
 50
358.2741678997
 51
88.1639952613
  0
LINE
  5
47B
  8
0
  6
CONTINUOUS
 62
     7
 10
569.8675310476
 20
505.3316190031
 30
0.0
 11
566.2725327774
 21
511.5583448794
 31
0.0
  0
LINE
  5
47C
  8
0
  6
CONTINUOUS
 62
     7
 10
577.0575313135
 20
517.7850670305
 30
0.0
 11
580.6525295837
 21
511.5583448794
 31
0.0
  0
LINE
  5
47D
  8
0
  6
CONTINUOUS
 62
     7
 10
580.6525295837
 20
511.5583448794
 30
0.0
 11
577.0575313135
 21
505.3316190031
 31
0.0
  0
LINE
  5
47E
  8
0
  6
CONTINUOUS
 62
     7
 10
577.0575313135
 20
505.3316190031
 30
0.0
 11
569.8675310476
 21
505.3316190031
 31
0.0
  0
LINE
  5
47F
  8
0
  6
CONTINUOUS
 62
     7
 10
569.8675310476
 20
517.7850670305
 30
0.0
 11
577.0575313135
 21
517.7850670305
 31
0.0
  0
LINE
  5
480
  8
0
  6
CONTINUOUS
 62
     7
 10
566.2725327774
 20
511.5583448794
 30
0.0
 11
569.8675310476
 21
517.7850670305
 31
0.0
  0
ARC
  5
481
  8
0
  6
CONTINUOUS
 62
     7
 10
573.4625312384
 20
511.5583430746
 30
0.0
 40
7.18999999999996
 50
180.0
 51
240.0
  0
ARC
  5
482
  8
0
  6
CONTINUOUS
 62
     7
 10
573.4625312384
 20
511.5583430746
 30
0.0
 40
7.190000000000066
 50
60.0
 51
120.0
  0
ARC
  5
483
  8
0
  6
CONTINUOUS
 62
     7
 10
573.4625312384
 20
511.5583430746
 30
0.0
 40
7.190000000000009
 50
120.0
 51
180.0
  0
ARC
  5
484
  8
0
  6
CONTINUOUS
 62
     7
 10
573.4625312384
 20
511.5583430746
 30
0.0
 40
7.190000000000055
 50
300.0
 51
0.0
  0
ARC
  5
485
  8
0
  6
CONTINUOUS
 62
     7
 10
573.4625312384
 20
511.5583430746
 30
0.0
 40
7.190000000000017
 50
240.0
 51
300.0
  0
ARC
  5
486
  8
0
  6
CONTINUOUS
 62
     7
 10
573.4625312384
 20
511.5583430746
 30
0.0
 40
7.190000000000066
 50
0.0
 51
60.0
  0
LINE
  5
487
  8
0
  6
CONTINUOUS
 62
     7
 10
474.527048157
 20
402.8011358466
 30
0.0
 11
467.3370478912
 21
402.8011358466
 31
0.0
  0
LINE
  5
488
  8
0
  6
CONTINUOUS
 62
     7
 10
467.3370478912
 20
402.8011358466
 30
0.0
 11
463.7420496209
 21
409.0278579977
 31
0.0
  0
LINE
  5
489
  8
0
  6
CONTINUOUS
 62
     7
 10
463.7420496209
 20
409.0278579977
 30
0.0
 11
467.3370478912
 21
415.254583874
 31
0.0
  0
LINE
  5
48A
  8
0
  6
CONTINUOUS
 62
     7
 10
474.527048157
 20
415.254583874
 30
0.0
 11
478.1220464273
 21
409.0278579977
 31
0.0
  0
LINE
  5
48B
  8
0
  6
CONTINUOUS
 62
     7
 10
467.3370478912
 20
415.254583874
 30
0.0
 11
474.527048157
 21
415.254583874
 31
0.0
  0
LINE
  5
48C
  8
0
  6
CONTINUOUS
 62
     7
 10
478.1220464273
 20
409.0278579977
 30
0.0
 11
474.527048157
 21
402.8011358466
 31
0.0
  0
ARC
  5
48D
  8
0
  6
CONTINUOUS
 62
     7
 10
470.9320479663
 20
409.0278598025
 30
0.0
 40
7.190000000000038
 50
120.0
 51
180.0
  0
ARC
  5
48E
  8
0
  6
CONTINUOUS
 62
     7
 10
470.9320479663
 20
409.0278598025
 30
0.0
 40
7.189999999999998
 50
300.0
 51
0.0
  0
ARC
  5
48F
  8
0
  6
CONTINUOUS
 62
     7
 10
470.9320479663
 20
409.0278598025
 30
0.0
 40
7.189999999999998
 50
180.0
 51
240.0
  0
ARC
  5
490
  8
0
  6
CONTINUOUS
 62
     7
 10
470.9320479663
 20
409.0278598025
 30
0.0
 40
7.189999999999939
 50
240.0
 51
300.0
  0
ARC
  5
491
  8
0
  6
CONTINUOUS
 62
     7
 10
470.9320479663
 20
409.0278598025
 30
0.0
 40
7.190000000000038
 50
60.0
 51
120.0
  0
ARC
  5
492
  8
0
  6
CONTINUOUS
 62
     7
 10
470.9320479663
 20
409.0278598025
 30
0.0
 40
7.190000000000038
 50
0.0
 51
60.0
  0
LINE
  5
493
  8
0
  6
CONTINUOUS
 62
     7
 10
474.527048157
 20
505.3316190031
 30
0.0
 11
467.3370478912
 21
505.3316190031
 31
0.0
  0
LINE
  5
494
  8
0
  6
CONTINUOUS
 62
     7
 10
463.7420496209
 20
511.5583448794
 30
0.0
 11
467.3370478912
 21
517.7850670305
 31
0.0
  0
LINE
  5
495
  8
0
  6
CONTINUOUS
 62
     7
 10
474.527048157
 20
517.7850670305
 30
0.0
 11
478.1220464273
 21
511.5583448794
 31
0.0
  0
LINE
  5
496
  8
0
  6
CONTINUOUS
 62
     7
 10
478.1220464273
 20
511.5583448794
 30
0.0
 11
474.527048157
 21
505.3316190031
 31
0.0
  0
LINE
  5
497
  8
0
  6
CONTINUOUS
 62
     7
 10
467.3370478912
 20
517.7850670305
 30
0.0
 11
474.527048157
 21
517.7850670305
 31
0.0
  0
LINE
  5
498
  8
0
  6
CONTINUOUS
 62
     7
 10
467.3370478912
 20
505.3316190031
 30
0.0
 11
463.7420496209
 21
511.5583448794
 31
0.0
  0
ARC
  5
499
  8
0
  6
CONTINUOUS
 62
     7
 10
470.9320479663
 20
511.5583430746
 30
0.0
 40
7.189999999999988
 50
120.0
 51
180.0
  0
ARC
  5
49A
  8
0
  6
CONTINUOUS
 62
     7
 10
470.9320479663
 20
511.5583430746
 30
0.0
 40
7.190000000000055
 50
0.0
 51
60.0
  0
ARC
  5
49B
  8
0
  6
CONTINUOUS
 62
     7
 10
470.9320479663
 20
511.5583430746
 30
0.0
 40
7.189999999999988
 50
180.0
 51
240.0
  0
ARC
  5
49C
  8
0
  6
CONTINUOUS
 62
     7
 10
470.9320479663
 20
511.5583430746
 30
0.0
 40
7.190000000000045
 50
240.0
 51
300.0
  0
ARC
  5
49D
  8
0
  6
CONTINUOUS
 62
     7
 10
470.9320479663
 20
511.5583430746
 30
0.0
 40
7.190000000000055
 50
300.0
 51
0.0
  0
ARC
  5
49E
  8
0
  6
CONTINUOUS
 62
     7
 10
470.9320479663
 20
511.5583430746
 30
0.0
 40
7.190000000000045
 50
60.0
 51
120.0
  0
LINE
  5
49F
  8
0
  6
CONTINUOUS
 62
     7
 10
569.8675310476
 20
415.254583874
 30
0.0
 11
577.0575313135
 21
415.254583874
 31
0.0
  0
LINE
  5
4A0
  8
0
  6
CONTINUOUS
 62
     7
 10
577.0575313135
 20
415.254583874
 30
0.0
 11
580.6525295837
 21
409.0278579977
 31
0.0
  0
LINE
  5
4A1
  8
0
  6
CONTINUOUS
 62
     7
 10
569.8675310476
 20
402.8011358466
 30
0.0
 11
566.2725327774
 21
409.0278579977
 31
0.0
  0
LINE
  5
4A2
  8
0
  6
CONTINUOUS
 62
     7
 10
577.0575313135
 20
402.8011358466
 30
0.0
 11
569.8675310476
 21
402.8011358466
 31
0.0
  0
LINE
  5
4A3
  8
0
  6
CONTINUOUS
 62
     7
 10
566.2725327774
 20
409.0278579977
 30
0.0
 11
569.8675310476
 21
415.254583874
 31
0.0
  0
LINE
  5
4A4
  8
0
  6
CONTINUOUS
 62
     7
 10
580.6525295837
 20
409.0278579977
 30
0.0
 11
577.0575313135
 21
402.8011358466
 31
0.0
  0
ARC
  5
4A5
  8
0
  6
CONTINUOUS
 62
     7
 10
573.4625312384
 20
409.0278598025
 30
0.0
 40
7.190000000000017
 50
240.0
 51
300.0
  0
ARC
  5
4A6
  8
0
  6
CONTINUOUS
 62
     7
 10
573.4625312384
 20
409.0278598025
 30
0.0
 40
7.190000000000055
 50
180.0
 51
240.0
  0
ARC
  5
4A7
  8
0
  6
CONTINUOUS
 62
     7
 10
573.4625312384
 20
409.0278598025
 30
0.0
 40
7.18999999999996
 50
300.0
 51
0.0
  0
ARC
  5
4A8
  8
0
  6
CONTINUOUS
 62
     7
 10
573.4625312384
 20
409.0278598025
 30
0.0
 40
7.18999999999996
 50
0.0
 51
60.0
  0
ARC
  5
4A9
  8
0
  6
CONTINUOUS
 62
     7
 10
573.4625312384
 20
409.0278598025
 30
0.0
 40
7.190000000000017
 50
60.0
 51
120.0
  0
ARC
  5
4AA
  8
0
  6
CONTINUOUS
 62
     7
 10
573.4625312384
 20
409.0278598025
 30
0.0
 40
7.190000000000055
 50
120.0
 51
180.0
  0
ARC
  5
4AB
  8
0
  6
CONTINUOUS
 62
     7
 10
522.1972896023
 20
499.2931025052
 30
0.0
 40
7.000000216066956
 50
359.9999978555
 51
180.0000021445
  0
ARC
  5
4AC
  8
0
  6
CONTINUOUS
 62
     7
 10
522.1972896023
 20
508.2930382041
 30
0.0
 40
7.000000216356233
 50
0.0005209963
 51
179.9994790037
  0
LINE
  5
4AD
  8
0
  6
CONTINUOUS
 62
     7
 10
515.1972893863
 20
508.2931018558
 30
0.0
 11
515.1972893863
 21
499.2931022432
 31
0.0
  0
LINE
  5
4AE
  8
0
  6
CONTINUOUS
 62
     7
 10
529.1972898184
 20
499.2931022432
 30
0.0
 11
529.1972898184
 21
508.2931018558
 31
0.0
  0
ARC
  5
4AF
  8
0
  6
CONTINUOUS
 62
     7
 10
534.1972896023
 20
494.2342269355
 30
0.0
 40
5.0
 50
180.0
 51
250.5287793655
  0
ARC
  5
4B0
  8
0
  6
CONTINUOUS
 62
     7
 10
522.1972896023
 20
460.2931014386
 30
0.0
 40
31.00000000000004
 50
349.4712206345
 51
70.5287793655
  0
ARC
  5
4B1
  8
0
  6
CONTINUOUS
 62
     7
 10
557.5911665157
 20
453.7148435355
 30
0.0
 40
5.000000000000066
 50
169.4712206345
 51
240.0
  0
LINE
  5
4B2
  8
0
  6
CONTINUOUS
 62
     7
 10
559.4722798331
 20
446.8552789774
 30
0.0
 11
555.0911670788
 21
449.3847166311
 31
0.0
  0
ARC
  5
4B3
  8
0
  6
CONTINUOUS
 62
     7
 10
555.9722804291
 20
440.7931008986
 30
0.0
 40
6.999999920529677
 50
240.0000007518
 51
60.0000052572
  0
LINE
  5
4B4
  8
0
  6
CONTINUOUS
 62
     7
 10
548.0911659314
 20
437.2603616801
 30
0.0
 11
552.4722805484
 21
434.730923095
 31
0.0
  0
ARC
  5
4B5
  8
0
  6
CONTINUOUS
 62
     7
 10
545.5911665157
 20
432.9302338447
 30
0.0
 40
5.000000000000032
 50
60.0
 51
130.5287793655
  0
ARC
  5
4B6
  8
0
  6
CONTINUOUS
 62
     7
 10
522.1972896023
 20
460.2931014386
 30
0.0
 40
31.0
 50
229.4712206345
 51
310.5287793655
  0
ARC
  5
4B7
  8
0
  6
CONTINUOUS
 62
     7
 10
498.8034126889
 20
432.9302338447
 30
0.0
 40
5.000000000000016
 50
49.4712206345
 51
120.0
  0
LINE
  5
4B8
  8
0
  6
CONTINUOUS
 62
     7
 10
491.9222986563
 20
434.730923095
 30
0.0
 11
496.3034132733
 21
437.2603616801
 31
0.0
  0
ARC
  5
4B9
  8
0
  6
CONTINUOUS
 62
     7
 10
488.4222987756
 20
440.7931008986
 30
0.0
 40
6.999999920529705
 50
119.9999947428
 51
299.9999992482
  0
LINE
  5
4BA
  8
0
  6
CONTINUOUS
 62
     7
 10
489.3034121259
 20
449.3847166311
 30
0.0
 11
484.9222993715
 21
446.8552789774
 31
0.0
  0
ARC
  5
4BB
  8
0
  6
CONTINUOUS
 62
     7
 10
486.8034126889
 20
453.7148435355
 30
0.0
 40
5.000000000000044
 50
300.0
 51
10.5287793655
  0
ARC
  5
4BC
  8
0
  6
CONTINUOUS
 62
     7
 10
522.1972896023
 20
460.2931014386
 30
0.0
 40
31.00000000000006
 50
109.4712206345
 51
190.5287793655
  0
ARC
  5
4BD
  8
0
  6
CONTINUOUS
 62
     7
 10
510.1972896023
 20
494.2342269355
 30
0.0
 40
5.0
 50
289.4712206345
 51
0.0
  0
CIRCLE
  5
4BE
  8
0
  6
CONTINUOUS
 62
     7
 10
522.1972896023
 20
499.2931014386
 30
0.0
 40
2.5
  0
CIRCLE
  5
4BF
  8
0
  6
CONTINUOUS
 62
     7
 10
555.9722803499
 20
440.7931014386
 30
0.0
 40
2.5
  0
CIRCLE
  5
4C0
  8
0
  6
CONTINUOUS
 62
     7
 10
488.4222988547
 20
440.7931014386
 30
0.0
 40
2.5
  0
LINE
  5
4C1
  8
0
  6
CONTINUOUS
 62
     7
 10
515.1972893863
 20
499.2931022432
 30
0.0
 11
515.1972893863
 21
494.2342250731
 31
0.0
  0
LINE
  5
4C2
  8
0
  6
CONTINUOUS
 62
     7
 10
529.1972898184
 20
494.2342250731
 30
0.0
 11
529.1972898184
 21
499.2931022432
 31
0.0
  0
ARC
  5
4C3
  8
0
  6
CONTINUOUS
 62
     7
 10
563.7664530099
 20
436.2931327717
 30
0.0
 40
6.999999920813929
 50
240.0005193503
 51
59.9994866587
  0
LINE
  5
4C4
  8
0
  6
CONTINUOUS
 62
     7
 10
560.2665079995
 20
430.2309232887
 30
0.0
 11
552.4722805484
 21
434.730923095
 31
0.0
  0
LINE
  5
4C5
  8
0
  6
CONTINUOUS
 62
     7
 10
559.4722798331
 20
446.8552789774
 30
0.0
 11
567.2665072842
 21
442.3552791711
 31
0.0
  0
LINE
  5
4C6
  8
0
  6
CONTINUOUS
 62
     7
 10
477.1280719204
 20
442.3552791711
 30
0.0
 11
484.9222993715
 21
446.8552789774
 31
0.0
  0
ARC
  5
4C7
  8
0
  6
CONTINUOUS
 62
     7
 10
480.6281250641
 20
436.2931321189
 30
0.0
 40
6.999999920802206
 50
120.0005026549
 51
299.9994913361
  0
LINE
  5
4C8
  8
0
  6
CONTINUOUS
 62
     7
 10
491.9222986563
 20
434.730923095
 30
0.0
 11
484.1280712052
 21
430.2309232887
 31
0.0
  0
CIRCLE
  5
4C9
  8
0
  6
CONTINUOUS
 62
     7
 10
555.9722803499
 20
440.7931014386
 30
0.0
 40
2.100000000000023
  0
CIRCLE
  5
4CA
  8
0
  6
CONTINUOUS
 62
     7
 10
522.1972896023
 20
499.2931014386
 30
0.0
 40
2.100000000000023
  0
CIRCLE
  5
4CB
  8
0
  6
CONTINUOUS
 62
     7
 10
488.4222988547
 20
440.7931014386
 30
0.0
 40
2.100000000000023
  0
ARC
  5
4CC
  8
0
  6
CONTINUOUS
 62
     7
 10
473.4192541298
 20
521.1593749851
 30
0.0
 40
2.000000000000012
 50
65.240102306
 51
128.708573461
  0
LINE
  5
4CD
  8
0
  6
CONTINUOUS
 62
     7
 10
484.8115800186
 20
518.1075244334
 30
0.0
 11
474.2568863793
 21
522.9755140033
 31
0.0
  0
ARC
  5
4CE
  8
0
  6
CONTINUOUS
 62
     7
 10
486.0680295047
 20
520.8317383971
 30
0.0
 40
2.999999999999977
 50
245.240102306
 51
300.8286141035
  0
ARC
  5
4CF
  8
0
  6
CONTINUOUS
 62
     7
 10
522.1972896023
 20
460.2931014386
 30
0.0
 40
67.50000000000011
 50
59.1713858965
 51
120.8286141035
  0
ARC
  5
4D0
  8
0
  6
CONTINUOUS
 62
     7
 10
558.3265496999
 20
520.8317383971
 30
0.0
 40
3.000000000000001
 50
239.1713858965
 51
294.759897694
  0
LINE
  5
4D1
  8
0
  6
CONTINUOUS
 62
     7
 10
570.1376928254
 20
522.9755140033
 30
0.0
 11
559.5829991861
 21
518.1075244334
 31
0.0
  0
ARC
  5
4D2
  8
0
  6
CONTINUOUS
 62
     7
 10
570.9753250749
 20
521.1593749851
 30
0.0
 40
2.000000000000029
 50
51.291426539
 51
114.759897694
  0
ARC
  5
4D3
  8
0
  6
CONTINUOUS
 62
     7
 10
522.1972896023
 20
460.2931014386
 30
0.0
 40
80.00000000000003
 50
38.708573461
 51
51.291426539
  0
ARC
  5
4D4
  8
0
  6
CONTINUOUS
 62
     7
 10
583.0635631488
 20
509.0711369111
 30
0.0
 40
2.000000000000029
 50
335.240102306
 51
38.708573461
  0
LINE
  5
4D5
  8
0
  6
CONTINUOUS
 62
     7
 10
580.0117125972
 20
497.6788110223
 30
0.0
 11
584.8797021671
 21
508.2335046616
 31
0.0
  0
ARC
  5
4D6
  8
0
  6
CONTINUOUS
 62
     7
 10
582.7359265609
 20
496.4223615362
 30
0.0
 40
2.999999999999963
 50
155.240102306
 51
210.8286141035
  0
ARC
  5
4D7
  8
0
  6
CONTINUOUS
 62
     7
 10
522.1972896023
 20
460.2931014386
 30
0.0
 40
67.49999999999997
 50
329.1713858965
 51
30.8286141035
  0
ARC
  5
4D8
  8
0
  6
CONTINUOUS
 62
     7
 10
582.7359265609
 20
424.163841341
 30
0.0
 40
3.00000000000009
 50
149.1713858965
 51
204.759897694
  0
LINE
  5
4D9
  8
0
  6
CONTINUOUS
 62
     7
 10
584.8797021671
 20
412.3526982155
 30
0.0
 11
580.0117125972
 21
422.9073918548
 31
0.0
  0
ARC
  5
4DA
  8
0
  6
CONTINUOUS
 62
     7
 10
583.0635631488
 20
411.515065966
 30
0.0
 40
2.000000000000012
 50
321.291426539
 51
24.759897694
  0
ARC
  5
4DB
  8
0
  6
CONTINUOUS
 62
     7
 10
522.1972896023
 20
460.2931014386
 30
0.0
 40
80.0
 50
308.708573461
 51
321.291426539
  0
ARC
  5
4DC
  8
0
  6
CONTINUOUS
 62
     7
 10
570.9753250749
 20
399.426827892
 30
0.0
 40
1.999999999999988
 50
245.240102306
 51
308.708573461
  0
LINE
  5
4DD
  8
0
  6
CONTINUOUS
 62
     7
 10
559.5829991861
 20
402.4786784437
 30
0.0
 11
570.1376928254
 21
397.6106888738
 31
0.0
  0
ARC
  5
4DE
  8
0
  6
CONTINUOUS
 62
     7
 10
558.3265496999
 20
399.75446448
 30
0.0
 40
3.000000000000012
 50
65.240102306
 51
120.8286141035
  0
ARC
  5
4DF
  8
0
  6
CONTINUOUS
 62
     7
 10
522.1972896023
 20
460.2931014386
 30
0.0
 40
67.50000000000003
 50
239.1713858965
 51
300.8286141035
  0
ARC
  5
4E0
  8
0
  6
CONTINUOUS
 62
     7
 10
486.0680295047
 20
399.75446448
 30
0.0
 40
3.000000000000005
 50
59.1713858965
 51
114.759897694
  0
LINE
  5
4E1
  8
0
  6
CONTINUOUS
 62
     7
 10
474.2568863793
 20
397.6106888738
 30
0.0
 11
484.8115800186
 21
402.4786784437
 31
0.0
  0
ARC
  5
4E2
  8
0
  6
CONTINUOUS
 62
     7
 10
473.4192541298
 20
399.426827892
 30
0.0
 40
2.000000000000012
 50
231.291426539
 51
294.759897694
  0
ARC
  5
4E3
  8
0
  6
CONTINUOUS
 62
     7
 10
522.1972896023
 20
460.2931014386
 30
0.0
 40
80.00000000000007
 50
218.708573461
 51
231.291426539
  0
ARC
  5
4E4
  8
0
  6
CONTINUOUS
 62
     7
 10
461.3310160558
 20
411.515065966
 30
0.0
 40
2.000000000000064
 50
155.240102306
 51
218.708573461
  0
LINE
  5
4E5
  8
0
  6
CONTINUOUS
 62
     7
 10
464.3828666075
 20
422.9073918548
 30
0.0
 11
459.5148770376
 21
412.3526982155
 31
0.0
  0
ARC
  5
4E6
  8
0
  6
CONTINUOUS
 62
     7
 10
461.6586526438
 20
424.163841341
 30
0.0
 40
3.000000000000057
 50
335.240102306
 51
30.8286141035
  0
ARC
  5
4E7
  8
0
  6
CONTINUOUS
 62
     7
 10
522.1972896023
 20
460.2931014386
 30
0.0
 40
67.50000000000004
 50
149.1713858965
 51
210.8286141035
  0
ARC
  5
4E8
  8
0
  6
CONTINUOUS
 62
     7
 10
461.6586526438
 20
496.4223615362
 30
0.0
 40
3.000000000000041
 50
329.1713858965
 51
24.759897694
  0
LINE
  5
4E9
  8
0
  6
CONTINUOUS
 62
     7
 10
459.5148770376
 20
508.2335046616
 30
0.0
 11
464.3828666075
 21
497.6788110223
 31
0.0
  0
ARC
  5
4EA
  8
0
  6
CONTINUOUS
 62
     7
 10
461.3310160558
 20
509.0711369111
 30
0.0
 40
2.000000000000063
 50
141.291426539
 51
204.759897694
  0
ARC
  5
4EB
  8
0
  6
CONTINUOUS
 62
     7
 10
522.1972896023
 20
460.2931014386
 30
0.0
 40
80.00000000000011
 50
128.708573461
 51
141.291426539
  0
ARC
  5
4EC
  8
0
  6
CONTINUOUS
 62
     7
 10
510.1972896023
 20
508.8317458366
 30
0.0
 40
5.000000000000625
 50
0.0
 51
103.8865403626
  0
ARC
  5
4ED
  8
0
  6
CONTINUOUS
 62
     7
 10
522.1972896023
 20
460.2931014386
 30
0.0
 40
55.00000000000009
 50
103.8865403626
 51
196.1134596374
  0
ARC
  5
4EE
  8
0
  6
CONTINUOUS
 62
     7
 10
474.1615904884
 20
446.4160840849
 30
0.0
 40
5.000000000000016
 50
196.1134596374
 51
300.0
  0
ARC
  5
4EF
  8
0
  6
CONTINUOUS
 62
     7
 10
486.1615904884
 20
425.6314743941
 30
0.0
 40
5.000000000000007
 50
120.0
 51
223.8865403626
  0
ARC
  5
4F0
  8
0
  6
CONTINUOUS
 62
     7
 10
522.1972896023
 20
460.2931014386
 30
0.0
 40
55.00000000000002
 50
223.8865403626
 51
316.1134596374
  0
ARC
  5
4F1
  8
0
  6
CONTINUOUS
 62
     7
 10
558.2329887163
 20
425.6314743941
 30
0.0
 40
4.999999999999959
 50
316.1134596374
 51
60.0
  0
ARC
  5
4F2
  8
0
  6
CONTINUOUS
 62
     7
 10
570.2329887163
 20
446.4160840849
 30
0.0
 40
4.999999999999973
 50
240.0
 51
343.8865403626
  0
ARC
  5
4F3
  8
0
  6
CONTINUOUS
 62
     7
 10
522.1972896023
 20
460.2931014386
 30
0.0
 40
55.00000000000002
 50
343.8865403626
 51
76.1134596374
  0
ARC
  5
4F4
  8
0
  6
CONTINUOUS
 62
     7
 10
534.1972896023
 20
508.8317458366
 30
0.0
 40
5.0
 50
76.1134596374
 51
180.0
  0
LINE
  5
4F5
  8
0
  6
CONTINUOUS
 62
     7
 10
476.6615910693
 20
442.0859574464
 30
0.0
 11
477.1280719204
 21
442.3552791711
 31
0.0
  0
LINE
  5
4F6
  8
0
  6
CONTINUOUS
 62
     7
 10
484.1280712052
 20
430.2309232887
 30
0.0
 11
483.661590354
 21
429.961601564
 31
0.0
  0
LINE
  5
4F7
  8
0
  6
CONTINUOUS
 62
     7
 10
560.7329888506
 20
429.961601564
 30
0.0
 11
560.2665079995
 21
430.2309232887
 31
0.0
  0
LINE
  5
4F8
  8
0
  6
CONTINUOUS
 62
     7
 10
567.2665072842
 20
442.3552791711
 30
0.0
 11
567.7329881354
 21
442.0859574464
 31
0.0
  0
LINE
  5
4F9
  8
0
  6
CONTINUOUS
 62
     7
 10
515.1972893863
 20
508.2931018558
 30
0.0
 11
515.1972893863
 21
508.8317453053
 31
0.0
  0
LINE
  5
4FA
  8
0
  6
CONTINUOUS
 62
     7
 10
529.1972898184
 20
508.8317453053
 30
0.0
 11
529.1972898184
 21
508.2931018558
 31
0.0
  0
CIRCLE
  5
4FB
  8
0
  6
CONTINUOUS
 62
     7
 10
522.1972896023
 20
460.2931014386
 30
0.0
 40
19.5
  0
LINE
  5
4FC
  8
0
  6
CONTINUOUS
 62
     7
 10
555.2464967831
 20
400.2931027797
 30
0.0
 11
553.8398234411
 21
400.2931027797
 31
0.0
  0
ARC
  5
4FD
  8
0
  6
CONTINUOUS
 62
     7
 10
553.8396878306
 20
397.2936843555
 30
0.0
 40
2.999418427205746
 50
89.9974095279
 51
116.671311187
  0
LINE
  5
4FE
  8
0
  6
CONTINUOUS
 62
     7
 10
489.1480824216
 20
520.2931000975
 30
0.0
 11
490.5547557636
 21
520.2931000975
 31
0.0
  0
ARC
  5
4FF
  8
0
  6
CONTINUOUS
 62
     7
 10
490.5548913741
 20
523.2925185216
 30
0.0
 40
2.999418427189726
 50
269.9974095278
 51
296.6713111871
  0
ARC
  5
500
  8
0
  6
CONTINUOUS
 62
     7
 10
553.8396878306
 20
523.2925185216
 30
0.0
 40
2.999418427206543
 50
243.328688813
 51
270.0025904721
  0
LINE
  5
501
  8
0
  6
CONTINUOUS
 62
     7
 10
553.8398234411
 20
520.2931000975
 30
0.0
 11
555.2464967831
 21
520.2931000975
 31
0.0
  0
ARC
  5
502
  8
0
  6
CONTINUOUS
 62
     7
 10
490.5548913741
 20
397.2936843555
 30
0.0
 40
2.999418427189034
 50
63.3286888129
 51
90.0025904722
  0
LINE
  5
503
  8
0
  6
CONTINUOUS
 62
     7
 10
490.5547557636
 20
400.2931027797
 30
0.0
 11
489.1480824216
 21
400.2931027797
 31
0.0
  0
LINE
  5
504
  8
0
  6
CONTINUOUS
 62
     7
 10
459.7703425451
 20
410.264348903
 30
0.0
 11
459.3798501654
 21
410.75554333
 31
0.0
  0
ARC
  5
505
  8
0
  6
CONTINUOUS
 62
     7
 10
460.1650705879
 20
411.3747633215
 30
0.0
 40
1.00000000000005
 50
155.240102306
 51
218.2591584039
  0
LINE
  5
506
  8
0
  6
CONTINUOUS
 62
     7
 10
459.256997542
 20
411.7935805705
 30
0.0
 11
459.5148770376
 21
412.3526982155
 31
0.0
  0
LINE
  5
507
  8
0
  6
CONTINUOUS
 62
     7
 10
489.1480824216
 20
400.2931027797
 30
0.0
 11
480.0728542967
 21
400.2931027797
 31
0.0
  0
ARC
  5
508
  8
0
  6
CONTINUOUS
 62
     7
 10
584.2295086168
 20
411.3747633215
 30
0.0
 40
1.000000000000094
 50
321.7408415961
 51
24.759897694
  0
LINE
  5
509
  8
0
  6
CONTINUOUS
 62
     7
 10
584.6242366596
 20
410.264348903
 30
0.0
 11
585.0147290392
 21
410.75554333
 31
0.0
  0
LINE
  5
50A
  8
0
  6
CONTINUOUS
 62
     7
 10
585.1375816627
 20
411.7935805705
 30
0.0
 11
584.8797021671
 21
412.3526982155
 31
0.0
  0
LINE
  5
50B
  8
0
  6
CONTINUOUS
 62
     7
 10
555.2464967831
 20
400.2931027797
 30
0.0
 11
564.3217249079
 21
400.2931027797
 31
0.0
  0
LINE
  5
50C
  8
0
  6
CONTINUOUS
 62
     7
 10
459.7703425451
 20
510.3218539741
 30
0.0
 11
459.3798501654
 21
509.8306595471
 31
0.0
  0
ARC
  5
50D
  8
0
  6
CONTINUOUS
 62
     7
 10
460.1650705879
 20
509.2114395557
 30
0.0
 40
1.000000000000014
 50
141.7408415961
 51
204.759897694
  0
LINE
  5
50E
  8
0
  6
CONTINUOUS
 62
     7
 10
459.256997542
 20
508.7926223066
 30
0.0
 11
459.5148770376
 21
508.2335046616
 31
0.0
  0
LINE
  5
50F
  8
0
  6
CONTINUOUS
 62
     7
 10
489.1480824216
 20
520.2931000975
 30
0.0
 11
480.0728542967
 21
520.2931000975
 31
0.0
  0
ARC
  5
510
  8
0
  6
CONTINUOUS
 62
     7
 10
584.2295086168
 20
509.2114395557
 30
0.0
 40
1.000000000000069
 50
335.240102306
 51
38.2591584039
  0
LINE
  5
511
  8
0
  6
CONTINUOUS
 62
     7
 10
584.6242366596
 20
510.3218539741
 30
0.0
 11
585.0147290392
 21
509.8306595471
 31
0.0
  0
LINE
  5
512
  8
0
  6
CONTINUOUS
 62
     7
 10
585.1375816627
 20
508.7926223066
 30
0.0
 11
584.8797021671
 21
508.2335046616
 31
0.0
  0
LINE
  5
513
  8
0
  6
CONTINUOUS
 62
     7
 10
555.2464967831
 20
520.2931000975
 30
0.0
 11
564.3217249079
 21
520.2931000975
 31
0.0
  0
ARC
  5
514
  8
0
  6
CONTINUOUS
 62
     7
 10
615.1059804227
 20
588.2567365478
 30
0.0
 40
128.3200747602809
 50
208.1021659918
 51
209.4733800617
  0
ARC
  5
515
  8
0
  6
CONTINUOUS
 62
     7
 10
522.1972896023
 20
460.2931014386
 30
0.0
 40
70.50000000000007
 50
73.279047548
 51
106.720952452
  0
ARC
  5
516
  8
0
  6
CONTINUOUS
 62
     7
 10
429.2885987618
 20
588.2567365588
 30
0.0
 40
128.3200747832666
 50
330.5266199384
 51
331.8978340081
  0
POLYLINE
  5
517
  8
0
  6
CONTINUOUS
 62
     7
 66
     1
 10
0.0
 20
0.0
 30
0.0
 70
   128
  0
VERTEX
  5
94D
  8
0
  6
CONTINUOUS
 62
     7
 10
524.3833360499
 20
389.827000269
 30
0.0
  0
VERTEX
  5
94E
  8
0
  6
CONTINUOUS
 62
     7
 10
524.3651880654
 20
390.4119900551
 30
0.0
  0
VERTEX
  5
94F
  8
0
  6
CONTINUOUS
 62
     7
 10
524.3477376415
 20
390.9745014396
 30
0.0
  0
VERTEX
  5
950
  8
0
  6
CONTINUOUS
 62
     7
 10
524.3316550976
 20
391.4929128375
 30
0.0
  0
VERTEX
  5
951
  8
0
  6
CONTINUOUS
 62
     7
 10
524.317558832
 20
391.9473013964
 30
0.0
  0
VERTEX
  5
952
  8
0
  6
CONTINUOUS
 62
     7
 10
524.3059901758
 20
392.3202104059
 30
0.0
  0
VERTEX
  5
953
  8
0
  6
CONTINUOUS
 62
     7
 10
524.2973938356
 20
392.5973049488
 30
0.0
  0
VERTEX
  5
954
  8
0
  6
CONTINUOUS
 62
     7
 10
524.2921001981
 20
392.7679455963
 30
0.0
  0
VERTEX
  5
955
  8
0
  6
CONTINUOUS
 62
     7
 10
524.2903127572
 20
392.825560936
 30
0.0
  0
SEQEND
  5
A27
  8
0
  6
CONTINUOUS
 62
     7
  0
POLYLINE
  5
518
  8
0
  6
CONTINUOUS
 62
     7
 66
     1
 10
0.0
 20
0.0
 30
0.0
 70
   128
  0
VERTEX
  5
956
  8
0
  6
CONTINUOUS
 62
     7
 10
520.0112431547
 20
389.827000269
 30
0.0
  0
VERTEX
  5
957
  8
0
  6
CONTINUOUS
 62
     7
 10
520.0293911392
 20
390.4119900551
 30
0.0
  0
VERTEX
  5
958
  8
0
  6
CONTINUOUS
 62
     7
 10
520.0468415632
 20
390.9745014396
 30
0.0
  0
VERTEX
  5
959
  8
0
  6
CONTINUOUS
 62
     7
 10
520.062924107
 20
391.4929128375
 30
0.0
  0
VERTEX
  5
95A
  8
0
  6
CONTINUOUS
 62
     7
 10
520.0770203727
 20
391.9473013964
 30
0.0
  0
VERTEX
  5
95B
  8
0
  6
CONTINUOUS
 62
     7
 10
520.0885890289
 20
392.3202104059
 30
0.0
  0
VERTEX
  5
95C
  8
0
  6
CONTINUOUS
 62
     7
 10
520.0971853691
 20
392.5973049488
 30
0.0
  0
VERTEX
  5
95D
  8
0
  6
CONTINUOUS
 62
     7
 10
520.1024790066
 20
392.7679455963
 30
0.0
  0
VERTEX
  5
95E
  8
0
  6
CONTINUOUS
 62
     7
 10
520.1042664474
 20
392.825560936
 30
0.0
  0
SEQEND
  5
A28
  8
0
  6
CONTINUOUS
 62
     7
  0
ARC
  5
519
  8
0
  6
CONTINUOUS
 62
     7
 10
522.1972896023
 20
460.2931014386
 30
0.0
 40
70.49999999999996
 50
268.223101862
 51
271.776898138
  0
CIRCLE
  5
51A
  8
0
  6
CONTINUOUS
 62
     7
 10
522.1972896023
 20
460.2931014386
 30
0.0
 40
85.00000000000006
  0
CIRCLE
  5
51B
  8
0
  6
CONTINUOUS
 62
     7
 10
598.2112685799
 20
384.279122461
 30
0.0
 40
6.0
  0
CIRCLE
  5
51C
  8
0
  6
CONTINUOUS
 62
     7
 10
446.1833106248
 20
384.279122461
 30
0.0
 40
6.000000000000057
  0
CIRCLE
  5
51D
  8
0
  6
CONTINUOUS
 62
     7
 10
598.2112685799
 20
536.3070804161
 30
0.0
 40
6.000000000000114
  0
CIRCLE
  5
51E
  8
0
  6
CONTINUOUS
 62
     7
 10
446.1833106248
 20
536.3070804161
 30
0.0
 40
6.000000000000057
  0
CIRCLE
  5
51F
  8
0
  6
CONTINUOUS
 62
     7
 10
466.5557668578
 20
549.338151535
 30
0.0
 40
3.999999999999943
  0
CIRCLE
  5
520
  8
0
  6
CONTINUOUS
 62
     7
 10
577.8388123468
 20
371.2480513421
 30
0.0
 40
4.0
  0
ARC
  5
521
  8
0
  6
CONTINUOUS
 62
     7
 10
522.1972896023
 20
460.2931014386
 30
0.0
 40
117.5
 50
33.483726477
 51
56.516273523
  0
LINE
  5
522
  8
0
  6
CONTINUOUS
 62
     7
 10
620.1972870393
 20
525.1178688493
 30
0.0
 11
620.1972870393
 21
395.4683340278
 31
0.0
  0
ARC
  5
523
  8
0
  6
CONTINUOUS
 62
     7
 10
522.1972896023
 20
460.2931014386
 30
0.0
 40
117.5
 50
303.483726477
 51
326.516273523
  0
LINE
  5
524
  8
0
  6
CONTINUOUS
 62
     7
 10
587.0220570131
 20
362.2931040016
 30
0.0
 11
457.3725221916
 21
362.2931040016
 31
0.0
  0
ARC
  5
525
  8
0
  6
CONTINUOUS
 62
     7
 10
522.1972896023
 20
460.2931014386
 30
0.0
 40
117.5
 50
213.483726477
 51
236.516273523
  0
LINE
  5
526
  8
0
  6
CONTINUOUS
 62
     7
 10
424.1972921653
 20
395.4683340278
 30
0.0
 11
424.1972921653
 21
525.1178688493
 31
0.0
  0
ARC
  5
527
  8
0
  6
CONTINUOUS
 62
     7
 10
522.1972896023
 20
460.2931014386
 30
0.0
 40
117.5000000000001
 50
123.483726477
 51
146.516273523
  0
LINE
  5
528
  8
0
  6
CONTINUOUS
 62
     7
 10
457.3725221916
 20
558.2930988756
 30
0.0
 11
480.1972901686
 21
558.2930988756
 31
0.0
  0
LINE
  5
529
  8
0
  6
CONTINUOUS
 62
     7
 10
497.1972892298
 20
575.2931035247
 30
0.0
 11
480.1972901686
 21
558.2930988756
 31
0.0
  0
LINE
  5
52A
  8
0
  6
CONTINUOUS
 62
     7
 10
497.1972892298
 20
575.2931035247
 30
0.0
 11
547.1972899749
 21
575.2931035247
 31
0.0
  0
LINE
  5
52B
  8
0
  6
CONTINUOUS
 62
     7
 10
564.1972890361
 20
558.2930988756
 30
0.0
 11
547.1972899749
 21
575.2931035247
 31
0.0
  0
LINE
  5
52C
  8
0
  6
CONTINUOUS
 62
     7
 10
564.1972890361
 20
558.2930988756
 30
0.0
 11
587.0220570131
 21
558.2930988756
 31
0.0
  0
POLYLINE
  5
52D
  8
0
  6
CONTINUOUS
 62
     7
 66
     1
 10
0.0
 20
0.0
 30
0.0
 70
   128
  0
VERTEX
  5
95F
  8
0
  6
CONTINUOUS
 62
     7
 10
657.9560620947
 20
493.2931012597
 30
0.0
  0
VERTEX
  5
960
  8
0
  6
CONTINUOUS
 62
     7
 10
658.1599546834
 20
493.2484238532
 30
0.0
  0
VERTEX
  5
961
  8
0
  6
CONTINUOUS
 62
     7
 10
658.5496498509
 20
492.8969762411
 30
0.0
  0
VERTEX
  5
962
  8
0
  6
CONTINUOUS
 62
     7
 10
658.8865800066
 20
492.2253101256
 30
0.0
  0
VERTEX
  5
963
  8
0
  6
CONTINUOUS
 62
     7
 10
659.1408534213
 20
491.2931009319
 30
0.0
  0
VERTEX
  5
964
  8
0
  6
CONTINUOUS
 62
     7
 10
659.2898352309
 20
490.1831860777
 30
0.0
  0
VERTEX
  5
965
  8
0
  6
CONTINUOUS
 62
     7
 10
659.3203081055
 20
488.9941814479
 30
0.0
  0
VERTEX
  5
966
  8
0
  6
CONTINUOUS
 62
     7
 10
659.2295600338
 20
487.8317381379
 30
0.0
  0
VERTEX
  5
967
  8
0
  6
CONTINUOUS
 62
     7
 10
659.0256674452
 20
486.7991416839
 30
0.0
  0
VERTEX
  5
968
  8
0
  6
CONTINUOUS
 62
     7
 10
658.7267203494
 20
485.9881459859
 30
0.0
  0
VERTEX
  5
969
  8
0
  6
CONTINUOUS
 62
     7
 10
658.3593024178
 20
485.4708093342
 30
0.0
  0
VERTEX
  5
96A
  8
0
  6
CONTINUOUS
 62
     7
 10
657.9560620947
 20
485.2931018111
 30
0.0
  0
VERTEX
  5
96B
  8
0
  6
CONTINUOUS
 62
     7
 10
657.9560620947
 20
485.2931018111
 30
0.0
  0
SEQEND
  5
A29
  8
0
  6
CONTINUOUS
 62
     7
  0
POLYLINE
  5
52E
  8
0
  6
CONTINUOUS
 62
     7
 66
     1
 10
0.0
 20
0.0
 30
0.0
 70
   128
  0
VERTEX
  5
96C
  8
0
  6
CONTINUOUS
 62
     7
 10
657.9938365384
 20
435.2915755597
 30
0.0
  0
VERTEX
  5
96D
  8
0
  6
CONTINUOUS
 62
     7
 10
658.1599546834
 20
435.2484255221
 30
0.0
  0
VERTEX
  5
96E
  8
0
  6
CONTINUOUS
 62
     7
 10
658.5496498509
 20
434.8969760474
 30
0.0
  0
VERTEX
  5
96F
  8
0
  6
CONTINUOUS
 62
     7
 10
658.8865800066
 20
434.2253080693
 30
0.0
  0
VERTEX
  5
970
  8
0
  6
CONTINUOUS
 62
     7
 10
659.1408534213
 20
433.2931007382
 30
0.0
  0
VERTEX
  5
971
  8
0
  6
CONTINUOUS
 62
     7
 10
659.2898352309
 20
432.183185884
 30
0.0
  0
VERTEX
  5
972
  8
0
  6
CONTINUOUS
 62
     7
 10
659.3203081055
 20
430.9941812542
 30
0.0
  0
VERTEX
  5
973
  8
0
  6
CONTINUOUS
 62
     7
 10
659.2295600338
 20
429.8317379442
 30
0.0
  0
VERTEX
  5
974
  8
0
  6
CONTINUOUS
 62
     7
 10
659.0256674452
 20
428.7991433528
 30
0.0
  0
VERTEX
  5
975
  8
0
  6
CONTINUOUS
 62
     7
 10
658.7267203494
 20
427.9881476548
 30
0.0
  0
VERTEX
  5
976
  8
0
  6
CONTINUOUS
 62
     7
 10
658.3593024178
 20
427.4708091405
 30
0.0
  0
VERTEX
  5
977
  8
0
  6
CONTINUOUS
 62
     7
 10
657.9560620947
 20
427.2931016174
 30
0.0
  0
SEQEND
  5
A2A
  8
0
  6
CONTINUOUS
 62
     7
  0
LINE
  5
52F
  8
0
  6
CONTINUOUS
 62
     7
 10
657.9751206799
 20
489.2931006041
 30
0.0
 11
656.8565501137
 21
489.2931006041
 31
0.0
  0
LINE
  5
530
  8
0
  6
CONTINUOUS
 62
     7
 10
657.9751206799
 20
430.2931021091
 30
0.0
 11
656.8565501137
 21
430.2931021091
 31
0.0
  0
ARC
  5
531
  8
0
  6
CONTINUOUS
 62
     7
 10
624.0638388906
 20
492.4020270033
 30
0.0
 40
0.9040807127743967
 50
99.7305090437
 51
154.3695782872
  0
LINE
  5
532
  8
0
  6
CONTINUOUS
 62
     7
 10
651.571450965
 20
493.2931012597
 30
0.0
 11
623.9110363884
 21
493.2931012597
 31
0.0
  0
LINE
  5
533
  8
0
  6
CONTINUOUS
 62
     7
 10
623.9110363884
 20
426.2930995908
 30
0.0
 11
651.571450965
 21
426.2930995908
 31
0.0
  0
POLYLINE
  5
534
  8
0
  6
CONTINUOUS
 62
     7
 66
     1
 10
0.0
 20
0.0
 30
0.0
 70
   128
  0
VERTEX
  5
978
  8
0
  6
CONTINUOUS
 62
     7
 10
622.8430776163
 20
427.7931026306
 30
0.0
  0
VERTEX
  5
979
  8
0
  6
CONTINUOUS
 62
     7
 10
622.9436530037
 20
427.4646735874
 30
0.0
  0
VERTEX
  5
97A
  8
0
  6
CONTINUOUS
 62
     7
 10
623.1509654089
 20
426.9672243979
 30
0.0
  0
VERTEX
  5
97B
  8
0
  6
CONTINUOUS
 62
     7
 10
623.3874915405
 20
426.5975824681
 30
0.0
  0
VERTEX
  5
97C
  8
0
  6
CONTINUOUS
 62
     7
 10
623.6441342397
 20
426.3699597803
 30
0.0
  0
VERTEX
  5
97D
  8
0
  6
CONTINUOUS
 62
     7
 10
623.9110363884
 20
426.2930995908
 30
0.0
  0
SEQEND
  5
A2B
  8
0
  6
CONTINUOUS
 62
     7
  0
ARC
  5
535
  8
0
  6
CONTINUOUS
 62
     7
 10
638.2017048198
 20
481.0623041618
 30
0.0
 40
20.14248531863727
 50
358.3806714795
 51
10.9850117105
  0
LINE
  5
536
  8
0
  6
CONTINUOUS
 62
     7
 10
658.3361460133
 20
480.4931006518
 30
0.0
 11
657.9751206799
 21
480.4931006518
 31
0.0
  0
LINE
  5
537
  8
0
  6
CONTINUOUS
 62
     7
 10
657.9751206799
 20
439.0931020614
 30
0.0
 11
658.3361460133
 21
439.0931020614
 31
0.0
  0
ARC
  5
538
  8
0
  6
CONTINUOUS
 62
     7
 10
633.5715534859
 20
438.7665229746
 30
0.0
 40
24.7667457883834
 50
351.6133696084
 51
0.7555350954
  0
ARC
  5
539
  8
0
  6
CONTINUOUS
 62
     7
 10
623.8456140781
 20
492.433952505
 30
0.0
 40
1.418043950548993
 50
106.5708068036
 51
165.3289117603
  0
POLYLINE
  5
53A
  8
0
  6
CONTINUOUS
 62
     7
 66
     1
 10
0.0
 20
0.0
 30
0.0
 70
   128
  0
VERTEX
  5
97E
  8
0
  6
CONTINUOUS
 62
     7
 10
623.4411878748
 20
425.7931023028
 30
0.0
  0
VERTEX
  5
97F
  8
0
  6
CONTINUOUS
 62
     7
 10
623.1409220262
 20
425.8795662907
 30
0.0
  0
VERTEX
  5
980
  8
0
  6
CONTINUOUS
 62
     7
 10
622.8522045775
 20
426.1356427458
 30
0.0
  0
VERTEX
  5
981
  8
0
  6
CONTINUOUS
 62
     7
 10
622.5861145421
 20
426.5514894512
 30
0.0
  0
VERTEX
  5
982
  8
0
  6
CONTINUOUS
 62
     7
 10
622.3528890176
 20
427.1111211863
 30
0.0
  0
VERTEX
  5
983
  8
0
  6
CONTINUOUS
 62
     7
 10
622.1614836021
 20
427.7930355754
 30
0.0
  0
VERTEX
  5
984
  8
0
  6
CONTINUOUS
 62
     7
 10
622.1614612504
 20
427.7931026306
 30
0.0
  0
SEQEND
  5
A2C
  8
0
  6
CONTINUOUS
 62
     7
  0
ARC
  5
53B
  8
0
  6
CONTINUOUS
 62
     7
 10
624.8431691117
 20
485.5224399584
 30
0.0
 40
1.498695459627676
 50
101.0996093125
 51
161.6967143712
  0
ARC
  5
53C
  8
0
  6
CONTINUOUS
 62
     7
 10
624.8431691117
 20
435.0637629187
 30
0.0
 40
1.498695459627787
 50
198.3032856288
 51
258.9003906875
  0
LINE
  5
53D
  8
0
  6
CONTINUOUS
 62
     7
 10
652.4054540558
 20
485.2422162083
 30
0.0
 11
652.169464366
 21
485.2422162083
 31
0.0
  0
LINE
  5
53E
  8
0
  6
CONTINUOUS
 62
     7
 10
652.4054540558
 20
435.3439866689
 30
0.0
 11
652.169464366
 21
435.3439866689
 31
0.0
  0
LINE
  5
53F
  8
0
  6
CONTINUOUS
 62
     7
 10
651.9442035122
 20
486.9705199387
 30
0.0
 11
651.5214724703
 21
486.9705199387
 31
0.0
  0
LINE
  5
540
  8
0
  6
CONTINUOUS
 62
     7
 10
651.9442035122
 20
433.6156829384
 30
0.0
 11
651.5214724703
 21
433.6156829384
 31
0.0
  0
LINE
  5
541
  8
0
  6
CONTINUOUS
 62
     7
 10
620.1972870393
 20
480.9931016651
 30
0.0
 11
620.3972904249
 21
480.9931016651
 31
0.0
  0
LINE
  5
542
  8
0
  6
CONTINUOUS
 62
     7
 10
620.1972870393
 20
439.5931012121
 30
0.0
 11
620.3972904249
 21
439.5931012121
 31
0.0
  0
LINE
  5
543
  8
0
  6
CONTINUOUS
 62
     7
 10
624.6597675844
 20
488.2931023028
 30
0.0
 11
650.2739621563
 21
488.2931023028
 31
0.0
  0
LINE
  5
544
  8
0
  6
CONTINUOUS
 62
     7
 10
650.2739621563
 20
432.2931005743
 30
0.0
 11
624.6597675844
 21
432.2931005743
 31
0.0
  0
POLYLINE
  5
545
  8
0
  6
CONTINUOUS
 62
     7
 66
     1
 10
0.0
 20
0.0
 30
0.0
 70
   128
  0
VERTEX
  5
985
  8
0
  6
CONTINUOUS
 62
     7
 10
623.4697906538
 20
487.7833000508
 30
0.0
  0
VERTEX
  5
986
  8
0
  6
CONTINUOUS
 62
     7
 10
623.546174006
 20
488.0289140281
 30
0.0
  0
VERTEX
  5
987
  8
0
  6
CONTINUOUS
 62
     7
 10
623.6363707347
 20
488.2542456624
 30
0.0
  0
VERTEX
  5
988
  8
0
  6
CONTINUOUS
 62
     7
 10
623.7357018753
 20
488.443907642
 30
0.0
  0
VERTEX
  5
989
  8
0
  6
CONTINUOUS
 62
     7
 10
623.8425282999
 20
488.5947707233
 30
0.0
  0
VERTEX
  5
98A
  8
0
  6
CONTINUOUS
 62
     7
 10
623.9550916715
 20
488.7043445495
 30
0.0
  0
VERTEX
  5
98B
  8
0
  6
CONTINUOUS
 62
     7
 10
624.0715293451
 20
488.7708204922
 30
0.0
  0
VERTEX
  5
98C
  8
0
  6
CONTINUOUS
 62
     7
 10
624.1899190708
 20
488.7931014535
 30
0.0
  0
SEQEND
  5
A2D
  8
0
  6
CONTINUOUS
 62
     7
  0
LINE
  5
546
  8
0
  6
CONTINUOUS
 62
     7
 10
623.1991259618
 20
487.4866495964
 30
0.0
 11
622.7411909266
 21
487.4866495964
 31
0.0
  0
LINE
  5
547
  8
0
  6
CONTINUOUS
 62
     7
 10
623.1991259618
 20
433.0995532807
 30
0.0
 11
622.7411909266
 21
433.0995532807
 31
0.0
  0
POLYLINE
  5
548
  8
0
  6
CONTINUOUS
 62
     7
 66
     1
 10
0.0
 20
0.0
 30
0.0
 70
   128
  0
VERTEX
  5
98D
  8
0
  6
CONTINUOUS
 62
     7
 10
624.1899190708
 20
431.7931014237
 30
0.0
  0
VERTEX
  5
98E
  8
0
  6
CONTINUOUS
 62
     7
 10
624.0715293451
 20
431.8153823849
 30
0.0
  0
VERTEX
  5
98F
  8
0
  6
CONTINUOUS
 62
     7
 10
623.9550916715
 20
431.8818583277
 30
0.0
  0
VERTEX
  5
990
  8
0
  6
CONTINUOUS
 62
     7
 10
623.8425282999
 20
431.9914321539
 30
0.0
  0
VERTEX
  5
991
  8
0
  6
CONTINUOUS
 62
     7
 10
623.7357018753
 20
432.1422952351
 30
0.0
  0
VERTEX
  5
992
  8
0
  6
CONTINUOUS
 62
     7
 10
623.6363707347
 20
432.3319572147
 30
0.0
  0
VERTEX
  5
993
  8
0
  6
CONTINUOUS
 62
     7
 10
623.546174006
 20
432.557288849
 30
0.0
  0
VERTEX
  5
994
  8
0
  6
CONTINUOUS
 62
     7
 10
623.4697906538
 20
432.8029028263
 30
0.0
  0
SEQEND
  5
A2E
  8
0
  6
CONTINUOUS
 62
     7
  0
ARC
  5
549
  8
0
  6
CONTINUOUS
 62
     7
 10
624.8586211713
 20
487.6281703712
 30
0.0
 40
0.6940296987109379
 50
106.6497447621
 51
165.0586541601
  0
ARC
  5
54A
  8
0
  6
CONTINUOUS
 62
     7
 10
624.8629901121
 20
432.9653263638
 30
0.0
 40
0.7022726734488705
 50
194.1959690984
 51
253.1792558632
  0
LINE
  5
54B
  8
0
  6
CONTINUOUS
 62
     7
 10
622.8147803112
 20
486.1424139824
 30
0.0
 11
622.2371889515
 21
486.1424139824
 31
0.0
  0
LINE
  5
54C
  8
0
  6
CONTINUOUS
 62
     7
 10
622.8147803112
 20
434.4437888947
 30
0.0
 11
622.2371889515
 21
434.4437888947
 31
0.0
  0
POLYLINE
  5
54D
  8
0
  6
CONTINUOUS
 62
     7
 66
     1
 10
0.0
 20
0.0
 30
0.0
 70
   128
  0
VERTEX
  5
995
  8
0
  6
CONTINUOUS
 62
     7
 10
559.1758771105
 20
402.6317282703
 30
0.0
  0
VERTEX
  5
996
  8
0
  6
CONTINUOUS
 62
     7
 10
558.9084534212
 20
402.4610987988
 30
0.0
  0
VERTEX
  5
997
  8
0
  6
CONTINUOUS
 62
     7
 10
555.2464967831
 20
400.2931027797
 30
0.0
  0
SEQEND
  5
A2F
  8
0
  6
CONTINUOUS
 62
     7
  0
POLYLINE
  5
54E
  8
0
  6
CONTINUOUS
 62
     7
 66
     1
 10
0.0
 20
0.0
 30
0.0
 70
   128
  0
VERTEX
  5
998
  8
0
  6
CONTINUOUS
 62
     7
 10
485.2187020941
 20
517.9544746068
 30
0.0
  0
VERTEX
  5
999
  8
0
  6
CONTINUOUS
 62
     7
 10
485.4861257835
 20
518.1251040783
 30
0.0
  0
VERTEX
  5
99A
  8
0
  6
CONTINUOUS
 62
     7
 10
489.1480824216
 20
520.2931000975
 30
0.0
  0
SEQEND
  5
A30
  8
0
  6
CONTINUOUS
 62
     7
  0
POLYLINE
  5
54F
  8
0
  6
CONTINUOUS
 62
     7
 66
     1
 10
0.0
 20
0.0
 30
0.0
 70
   128
  0
VERTEX
  5
99B
  8
0
  6
CONTINUOUS
 62
     7
 10
555.2464967831
 20
520.2931000975
 30
0.0
  0
VERTEX
  5
99C
  8
0
  6
CONTINUOUS
 62
     7
 10
558.9084534212
 20
518.1251040783
 30
0.0
  0
VERTEX
  5
99D
  8
0
  6
CONTINUOUS
 62
     7
 10
559.1758771105
 20
517.9544746068
 30
0.0
  0
SEQEND
  5
A31
  8
0
  6
CONTINUOUS
 62
     7
  0
POLYLINE
  5
550
  8
0
  6
CONTINUOUS
 62
     7
 66
     1
 10
0.0
 20
0.0
 30
0.0
 70
   128
  0
VERTEX
  5
99E
  8
0
  6
CONTINUOUS
 62
     7
 10
489.1480824216
 20
400.2931027797
 30
0.0
  0
VERTEX
  5
99F
  8
0
  6
CONTINUOUS
 62
     7
 10
485.4861257835
 20
402.4610987988
 30
0.0
  0
VERTEX
  5
9A0
  8
0
  6
CONTINUOUS
 62
     7
 10
485.2187020941
 20
402.6317282703
 30
0.0
  0
SEQEND
  5
A32
  8
0
  6
CONTINUOUS
 62
     7
  0
ARC
  5
551
  8
0
  6
CONTINUOUS
 62
     7
 10
510.1972896023
 20
517.7931014386
 30
0.0
 40
13.0
 50
129.5833975053
 51
153.9424697186
  0
ARC
  5
552
  8
0
  6
CONTINUOUS
 62
     7
 10
534.1972896023
 20
517.7931014386
 30
0.0
 40
12.99999999999989
 50
26.0575302814
 51
50.4166024947
  0
ARC
  5
553
  8
0
  6
CONTINUOUS
 62
     7
 10
524.1972896023
 20
395.8241166474
 30
0.0
 40
5.999999999999996
 50
271.776898138
 51
334.0591504484
  0
ARC
  5
554
  8
0
  6
CONTINUOUS
 62
     7
 10
520.1972896023
 20
395.8241166474
 30
0.0
 40
6.000000000000001
 50
205.9408495516
 51
268.223101862
  0
INSERT
  5
57C
  8
SLD-0
 62
    11
  2
SW_CENTERMARKSYMBOL_1
 10
446.1833106248
 20
536.3070804161
 30
0.0
  0
INSERT
  5
588
  8
SLD-0
 62
    11
  2
SW_CENTERMARKSYMBOL_2
 10
635.3972896023
 20
460.2931014386
 30
0.0
  0
ENDSEC
  0
EOF
