  0
SECTION
  2
HEADER
  9
$ACADVER
  1
AC1009
  9
$DWGCODEPAGE
  3
dos932
  9
$INSBASE
 10
0.0
 20
0.0
 30
0.0
  9
$EXTMIN
 10
0.0
 20
0.0
 30
0.0
  9
$EXTMAX
 10
1050.0
 20
1485.0
 30
0.0
  9
$LIMMIN
 10
0.0
 20
0.0
  9
$LIMMAX
 10
1050.0
 20
1485.0
  9
$ORTHOMODE
 70
     0
  9
$REGENMODE
 70
     1
  9
$FILLMODE
 70
     1
  9
$QTEXTMODE
 70
     0
  9
$MIRRTEXT
 70
     1
  9
$DRAGMODE
 70
     2
  9
$LTSCALE
 40
5.0
  9
$OSMODE
 70
    37
  9
$ATTMODE
 70
     1
  9
$TEXTSIZE
 40
17.5
  9
$TRACEWID
 40
1.0
  9
$TEXTSTYLE
  7
STANDARD
  9
$CLAYER
  8
0
  9
$CELTYPE
  6
BYLAYER
  9
$CECOLOR
 62
   256
  9
$DIMSCALE
 40
1.0
  9
$DIMASZ
 40
12.5
  9
$DIMEXO
 40
5.0
  9
$DIMDLI
 40
3.75
  9
$DIMRND
 40
0.0
  9
$DIMDLE
 40
0.0
  9
$DIMEXE
 40
5.0
  9
$DIMTP
 40
0.0
  9
$DIMTM
 40
0.0
  9
$DIMTXT
 40
17.5
  9
$DIMCEN
 40
2.5
  9
$DIMTSZ
 40
0.0
  9
$DIMTOL
 70
     0
  9
$DIMLIM
 70
     0
  9
$DIMTIH
 70
     1
  9
$DIMTOH
 70
     1
  9
$DIMSE1
 70
     0
  9
$DIMSE2
 70
     0
  9
$DIMTAD
 70
     1
  9
$DIMZIN
 70
     1
  9
$DIMBLK
  1

  9
$DIMASO
 70
     1
  9
$DIMSHO
 70
     1
  9
$DIMPOST
  1

  9
$DIMAPOST
  1

  9
$DIMALT
 70
     0
  9
$DIMALTD
 70
     3
  9
$DIMALTF
 40
0.0393700787
  9
$DIMLFAC
 40
1.0
  9
$DIMTOFL
 70
     1
  9
$DIMTVP
 40
0.0
  9
$DIMTIX
 70
     0
  9
$DIMSOXD
 70
     0
  9
$DIMSAH
 70
     0
  9
$DIMBLK1
  1

  9
$DIMBLK2
  1

  9
$DIMSTYLE
  2
ISO-25
  9
$DIMCLRD
 70
     0
  9
$DIMCLRE
 70
     0
  9
$DIMCLRT
 70
     0
  9
$DIMTFAC
 40
1.0
  9
$DIMGAP
 40
7.62
  9
$LUNITS
 70
     2
  9
$LUPREC
 70
     0
  9
$SKETCHINC
 40
1.0
  9
$FILLETRAD
 40
10.0
  9
$AUNITS
 70
     0
  9
$AUPREC
 70
     0
  9
$MENU
  1
.
  9
$ELEVATION
 40
0.0
  9
$PELEVATION
 40
0.0
  9
$THICKNESS
 40
0.0
  9
$LIMCHECK
 70
     0
  9
$CHAMFERA
 40
0.0
  9
$CHAMFERB
 40
0.0
  9
$SKPOLY
 70
     0
  9
$TDCREATE
 40
2458088.810263276
  9
$TDUPDATE
 40
2458088.810264363
  9
$TDINDWG
 40
0.0000000116
  9
$TDUSRTIMER
 40
0.0000000116
  9
$USRTIMER
 70
     1
  9
$ANGBASE
 50
0.0
  9
$ANGDIR
 70
     0
  9
$PDMODE
 70
     0
  9
$PDSIZE
 40
-1.0
  9
$PLINEWID
 40
0.0
  9
$COORDS
 70
     1
  9
$SPLFRAME
 70
     0
  9
$SPLINETYPE
 70
     6
  9
$SPLINESEGS
 70
     8
  9
$ATTDIA
 70
     0
  9
$ATTREQ
 70
     1
  9
$HANDLING
 70
     1
  9
$HANDSEED
  5
A2F
  9
$SURFTAB1
 70
     6
  9
$SURFTAB2
 70
     6
  9
$SURFTYPE
 70
     6
  9
$SURFU
 70
     6
  9
$SURFV
 70
     6
  9
$UCSNAME
  2

  9
$UCSORG
 10
0.0
 20
0.0
 30
0.0
  9
$UCSXDIR
 10
1.0
 20
0.0
 30
0.0
  9
$UCSYDIR
 10
0.0
 20
1.0
 30
0.0
  9
$PUCSNAME
  2

  9
$PUCSORG
 10
0.0
 20
0.0
 30
0.0
  9
$PUCSXDIR
 10
1.0
 20
0.0
 30
0.0
  9
$PUCSYDIR
 10
0.0
 20
1.0
 30
0.0
  9
$USERI1
 70
     0
  9
$USERI2
 70
     0
  9
$USERI3
 70
     0
  9
$USERI4
 70
     0
  9
$USERI5
 70
     0
  9
$USERR1
 40
0.0
  9
$USERR2
 40
0.0
  9
$USERR3
 40
0.0
  9
$USERR4
 40
0.0
  9
$USERR5
 40
0.0
  9
$WORLDVIEW
 70
     1
  9
$SHADEDGE
 70
     3
  9
$SHADEDIF
 70
    70
  9
$TILEMODE
 70
     1
  9
$MAXACTVP
 70
    64
  9
$PLIMCHECK
 70
     0
  9
$PEXTMIN
 10
1.0000000000E+20
 20
1.0000000000E+20
 30
1.0000000000E+20
  9
$PEXTMAX
 10
-1.0000000000E+20
 20
-1.0000000000E+20
 30
-1.0000000000E+20
  9
$PLIMMIN
 10
0.0
 20
0.0
  9
$PLIMMAX
 10
420.0
 20
297.0
  9
$UNITMODE
 70
     0
  9
$VISRETAIN
 70
     1
  9
$PLINEGEN
 70
     0
  9
$PSLTSCALE
 70
     1
  0
ENDSEC
  0
SECTION
  2
TABLES
  0
TABLE
  2
VPORT
 70
     1
  0
VPORT
  2
*ACTIVE
 70
     0
 10
0.0
 20
0.0
 11
1.0
 21
1.0
 12
525.0
 22
742.5
 13
0.0
 23
0.0
 14
10.0
 24
10.0
 15
10.0
 25
10.0
 16
0.0
 26
0.0
 36
1.0
 17
0.0
 27
0.0
 37
0.0
 40
1485.0
 41
0.7070707071
 42
50.0
 43
0.0
 44
0.0
 50
0.0
 51
0.0
 71
     0
 72
  2000
 73
     1
 74
     3
 75
     0
 76
     0
 77
     0
 78
     0
  0
ENDTAB
  0
TABLE
  2
LTYPE
 70
     6
  0
LTYPE
  2
CONTINUOUS
 70
     0
  3
Solid line
 72
    65
 73
     0
 40
0.0
  0
LTYPE
  2
HIDDEN
 70
     0
  3
Hidden __ __ __ __ __ __ __ __ __ __ __ __ __ __
 72
    65
 73
     2
 40
1.905
 49
1.27
 49
-0.635
  0
LTYPE
  2
PHANTOM
 70
     0
  3
Phantom ______  __  __  ______  __  __  ______
 72
    65
 73
     6
 40
12.7
 49
6.35
 49
-1.27
 49
1.27
 49
-1.27
 49
1.27
 49
-1.27
  0
LTYPE
  2
CENTER
 70
     0
  3
Center ____ _ ____ _ ____ _ ____ _ ____ _ ____
 72
    65
 73
     4
 40
10.16
 49
6.35
 49
-1.27
 49
1.27
 49
-1.27
  0
LTYPE
  2
CENTERX2
 70
     0
  3
Center (2x) ________  __  ________  __  _____
 72
    65
 73
     4
 40
20.32
 49
12.7
 49
-2.54
 49
2.54
 49
-2.54
  0
LTYPE
  2
DOT2
 70
     0
  3
Dot (.5x) ........................................
 72
    65
 73
     2
 40
0.635
 49
0.0
 49
-0.635
  0
ENDTAB
  0
TABLE
  2
LAYER
 70
    11
  0
LAYER
  2
0
 70
     0
 62
     7
  6
CONTINUOUS
  0
LAYER
  2
SLD-0
 70
     0
 62
   179
  6
CONTINUOUS
  0
LAYER
  2
AM_6
 70
     0
 62
     2
  6
CONTINUOUS
  0
LAYER
  2
AM_5
 70
     0
 62
     3
  6
CONTINUOUS
  0
LAYER
  2
AM_7
 70
     0
 62
     4
  6
CONTINUOUS
  0
LAYER
  2
SLD-DEFPOINTS
 70
     0
 62
   179
  6
CONTINUOUS
  0
LAYER
  2
AM_0
 70
     0
 62
   179
  6
CONTINUOUS
  0
LAYER
  2
AM_CL
 70
     0
 62
     1
  6
CONTINUOUS
  0
LAYER
  2
6
 70
     0
 62
     2
  6
CONTINUOUS
  0
LAYER
  2
AM_4
 70
     0
 62
     3
  6
CONTINUOUS
  0
LAYER
  2
AM_8
 70
     0
 62
     1
  6
CONTINUOUS
  0
ENDTAB
  0
TABLE
  2
STYLE
 70
     1
  0
STYLE
  2
STANDARD
 70
     0
 40
0.0
 41
1.0
 50
0.0
 71
     0
 42
17.5
  3
txt
  4
bigfont
  0
ENDTAB
  0
TABLE
  2
VIEW
 70
     0
  0
ENDTAB
  0
TABLE
  2
UCS
 70
     0
  0
ENDTAB
  0
TABLE
  2
APPID
 70
     1
  0
APPID
  2
ACAD
 70
     0
  0
ENDTAB
  0
TABLE
  2
DIMSTYLE
 70
     1
  0
DIMSTYLE
  2
ISO-25
 70
     0
  3

  4

  5

  6

  7

 40
1.0
 41
2.5
 42
0.625
 43
3.75
 44
1.25
 45
0.0
 46
0.0
 47
0.0
 48
0.0
140
2.5
141
2.5
142
0.0
143
0.0393700787
144
1.0
145
0.0
146
1.0
147
0.625
 71
     0
 72
     0
 73
     0
 74
     0
 75
     0
 76
     0
 77
     1
 78
     8
170
     0
171
     3
172
     1
173
     0
174
     0
175
     0
176
     0
177
     0
178
     0
  0
ENDTAB
  0
ENDSEC
  0
SECTION
  2
BLOCKS
  0
BLOCK
  8
0
  2
$MODEL_SPACE
 70
     0
 10
0.0
 20
0.0
 30
0.0
  3
$MODEL_SPACE
  1

  0
ENDBLK
  5
21
  8
0
  0
BLOCK
 67
     1
  8
0
  2
$PAPER_SPACE
 70
     0
 10
0.0
 20
0.0
 30
0.0
  3
$PAPER_SPACE
  1

  0
ENDBLK
  5
1D
 67
     1
  8
0
  0
BLOCK
  8
0
  2
SW_CENTERMARKSYMBOL_0
 70
     0
 10
0.0
 20
0.0
 30
0.0
  3
SW_CENTERMARKSYMBOL_0
  1

  0
LINE
  5
3FE
  8
SLD-0
 62
     0
 10
0.0
 20
0.0
 30
0.0
 11
0.0
 21
2.5
 31
0.0
  0
LINE
  5
3FF
  8
SLD-0
 62
     0
 10
0.0
 20
0.0
 30
0.0
 11
-2.5
 21
0.0
 31
0.0
  0
LINE
  5
400
  8
SLD-0
 62
     0
 10
0.0
 20
0.0
 30
0.0
 11
0.0
 21
-2.5
 31
0.0
  0
LINE
  5
401
  8
SLD-0
 62
     0
 10
0.0
 20
0.0
 30
0.0
 11
2.5
 21
0.0
 31
0.0
  0
LINE
  5
402
  8
SLD-0
 62
     0
 10
0.0
 20
5.0
 30
0.0
 11
0.0
 21
277.8401803186
 31
0.0
  0
LINE
  5
403
  8
SLD-0
 62
     0
 10
-5.0
 20
0.0
 30
0.0
 11
-105.0853985739
 21
0.0
 31
0.0
  0
LINE
  5
404
  8
SLD-0
 62
     0
 10
0.0
 20
-5.0
 30
0.0
 11
0.0
 21
-260.554405148
 31
0.0
  0
LINE
  5
405
  8
SLD-0
 62
     0
 10
5.0
 20
0.0
 30
0.0
 11
100.2102968537
 21
0.0
 31
0.0
  0
ENDBLK
  5
3FD
  8
0
  0
BLOCK
  8
0
  2
SW_CENTERMARKSYMBOL_1
 70
     0
 10
0.0
 20
0.0
 30
0.0
  3
SW_CENTERMARKSYMBOL_1
  1

  0
ARC
  5
560
  8
SLD-0
 62
     0
 10
76.0139789776
 20
-76.0139789776
 30
0.0
 40
107.5
 50
135.0
 51
136.3324599887
  0
ARC
  5
561
  8
SLD-0
 62
     0
 10
76.0139789776
 20
-76.0139789776
 30
0.0
 40
107.5
 50
133.6675400113
 51
135.0
  0
ARC
  5
562
  8
SLD-0
 62
     0
 10
76.0139789776
 20
-76.0139789776
 30
0.0
 40
107.5
 50
45.0
 51
46.3324599887
  0
ARC
  5
563
  8
SLD-0
 62
     0
 10
76.0139789776
 20
-76.0139789776
 30
0.0
 40
107.5
 50
43.6675400113
 51
45.0
  0
ARC
  5
564
  8
SLD-0
 62
     0
 10
76.0139789776
 20
-76.0139789776
 30
0.0
 40
107.4999999999999
 50
315.0
 51
316.3324599887
  0
ARC
  5
565
  8
SLD-0
 62
     0
 10
76.0139789776
 20
-76.0139789776
 30
0.0
 40
107.5
 50
313.6675400113
 51
315.0
  0
ARC
  5
566
  8
SLD-0
 62
     0
 10
76.0139789776
 20
-76.0139789776
 30
0.0
 40
107.5000000000001
 50
225.0
 51
226.3324599887
  0
ARC
  5
567
  8
SLD-0
 62
     0
 10
76.0139789776
 20
-76.0139789776
 30
0.0
 40
107.5
 50
223.6675400113
 51
225.0
  0
ARC
  5
568
  8
SLD-0
 62
     0
 10
76.0139789776
 20
-76.0139789776
 30
0.0
 40
107.4999999999999
 50
47.6649199774
 51
132.3350800226
  0
ARC
  5
569
  8
SLD-0
 62
     0
 10
76.0139789776
 20
-76.0139789776
 30
0.0
 40
107.5
 50
317.6649199774
 51
42.3350800226
  0
ARC
  5
56A
  8
SLD-0
 62
     0
 10
76.0139789776
 20
-76.0139789776
 30
0.0
 40
107.5
 50
137.6649199774
 51
222.3350800226
  0
ARC
  5
56B
  8
SLD-0
 62
     0
 10
76.0139789776
 20
-76.0139789776
 30
0.0
 40
107.5
 50
227.6649199774
 51
312.3350800226
  0
LINE
  5
56C
  8
SLD-0
 62
     0
 10
0.0
 20
0.0
 30
0.0
 11
-1.767766953
 21
1.767766953
 31
0.0
  0
LINE
  5
56D
  8
SLD-0
 62
     0
 10
0.0
 20
0.0
 30
0.0
 11
1.767766953
 21
-1.767766953
 31
0.0
  0
LINE
  5
56E
  8
SLD-0
 62
     0
 10
-3.5355339059
 20
3.5355339059
 30
0.0
 11
-6.0104076401
 21
6.0104076401
 31
0.0
  0
LINE
  5
56F
  8
SLD-0
 62
     0
 10
3.5355339059
 20
-3.5355339059
 30
0.0
 11
6.0104076401
 21
-6.0104076401
 31
0.0
  0
LINE
  5
570
  8
SLD-0
 62
     0
 10
152.0279579551
 20
0.0
 30
0.0
 11
153.7957249081
 21
1.767766953
 31
0.0
  0
LINE
  5
571
  8
SLD-0
 62
     0
 10
152.0279579551
 20
0.0
 30
0.0
 11
150.2601910021
 21
-1.767766953
 31
0.0
  0
LINE
  5
572
  8
SLD-0
 62
     0
 10
155.563491861
 20
3.5355339059
 30
0.0
 11
158.0383655952
 21
6.0104076401
 31
0.0
  0
LINE
  5
573
  8
SLD-0
 62
     0
 10
148.4924240492
 20
-3.5355339059
 30
0.0
 11
146.017550315
 21
-6.0104076401
 31
0.0
  0
LINE
  5
574
  8
SLD-0
 62
     0
 10
152.0279579551
 20
-152.0279579551
 30
0.0
 11
153.7957249081
 21
-153.7957249081
 31
0.0
  0
LINE
  5
575
  8
SLD-0
 62
     0
 10
152.0279579551
 20
-152.0279579551
 30
0.0
 11
150.2601910021
 21
-150.2601910021
 31
0.0
  0
LINE
  5
576
  8
SLD-0
 62
     0
 10
155.563491861
 20
-155.563491861
 30
0.0
 11
158.0383655952
 21
-158.0383655952
 31
0.0
  0
LINE
  5
577
  8
SLD-0
 62
     0
 10
148.4924240492
 20
-148.4924240492
 30
0.0
 11
146.017550315
 21
-146.017550315
 31
0.0
  0
LINE
  5
578
  8
SLD-0
 62
     0
 10
76.0139789776
 20
-76.0139789776
 30
0.0
 11
76.0139789776
 21
-73.5139789776
 31
0.0
  0
LINE
  5
579
  8
SLD-0
 62
     0
 10
76.0139789776
 20
-76.0139789776
 30
0.0
 11
73.5139789776
 21
-76.0139789776
 31
0.0
  0
LINE
  5
57A
  8
SLD-0
 62
     0
 10
76.0139789776
 20
-76.0139789776
 30
0.0
 11
76.0139789776
 21
-78.5139789776
 31
0.0
  0
LINE
  5
57B
  8
SLD-0
 62
     0
 10
76.0139789776
 20
-76.0139789776
 30
0.0
 11
78.5139789776
 21
-76.0139789776
 31
0.0
  0
LINE
  5
57C
  8
SLD-0
 62
     0
 10
76.0139789776
 20
-71.0139789776
 30
0.0
 11
76.0139789776
 21
46.7332353003
 31
0.0
  0
LINE
  5
57D
  8
SLD-0
 62
     0
 10
71.0139789776
 20
-76.0139789776
 30
0.0
 11
-36.8214638606
 21
-76.0139789776
 31
0.0
  0
LINE
  5
57E
  8
SLD-0
 62
     0
 10
76.0139789776
 20
-81.0139789776
 30
0.0
 11
76.0139789776
 21
-192.3300097613
 31
0.0
  0
LINE
  5
57F
  8
SLD-0
 62
     0
 10
81.0139789776
 20
-76.0139789776
 30
0.0
 11
176.6955259221
 21
-76.0139789776
 31
0.0
  0
LINE
  5
580
  8
SLD-0
 62
     0
 10
0.0
 20
-152.0279579551
 30
0.0
 11
-1.767766953
 21
-153.7957249081
 31
0.0
  0
LINE
  5
581
  8
SLD-0
 62
     0
 10
0.0
 20
-152.0279579551
 30
0.0
 11
1.767766953
 21
-150.2601910021
 31
0.0
  0
LINE
  5
582
  8
SLD-0
 62
     0
 10
-3.5355339059
 20
-155.563491861
 30
0.0
 11
-6.0104076401
 21
-158.0383655952
 31
0.0
  0
LINE
  5
583
  8
SLD-0
 62
     0
 10
3.5355339059
 20
-148.4924240492
 30
0.0
 11
6.0104076401
 21
-146.017550315
 31
0.0
  0
ENDBLK
  5
55F
  8
0
  0
BLOCK
  8
0
  2
SW_CENTERMARKSYMBOL_2
 70
     0
 10
0.0
 20
0.0
 30
0.0
  3
SW_CENTERMARKSYMBOL_2
  1

  0
LINE
  5
588
  8
SLD-0
 62
     0
 10
0.0
 20
0.0
 30
0.0
 11
0.0
 21
2.5
 31
0.0
  0
LINE
  5
589
  8
SLD-0
 62
     0
 10
0.0
 20
0.0
 30
0.0
 11
-2.5
 21
0.0
 31
0.0
  0
LINE
  5
58A
  8
SLD-0
 62
     0
 10
0.0
 20
0.0
 30
0.0
 11
0.0
 21
-2.5
 31
0.0
  0
LINE
  5
58B
  8
SLD-0
 62
     0
 10
0.0
 20
0.0
 30
0.0
 11
2.5
 21
0.0
 31
0.0
  0
LINE
  5
58C
  8
SLD-0
 62
     0
 10
0.0
 20
5.0
 30
0.0
 11
0.0
 21
13.5
 31
0.0
  0
LINE
  5
58D
  8
SLD-0
 62
     0
 10
-5.0
 20
0.0
 30
0.0
 11
-13.5
 21
0.0
 31
0.0
  0
LINE
  5
58E
  8
SLD-0
 62
     0
 10
0.0
 20
-5.0
 30
0.0
 11
0.0
 21
-13.5
 31
0.0
  0
LINE
  5
58F
  8
SLD-0
 62
     0
 10
5.0
 20
0.0
 30
0.0
 11
31.2630395582
 21
0.0
 31
0.0
  0
ENDBLK
  5
587
  8
0
  0
ENDSEC
  0
SECTION
  2
ENTITIES
  0
ARC
  5
7D
  8
0
  6
CONTINUOUS
 62
     7
 10
555.3363101018
 20
1212.0224366561
 30
0.0
 40
2.800000000000068
 50
0.0
 51
62.60975803
  0
ARC
  5
7E
  8
0
  6
CONTINUOUS
 62
     7
 10
375.3363101018
 20
1212.0224366561
 30
0.0
 40
2.799999999999955
 50
117.39024197
 51
180.0
  0
LINE
  5
7F
  8
0
  6
CONTINUOUS
 62
     7
 10
372.5363112819
 20
1212.0224391322
 30
0.0
 11
372.5363112819
 21
1193.7091206412
 31
0.0
  0
LINE
  5
80
  8
0
  6
CONTINUOUS
 62
     7
 10
558.1363089216
 20
1168.7251930337
 30
0.0
 11
558.1363089216
 21
1212.0224391322
 31
0.0
  0
LINE
  5
81
  8
0
  6
CONTINUOUS
 62
     7
 10
556.6244445574
 20
1214.5085339646
 30
0.0
 11
539.4842497838
 21
1223.3894621234
 31
0.0
  0
LINE
  5
82
  8
0
  6
CONTINUOUS
 62
     7
 10
391.1883704198
 20
1223.3894621234
 30
0.0
 11
374.0481756461
 21
1214.5085339646
 31
0.0
  0
ARC
  5
83
  8
0
  6
CONTINUOUS
 62
     7
 10
390.6363101018
 20
1224.4549413392
 30
0.0
 40
1.200000000000045
 50
297.39024197
 51
0.0
  0
ARC
  5
84
  8
0
  6
CONTINUOUS
 62
     7
 10
540.0363101018
 20
1224.4549413392
 30
0.0
 40
1.199999999999932
 50
180.0
 51
242.60975803
  0
ARC
  5
85
  8
0
  6
CONTINUOUS
 62
     7
 10
537.0363101018
 20
1226.9251899343
 30
0.0
 40
1.799999999999955
 50
0.0
 51
90.0
  0
ARC
  5
86
  8
0
  6
CONTINUOUS
 62
     7
 10
393.6363101018
 20
1226.9251899343
 30
0.0
 40
1.800000000000011
 50
90.0
 51
180.0
  0
LINE
  5
87
  8
0
  6
CONTINUOUS
 62
     7
 10
391.8363101614
 20
1226.9251947503
 30
0.0
 11
391.8363101614
 21
1224.4549398522
 31
0.0
  0
LINE
  5
88
  8
0
  6
CONTINUOUS
 62
     7
 10
538.8363100422
 20
1224.4549398522
 30
0.0
 11
538.8363100422
 21
1226.9251947503
 31
0.0
  0
ARC
  5
89
  8
0
  6
CONTINUOUS
 62
     7
 10
535.8497243601
 20
1190.7251899343
 30
0.0
 40
3.00000000000002
 50
0.0
 51
84.753415462
  0
LINE
  5
8A
  8
0
  6
CONTINUOUS
 62
     7
 10
538.8497210872
 20
1168.7251930337
 30
0.0
 11
538.8497210872
 21
1190.7251929145
 31
0.0
  0
ARC
  5
8B
  8
0
  6
CONTINUOUS
 62
     7
 10
372.8464397097
 20
1190.7251899343
 30
0.0
 40
3.000000000000028
 50
94.0450781816
 51
180.0
  0
POLYLINE
  5
8C
  8
0
  6
CONTINUOUS
 62
     7
 66
     1
 10
0.0
 20
0.0
 30
0.0
 70
   128
  0
VERTEX
  5
591
  8
0
  6
CONTINUOUS
 62
     7
 10
373.8394923341
 20
1194.3692122798
 30
0.0
  0
VERTEX
  5
592
  8
0
  6
CONTINUOUS
 62
     7
 10
373.8413102758
 20
1194.3739806514
 30
0.0
  0
VERTEX
  5
593
  8
0
  6
CONTINUOUS
 62
     7
 10
373.758824898
 20
1194.2550246816
 30
0.0
  0
VERTEX
  5
594
  8
0
  6
CONTINUOUS
 62
     7
 10
373.4593190086
 20
1193.9894710879
 30
0.0
  0
VERTEX
  5
595
  8
0
  6
CONTINUOUS
 62
     7
 10
373.1971330774
 20
1193.8824211459
 30
0.0
  0
SEQEND
  5
99E
  8
0
  6
CONTINUOUS
 62
     7
  0
LINE
  5
8D
  8
0
  6
CONTINUOUS
 62
     7
 10
369.8464430702
 20
1190.7251929145
 30
0.0
 11
369.8464430702
 21
1187.6999591689
 31
0.0
  0
LINE
  5
8E
  8
0
  6
CONTINUOUS
 62
     7
 10
369.8464430702
 20
1179.7291194301
 30
0.0
 11
369.8464430702
 21
1168.7251930337
 31
0.0
  0
ARC
  5
8F
  8
0
  6
CONTINUOUS
 62
     7
 10
561.0363101018
 20
1165.2251899343
 30
0.0
 40
0.5
 50
0.0
 51
90.0
  0
ARC
  5
90
  8
0
  6
CONTINUOUS
 62
     7
 10
561.0363101018
 20
1126.2251899343
 30
0.0
 40
0.5
 50
270.0
 51
0.0
  0
LINE
  5
91
  8
0
  6
CONTINUOUS
 62
     7
 10
552.0363099706
 20
1125.7251952987
 30
0.0
 11
561.0363133085
 21
1125.7251952987
 31
0.0
  0
LINE
  5
92
  8
0
  6
CONTINUOUS
 62
     7
 10
561.0363133085
 20
1165.725186954
 30
0.0
 11
552.0363099706
 21
1165.725186954
 31
0.0
  0
ARC
  5
93
  8
0
  6
CONTINUOUS
 62
     7
 10
552.0363101018
 20
1165.2251899343
 30
0.0
 40
0.5
 50
90.0
 51
180.0
  0
ARC
  5
94
  8
0
  6
CONTINUOUS
 62
     7
 10
552.0363101018
 20
1126.2251899343
 30
0.0
 40
0.5
 50
180.0
 51
270.0
  0
LINE
  5
95
  8
0
  6
CONTINUOUS
 62
     7
 10
561.5363068712
 20
1129.225194941
 30
0.0
 11
561.7363102567
 21
1129.225194941
 31
0.0
  0
LINE
  5
96
  8
0
  6
CONTINUOUS
 62
     7
 10
561.7363102567
 20
1162.2251873117
 30
0.0
 11
561.5363068712
 21
1162.2251873117
 31
0.0
  0
LINE
  5
97
  8
0
  6
CONTINUOUS
 62
     7
 10
551.3363130224
 20
1129.225194941
 30
0.0
 11
551.5363089574
 21
1129.225194941
 31
0.0
  0
LINE
  5
98
  8
0
  6
CONTINUOUS
 62
     7
 10
551.5363089574
 20
1162.2251873117
 30
0.0
 11
551.3363130224
 21
1162.2251873117
 31
0.0
  0
LINE
  5
99
  8
0
  6
CONTINUOUS
 62
     7
 10
603.0411295426
 20
1143.6437671285
 30
0.0
 11
602.9911212456
 21
1143.6437671285
 31
0.0
  0
LINE
  5
9A
  8
0
  6
CONTINUOUS
 62
     7
 10
477.836310288
 20
1228.7251954179
 30
0.0
 11
477.836310288
 21
1228.7751888137
 31
0.0
  0
LINE
  5
9B
  8
0
  6
CONTINUOUS
 62
     7
 10
452.8363099155
 20
1228.7751888137
 30
0.0
 11
452.8363099155
 21
1228.7251954179
 31
0.0
  0
LINE
  5
9C
  8
0
  6
CONTINUOUS
 62
     7
 10
474.3363097143
 20
1228.7751888137
 30
0.0
 11
474.3363097143
 21
1228.8251971107
 31
0.0
  0
LINE
  5
9D
  8
0
  6
CONTINUOUS
 62
     7
 10
456.3363104892
 20
1228.8251971107
 30
0.0
 11
456.3363104892
 21
1228.7751888137
 31
0.0
  0
LINE
  5
9E
  8
0
  6
CONTINUOUS
 62
     7
 10
548.3363069427
 20
988.7251898393
 30
0.0
 11
548.3363069427
 21
998.7251903142
 31
0.0
  0
LINE
  5
9F
  8
0
  6
CONTINUOUS
 62
     7
 10
382.3363132608
 20
998.7251903142
 30
0.0
 11
382.3363132608
 21
988.7251898393
 31
0.0
  0
LINE
  5
A0
  8
0
  6
CONTINUOUS
 62
     7
 10
509.9838286472
 20
998.7251903142
 30
0.0
 11
509.9838286472
 21
1168.7251930337
 31
0.0
  0
LINE
  5
A1
  8
0
  6
CONTINUOUS
 62
     7
 10
420.6887915564
 20
1168.7251930337
 30
0.0
 11
420.6887915564
 21
998.7251903142
 31
0.0
  0
LINE
  5
A2
  8
0
  6
CONTINUOUS
 62
     7
 10
517.6717810166
 20
998.7251903142
 30
0.0
 11
517.6717810166
 21
1168.7251930337
 31
0.0
  0
LINE
  5
A3
  8
0
  6
CONTINUOUS
 62
     7
 10
413.0008391869
 20
1168.7251930337
 30
0.0
 11
413.0008391869
 21
998.7251903142
 31
0.0
  0
LINE
  5
A4
  8
0
  6
CONTINUOUS
 62
     7
 10
524.7972965074
 20
998.7251903142
 30
0.0
 11
524.7972965074
 21
1168.7251930337
 31
0.0
  0
LINE
  5
A5
  8
0
  6
CONTINUOUS
 62
     7
 10
405.8753236962
 20
1168.7251930337
 30
0.0
 11
405.8753236962
 21
998.7251903142
 31
0.0
  0
LINE
  5
A6
  8
0
  6
CONTINUOUS
 62
     7
 10
531.2823004854
 20
998.7251903142
 30
0.0
 11
531.2823004854
 21
1168.7251930337
 31
0.0
  0
LINE
  5
A7
  8
0
  6
CONTINUOUS
 62
     7
 10
399.3903197181
 20
1168.7251930337
 30
0.0
 11
399.3903197181
 21
998.7251903142
 31
0.0
  0
LINE
  5
A8
  8
0
  6
CONTINUOUS
 62
     7
 10
537.0557404888
 20
998.7251903142
 30
0.0
 11
537.0557404888
 21
1168.7251930337
 31
0.0
  0
LINE
  5
A9
  8
0
  6
CONTINUOUS
 62
     7
 10
393.6168797147
 20
1168.7251930337
 30
0.0
 11
393.6168797147
 21
998.7251903142
 31
0.0
  0
LINE
  5
AA
  8
0
  6
CONTINUOUS
 62
     7
 10
542.0543648136
 20
998.7251903142
 30
0.0
 11
542.0543648136
 21
1168.7251930337
 31
0.0
  0
LINE
  5
AB
  8
0
  6
CONTINUOUS
 62
     7
 10
388.6182553899
 20
1168.7251930337
 30
0.0
 11
388.6182553899
 21
998.7251903142
 31
0.0
  0
LINE
  5
AC
  8
0
  6
CONTINUOUS
 62
     7
 10
546.2234042418
 20
998.7251903142
 30
0.0
 11
546.2234042418
 21
1168.7251930337
 31
0.0
  0
LINE
  5
AD
  8
0
  6
CONTINUOUS
 62
     7
 10
384.4492159617
 20
1168.7251930337
 30
0.0
 11
384.4492159617
 21
998.7251903142
 31
0.0
  0
LINE
  5
AE
  8
0
  6
CONTINUOUS
 62
     7
 10
549.5171867144
 20
998.7251903142
 30
0.0
 11
549.5171867144
 21
1168.7251930337
 31
0.0
  0
LINE
  5
AF
  8
0
  6
CONTINUOUS
 62
     7
 10
381.1554334891
 20
1168.7251930337
 30
0.0
 11
381.1554334891
 21
998.7251903142
 31
0.0
  0
LINE
  5
B0
  8
0
  6
CONTINUOUS
 62
     7
 10
378.7729985845
 20
1168.7251930337
 30
0.0
 11
378.7729985845
 21
998.7251903142
 31
0.0
  0
ARC
  5
B1
  8
0
  6
CONTINUOUS
 62
     7
 10
568.9262895908
 20
1175.0785648133
 30
0.0
 40
0.3600000000000481
 50
56.3583676093
 51
110.0
  0
ARC
  5
B2
  8
0
  6
CONTINUOUS
 62
     7
 10
571.4161962342
 20
1168.237602534
 30
0.0
 40
0.3600000000000092
 50
290.0
 51
343.6416323907
  0
LINE
  5
B3
  8
0
  6
CONTINUOUS
 62
     7
 10
568.8031636012
 20
1175.416857491
 30
0.0
 11
567.3516265881
 21
1174.8885368209
 31
0.0
  0
LINE
  5
B4
  8
0
  6
CONTINUOUS
 62
     7
 10
570.0877852571
 20
1167.3709904056
 30
0.0
 11
571.5393222702
 21
1167.8993110757
 31
0.0
  0
ARC
  5
B5
  8
0
  6
CONTINUOUS
 62
     7
 10
565.5247503303
 20
1169.96689868
 30
0.0
 40
6.500000000000007
 50
343.6416323907
 51
2.1374195081
  0
ARC
  5
B6
  8
0
  6
CONTINUOUS
 62
     7
 10
565.5247503303
 20
1169.96689868
 30
0.0
 40
6.500000000000072
 50
37.8625804919
 51
56.3583676093
  0
ARC
  5
B7
  8
0
  6
CONTINUOUS
 62
     7
 10
600.0501226335
 20
1089.5665363218
 30
0.0
 40
0.3600000000000481
 50
56.3583676093
 51
110.0
  0
ARC
  5
B8
  8
0
  6
CONTINUOUS
 62
     7
 10
602.5400292769
 20
1082.7255740425
 30
0.0
 40
0.3599999999999037
 50
290.0
 51
343.6416323907
  0
LINE
  5
B9
  8
0
  6
CONTINUOUS
 62
     7
 10
599.9269954693
 20
1089.904822896
 30
0.0
 11
598.4754584563
 21
1089.3765096765
 31
0.0
  0
LINE
  5
BA
  8
0
  6
CONTINUOUS
 62
     7
 10
601.2116245759
 20
1081.8589707117
 30
0.0
 11
602.6631615889
 21
1082.3872839313
 31
0.0
  0
ARC
  5
BB
  8
0
  6
CONTINUOUS
 62
     7
 10
596.6485833729
 20
1084.4548701885
 30
0.0
 40
6.500000000000007
 50
343.6416323907
 51
2.1374195081
  0
ARC
  5
BC
  8
0
  6
CONTINUOUS
 62
     7
 10
596.6485833729
 20
1084.4548701885
 30
0.0
 40
6.499999999999982
 50
37.8625804919
 51
56.3583676093
  0
ARC
  5
BD
  8
0
  6
CONTINUOUS
 62
     7
 10
374.6358750132
 20
1183.7251899343
 30
0.0
 40
6.499999999999998
 50
146.4841970134
 51
175.4556482924
  0
ARC
  5
BE
  8
0
  6
CONTINUOUS
 62
     7
 10
374.6358750132
 20
1183.7251899343
 30
0.0
 40
6.499999999999998
 50
184.5443517076
 51
213.5158029866
  0
LINE
  5
BF
  8
0
  6
CONTINUOUS
 62
     7
 10
369.7647623551
 20
1179.7533636193
 30
0.0
 11
369.8596678508
 21
1179.7251855235
 31
0.0
  0
LINE
  5
C0
  8
0
  6
CONTINUOUS
 62
     7
 10
369.8204852474
 20
1187.7099131446
 30
0.0
 11
369.7471640837
 21
1187.6834933858
 31
0.0
  0
LINE
  5
C1
  8
0
  6
CONTINUOUS
 62
     7
 10
369.8596678508
 20
1179.7251855235
 30
0.0
 11
371.3517285717
 21
1179.7251855235
 31
0.0
  0
LINE
  5
C2
  8
0
  6
CONTINUOUS
 62
     7
 10
371.3517285717
 20
1187.7251868348
 30
0.0
 11
369.8596678508
 21
1187.7251868348
 31
0.0
  0
LINE
  5
C3
  8
0
  6
CONTINUOUS
 62
     7
 10
535.2300651205
 20
1187.7251868348
 30
0.0
 11
534.1378025544
 21
1187.7251868348
 31
0.0
  0
LINE
  5
C4
  8
0
  6
CONTINUOUS
 62
     7
 10
534.1378025544
 20
1179.7251855235
 30
0.0
 11
535.2300651205
 21
1179.7251855235
 31
0.0
  0
LINE
  5
C5
  8
0
  6
CONTINUOUS
 62
     7
 10
523.7915500832
 20
729.7251825433
 30
0.0
 11
523.7915500832
 21
730.725199471
 31
0.0
  0
LINE
  5
C6
  8
0
  6
CONTINUOUS
 62
     7
 10
509.4115532768
 20
730.725199471
 30
0.0
 11
509.4115532768
 21
729.7251825433
 31
0.0
  0
LINE
  5
C7
  8
0
  6
CONTINUOUS
 62
     7
 10
520.601550473
 20
744.7251831393
 30
0.0
 11
520.601550473
 21
842.7251880269
 31
0.0
  0
LINE
  5
C8
  8
0
  6
CONTINUOUS
 62
     7
 10
520.601550473
 20
856.7251865964
 30
0.0
 11
520.601550473
 21
859.7251926761
 31
0.0
  0
LINE
  5
C9
  8
0
  6
CONTINUOUS
 62
     7
 10
512.601552887
 20
859.7251926761
 30
0.0
 11
512.601552887
 21
856.7251865964
 31
0.0
  0
LINE
  5
CA
  8
0
  6
CONTINUOUS
 62
     7
 10
512.601552887
 20
842.7251880269
 30
0.0
 11
512.601552887
 21
744.7251831393
 31
0.0
  0
LINE
  5
CB
  8
0
  6
CONTINUOUS
 62
     7
 10
421.2610669267
 20
729.7251825433
 30
0.0
 11
421.2610669267
 21
730.725199471
 31
0.0
  0
LINE
  5
CC
  8
0
  6
CONTINUOUS
 62
     7
 10
406.8810701204
 20
730.725199471
 30
0.0
 11
406.8810701204
 21
729.7251825433
 31
0.0
  0
LINE
  5
CD
  8
0
  6
CONTINUOUS
 62
     7
 10
418.0710673166
 20
744.7251831393
 30
0.0
 11
418.0710673166
 21
842.7251880269
 31
0.0
  0
LINE
  5
CE
  8
0
  6
CONTINUOUS
 62
     7
 10
418.0710673166
 20
856.7251865964
 30
0.0
 11
418.0710673166
 21
859.7251926761
 31
0.0
  0
LINE
  5
CF
  8
0
  6
CONTINUOUS
 62
     7
 10
410.0710697305
 20
859.7251926761
 30
0.0
 11
410.0710697305
 21
856.7251865964
 31
0.0
  0
LINE
  5
D0
  8
0
  6
CONTINUOUS
 62
     7
 10
410.0710697305
 20
842.7251880269
 30
0.0
 11
410.0710697305
 21
744.7251831393
 31
0.0
  0
LINE
  5
D1
  8
0
  6
CONTINUOUS
 62
     7
 10
397.8363074196
 20
746.7251871924
 30
0.0
 11
397.8363074196
 21
730.725199471
 31
0.0
  0
LINE
  5
D2
  8
0
  6
CONTINUOUS
 62
     7
 10
532.836312784
 20
730.725199471
 30
0.0
 11
532.836312784
 21
746.7251871924
 31
0.0
  0
LINE
  5
D3
  8
0
  6
CONTINUOUS
 62
     7
 10
402.4700395596
 20
744.7251831393
 30
0.0
 11
402.4700395596
 21
730.725199471
 31
0.0
  0
LINE
  5
D4
  8
0
  6
CONTINUOUS
 62
     7
 10
528.2025806439
 20
730.725199471
 30
0.0
 11
528.2025806439
 21
744.7251831393
 31
0.0
  0
LINE
  5
D5
  8
0
  6
CONTINUOUS
 62
     7
 10
434.3363106084
 20
730.725199471
 30
0.0
 11
434.3363106084
 21
714.7251968484
 31
0.0
  0
LINE
  5
D6
  8
0
  6
CONTINUOUS
 62
     7
 10
496.3363095951
 20
714.7251968484
 30
0.0
 11
496.3363095951
 21
730.725199471
 31
0.0
  0
POLYLINE
  5
D7
  8
0
  6
CONTINUOUS
 62
     7
 66
     1
 10
0.0
 20
0.0
 30
0.0
 70
   128
  0
VERTEX
  5
596
  8
0
  6
CONTINUOUS
 62
     7
 10
506.1112738979
 20
714.7251968484
 30
0.0
  0
VERTEX
  5
597
  8
0
  6
CONTINUOUS
 62
     7
 10
510.0083894861
 20
722.7251832585
 30
0.0
  0
VERTEX
  5
598
  8
0
  6
CONTINUOUS
 62
     7
 10
510.8365252447
 20
724.4251971345
 30
0.0
  0
SEQEND
  5
99F
  8
0
  6
CONTINUOUS
 62
     7
  0
POLYLINE
  5
D8
  8
0
  6
CONTINUOUS
 62
     7
 66
     1
 10
0.0
 20
0.0
 30
0.0
 70
   128
  0
VERTEX
  5
599
  8
0
  6
CONTINUOUS
 62
     7
 10
419.8360949588
 20
724.4251971345
 30
0.0
  0
VERTEX
  5
59A
  8
0
  6
CONTINUOUS
 62
     7
 10
420.6642307174
 20
722.7251832585
 30
0.0
  0
VERTEX
  5
59B
  8
0
  6
CONTINUOUS
 62
     7
 10
424.5613463056
 20
714.7251968484
 30
0.0
  0
SEQEND
  5
9A0
  8
0
  6
CONTINUOUS
 62
     7
  0
LINE
  5
D9
  8
0
  6
CONTINUOUS
 62
     7
 10
532.836312784
 20
817.2251885037
 30
0.0
 11
532.836312784
 21
840.7251839738
 31
0.0
  0
LINE
  5
DA
  8
0
  6
CONTINUOUS
 62
     7
 10
397.8363074196
 20
840.7251839738
 30
0.0
 11
397.8363074196
 21
817.2251885037
 31
0.0
  0
LINE
  5
DB
  8
0
  6
CONTINUOUS
 62
     7
 10
532.836312784
 20
746.7251871924
 30
0.0
 11
532.836312784
 21
770.2251826625
 31
0.0
  0
LINE
  5
DC
  8
0
  6
CONTINUOUS
 62
     7
 10
397.8363074196
 20
770.2251826625
 30
0.0
 11
397.8363074196
 21
746.7251871924
 31
0.0
  0
LINE
  5
DD
  8
0
  6
CONTINUOUS
 62
     7
 10
532.836312784
 20
770.2251826625
 30
0.0
 11
532.836312784
 21
793.7251930337
 31
0.0
  0
LINE
  5
DE
  8
0
  6
CONTINUOUS
 62
     7
 10
397.8363074196
 20
793.7251930337
 30
0.0
 11
397.8363074196
 21
770.2251826625
 31
0.0
  0
LINE
  5
DF
  8
0
  6
CONTINUOUS
 62
     7
 10
532.836312784
 20
793.7251930337
 30
0.0
 11
532.836312784
 21
817.2251885037
 31
0.0
  0
LINE
  5
E0
  8
0
  6
CONTINUOUS
 62
     7
 10
397.8363074196
 20
817.2251885037
 30
0.0
 11
397.8363074196
 21
793.7251930337
 31
0.0
  0
LINE
  5
E1
  8
0
  6
CONTINUOUS
 62
     7
 10
380.3363092077
 20
938.7251888614
 30
0.0
 11
380.3363092077
 21
935.7251902323
 31
0.0
  0
LINE
  5
E2
  8
0
  6
CONTINUOUS
 62
     7
 10
550.3363109958
 20
935.7251902323
 30
0.0
 11
550.3363109958
 21
938.7251888614
 31
0.0
  0
LINE
  5
E3
  8
0
  6
CONTINUOUS
 62
     7
 10
549.3363089693
 20
984.7251898821
 30
0.0
 11
549.3363089693
 21
988.7251898393
 31
0.0
  0
LINE
  5
E4
  8
0
  6
CONTINUOUS
 62
     7
 10
381.3363112343
 20
988.7251898393
 30
0.0
 11
381.3363112343
 21
984.7251898821
 31
0.0
  0
LINE
  5
E5
  8
0
  6
CONTINUOUS
 62
     7
 10
532.836312784
 20
840.7251839738
 30
0.0
 11
532.836312784
 21
869.7251905899
 31
0.0
  0
LINE
  5
E6
  8
0
  6
CONTINUOUS
 62
     7
 10
397.8363074196
 20
869.7251905899
 30
0.0
 11
397.8363074196
 21
840.7251839738
 31
0.0
  0
ARC
  5
E7
  8
0
  6
CONTINUOUS
 62
     7
 10
400.8363101018
 20
869.7251899343
 30
0.0
 40
3.000000000000114
 50
90.0
 51
180.0
  0
ARC
  5
E8
  8
0
  6
CONTINUOUS
 62
     7
 10
529.8363101018
 20
869.7251899343
 30
0.0
 40
3.000000000000114
 50
0.0
 51
90.0
  0
ARC
  5
E9
  8
0
  6
CONTINUOUS
 62
     7
 10
401.5961947316
 20
950.7251899343
 30
0.0
 40
2.0
 50
270.0
 51
0.0
  0
ARC
  5
EA
  8
0
  6
CONTINUOUS
 62
     7
 10
529.0764254719
 20
950.7251899343
 30
0.0
 40
2.0
 50
180.0
 51
270.0
  0
LINE
  5
EB
  8
0
  6
CONTINUOUS
 62
     7
 10
403.5961948168
 20
980.7751900728
 30
0.0
 11
403.5961948168
 21
950.7251908283
 31
0.0
  0
LINE
  5
EC
  8
0
  6
CONTINUOUS
 62
     7
 10
527.0764253867
 20
950.7251908283
 30
0.0
 11
527.0764253867
 21
980.7751900728
 31
0.0
  0
ARC
  5
ED
  8
0
  6
CONTINUOUS
 62
     7
 10
401.6933023564
 20
980.8814219207
 30
0.0
 40
1.914203539824761
 50
355.3184766095
 51
31.8959677349
  0
ARC
  5
EE
  8
0
  6
CONTINUOUS
 62
     7
 10
528.9793178471
 20
980.8814219207
 30
0.0
 40
1.914203539824375
 50
148.1040322651
 51
184.6815233905
  0
ARC
  5
EF
  8
0
  6
CONTINUOUS
 62
     7
 10
401.8715929616
 20
981.1352846315
 30
0.0
 40
1.633210365540148
 50
27.635695486
 51
98.186471462
  0
ARC
  5
F0
  8
0
  6
CONTINUOUS
 62
     7
 10
528.8010272419
 20
981.1352846315
 30
0.0
 40
1.633210365540199
 50
81.813528538
 51
152.364304514
  0
ARC
  5
F1
  8
0
  6
CONTINUOUS
 62
     7
 10
403.3040910873
 20
855.7251899343
 30
0.0
 40
1.0
 50
90.0
 51
180.0
  0
LINE
  5
F2
  8
0
  6
CONTINUOUS
 62
     7
 10
402.304092778
 20
855.7251845698
 30
0.0
 11
402.304092778
 21
842.7251880269
 31
0.0
  0
ARC
  5
F3
  8
0
  6
CONTINUOUS
 62
     7
 10
527.3685291162
 20
855.7251899343
 30
0.0
 40
1.0
 50
0.0
 51
90.0
  0
LINE
  5
F4
  8
0
  6
CONTINUOUS
 62
     7
 10
528.3685274255
 20
842.7251880269
 30
0.0
 11
528.3685274255
 21
855.7251845698
 31
0.0
  0
ARC
  5
F5
  8
0
  6
CONTINUOUS
 62
     7
 10
389.5183794141
 20
950.7251899342
 30
0.0
 40
1.999999999999943
 50
270.0
 51
0.0
  0
ARC
  5
F6
  8
0
  6
CONTINUOUS
 62
     7
 10
541.1542407894
 20
950.7251899342
 30
0.0
 40
2.0
 50
180.0
 51
270.0
  0
LINE
  5
F7
  8
0
  6
CONTINUOUS
 62
     7
 10
391.5183789861
 20
980.7751900728
 30
0.0
 11
391.5183789861
 21
950.7251908283
 31
0.0
  0
LINE
  5
F8
  8
0
  6
CONTINUOUS
 62
     7
 10
539.1542412174
 20
950.7251908283
 30
0.0
 11
539.1542412174
 21
980.7751900728
 31
0.0
  0
ARC
  5
F9
  8
0
  6
CONTINUOUS
 62
     7
 10
388.8847826784
 20
981.209310051
 30
0.0
 40
2.677723208849108
 50
349.5839101399
 51
13.8249287398
  0
ARC
  5
FA
  8
0
  6
CONTINUOUS
 62
     7
 10
543.0223830441
 20
981.1725742861
 30
0.0
 40
3.893927804871355
 50
169.993721239
 51
186.5974398814
  0
ARC
  5
FB
  8
0
  6
CONTINUOUS
 62
     7
 10
390.1698590545
 20
981.3538875463
 30
0.0
 40
1.405248398092062
 50
20.6372693007
 51
84.1639288526
  0
ARC
  5
FC
  8
0
  6
CONTINUOUS
 62
     7
 10
540.4863901146
 20
981.3751462275
 30
0.0
 40
1.38250740773419
 50
95.2506921544
 51
159.9481096924
  0
ARC
  5
FD
  8
0
  6
CONTINUOUS
 62
     7
 10
383.3363101018
 20
984.7251899343
 30
0.0
 40
2.0
 50
180.0
 51
270.0
  0
ARC
  5
FE
  8
0
  6
CONTINUOUS
 62
     7
 10
547.3363101018
 20
984.7251899343
 30
0.0
 40
2.000000000000114
 50
270.0
 51
0.0
  0
ARC
  5
FF
  8
0
  6
CONTINUOUS
 62
     7
 10
387.3363101018
 20
980.7251899343
 30
0.0
 40
2.0
 50
0.0
 51
90.0
  0
ARC
  5
100
  8
0
  6
CONTINUOUS
 62
     7
 10
387.3363101018
 20
950.7251899343
 30
0.0
 40
2.0
 50
270.0
 51
0.0
  0
ARC
  5
101
  8
0
  6
CONTINUOUS
 62
     7
 10
543.3363101018
 20
980.7251899343
 30
0.0
 40
2.0
 50
90.0
 51
180.0
  0
ARC
  5
102
  8
0
  6
CONTINUOUS
 62
     7
 10
543.3363101018
 20
950.7251899343
 30
0.0
 40
2.0
 50
180.0
 51
270.0
  0
LINE
  5
103
  8
0
  6
CONTINUOUS
 62
     7
 10
389.3363125456
 20
980.7251901578
 30
0.0
 11
389.3363125456
 21
950.7251908283
 31
0.0
  0
LINE
  5
104
  8
0
  6
CONTINUOUS
 62
     7
 10
541.336307658
 20
950.7251908283
 30
0.0
 11
541.336307658
 21
980.7251901578
 31
0.0
  0
LINE
  5
105
  8
0
  6
CONTINUOUS
 62
     7
 10
534.6008188856
 20
1195.7132821183
 30
0.0
 11
534.9014870656
 21
1195.6936870914
 31
0.0
  0
POLYLINE
  5
106
  8
0
  6
CONTINUOUS
 62
     7
 66
     1
 10
0.0
 20
0.0
 30
0.0
 70
   128
  0
VERTEX
  5
59C
  8
0
  6
CONTINUOUS
 62
     7
 10
527.0960688424
 20
1195.7132821183
 30
0.0
  0
VERTEX
  5
59D
  8
0
  6
CONTINUOUS
 62
     7
 10
530.9558160436
 20
1195.700124393
 30
0.0
  0
VERTEX
  5
59E
  8
0
  6
CONTINUOUS
 62
     7
 10
534.6008188856
 20
1195.7132821183
 30
0.0
  0
SEQEND
  5
9A1
  8
0
  6
CONTINUOUS
 62
     7
  0
LINE
  5
107
  8
0
  6
CONTINUOUS
 62
     7
 10
526.7572089863
 20
1195.6936870914
 30
0.0
 11
527.0960688424
 21
1195.7132821183
 31
0.0
  0
ARC
  5
108
  8
0
  6
CONTINUOUS
 62
     7
 10
527.4411520769
 20
1190.704757464
 30
0.0
 40
5.03559301149753
 50
97.80614079
 51
179.7674815509
  0
LINE
  5
109
  8
0
  6
CONTINUOUS
 62
     7
 10
522.4056005311
 20
1168.7251930337
 30
0.0
 11
522.4056005311
 21
1190.7251929145
 31
0.0
  0
LINE
  5
10A
  8
0
  6
CONTINUOUS
 62
     7
 10
379.324140383
 20
1190.7251929145
 30
0.0
 11
379.324140383
 21
1168.7251930337
 31
0.0
  0
POLYLINE
  5
10B
  8
0
  6
CONTINUOUS
 62
     7
 66
     1
 10
0.0
 20
0.0
 30
0.0
 70
   128
  0
VERTEX
  5
59F
  8
0
  6
CONTINUOUS
 62
     7
 10
377.3616649044
 20
1195.6936870914
 30
0.0
  0
VERTEX
  5
5A0
  8
0
  6
CONTINUOUS
 62
     7
 10
377.7487598193
 20
1195.4898988109
 30
0.0
  0
VERTEX
  5
5A1
  8
0
  6
CONTINUOUS
 62
     7
 10
378.4904725683
 20
1194.5424531798
 30
0.0
  0
VERTEX
  5
5A2
  8
0
  6
CONTINUOUS
 62
     7
 10
378.9839096201
 20
1193.284512053
 30
0.0
  0
VERTEX
  5
5A3
  8
0
  6
CONTINUOUS
 62
     7
 10
379.2317308319
 20
1192.0872037511
 30
0.0
  0
VERTEX
  5
5A4
  8
0
  6
CONTINUOUS
 62
     7
 10
379.324140383
 20
1190.7251929145
 30
0.0
  0
SEQEND
  5
9A2
  8
0
  6
CONTINUOUS
 62
     7
  0
LINE
  5
10C
  8
0
  6
CONTINUOUS
 62
     7
 10
377.2185318005
 20
1195.7132821183
 30
0.0
 11
377.3616649044
 21
1195.6936870914
 31
0.0
  0
POLYLINE
  5
10D
  8
0
  6
CONTINUOUS
 62
     7
 66
     1
 10
0.0
 20
0.0
 30
0.0
 70
   128
  0
VERTEX
  5
5A5
  8
0
  6
CONTINUOUS
 62
     7
 10
374.4716070426
 20
1195.7132821183
 30
0.0
  0
VERTEX
  5
5A6
  8
0
  6
CONTINUOUS
 62
     7
 10
375.6983898413
 20
1195.700124393
 30
0.0
  0
VERTEX
  5
5A7
  8
0
  6
CONTINUOUS
 62
     7
 10
377.2185318005
 20
1195.7132821183
 30
0.0
  0
SEQEND
  5
9A3
  8
0
  6
CONTINUOUS
 62
     7
  0
LINE
  5
10E
  8
0
  6
CONTINUOUS
 62
     7
 10
374.3806503546
 20
1195.6936870914
 30
0.0
 11
374.4716070426
 21
1195.7132821183
 31
0.0
  0
LINE
  5
10F
  8
0
  6
CONTINUOUS
 62
     7
 10
538.8497210872
 20
1168.7251930337
 30
0.0
 11
558.1363089216
 21
1168.7251930337
 31
0.0
  0
LINE
  5
110
  8
0
  6
CONTINUOUS
 62
     7
 10
379.324140383
 20
1168.7251930337
 30
0.0
 11
522.4056005311
 21
1168.7251930337
 31
0.0
  0
LINE
  5
111
  8
0
  6
CONTINUOUS
 62
     7
 10
393.6363108289
 20
1228.7251954179
 30
0.0
 11
537.0363093746
 21
1228.7251954179
 31
0.0
  0
ARC
  5
112
  8
0
  6
CONTINUOUS
 62
     7
 10
528.7310573078
 20
1195.5868132972
 30
0.0
 40
1.976739538764375
 50
176.9007527883
 51
252.0500479031
  0
POLYLINE
  5
113
  8
0
  6
CONTINUOUS
 62
     7
 66
     1
 10
0.0
 20
0.0
 30
0.0
 70
   128
  0
VERTEX
  5
5A8
  8
0
  6
CONTINUOUS
 62
     7
 10
528.1218536031
 20
1193.7062894206
 30
0.0
  0
VERTEX
  5
5A9
  8
0
  6
CONTINUOUS
 62
     7
 10
527.2725209427
 20
1193.5840104919
 30
0.0
  0
VERTEX
  5
5AA
  8
0
  6
CONTINUOUS
 62
     7
 10
525.6986230445
 20
1193.0155460935
 30
0.0
  0
VERTEX
  5
5AB
  8
0
  6
CONTINUOUS
 62
     7
 10
524.6853813362
 20
1192.2607873778
 30
0.0
  0
VERTEX
  5
5AC
  8
0
  6
CONTINUOUS
 62
     7
 10
524.1855591369
 20
1191.5424023967
 30
0.0
  0
VERTEX
  5
5AD
  8
0
  6
CONTINUOUS
 62
     7
 10
524.0155257118
 20
1190.958932529
 30
0.0
  0
VERTEX
  5
5AE
  8
0
  6
CONTINUOUS
 62
     7
 10
524.0006245506
 20
1190.7251929145
 30
0.0
  0
SEQEND
  5
9A4
  8
0
  6
CONTINUOUS
 62
     7
  0
LINE
  5
114
  8
0
  6
CONTINUOUS
 62
     7
 10
522.4056005311
 20
1190.7251929145
 30
0.0
 11
524.0006245506
 21
1190.7251929145
 31
0.0
  0
LINE
  5
115
  8
0
  6
CONTINUOUS
 62
     7
 10
527.6356100869
 20
1190.7251929145
 30
0.0
 11
524.0006245506
 21
1190.7251929145
 31
0.0
  0
ARC
  5
116
  8
0
  6
CONTINUOUS
 62
     7
 10
533.2350431946
 20
1191.342078856
 30
0.0
 40
5.63331158304786
 50
155.1853632483
 51
186.2868857108
  0
LINE
  5
117
  8
0
  6
CONTINUOUS
 62
     7
 10
527.6356100869
 20
1168.7251930337
 30
0.0
 11
527.6356100869
 21
1190.7251929145
 31
0.0
  0
LINE
  5
118
  8
0
  6
CONTINUOUS
 62
     7
 10
524.0006245506
 20
1190.7251929145
 30
0.0
 11
524.0006245506
 21
1168.7251930337
 31
0.0
  0
LINE
  5
119
  8
0
  6
CONTINUOUS
 62
     7
 10
527.6356100869
 20
1168.7251930337
 30
0.0
 11
524.0006245506
 21
1168.7251930337
 31
0.0
  0
LINE
  5
11A
  8
0
  6
CONTINUOUS
 62
     7
 10
527.6356100869
 20
1190.7251929145
 30
0.0
 11
530.3045533431
 21
1190.7251929145
 31
0.0
  0
LINE
  5
11B
  8
0
  6
CONTINUOUS
 62
     7
 10
528.3295534384
 20
1193.7180464368
 30
0.0
 11
528.1218536031
 21
1193.7062894206
 31
0.0
  0
ARC
  5
11C
  8
0
  6
CONTINUOUS
 62
     7
 10
527.5653210684
 20
1191.0656422301
 30
0.0
 40
2.760307807347791
 50
352.9152444829
 51
73.9268185532
  0
LINE
  5
11D
  8
0
  6
CONTINUOUS
 62
     7
 10
530.3045533431
 20
1190.7251929145
 30
0.0
 11
530.3045533431
 21
1168.7251930337
 31
0.0
  0
LINE
  5
11E
  8
0
  6
CONTINUOUS
 62
     7
 10
530.3045533431
 20
1168.7251930337
 30
0.0
 11
527.6356100869
 21
1168.7251930337
 31
0.0
  0
LINE
  5
11F
  8
0
  6
CONTINUOUS
 62
     7
 10
524.0006245506
 20
1168.7251930337
 30
0.0
 11
522.4056005311
 21
1168.7251930337
 31
0.0
  0
LINE
  5
120
  8
0
  6
CONTINUOUS
 62
     7
 10
537.9710443151
 20
1190.7251929145
 30
0.0
 11
530.3045533431
 21
1190.7251929145
 31
0.0
  0
LINE
  5
121
  8
0
  6
CONTINUOUS
 62
     7
 10
537.9710443151
 20
1168.7251930337
 30
0.0
 11
530.3045533431
 21
1168.7251930337
 31
0.0
  0
POLYLINE
  5
122
  8
0
  6
CONTINUOUS
 62
     7
 66
     1
 10
0.0
 20
0.0
 30
0.0
 70
   128
  0
VERTEX
  5
5AF
  8
0
  6
CONTINUOUS
 62
     7
 10
535.9960444105
 20
1193.7180464368
 30
0.0
  0
VERTEX
  5
5B0
  8
0
  6
CONTINUOUS
 62
     7
 10
532.2286136282
 20
1193.7101488214
 30
0.0
  0
VERTEX
  5
5B1
  8
0
  6
CONTINUOUS
 62
     7
 10
528.3295534384
 20
1193.7180464368
 30
0.0
  0
SEQEND
  5
9A5
  8
0
  6
CONTINUOUS
 62
     7
  0
ARC
  5
123
  8
0
  6
CONTINUOUS
 62
     7
 10
535.2318051296
 20
1191.0656376696
 30
0.0
 40
2.760314102945959
 50
352.9153561149
 51
73.9267069213
  0
ARC
  5
124
  8
0
  6
CONTINUOUS
 62
     7
 10
528.90757497
 20
1195.45428518
 30
0.0
 40
1.82992728391289
 50
171.8633777359
 51
251.586577904
  0
ARC
  5
125
  8
0
  6
CONTINUOUS
 62
     7
 10
536.4454743751
 20
1195.5177666586
 30
0.0
 40
1.854987916360527
 50
173.9497955291
 51
255.9787418519
  0
LINE
  5
126
  8
0
  6
CONTINUOUS
 62
     7
 10
536.1240230334
 20
1193.7098806005
 30
0.0
 11
535.9960444105
 21
1193.7180464368
 31
0.0
  0
LINE
  5
127
  8
0
  6
CONTINUOUS
 62
     7
 10
538.8497210872
 20
1168.7251930337
 30
0.0
 11
537.9710443151
 21
1168.7251930337
 31
0.0
  0
ARC
  5
128
  8
0
  6
CONTINUOUS
 62
     7
 10
375.0971570887
 20
1190.6983570753
 30
0.0
 40
3.040417954082419
 50
0.5057200406
 51
81.6169136706
  0
ARC
  5
129
  8
0
  6
CONTINUOUS
 62
     7
 10
375.340470966
 20
1195.7177121689
 30
0.0
 40
2.021336721297259
 50
275.6770122184
 51
359.3189813732
  0
LINE
  5
12A
  8
0
  6
CONTINUOUS
 62
     7
 10
378.137456609
 20
1190.7251929145
 30
0.0
 11
379.324140383
 21
1190.7251929145
 31
0.0
  0
ARC
  5
12B
  8
0
  6
CONTINUOUS
 62
     7
 10
378.1947201501
 20
1191.2923634726
 30
0.0
 40
3.587803478371712
 50
137.7153428304
 51
189.0956412684
  0
LINE
  5
12C
  8
0
  6
CONTINUOUS
 62
     7
 10
378.137456609
 20
1190.7251929145
 30
0.0
 11
374.6520303023
 21
1190.7251929145
 31
0.0
  0
LINE
  5
12D
  8
0
  6
CONTINUOUS
 62
     7
 10
378.137456609
 20
1168.7251930337
 30
0.0
 11
378.137456609
 21
1190.7251929145
 31
0.0
  0
LINE
  5
12E
  8
0
  6
CONTINUOUS
 62
     7
 10
379.324140383
 20
1168.7251930337
 30
0.0
 11
378.137456609
 21
1168.7251930337
 31
0.0
  0
LINE
  5
12F
  8
0
  6
CONTINUOUS
 62
     7
 10
374.6520303023
 20
1190.7251929145
 30
0.0
 11
374.6520303023
 21
1168.7251930337
 31
0.0
  0
LINE
  5
130
  8
0
  6
CONTINUOUS
 62
     7
 10
378.137456609
 20
1168.7251930337
 30
0.0
 11
374.6520303023
 21
1168.7251930337
 31
0.0
  0
LINE
  5
131
  8
0
  6
CONTINUOUS
 62
     7
 10
372.7547921074
 20
1190.7251929145
 30
0.0
 11
374.6520303023
 21
1190.7251929145
 31
0.0
  0
ARC
  5
132
  8
0
  6
CONTINUOUS
 62
     7
 10
375.7131738059
 20
1190.7708016751
 30
0.0
 40
2.958733248093633
 50
95.0507602961
 51
180.8832472455
  0
LINE
  5
133
  8
0
  6
CONTINUOUS
 62
     7
 10
375.5404226315
 20
1193.7062894206
 30
0.0
 11
375.452692045
 21
1193.7180464368
 31
0.0
  0
LINE
  5
134
  8
0
  6
CONTINUOUS
 62
     7
 10
372.7547921074
 20
1168.7251930337
 30
0.0
 11
372.7547921074
 21
1190.7251929145
 31
0.0
  0
LINE
  5
135
  8
0
  6
CONTINUOUS
 62
     7
 10
374.6520303023
 20
1168.7251930337
 30
0.0
 11
372.7547921074
 21
1168.7251930337
 31
0.0
  0
LINE
  5
136
  8
0
  6
CONTINUOUS
 62
     7
 10
372.7547921074
 20
1190.7251929145
 30
0.0
 11
369.948665036
 21
1190.7251929145
 31
0.0
  0
ARC
  5
137
  8
0
  6
CONTINUOUS
 62
     7
 10
372.9070379795
 20
1190.7708095673
 30
0.0
 40
2.958724615740946
 50
95.0506048675
 51
180.883402674
  0
POLYLINE
  5
138
  8
0
  6
CONTINUOUS
 62
     7
 66
     1
 10
0.0
 20
0.0
 30
0.0
 70
   128
  0
VERTEX
  5
5B2
  8
0
  6
CONTINUOUS
 62
     7
 10
375.452692045
 20
1193.7180464368
 30
0.0
  0
VERTEX
  5
5B3
  8
0
  6
CONTINUOUS
 62
     7
 10
373.9597298038
 20
1193.7101488214
 30
0.0
  0
VERTEX
  5
5B4
  8
0
  6
CONTINUOUS
 62
     7
 10
372.6465649736
 20
1193.7180464368
 30
0.0
  0
SEQEND
  5
9A6
  8
0
  6
CONTINUOUS
 62
     7
  0
ARC
  5
139
  8
0
  6
CONTINUOUS
 62
     7
 10
375.2621001521
 20
1195.6657524201
 30
0.0
 40
1.95700890829421
 50
275.5888593234
 51
1.3916742474
  0
LINE
  5
13A
  8
0
  6
CONTINUOUS
 62
     7
 10
372.7547921074
 20
1168.7251930337
 30
0.0
 11
369.948665036
 21
1168.7251930337
 31
0.0
  0
ARC
  5
13B
  8
0
  6
CONTINUOUS
 62
     7
 10
372.4868630436
 20
1195.6964266183
 30
0.0
 40
1.984815570578167
 50
274.6151132941
 51
0.4865744873
  0
POLYLINE
  5
13C
  8
0
  6
CONTINUOUS
 62
     7
 66
     1
 10
0.0
 20
0.0
 30
0.0
 70
   128
  0
VERTEX
  5
5B5
  8
0
  6
CONTINUOUS
 62
     7
 10
372.5908197296
 20
1193.7062894206
 30
0.0
  0
VERTEX
  5
5B6
  8
0
  6
CONTINUOUS
 62
     7
 10
372.9522995484
 20
1193.766877542
 30
0.0
  0
VERTEX
  5
5B7
  8
0
  6
CONTINUOUS
 62
     7
 10
373.2060812247
 20
1193.8544814687
 30
0.0
  0
SEQEND
  5
9A7
  8
0
  6
CONTINUOUS
 62
     7
  0
LINE
  5
13D
  8
0
  6
CONTINUOUS
 62
     7
 10
369.948665036
 20
1168.7251930337
 30
0.0
 11
369.8464430702
 21
1168.7251930337
 31
0.0
  0
LINE
  5
13E
  8
0
  6
CONTINUOUS
 62
     7
 10
561.5363068712
 20
1165.2251933913
 30
0.0
 11
561.5363068712
 21
1126.2251888614
 31
0.0
  0
LINE
  5
13F
  8
0
  6
CONTINUOUS
 62
     7
 10
551.5363089574
 20
1126.2251888614
 30
0.0
 11
551.5363089574
 21
1165.2251933913
 31
0.0
  0
LINE
  5
140
  8
0
  6
CONTINUOUS
 62
     7
 10
603.0411295426
 20
1124.7251932721
 30
0.0
 11
602.9911212456
 21
1124.7251932721
 31
0.0
  0
LINE
  5
141
  8
0
  6
CONTINUOUS
 62
     7
 10
602.9911212456
 20
1126.2251888614
 30
0.0
 11
603.0411295426
 21
1126.2251888614
 31
0.0
  0
LINE
  5
142
  8
0
  6
CONTINUOUS
 62
     7
 10
603.0411295426
 20
1126.2251888614
 30
0.0
 11
603.0411295426
 21
1124.7251932721
 31
0.0
  0
LINE
  5
143
  8
0
  6
CONTINUOUS
 62
     7
 10
603.0411295426
 20
1143.1437735658
 30
0.0
 11
602.9911212456
 21
1143.1437735658
 31
0.0
  0
LINE
  5
144
  8
0
  6
CONTINUOUS
 62
     7
 10
603.0411295426
 20
1143.1437735658
 30
0.0
 11
603.0411295426
 21
1126.2251888614
 31
0.0
  0
LINE
  5
145
  8
0
  6
CONTINUOUS
 62
     7
 10
603.0911229384
 20
1141.6437779765
 30
0.0
 11
603.0411295426
 21
1141.6437779765
 31
0.0
  0
LINE
  5
146
  8
0
  6
CONTINUOUS
 62
     7
 10
603.0911229384
 20
1141.6437779765
 30
0.0
 11
603.0911229384
 21
1126.2251888614
 31
0.0
  0
LINE
  5
147
  8
0
  6
CONTINUOUS
 62
     7
 10
603.0911229384
 20
1126.2251888614
 30
0.0
 11
603.0411295426
 21
1126.2251888614
 31
0.0
  0
LINE
  5
148
  8
0
  6
CONTINUOUS
 62
     7
 10
603.0411295426
 20
1143.6437671285
 30
0.0
 11
603.0411295426
 21
1143.1437735658
 31
0.0
  0
LINE
  5
149
  8
0
  6
CONTINUOUS
 62
     7
 10
598.2460550797
 20
1085.0363080602
 30
0.0
 11
566.7802043092
 21
1171.4880322318
 31
0.0
  0
POLYLINE
  5
14A
  8
0
  6
CONTINUOUS
 62
     7
 66
     1
 10
0.0
 20
0.0
 30
0.0
 70
   128
  0
VERTEX
  5
5B8
  8
0
  6
CONTINUOUS
 62
     7
 10
566.7802043092
 20
1171.4880322318
 30
0.0
  0
VERTEX
  5
5B9
  8
0
  6
CONTINUOUS
 62
     7
 10
567.0918620956
 20
1171.6014598708
 30
0.0
  0
VERTEX
  5
5BA
  8
0
  6
CONTINUOUS
 62
     7
 10
567.3915393484
 20
1171.7105363708
 30
0.0
  0
VERTEX
  5
5BB
  8
0
  6
CONTINUOUS
 62
     7
 10
567.6677174699
 20
1171.8110596042
 30
0.0
  0
VERTEX
  5
5BC
  8
0
  6
CONTINUOUS
 62
     7
 10
567.9097942841
 20
1171.8991552692
 30
0.0
  0
VERTEX
  5
5BD
  8
0
  6
CONTINUOUS
 62
     7
 10
568.1084640157
 20
1171.9714706044
 30
0.0
  0
VERTEX
  5
5BE
  8
0
  6
CONTINUOUS
 62
     7
 10
568.2560823691
 20
1172.0252041917
 30
0.0
  0
VERTEX
  5
5BF
  8
0
  6
CONTINUOUS
 62
     7
 10
568.346986903
 20
1172.0582847695
 30
0.0
  0
VERTEX
  5
5C0
  8
0
  6
CONTINUOUS
 62
     7
 10
568.377683295
 20
1172.0694606404
 30
0.0
  0
SEQEND
  5
9A8
  8
0
  6
CONTINUOUS
 62
     7
  0
LINE
  5
14B
  8
0
  6
CONTINUOUS
 62
     7
 10
568.377683295
 20
1172.0694606404
 30
0.0
 11
599.8435340655
 21
1085.6177364688
 31
0.0
  0
POLYLINE
  5
14C
  8
0
  6
CONTINUOUS
 62
     7
 66
     1
 10
0.0
 20
0.0
 30
0.0
 70
   128
  0
VERTEX
  5
5C1
  8
0
  6
CONTINUOUS
 62
     7
 10
598.2460550797
 20
1085.0363080602
 30
0.0
  0
VERTEX
  5
5C2
  8
0
  6
CONTINUOUS
 62
     7
 10
598.5577128661
 20
1085.1497356992
 30
0.0
  0
VERTEX
  5
5C3
  8
0
  6
CONTINUOUS
 62
     7
 10
598.8573901189
 20
1085.2588121991
 30
0.0
  0
VERTEX
  5
5C4
  8
0
  6
CONTINUOUS
 62
     7
 10
599.1335682404
 20
1085.3593354325
 30
0.0
  0
VERTEX
  5
5C5
  8
0
  6
CONTINUOUS
 62
     7
 10
599.3756525052
 20
1085.4474385481
 30
0.0
  0
VERTEX
  5
5C6
  8
0
  6
CONTINUOUS
 62
     7
 10
599.5743147862
 20
1085.5197464328
 30
0.0
  0
VERTEX
  5
5C7
  8
0
  6
CONTINUOUS
 62
     7
 10
599.7219405902
 20
1085.5734800201
 30
0.0
  0
VERTEX
  5
5C8
  8
0
  6
CONTINUOUS
 62
     7
 10
599.8128376734
 20
1085.6065680485
 30
0.0
  0
VERTEX
  5
5C9
  8
0
  6
CONTINUOUS
 62
     7
 10
599.8435340655
 20
1085.6177364688
 30
0.0
  0
SEQEND
  5
9A9
  8
0
  6
CONTINUOUS
 62
     7
  0
LINE
  5
14D
  8
0
  6
CONTINUOUS
 62
     7
 10
594.2053817046
 20
1083.5656156044
 30
0.0
 11
562.7395309341
 21
1170.0173323255
 31
0.0
  0
LINE
  5
14E
  8
0
  6
CONTINUOUS
 62
     7
 10
566.7802043092
 20
1171.4880322318
 30
0.0
 11
562.7395309341
 21
1170.0173323255
 31
0.0
  0
LINE
  5
14F
  8
0
  6
CONTINUOUS
 62
     7
 10
594.2053817046
 20
1083.5656156044
 30
0.0
 11
598.2460550797
 21
1085.0363080602
 31
0.0
  0
POLYLINE
  5
150
  8
0
  6
CONTINUOUS
 62
     7
 66
     1
 10
0.0
 20
0.0
 30
0.0
 70
   128
  0
VERTEX
  5
5CA
  8
0
  6
CONTINUOUS
 62
     7
 10
566.7802043092
 20
1171.4880322318
 30
0.0
  0
VERTEX
  5
5CB
  8
0
  6
CONTINUOUS
 62
     7
 10
566.3998745215
 20
1172.5329761605
 30
0.0
  0
VERTEX
  5
5CC
  8
0
  6
CONTINUOUS
 62
     7
 10
566.0341627729
 20
1173.537776361
 30
0.0
  0
VERTEX
  5
5CD
  8
0
  6
CONTINUOUS
 62
     7
 10
565.6971134079
 20
1174.4637941222
 30
0.0
  0
VERTEX
  5
5CE
  8
0
  6
CONTINUOUS
 62
     7
 10
565.4016904366
 20
1175.2754603725
 30
0.0
  0
VERTEX
  5
5CF
  8
0
  6
CONTINUOUS
 62
     7
 10
565.159248544
 20
1175.9415869813
 30
0.0
  0
VERTEX
  5
5D0
  8
0
  6
CONTINUOUS
 62
     7
 10
564.9790935052
 20
1176.4365588527
 30
0.0
  0
VERTEX
  5
5D1
  8
0
  6
CONTINUOUS
 62
     7
 10
564.8681543601
 20
1176.7413621049
 30
0.0
  0
VERTEX
  5
5D2
  8
0
  6
CONTINUOUS
 62
     7
 10
564.8306928408
 20
1176.8442695241
 30
0.0
  0
SEQEND
  5
9AA
  8
0
  6
CONTINUOUS
 62
     7
  0
ARC
  5
151
  8
0
  6
CONTINUOUS
 62
     7
 10
565.412127069
 20
1175.2467960276
 30
0.0
 40
1.699999999999982
 50
20.0
 51
110.0
  0
POLYLINE
  5
152
  8
0
  6
CONTINUOUS
 62
     7
 66
     1
 10
0.0
 20
0.0
 30
0.0
 70
   128
  0
VERTEX
  5
5D3
  8
0
  6
CONTINUOUS
 62
     7
 10
567.0096076858
 20
1175.8282338481
 30
0.0
  0
VERTEX
  5
5D4
  8
0
  6
CONTINUOUS
 62
     7
 10
567.0358933342
 20
1175.7560079198
 30
0.0
  0
VERTEX
  5
5D5
  8
0
  6
CONTINUOUS
 62
     7
 10
567.1137444508
 20
1175.542116652
 30
0.0
  0
VERTEX
  5
5D6
  8
0
  6
CONTINUOUS
 62
     7
 10
567.2401659024
 20
1175.1947705846
 30
0.0
  0
VERTEX
  5
5D7
  8
0
  6
CONTINUOUS
 62
     7
 10
567.4103073609
 20
1174.7273062568
 30
0.0
  0
VERTEX
  5
5D8
  8
0
  6
CONTINUOUS
 62
     7
 10
567.617619766
 20
1174.1577242713
 30
0.0
  0
VERTEX
  5
5D9
  8
0
  6
CONTINUOUS
 62
     7
 10
567.8541458976
 20
1173.5078846316
 30
0.0
  0
VERTEX
  5
5DA
  8
0
  6
CONTINUOUS
 62
     7
 10
568.1107885969
 20
1172.8027616839
 30
0.0
  0
VERTEX
  5
5DB
  8
0
  6
CONTINUOUS
 62
     7
 10
568.377683295
 20
1172.0694606404
 30
0.0
  0
SEQEND
  5
9AB
  8
0
  6
CONTINUOUS
 62
     7
  0
LINE
  5
153
  8
0
  6
CONTINUOUS
 62
     7
 10
560.7900120151
 20
1175.3735845189
 30
0.0
 11
564.8306928408
 21
1176.8442695241
 31
0.0
  0
POLYLINE
  5
154
  8
0
  6
CONTINUOUS
 62
     7
 66
     1
 10
0.0
 20
0.0
 30
0.0
 70
   128
  0
VERTEX
  5
5DC
  8
0
  6
CONTINUOUS
 62
     7
 10
562.7395309341
 20
1170.0173323255
 30
0.0
  0
VERTEX
  5
5DD
  8
0
  6
CONTINUOUS
 62
     7
 10
562.3592011464
 20
1171.0622911553
 30
0.0
  0
VERTEX
  5
5DE
  8
0
  6
CONTINUOUS
 62
     7
 10
561.9934819472
 20
1172.0670913558
 30
0.0
  0
VERTEX
  5
5DF
  8
0
  6
CONTINUOUS
 62
     7
 10
561.6564400327
 20
1172.993109117
 30
0.0
  0
VERTEX
  5
5E0
  8
0
  6
CONTINUOUS
 62
     7
 10
561.3610170615
 20
1173.8047753673
 30
0.0
  0
VERTEX
  5
5E1
  8
0
  6
CONTINUOUS
 62
     7
 10
561.1185677183
 20
1174.4709019761
 30
0.0
  0
VERTEX
  5
5E2
  8
0
  6
CONTINUOUS
 62
     7
 10
560.9384126795
 20
1174.9658738475
 30
0.0
  0
VERTEX
  5
5E3
  8
0
  6
CONTINUOUS
 62
     7
 10
560.8274735344
 20
1175.2706621985
 30
0.0
  0
VERTEX
  5
5E4
  8
0
  6
CONTINUOUS
 62
     7
 10
560.7900120151
 20
1175.3735845189
 30
0.0
  0
SEQEND
  5
9AC
  8
0
  6
CONTINUOUS
 62
     7
  0
POLYLINE
  5
155
  8
0
  6
CONTINUOUS
 62
     7
 66
     1
 10
0.0
 20
0.0
 30
0.0
 70
   128
  0
VERTEX
  5
5E5
  8
0
  6
CONTINUOUS
 62
     7
 10
599.8435340655
 20
1085.6177364688
 30
0.0
  0
VERTEX
  5
5E6
  8
0
  6
CONTINUOUS
 62
     7
 10
600.1104436648
 20
1084.8844354253
 30
0.0
  0
VERTEX
  5
5E7
  8
0
  6
CONTINUOUS
 62
     7
 10
600.367086364
 20
1084.1793199282
 30
0.0
  0
VERTEX
  5
5E8
  8
0
  6
CONTINUOUS
 62
     7
 10
600.6035975945
 20
1083.5294802885
 30
0.0
  0
VERTEX
  5
5E9
  8
0
  6
CONTINUOUS
 62
     7
 10
600.8109174502
 20
1082.9598834019
 30
0.0
  0
VERTEX
  5
5EA
  8
0
  6
CONTINUOUS
 62
     7
 10
600.9810589087
 20
1082.4924339752
 30
0.0
  0
VERTEX
  5
5EB
  8
0
  6
CONTINUOUS
 62
     7
 10
601.1074803603
 20
1082.1450879078
 30
0.0
  0
VERTEX
  5
5EC
  8
0
  6
CONTINUOUS
 62
     7
 10
601.1853389275
 20
1081.9311891894
 30
0.0
  0
VERTEX
  5
5ED
  8
0
  6
CONTINUOUS
 62
     7
 10
601.2116245759
 20
1081.8589707117
 30
0.0
  0
SEQEND
  5
9AD
  8
0
  6
CONTINUOUS
 62
     7
  0
ARC
  5
156
  8
0
  6
CONTINUOUS
 62
     7
 10
599.6141414015
 20
1081.277533949
 30
0.0
 40
1.70000000000006
 50
290.0
 51
20.0
  0
POLYLINE
  5
157
  8
0
  6
CONTINUOUS
 62
     7
 66
     1
 10
0.0
 20
0.0
 30
0.0
 70
   128
  0
VERTEX
  5
5EE
  8
0
  6
CONTINUOUS
 62
     7
 10
600.1955739987
 20
1079.6800558667
 30
0.0
  0
VERTEX
  5
5EF
  8
0
  6
CONTINUOUS
 62
     7
 10
600.1581124795
 20
1079.7829781871
 30
0.0
  0
VERTEX
  5
5F0
  8
0
  6
CONTINUOUS
 62
     7
 10
600.0471733344
 20
1080.0877739887
 30
0.0
  0
VERTEX
  5
5F1
  8
0
  6
CONTINUOUS
 62
     7
 10
599.8670182955
 20
1080.5827458601
 30
0.0
  0
VERTEX
  5
5F2
  8
0
  6
CONTINUOUS
 62
     7
 10
599.6245764029
 20
1081.2488650184
 30
0.0
  0
VERTEX
  5
5F3
  8
0
  6
CONTINUOUS
 62
     7
 10
599.3291459811
 20
1082.0605312686
 30
0.0
  0
VERTEX
  5
5F4
  8
0
  6
CONTINUOUS
 62
     7
 10
598.9921115172
 20
1082.9865564804
 30
0.0
  0
VERTEX
  5
5F5
  8
0
  6
CONTINUOUS
 62
     7
 10
598.626392318
 20
1083.9913492303
 30
0.0
  0
VERTEX
  5
5F6
  8
0
  6
CONTINUOUS
 62
     7
 10
598.2460550797
 20
1085.0363080602
 30
0.0
  0
SEQEND
  5
9AE
  8
0
  6
CONTINUOUS
 62
     7
  0
LINE
  5
158
  8
0
  6
CONTINUOUS
 62
     7
 10
600.1955739987
 20
1079.6800558667
 30
0.0
 11
596.1549006236
 21
1078.2093708615
 31
0.0
  0
POLYLINE
  5
159
  8
0
  6
CONTINUOUS
 62
     7
 66
     1
 10
0.0
 20
0.0
 30
0.0
 70
   128
  0
VERTEX
  5
5F7
  8
0
  6
CONTINUOUS
 62
     7
 10
596.1549006236
 20
1078.2093708615
 30
0.0
  0
VERTEX
  5
5F8
  8
0
  6
CONTINUOUS
 62
     7
 10
596.1174391043
 20
1078.3122857313
 30
0.0
  0
VERTEX
  5
5F9
  8
0
  6
CONTINUOUS
 62
     7
 10
596.0064999592
 20
1078.6170889835
 30
0.0
  0
VERTEX
  5
5FA
  8
0
  6
CONTINUOUS
 62
     7
 10
595.8263449204
 20
1079.1120608549
 30
0.0
  0
VERTEX
  5
5FB
  8
0
  6
CONTINUOUS
 62
     7
 10
595.5839030278
 20
1079.7781800132
 30
0.0
  0
VERTEX
  5
5FC
  8
0
  6
CONTINUOUS
 62
     7
 10
595.288472606
 20
1080.5898462634
 30
0.0
  0
VERTEX
  5
5FD
  8
0
  6
CONTINUOUS
 62
     7
 10
594.9514232409
 20
1081.5158714752
 30
0.0
  0
VERTEX
  5
5FE
  8
0
  6
CONTINUOUS
 62
     7
 10
594.5857189429
 20
1082.5206642251
 30
0.0
  0
VERTEX
  5
5FF
  8
0
  6
CONTINUOUS
 62
     7
 10
594.2053817046
 20
1083.5656156044
 30
0.0
  0
SEQEND
  5
9AF
  8
0
  6
CONTINUOUS
 62
     7
  0
LINE
  5
15A
  8
0
  6
CONTINUOUS
 62
     7
 10
572.6852662695
 20
1163.1582831245
 30
0.0
 11
597.7734498513
 21
1094.2290504675
 31
0.0
  0
POLYLINE
  5
15B
  8
0
  6
CONTINUOUS
 62
     7
 66
     1
 10
0.0
 20
0.0
 30
0.0
 70
   128
  0
VERTEX
  5
600
  8
0
  6
CONTINUOUS
 62
     7
 10
597.7734498513
 20
1094.2290504675
 30
0.0
  0
VERTEX
  5
601
  8
0
  6
CONTINUOUS
 62
     7
 10
597.5901357663
 20
1094.1623305183
 30
0.0
  0
VERTEX
  5
602
  8
0
  6
CONTINUOUS
 62
     7
 10
597.4138550294
 20
1094.0981661182
 30
0.0
  0
VERTEX
  5
603
  8
0
  6
CONTINUOUS
 62
     7
 10
597.2513876689
 20
1094.0390383105
 30
0.0
  0
VERTEX
  5
604
  8
0
  6
CONTINUOUS
 62
     7
 10
597.1089921725
 20
1093.9872120719
 30
0.0
  0
VERTEX
  5
605
  8
0
  6
CONTINUOUS
 62
     7
 10
596.9921223653
 20
1093.9446767073
 30
0.0
  0
VERTEX
  5
606
  8
0
  6
CONTINUOUS
 62
     7
 10
596.905293299
 20
1093.9130713444
 30
0.0
  0
VERTEX
  5
607
  8
0
  6
CONTINUOUS
 62
     7
 10
596.8518130315
 20
1093.8936029773
 30
0.0
  0
VERTEX
  5
608
  8
0
  6
CONTINUOUS
 62
     7
 10
596.8337677252
 20
1093.8870315652
 30
0.0
  0
SEQEND
  5
9B0
  8
0
  6
CONTINUOUS
 62
     7
  0
POLYLINE
  5
15C
  8
0
  6
CONTINUOUS
 62
     7
 66
     1
 10
0.0
 20
0.0
 30
0.0
 70
   128
  0
VERTEX
  5
609
  8
0
  6
CONTINUOUS
 62
     7
 10
572.6852662695
 20
1163.1582831245
 30
0.0
  0
VERTEX
  5
60A
  8
0
  6
CONTINUOUS
 62
     7
 10
572.5019372833
 20
1163.0915557246
 30
0.0
  0
VERTEX
  5
60B
  8
0
  6
CONTINUOUS
 62
     7
 10
572.325663997
 20
1163.0273913245
 30
0.0
  0
VERTEX
  5
60C
  8
0
  6
CONTINUOUS
 62
     7
 10
572.163204087
 20
1162.9682635169
 30
0.0
  0
VERTEX
  5
60D
  8
0
  6
CONTINUOUS
 62
     7
 10
572.0208011401
 20
1162.9164372783
 30
0.0
  0
VERTEX
  5
60E
  8
0
  6
CONTINUOUS
 62
     7
 10
571.9039387834
 20
1162.8739093642
 30
0.0
  0
VERTEX
  5
60F
  8
0
  6
CONTINUOUS
 62
     7
 10
571.8171022666
 20
1162.8423040013
 30
0.0
  0
VERTEX
  5
610
  8
0
  6
CONTINUOUS
 62
     7
 10
571.7636294496
 20
1162.8228281837
 30
0.0
  0
VERTEX
  5
611
  8
0
  6
CONTINUOUS
 62
     7
 10
571.7455766928
 20
1162.8162567716
 30
0.0
  0
SEQEND
  5
9B1
  8
0
  6
CONTINUOUS
 62
     7
  0
LINE
  5
15D
  8
0
  6
CONTINUOUS
 62
     7
 10
602.9911212456
 20
1166.1582892041
 30
0.0
 11
602.9911212456
 21
1163.1582831245
 31
0.0
  0
LINE
  5
15E
  8
0
  6
CONTINUOUS
 62
     7
 10
600.9911171925
 20
1163.1582831245
 30
0.0
 11
602.9911212456
 21
1163.1582831245
 31
0.0
  0
LINE
  5
15F
  8
0
  6
CONTINUOUS
 62
     7
 10
600.9911171925
 20
1163.1582831245
 30
0.0
 11
600.9911171925
 21
1168.1582783561
 31
0.0
  0
ARC
  5
160
  8
0
  6
CONTINUOUS
 62
     7
 10
600.99112213
 20
1166.1582836602
 30
0.0
 40
2.000000000000227
 50
0.0
 51
90.0
  0
LINE
  5
161
  8
0
  6
CONTINUOUS
 62
     7
 10
571.7680625451
 20
1168.1582783561
 30
0.0
 11
600.9911171925
 21
1168.1582783561
 31
0.0
  0
LINE
  5
162
  8
0
  6
CONTINUOUS
 62
     7
 10
600.9911171925
 20
1163.1582831245
 30
0.0
 11
572.6852662695
 21
1163.1582831245
 31
0.0
  0
LINE
  5
163
  8
0
  6
CONTINUOUS
 62
     7
 10
600.9911171925
 20
1095.4001923304
 30
0.0
 11
600.9911171925
 21
1163.1582831245
 31
0.0
  0
LINE
  5
164
  8
0
  6
CONTINUOUS
 62
     7
 10
602.9911212456
 20
1163.1582831245
 30
0.0
 11
602.9911212456
 21
1095.4001923304
 31
0.0
  0
LINE
  5
165
  8
0
  6
CONTINUOUS
 62
     7
 10
600.9911171925
 20
1095.4001923304
 30
0.0
 11
602.9911212456
 21
1095.4001923304
 31
0.0
  0
LINE
  5
166
  8
0
  6
CONTINUOUS
 62
     7
 10
597.7734498513
 20
1094.2290504675
 30
0.0
 11
600.9911171925
 21
1095.4001923304
 31
0.0
  0
POLYLINE
  5
167
  8
0
  6
CONTINUOUS
 62
     7
 66
     1
 10
0.0
 20
0.0
 30
0.0
 70
   128
  0
VERTEX
  5
612
  8
0
  6
CONTINUOUS
 62
     7
 10
601.6751549971
 20
1090.3282691937
 30
0.0
  0
VERTEX
  5
613
  8
0
  6
CONTINUOUS
 62
     7
 10
601.6647688878
 20
1090.4053230982
 30
0.0
  0
VERTEX
  5
614
  8
0
  6
CONTINUOUS
 62
     7
 10
601.6339085829
 20
1090.6341453295
 30
0.0
  0
VERTEX
  5
615
  8
0
  6
CONTINUOUS
 62
     7
 10
601.5835128558
 20
1091.0077770453
 30
0.0
  0
VERTEX
  5
616
  8
0
  6
CONTINUOUS
 62
     7
 10
601.5151314271
 20
1091.5148710113
 30
0.0
  0
VERTEX
  5
617
  8
0
  6
CONTINUOUS
 62
     7
 10
601.430820657
 20
1092.1400194268
 30
0.0
  0
VERTEX
  5
618
  8
0
  6
CONTINUOUS
 62
     7
 10
601.3331435454
 20
1092.864230762
 30
0.0
  0
VERTEX
  5
619
  8
0
  6
CONTINUOUS
 62
     7
 10
601.2250803244
 20
1093.6654885511
 30
0.0
  0
VERTEX
  5
61A
  8
0
  6
CONTINUOUS
 62
     7
 10
601.1099092496
 20
1094.519459198
 30
0.0
  0
VERTEX
  5
61B
  8
0
  6
CONTINUOUS
 62
     7
 10
600.9911171925
 20
1095.4001923304
 30
0.0
  0
SEQEND
  5
9B2
  8
0
  6
CONTINUOUS
 62
     7
  0
LINE
  5
168
  8
0
  6
CONTINUOUS
 62
     7
 10
602.9911212456
 20
1095.4001923304
 30
0.0
 11
602.9911212456
 21
1092.2076557975
 31
0.0
  0
ARC
  5
169
  8
0
  6
CONTINUOUS
 62
     7
 10
600.99112213
 20
1092.2076561175
 30
0.0
 40
2.0
 50
290.0
 51
0.0
  0
LINE
  5
16A
  8
0
  6
CONTINUOUS
 62
     7
 10
601.6751549971
 20
1090.3282691937
 30
0.0
 11
600.3043971789
 21
1089.8293485146
 31
0.0
  0
LINE
  5
16B
  8
0
  6
CONTINUOUS
 62
     7
 10
563.7363068593
 20
1160.4832862716
 30
0.0
 11
563.7363068593
 21
1092.7251880269
 31
0.0
  0
ARC
  5
16C
  8
0
  6
CONTINUOUS
 62
     7
 10
569.5363101018
 20
1121.2251899343
 30
0.0
 40
0.5
 50
180.0
 51
270.0
  0
LINE
  5
16D
  8
0
  6
CONTINUOUS
 62
     7
 10
569.5363081825
 20
1120.7251851659
 30
0.0
 11
569.936307503
 21
1120.7251851659
 31
0.0
  0
ARC
  5
16E
  8
0
  6
CONTINUOUS
 62
     7
 10
569.9363101018
 20
1121.2251899343
 30
0.0
 40
0.5
 50
270.0
 51
0.0
  0
LINE
  5
16F
  8
0
  6
CONTINUOUS
 62
     7
 10
570.4363085163
 20
1121.2251936297
 30
0.0
 11
570.4363085163
 21
1128.2251929145
 31
0.0
  0
ARC
  5
170
  8
0
  6
CONTINUOUS
 62
     7
 10
569.9363101018
 20
1128.2251899343
 30
0.0
 40
0.5
 50
0.0
 51
90.0
  0
LINE
  5
171
  8
0
  6
CONTINUOUS
 62
     7
 10
569.936307503
 20
1128.7251864772
 30
0.0
 11
569.5363081825
 21
1128.7251864772
 31
0.0
  0
ARC
  5
172
  8
0
  6
CONTINUOUS
 62
     7
 10
569.5363101018
 20
1128.2251899343
 30
0.0
 40
0.5
 50
90.0
 51
180.0
  0
LINE
  5
173
  8
0
  6
CONTINUOUS
 62
     7
 10
569.0363071692
 20
1128.2251929145
 30
0.0
 11
569.0363071692
 21
1121.2251936297
 31
0.0
  0
POLYLINE
  5
174
  8
0
  6
CONTINUOUS
 62
     7
 66
     1
 10
0.0
 20
0.0
 30
0.0
 70
   128
  0
VERTEX
  5
61C
  8
0
  6
CONTINUOUS
 62
     7
 10
563.0522690547
 20
1165.5552094083
 30
0.0
  0
VERTEX
  5
61D
  8
0
  6
CONTINUOUS
 62
     7
 10
563.0654118788
 20
1165.4577409129
 30
0.0
  0
VERTEX
  5
61E
  8
0
  6
CONTINUOUS
 62
     7
 10
563.1043411625
 20
1165.1691203218
 30
0.0
  0
VERTEX
  5
61F
  8
0
  6
CONTINUOUS
 62
     7
 10
563.1675518882
 20
1164.7004340987
 30
0.0
  0
VERTEX
  5
620
  8
0
  6
CONTINUOUS
 62
     7
 10
563.2526226175
 20
1164.0696679454
 30
0.0
  0
VERTEX
  5
621
  8
0
  6
CONTINUOUS
 62
     7
 10
563.3562750948
 20
1163.3010958533
 30
0.0
  0
VERTEX
  5
622
  8
0
  6
CONTINUOUS
 62
     7
 10
563.4745381606
 20
1162.4242221217
 30
0.0
  0
VERTEX
  5
623
  8
0
  6
CONTINUOUS
 62
     7
 10
563.6028595102
 20
1161.4727680783
 30
0.0
  0
VERTEX
  5
624
  8
0
  6
CONTINUOUS
 62
     7
 10
563.7363068593
 20
1160.4832862716
 30
0.0
  0
SEQEND
  5
9B3
  8
0
  6
CONTINUOUS
 62
     7
  0
LINE
  5
175
  8
0
  6
CONTINUOUS
 62
     7
 10
563.0522690547
 20
1165.5552094083
 30
0.0
 11
564.2102159393
 21
1165.9766589503
 31
0.0
  0
LINE
  5
176
  8
0
  6
CONTINUOUS
 62
     7
 10
563.7363068593
 20
1160.4832862716
 30
0.0
 11
561.7363102567
 21
1160.4832862716
 31
0.0
  0
LINE
  5
177
  8
0
  6
CONTINUOUS
 62
     7
 10
561.7363102567
 20
1160.4832862716
 30
0.0
 11
561.7363102567
 21
1163.6758153539
 31
0.0
  0
ARC
  5
178
  8
0
  6
CONTINUOUS
 62
     7
 10
563.7363101018
 20
1163.6758174769
 30
0.0
 40
2.0
 50
110.0
 51
180.0
  0
LINE
  5
179
  8
0
  6
CONTINUOUS
 62
     7
 10
592.6914237273
 20
1087.7251927953
 30
0.0
 11
563.7363068593
 21
1087.7251927953
 31
0.0
  0
LINE
  5
17A
  8
0
  6
CONTINUOUS
 62
     7
 10
563.7363068593
 20
1092.7251880269
 30
0.0
 11
563.7363068593
 21
1087.7251927953
 31
0.0
  0
LINE
  5
17B
  8
0
  6
CONTINUOUS
 62
     7
 10
563.7363068593
 20
1092.7251880269
 30
0.0
 11
561.7363102567
 21
1092.7251880269
 31
0.0
  0
LINE
  5
17C
  8
0
  6
CONTINUOUS
 62
     7
 10
561.7363102567
 20
1092.7251880269
 30
0.0
 11
561.7363102567
 21
1160.4832862716
 31
0.0
  0
LINE
  5
17D
  8
0
  6
CONTINUOUS
 62
     7
 10
561.7363102567
 20
1089.7251893978
 30
0.0
 11
561.7363102567
 21
1092.7251880269
 31
0.0
  0
ARC
  5
17E
  8
0
  6
CONTINUOUS
 62
     7
 10
563.7363101018
 20
1089.7251899343
 30
0.0
 40
2.0
 50
180.0
 51
270.0
  0
LINE
  5
17F
  8
0
  6
CONTINUOUS
 62
     7
 10
569.936307503
 20
1128.2251929145
 30
0.0
 11
569.936307503
 21
1128.7251864772
 31
0.0
  0
LINE
  5
180
  8
0
  6
CONTINUOUS
 62
     7
 10
569.936307503
 20
1128.2251929145
 30
0.0
 11
570.4363085163
 21
1128.2251929145
 31
0.0
  0
LINE
  5
181
  8
0
  6
CONTINUOUS
 62
     7
 10
569.936307503
 20
1121.2251936297
 30
0.0
 11
569.936307503
 21
1128.2251929145
 31
0.0
  0
LINE
  5
182
  8
0
  6
CONTINUOUS
 62
     7
 10
569.936307503
 20
1121.2251936297
 30
0.0
 11
570.4363085163
 21
1121.2251936297
 31
0.0
  0
LINE
  5
183
  8
0
  6
CONTINUOUS
 62
     7
 10
569.936307503
 20
1128.2251929145
 30
0.0
 11
569.5363081825
 21
1128.2251929145
 31
0.0
  0
LINE
  5
184
  8
0
  6
CONTINUOUS
 62
     7
 10
569.5363081825
 20
1128.7251864772
 30
0.0
 11
569.5363081825
 21
1128.2251929145
 31
0.0
  0
LINE
  5
185
  8
0
  6
CONTINUOUS
 62
     7
 10
569.0363071692
 20
1128.2251929145
 30
0.0
 11
569.5363081825
 21
1128.2251929145
 31
0.0
  0
LINE
  5
186
  8
0
  6
CONTINUOUS
 62
     7
 10
569.5363081825
 20
1128.2251929145
 30
0.0
 11
569.5363081825
 21
1121.2251936297
 31
0.0
  0
LINE
  5
187
  8
0
  6
CONTINUOUS
 62
     7
 10
569.0363071692
 20
1121.2251936297
 30
0.0
 11
569.5363081825
 21
1121.2251936297
 31
0.0
  0
LINE
  5
188
  8
0
  6
CONTINUOUS
 62
     7
 10
569.936307503
 20
1121.2251936297
 30
0.0
 11
569.936307503
 21
1120.7251851659
 31
0.0
  0
LINE
  5
189
  8
0
  6
CONTINUOUS
 62
     7
 10
569.5363081825
 20
1121.2251936297
 30
0.0
 11
569.936307503
 21
1121.2251936297
 31
0.0
  0
LINE
  5
18A
  8
0
  6
CONTINUOUS
 62
     7
 10
569.5363081825
 20
1120.7251851659
 30
0.0
 11
569.5363081825
 21
1121.2251936297
 31
0.0
  0
LINE
  5
18B
  8
0
  6
CONTINUOUS
 62
     7
 10
452.8363099155
 20
1228.7751888137
 30
0.0
 11
477.836310288
 21
1228.7751888137
 31
0.0
  0
LINE
  5
18C
  8
0
  6
CONTINUOUS
 62
     7
 10
456.3363104892
 20
1228.8251971107
 30
0.0
 11
474.3363097143
 21
1228.8251971107
 31
0.0
  0
LINE
  5
18D
  8
0
  6
CONTINUOUS
 62
     7
 10
455.8100303468
 20
1228.8251971107
 30
0.0
 11
455.8100303468
 21
1228.7751888137
 31
0.0
  0
LINE
  5
18E
  8
0
  6
CONTINUOUS
 62
     7
 10
455.8100303468
 20
1228.8251971107
 30
0.0
 11
456.3363104892
 21
1228.8251971107
 31
0.0
  0
LINE
  5
18F
  8
0
  6
CONTINUOUS
 62
     7
 10
399.353282882
 20
1168.7251930337
 30
0.0
 11
399.353282882
 21
998.7251903142
 31
0.0
  0
LINE
  5
190
  8
0
  6
CONTINUOUS
 62
     7
 10
404.9778751862
 20
1168.7251930337
 30
0.0
 11
404.9778751862
 21
998.7251903142
 31
0.0
  0
LINE
  5
191
  8
0
  6
CONTINUOUS
 62
     7
 10
411.2637661231
 20
1168.7251930337
 30
0.0
 11
411.2637661231
 21
998.7251903142
 31
0.0
  0
LINE
  5
192
  8
0
  6
CONTINUOUS
 62
     7
 10
418.1420899761
 20
1168.7251930337
 30
0.0
 11
418.1420899761
 21
998.7251903142
 31
0.0
  0
LINE
  5
193
  8
0
  6
CONTINUOUS
 62
     7
 10
425.5374803972
 20
1168.7251930337
 30
0.0
 11
425.5374803972
 21
998.7251903142
 31
0.0
  0
LINE
  5
194
  8
0
  6
CONTINUOUS
 62
     7
 10
505.1351398063
 20
998.7251903142
 30
0.0
 11
505.1351398063
 21
1168.7251930337
 31
0.0
  0
LINE
  5
195
  8
0
  6
CONTINUOUS
 62
     7
 10
512.5305302274
 20
998.7251903142
 30
0.0
 11
512.5305302274
 21
1168.7251930337
 31
0.0
  0
LINE
  5
196
  8
0
  6
CONTINUOUS
 62
     7
 10
519.4088540805
 20
998.7251903142
 30
0.0
 11
519.4088540805
 21
1168.7251930337
 31
0.0
  0
LINE
  5
197
  8
0
  6
CONTINUOUS
 62
     7
 10
525.6947450173
 20
998.7251903142
 30
0.0
 11
525.6947450173
 21
1168.7251930337
 31
0.0
  0
LINE
  5
198
  8
0
  6
CONTINUOUS
 62
     7
 10
531.3193373215
 20
998.7251903142
 30
0.0
 11
531.3193373215
 21
1168.7251930337
 31
0.0
  0
LINE
  5
199
  8
0
  6
CONTINUOUS
 62
     7
 10
509.5827974212
 20
998.7251903142
 30
0.0
 11
509.5827974212
 21
1168.7251930337
 31
0.0
  0
LINE
  5
19A
  8
0
  6
CONTINUOUS
 62
     7
 10
508.3361513746
 20
998.7251903142
 30
0.0
 11
509.5827974212
 21
998.7251903142
 31
0.0
  0
LINE
  5
19B
  8
0
  6
CONTINUOUS
 62
     7
 10
508.3361513746
 20
998.7251903142
 30
0.0
 11
508.3361513746
 21
1168.7251930337
 31
0.0
  0
LINE
  5
19C
  8
0
  6
CONTINUOUS
 62
     7
 10
422.3364688289
 20
1168.7251930337
 30
0.0
 11
422.3364688289
 21
998.7251903142
 31
0.0
  0
LINE
  5
19D
  8
0
  6
CONTINUOUS
 62
     7
 10
421.0898227823
 20
998.7251903142
 30
0.0
 11
422.3364688289
 21
998.7251903142
 31
0.0
  0
LINE
  5
19E
  8
0
  6
CONTINUOUS
 62
     7
 10
421.0898227823
 20
998.7251903142
 30
0.0
 11
421.0898227823
 21
1168.7251930337
 31
0.0
  0
LINE
  5
19F
  8
0
  6
CONTINUOUS
 62
     7
 10
509.5827974212
 20
998.7251903142
 30
0.0
 11
509.9838286472
 21
998.7251903142
 31
0.0
  0
LINE
  5
1A0
  8
0
  6
CONTINUOUS
 62
     7
 10
420.6887915564
 20
998.7251903142
 30
0.0
 11
421.0898227823
 21
998.7251903142
 31
0.0
  0
LINE
  5
1A1
  8
0
  6
CONTINUOUS
 62
     7
 10
506.4672849906
 20
1168.7251930337
 30
0.0
 11
506.4672849906
 21
998.7251903142
 31
0.0
  0
LINE
  5
1A2
  8
0
  6
CONTINUOUS
 62
     7
 10
506.4672849906
 20
998.7251903142
 30
0.0
 11
508.3361513746
 21
998.7251903142
 31
0.0
  0
LINE
  5
1A3
  8
0
  6
CONTINUOUS
 62
     7
 10
424.205335213
 20
998.7251903142
 30
0.0
 11
424.205335213
 21
1168.7251930337
 31
0.0
  0
LINE
  5
1A4
  8
0
  6
CONTINUOUS
 62
     7
 10
422.3364688289
 20
998.7251903142
 30
0.0
 11
424.205335213
 21
998.7251903142
 31
0.0
  0
LINE
  5
1A5
  8
0
  6
CONTINUOUS
 62
     7
 10
506.4672849906
 20
998.7251903142
 30
0.0
 11
505.1351398063
 21
998.7251903142
 31
0.0
  0
LINE
  5
1A6
  8
0
  6
CONTINUOUS
 62
     7
 10
425.5374803972
 20
998.7251903142
 30
0.0
 11
424.205335213
 21
998.7251903142
 31
0.0
  0
LINE
  5
1A7
  8
0
  6
CONTINUOUS
 62
     7
 10
517.3511750829
 20
998.7251903142
 30
0.0
 11
517.3511750829
 21
1168.7251930337
 31
0.0
  0
LINE
  5
1A8
  8
0
  6
CONTINUOUS
 62
     7
 10
516.069902463
 20
998.7251903142
 30
0.0
 11
517.3511750829
 21
998.7251903142
 31
0.0
  0
LINE
  5
1A9
  8
0
  6
CONTINUOUS
 62
     7
 10
516.069902463
 20
998.7251903142
 30
0.0
 11
516.069902463
 21
1168.7251930337
 31
0.0
  0
LINE
  5
1AA
  8
0
  6
CONTINUOUS
 62
     7
 10
414.6027177406
 20
1168.7251930337
 30
0.0
 11
414.6027177406
 21
998.7251903142
 31
0.0
  0
LINE
  5
1AB
  8
0
  6
CONTINUOUS
 62
     7
 10
413.3214451206
 20
998.7251903142
 30
0.0
 11
414.6027177406
 21
998.7251903142
 31
0.0
  0
LINE
  5
1AC
  8
0
  6
CONTINUOUS
 62
     7
 10
413.3214451206
 20
998.7251903142
 30
0.0
 11
413.3214451206
 21
1168.7251930337
 31
0.0
  0
LINE
  5
1AD
  8
0
  6
CONTINUOUS
 62
     7
 10
517.3511750829
 20
998.7251903142
 30
0.0
 11
517.6717810166
 21
998.7251903142
 31
0.0
  0
LINE
  5
1AE
  8
0
  6
CONTINUOUS
 62
     7
 10
413.0008391869
 20
998.7251903142
 30
0.0
 11
413.3214451206
 21
998.7251903142
 31
0.0
  0
LINE
  5
1AF
  8
0
  6
CONTINUOUS
 62
     7
 10
513.89248891
 20
1168.7251930337
 30
0.0
 11
513.89248891
 21
998.7251903142
 31
0.0
  0
LINE
  5
1B0
  8
0
  6
CONTINUOUS
 62
     7
 10
513.89248891
 20
998.7251903142
 30
0.0
 11
516.069902463
 21
998.7251903142
 31
0.0
  0
LINE
  5
1B1
  8
0
  6
CONTINUOUS
 62
     7
 10
416.7801312936
 20
998.7251903142
 30
0.0
 11
416.7801312936
 21
1168.7251930337
 31
0.0
  0
LINE
  5
1B2
  8
0
  6
CONTINUOUS
 62
     7
 10
414.6027177406
 20
998.7251903142
 30
0.0
 11
416.7801312936
 21
998.7251903142
 31
0.0
  0
LINE
  5
1B3
  8
0
  6
CONTINUOUS
 62
     7
 10
513.89248891
 20
998.7251903142
 30
0.0
 11
512.5305302274
 21
998.7251903142
 31
0.0
  0
LINE
  5
1B4
  8
0
  6
CONTINUOUS
 62
     7
 10
418.1420899761
 20
998.7251903142
 30
0.0
 11
416.7801312936
 21
998.7251903142
 31
0.0
  0
LINE
  5
1B5
  8
0
  6
CONTINUOUS
 62
     7
 10
524.5496652854
 20
998.7251903142
 30
0.0
 11
524.5496652854
 21
1168.7251930337
 31
0.0
  0
LINE
  5
1B6
  8
0
  6
CONTINUOUS
 62
     7
 10
523.2478067112
 20
998.7251903142
 30
0.0
 11
524.5496652854
 21
998.7251903142
 31
0.0
  0
LINE
  5
1B7
  8
0
  6
CONTINUOUS
 62
     7
 10
523.2478067112
 20
998.7251903142
 30
0.0
 11
523.2478067112
 21
1168.7251930337
 31
0.0
  0
LINE
  5
1B8
  8
0
  6
CONTINUOUS
 62
     7
 10
407.4248134923
 20
1168.7251930337
 30
0.0
 11
407.4248134923
 21
998.7251903142
 31
0.0
  0
LINE
  5
1B9
  8
0
  6
CONTINUOUS
 62
     7
 10
406.1229549182
 20
998.7251903142
 30
0.0
 11
407.4248134923
 21
998.7251903142
 31
0.0
  0
LINE
  5
1BA
  8
0
  6
CONTINUOUS
 62
     7
 10
406.1229549182
 20
998.7251903142
 30
0.0
 11
406.1229549182
 21
1168.7251930337
 31
0.0
  0
LINE
  5
1BB
  8
0
  6
CONTINUOUS
 62
     7
 10
524.5496652854
 20
998.7251903142
 30
0.0
 11
524.7972965074
 21
998.7251903142
 31
0.0
  0
LINE
  5
1BC
  8
0
  6
CONTINUOUS
 62
     7
 10
405.8753236962
 20
998.7251903142
 30
0.0
 11
406.1229549182
 21
998.7251903142
 31
0.0
  0
LINE
  5
1BD
  8
0
  6
CONTINUOUS
 62
     7
 10
520.7857064736
 20
1168.7251930337
 30
0.0
 11
520.7857064736
 21
998.7251903142
 31
0.0
  0
LINE
  5
1BE
  8
0
  6
CONTINUOUS
 62
     7
 10
520.7857064736
 20
998.7251903142
 30
0.0
 11
523.2478067112
 21
998.7251903142
 31
0.0
  0
LINE
  5
1BF
  8
0
  6
CONTINUOUS
 62
     7
 10
409.8869137299
 20
998.7251903142
 30
0.0
 11
409.8869137299
 21
1168.7251930337
 31
0.0
  0
LINE
  5
1C0
  8
0
  6
CONTINUOUS
 62
     7
 10
407.4248134923
 20
998.7251903142
 30
0.0
 11
409.8869137299
 21
998.7251903142
 31
0.0
  0
LINE
  5
1C1
  8
0
  6
CONTINUOUS
 62
     7
 10
520.7857064736
 20
998.7251903142
 30
0.0
 11
519.4088540805
 21
998.7251903142
 31
0.0
  0
LINE
  5
1C2
  8
0
  6
CONTINUOUS
 62
     7
 10
411.2637661231
 20
998.7251903142
 30
0.0
 11
409.8869137299
 21
998.7251903142
 31
0.0
  0
LINE
  5
1C3
  8
0
  6
CONTINUOUS
 62
     7
 10
531.0994036329
 20
998.7251903142
 30
0.0
 11
531.0994036329
 21
1168.7251930337
 31
0.0
  0
LINE
  5
1C4
  8
0
  6
CONTINUOUS
 62
     7
 10
529.7912157905
 20
998.7251903142
 30
0.0
 11
531.0994036329
 21
998.7251903142
 31
0.0
  0
LINE
  5
1C5
  8
0
  6
CONTINUOUS
 62
     7
 10
529.7912157905
 20
998.7251903142
 30
0.0
 11
529.7912157905
 21
1168.7251930337
 31
0.0
  0
LINE
  5
1C6
  8
0
  6
CONTINUOUS
 62
     7
 10
400.881404413
 20
1168.7251930337
 30
0.0
 11
400.881404413
 21
998.7251903142
 31
0.0
  0
LINE
  5
1C7
  8
0
  6
CONTINUOUS
 62
     7
 10
399.5732165706
 20
998.7251903142
 30
0.0
 11
400.881404413
 21
998.7251903142
 31
0.0
  0
LINE
  5
1C8
  8
0
  6
CONTINUOUS
 62
     7
 10
399.5732165706
 20
998.7251903142
 30
0.0
 11
399.5732165706
 21
1168.7251930337
 31
0.0
  0
LINE
  5
1C9
  8
0
  6
CONTINUOUS
 62
     7
 10
527.0714036954
 20
1168.7251930337
 30
0.0
 11
527.0714036954
 21
998.7251903142
 31
0.0
  0
LINE
  5
1CA
  8
0
  6
CONTINUOUS
 62
     7
 10
527.0714036954
 20
998.7251903142
 30
0.0
 11
529.7912157905
 21
998.7251903142
 31
0.0
  0
LINE
  5
1CB
  8
0
  6
CONTINUOUS
 62
     7
 10
403.6012165082
 20
998.7251903142
 30
0.0
 11
403.6012165082
 21
1168.7251930337
 31
0.0
  0
LINE
  5
1CC
  8
0
  6
CONTINUOUS
 62
     7
 10
400.881404413
 20
998.7251903142
 30
0.0
 11
403.6012165082
 21
998.7251903142
 31
0.0
  0
LINE
  5
1CD
  8
0
  6
CONTINUOUS
 62
     7
 10
531.0994036329
 20
998.7251903142
 30
0.0
 11
531.2823004854
 21
998.7251903142
 31
0.0
  0
LINE
  5
1CE
  8
0
  6
CONTINUOUS
 62
     7
 10
399.3903197181
 20
998.7251903142
 30
0.0
 11
399.5732165706
 21
998.7251903142
 31
0.0
  0
LINE
  5
1CF
  8
0
  6
CONTINUOUS
 62
     7
 10
527.0714036954
 20
998.7251903142
 30
0.0
 11
525.6947450173
 21
998.7251903142
 31
0.0
  0
LINE
  5
1D0
  8
0
  6
CONTINUOUS
 62
     7
 10
404.9778751862
 20
998.7251903142
 30
0.0
 11
403.6012165082
 21
998.7251903142
 31
0.0
  0
LINE
  5
1D1
  8
0
  6
CONTINUOUS
 62
     7
 10
536.9286261332
 20
998.7251903142
 30
0.0
 11
536.9286261332
 21
1168.7251930337
 31
0.0
  0
LINE
  5
1D2
  8
0
  6
CONTINUOUS
 62
     7
 10
535.628447665
 20
998.7251903142
 30
0.0
 11
536.9286261332
 21
998.7251903142
 31
0.0
  0
LINE
  5
1D3
  8
0
  6
CONTINUOUS
 62
     7
 10
535.628447665
 20
998.7251903142
 30
0.0
 11
535.628447665
 21
1168.7251930337
 31
0.0
  0
LINE
  5
1D4
  8
0
  6
CONTINUOUS
 62
     7
 10
395.0441725385
 20
1168.7251930337
 30
0.0
 11
395.0441725385
 21
998.7251903142
 31
0.0
  0
LINE
  5
1D5
  8
0
  6
CONTINUOUS
 62
     7
 10
393.7439940703
 20
998.7251903142
 30
0.0
 11
395.0441725385
 21
998.7251903142
 31
0.0
  0
LINE
  5
1D6
  8
0
  6
CONTINUOUS
 62
     7
 10
393.7439940703
 20
998.7251903142
 30
0.0
 11
393.7439940703
 21
1168.7251930337
 31
0.0
  0
LINE
  5
1D7
  8
0
  6
CONTINUOUS
 62
     7
 10
532.6807223094
 20
1168.7251930337
 30
0.0
 11
532.6807223094
 21
998.7251903142
 31
0.0
  0
LINE
  5
1D8
  8
0
  6
CONTINUOUS
 62
     7
 10
532.6807223094
 20
998.7251903142
 30
0.0
 11
535.628447665
 21
998.7251903142
 31
0.0
  0
LINE
  5
1D9
  8
0
  6
CONTINUOUS
 62
     7
 10
397.9918978942
 20
998.7251903142
 30
0.0
 11
397.9918978942
 21
1168.7251930337
 31
0.0
  0
LINE
  5
1DA
  8
0
  6
CONTINUOUS
 62
     7
 10
395.0441725385
 20
998.7251903142
 30
0.0
 11
397.9918978942
 21
998.7251903142
 31
0.0
  0
LINE
  5
1DB
  8
0
  6
CONTINUOUS
 62
     7
 10
536.9286261332
 20
998.7251903142
 30
0.0
 11
537.0557404888
 21
998.7251903142
 31
0.0
  0
LINE
  5
1DC
  8
0
  6
CONTINUOUS
 62
     7
 10
393.6168797147
 20
998.7251903142
 30
0.0
 11
393.7439940703
 21
998.7251903142
 31
0.0
  0
LINE
  5
1DD
  8
0
  6
CONTINUOUS
 62
     7
 10
532.6807223094
 20
998.7251903142
 30
0.0
 11
531.3193373215
 21
998.7251903142
 31
0.0
  0
LINE
  5
1DE
  8
0
  6
CONTINUOUS
 62
     7
 10
399.353282882
 20
998.7251903142
 30
0.0
 11
397.9918978942
 21
998.7251903142
 31
0.0
  0
LINE
  5
1DF
  8
0
  6
CONTINUOUS
 62
     7
 10
541.97347386
 20
998.7251903142
 30
0.0
 11
541.97347386
 21
1168.7251930337
 31
0.0
  0
LINE
  5
1E0
  8
0
  6
CONTINUOUS
 62
     7
 10
540.6955428255
 20
998.7251903142
 30
0.0
 11
541.97347386
 21
998.7251903142
 31
0.0
  0
LINE
  5
1E1
  8
0
  6
CONTINUOUS
 62
     7
 10
540.6955428255
 20
998.7251903142
 30
0.0
 11
540.6955428255
 21
1168.7251930337
 31
0.0
  0
LINE
  5
1E2
  8
0
  6
CONTINUOUS
 62
     7
 10
389.9770773781
 20
1168.7251930337
 30
0.0
 11
389.9770773781
 21
998.7251903142
 31
0.0
  0
LINE
  5
1E3
  8
0
  6
CONTINUOUS
 62
     7
 10
388.6991463435
 20
998.7251903142
 30
0.0
 11
389.9770773781
 21
998.7251903142
 31
0.0
  0
LINE
  5
1E4
  8
0
  6
CONTINUOUS
 62
     7
 10
388.6991463435
 20
998.7251903142
 30
0.0
 11
388.6991463435
 21
1168.7251930337
 31
0.0
  0
LINE
  5
1E5
  8
0
  6
CONTINUOUS
 62
     7
 10
537.5521950257
 20
1168.7251930337
 30
0.0
 11
537.5521950257
 21
998.7251903142
 31
0.0
  0
LINE
  5
1E6
  8
0
  6
CONTINUOUS
 62
     7
 10
537.5521950257
 20
998.7251903142
 30
0.0
 11
540.6955428255
 21
998.7251903142
 31
0.0
  0
LINE
  5
1E7
  8
0
  6
CONTINUOUS
 62
     7
 10
393.1204251778
 20
998.7251903142
 30
0.0
 11
393.1204251778
 21
1168.7251930337
 31
0.0
  0
LINE
  5
1E8
  8
0
  6
CONTINUOUS
 62
     7
 10
389.9770773781
 20
998.7251903142
 30
0.0
 11
393.1204251778
 21
998.7251903142
 31
0.0
  0
LINE
  5
1E9
  8
0
  6
CONTINUOUS
 62
     7
 10
541.97347386
 20
998.7251903142
 30
0.0
 11
542.0543648136
 21
998.7251903142
 31
0.0
  0
LINE
  5
1EA
  8
0
  6
CONTINUOUS
 62
     7
 10
388.6182553899
 20
998.7251903142
 30
0.0
 11
388.6991463435
 21
998.7251903142
 31
0.0
  0
LINE
  5
1EB
  8
0
  6
CONTINUOUS
 62
     7
 10
537.5521950257
 20
998.7251903142
 30
0.0
 11
537.0557404888
 21
998.7251903142
 31
0.0
  0
LINE
  5
1EC
  8
0
  6
CONTINUOUS
 62
     7
 10
393.6168797147
 20
998.7251903142
 30
0.0
 11
393.1204251778
 21
998.7251903142
 31
0.0
  0
LINE
  5
1ED
  8
0
  6
CONTINUOUS
 62
     7
 10
546.1786635053
 20
998.7251903142
 30
0.0
 11
546.1786635053
 21
1168.7251930337
 31
0.0
  0
LINE
  5
1EE
  8
0
  6
CONTINUOUS
 62
     7
 10
544.936986996
 20
998.7251903142
 30
0.0
 11
546.1786635053
 21
998.7251903142
 31
0.0
  0
LINE
  5
1EF
  8
0
  6
CONTINUOUS
 62
     7
 10
544.936986996
 20
998.7251903142
 30
0.0
 11
544.936986996
 21
1168.7251930337
 31
0.0
  0
LINE
  5
1F0
  8
0
  6
CONTINUOUS
 62
     7
 10
385.7356332076
 20
1168.7251930337
 30
0.0
 11
385.7356332076
 21
998.7251903142
 31
0.0
  0
LINE
  5
1F1
  8
0
  6
CONTINUOUS
 62
     7
 10
384.4939566982
 20
998.7251903142
 30
0.0
 11
385.7356332076
 21
998.7251903142
 31
0.0
  0
LINE
  5
1F2
  8
0
  6
CONTINUOUS
 62
     7
 10
384.4939566982
 20
998.7251903142
 30
0.0
 11
384.4939566982
 21
1168.7251930337
 31
0.0
  0
LINE
  5
1F3
  8
0
  6
CONTINUOUS
 62
     7
 10
542.0543648136
 20
998.7251903142
 30
0.0
 11
544.936986996
 21
998.7251903142
 31
0.0
  0
LINE
  5
1F4
  8
0
  6
CONTINUOUS
 62
     7
 10
385.7356332076
 20
998.7251903142
 30
0.0
 11
388.6182553899
 21
998.7251903142
 31
0.0
  0
LINE
  5
1F5
  8
0
  6
CONTINUOUS
 62
     7
 10
546.1786635053
 20
998.7251903142
 30
0.0
 11
546.2234042418
 21
998.7251903142
 31
0.0
  0
LINE
  5
1F6
  8
0
  6
CONTINUOUS
 62
     7
 10
384.4492159617
 20
998.7251903142
 30
0.0
 11
384.4939566982
 21
998.7251903142
 31
0.0
  0
LINE
  5
1F7
  8
0
  6
CONTINUOUS
 62
     7
 10
549.4981281293
 20
998.7251903142
 30
0.0
 11
549.4981281293
 21
1168.7251930337
 31
0.0
  0
LINE
  5
1F8
  8
0
  6
CONTINUOUS
 62
     7
 10
548.3063109052
 20
998.7251903142
 30
0.0
 11
549.4981281293
 21
998.7251903142
 31
0.0
  0
LINE
  5
1F9
  8
0
  6
CONTINUOUS
 62
     7
 10
548.3063109052
 20
998.7251903142
 30
0.0
 11
548.3063109052
 21
1168.7251930337
 31
0.0
  0
LINE
  5
1FA
  8
0
  6
CONTINUOUS
 62
     7
 10
382.3663092983
 20
1168.7251930337
 30
0.0
 11
382.3663092983
 21
998.7251903142
 31
0.0
  0
LINE
  5
1FB
  8
0
  6
CONTINUOUS
 62
     7
 10
381.1744920743
 20
998.7251903142
 30
0.0
 11
382.3663092983
 21
998.7251903142
 31
0.0
  0
LINE
  5
1FC
  8
0
  6
CONTINUOUS
 62
     7
 10
381.1744920743
 20
998.7251903142
 30
0.0
 11
381.1744920743
 21
1168.7251930337
 31
0.0
  0
LINE
  5
1FD
  8
0
  6
CONTINUOUS
 62
     7
 10
546.2234042418
 20
998.7251903142
 30
0.0
 11
548.3063109052
 21
998.7251903142
 31
0.0
  0
LINE
  5
1FE
  8
0
  6
CONTINUOUS
 62
     7
 10
382.3663092983
 20
998.7251903142
 30
0.0
 11
384.4492159617
 21
998.7251903142
 31
0.0
  0
LINE
  5
1FF
  8
0
  6
CONTINUOUS
 62
     7
 10
549.4981281293
 20
998.7251903142
 30
0.0
 11
549.5171867144
 21
998.7251903142
 31
0.0
  0
LINE
  5
200
  8
0
  6
CONTINUOUS
 62
     7
 10
381.1554334891
 20
998.7251903142
 30
0.0
 11
381.1744920743
 21
998.7251903142
 31
0.0
  0
LINE
  5
201
  8
0
  6
CONTINUOUS
 62
     7
 10
551.3363130224
 20
1168.7251930337
 30
0.0
 11
551.3363130224
 21
998.7251903142
 31
0.0
  0
LINE
  5
202
  8
0
  6
CONTINUOUS
 62
     7
 10
551.3363130224
 20
998.7251903142
 30
0.0
 11
549.5171867144
 21
998.7251903142
 31
0.0
  0
LINE
  5
203
  8
0
  6
CONTINUOUS
 62
     7
 10
379.9060232771
 20
1168.7251930337
 30
0.0
 11
379.9060232771
 21
998.7251903142
 31
0.0
  0
LINE
  5
204
  8
0
  6
CONTINUOUS
 62
     7
 10
378.7771187556
 20
998.7251903142
 30
0.0
 11
378.7771187556
 21
1168.7251930337
 31
0.0
  0
LINE
  5
205
  8
0
  6
CONTINUOUS
 62
     7
 10
378.7771187556
 20
998.7251903142
 30
0.0
 11
379.9060232771
 21
998.7251903142
 31
0.0
  0
LINE
  5
206
  8
0
  6
CONTINUOUS
 62
     7
 10
379.9060232771
 20
998.7251903142
 30
0.0
 11
381.1554334891
 21
998.7251903142
 31
0.0
  0
LINE
  5
207
  8
0
  6
CONTINUOUS
 62
     7
 10
378.7729985845
 20
998.7251903142
 30
0.0
 11
378.7771187556
 21
998.7251903142
 31
0.0
  0
LINE
  5
208
  8
0
  6
CONTINUOUS
 62
     7
 10
378.3817313445
 20
1168.7251930337
 30
0.0
 11
378.3817313445
 21
998.7251903142
 31
0.0
  0
LINE
  5
209
  8
0
  6
CONTINUOUS
 62
     7
 10
377.3281074894
 20
998.7251903142
 30
0.0
 11
377.3281074894
 21
1168.7251930337
 31
0.0
  0
LINE
  5
20A
  8
0
  6
CONTINUOUS
 62
     7
 10
377.3281074894
 20
998.7251903142
 30
0.0
 11
378.3817313445
 21
998.7251903142
 31
0.0
  0
LINE
  5
20B
  8
0
  6
CONTINUOUS
 62
     7
 10
378.3817313445
 20
998.7251903142
 30
0.0
 11
378.7729985845
 21
998.7251903142
 31
0.0
  0
LINE
  5
20C
  8
0
  6
CONTINUOUS
 62
     7
 10
376.8433354628
 20
998.7251903142
 30
0.0
 11
376.8433354628
 21
1168.7251930337
 31
0.0
  0
LINE
  5
20D
  8
0
  6
CONTINUOUS
 62
     7
 10
376.8433354628
 20
998.7251903142
 30
0.0
 11
377.3281074894
 21
998.7251903142
 31
0.0
  0
ARC
  5
20E
  8
0
  6
CONTINUOUS
 62
     7
 10
565.5247503303
 20
1169.96689868
 30
0.0
 40
6.479565957685807
 50
2.1648678204
 51
12.3032352969
  0
ARC
  5
20F
  8
0
  6
CONTINUOUS
 62
     7
 10
571.5082645425
 20
1165.8070676599
 30
0.0
 40
4.431920788331642
 50
83.3665450639
 51
83.6337232332
  0
ARC
  5
210
  8
0
  6
CONTINUOUS
 62
     7
 10
578.1950657224
 20
1166.7856637739
 30
0.0
 40
10.40436304624259
 50
136.4328511178
 51
136.5466758762
  0
ARC
  5
211
  8
0
  6
CONTINUOUS
 62
     7
 10
565.5247503303
 20
1169.96689868
 30
0.0
 40
6.479565957685798
 50
27.6967647031
 51
37.8351321796
  0
POLYLINE
  5
212
  8
0
  6
CONTINUOUS
 62
     7
 66
     1
 10
0.0
 20
0.0
 30
0.0
 70
   128
  0
VERTEX
  5
625
  8
0
  6
CONTINUOUS
 62
     7
 10
571.2618850005
 20
1172.9785506826
 30
0.0
  0
VERTEX
  5
626
  8
0
  6
CONTINUOUS
 62
     7
 10
571.2734557522
 20
1172.9467516046
 30
0.0
  0
VERTEX
  5
627
  8
0
  6
CONTINUOUS
 62
     7
 10
571.2861440909
 20
1172.9119126897
 30
0.0
  0
VERTEX
  5
628
  8
0
  6
CONTINUOUS
 62
     7
 10
571.2998904121
 20
1172.8741382461
 30
0.0
  0
VERTEX
  5
629
  8
0
  6
CONTINUOUS
 62
     7
 10
571.3146425617
 20
1172.8335921865
 30
0.0
  0
VERTEX
  5
62A
  8
0
  6
CONTINUOUS
 62
     7
 10
571.3303558362
 20
1172.7904384236
 30
0.0
  0
VERTEX
  5
62B
  8
0
  6
CONTINUOUS
 62
     7
 10
571.3469482792
 20
1172.7448408704
 30
0.0
  0
VERTEX
  5
62C
  8
0
  6
CONTINUOUS
 62
     7
 10
571.3643751872
 20
1172.6969634395
 30
0.0
  0
VERTEX
  5
62D
  8
0
  6
CONTINUOUS
 62
     7
 10
571.3825546038
 20
1172.6470147471
 30
0.0
  0
SEQEND
  5
9B4
  8
0
  6
CONTINUOUS
 62
     7
  0
POLYLINE
  5
213
  8
0
  6
CONTINUOUS
 62
     7
 66
     1
 10
0.0
 20
0.0
 30
0.0
 70
   128
  0
VERTEX
  5
62E
  8
0
  6
CONTINUOUS
 62
     7
 10
571.3825546038
 20
1172.6470147471
 30
0.0
  0
VERTEX
  5
62F
  8
0
  6
CONTINUOUS
 62
     7
 10
571.3630415332
 20
1172.6399217944
 30
0.0
  0
VERTEX
  5
630
  8
0
  6
CONTINUOUS
 62
     7
 10
571.3405929339
 20
1172.6317410569
 30
0.0
  0
VERTEX
  5
631
  8
0
  6
CONTINUOUS
 62
     7
 10
571.3152013552
 20
1172.622502337
 30
0.0
  0
VERTEX
  5
632
  8
0
  6
CONTINUOUS
 62
     7
 10
571.2868965995
 20
1172.6122056346
 30
0.0
  0
VERTEX
  5
633
  8
0
  6
CONTINUOUS
 62
     7
 10
571.255693568
 20
1172.6008360486
 30
0.0
  0
VERTEX
  5
634
  8
0
  6
CONTINUOUS
 62
     7
 10
571.2215922606
 20
1172.5884382825
 30
0.0
  0
VERTEX
  5
635
  8
0
  6
CONTINUOUS
 62
     7
 10
571.1846224797
 20
1172.5749676328
 30
0.0
  0
VERTEX
  5
636
  8
0
  6
CONTINUOUS
 62
     7
 10
571.1447916758
 20
1172.5604837041
 30
0.0
  0
SEQEND
  5
9B5
  8
0
  6
CONTINUOUS
 62
     7
  0
ARC
  5
214
  8
0
  6
CONTINUOUS
 62
     7
 10
564.5924795426
 20
1169.62756296
 30
0.0
 40
7.17877554898067
 50
15.8862160356
 51
24.1140603276
  0
POLYLINE
  5
215
  8
0
  6
CONTINUOUS
 62
     7
 66
     1
 10
0.0
 20
0.0
 30
0.0
 70
   128
  0
VERTEX
  5
637
  8
0
  6
CONTINUOUS
 62
     7
 10
571.4970774782
 20
1171.5925936799
 30
0.0
  0
VERTEX
  5
638
  8
0
  6
CONTINUOUS
 62
     7
 10
571.5369008315
 20
1171.6070925098
 30
0.0
  0
VERTEX
  5
639
  8
0
  6
CONTINUOUS
 62
     7
 10
571.5738706124
 20
1171.6205482583
 30
0.0
  0
VERTEX
  5
63A
  8
0
  6
CONTINUOUS
 62
     7
 10
571.6079719198
 20
1171.6329609256
 30
0.0
  0
VERTEX
  5
63B
  8
0
  6
CONTINUOUS
 62
     7
 10
571.6391824019
 20
1171.6443156104
 30
0.0
  0
VERTEX
  5
63C
  8
0
  6
CONTINUOUS
 62
     7
 10
571.6674871576
 20
1171.6546123128
 30
0.0
  0
VERTEX
  5
63D
  8
0
  6
CONTINUOUS
 62
     7
 10
571.6928712857
 20
1171.6638659339
 30
0.0
  0
VERTEX
  5
63E
  8
0
  6
CONTINUOUS
 62
     7
 10
571.7153273356
 20
1171.6720317702
 30
0.0
  0
VERTEX
  5
63F
  8
0
  6
CONTINUOUS
 62
     7
 10
571.7348329556
 20
1171.6791396241
 30
0.0
  0
SEQEND
  5
9B6
  8
0
  6
CONTINUOUS
 62
     7
  0
POLYLINE
  5
216
  8
0
  6
CONTINUOUS
 62
     7
 66
     1
 10
0.0
 20
0.0
 30
0.0
 70
   128
  0
VERTEX
  5
640
  8
0
  6
CONTINUOUS
 62
     7
 10
571.7348329556
 20
1171.6791396241
 30
0.0
  0
VERTEX
  5
641
  8
0
  6
CONTINUOUS
 62
     7
 10
571.7530198229
 20
1171.6291760306
 30
0.0
  0
VERTEX
  5
642
  8
0
  6
CONTINUOUS
 62
     7
 10
571.7704392803
 20
1171.5813135009
 30
0.0
  0
VERTEX
  5
643
  8
0
  6
CONTINUOUS
 62
     7
 10
571.7870391739
 20
1171.5357159476
 30
0.0
  0
VERTEX
  5
644
  8
0
  6
CONTINUOUS
 62
     7
 10
571.8027449978
 20
1171.4925472837
 30
0.0
  0
VERTEX
  5
645
  8
0
  6
CONTINUOUS
 62
     7
 10
571.8175045979
 20
1171.4520161252
 30
0.0
  0
VERTEX
  5
646
  8
0
  6
CONTINUOUS
 62
     7
 10
571.8312509191
 20
1171.4142416816
 30
0.0
  0
VERTEX
  5
647
  8
0
  6
CONTINUOUS
 62
     7
 10
571.8439318073
 20
1171.3793878655
 30
0.0
  0
VERTEX
  5
648
  8
0
  6
CONTINUOUS
 62
     7
 10
571.855502559
 20
1171.3476036887
 30
0.0
  0
SEQEND
  5
9B7
  8
0
  6
CONTINUOUS
 62
     7
  0
POLYLINE
  5
217
  8
0
  6
CONTINUOUS
 62
     7
 66
     1
 10
0.0
 20
0.0
 30
0.0
 70
   128
  0
VERTEX
  5
649
  8
0
  6
CONTINUOUS
 62
     7
 10
599.8435340655
 20
1085.6177364688
 30
0.0
  0
VERTEX
  5
64A
  8
0
  6
CONTINUOUS
 62
     7
 10
600.0474415553
 20
1085.0575198631
 30
0.0
  0
VERTEX
  5
64B
  8
0
  6
CONTINUOUS
 62
     7
 10
600.4371218217
 20
1083.9868714314
 30
0.0
  0
VERTEX
  5
64C
  8
0
  6
CONTINUOUS
 62
     7
 10
600.7740668786
 20
1083.061121891
 30
0.0
  0
VERTEX
  5
64D
  8
0
  6
CONTINUOUS
 62
     7
 10
601.028325392
 20
1082.3625480037
 30
0.0
  0
VERTEX
  5
64E
  8
0
  6
CONTINUOUS
 62
     7
 10
601.1773221028
 20
1081.9532056551
 30
0.0
  0
VERTEX
  5
64F
  8
0
  6
CONTINUOUS
 62
     7
 10
601.2116245759
 20
1081.8589707117
 30
0.0
  0
SEQEND
  5
9B8
  8
0
  6
CONTINUOUS
 62
     7
  0
ARC
  5
218
  8
0
  6
CONTINUOUS
 62
     7
 10
596.6485833729
 20
1084.4548701885
 30
0.0
 40
6.479565957685798
 50
2.1648678204
 51
12.3032352969
  0
ARC
  5
219
  8
0
  6
CONTINUOUS
 62
     7
 10
603.9651813458
 20
1092.000923314
 30
0.0
 40
7.349636349180775
 50
263.4241938007
 51
263.5854208375
  0
LINE
  5
21A
  8
0
  6
CONTINUOUS
 62
     7
 10
601.7660073769
 20
1088.4293769698
 30
0.0
 11
601.7802379859
 21
1088.4443749886
 31
0.0
  0
ARC
  5
21B
  8
0
  6
CONTINUOUS
 62
     7
 10
596.6485833729
 20
1084.4548701885
 30
0.0
 40
6.479565957685798
 50
27.6967647031
 51
37.8351321796
  0
POLYLINE
  5
21C
  8
0
  6
CONTINUOUS
 62
     7
 66
     1
 10
0.0
 20
0.0
 30
0.0
 70
   128
  0
VERTEX
  5
650
  8
0
  6
CONTINUOUS
 62
     7
 10
602.3857168687
 20
1087.4665235381
 30
0.0
  0
VERTEX
  5
651
  8
0
  6
CONTINUOUS
 62
     7
 10
602.3972950709
 20
1087.4347244601
 30
0.0
  0
VERTEX
  5
652
  8
0
  6
CONTINUOUS
 62
     7
 10
602.4099759591
 20
1087.3998780947
 30
0.0
  0
VERTEX
  5
653
  8
0
  6
CONTINUOUS
 62
     7
 10
602.4237297309
 20
1087.3621111016
 30
0.0
  0
VERTEX
  5
654
  8
0
  6
CONTINUOUS
 62
     7
 10
602.4384818804
 20
1087.321565042
 30
0.0
  0
VERTEX
  5
655
  8
0
  6
CONTINUOUS
 62
     7
 10
602.4541877043
 20
1087.2784112792
 30
0.0
  0
VERTEX
  5
656
  8
0
  6
CONTINUOUS
 62
     7
 10
602.4707875979
 20
1087.232813726
 30
0.0
  0
VERTEX
  5
657
  8
0
  6
CONTINUOUS
 62
     7
 10
602.4882070553
 20
1087.1849437456
 30
0.0
  0
VERTEX
  5
658
  8
0
  6
CONTINUOUS
 62
     7
 10
602.506386472
 20
1087.1349876027
 30
0.0
  0
SEQEND
  5
9B9
  8
0
  6
CONTINUOUS
 62
     7
  0
POLYLINE
  5
21D
  8
0
  6
CONTINUOUS
 62
     7
 66
     1
 10
0.0
 20
0.0
 30
0.0
 70
   128
  0
VERTEX
  5
659
  8
0
  6
CONTINUOUS
 62
     7
 10
602.506386472
 20
1087.1349876027
 30
0.0
  0
VERTEX
  5
65A
  8
0
  6
CONTINUOUS
 62
     7
 10
602.486880852
 20
1087.1278871994
 30
0.0
  0
VERTEX
  5
65B
  8
0
  6
CONTINUOUS
 62
     7
 10
602.4644248021
 20
1087.1197139125
 30
0.0
  0
VERTEX
  5
65C
  8
0
  6
CONTINUOUS
 62
     7
 10
602.4390332234
 20
1087.1104751926
 30
0.0
  0
VERTEX
  5
65D
  8
0
  6
CONTINUOUS
 62
     7
 10
602.4107359183
 20
1087.1001710396
 30
0.0
  0
VERTEX
  5
65E
  8
0
  6
CONTINUOUS
 62
     7
 10
602.3795179856
 20
1087.0888163548
 30
0.0
  0
VERTEX
  5
65F
  8
0
  6
CONTINUOUS
 62
     7
 10
602.3454241288
 20
1087.0764036875
 30
0.0
  0
VERTEX
  5
660
  8
0
  6
CONTINUOUS
 62
     7
 10
602.3084543479
 20
1087.0629479389
 30
0.0
  0
VERTEX
  5
661
  8
0
  6
CONTINUOUS
 62
     7
 10
602.268623544
 20
1087.0484491091
 30
0.0
  0
SEQEND
  5
9BA
  8
0
  6
CONTINUOUS
 62
     7
  0
ARC
  5
21E
  8
0
  6
CONTINUOUS
 62
     7
 10
595.7180899918
 20
1084.1162137355
 30
0.0
 40
7.176872167177362
 50
15.8849136115
 51
24.1148673388
  0
POLYLINE
  5
21F
  8
0
  6
CONTINUOUS
 62
     7
 66
     1
 10
0.0
 20
0.0
 30
0.0
 70
   128
  0
VERTEX
  5
662
  8
0
  6
CONTINUOUS
 62
     7
 10
602.6209018958
 20
1086.0805665355
 30
0.0
  0
VERTEX
  5
663
  8
0
  6
CONTINUOUS
 62
     7
 10
602.6607326997
 20
1086.0950653653
 30
0.0
  0
VERTEX
  5
664
  8
0
  6
CONTINUOUS
 62
     7
 10
602.6977024806
 20
1086.1085211139
 30
0.0
  0
VERTEX
  5
665
  8
0
  6
CONTINUOUS
 62
     7
 10
602.7318112385
 20
1086.1209337812
 30
0.0
  0
VERTEX
  5
666
  8
0
  6
CONTINUOUS
 62
     7
 10
602.7630142701
 20
1086.132288466
 30
0.0
  0
VERTEX
  5
667
  8
0
  6
CONTINUOUS
 62
     7
 10
602.7913115752
 20
1086.1425926189
 30
0.0
  0
VERTEX
  5
668
  8
0
  6
CONTINUOUS
 62
     7
 10
602.8167031539
 20
1086.1518313389
 30
0.0
  0
VERTEX
  5
669
  8
0
  6
CONTINUOUS
 62
     7
 10
602.8391592038
 20
1086.1600046258
 30
0.0
  0
VERTEX
  5
66A
  8
0
  6
CONTINUOUS
 62
     7
 10
602.8586648238
 20
1086.1671050291
 30
0.0
  0
SEQEND
  5
9BB
  8
0
  6
CONTINUOUS
 62
     7
  0
POLYLINE
  5
220
  8
0
  6
CONTINUOUS
 62
     7
 66
     1
 10
0.0
 20
0.0
 30
0.0
 70
   128
  0
VERTEX
  5
66B
  8
0
  6
CONTINUOUS
 62
     7
 10
602.8586648238
 20
1086.1671050291
 30
0.0
  0
VERTEX
  5
66C
  8
0
  6
CONTINUOUS
 62
     7
 10
602.8768442404
 20
1086.1171563368
 30
0.0
  0
VERTEX
  5
66D
  8
0
  6
CONTINUOUS
 62
     7
 10
602.894278599
 20
1086.0692863565
 30
0.0
  0
VERTEX
  5
66E
  8
0
  6
CONTINUOUS
 62
     7
 10
602.9108635915
 20
1086.0236813526
 30
0.0
  0
VERTEX
  5
66F
  8
0
  6
CONTINUOUS
 62
     7
 10
602.9265843165
 20
1085.9805275898
 30
0.0
  0
VERTEX
  5
670
  8
0
  6
CONTINUOUS
 62
     7
 10
602.9413364661
 20
1085.9399815302
 30
0.0
  0
VERTEX
  5
671
  8
0
  6
CONTINUOUS
 62
     7
 10
602.9550753367
 20
1085.9022145371
 30
0.0
  0
VERTEX
  5
672
  8
0
  6
CONTINUOUS
 62
     7
 10
602.9677711261
 20
1085.8673681717
 30
0.0
  0
VERTEX
  5
673
  8
0
  6
CONTINUOUS
 62
     7
 10
602.9793344271
 20
1085.8355690937
 30
0.0
  0
SEQEND
  5
9BC
  8
0
  6
CONTINUOUS
 62
     7
  0
LINE
  5
221
  8
0
  6
CONTINUOUS
 62
     7
 10
368.2088725102
 20
1184.2401926618
 30
0.0
 11
368.1563086641
 21
1184.2401926618
 31
0.0
  0
ARC
  5
222
  8
0
  6
CONTINUOUS
 62
     7
 10
374.7000931353
 20
1183.7251936297
 30
0.0
 40
6.556108146880416
 50
175.4946287209
 51
184.5053712791
  0
LINE
  5
223
  8
0
  6
CONTINUOUS
 62
     7
 10
368.1563086641
 20
1183.2101945977
 30
0.0
 11
368.2088725102
 21
1183.2101945977
 31
0.0
  0
ARC
  5
224
  8
0
  6
CONTINUOUS
 62
     7
 10
369.6800400907
 20
1183.4027329233
 30
0.0
 40
1.483713266325841
 50
187.4561792205
 51
201.5651926852
  0
ARC
  5
225
  8
0
  6
CONTINUOUS
 62
     7
 10
374.9193276001
 20
1183.7208593131
 30
0.0
 40
6.675224449391197
 50
187.4323724749
 51
197.2567458826
  0
ARC
  5
226
  8
0
  6
CONTINUOUS
 62
     7
 10
368.6778791082
 20
1182.6859639771
 30
0.0
 40
0.9546874468253449
 50
261.9742981453
 51
278.0257018547
  0
ARC
  5
227
  8
0
  6
CONTINUOUS
 62
     7
 10
375.1853632975
 20
1183.7206956473
 30
0.0
 40
6.674654402501187
 50
187.4315939955
 51
197.2567947895
  0
ARC
  5
228
  8
0
  6
CONTINUOUS
 62
     7
 10
367.1869227857
 20
1183.4027329233
 30
0.0
 40
1.483713266324165
 50
338.4348073148
 51
352.5438207795
  0
LINE
  5
229
  8
0
  6
CONTINUOUS
 62
     7
 10
368.6580903661
 20
1183.2101945977
 30
0.0
 11
369.1915221346
 21
1183.2101945977
 31
0.0
  0
ARC
  5
22A
  8
0
  6
CONTINUOUS
 62
     7
 10
377.7492091207
 20
1183.7251936297
 30
0.0
 40
8.573169224676064
 50
176.5561106524
 51
183.4438893476
  0
LINE
  5
22B
  8
0
  6
CONTINUOUS
 62
     7
 10
369.1915221346
 20
1184.2401926618
 30
0.0
 11
368.6580903661
 21
1184.2401926618
 31
0.0
  0
ARC
  5
22C
  8
0
  6
CONTINUOUS
 62
     7
 10
367.1871383939
 20
1184.0476871078
 30
0.0
 40
1.483495228495797
 50
7.4560048213
 51
21.5665411071
  0
ARC
  5
22D
  8
0
  6
CONTINUOUS
 62
     7
 10
375.1850606921
 20
1183.7297429342
 30
0.0
 40
6.674345773625582
 50
162.7429774882
 51
172.5686337267
  0
ARC
  5
22E
  8
0
  6
CONTINUOUS
 62
     7
 10
368.6778791082
 20
1184.7649209896
 30
0.0
 40
0.9541798618655072
 50
81.9700006311
 51
98.0299993689
  0
ARC
  5
22F
  8
0
  6
CONTINUOUS
 62
     7
 10
374.9190247807
 20
1183.7295793173
 30
0.0
 40
6.67491560154537
 50
162.7430262723
 51
172.5678553702
  0
ARC
  5
230
  8
0
  6
CONTINUOUS
 62
     7
 10
369.6798244825
 20
1184.0476871078
 30
0.0
 40
1.483495228497224
 50
158.4334588929
 51
172.5439951787
  0
POLYLINE
  5
231
  8
0
  6
CONTINUOUS
 62
     7
 66
     1
 10
0.0
 20
0.0
 30
0.0
 70
   128
  0
VERTEX
  5
674
  8
0
  6
CONTINUOUS
 62
     7
 10
369.5160768759
 20
1187.5707810025
 30
0.0
  0
VERTEX
  5
675
  8
0
  6
CONTINUOUS
 62
     7
 10
369.271437062
 20
1187.3900150161
 30
0.0
  0
VERTEX
  5
676
  8
0
  6
CONTINUOUS
 62
     7
 10
369.2166082394
 20
1187.3142724137
 30
0.0
  0
SEQEND
  5
9BD
  8
0
  6
CONTINUOUS
 62
     7
  0
POLYLINE
  5
232
  8
0
  6
CONTINUOUS
 62
     7
 66
     1
 10
0.0
 20
0.0
 30
0.0
 70
   128
  0
VERTEX
  5
677
  8
0
  6
CONTINUOUS
 62
     7
 10
369.2166082394
 20
1180.1360999446
 30
0.0
  0
VERTEX
  5
678
  8
0
  6
CONTINUOUS
 62
     7
 10
369.271437062
 20
1180.0603722434
 30
0.0
  0
VERTEX
  5
679
  8
0
  6
CONTINUOUS
 62
     7
 10
369.5132754576
 20
1179.8803066115
 30
0.0
  0
SEQEND
  5
9BE
  8
0
  6
CONTINUOUS
 62
     7
  0
POLYLINE
  5
233
  8
0
  6
CONTINUOUS
 62
     7
 66
     1
 10
0.0
 20
0.0
 30
0.0
 70
   128
  0
VERTEX
  5
67A
  8
0
  6
CONTINUOUS
 62
     7
 10
371.3517285717
 20
1179.7251855235
 30
0.0
  0
VERTEX
  5
67B
  8
0
  6
CONTINUOUS
 62
     7
 10
371.6568820012
 20
1179.9028967719
 30
0.0
  0
VERTEX
  5
67C
  8
0
  6
CONTINUOUS
 62
     7
 10
371.9349153173
 20
1180.4202352862
 30
0.0
  0
VERTEX
  5
67D
  8
0
  6
CONTINUOUS
 62
     7
 10
372.161137296
 20
1181.2312309842
 30
0.0
  0
VERTEX
  5
67E
  8
0
  6
CONTINUOUS
 62
     7
 10
372.3154388201
 20
1182.2638218503
 30
0.0
  0
VERTEX
  5
67F
  8
0
  6
CONTINUOUS
 62
     7
 10
372.3841108215
 20
1183.4262763362
 30
0.0
  0
VERTEX
  5
680
  8
0
  6
CONTINUOUS
 62
     7
 10
372.361043824
 20
1184.6152697902
 30
0.0
  0
VERTEX
  5
681
  8
0
  6
CONTINUOUS
 62
     7
 10
372.2483016384
 20
1185.7251827817
 30
0.0
  0
VERTEX
  5
682
  8
0
  6
CONTINUOUS
 62
     7
 10
372.0558903945
 20
1186.657399426
 30
0.0
  0
VERTEX
  5
683
  8
0
  6
CONTINUOUS
 62
     7
 10
371.8009166253
 20
1187.3290692668
 30
0.0
  0
VERTEX
  5
684
  8
0
  6
CONTINUOUS
 62
     7
 10
371.5060300958
 20
1187.6805131536
 30
0.0
  0
VERTEX
  5
685
  8
0
  6
CONTINUOUS
 62
     7
 10
371.3517285717
 20
1187.7251868348
 30
0.0
  0
SEQEND
  5
9BF
  8
0
  6
CONTINUOUS
 62
     7
  0
LINE
  5
234
  8
0
  6
CONTINUOUS
 62
     7
 10
368.5445882213
 20
1185.7097451787
 30
0.0
 11
368.7753699553
 21
1185.5906252961
 31
0.0
  0
LINE
  5
235
  8
0
  6
CONTINUOUS
 62
     7
 10
368.5445882213
 20
1181.7406271796
 30
0.0
 11
368.7753699553
 21
1181.8597619634
 31
0.0
  0
POLYLINE
  5
236
  8
0
  6
CONTINUOUS
 62
     7
 66
     1
 10
0.0
 20
0.0
 30
0.0
 70
   128
  0
VERTEX
  5
686
  8
0
  6
CONTINUOUS
 62
     7
 10
368.300186826
 20
1184.5929925542
 30
0.0
  0
VERTEX
  5
687
  8
0
  6
CONTINUOUS
 62
     7
 10
368.5478739274
 20
1184.572086225
 30
0.0
  0
VERTEX
  5
688
  8
0
  6
CONTINUOUS
 62
     7
 10
368.5759030116
 20
1184.5696424346
 30
0.0
  0
SEQEND
  5
9C0
  8
0
  6
CONTINUOUS
 62
     7
  0
LINE
  5
237
  8
0
  6
CONTINUOUS
 62
     7
 10
368.5134745968
 20
1184.2401926618
 30
0.0
 11
368.2088725102
 21
1184.2401926618
 31
0.0
  0
POLYLINE
  5
238
  8
0
  6
CONTINUOUS
 62
     7
 66
     1
 10
0.0
 20
0.0
 30
0.0
 70
   128
  0
VERTEX
  5
689
  8
0
  6
CONTINUOUS
 62
     7
 10
368.5733847153
 20
1182.8805213075
 30
0.0
  0
VERTEX
  5
68A
  8
0
  6
CONTINUOUS
 62
     7
 10
368.5478739274
 20
1182.8783010345
 30
0.0
  0
VERTEX
  5
68B
  8
0
  6
CONTINUOUS
 62
     7
 10
368.300186826
 20
1182.8573798041
 30
0.0
  0
SEQEND
  5
9C1
  8
0
  6
CONTINUOUS
 62
     7
  0
LINE
  5
239
  8
0
  6
CONTINUOUS
 62
     7
 10
536.8877373469
 20
1183.2101945977
 30
0.0
 11
537.4984837902
 21
1183.2101945977
 31
0.0
  0
ARC
  5
23A
  8
0
  6
CONTINUOUS
 62
     7
 10
530.7434533028
 20
1183.7251936297
 30
0.0
 40
6.774633635038063
 50
355.6402417597
 51
4.3597582403
  0
LINE
  5
23B
  8
0
  6
CONTINUOUS
 62
     7
 10
537.4984837902
 20
1184.2401926618
 30
0.0
 11
536.8877373469
 21
1184.2401926618
 31
0.0
  0
ARC
  5
23C
  8
0
  6
CONTINUOUS
 62
     7
 10
536.0297640477
 20
1183.8980999684
 30
0.0
 40
0.9236588076894323
 50
21.7382496782
 51
48.7922715759
  0
ARC
  5
23D
  8
0
  6
CONTINUOUS
 62
     7
 10
527.8571419699
 20
1183.7589095274
 30
0.0
 40
8.820644270308483
 50
5.4260146181
 51
12.777587224
  0
ARC
  5
23E
  8
0
  6
CONTINUOUS
 62
     7
 10
536.0951930118
 20
1178.5327958901
 30
0.0
 40
7.186182043331867
 50
87.0953040294
 51
92.9046959706
  0
ARC
  5
23F
  8
0
  6
CONTINUOUS
 62
     7
 10
527.1272407657
 20
1183.7586556647
 30
0.0
 40
8.822245775035519
 50
5.4266828013
 51
12.7769190408
  0
ARC
  5
240
  8
0
  6
CONTINUOUS
 62
     7
 10
536.5184435596
 20
1183.8980999684
 30
0.0
 40
0.9236588076890578
 50
131.2077284241
 51
158.2617503218
  0
LINE
  5
241
  8
0
  6
CONTINUOUS
 62
     7
 10
535.6604702604
 20
1184.2401926618
 30
0.0
 11
534.6919022334
 21
1184.2401926618
 31
0.0
  0
ARC
  5
242
  8
0
  6
CONTINUOUS
 62
     7
 10
514.475918125
 20
1183.7251936297
 30
0.0
 40
20.22254280435412
 50
358.5407146036
 51
1.4592853965
  0
LINE
  5
243
  8
0
  6
CONTINUOUS
 62
     7
 10
534.6919022334
 20
1183.2101945977
 30
0.0
 11
535.6604702604
 21
1183.2101945977
 31
0.0
  0
ARC
  5
244
  8
0
  6
CONTINUOUS
 62
     7
 10
536.5185367684
 20
1183.5523238499
 30
0.0
 40
0.9237589281656948
 50
201.7382147859
 51
228.7900249156
  0
ARC
  5
245
  8
0
  6
CONTINUOUS
 62
     7
 10
527.1268352944
 20
1183.6917816527
 30
0.0
 40
8.822655572368765
 50
347.2232518967
 51
354.5731462612
  0
ARC
  5
246
  8
0
  6
CONTINUOUS
 62
     7
 10
536.0951930118
 20
1188.9214512547
 30
0.0
 40
7.19005185420108
 50
267.0968687269
 51
272.9031312731
  0
ARC
  5
247
  8
0
  6
CONTINUOUS
 62
     7
 10
527.8567369924
 20
1183.6915277109
 30
0.0
 40
8.821053568318794
 50
347.2225835673
 51
354.5738145906
  0
ARC
  5
248
  8
0
  6
CONTINUOUS
 62
     7
 10
536.0296708389
 20
1183.5523238499
 30
0.0
 40
0.9237589281659945
 50
311.2099750844
 51
338.2617852141
  0
POLYLINE
  5
249
  8
0
  6
CONTINUOUS
 62
     7
 66
     1
 10
0.0
 20
0.0
 30
0.0
 70
   128
  0
VERTEX
  5
68C
  8
0
  6
CONTINUOUS
 62
     7
 10
535.4350678456
 20
1187.5786041122
 30
0.0
  0
VERTEX
  5
68D
  8
0
  6
CONTINUOUS
 62
     7
 10
534.5930628312
 20
1187.3900150161
 30
0.0
  0
VERTEX
  5
68E
  8
0
  6
CONTINUOUS
 62
     7
 10
533.8334835899
 20
1186.8426655631
 30
0.0
  0
VERTEX
  5
68F
  8
0
  6
CONTINUOUS
 62
     7
 10
533.230672015
 20
1185.9901701312
 30
0.0
  0
VERTEX
  5
690
  8
0
  6
CONTINUOUS
 62
     7
 10
532.8436441553
 20
1184.9159603219
 30
0.0
  0
VERTEX
  5
691
  8
0
  6
CONTINUOUS
 62
     7
 10
532.7102862132
 20
1183.7251936297
 30
0.0
  0
VERTEX
  5
692
  8
0
  6
CONTINUOUS
 62
     7
 10
532.8436441553
 20
1182.5344120364
 30
0.0
  0
VERTEX
  5
693
  8
0
  6
CONTINUOUS
 62
     7
 10
533.230672015
 20
1181.4602022271
 30
0.0
  0
VERTEX
  5
694
  8
0
  6
CONTINUOUS
 62
     7
 10
533.8334835899
 20
1180.6077067952
 30
0.0
  0
VERTEX
  5
695
  8
0
  6
CONTINUOUS
 62
     7
 10
534.5930628312
 20
1180.0603722434
 30
0.0
  0
VERTEX
  5
696
  8
0
  6
CONTINUOUS
 62
     7
 10
535.4350678456
 20
1179.8717682462
 30
0.0
  0
VERTEX
  5
697
  8
0
  6
CONTINUOUS
 62
     7
 10
536.2770654094
 20
1180.0603722434
 30
0.0
  0
VERTEX
  5
698
  8
0
  6
CONTINUOUS
 62
     7
 10
537.0366521013
 20
1180.6077067952
 30
0.0
  0
VERTEX
  5
699
  8
0
  6
CONTINUOUS
 62
     7
 10
537.6394562257
 20
1181.4602022271
 30
0.0
  0
VERTEX
  5
69A
  8
0
  6
CONTINUOUS
 62
     7
 10
538.0264840853
 20
1182.5344120364
 30
0.0
  0
VERTEX
  5
69B
  8
0
  6
CONTINUOUS
 62
     7
 10
538.1598420274
 20
1183.7251936297
 30
0.0
  0
VERTEX
  5
69C
  8
0
  6
CONTINUOUS
 62
     7
 10
538.0264840853
 20
1184.9159603219
 30
0.0
  0
VERTEX
  5
69D
  8
0
  6
CONTINUOUS
 62
     7
 10
537.6394562257
 20
1185.9901701312
 30
0.0
  0
VERTEX
  5
69E
  8
0
  6
CONTINUOUS
 62
     7
 10
537.0366521013
 20
1186.8426655631
 30
0.0
  0
VERTEX
  5
69F
  8
0
  6
CONTINUOUS
 62
     7
 10
536.2770654094
 20
1187.3900150161
 30
0.0
  0
VERTEX
  5
6A0
  8
0
  6
CONTINUOUS
 62
     7
 10
535.4350678456
 20
1187.5786041122
 30
0.0
  0
SEQEND
  5
9C2
  8
0
  6
CONTINUOUS
 62
     7
  0
POLYLINE
  5
24A
  8
0
  6
CONTINUOUS
 62
     7
 66
     1
 10
0.0
 20
0.0
 30
0.0
 70
   128
  0
VERTEX
  5
6A1
  8
0
  6
CONTINUOUS
 62
     7
 10
535.2300651205
 20
1187.7251868348
 30
0.0
  0
VERTEX
  5
6A2
  8
0
  6
CONTINUOUS
 62
     7
 10
534.3963675034
 20
1187.5474755864
 30
0.0
  0
VERTEX
  5
6A3
  8
0
  6
CONTINUOUS
 62
     7
 10
533.6367510092
 20
1187.0301519733
 30
0.0
  0
VERTEX
  5
6A4
  8
0
  6
CONTINUOUS
 62
     7
 10
533.0187104476
 20
1186.2191562753
 30
0.0
  0
VERTEX
  5
6A5
  8
0
  6
CONTINUOUS
 62
     7
 10
532.5971565974
 20
1185.186550508
 30
0.0
  0
VERTEX
  5
6A6
  8
0
  6
CONTINUOUS
 62
     7
 10
532.4095435274
 20
1184.0241109233
 30
0.0
  0
VERTEX
  5
6A7
  8
0
  6
CONTINUOUS
 62
     7
 10
532.4725530875
 20
1182.8351025682
 30
0.0
  0
VERTEX
  5
6A8
  8
0
  6
CONTINUOUS
 62
     7
 10
532.7805749905
 20
1181.7251895766
 30
0.0
  0
VERTEX
  5
6A9
  8
0
  6
CONTINUOUS
 62
     7
 10
533.306243254
 20
1180.7929878335
 30
0.0
  0
VERTEX
  5
6AA
  8
0
  6
CONTINUOUS
 62
     7
 10
534.0028576386
 20
1180.1213179927
 30
0.0
  0
VERTEX
  5
6AB
  8
0
  6
CONTINUOUS
 62
     7
 10
534.8085112703
 20
1179.7698592048
 30
0.0
  0
VERTEX
  5
6AC
  8
0
  6
CONTINUOUS
 62
     7
 10
535.2300651205
 20
1179.7251855235
 30
0.0
  0
SEQEND
  5
9C3
  8
0
  6
CONTINUOUS
 62
     7
  0
POLYLINE
  5
24B
  8
0
  6
CONTINUOUS
 62
     7
 66
     1
 10
0.0
 20
0.0
 30
0.0
 70
   128
  0
VERTEX
  5
6AD
  8
0
  6
CONTINUOUS
 62
     7
 10
534.1378025544
 20
1187.7251868348
 30
0.0
  0
VERTEX
  5
6AE
  8
0
  6
CONTINUOUS
 62
     7
 10
533.3041049373
 20
1187.5474755864
 30
0.0
  0
VERTEX
  5
6AF
  8
0
  6
CONTINUOUS
 62
     7
 10
532.5444884432
 20
1187.0301519733
 30
0.0
  0
VERTEX
  5
6B0
  8
0
  6
CONTINUOUS
 62
     7
 10
531.9264478815
 20
1186.2191562753
 30
0.0
  0
VERTEX
  5
6B1
  8
0
  6
CONTINUOUS
 62
     7
 10
531.5048940313
 20
1185.186550508
 30
0.0
  0
VERTEX
  5
6B2
  8
0
  6
CONTINUOUS
 62
     7
 10
531.3172809613
 20
1184.0241109233
 30
0.0
  0
VERTEX
  5
6B3
  8
0
  6
CONTINUOUS
 62
     7
 10
531.3802905214
 20
1182.8351025682
 30
0.0
  0
VERTEX
  5
6B4
  8
0
  6
CONTINUOUS
 62
     7
 10
531.6883124244
 20
1181.7251895766
 30
0.0
  0
VERTEX
  5
6B5
  8
0
  6
CONTINUOUS
 62
     7
 10
532.2139806879
 20
1180.7929878335
 30
0.0
  0
VERTEX
  5
6B6
  8
0
  6
CONTINUOUS
 62
     7
 10
532.9105950725
 20
1180.1213179927
 30
0.0
  0
VERTEX
  5
6B7
  8
0
  6
CONTINUOUS
 62
     7
 10
533.7162412536
 20
1179.7698592048
 30
0.0
  0
VERTEX
  5
6B8
  8
0
  6
CONTINUOUS
 62
     7
 10
534.1378025544
 20
1179.7251855235
 30
0.0
  0
SEQEND
  5
9C4
  8
0
  6
CONTINUOUS
 62
     7
  0
LINE
  5
24C
  8
0
  6
CONTINUOUS
 62
     7
 10
536.4593513143
 20
1181.7406271796
 30
0.0
 11
535.8209036124
 21
1182.1908061605
 31
0.0
  0
LINE
  5
24D
  8
0
  6
CONTINUOUS
 62
     7
 10
536.4593513143
 20
1185.7097451787
 30
0.0
 11
535.8209036124
 21
1185.259581099
 31
0.0
  0
POLYLINE
  5
24E
  8
0
  6
CONTINUOUS
 62
     7
 66
     1
 10
0.0
 20
0.0
 30
0.0
 70
   128
  0
VERTEX
  5
6B9
  8
0
  6
CONTINUOUS
 62
     7
 10
535.8808807862
 20
1184.5034514766
 30
0.0
  0
VERTEX
  5
6BA
  8
0
  6
CONTINUOUS
 62
     7
 10
536.4569447768
 20
1184.572086225
 30
0.0
  0
VERTEX
  5
6BB
  8
0
  6
CONTINUOUS
 62
     7
 10
536.6382621062
 20
1184.5929925542
 30
0.0
  0
SEQEND
  5
9C5
  8
0
  6
CONTINUOUS
 62
     7
  0
LINE
  5
24F
  8
0
  6
CONTINUOUS
 62
     7
 10
536.8877373469
 20
1184.2401926618
 30
0.0
 11
535.545522703
 21
1184.2401926618
 31
0.0
  0
POLYLINE
  5
250
  8
0
  6
CONTINUOUS
 62
     7
 66
     1
 10
0.0
 20
0.0
 30
0.0
 70
   128
  0
VERTEX
  5
6BC
  8
0
  6
CONTINUOUS
 62
     7
 10
536.6382621062
 20
1182.8573798041
 30
0.0
  0
VERTEX
  5
6BD
  8
0
  6
CONTINUOUS
 62
     7
 10
536.4569447768
 20
1182.8783010345
 30
0.0
  0
VERTEX
  5
6BE
  8
0
  6
CONTINUOUS
 62
     7
 10
535.9028972519
 20
1182.9443131785
 30
0.0
  0
SEQEND
  5
9C6
  8
0
  6
CONTINUOUS
 62
     7
  0
LINE
  5
251
  8
0
  6
CONTINUOUS
 62
     7
 10
535.545522703
 20
1183.2101945977
 30
0.0
 11
536.8877373469
 21
1183.2101945977
 31
0.0
  0
LINE
  5
252
  8
0
  6
CONTINUOUS
 62
     7
 10
535.3705160153
 20
1183.2101945977
 30
0.0
 11
535.3705160153
 21
1184.2401926618
 31
0.0
  0
ARC
  5
253
  8
0
  6
CONTINUOUS
 62
     7
 10
534.1453411357
 20
1183.7251936297
 30
0.0
 40
1.132747583833698
 50
332.9578475937
 51
27.0421524063
  0
LINE
  5
254
  8
0
  6
CONTINUOUS
 62
     7
 10
406.9111183119
 20
729.7251825433
 30
0.0
 11
406.9111183119
 21
724.4251971345
 31
0.0
  0
LINE
  5
255
  8
0
  6
CONTINUOUS
 62
     7
 10
406.9111183119
 20
724.4251971345
 30
0.0
 11
407.5420409274
 21
724.4251971345
 31
0.0
  0
LINE
  5
256
  8
0
  6
CONTINUOUS
 62
     7
 10
523.7615018916
 20
729.7251825433
 30
0.0
 11
523.7915500832
 21
729.7251825433
 31
0.0
  0
LINE
  5
257
  8
0
  6
CONTINUOUS
 62
     7
 10
519.6128435266
 20
729.7251825433
 30
0.0
 11
523.7615018916
 21
729.7251825433
 31
0.0
  0
LINE
  5
258
  8
0
  6
CONTINUOUS
 62
     7
 10
512.4528914523
 20
729.7251825433
 30
0.0
 11
519.6128435266
 21
729.7251825433
 31
0.0
  0
LINE
  5
259
  8
0
  6
CONTINUOUS
 62
     7
 10
509.4115532768
 20
729.7251825433
 30
0.0
 11
512.4528914523
 21
729.7251825433
 31
0.0
  0
LINE
  5
25A
  8
0
  6
CONTINUOUS
 62
     7
 10
519.6128435266
 20
729.7251825433
 30
0.0
 11
519.6128435266
 21
724.4251971345
 31
0.0
  0
LINE
  5
25B
  8
0
  6
CONTINUOUS
 62
     7
 10
523.7615018916
 20
729.7251825433
 30
0.0
 11
523.7615018916
 21
724.4251971345
 31
0.0
  0
LINE
  5
25C
  8
0
  6
CONTINUOUS
 62
     7
 10
519.6128435266
 20
724.4251971345
 30
0.0
 11
523.7615018916
 21
724.4251971345
 31
0.0
  0
LINE
  5
25D
  8
0
  6
CONTINUOUS
 62
     7
 10
512.4528914523
 20
729.7251825433
 30
0.0
 11
512.4528914523
 21
724.4251971345
 31
0.0
  0
LINE
  5
25E
  8
0
  6
CONTINUOUS
 62
     7
 10
512.4528914523
 20
724.4251971345
 30
0.0
 11
519.6128435266
 21
724.4251971345
 31
0.0
  0
LINE
  5
25F
  8
0
  6
CONTINUOUS
 62
     7
 10
509.4416014683
 20
729.7251825433
 30
0.0
 11
509.4416014683
 21
724.4251971345
 31
0.0
  0
LINE
  5
260
  8
0
  6
CONTINUOUS
 62
     7
 10
509.4416014683
 20
724.4251971345
 30
0.0
 11
512.4528914523
 21
724.4251971345
 31
0.0
  0
LINE
  5
261
  8
0
  6
CONTINUOUS
 62
     7
 10
512.601552887
 20
859.7251926761
 30
0.0
 11
520.601550473
 21
859.7251926761
 31
0.0
  0
LINE
  5
262
  8
0
  6
CONTINUOUS
 62
     7
 10
419.9434391988
 20
729.7251825433
 30
0.0
 11
421.2610669267
 21
729.7251825433
 31
0.0
  0
LINE
  5
263
  8
0
  6
CONTINUOUS
 62
     7
 10
413.41440974
 20
729.7251825433
 30
0.0
 11
419.9434391988
 21
729.7251825433
 31
0.0
  0
LINE
  5
264
  8
0
  6
CONTINUOUS
 62
     7
 10
407.5420409274
 20
729.7251825433
 30
0.0
 11
413.41440974
 21
729.7251825433
 31
0.0
  0
LINE
  5
265
  8
0
  6
CONTINUOUS
 62
     7
 10
406.8810701204
 20
729.7251825433
 30
0.0
 11
407.5420409274
 21
729.7251825433
 31
0.0
  0
LINE
  5
266
  8
0
  6
CONTINUOUS
 62
     7
 10
413.41440974
 20
729.7251825433
 30
0.0
 11
413.41440974
 21
724.4251971345
 31
0.0
  0
LINE
  5
267
  8
0
  6
CONTINUOUS
 62
     7
 10
419.9434391988
 20
729.7251825433
 30
0.0
 11
419.9434391988
 21
724.4251971345
 31
0.0
  0
LINE
  5
268
  8
0
  6
CONTINUOUS
 62
     7
 10
413.41440974
 20
724.4251971345
 30
0.0
 11
419.9434391988
 21
724.4251971345
 31
0.0
  0
LINE
  5
269
  8
0
  6
CONTINUOUS
 62
     7
 10
407.5420409274
 20
729.7251825433
 30
0.0
 11
407.5420409274
 21
724.4251971345
 31
0.0
  0
LINE
  5
26A
  8
0
  6
CONTINUOUS
 62
     7
 10
407.5420409274
 20
724.4251971345
 30
0.0
 11
413.41440974
 21
724.4251971345
 31
0.0
  0
LINE
  5
26B
  8
0
  6
CONTINUOUS
 62
     7
 10
410.0710697305
 20
859.7251926761
 30
0.0
 11
418.0710673166
 21
859.7251926761
 31
0.0
  0
LINE
  5
26C
  8
0
  6
CONTINUOUS
 62
     7
 10
420.6000961197
 20
729.7251825433
 30
0.0
 11
420.6000961197
 21
724.4251971345
 31
0.0
  0
LINE
  5
26D
  8
0
  6
CONTINUOUS
 62
     7
 10
419.9434391988
 20
724.4251971345
 30
0.0
 11
420.6000961197
 21
724.4251971345
 31
0.0
  0
LINE
  5
26E
  8
0
  6
CONTINUOUS
 62
     7
 10
532.836312784
 20
746.7251871924
 30
0.0
 11
520.601550473
 21
746.7251871924
 31
0.0
  0
LINE
  5
26F
  8
0
  6
CONTINUOUS
 62
     7
 10
512.601552887
 20
746.7251871924
 30
0.0
 11
418.0710673166
 21
746.7251871924
 31
0.0
  0
LINE
  5
270
  8
0
  6
CONTINUOUS
 62
     7
 10
410.0710697305
 20
746.7251871924
 30
0.0
 11
397.8363074196
 21
746.7251871924
 31
0.0
  0
LINE
  5
271
  8
0
  6
CONTINUOUS
 62
     7
 10
532.836312784
 20
730.725199471
 30
0.0
 11
528.2025806439
 21
730.725199471
 31
0.0
  0
LINE
  5
272
  8
0
  6
CONTINUOUS
 62
     7
 10
499.9281562698
 20
730.725199471
 30
0.0
 11
499.9281562698
 21
744.7251831393
 31
0.0
  0
LINE
  5
273
  8
0
  6
CONTINUOUS
 62
     7
 10
499.9281562698
 20
730.725199471
 30
0.0
 11
430.7444639337
 21
730.725199471
 31
0.0
  0
LINE
  5
274
  8
0
  6
CONTINUOUS
 62
     7
 10
430.7444639337
 20
744.7251831393
 30
0.0
 11
430.7444639337
 21
730.725199471
 31
0.0
  0
LINE
  5
275
  8
0
  6
CONTINUOUS
 62
     7
 10
402.4700395596
 20
730.725199471
 30
0.0
 11
397.8363074196
 21
730.725199471
 31
0.0
  0
LINE
  5
276
  8
0
  6
CONTINUOUS
 62
     7
 10
417.3959068787
 20
744.7251831393
 30
0.0
 11
417.3959068787
 21
730.725199471
 31
0.0
  0
LINE
  5
277
  8
0
  6
CONTINUOUS
 62
     7
 10
415.3075575662
 20
730.725199471
 30
0.0
 11
415.3075575662
 21
744.7251831393
 31
0.0
  0
LINE
  5
278
  8
0
  6
CONTINUOUS
 62
     7
 10
415.3075575662
 20
744.7251831393
 30
0.0
 11
417.3959068787
 21
744.7251831393
 31
0.0
  0
LINE
  5
279
  8
0
  6
CONTINUOUS
 62
     7
 10
417.3959068787
 20
730.725199471
 30
0.0
 11
415.3075575662
 21
730.725199471
 31
0.0
  0
LINE
  5
27A
  8
0
  6
CONTINUOUS
 62
     7
 10
515.3650626373
 20
744.7251831393
 30
0.0
 11
515.3650626373
 21
730.725199471
 31
0.0
  0
LINE
  5
27B
  8
0
  6
CONTINUOUS
 62
     7
 10
513.2767133248
 20
730.725199471
 30
0.0
 11
513.2767133248
 21
744.7251831393
 31
0.0
  0
LINE
  5
27C
  8
0
  6
CONTINUOUS
 62
     7
 10
513.2767133248
 20
744.7251831393
 30
0.0
 11
515.3650626373
 21
744.7251831393
 31
0.0
  0
LINE
  5
27D
  8
0
  6
CONTINUOUS
 62
     7
 10
515.3650626373
 20
730.725199471
 30
0.0
 11
513.2767133248
 21
730.725199471
 31
0.0
  0
LINE
  5
27E
  8
0
  6
CONTINUOUS
 62
     7
 10
427.950600518
 20
730.725199471
 30
0.0
 11
427.950600518
 21
744.7251831393
 31
0.0
  0
LINE
  5
27F
  8
0
  6
CONTINUOUS
 62
     7
 10
427.950600518
 20
744.7251831393
 30
0.0
 11
417.3959068787
 21
744.7251831393
 31
0.0
  0
LINE
  5
280
  8
0
  6
CONTINUOUS
 62
     7
 10
427.950600518
 20
730.725199471
 30
0.0
 11
417.3959068787
 21
730.725199471
 31
0.0
  0
LINE
  5
281
  8
0
  6
CONTINUOUS
 62
     7
 10
502.7220196855
 20
744.7251831393
 30
0.0
 11
502.7220196855
 21
730.725199471
 31
0.0
  0
LINE
  5
282
  8
0
  6
CONTINUOUS
 62
     7
 10
513.2767133248
 20
744.7251831393
 30
0.0
 11
502.7220196855
 21
744.7251831393
 31
0.0
  0
LINE
  5
283
  8
0
  6
CONTINUOUS
 62
     7
 10
513.2767133248
 20
730.725199471
 30
0.0
 11
502.7220196855
 21
730.725199471
 31
0.0
  0
LINE
  5
284
  8
0
  6
CONTINUOUS
 62
     7
 10
402.9093630445
 20
744.7251831393
 30
0.0
 11
402.9093630445
 21
730.725199471
 31
0.0
  0
LINE
  5
285
  8
0
  6
CONTINUOUS
 62
     7
 10
415.3075575662
 20
744.7251831393
 30
0.0
 11
402.9093630445
 21
744.7251831393
 31
0.0
  0
LINE
  5
286
  8
0
  6
CONTINUOUS
 62
     7
 10
415.3075575662
 20
730.725199471
 30
0.0
 11
402.9093630445
 21
730.725199471
 31
0.0
  0
LINE
  5
287
  8
0
  6
CONTINUOUS
 62
     7
 10
527.763257159
 20
730.725199471
 30
0.0
 11
527.763257159
 21
744.7251831393
 31
0.0
  0
LINE
  5
288
  8
0
  6
CONTINUOUS
 62
     7
 10
527.763257159
 20
744.7251831393
 30
0.0
 11
515.3650626373
 21
744.7251831393
 31
0.0
  0
LINE
  5
289
  8
0
  6
CONTINUOUS
 62
     7
 10
527.763257159
 20
730.725199471
 30
0.0
 11
515.3650626373
 21
730.725199471
 31
0.0
  0
LINE
  5
28A
  8
0
  6
CONTINUOUS
 62
     7
 10
427.950600518
 20
744.7251831393
 30
0.0
 11
430.7444639337
 21
744.7251831393
 31
0.0
  0
LINE
  5
28B
  8
0
  6
CONTINUOUS
 62
     7
 10
430.7444639337
 20
730.725199471
 30
0.0
 11
427.950600518
 21
730.725199471
 31
0.0
  0
LINE
  5
28C
  8
0
  6
CONTINUOUS
 62
     7
 10
499.9281562698
 20
744.7251831393
 30
0.0
 11
502.7220196855
 21
744.7251831393
 31
0.0
  0
LINE
  5
28D
  8
0
  6
CONTINUOUS
 62
     7
 10
502.7220196855
 20
730.725199471
 30
0.0
 11
499.9281562698
 21
730.725199471
 31
0.0
  0
LINE
  5
28E
  8
0
  6
CONTINUOUS
 62
     7
 10
472.3363103178
 20
714.7251968484
 30
0.0
 11
472.3363103178
 21
730.725199471
 31
0.0
  0
LINE
  5
28F
  8
0
  6
CONTINUOUS
 62
     7
 10
472.3363103178
 20
714.7251968484
 30
0.0
 11
458.3363098857
 21
714.7251968484
 31
0.0
  0
LINE
  5
290
  8
0
  6
CONTINUOUS
 62
     7
 10
458.3363098857
 20
730.725199471
 30
0.0
 11
458.3363098857
 21
714.7251968484
 31
0.0
  0
LINE
  5
291
  8
0
  6
CONTINUOUS
 62
     7
 10
402.4700395596
 20
744.7251831393
 30
0.0
 11
402.9093630445
 21
744.7251831393
 31
0.0
  0
LINE
  5
292
  8
0
  6
CONTINUOUS
 62
     7
 10
402.9093630445
 20
730.725199471
 30
0.0
 11
402.4700395596
 21
730.725199471
 31
0.0
  0
LINE
  5
293
  8
0
  6
CONTINUOUS
 62
     7
 10
527.763257159
 20
744.7251831393
 30
0.0
 11
528.2025806439
 21
744.7251831393
 31
0.0
  0
LINE
  5
294
  8
0
  6
CONTINUOUS
 62
     7
 10
528.2025806439
 20
730.725199471
 30
0.0
 11
527.763257159
 21
730.725199471
 31
0.0
  0
LINE
  5
295
  8
0
  6
CONTINUOUS
 62
     7
 10
458.3363098857
 20
714.7251968484
 30
0.0
 11
455.0029769373
 21
714.7251968484
 31
0.0
  0
LINE
  5
296
  8
0
  6
CONTINUOUS
 62
     7
 10
475.6696432662
 20
714.7251968484
 30
0.0
 11
472.3363103178
 21
714.7251968484
 31
0.0
  0
LINE
  5
297
  8
0
  6
CONTINUOUS
 62
     7
 10
455.0029769373
 20
714.7251968484
 30
0.0
 11
434.3363106084
 21
714.7251968484
 31
0.0
  0
LINE
  5
298
  8
0
  6
CONTINUOUS
 62
     7
 10
496.3363095951
 20
714.7251968484
 30
0.0
 11
475.6696432662
 21
714.7251968484
 31
0.0
  0
LINE
  5
299
  8
0
  6
CONTINUOUS
 62
     7
 10
434.3363106084
 20
714.7251968484
 30
0.0
 11
432.4424326253
 21
714.7251968484
 31
0.0
  0
LINE
  5
29A
  8
0
  6
CONTINUOUS
 62
     7
 10
498.2301875782
 20
714.7251968484
 30
0.0
 11
496.3363095951
 21
714.7251968484
 31
0.0
  0
LINE
  5
29B
  8
0
  6
CONTINUOUS
 62
     7
 10
432.4424326253
 20
714.7251968484
 30
0.0
 11
428.061319871
 21
714.7251968484
 31
0.0
  0
LINE
  5
29C
  8
0
  6
CONTINUOUS
 62
     7
 10
502.6113003326
 20
714.7251968484
 30
0.0
 11
498.2301875782
 21
714.7251968484
 31
0.0
  0
LINE
  5
29D
  8
0
  6
CONTINUOUS
 62
     7
 10
505.9926010502
 20
714.7251968484
 30
0.0
 11
502.6113003326
 21
714.7251968484
 31
0.0
  0
LINE
  5
29E
  8
0
  6
CONTINUOUS
 62
     7
 10
428.061319871
 20
714.7251968484
 30
0.0
 11
424.6800191534
 21
714.7251968484
 31
0.0
  0
LINE
  5
29F
  8
0
  6
CONTINUOUS
 62
     7
 10
532.836312784
 20
817.2251885037
 30
0.0
 11
520.601550473
 21
817.2251885037
 31
0.0
  0
LINE
  5
2A0
  8
0
  6
CONTINUOUS
 62
     7
 10
512.601552887
 20
817.2251885037
 30
0.0
 11
418.0710673166
 21
817.2251885037
 31
0.0
  0
LINE
  5
2A1
  8
0
  6
CONTINUOUS
 62
     7
 10
410.0710697305
 20
817.2251885037
 30
0.0
 11
397.8363074196
 21
817.2251885037
 31
0.0
  0
LINE
  5
2A2
  8
0
  6
CONTINUOUS
 62
     7
 10
397.8363074196
 20
840.7251839738
 30
0.0
 11
410.0710697305
 21
840.7251839738
 31
0.0
  0
LINE
  5
2A3
  8
0
  6
CONTINUOUS
 62
     7
 10
418.0710673166
 20
840.7251839738
 30
0.0
 11
512.601552887
 21
840.7251839738
 31
0.0
  0
LINE
  5
2A4
  8
0
  6
CONTINUOUS
 62
     7
 10
520.601550473
 20
840.7251839738
 30
0.0
 11
532.836312784
 21
840.7251839738
 31
0.0
  0
LINE
  5
2A5
  8
0
  6
CONTINUOUS
 62
     7
 10
397.8363074196
 20
770.2251826625
 30
0.0
 11
410.0710697305
 21
770.2251826625
 31
0.0
  0
LINE
  5
2A6
  8
0
  6
CONTINUOUS
 62
     7
 10
418.0710673166
 20
770.2251826625
 30
0.0
 11
512.601552887
 21
770.2251826625
 31
0.0
  0
LINE
  5
2A7
  8
0
  6
CONTINUOUS
 62
     7
 10
520.601550473
 20
770.2251826625
 30
0.0
 11
532.836312784
 21
770.2251826625
 31
0.0
  0
LINE
  5
2A8
  8
0
  6
CONTINUOUS
 62
     7
 10
397.8363074196
 20
793.7251930337
 30
0.0
 11
410.0710697305
 21
793.7251930337
 31
0.0
  0
LINE
  5
2A9
  8
0
  6
CONTINUOUS
 62
     7
 10
418.0710673166
 20
793.7251930337
 30
0.0
 11
512.601552887
 21
793.7251930337
 31
0.0
  0
LINE
  5
2AA
  8
0
  6
CONTINUOUS
 62
     7
 10
520.601550473
 20
793.7251930337
 30
0.0
 11
532.836312784
 21
793.7251930337
 31
0.0
  0
ARC
  5
2AB
  8
0
  6
CONTINUOUS
 62
     7
 10
430.3363104418
 20
958.7251897879
 30
0.0
 40
9.99999928742285
 50
269.9999971979
 51
359.9999921299
  0
LINE
  5
2AC
  8
0
  6
CONTINUOUS
 62
     7
 10
440.3363097292
 20
938.7251888614
 30
0.0
 11
440.3363097292
 21
958.7251884143
 31
0.0
  0
LINE
  5
2AD
  8
0
  6
CONTINUOUS
 62
     7
 10
423.336310668
 20
948.7251905005
 30
0.0
 11
423.336310668
 21
938.7251888614
 31
0.0
  0
LINE
  5
2AE
  8
0
  6
CONTINUOUS
 62
     7
 10
423.336310668
 20
948.7251905005
 30
0.0
 11
430.3363099528
 21
948.7251905005
 31
0.0
  0
LINE
  5
2AF
  8
0
  6
CONTINUOUS
 62
     7
 10
440.3363097292
 20
938.7251888614
 30
0.0
 11
423.336310668
 21
938.7251888614
 31
0.0
  0
LINE
  5
2B0
  8
0
  6
CONTINUOUS
 62
     7
 10
440.3363097292
 20
958.7251884143
 30
0.0
 11
440.3363097292
 21
977.725189666
 31
0.0
  0
LINE
  5
2B1
  8
0
  6
CONTINUOUS
 62
     7
 10
480.3363097665
 20
987.7251899082
 30
0.0
 11
450.336310437
 21
987.7251899082
 31
0.0
  0
ARC
  5
2B2
  8
0
  6
CONTINUOUS
 62
     7
 10
480.3363101018
 20
977.7251899343
 30
0.0
 40
10.0
 50
0.0
 51
90.0
  0
LINE
  5
2B3
  8
0
  6
CONTINUOUS
 62
     7
 10
490.3363104743
 20
958.7251884143
 30
0.0
 11
490.3363104743
 21
977.725189666
 31
0.0
  0
LINE
  5
2B4
  8
0
  6
CONTINUOUS
 62
     7
 10
490.3363104743
 20
938.7251888614
 30
0.0
 11
490.3363104743
 21
958.7251884143
 31
0.0
  0
CIRCLE
  5
2B5
  8
0
  6
CONTINUOUS
 62
     7
 10
465.3363101018
 20
963.7251899343
 30
0.0
 40
10.5
  0
ARC
  5
2B6
  8
0
  6
CONTINUOUS
 62
     7
 10
450.3363101018
 20
977.7251899343
 30
0.0
 40
10.0
 50
90.0
 51
180.0
  0
LINE
  5
2B7
  8
0
  6
CONTINUOUS
 62
     7
 10
440.3363097292
 20
938.7251888614
 30
0.0
 11
490.3363104743
 21
938.7251888614
 31
0.0
  0
LINE
  5
2B8
  8
0
  6
CONTINUOUS
 62
     7
 10
507.3363095355
 20
948.7251905005
 30
0.0
 11
507.3363095355
 21
938.7251888614
 31
0.0
  0
LINE
  5
2B9
  8
0
  6
CONTINUOUS
 62
     7
 10
500.3363102508
 20
948.7251905005
 30
0.0
 11
507.3363095355
 21
948.7251905005
 31
0.0
  0
ARC
  5
2BA
  8
0
  6
CONTINUOUS
 62
     7
 10
500.3363095745
 20
958.7251896007
 30
0.0
 40
9.99999910023628
 50
180.0000067976
 51
270.0000038746
  0
LINE
  5
2BB
  8
0
  6
CONTINUOUS
 62
     7
 10
507.3363095355
 20
938.7251888614
 30
0.0
 11
490.3363104743
 21
938.7251888614
 31
0.0
  0
LINE
  5
2BC
  8
0
  6
CONTINUOUS
 62
     7
 10
400.511542691
 20
948.7251905005
 30
0.0
 11
400.511542691
 21
938.7251888614
 31
0.0
  0
LINE
  5
2BD
  8
0
  6
CONTINUOUS
 62
     7
 10
367.3363126648
 20
948.7251905005
 30
0.0
 11
367.3363126648
 21
938.7251888614
 31
0.0
  0
LINE
  5
2BE
  8
0
  6
CONTINUOUS
 62
     7
 10
367.3363126648
 20
948.7251905005
 30
0.0
 11
400.511542691
 21
948.7251905005
 31
0.0
  0
LINE
  5
2BF
  8
0
  6
CONTINUOUS
 62
     7
 10
367.3363126648
 20
938.7251888614
 30
0.0
 11
400.511542691
 21
938.7251888614
 31
0.0
  0
LINE
  5
2C0
  8
0
  6
CONTINUOUS
 62
     7
 10
423.336310668
 20
948.7251905005
 30
0.0
 11
400.511542691
 21
948.7251905005
 31
0.0
  0
LINE
  5
2C1
  8
0
  6
CONTINUOUS
 62
     7
 10
400.511542691
 20
938.7251888614
 30
0.0
 11
423.336310668
 21
938.7251888614
 31
0.0
  0
LINE
  5
2C2
  8
0
  6
CONTINUOUS
 62
     7
 10
530.1610775125
 20
948.7251905005
 30
0.0
 11
530.1610775125
 21
938.7251888614
 31
0.0
  0
LINE
  5
2C3
  8
0
  6
CONTINUOUS
 62
     7
 10
530.1610775125
 20
948.7251905005
 30
0.0
 11
507.3363095355
 21
948.7251905005
 31
0.0
  0
LINE
  5
2C4
  8
0
  6
CONTINUOUS
 62
     7
 10
507.3363095355
 20
938.7251888614
 30
0.0
 11
530.1610775125
 21
938.7251888614
 31
0.0
  0
LINE
  5
2C5
  8
0
  6
CONTINUOUS
 62
     7
 10
563.3363075388
 20
948.7251905005
 30
0.0
 11
563.3363075388
 21
938.7251888614
 31
0.0
  0
LINE
  5
2C6
  8
0
  6
CONTINUOUS
 62
     7
 10
530.1610775125
 20
948.7251905005
 30
0.0
 11
563.3363075388
 21
948.7251905005
 31
0.0
  0
LINE
  5
2C7
  8
0
  6
CONTINUOUS
 62
     7
 10
530.1610775125
 20
938.7251888614
 30
0.0
 11
563.3363075388
 21
938.7251888614
 31
0.0
  0
LINE
  5
2C8
  8
0
  6
CONTINUOUS
 62
     7
 10
380.3363092077
 20
935.7251902323
 30
0.0
 11
550.3363109958
 21
935.7251902323
 31
0.0
  0
POLYLINE
  5
2C9
  8
0
  6
CONTINUOUS
 62
     7
 66
     1
 10
0.0
 20
0.0
 30
0.0
 70
   128
  0
VERTEX
  5
6BF
  8
0
  6
CONTINUOUS
 62
     7
 10
440.5895158482
 20
982.7251895543
 30
0.0
  0
VERTEX
  5
6C0
  8
0
  6
CONTINUOUS
 62
     7
 10
441.1310743374
 20
982.6504723381
 30
0.0
  0
VERTEX
  5
6C1
  8
0
  6
CONTINUOUS
 62
     7
 10
441.5413163436
 20
982.4841884177
 30
0.0
  0
SEQEND
  5
9C7
  8
0
  6
CONTINUOUS
 62
     7
  0
POLYLINE
  5
2CA
  8
0
  6
CONTINUOUS
 62
     7
 66
     1
 10
0.0
 20
0.0
 30
0.0
 70
   128
  0
VERTEX
  5
6C2
  8
0
  6
CONTINUOUS
 62
     7
 10
489.13130386
 20
982.4841884177
 30
0.0
  0
VERTEX
  5
6C3
  8
0
  6
CONTINUOUS
 62
     7
 10
489.5415458661
 20
982.6504723381
 30
0.0
  0
VERTEX
  5
6C4
  8
0
  6
CONTINUOUS
 62
     7
 10
490.0831043554
 20
982.7251895543
 30
0.0
  0
SEQEND
  5
9C8
  8
0
  6
CONTINUOUS
 62
     7
  0
LINE
  5
2CB
  8
0
  6
CONTINUOUS
 62
     7
 10
392.5901748073
 20
984.7251898821
 30
0.0
 11
388.7129448188
 21
984.7251898821
 31
0.0
  0
LINE
  5
2CC
  8
0
  6
CONTINUOUS
 62
     7
 10
541.9596753848
 20
984.7251898821
 30
0.0
 11
538.0824453962
 21
984.7251898821
 31
0.0
  0
LINE
  5
2CD
  8
0
  6
CONTINUOUS
 62
     7
 10
538.0824453962
 20
984.7251898821
 30
0.0
 11
533.4581382406
 21
984.7251898821
 31
0.0
  0
LINE
  5
2CE
  8
0
  6
CONTINUOUS
 62
     7
 10
530.4397813809
 20
984.7251898821
 30
0.0
 11
533.4581382406
 21
984.7251898821
 31
0.0
  0
LINE
  5
2CF
  8
0
  6
CONTINUOUS
 62
     7
 10
530.4397813809
 20
984.7251898821
 30
0.0
 11
524.7332811189
 21
984.7251898821
 31
0.0
  0
LINE
  5
2D0
  8
0
  6
CONTINUOUS
 62
     7
 10
524.7332811189
 20
984.7251898821
 30
0.0
 11
518.4167943728
 21
984.7251898821
 31
0.0
  0
LINE
  5
2D1
  8
0
  6
CONTINUOUS
 62
     7
 10
412.2558258307
 20
984.7251898821
 30
0.0
 11
405.9393390846
 21
984.7251898821
 31
0.0
  0
LINE
  5
2D2
  8
0
  6
CONTINUOUS
 62
     7
 10
405.9393390846
 20
984.7251898821
 30
0.0
 11
400.2328388226
 21
984.7251898821
 31
0.0
  0
LINE
  5
2D3
  8
0
  6
CONTINUOUS
 62
     7
 10
397.2144819629
 20
984.7251898821
 30
0.0
 11
400.2328388226
 21
984.7251898821
 31
0.0
  0
LINE
  5
2D4
  8
0
  6
CONTINUOUS
 62
     7
 10
397.2144819629
 20
984.7251898821
 30
0.0
 11
392.5901748073
 21
984.7251898821
 31
0.0
  0
LINE
  5
2D5
  8
0
  6
CONTINUOUS
 62
     7
 10
381.3363112343
 20
988.7251898393
 30
0.0
 11
549.3363089693
 21
988.7251898393
 31
0.0
  0
ARC
  5
2D6
  8
0
  6
CONTINUOUS
 62
     7
 10
415.3701719602
 20
984.5125047067
 30
0.0
 40
3.121600038138343
 50
176.0932179935
 51
202.6361541693
  0
LINE
  5
2D7
  8
0
  6
CONTINUOUS
 62
     7
 10
440.5895158482
 20
982.7251895543
 30
0.0
 11
413.5196454656
 21
982.7251895543
 31
0.0
  0
ARC
  5
2D8
  8
0
  6
CONTINUOUS
 62
     7
 10
413.4392581311
 20
983.7831825934
 30
0.0
 40
1.061042597810032
 50
206.4202326242
 51
274.3450401251
  0
ARC
  5
2D9
  8
0
  6
CONTINUOUS
 62
     7
 10
517.2467371652
 20
983.759654777
 30
0.0
 40
1.038705776362517
 50
264.8209452929
 51
334.4137819578
  0
LINE
  5
2DA
  8
0
  6
CONTINUOUS
 62
     7
 10
517.1529747379
 20
982.7251895543
 30
0.0
 11
490.0831043554
 21
982.7251895543
 31
0.0
  0
ARC
  5
2DB
  8
0
  6
CONTINUOUS
 62
     7
 10
515.3764556697
 20
984.5002997161
 30
0.0
 40
3.048644783622453
 50
337.0402326689
 51
4.2303951683
  0
LINE
  5
2DC
  8
0
  6
CONTINUOUS
 62
     7
 10
439.0286173505
 20
973.7251890104
 30
0.0
 11
440.3363097292
 21
973.7251890104
 31
0.0
  0
LINE
  5
2DD
  8
0
  6
CONTINUOUS
 62
     7
 10
490.3363104743
 20
973.7251890104
 30
0.0
 11
491.6440028531
 21
973.7251890104
 31
0.0
  0
POLYLINE
  5
2DE
  8
0
  6
CONTINUOUS
 62
     7
 66
     1
 10
0.0
 20
0.0
 30
0.0
 70
   128
  0
VERTEX
  5
6C5
  8
0
  6
CONTINUOUS
 62
     7
 10
417.6331259144
 20
982.7251895543
 30
0.0
  0
VERTEX
  5
6C6
  8
0
  6
CONTINUOUS
 62
     7
 10
417.8717493844
 20
982.6867603909
 30
0.0
  0
VERTEX
  5
6C7
  8
0
  6
CONTINUOUS
 62
     7
 10
418.1012086404
 20
982.572949047
 30
0.0
  0
VERTEX
  5
6C8
  8
0
  6
CONTINUOUS
 62
     7
 10
418.3126747441
 20
982.3881290134
 30
0.0
  0
VERTEX
  5
6C9
  8
0
  6
CONTINUOUS
 62
     7
 10
418.4980265629
 20
982.1394034873
 30
0.0
  0
VERTEX
  5
6CA
  8
0
  6
CONTINUOUS
 62
     7
 10
418.650145067
 20
981.8363306325
 30
0.0
  0
VERTEX
  5
6CB
  8
0
  6
CONTINUOUS
 62
     7
 10
418.7631740999
 20
981.4905566375
 30
0.0
  0
VERTEX
  5
6CC
  8
0
  6
CONTINUOUS
 62
     7
 10
418.8327811492
 20
981.1153705444
 30
0.0
  0
VERTEX
  5
6CD
  8
0
  6
CONTINUOUS
 62
     7
 10
418.8562840057
 20
980.7251901578
 30
0.0
  0
SEQEND
  5
9C9
  8
0
  6
CONTINUOUS
 62
     7
  0
ARC
  5
2DF
  8
0
  6
CONTINUOUS
 62
     7
 10
493.3968767781
 20
980.8373793147
 30
0.0
 40
19.73312570748285
 50
359.674253338
 51
5.489714754
  0
LINE
  5
2E0
  8
0
  6
CONTINUOUS
 62
     7
 10
490.3363104743
 20
958.7251884143
 30
0.0
 11
491.6440028531
 21
958.7251884143
 31
0.0
  0
ARC
  5
2E1
  8
0
  6
CONTINUOUS
 62
     7
 10
499.5494534321
 20
958.6304358502
 30
0.0
 40
7.906018397787571
 50
179.3133013706
 51
269.1985847858
  0
POLYLINE
  5
2E2
  8
0
  6
CONTINUOUS
 62
     7
 66
     1
 10
0.0
 20
0.0
 30
0.0
 70
   128
  0
VERTEX
  5
6CE
  8
0
  6
CONTINUOUS
 62
     7
 10
500.3363102508
 20
948.7251905005
 30
0.0
  0
VERTEX
  5
6CF
  8
0
  6
CONTINUOUS
 62
     7
 10
500.1612290573
 20
948.7636205952
 30
0.0
  0
VERTEX
  5
6D0
  8
0
  6
CONTINUOUS
 62
     7
 10
499.9928757382
 20
948.8774319391
 30
0.0
  0
VERTEX
  5
6D1
  8
0
  6
CONTINUOUS
 62
     7
 10
499.8377211225
 20
949.0622510414
 30
0.0
  0
VERTEX
  5
6D2
  8
0
  6
CONTINUOUS
 62
     7
 10
499.7017256749
 20
949.3109774988
 30
0.0
  0
VERTEX
  5
6D3
  8
0
  6
CONTINUOUS
 62
     7
 10
499.5901197028
 20
949.614048491
 30
0.0
  0
VERTEX
  5
6D4
  8
0
  6
CONTINUOUS
 62
     7
 10
499.5071872902
 20
949.9598224859
 30
0.0
  0
VERTEX
  5
6D5
  8
0
  6
CONTINUOUS
 62
     7
 10
499.4561172855
 20
950.3350076478
 30
0.0
  0
VERTEX
  5
6D6
  8
0
  6
CONTINUOUS
 62
     7
 10
499.4388729167
 20
950.7251908283
 30
0.0
  0
SEQEND
  5
9CA
  8
0
  6
CONTINUOUS
 62
     7
  0
ARC
  5
2E3
  8
0
  6
CONTINUOUS
 62
     7
 10
431.1233815312
 20
958.6302265971
 30
0.0
 40
7.905806164176992
 50
270.7998801487
 51
0.6882336948
  0
LINE
  5
2E4
  8
0
  6
CONTINUOUS
 62
     7
 10
439.0286173505
 20
958.7251884143
 30
0.0
 11
440.3363097292
 21
958.7251884143
 31
0.0
  0
POLYLINE
  5
2E5
  8
0
  6
CONTINUOUS
 62
     7
 66
     1
 10
0.0
 20
0.0
 30
0.0
 70
   128
  0
VERTEX
  5
6D7
  8
0
  6
CONTINUOUS
 62
     7
 10
431.2337472868
 20
950.7251908283
 30
0.0
  0
VERTEX
  5
6D8
  8
0
  6
CONTINUOUS
 62
     7
 10
431.216502918
 20
950.3350076478
 30
0.0
  0
VERTEX
  5
6D9
  8
0
  6
CONTINUOUS
 62
     7
 10
431.1654329133
 20
949.9598224859
 30
0.0
  0
VERTEX
  5
6DA
  8
0
  6
CONTINUOUS
 62
     7
 10
431.0825005007
 20
949.614048491
 30
0.0
  0
VERTEX
  5
6DB
  8
0
  6
CONTINUOUS
 62
     7
 10
430.9708945286
 20
949.3109774988
 30
0.0
  0
VERTEX
  5
6DC
  8
0
  6
CONTINUOUS
 62
     7
 10
430.834899081
 20
949.0622510414
 30
0.0
  0
VERTEX
  5
6DD
  8
0
  6
CONTINUOUS
 62
     7
 10
430.6797444654
 20
948.8774319391
 30
0.0
  0
VERTEX
  5
6DE
  8
0
  6
CONTINUOUS
 62
     7
 10
430.5113911462
 20
948.7636205952
 30
0.0
  0
VERTEX
  5
6DF
  8
0
  6
CONTINUOUS
 62
     7
 10
430.3363099528
 20
948.7251905005
 30
0.0
  0
SEQEND
  5
9CB
  8
0
  6
CONTINUOUS
 62
     7
  0
LINE
  5
2E6
  8
0
  6
CONTINUOUS
 62
     7
 10
439.0286173505
 20
958.7251884143
 30
0.0
 11
439.0286173505
 21
973.7251890104
 31
0.0
  0
LINE
  5
2E7
  8
0
  6
CONTINUOUS
 62
     7
 10
491.6440028531
 20
973.7251890104
 30
0.0
 11
491.6440028531
 21
958.7251884143
 31
0.0
  0
LINE
  5
2E8
  8
0
  6
CONTINUOUS
 62
     7
 10
418.8562840057
 20
950.7251908283
 30
0.0
 11
431.2337472868
 21
950.7251908283
 31
0.0
  0
LINE
  5
2E9
  8
0
  6
CONTINUOUS
 62
     7
 10
418.8562840057
 20
980.7251901578
 30
0.0
 11
418.8562840057
 21
950.7251908283
 31
0.0
  0
LINE
  5
2EA
  8
0
  6
CONTINUOUS
 62
     7
 10
499.4388729167
 20
950.7251908283
 30
0.0
 11
513.1296835673
 21
950.7251908283
 31
0.0
  0
LINE
  5
2EB
  8
0
  6
CONTINUOUS
 62
     7
 10
513.1296835673
 20
950.7251908283
 30
0.0
 11
513.1296835673
 21
980.7251901578
 31
0.0
  0
LINE
  5
2EC
  8
0
  6
CONTINUOUS
 62
     7
 10
484.1410726142
 20
932.7251916032
 30
0.0
 11
446.5315475893
 21
932.7251916032
 31
0.0
  0
POLYLINE
  5
2ED
  8
0
  6
CONTINUOUS
 62
     7
 66
     1
 10
0.0
 20
0.0
 30
0.0
 70
   128
  0
VERTEX
  5
6E0
  8
0
  6
CONTINUOUS
 62
     7
 10
446.5315475893
 20
932.7251916032
 30
0.0
  0
VERTEX
  5
6E1
  8
0
  6
CONTINUOUS
 62
     7
 10
446.4493918997
 20
933.6990420919
 30
0.0
  0
VERTEX
  5
6E2
  8
0
  6
CONTINUOUS
 62
     7
 10
446.215091629
 20
934.5628922086
 30
0.0
  0
VERTEX
  5
6E3
  8
0
  6
CONTINUOUS
 62
     7
 10
445.8549268377
 20
935.2330607574
 30
0.0
  0
VERTEX
  5
6E4
  8
0
  6
CONTINUOUS
 62
     7
 10
445.4034030271
 20
935.6363122563
 30
0.0
  0
VERTEX
  5
6E5
  8
0
  6
CONTINUOUS
 62
     7
 10
445.0609929693
 20
935.7251418035
 30
0.0
  0
VERTEX
  5
6E6
  8
0
  6
CONTINUOUS
 62
     7
 10
445.0527004731
 20
935.7251902323
 30
0.0
  0
SEQEND
  5
9CC
  8
0
  6
CONTINUOUS
 62
     7
  0
POLYLINE
  5
2EE
  8
0
  6
CONTINUOUS
 62
     7
 66
     1
 10
0.0
 20
0.0
 30
0.0
 70
   128
  0
VERTEX
  5
6E7
  8
0
  6
CONTINUOUS
 62
     7
 10
485.6199197304
 20
935.7251902323
 30
0.0
  0
VERTEX
  5
6E8
  8
0
  6
CONTINUOUS
 62
     7
 10
485.6116272342
 20
935.7251418035
 30
0.0
  0
VERTEX
  5
6E9
  8
0
  6
CONTINUOUS
 62
     7
 10
485.2692171765
 20
935.6363122563
 30
0.0
  0
VERTEX
  5
6EA
  8
0
  6
CONTINUOUS
 62
     7
 10
484.8176933658
 20
935.2330607574
 30
0.0
  0
VERTEX
  5
6EB
  8
0
  6
CONTINUOUS
 62
     7
 10
484.4575285745
 20
934.5628922086
 30
0.0
  0
VERTEX
  5
6EC
  8
0
  6
CONTINUOUS
 62
     7
 10
484.2232283038
 20
933.6990420919
 30
0.0
  0
VERTEX
  5
6ED
  8
0
  6
CONTINUOUS
 62
     7
 10
484.1410726142
 20
932.7251916032
 30
0.0
  0
SEQEND
  5
9CD
  8
0
  6
CONTINUOUS
 62
     7
  0
POLYLINE
  5
2EF
  8
0
  6
CONTINUOUS
 62
     7
 66
     1
 10
0.0
 20
0.0
 30
0.0
 70
   128
  0
VERTEX
  5
6EE
  8
0
  6
CONTINUOUS
 62
     7
 10
418.8562840057
 20
950.7251908283
 30
0.0
  0
VERTEX
  5
6EF
  8
0
  6
CONTINUOUS
 62
     7
 10
418.8327811492
 20
950.3350076478
 30
0.0
  0
VERTEX
  5
6F0
  8
0
  6
CONTINUOUS
 62
     7
 10
418.7631740999
 20
949.9598224859
 30
0.0
  0
VERTEX
  5
6F1
  8
0
  6
CONTINUOUS
 62
     7
 10
418.650145067
 20
949.614048491
 30
0.0
  0
VERTEX
  5
6F2
  8
0
  6
CONTINUOUS
 62
     7
 10
418.4980265629
 20
949.3109774988
 30
0.0
  0
VERTEX
  5
6F3
  8
0
  6
CONTINUOUS
 62
     7
 10
418.3126747441
 20
949.0622510414
 30
0.0
  0
VERTEX
  5
6F4
  8
0
  6
CONTINUOUS
 62
     7
 10
418.1012086404
 20
948.8774319391
 30
0.0
  0
VERTEX
  5
6F5
  8
0
  6
CONTINUOUS
 62
     7
 10
417.8717493844
 20
948.7636205952
 30
0.0
  0
VERTEX
  5
6F6
  8
0
  6
CONTINUOUS
 62
     7
 10
417.6331259144
 20
948.7251905005
 30
0.0
  0
SEQEND
  5
9CE
  8
0
  6
CONTINUOUS
 62
     7
  0
ARC
  5
2F0
  8
0
  6
CONTINUOUS
 62
     7
 10
493.3820966678
 20
950.6136672959
 30
0.0
 40
19.74790180885243
 50
354.5124626333
 51
0.3235716762
  0
LINE
  5
2F1
  8
0
  6
CONTINUOUS
 62
     7
 10
446.5315475893
 20
932.7251916032
 30
0.0
 11
443.336310221
 21
932.7251916032
 31
0.0
  0
ARC
  5
2F2
  8
0
  6
CONTINUOUS
 62
     7
 10
440.3363101018
 20
932.7251899343
 30
0.0
 40
3.0
 50
0.0
 51
90.0
  0
ARC
  5
2F3
  8
0
  6
CONTINUOUS
 62
     7
 10
490.3363101018
 20
932.7251899343
 30
0.0
 40
2.999999999999943
 50
90.0
 51
180.0
  0
LINE
  5
2F4
  8
0
  6
CONTINUOUS
 62
     7
 10
487.3363099826
 20
932.7251916032
 30
0.0
 11
484.1410726142
 21
932.7251916032
 31
0.0
  0
ARC
  5
2F5
  8
0
  6
CONTINUOUS
 62
     7
 10
486.6790245916
 20
871.3972605592
 30
0.0
 40
2.547708062305843
 50
174.9842108525
 51
221.0185697609
  0
ARC
  5
2F6
  8
0
  6
CONTINUOUS
 62
     7
 10
444.0284722029
 20
871.3859275322
 30
0.0
 40
2.513996768012314
 50
318.6546347472
 51
5.3425846394
  0
LINE
  5
2F7
  8
0
  6
CONTINUOUS
 62
     7
 10
446.5315475893
 20
932.7251916032
 30
0.0
 11
446.5315475893
 21
871.6200073462
 31
0.0
  0
LINE
  5
2F8
  8
0
  6
CONTINUOUS
 62
     7
 10
484.1410726142
 20
871.6200073462
 30
0.0
 11
484.1410726142
 21
932.7251916032
 31
0.0
  0
POLYLINE
  5
2F9
  8
0
  6
CONTINUOUS
 62
     7
 66
     1
 10
0.0
 20
0.0
 30
0.0
 70
   128
  0
VERTEX
  5
6F7
  8
0
  6
CONTINUOUS
 62
     7
 10
429.6612128449
 20
858.7251906495
 30
0.0
  0
VERTEX
  5
6F8
  8
0
  6
CONTINUOUS
 62
     7
 10
430.8467194271
 20
858.7009464603
 30
0.0
  0
VERTEX
  5
6F9
  8
0
  6
CONTINUOUS
 62
     7
 10
431.8076431585
 20
858.598128448
 30
0.0
  0
VERTEX
  5
6FA
  8
0
  6
CONTINUOUS
 62
     7
 10
432.7710442078
 20
858.350471149
 30
0.0
  0
VERTEX
  5
6FB
  8
0
  6
CONTINUOUS
 62
     7
 10
433.4962427449
 20
858.0204104285
 30
0.0
  0
VERTEX
  5
6FC
  8
0
  6
CONTINUOUS
 62
     7
 10
434.1074790639
 20
857.5871889691
 30
0.0
  0
VERTEX
  5
6FD
  8
0
  6
CONTINUOUS
 62
     7
 10
434.4218469989
 20
857.2719102006
 30
0.0
  0
VERTEX
  5
6FE
  8
0
  6
CONTINUOUS
 62
     7
 10
434.676915763
 20
856.9283639293
 30
0.0
  0
VERTEX
  5
6FF
  8
0
  6
CONTINUOUS
 62
     7
 10
434.9491488022
 20
856.3398574691
 30
0.0
  0
VERTEX
  5
700
  8
0
  6
CONTINUOUS
 62
     7
 10
435.0402656776
 20
855.7251845698
 30
0.0
  0
SEQEND
  5
9CF
  8
0
  6
CONTINUOUS
 62
     7
  0
LINE
  5
2FA
  8
0
  6
CONTINUOUS
 62
     7
 10
435.0402656776
 20
855.7251845698
 30
0.0
 11
435.0402656776
 21
841.7251860004
 31
0.0
  0
POLYLINE
  5
2FB
  8
0
  6
CONTINUOUS
 62
     7
 66
     1
 10
0.0
 20
0.0
 30
0.0
 70
   128
  0
VERTEX
  5
701
  8
0
  6
CONTINUOUS
 62
     7
 10
495.6323545259
 20
855.7251845698
 30
0.0
  0
VERTEX
  5
702
  8
0
  6
CONTINUOUS
 62
     7
 10
495.7234714014
 20
856.3398127656
 30
0.0
  0
VERTEX
  5
703
  8
0
  6
CONTINUOUS
 62
     7
 10
495.8370070738
 20
856.6373442512
 30
0.0
  0
VERTEX
  5
704
  8
0
  6
CONTINUOUS
 62
     7
 10
495.9957044405
 20
856.9283639293
 30
0.0
  0
VERTEX
  5
705
  8
0
  6
CONTINUOUS
 62
     7
 10
496.2507042867
 20
857.2718356948
 30
0.0
  0
VERTEX
  5
706
  8
0
  6
CONTINUOUS
 62
     7
 10
496.5651411396
 20
857.5871889691
 30
0.0
  0
VERTEX
  5
707
  8
0
  6
CONTINUOUS
 62
     7
 10
497.1762955022
 20
858.020365725
 30
0.0
  0
VERTEX
  5
708
  8
0
  6
CONTINUOUS
 62
     7
 10
497.9015759957
 20
858.350471149
 30
0.0
  0
VERTEX
  5
709
  8
0
  6
CONTINUOUS
 62
     7
 10
499.4032330644
 20
858.6706523995
 30
0.0
  0
VERTEX
  5
70A
  8
0
  6
CONTINUOUS
 62
     7
 10
501.0114073587
 20
858.7251906495
 30
0.0
  0
SEQEND
  5
9D0
  8
0
  6
CONTINUOUS
 62
     7
  0
LINE
  5
2FC
  8
0
  6
CONTINUOUS
 62
     7
 10
495.6323545259
 20
841.7251860004
 30
0.0
 11
495.6323545259
 21
855.7251845698
 31
0.0
  0
ARC
  5
2FD
  8
0
  6
CONTINUOUS
 62
     7
 10
436.7177893907
 20
867.476117851
 30
0.0
 40
10.65277757815227
 50
22.8920515127
 51
50.746917735
  0
LINE
  5
2FE
  8
0
  6
CONTINUOUS
 62
     7
 10
443.336310221
 20
875.7251878481
 30
0.0
 11
443.4583023024
 21
875.7251878481
 31
0.0
  0
LINE
  5
2FF
  8
0
  6
CONTINUOUS
 62
     7
 10
443.336310221
 20
875.7251878481
 30
0.0
 11
443.336310221
 21
932.7251916032
 31
0.0
  0
POLYLINE
  5
300
  8
0
  6
CONTINUOUS
 62
     7
 66
     1
 10
0.0
 20
0.0
 30
0.0
 70
   128
  0
VERTEX
  5
70B
  8
0
  6
CONTINUOUS
 62
     7
 10
445.9158334714
 20
869.7251905899
 30
0.0
  0
VERTEX
  5
70C
  8
0
  6
CONTINUOUS
 62
     7
 10
445.8976913077
 20
869.8890214067
 30
0.0
  0
VERTEX
  5
70D
  8
0
  6
CONTINUOUS
 62
     7
 10
445.7676879895
 20
870.1958363156
 30
0.0
  0
VERTEX
  5
70E
  8
0
  6
CONTINUOUS
 62
     7
 10
445.5985914749
 20
870.4185863237
 30
0.0
  0
VERTEX
  5
70F
  8
0
  6
CONTINUOUS
 62
     7
 10
445.0906555933
 20
870.8651443224
 30
0.0
  0
VERTEX
  5
710
  8
0
  6
CONTINUOUS
 62
     7
 10
443.5434512627
 20
871.7513610821
 30
0.0
  0
VERTEX
  5
711
  8
0
  6
CONTINUOUS
 62
     7
 10
441.7391720993
 20
872.4753563504
 30
0.0
  0
VERTEX
  5
712
  8
0
  6
CONTINUOUS
 62
     7
 10
440.4949009252
 20
872.725189219
 30
0.0
  0
SEQEND
  5
9D1
  8
0
  6
CONTINUOUS
 62
     7
  0
ARC
  5
301
  8
0
  6
CONTINUOUS
 62
     7
 10
440.4764905673
 20
875.706999591
 30
0.0
 40
2.981867206289316
 50
270.3537523412
 51
0.3494846541
  0
LINE
  5
302
  8
0
  6
CONTINUOUS
 62
     7
 10
487.2143179012
 20
875.7251878481
 30
0.0
 11
487.3363099826
 21
875.7251878481
 31
0.0
  0
POLYLINE
  5
303
  8
0
  6
CONTINUOUS
 62
     7
 66
     1
 10
0.0
 20
0.0
 30
0.0
 70
   128
  0
VERTEX
  5
713
  8
0
  6
CONTINUOUS
 62
     7
 10
484.1410726142
 20
871.6200073462
 30
0.0
  0
VERTEX
  5
714
  8
0
  6
CONTINUOUS
 62
     7
 10
484.3215051872
 20
872.0050906043
 30
0.0
  0
VERTEX
  5
715
  8
0
  6
CONTINUOUS
 62
     7
 10
485.4252137077
 20
873.7775315743
 30
0.0
  0
VERTEX
  5
716
  8
0
  6
CONTINUOUS
 62
     7
 10
486.5883350206
 20
875.2255295615
 30
0.0
  0
VERTEX
  5
717
  8
0
  6
CONTINUOUS
 62
     7
 10
487.1019352061
 20
875.6888737183
 30
0.0
  0
VERTEX
  5
718
  8
0
  6
CONTINUOUS
 62
     7
 10
487.2143179012
 20
875.7251878481
 30
0.0
  0
SEQEND
  5
9D2
  8
0
  6
CONTINUOUS
 62
     7
  0
LINE
  5
304
  8
0
  6
CONTINUOUS
 62
     7
 10
487.3363099826
 20
932.7251916032
 30
0.0
 11
487.3363099826
 21
875.7251878481
 31
0.0
  0
ARC
  5
305
  8
0
  6
CONTINUOUS
 62
     7
 10
490.1961296362
 20
875.706999591
 30
0.0
 40
2.981867206289429
 50
179.6505153459
 51
269.6462476588
  0
POLYLINE
  5
306
  8
0
  6
CONTINUOUS
 62
     7
 66
     1
 10
0.0
 20
0.0
 30
0.0
 70
   128
  0
VERTEX
  5
719
  8
0
  6
CONTINUOUS
 62
     7
 10
490.1777192784
 20
872.725189219
 30
0.0
  0
VERTEX
  5
71A
  8
0
  6
CONTINUOUS
 62
     7
 10
488.9334481043
 20
872.4753563504
 30
0.0
  0
VERTEX
  5
71B
  8
0
  6
CONTINUOUS
 62
     7
 10
487.1291689408
 20
871.7513610821
 30
0.0
  0
VERTEX
  5
71C
  8
0
  6
CONTINUOUS
 62
     7
 10
485.5819646102
 20
870.8651443224
 30
0.0
  0
VERTEX
  5
71D
  8
0
  6
CONTINUOUS
 62
     7
 10
485.0740287286
 20
870.4185863237
 30
0.0
  0
VERTEX
  5
71E
  8
0
  6
CONTINUOUS
 62
     7
 10
484.8810046745
 20
870.1557372909
 30
0.0
  0
VERTEX
  5
71F
  8
0
  6
CONTINUOUS
 62
     7
 10
484.7749288958
 20
869.8890214067
 30
0.0
  0
VERTEX
  5
720
  8
0
  6
CONTINUOUS
 62
     7
 10
484.7567867321
 20
869.7251905899
 30
0.0
  0
SEQEND
  5
9D3
  8
0
  6
CONTINUOUS
 62
     7
  0
ARC
  5
307
  8
0
  6
CONTINUOUS
 62
     7
 10
414.7355162452
 20
931.4559341885
 30
0.0
 40
51.90377440113362
 50
92.480629449
 51
99.7054475496
  0
POLYLINE
  5
308
  8
0
  6
CONTINUOUS
 62
     7
 66
     1
 10
0.0
 20
0.0
 30
0.0
 70
   128
  0
VERTEX
  5
721
  8
0
  6
CONTINUOUS
 62
     7
 10
405.9393390846
 20
984.7251898821
 30
0.0
  0
VERTEX
  5
722
  8
0
  6
CONTINUOUS
 62
     7
 10
405.9685043824
 20
983.596631347
 30
0.0
  0
VERTEX
  5
723
  8
0
  6
CONTINUOUS
 62
     7
 10
405.9854172003
 20
982.6168329667
 30
0.0
  0
SEQEND
  5
9D4
  8
0
  6
CONTINUOUS
 62
     7
  0
ARC
  5
309
  8
0
  6
CONTINUOUS
 62
     7
 10
515.9371039584
 20
931.4559341885
 30
0.0
 40
51.90377440113237
 50
80.2945524504
 51
87.519370551
  0
POLYLINE
  5
30A
  8
0
  6
CONTINUOUS
 62
     7
 66
     1
 10
0.0
 20
0.0
 30
0.0
 70
   128
  0
VERTEX
  5
724
  8
0
  6
CONTINUOUS
 62
     7
 10
524.7332811189
 20
984.7251898821
 30
0.0
  0
VERTEX
  5
725
  8
0
  6
CONTINUOUS
 62
     7
 10
524.7041158211
 20
983.596631347
 30
0.0
  0
VERTEX
  5
726
  8
0
  6
CONTINUOUS
 62
     7
 10
524.6872030032
 20
982.6168329667
 30
0.0
  0
SEQEND
  5
9D5
  8
0
  6
CONTINUOUS
 62
     7
  0
LINE
  5
30B
  8
0
  6
CONTINUOUS
 62
     7
 10
400.8363134992
 20
872.725189219
 30
0.0
 11
419.8363110256
 21
872.725189219
 31
0.0
  0
LINE
  5
30C
  8
0
  6
CONTINUOUS
 62
     7
 10
420.6417634916
 20
872.4817936521
 30
0.0
 11
419.8363110256
 21
872.725189219
 31
0.0
  0
POLYLINE
  5
30D
  8
0
  6
CONTINUOUS
 62
     7
 66
     1
 10
0.0
 20
0.0
 30
0.0
 70
   128
  0
VERTEX
  5
727
  8
0
  6
CONTINUOUS
 62
     7
 10
426.7738632691
 20
872.2583283882
 30
0.0
  0
VERTEX
  5
728
  8
0
  6
CONTINUOUS
 62
     7
 10
426.5595622194
 20
872.2096611958
 30
0.0
  0
VERTEX
  5
729
  8
0
  6
CONTINUOUS
 62
     7
 10
424.9178267849
 20
871.8749289613
 30
0.0
  0
VERTEX
  5
72A
  8
0
  6
CONTINUOUS
 62
     7
 10
423.7569108439
 20
871.7500050764
 30
0.0
  0
VERTEX
  5
72B
  8
0
  6
CONTINUOUS
 62
     7
 10
422.6845078004
 20
871.7917432289
 30
0.0
  0
VERTEX
  5
72C
  8
0
  6
CONTINUOUS
 62
     7
 10
421.4139006865
 20
872.1048613291
 30
0.0
  0
VERTEX
  5
72D
  8
0
  6
CONTINUOUS
 62
     7
 10
420.6417634916
 20
872.4817936521
 30
0.0
  0
SEQEND
  5
9D6
  8
0
  6
CONTINUOUS
 62
     7
  0
POLYLINE
  5
30E
  8
0
  6
CONTINUOUS
 62
     7
 66
     1
 10
0.0
 20
0.0
 30
0.0
 70
   128
  0
VERTEX
  5
72E
  8
0
  6
CONTINUOUS
 62
     7
 10
431.6428400409
 20
872.725189219
 30
0.0
  0
VERTEX
  5
72F
  8
0
  6
CONTINUOUS
 62
     7
 10
430.7787366045
 20
872.7134173017
 30
0.0
  0
VERTEX
  5
730
  8
0
  6
CONTINUOUS
 62
     7
 10
426.7738632691
 20
872.2583283882
 30
0.0
  0
SEQEND
  5
9D7
  8
0
  6
CONTINUOUS
 62
     7
  0
LINE
  5
30F
  8
0
  6
CONTINUOUS
 62
     7
 10
431.6428400409
 20
872.725189219
 30
0.0
 11
440.4949009252
 21
872.725189219
 31
0.0
  0
LINE
  5
310
  8
0
  6
CONTINUOUS
 62
     7
 10
490.1777192784
 20
872.725189219
 30
0.0
 11
499.0297801626
 21
872.725189219
 31
0.0
  0
POLYLINE
  5
311
  8
0
  6
CONTINUOUS
 62
     7
 66
     1
 10
0.0
 20
0.0
 30
0.0
 70
   128
  0
VERTEX
  5
731
  8
0
  6
CONTINUOUS
 62
     7
 10
503.8987569344
 20
872.2583283882
 30
0.0
  0
VERTEX
  5
732
  8
0
  6
CONTINUOUS
 62
     7
 10
501.4948606324
 20
872.6220806341
 30
0.0
  0
VERTEX
  5
733
  8
0
  6
CONTINUOUS
 62
     7
 10
499.0297801626
 20
872.725189219
 30
0.0
  0
SEQEND
  5
9D8
  8
0
  6
CONTINUOUS
 62
     7
  0
POLYLINE
  5
312
  8
0
  6
CONTINUOUS
 62
     7
 66
     1
 10
0.0
 20
0.0
 30
0.0
 70
   128
  0
VERTEX
  5
734
  8
0
  6
CONTINUOUS
 62
     7
 10
510.0308567119
 20
872.4817936521
 30
0.0
  0
VERTEX
  5
735
  8
0
  6
CONTINUOUS
 62
     7
 10
509.925900383
 20
872.4168916445
 30
0.0
  0
VERTEX
  5
736
  8
0
  6
CONTINUOUS
 62
     7
 10
509.0421646667
 20
872.0285748344
 30
0.0
  0
VERTEX
  5
737
  8
0
  6
CONTINUOUS
 62
     7
 10
507.9783558679
 20
871.7905138831
 30
0.0
  0
VERTEX
  5
738
  8
0
  6
CONTINUOUS
 62
     7
 10
506.7828170788
 20
871.7566509943
 30
0.0
  0
VERTEX
  5
739
  8
0
  6
CONTINUOUS
 62
     7
 10
505.5013805461
 20
871.9183956485
 30
0.0
  0
VERTEX
  5
73A
  8
0
  6
CONTINUOUS
 62
     7
 10
503.8987569344
 20
872.2583283882
 30
0.0
  0
SEQEND
  5
9D9
  8
0
  6
CONTINUOUS
 62
     7
  0
LINE
  5
313
  8
0
  6
CONTINUOUS
 62
     7
 10
510.8363091779
 20
872.725189219
 30
0.0
 11
510.0308567119
 21
872.4817936521
 31
0.0
  0
LINE
  5
314
  8
0
  6
CONTINUOUS
 62
     7
 10
510.8363091779
 20
872.725189219
 30
0.0
 11
529.8363067043
 21
872.725189219
 31
0.0
  0
POLYLINE
  5
315
  8
0
  6
CONTINUOUS
 62
     7
 66
     1
 10
0.0
 20
0.0
 30
0.0
 70
   128
  0
VERTEX
  5
73B
  8
0
  6
CONTINUOUS
 62
     7
 10
413.1009675396
 20
982.1400526192
 30
0.0
  0
VERTEX
  5
73C
  8
0
  6
CONTINUOUS
 62
     7
 10
413.1260908973
 20
982.437244172
 30
0.0
  0
VERTEX
  5
73D
  8
0
  6
CONTINUOUS
 62
     7
 10
413.1801076067
 20
982.6006922152
 30
0.0
  0
VERTEX
  5
73E
  8
0
  6
CONTINUOUS
 62
     7
 10
413.3133984935
 20
982.7030389782
 30
0.0
  0
VERTEX
  5
73F
  8
0
  6
CONTINUOUS
 62
     7
 10
413.4073354137
 20
982.7206502881
 30
0.0
  0
VERTEX
  5
740
  8
0
  6
CONTINUOUS
 62
     7
 10
413.5196454656
 20
982.7251895543
 30
0.0
  0
SEQEND
  5
9DA
  8
0
  6
CONTINUOUS
 62
     7
  0
POLYLINE
  5
316
  8
0
  6
CONTINUOUS
 62
     7
 66
     1
 10
0.0
 20
0.0
 30
0.0
 70
   128
  0
VERTEX
  5
741
  8
0
  6
CONTINUOUS
 62
     7
 10
413.1009675396
 20
982.1400526192
 30
0.0
  0
VERTEX
  5
742
  8
0
  6
CONTINUOUS
 62
     7
 10
410.8583539558
 20
981.8440550219
 30
0.0
  0
VERTEX
  5
743
  8
0
  6
CONTINUOUS
 62
     7
 10
408.7339140308
 20
982.0841546382
 30
0.0
  0
VERTEX
  5
744
  8
0
  6
CONTINUOUS
 62
     7
 10
407.2780184281
 20
982.3691877748
 30
0.0
  0
VERTEX
  5
745
  8
0
  6
CONTINUOUS
 62
     7
 10
405.9854172003
 20
982.6168329667
 30
0.0
  0
SEQEND
  5
9DB
  8
0
  6
CONTINUOUS
 62
     7
  0
POLYLINE
  5
317
  8
0
  6
CONTINUOUS
 62
     7
 66
     1
 10
0.0
 20
0.0
 30
0.0
 70
   128
  0
VERTEX
  5
746
  8
0
  6
CONTINUOUS
 62
     7
 10
517.571652664
 20
982.1400526192
 30
0.0
  0
VERTEX
  5
747
  8
0
  6
CONTINUOUS
 62
     7
 10
519.8142662478
 20
981.8440550219
 30
0.0
  0
VERTEX
  5
748
  8
0
  6
CONTINUOUS
 62
     7
 10
521.9387061727
 20
982.0841546382
 30
0.0
  0
VERTEX
  5
749
  8
0
  6
CONTINUOUS
 62
     7
 10
523.3946017754
 20
982.3691877748
 30
0.0
  0
VERTEX
  5
74A
  8
0
  6
CONTINUOUS
 62
     7
 10
524.6872030032
 20
982.6168329667
 30
0.0
  0
SEQEND
  5
9DC
  8
0
  6
CONTINUOUS
 62
     7
  0
POLYLINE
  5
318
  8
0
  6
CONTINUOUS
 62
     7
 66
     1
 10
0.0
 20
0.0
 30
0.0
 70
   128
  0
VERTEX
  5
74B
  8
0
  6
CONTINUOUS
 62
     7
 10
517.1529747379
 20
982.7251895543
 30
0.0
  0
VERTEX
  5
74C
  8
0
  6
CONTINUOUS
 62
     7
 10
517.265299691
 20
982.7206493567
 30
0.0
  0
VERTEX
  5
74D
  8
0
  6
CONTINUOUS
 62
     7
 10
517.3592403364
 20
982.7030361842
 30
0.0
  0
VERTEX
  5
74E
  8
0
  6
CONTINUOUS
 62
     7
 10
517.4925125969
 20
982.6006922152
 30
0.0
  0
VERTEX
  5
74F
  8
0
  6
CONTINUOUS
 62
     7
 10
517.5465330315
 20
982.4372134383
 30
0.0
  0
VERTEX
  5
750
  8
0
  6
CONTINUOUS
 62
     7
 10
517.571652664
 20
982.1400526192
 30
0.0
  0
SEQEND
  5
9DD
  8
0
  6
CONTINUOUS
 62
     7
  0
POLYLINE
  5
319
  8
0
  6
CONTINUOUS
 62
     7
 66
     1
 10
0.0
 20
0.0
 30
0.0
 70
   128
  0
VERTEX
  5
751
  8
0
  6
CONTINUOUS
 62
     7
 10
416.4257369769
 20
950.7251908283
 30
0.0
  0
VERTEX
  5
752
  8
0
  6
CONTINUOUS
 62
     7
 10
416.4489380849
 20
950.3350076478
 30
0.0
  0
VERTEX
  5
753
  8
0
  6
CONTINUOUS
 62
     7
 10
416.5176436138
 20
949.9598224859
 30
0.0
  0
VERTEX
  5
754
  8
0
  6
CONTINUOUS
 62
     7
 10
416.6292197836
 20
949.614048491
 30
0.0
  0
VERTEX
  5
755
  8
0
  6
CONTINUOUS
 62
     7
 10
416.7793750596
 20
949.3109774988
 30
0.0
  0
VERTEX
  5
756
  8
0
  6
CONTINUOUS
 62
     7
 10
416.9623352421
 20
949.0622510414
 30
0.0
  0
VERTEX
  5
757
  8
0
  6
CONTINUOUS
 62
     7
 10
417.1710781586
 20
948.8774319391
 30
0.0
  0
VERTEX
  5
758
  8
0
  6
CONTINUOUS
 62
     7
 10
417.3975758088
 20
948.7636205952
 30
0.0
  0
VERTEX
  5
759
  8
0
  6
CONTINUOUS
 62
     7
 10
417.6331259144
 20
948.7251905005
 30
0.0
  0
SEQEND
  5
9DE
  8
0
  6
CONTINUOUS
 62
     7
  0
LINE
  5
31A
  8
0
  6
CONTINUOUS
 62
     7
 10
416.4257369769
 20
980.7251901578
 30
0.0
 11
413.134953363
 21
980.7251901578
 31
0.0
  0
ARC
  5
31B
  8
0
  6
CONTINUOUS
 62
     7
 10
464.9467279287
 20
982.6775786802
 30
0.0
 40
51.8485467935007
 50
180.5940094429
 51
182.1580175758
  0
POLYLINE
  5
31C
  8
0
  6
CONTINUOUS
 62
     7
 66
     1
 10
0.0
 20
0.0
 30
0.0
 70
   128
  0
VERTEX
  5
75A
  8
0
  6
CONTINUOUS
 62
     7
 10
416.4257369769
 20
980.7251901578
 30
0.0
  0
VERTEX
  5
75B
  8
0
  6
CONTINUOUS
 62
     7
 10
416.4489380849
 20
981.1153705444
 30
0.0
  0
VERTEX
  5
75C
  8
0
  6
CONTINUOUS
 62
     7
 10
416.5176436138
 20
981.4905566375
 30
0.0
  0
VERTEX
  5
75D
  8
0
  6
CONTINUOUS
 62
     7
 10
416.6292197836
 20
981.8363306325
 30
0.0
  0
VERTEX
  5
75E
  8
0
  6
CONTINUOUS
 62
     7
 10
416.7793750596
 20
982.1394034873
 30
0.0
  0
VERTEX
  5
75F
  8
0
  6
CONTINUOUS
 62
     7
 10
416.9623352421
 20
982.3881290134
 30
0.0
  0
VERTEX
  5
760
  8
0
  6
CONTINUOUS
 62
     7
 10
417.1710781586
 20
982.572949047
 30
0.0
  0
VERTEX
  5
761
  8
0
  6
CONTINUOUS
 62
     7
 10
417.3975758088
 20
982.6867603909
 30
0.0
  0
VERTEX
  5
762
  8
0
  6
CONTINUOUS
 62
     7
 10
417.6331259144
 20
982.7251895543
 30
0.0
  0
SEQEND
  5
9DF
  8
0
  6
CONTINUOUS
 62
     7
  0
ARC
  5
31D
  8
0
  6
CONTINUOUS
 62
     7
 10
456.8339701969
 20
982.8911678464
 30
0.0
 40
60.74232663927782
 50
357.9564876473
 51
359.2914853339
  0
LINE
  5
31E
  8
0
  6
CONTINUOUS
 62
     7
 10
517.5376668406
 20
980.7251901578
 30
0.0
 11
513.1296835673
 21
980.7251901578
 31
0.0
  0
LINE
  5
31F
  8
0
  6
CONTINUOUS
 62
     7
 10
405.9393390846
 20
980.7251901578
 30
0.0
 11
413.134953363
 21
980.7251901578
 31
0.0
  0
POLYLINE
  5
320
  8
0
  6
CONTINUOUS
 62
     7
 66
     1
 10
0.0
 20
0.0
 30
0.0
 70
   128
  0
VERTEX
  5
763
  8
0
  6
CONTINUOUS
 62
     7
 10
405.9393390846
 20
980.7251901578
 30
0.0
  0
VERTEX
  5
764
  8
0
  6
CONTINUOUS
 62
     7
 10
405.9637695384
 20
981.7234347786
 30
0.0
  0
VERTEX
  5
765
  8
0
  6
CONTINUOUS
 62
     7
 10
405.9854172003
 20
982.6168329667
 30
0.0
  0
SEQEND
  5
9E0
  8
0
  6
CONTINUOUS
 62
     7
  0
POLYLINE
  5
321
  8
0
  6
CONTINUOUS
 62
     7
 66
     1
 10
0.0
 20
0.0
 30
0.0
 70
   128
  0
VERTEX
  5
766
  8
0
  6
CONTINUOUS
 62
     7
 10
524.7332811189
 20
980.7251901578
 30
0.0
  0
VERTEX
  5
767
  8
0
  6
CONTINUOUS
 62
     7
 10
524.7088506651
 20
981.7234347786
 30
0.0
  0
VERTEX
  5
768
  8
0
  6
CONTINUOUS
 62
     7
 10
524.6872030032
 20
982.6168329667
 30
0.0
  0
SEQEND
  5
9E1
  8
0
  6
CONTINUOUS
 62
     7
  0
LINE
  5
322
  8
0
  6
CONTINUOUS
 62
     7
 10
517.5376668406
 20
980.7251901578
 30
0.0
 11
524.7332811189
 21
980.7251901578
 31
0.0
  0
LINE
  5
323
  8
0
  6
CONTINUOUS
 62
     7
 10
416.4257369769
 20
950.7251908283
 30
0.0
 11
416.4257369769
 21
980.7251901578
 31
0.0
  0
LINE
  5
324
  8
0
  6
CONTINUOUS
 62
     7
 10
527.058130486
 20
980.7251901578
 30
0.0
 11
527.0369633866
 21
980.7251901578
 31
0.0
  0
LINE
  5
325
  8
0
  6
CONTINUOUS
 62
     7
 10
418.8562840057
 20
980.7251901578
 30
0.0
 11
416.4257369769
 21
980.7251901578
 31
0.0
  0
LINE
  5
326
  8
0
  6
CONTINUOUS
 62
     7
 10
418.8562840057
 20
950.7251908283
 30
0.0
 11
416.4257369769
 21
950.7251908283
 31
0.0
  0
LINE
  5
327
  8
0
  6
CONTINUOUS
 62
     7
 10
432.287102921
 20
842.7251880269
 30
0.0
 11
433.693776263
 21
842.4698119264
 31
0.0
  0
ARC
  5
328
  8
0
  6
CONTINUOUS
 62
     7
 10
429.8874668209
 20
833.9972273592
 30
0.0
 40
9.288308824361232
 50
56.3056907611
 51
65.8079954791
  0
ARC
  5
329
  8
0
  6
CONTINUOUS
 62
     7
 10
405.72406158
 20
843.1652289931
 30
0.0
 40
2.189819495031911
 50
318.8822945345
 51
338.9698355341
  0
LINE
  5
32A
  8
0
  6
CONTINUOUS
 62
     7
 10
433.693776263
 20
855.7251845698
 30
0.0
 11
435.0402656776
 21
855.7251845698
 31
0.0
  0
LINE
  5
32B
  8
0
  6
CONTINUOUS
 62
     7
 10
433.693776263
 20
842.4698119264
 30
0.0
 11
433.693776263
 21
855.7251845698
 31
0.0
  0
LINE
  5
32C
  8
0
  6
CONTINUOUS
 62
     7
 10
495.6323545259
 20
855.7251845698
 30
0.0
 11
496.9788439405
 21
855.7251845698
 31
0.0
  0
LINE
  5
32D
  8
0
  6
CONTINUOUS
 62
     7
 10
496.9788439405
 20
855.7251845698
 30
0.0
 11
496.9788439405
 21
842.4698119264
 31
0.0
  0
ARC
  5
32E
  8
0
  6
CONTINUOUS
 62
     7
 10
500.7851533827
 20
833.9972273592
 30
0.0
 40
9.288308824359202
 50
114.1920045209
 51
123.6943092389
  0
POLYLINE
  5
32F
  8
0
  6
CONTINUOUS
 62
     7
 66
     1
 10
0.0
 20
0.0
 30
0.0
 70
   128
  0
VERTEX
  5
769
  8
0
  6
CONTINUOUS
 62
     7
 10
496.9788439405
 20
842.4698119264
 30
0.0
  0
VERTEX
  5
76A
  8
0
  6
CONTINUOUS
 62
     7
 10
497.9604057801
 20
842.7041475873
 30
0.0
  0
VERTEX
  5
76B
  8
0
  6
CONTINUOUS
 62
     7
 10
498.3855172825
 20
842.7251880269
 30
0.0
  0
SEQEND
  5
9E2
  8
0
  6
CONTINUOUS
 62
     7
  0
ARC
  5
330
  8
0
  6
CONTINUOUS
 62
     7
 10
524.3409755392
 20
842.7420063415
 30
0.0
 40
1.456014756806764
 50
188.2836435953
 51
224.2954574171
  0
POLYLINE
  5
331
  8
0
  6
CONTINUOUS
 62
     7
 66
     1
 10
0.0
 20
0.0
 30
0.0
 70
   128
  0
VERTEX
  5
76C
  8
0
  6
CONTINUOUS
 62
     7
 10
428.6041728985
 20
856.7251865964
 30
0.0
  0
VERTEX
  5
76D
  8
0
  6
CONTINUOUS
 62
     7
 10
429.0086835456
 20
856.8774317603
 30
0.0
  0
VERTEX
  5
76E
  8
0
  6
CONTINUOUS
 62
     7
 10
429.3516114187
 20
857.3109810453
 30
0.0
  0
VERTEX
  5
76F
  8
0
  6
CONTINUOUS
 62
     7
 10
429.5807502997
 20
857.9598223071
 30
0.0
  0
VERTEX
  5
770
  8
0
  6
CONTINUOUS
 62
     7
 10
429.6612128449
 20
858.7251906495
 30
0.0
  0
SEQEND
  5
9E3
  8
0
  6
CONTINUOUS
 62
     7
  0
POLYLINE
  5
332
  8
0
  6
CONTINUOUS
 62
     7
 66
     1
 10
0.0
 20
0.0
 30
0.0
 70
   128
  0
VERTEX
  5
771
  8
0
  6
CONTINUOUS
 62
     7
 10
433.693776263
 20
855.7251845698
 30
0.0
  0
VERTEX
  5
772
  8
0
  6
CONTINUOUS
 62
     7
 10
433.6885496807
 20
855.7605599265
 30
0.0
  0
VERTEX
  5
773
  8
0
  6
CONTINUOUS
 62
     7
 10
433.6729928684
 20
855.7963227134
 30
0.0
  0
VERTEX
  5
774
  8
0
  6
CONTINUOUS
 62
     7
 10
433.6108960045
 20
855.8688764672
 30
0.0
  0
VERTEX
  5
775
  8
0
  6
CONTINUOUS
 62
     7
 10
433.3627693188
 20
856.0164277654
 30
0.0
  0
VERTEX
  5
776
  8
0
  6
CONTINUOUS
 62
     7
 10
431.5649255943
 20
856.4752643209
 30
0.0
  0
VERTEX
  5
777
  8
0
  6
CONTINUOUS
 62
     7
 10
428.6041728985
 20
856.7251865964
 30
0.0
  0
SEQEND
  5
9E4
  8
0
  6
CONTINUOUS
 62
     7
  0
POLYLINE
  5
333
  8
0
  6
CONTINUOUS
 62
     7
 66
     1
 10
0.0
 20
0.0
 30
0.0
 70
   128
  0
VERTEX
  5
778
  8
0
  6
CONTINUOUS
 62
     7
 10
501.0114073587
 20
858.7251906495
 30
0.0
  0
VERTEX
  5
779
  8
0
  6
CONTINUOUS
 62
     7
 10
501.0918699038
 20
857.9598223071
 30
0.0
  0
VERTEX
  5
77A
  8
0
  6
CONTINUOUS
 62
     7
 10
501.3210087848
 20
857.3109810453
 30
0.0
  0
VERTEX
  5
77B
  8
0
  6
CONTINUOUS
 62
     7
 10
501.6639366579
 20
856.8774317603
 30
0.0
  0
VERTEX
  5
77C
  8
0
  6
CONTINUOUS
 62
     7
 10
502.068447305
 20
856.7251865964
 30
0.0
  0
SEQEND
  5
9E5
  8
0
  6
CONTINUOUS
 62
     7
  0
POLYLINE
  5
334
  8
0
  6
CONTINUOUS
 62
     7
 66
     1
 10
0.0
 20
0.0
 30
0.0
 70
   128
  0
VERTEX
  5
77D
  8
0
  6
CONTINUOUS
 62
     7
 10
502.068447305
 20
856.7251865964
 30
0.0
  0
VERTEX
  5
77E
  8
0
  6
CONTINUOUS
 62
     7
 10
499.1076946092
 20
856.4752643209
 30
0.0
  0
VERTEX
  5
77F
  8
0
  6
CONTINUOUS
 62
     7
 10
497.8808000517
 20
856.2096064191
 30
0.0
  0
VERTEX
  5
780
  8
0
  6
CONTINUOUS
 62
     7
 10
497.2995877099
 20
856.0117040973
 30
0.0
  0
VERTEX
  5
781
  8
0
  6
CONTINUOUS
 62
     7
 10
497.0591537488
 20
855.8664326768
 30
0.0
  0
VERTEX
  5
782
  8
0
  6
CONTINUOUS
 62
     7
 10
496.9989865852
 20
855.7951008182
 30
0.0
  0
VERTEX
  5
783
  8
0
  6
CONTINUOUS
 62
     7
 10
496.9839103353
 20
855.7599340777
 30
0.0
  0
VERTEX
  5
784
  8
0
  6
CONTINUOUS
 62
     7
 10
496.9788439405
 20
855.7251845698
 30
0.0
  0
SEQEND
  5
9E6
  8
0
  6
CONTINUOUS
 62
     7
  0
LINE
  5
335
  8
0
  6
CONTINUOUS
 62
     7
 10
412.8006085587
 20
856.7251865964
 30
0.0
 11
428.6041728985
 21
856.7251865964
 31
0.0
  0
LINE
  5
336
  8
0
  6
CONTINUOUS
 62
     7
 10
433.693776263
 20
855.7251845698
 30
0.0
 11
412.8006085587
 21
855.7251845698
 31
0.0
  0
LINE
  5
337
  8
0
  6
CONTINUOUS
 62
     7
 10
412.8006085587
 20
856.7251865964
 30
0.0
 11
412.8006085587
 21
855.7251845698
 31
0.0
  0
LINE
  5
338
  8
0
  6
CONTINUOUS
 62
     7
 10
432.287102921
 20
842.7251880269
 30
0.0
 11
412.8006085587
 21
842.7251880269
 31
0.0
  0
LINE
  5
339
  8
0
  6
CONTINUOUS
 62
     7
 10
412.8006085587
 20
855.7251845698
 30
0.0
 11
412.8006085587
 21
842.7251880269
 31
0.0
  0
LINE
  5
33A
  8
0
  6
CONTINUOUS
 62
     7
 10
517.8720116449
 20
855.7251845698
 30
0.0
 11
496.9788439405
 21
855.7251845698
 31
0.0
  0
LINE
  5
33B
  8
0
  6
CONTINUOUS
 62
     7
 10
502.068447305
 20
856.7251865964
 30
0.0
 11
517.8720116449
 21
856.7251865964
 31
0.0
  0
LINE
  5
33C
  8
0
  6
CONTINUOUS
 62
     7
 10
517.8720116449
 20
855.7251845698
 30
0.0
 11
517.8720116449
 21
856.7251865964
 31
0.0
  0
LINE
  5
33D
  8
0
  6
CONTINUOUS
 62
     7
 10
517.8720116449
 20
842.7251880269
 30
0.0
 11
517.8720116449
 21
855.7251845698
 31
0.0
  0
LINE
  5
33E
  8
0
  6
CONTINUOUS
 62
     7
 10
498.3855172825
 20
842.7251880269
 30
0.0
 11
517.8720116449
 21
842.7251880269
 31
0.0
  0
LINE
  5
33F
  8
0
  6
CONTINUOUS
 62
     7
 10
412.1355995369
 20
855.7251845698
 30
0.0
 11
412.8006085587
 21
855.7251845698
 31
0.0
  0
ARC
  5
340
  8
0
  6
CONTINUOUS
 62
     7
 10
413.0102815654
 20
855.8646333732
 30
0.0
 40
0.8857282990423111
 50
103.6932592252
 51
189.0583187407
  0
LINE
  5
341
  8
0
  6
CONTINUOUS
 62
     7
 10
412.1355995369
 20
842.7251880269
 30
0.0
 11
412.1355995369
 21
855.7251845698
 31
0.0
  0
LINE
  5
342
  8
0
  6
CONTINUOUS
 62
     7
 10
412.8006085587
 20
842.7251880269
 30
0.0
 11
412.1355995369
 21
842.7251880269
 31
0.0
  0
ARC
  5
343
  8
0
  6
CONTINUOUS
 62
     7
 10
517.6623386381
 20
855.8646333732
 30
0.0
 40
0.8857282990421766
 50
350.9416812593
 51
76.3067407748
  0
LINE
  5
344
  8
0
  6
CONTINUOUS
 62
     7
 10
517.8720116449
 20
855.7251845698
 30
0.0
 11
518.5370206666
 21
855.7251845698
 31
0.0
  0
LINE
  5
345
  8
0
  6
CONTINUOUS
 62
     7
 10
518.5370206666
 20
855.7251845698
 30
0.0
 11
518.5370206666
 21
842.7251880269
 31
0.0
  0
LINE
  5
346
  8
0
  6
CONTINUOUS
 62
     7
 10
518.5370206666
 20
842.7251880269
 30
0.0
 11
517.8720116449
 21
842.7251880269
 31
0.0
  0
LINE
  5
347
  8
0
  6
CONTINUOUS
 62
     7
 10
403.3040910793
 20
856.7251865964
 30
0.0
 11
412.8006085587
 21
856.7251865964
 31
0.0
  0
LINE
  5
348
  8
0
  6
CONTINUOUS
 62
     7
 10
412.1355995369
 20
855.7251845698
 30
0.0
 11
402.5188706649
 21
855.7251845698
 31
0.0
  0
ARC
  5
349
  8
0
  6
CONTINUOUS
 62
     7
 10
403.4261677536
 20
855.8210437557
 30
0.0
 40
0.9123469683957184
 50
97.689530104
 51
186.0311294719
  0
LINE
  5
34A
  8
0
  6
CONTINUOUS
 62
     7
 10
402.5188706649
 20
855.7251845698
 30
0.0
 11
402.5188706649
 21
842.7251880269
 31
0.0
  0
LINE
  5
34B
  8
0
  6
CONTINUOUS
 62
     7
 10
412.1355995369
 20
842.7251880269
 30
0.0
 11
402.5188706649
 21
842.7251880269
 31
0.0
  0
LINE
  5
34C
  8
0
  6
CONTINUOUS
 62
     7
 10
528.1537495387
 20
855.7251845698
 30
0.0
 11
518.5370206666
 21
855.7251845698
 31
0.0
  0
LINE
  5
34D
  8
0
  6
CONTINUOUS
 62
     7
 10
517.8720116449
 20
856.7251865964
 30
0.0
 11
527.3685291243
 21
856.7251865964
 31
0.0
  0
ARC
  5
34E
  8
0
  6
CONTINUOUS
 62
     7
 10
527.2464524499
 20
855.8210437557
 30
0.0
 40
0.9123469683958074
 50
353.9688705281
 51
82.310469896
  0
LINE
  5
34F
  8
0
  6
CONTINUOUS
 62
     7
 10
528.1537495387
 20
842.7251880269
 30
0.0
 11
528.1537495387
 21
855.7251845698
 31
0.0
  0
LINE
  5
350
  8
0
  6
CONTINUOUS
 62
     7
 10
518.5370206666
 20
842.7251880269
 30
0.0
 11
528.1537495387
 21
842.7251880269
 31
0.0
  0
ARC
  5
351
  8
0
  6
CONTINUOUS
 62
     7
 10
440.3363101018
 20
875.7251899343
 30
0.0
 40
3.0
 50
270.0
 51
0.0
  0
ARC
  5
352
  8
0
  6
CONTINUOUS
 62
     7
 10
490.3363101018
 20
875.7251899343
 30
0.0
 40
2.999999999999943
 50
180.0
 51
270.0
  0
ARC
  5
353
  8
0
  6
CONTINUOUS
 62
     7
 10
398.841956865
 20
948.9694732124
 30
0.0
 40
34.39729413771365
 50
78.0138601234
 51
86.7390000685
  0
ARC
  5
354
  8
0
  6
CONTINUOUS
 62
     7
 10
402.4549219591
 20
984.7939997216
 30
0.0
 40
2.223148276554208
 50
181.7736752825
 51
221.8390453552
  0
LINE
  5
355
  8
0
  6
CONTINUOUS
 62
     7
 10
403.1426444483
 20
982.1400526192
 30
0.0
 11
403.37448789
 21
981.8588118281
 31
0.0
  0
POLYLINE
  5
356
  8
0
  6
CONTINUOUS
 62
     7
 66
     1
 10
0.0
 20
0.0
 30
0.0
 70
   128
  0
VERTEX
  5
785
  8
0
  6
CONTINUOUS
 62
     7
 10
403.1426444483
 20
982.1400526192
 30
0.0
  0
VERTEX
  5
786
  8
0
  6
CONTINUOUS
 62
     7
 10
403.4909814429
 20
981.8440550219
 30
0.0
  0
VERTEX
  5
787
  8
0
  6
CONTINUOUS
 62
     7
 10
404.0855265987
 20
982.0841546382
 30
0.0
  0
VERTEX
  5
788
  8
0
  6
CONTINUOUS
 62
     7
 10
404.8773780298
 20
982.3691877748
 30
0.0
  0
VERTEX
  5
789
  8
0
  6
CONTINUOUS
 62
     7
 10
405.9854172003
 20
982.6168329667
 30
0.0
  0
SEQEND
  5
9E7
  8
0
  6
CONTINUOUS
 62
     7
  0
POLYLINE
  5
357
  8
0
  6
CONTINUOUS
 62
     7
 66
     1
 10
0.0
 20
0.0
 30
0.0
 70
   128
  0
VERTEX
  5
78A
  8
0
  6
CONTINUOUS
 62
     7
 10
527.5299757552
 20
982.1400526192
 30
0.0
  0
VERTEX
  5
78B
  8
0
  6
CONTINUOUS
 62
     7
 10
527.1816387606
 20
981.8440550219
 30
0.0
  0
VERTEX
  5
78C
  8
0
  6
CONTINUOUS
 62
     7
 10
526.5870936048
 20
982.0841546382
 30
0.0
  0
VERTEX
  5
78D
  8
0
  6
CONTINUOUS
 62
     7
 10
525.7952421737
 20
982.3691877748
 30
0.0
  0
VERTEX
  5
78E
  8
0
  6
CONTINUOUS
 62
     7
 10
524.6872030032
 20
982.6168329667
 30
0.0
  0
SEQEND
  5
9E8
  8
0
  6
CONTINUOUS
 62
     7
  0
ARC
  5
358
  8
0
  6
CONTINUOUS
 62
     7
 10
528.2431628502
 20
984.7838113267
 30
0.0
 40
2.19740061051407
 50
317.9159764422
 51
358.4713029202
  0
ARC
  5
359
  8
0
  6
CONTINUOUS
 62
     7
 10
531.8306633386
 20
948.9694732124
 30
0.0
 40
34.3972941377146
 50
93.2609999315
 51
101.9861398766
  0
ARC
  5
35A
  8
0
  6
CONTINUOUS
 62
     7
 10
401.9925126219
 20
984.1970665532
 30
0.0
 40
1.486724255403533
 50
216.5795732318
 51
261.8958473832
  0
ARC
  5
35B
  8
0
  6
CONTINUOUS
 62
     7
 10
528.6405638472
 20
984.263501161
 30
0.0
 40
1.558354644724099
 50
279.1992587916
 51
322.3253205934
  0
ARC
  5
35C
  8
0
  6
CONTINUOUS
 62
     7
 10
528.8999889615
 20
980.7899279204
 30
0.0
 40
1.923479370194443
 50
100.9304519634
 51
135.4189152459
  0
ARC
  5
35D
  8
0
  6
CONTINUOUS
 62
     7
 10
407.6599811164
 20
858.5672645373
 30
0.0
 40
1.851948030655318
 50
275.9180258185
 51
4.8918772495
  0
ARC
  5
35E
  8
0
  6
CONTINUOUS
 62
     7
 10
523.0126390872
 20
858.5672645373
 30
0.0
 40
1.851948030655324
 50
175.1081227505
 51
264.0819741815
  0
LINE
  5
35F
  8
0
  6
CONTINUOUS
 62
     7
 10
425.8363082838
 20
935.7251902323
 30
0.0
 11
425.8363082838
 21
932.7251916032
 31
0.0
  0
LINE
  5
360
  8
0
  6
CONTINUOUS
 62
     7
 10
425.8363082838
 20
932.7251916032
 30
0.0
 11
422.8363096547
 21
932.7251916032
 31
0.0
  0
ARC
  5
361
  8
0
  6
CONTINUOUS
 62
     7
 10
419.8363101018
 20
932.7251899343
 30
0.0
 40
3.0
 50
0.0
 51
90.0
  0
LINE
  5
362
  8
0
  6
CONTINUOUS
 62
     7
 10
440.3363097292
 20
935.7251902323
 30
0.0
 11
440.3363097292
 21
932.7251916032
 31
0.0
  0
LINE
  5
363
  8
0
  6
CONTINUOUS
 62
     7
 10
440.3363097292
 20
932.7251916032
 30
0.0
 11
425.8363082838
 21
932.7251916032
 31
0.0
  0
POLYLINE
  5
364
  8
0
  6
CONTINUOUS
 62
     7
 66
     1
 10
0.0
 20
0.0
 30
0.0
 70
   128
  0
VERTEX
  5
78F
  8
0
  6
CONTINUOUS
 62
     7
 10
426.7738632691
 20
872.2583283882
 30
0.0
  0
VERTEX
  5
790
  8
0
  6
CONTINUOUS
 62
     7
 10
426.7014175487
 20
872.4540700417
 30
0.0
  0
VERTEX
  5
791
  8
0
  6
CONTINUOUS
 62
     7
 10
426.6120217574
 20
872.6955955129
 30
0.0
  0
VERTEX
  5
792
  8
0
  6
CONTINUOUS
 62
     7
 10
426.5074342323
 20
872.9781811338
 30
0.0
  0
VERTEX
  5
793
  8
0
  6
CONTINUOUS
 62
     7
 10
426.3897001577
 20
873.2962836723
 30
0.0
  0
VERTEX
  5
794
  8
0
  6
CONTINUOUS
 62
     7
 10
426.2611254883
 20
873.6436744433
 30
0.0
  0
VERTEX
  5
795
  8
0
  6
CONTINUOUS
 62
     7
 10
426.1242285204
 20
874.0135436158
 30
0.0
  0
VERTEX
  5
796
  8
0
  6
CONTINUOUS
 62
     7
 10
425.9816951883
 20
874.3986566763
 30
0.0
  0
VERTEX
  5
797
  8
0
  6
CONTINUOUS
 62
     7
 10
425.8363082838
 20
874.7914661865
 30
0.0
  0
SEQEND
  5
9E9
  8
0
  6
CONTINUOUS
 62
     7
  0
ARC
  5
365
  8
0
  6
CONTINUOUS
 62
     7
 10
431.4519942502
 20
858.3906093377
 30
0.0
 40
17.33562904101503
 50
89.3692251256
 51
108.9013057275
  0
LINE
  5
366
  8
0
  6
CONTINUOUS
 62
     7
 10
431.6428400409
 20
872.725189219
 30
0.0
 11
431.6428400409
 21
875.7251878481
 31
0.0
  0
LINE
  5
367
  8
0
  6
CONTINUOUS
 62
     7
 10
431.6428400409
 20
875.7251878481
 30
0.0
 11
440.3363097292
 21
875.7251878481
 31
0.0
  0
LINE
  5
368
  8
0
  6
CONTINUOUS
 62
     7
 10
440.3363097292
 20
872.725189219
 30
0.0
 11
440.3363097292
 21
875.7251878481
 31
0.0
  0
LINE
  5
369
  8
0
  6
CONTINUOUS
 62
     7
 10
443.336310221
 20
932.7251916032
 30
0.0
 11
440.3363097292
 21
932.7251916032
 31
0.0
  0
LINE
  5
36A
  8
0
  6
CONTINUOUS
 62
     7
 10
443.336310221
 20
875.7251878481
 30
0.0
 11
440.3363097292
 21
875.7251878481
 31
0.0
  0
LINE
  5
36B
  8
0
  6
CONTINUOUS
 62
     7
 10
440.3363097292
 20
875.7251878481
 30
0.0
 11
440.3363097292
 21
932.7251916032
 31
0.0
  0
LINE
  5
36C
  8
0
  6
CONTINUOUS
 62
     7
 10
490.3363104743
 20
935.7251902323
 30
0.0
 11
490.3363104743
 21
932.7251916032
 31
0.0
  0
LINE
  5
36D
  8
0
  6
CONTINUOUS
 62
     7
 10
490.3363104743
 20
932.7251916032
 30
0.0
 11
487.3363099826
 21
932.7251916032
 31
0.0
  0
LINE
  5
36E
  8
0
  6
CONTINUOUS
 62
     7
 10
490.3363104743
 20
875.7251878481
 30
0.0
 11
487.3363099826
 21
875.7251878481
 31
0.0
  0
LINE
  5
36F
  8
0
  6
CONTINUOUS
 62
     7
 10
490.3363104743
 20
932.7251916032
 30
0.0
 11
490.3363104743
 21
875.7251878481
 31
0.0
  0
LINE
  5
370
  8
0
  6
CONTINUOUS
 62
     7
 10
504.8363119197
 20
935.7251902323
 30
0.0
 11
504.8363119197
 21
932.7251916032
 31
0.0
  0
LINE
  5
371
  8
0
  6
CONTINUOUS
 62
     7
 10
504.8363119197
 20
932.7251916032
 30
0.0
 11
490.3363104743
 21
932.7251916032
 31
0.0
  0
ARC
  5
372
  8
0
  6
CONTINUOUS
 62
     7
 10
510.8363101018
 20
932.7251899343
 30
0.0
 40
3.0
 50
90.0
 51
180.0
  0
LINE
  5
373
  8
0
  6
CONTINUOUS
 62
     7
 10
507.8363105488
 20
932.7251916032
 30
0.0
 11
504.8363119197
 21
932.7251916032
 31
0.0
  0
LINE
  5
374
  8
0
  6
CONTINUOUS
 62
     7
 10
490.3363104743
 20
875.7251878481
 30
0.0
 11
490.3363104743
 21
872.725189219
 31
0.0
  0
LINE
  5
375
  8
0
  6
CONTINUOUS
 62
     7
 10
490.3363104743
 20
875.7251878481
 30
0.0
 11
499.0297801626
 21
875.7251878481
 31
0.0
  0
LINE
  5
376
  8
0
  6
CONTINUOUS
 62
     7
 10
499.0297801626
 20
875.7251878481
 30
0.0
 11
499.0297801626
 21
872.725189219
 31
0.0
  0
POLYLINE
  5
377
  8
0
  6
CONTINUOUS
 62
     7
 66
     1
 10
0.0
 20
0.0
 30
0.0
 70
   128
  0
VERTEX
  5
798
  8
0
  6
CONTINUOUS
 62
     7
 10
499.0297801626
 20
875.7251878481
 30
0.0
  0
VERTEX
  5
799
  8
0
  6
CONTINUOUS
 62
     7
 10
501.9330441785
 20
875.5180319052
 30
0.0
  0
VERTEX
  5
79A
  8
0
  6
CONTINUOUS
 62
     7
 10
504.8363119197
 20
874.7914661865
 30
0.0
  0
SEQEND
  5
9EA
  8
0
  6
CONTINUOUS
 62
     7
  0
POLYLINE
  5
378
  8
0
  6
CONTINUOUS
 62
     7
 66
     1
 10
0.0
 20
0.0
 30
0.0
 70
   128
  0
VERTEX
  5
79B
  8
0
  6
CONTINUOUS
 62
     7
 10
504.8363119197
 20
874.7914661865
 30
0.0
  0
VERTEX
  5
79C
  8
0
  6
CONTINUOUS
 62
     7
 10
504.6909250152
 20
874.3986566763
 30
0.0
  0
VERTEX
  5
79D
  8
0
  6
CONTINUOUS
 62
     7
 10
504.5483916831
 20
874.0135436158
 30
0.0
  0
VERTEX
  5
79E
  8
0
  6
CONTINUOUS
 62
     7
 10
504.4114947152
 20
873.6436744433
 30
0.0
  0
VERTEX
  5
79F
  8
0
  6
CONTINUOUS
 62
     7
 10
504.2829200459
 20
873.2962836723
 30
0.0
  0
VERTEX
  5
7A0
  8
0
  6
CONTINUOUS
 62
     7
 10
504.1651859713
 20
872.9781811338
 30
0.0
  0
VERTEX
  5
7A1
  8
0
  6
CONTINUOUS
 62
     7
 10
504.0605984461
 20
872.6955955129
 30
0.0
  0
VERTEX
  5
7A2
  8
0
  6
CONTINUOUS
 62
     7
 10
503.9712026549
 20
872.4540700417
 30
0.0
  0
VERTEX
  5
7A3
  8
0
  6
CONTINUOUS
 62
     7
 10
503.8987569344
 20
872.2583283882
 30
0.0
  0
SEQEND
  5
9EB
  8
0
  6
CONTINUOUS
 62
     7
  0
ARC
  5
379
  8
0
  6
CONTINUOUS
 62
     7
 10
419.949922059
 20
875.2844187607
 30
0.0
 40
2.886754590740487
 50
283.866511522
 51
359.0863762072
  0
POLYLINE
  5
37A
  8
0
  6
CONTINUOUS
 62
     7
 66
     1
 10
0.0
 20
0.0
 30
0.0
 70
   128
  0
VERTEX
  5
7A4
  8
0
  6
CONTINUOUS
 62
     7
 10
422.8363096547
 20
875.2383892636
 30
0.0
  0
VERTEX
  5
7A5
  8
0
  6
CONTINUOUS
 62
     7
 10
423.0202458632
 20
874.4845320683
 30
0.0
  0
VERTEX
  5
7A6
  8
0
  6
CONTINUOUS
 62
     7
 10
423.3180232179
 20
874.0453650456
 30
0.0
  0
VERTEX
  5
7A7
  8
0
  6
CONTINUOUS
 62
     7
 10
423.5648274255
 20
873.8582958679
 30
0.0
  0
VERTEX
  5
7A8
  8
0
  6
CONTINUOUS
 62
     7
 10
423.9309154284
 20
873.762809227
 30
0.0
  0
VERTEX
  5
7A9
  8
0
  6
CONTINUOUS
 62
     7
 10
424.1067901087
 20
873.7748270135
 30
0.0
  0
VERTEX
  5
7AA
  8
0
  6
CONTINUOUS
 62
     7
 10
424.6723860336
 20
873.9856411915
 30
0.0
  0
VERTEX
  5
7AB
  8
0
  6
CONTINUOUS
 62
     7
 10
424.7420415116
 20
874.0246747832
 30
0.0
  0
VERTEX
  5
7AC
  8
0
  6
CONTINUOUS
 62
     7
 10
425.7053308022
 20
874.6941318016
 30
0.0
  0
VERTEX
  5
7AD
  8
0
  6
CONTINUOUS
 62
     7
 10
425.8363082838
 20
874.7914661865
 30
0.0
  0
SEQEND
  5
9EC
  8
0
  6
CONTINUOUS
 62
     7
  0
POLYLINE
  5
37B
  8
0
  6
CONTINUOUS
 62
     7
 66
     1
 10
0.0
 20
0.0
 30
0.0
 70
   128
  0
VERTEX
  5
7AE
  8
0
  6
CONTINUOUS
 62
     7
 10
504.8363119197
 20
874.7914661865
 30
0.0
  0
VERTEX
  5
7AF
  8
0
  6
CONTINUOUS
 62
     7
 10
505.7865626943
 20
874.1116007071
 30
0.0
  0
VERTEX
  5
7B0
  8
0
  6
CONTINUOUS
 62
     7
 10
506.2812663448
 20
873.8536169033
 30
0.0
  0
VERTEX
  5
7B1
  8
0
  6
CONTINUOUS
 62
     7
 10
506.4953476024
 20
873.7881188493
 30
0.0
  0
VERTEX
  5
7B2
  8
0
  6
CONTINUOUS
 62
     7
 10
506.8582318556
 20
873.7737392287
 30
0.0
  0
VERTEX
  5
7B3
  8
0
  6
CONTINUOUS
 62
     7
 10
507.1031138134
 20
873.8558371763
 30
0.0
  0
VERTEX
  5
7B4
  8
0
  6
CONTINUOUS
 62
     7
 10
507.5716063214
 20
874.3319665294
 30
0.0
  0
VERTEX
  5
7B5
  8
0
  6
CONTINUOUS
 62
     7
 10
507.8297652137
 20
875.1086001496
 30
0.0
  0
VERTEX
  5
7B6
  8
0
  6
CONTINUOUS
 62
     7
 10
507.8363105488
 20
875.2383892636
 30
0.0
  0
SEQEND
  5
9ED
  8
0
  6
CONTINUOUS
 62
     7
  0
ARC
  5
37C
  8
0
  6
CONTINUOUS
 62
     7
 10
510.7226981445
 20
875.2844187607
 30
0.0
 40
2.886754590740514
 50
180.9136237928
 51
256.133488478
  0
ARC
  5
37D
  8
0
  6
CONTINUOUS
 62
     7
 10
399.587579794
 20
984.5930488398
 30
0.0
 40
2.376773983944481
 50
176.8128943232
 51
212.6412806334
  0
LINE
  5
37E
  8
0
  6
CONTINUOUS
 62
     7
 10
401.7829246652
 20
982.7251895543
 30
0.0
 11
398.8364286554
 21
982.7251895543
 31
0.0
  0
ARC
  5
37F
  8
0
  6
CONTINUOUS
 62
     7
 10
398.7612838207
 20
984.1917588327
 30
0.0
 40
1.468493171461319
 50
216.8500397122
 51
272.9331856437
  0
ARC
  5
380
  8
0
  6
CONTINUOUS
 62
     7
 10
531.9252325964
 20
984.1621048944
 30
0.0
 40
1.439671491337596
 50
266.4540977607
 51
323.7626768833
  0
LINE
  5
381
  8
0
  6
CONTINUOUS
 62
     7
 10
531.8361915481
 20
982.7251895543
 30
0.0
 11
528.8896955383
 21
982.7251895543
 31
0.0
  0
ARC
  5
382
  8
0
  6
CONTINUOUS
 62
     7
 10
531.1153293309
 20
984.585087383
 30
0.0
 40
2.346994311384088
 50
327.1235513059
 51
3.4222737375
  0
LINE
  5
383
  8
0
  6
CONTINUOUS
 62
     7
 10
422.8363096547
 20
875.2383892636
 30
0.0
 11
422.8363096547
 21
932.7251916032
 31
0.0
  0
LINE
  5
384
  8
0
  6
CONTINUOUS
 62
     7
 10
425.8363082838
 20
932.7251916032
 30
0.0
 11
425.8363082838
 21
874.7914661865
 31
0.0
  0
LINE
  5
385
  8
0
  6
CONTINUOUS
 62
     7
 10
504.8363119197
 20
874.7914661865
 30
0.0
 11
504.8363119197
 21
932.7251916032
 31
0.0
  0
LINE
  5
386
  8
0
  6
CONTINUOUS
 62
     7
 10
507.8363105488
 20
932.7251916032
 30
0.0
 11
507.8363105488
 21
875.2383892636
 31
0.0
  0
LINE
  5
387
  8
0
  6
CONTINUOUS
 62
     7
 10
402.5188706649
 20
842.7251880269
 30
0.0
 11
402.304092778
 21
842.7251880269
 31
0.0
  0
LINE
  5
388
  8
0
  6
CONTINUOUS
 62
     7
 10
528.3685274255
 20
842.7251880269
 30
0.0
 11
528.1537495387
 21
842.7251880269
 31
0.0
  0
ARC
  5
389
  8
0
  6
CONTINUOUS
 62
     7
 10
399.2925174084
 20
953.2503520711
 30
0.0
 40
30.10910734679922
 50
93.2487881701
 51
102.7517737836
  0
POLYLINE
  5
38A
  8
0
  6
CONTINUOUS
 62
     7
 66
     1
 10
0.0
 20
0.0
 30
0.0
 70
   128
  0
VERTEX
  5
7B7
  8
0
  6
CONTINUOUS
 62
     7
 10
392.5901748073
 20
984.7251898821
 30
0.0
  0
VERTEX
  5
7B8
  8
0
  6
CONTINUOUS
 62
     7
 10
392.6258928907
 20
983.5966304157
 30
0.0
  0
VERTEX
  5
7B9
  8
0
  6
CONTINUOUS
 62
     7
 10
392.6466055048
 20
982.6168329667
 30
0.0
  0
SEQEND
  5
9EE
  8
0
  6
CONTINUOUS
 62
     7
  0
ARC
  5
38B
  8
0
  6
CONTINUOUS
 62
     7
 10
531.3801027951
 20
953.2503520711
 30
0.0
 40
30.10910734680141
 50
77.2482262164
 51
86.7512118299
  0
POLYLINE
  5
38C
  8
0
  6
CONTINUOUS
 62
     7
 66
     1
 10
0.0
 20
0.0
 30
0.0
 70
   128
  0
VERTEX
  5
7BA
  8
0
  6
CONTINUOUS
 62
     7
 10
538.0824453962
 20
984.7251898821
 30
0.0
  0
VERTEX
  5
7BB
  8
0
  6
CONTINUOUS
 62
     7
 10
538.0467273128
 20
983.5966304157
 30
0.0
  0
VERTEX
  5
7BC
  8
0
  6
CONTINUOUS
 62
     7
 10
538.0260146988
 20
982.6168329667
 30
0.0
  0
SEQEND
  5
9EF
  8
0
  6
CONTINUOUS
 62
     7
  0
ARC
  5
38D
  8
0
  6
CONTINUOUS
 62
     7
 10
419.8363101018
 20
875.7251899343
 30
0.0
 40
3.0
 50
270.0
 51
0.0
  0
ARC
  5
38E
  8
0
  6
CONTINUOUS
 62
     7
 10
510.8363101018
 20
875.7251899343
 30
0.0
 40
3.0
 50
180.0
 51
270.0
  0
POLYLINE
  5
38F
  8
0
  6
CONTINUOUS
 62
     7
 66
     1
 10
0.0
 20
0.0
 30
0.0
 70
   128
  0
VERTEX
  5
7BD
  8
0
  6
CONTINUOUS
 62
     7
 10
398.7839393151
 20
982.1400526192
 30
0.0
  0
VERTEX
  5
7BE
  8
0
  6
CONTINUOUS
 62
     7
 10
398.7095676196
 20
982.437244172
 30
0.0
  0
VERTEX
  5
7BF
  8
0
  6
CONTINUOUS
 62
     7
 10
398.6750565303
 20
982.6006922152
 30
0.0
  0
VERTEX
  5
7C0
  8
0
  6
CONTINUOUS
 62
     7
 10
398.705350591
 20
982.7030389782
 30
0.0
  0
VERTEX
  5
7C1
  8
0
  6
CONTINUOUS
 62
     7
 10
398.7578697336
 20
982.7206502881
 30
0.0
  0
VERTEX
  5
7C2
  8
0
  6
CONTINUOUS
 62
     7
 10
398.8364286554
 20
982.7251895543
 30
0.0
  0
SEQEND
  5
9F0
  8
0
  6
CONTINUOUS
 62
     7
  0
POLYLINE
  5
390
  8
0
  6
CONTINUOUS
 62
     7
 66
     1
 10
0.0
 20
0.0
 30
0.0
 70
   128
  0
VERTEX
  5
7C3
  8
0
  6
CONTINUOUS
 62
     7
 10
398.7839393151
 20
982.1400526192
 30
0.0
  0
VERTEX
  5
7C4
  8
0
  6
CONTINUOUS
 62
     7
 10
396.7078871858
 20
981.8440559532
 30
0.0
  0
VERTEX
  5
7C5
  8
0
  6
CONTINUOUS
 62
     7
 10
394.8096953166
 20
982.0841546382
 30
0.0
  0
VERTEX
  5
7C6
  8
0
  6
CONTINUOUS
 62
     7
 10
393.6083637011
 20
982.3691877748
 30
0.0
  0
VERTEX
  5
7C7
  8
0
  6
CONTINUOUS
 62
     7
 10
392.6466055048
 20
982.6168329667
 30
0.0
  0
SEQEND
  5
9F1
  8
0
  6
CONTINUOUS
 62
     7
  0
POLYLINE
  5
391
  8
0
  6
CONTINUOUS
 62
     7
 66
     1
 10
0.0
 20
0.0
 30
0.0
 70
   128
  0
VERTEX
  5
7C8
  8
0
  6
CONTINUOUS
 62
     7
 10
531.8886808884
 20
982.1400526192
 30
0.0
  0
VERTEX
  5
7C9
  8
0
  6
CONTINUOUS
 62
     7
 10
533.9647330177
 20
981.8440559532
 30
0.0
  0
VERTEX
  5
7CA
  8
0
  6
CONTINUOUS
 62
     7
 10
535.862924887
 20
982.0841546382
 30
0.0
  0
VERTEX
  5
7CB
  8
0
  6
CONTINUOUS
 62
     7
 10
537.0642565024
 20
982.3691877748
 30
0.0
  0
VERTEX
  5
7CC
  8
0
  6
CONTINUOUS
 62
     7
 10
538.0260146988
 20
982.6168329667
 30
0.0
  0
SEQEND
  5
9F2
  8
0
  6
CONTINUOUS
 62
     7
  0
POLYLINE
  5
392
  8
0
  6
CONTINUOUS
 62
     7
 66
     1
 10
0.0
 20
0.0
 30
0.0
 70
   128
  0
VERTEX
  5
7CD
  8
0
  6
CONTINUOUS
 62
     7
 10
531.8361915481
 20
982.7251895543
 30
0.0
  0
VERTEX
  5
7CE
  8
0
  6
CONTINUOUS
 62
     7
 10
531.9147579205
 20
982.7206493567
 30
0.0
  0
VERTEX
  5
7CF
  8
0
  6
CONTINUOUS
 62
     7
 10
531.9672845137
 20
982.7030361842
 30
0.0
  0
VERTEX
  5
7D0
  8
0
  6
CONTINUOUS
 62
     7
 10
531.9975636733
 20
982.6006922152
 30
0.0
  0
VERTEX
  5
7D1
  8
0
  6
CONTINUOUS
 62
     7
 10
531.9630376828
 20
982.4372134383
 30
0.0
  0
VERTEX
  5
7D2
  8
0
  6
CONTINUOUS
 62
     7
 10
531.8886808884
 20
982.1400526192
 30
0.0
  0
SEQEND
  5
9F3
  8
0
  6
CONTINUOUS
 62
     7
  0
LINE
  5
393
  8
0
  6
CONTINUOUS
 62
     7
 10
402.5326840413
 20
980.7251901578
 30
0.0
 11
398.9728189838
 21
980.7251901578
 31
0.0
  0
ARC
  5
394
  8
0
  6
CONTINUOUS
 62
     7
 10
392.1367358351
 20
980.5326333044
 30
0.0
 40
6.83879455446597
 50
1.6134646561
 51
13.5942309818
  0
ARC
  5
395
  8
0
  6
CONTINUOUS
 62
     7
 10
538.0705614684
 20
980.5947524415
 30
0.0
 40
6.372095428079965
 50
165.9652391916
 51
178.8270651706
  0
LINE
  5
396
  8
0
  6
CONTINUOUS
 62
     7
 10
531.6998012197
 20
980.7251901578
 30
0.0
 11
528.1399361623
 21
980.7251901578
 31
0.0
  0
LINE
  5
397
  8
0
  6
CONTINUOUS
 62
     7
 10
392.5901748073
 20
980.7251901578
 30
0.0
 11
398.9728189838
 21
980.7251901578
 31
0.0
  0
POLYLINE
  5
398
  8
0
  6
CONTINUOUS
 62
     7
 66
     1
 10
0.0
 20
0.0
 30
0.0
 70
   128
  0
VERTEX
  5
7D3
  8
0
  6
CONTINUOUS
 62
     7
 10
392.5901748073
 20
980.7251901578
 30
0.0
  0
VERTEX
  5
7D4
  8
0
  6
CONTINUOUS
 62
     7
 10
392.620096339
 20
981.7234347786
 30
0.0
  0
VERTEX
  5
7D5
  8
0
  6
CONTINUOUS
 62
     7
 10
392.6466055048
 20
982.6168329667
 30
0.0
  0
SEQEND
  5
9F4
  8
0
  6
CONTINUOUS
 62
     7
  0
POLYLINE
  5
399
  8
0
  6
CONTINUOUS
 62
     7
 66
     1
 10
0.0
 20
0.0
 30
0.0
 70
   128
  0
VERTEX
  5
7D6
  8
0
  6
CONTINUOUS
 62
     7
 10
538.0824453962
 20
980.7251901578
 30
0.0
  0
VERTEX
  5
7D7
  8
0
  6
CONTINUOUS
 62
     7
 10
538.0525238645
 20
981.7234347786
 30
0.0
  0
VERTEX
  5
7D8
  8
0
  6
CONTINUOUS
 62
     7
 10
538.0260146988
 20
982.6168329667
 30
0.0
  0
SEQEND
  5
9F5
  8
0
  6
CONTINUOUS
 62
     7
  0
LINE
  5
39A
  8
0
  6
CONTINUOUS
 62
     7
 10
531.6998012197
 20
980.7251901578
 30
0.0
 11
538.0824453962
 21
980.7251901578
 31
0.0
  0
LINE
  5
39B
  8
0
  6
CONTINUOUS
 62
     7
 10
402.5326840413
 20
950.7251908283
 30
0.0
 11
402.5326840413
 21
980.7251901578
 31
0.0
  0
LINE
  5
39C
  8
0
  6
CONTINUOUS
 62
     7
 10
528.1399361623
 20
980.7251901578
 30
0.0
 11
528.1399361623
 21
950.7251908283
 31
0.0
  0
ARC
  5
39D
  8
0
  6
CONTINUOUS
 62
     7
 10
387.9423670994
 20
968.3922091277
 30
0.0
 40
14.9823156532775
 50
71.7003854034
 51
84.7248693706
  0
ARC
  5
39E
  8
0
  6
CONTINUOUS
 62
     7
 10
390.7871525197
 20
984.7780599905
 30
0.0
 40
2.074881402654198
 50
181.4601133191
 51
224.9932494621
  0
ARC
  5
39F
  8
0
  6
CONTINUOUS
 62
     7
 10
539.8989646562
 20
984.7722677394
 30
0.0
 40
2.061248415724969
 50
314.8553572515
 51
358.6912799673
  0
ARC
  5
3A0
  8
0
  6
CONTINUOUS
 62
     7
 10
542.7302531042
 20
968.3922091277
 30
0.0
 40
14.9823156532782
 50
95.2751306294
 51
108.2996145966
  0
ARC
  5
3A1
  8
0
  6
CONTINUOUS
 62
     7
 10
390.638107925
 20
984.4926031776
 30
0.0
 40
1.770285672501728
 50
221.868639679
 51
266.7358461157
  0
ARC
  5
3A2
  8
0
  6
CONTINUOUS
 62
     7
 10
540.0138823218
 20
984.535473356
 30
0.0
 40
1.814351797169658
 50
273.8374991339
 51
317.5580150714
  0
LINE
  5
3A3
  8
0
  6
CONTINUOUS
 62
     7
 10
390.5373088849
 20
982.7251895543
 30
0.0
 11
383.3363078368
 21
982.7251895543
 31
0.0
  0
LINE
  5
3A4
  8
0
  6
CONTINUOUS
 62
     7
 10
547.3363123667
 20
982.7251895543
 30
0.0
 11
540.1353113187
 21
982.7251895543
 31
0.0
  0
LINE
  5
3A5
  8
0
  6
CONTINUOUS
 62
     7
 10
400.7858507168
 20
1214.5085339646
 30
0.0
 11
556.6244445574
 21
1214.5085339646
 31
0.0
  0
LINE
  5
3A6
  8
0
  6
CONTINUOUS
 62
     7
 10
374.0481756461
 20
1214.5085339646
 30
0.0
 11
400.7858507168
 21
1214.5085339646
 31
0.0
  0
LINE
  5
3A7
  8
0
  6
CONTINUOUS
 62
     7
 10
558.1363089216
 20
1212.0224391322
 30
0.0
 11
372.5363112819
 21
1212.0224391322
 31
0.0
  0
ARC
  5
3A8
  8
0
  6
CONTINUOUS
 62
     7
 10
534.1366164643
 20
1191.5711369934
 30
0.0
 40
4.192904285483116
 50
12.0235756018
 51
79.4892362801
  0
ARC
  5
3A9
  8
0
  6
CONTINUOUS
 62
     7
 10
375.6574724986
 20
1194.2683767501
 30
0.0
 40
1.913578939120344
 50
131.8546328527
 51
176.1551994702
  0
LINE
  5
3AA
  8
0
  6
CONTINUOUS
 62
     7
 10
539.4842497838
 20
1223.3894621234
 30
0.0
 11
391.1883704198
 21
1223.3894621234
 31
0.0
  0
LINE
  5
3AB
  8
0
  6
CONTINUOUS
 62
     7
 10
413.3639618588
 20
1224.4549398522
 30
0.0
 11
538.8363100422
 21
1224.4549398522
 31
0.0
  0
LINE
  5
3AC
  8
0
  6
CONTINUOUS
 62
     7
 10
391.8363101614
 20
1224.4549398522
 30
0.0
 11
413.3639618588
 21
1224.4549398522
 31
0.0
  0
LINE
  5
3AD
  8
0
  6
CONTINUOUS
 62
     7
 10
538.8363100422
 20
1226.9251947503
 30
0.0
 11
391.8363101614
 21
1226.9251947503
 31
0.0
  0
LINE
  5
3AE
  8
0
  6
CONTINUOUS
 62
     7
 10
537.9710443151
 20
1168.7251930337
 30
0.0
 11
537.9710443151
 21
1182.7382599216
 31
0.0
  0
LINE
  5
3AF
  8
0
  6
CONTINUOUS
 62
     7
 10
537.9710443151
 20
1184.7121273379
 30
0.0
 11
537.9710443151
 21
1190.7251929145
 31
0.0
  0
LINE
  5
3B0
  8
0
  6
CONTINUOUS
 62
     7
 10
537.9710443151
 20
1190.7251929145
 30
0.0
 11
538.8497210872
 21
1190.7251929145
 31
0.0
  0
ARC
  5
3B1
  8
0
  6
CONTINUOUS
 62
     7
 10
536.6138621104
 20
1195.383765325
 30
0.0
 40
1.740195332493788
 50
169.7411252703
 51
253.8775115217
  0
LINE
  5
3B2
  8
0
  6
CONTINUOUS
 62
     7
 10
369.948665036
 20
1190.7251929145
 30
0.0
 11
369.948665036
 21
1187.7251868348
 31
0.0
  0
LINE
  5
3B3
  8
0
  6
CONTINUOUS
 62
     7
 10
369.948665036
 20
1179.7251855235
 30
0.0
 11
369.948665036
 21
1168.7251930337
 31
0.0
  0
LINE
  5
3B4
  8
0
  6
CONTINUOUS
 62
     7
 10
369.8464430702
 20
1190.7251929145
 30
0.0
 11
369.948665036
 21
1190.7251929145
 31
0.0
  0
ARC
  5
3B5
  8
0
  6
CONTINUOUS
 62
     7
 10
372.4290768901
 20
1195.645358055
 30
0.0
 40
1.952171786300805
 50
293.4544867757
 51
1.4185907016
  0
LINE
  5
3B6
  8
0
  6
CONTINUOUS
 62
     7
 10
561.0363133085
 20
1125.7251952987
 30
0.0
 11
561.0363133085
 21
1165.725186954
 31
0.0
  0
LINE
  5
3B7
  8
0
  6
CONTINUOUS
 62
     7
 10
552.0363099706
 20
1165.725186954
 30
0.0
 11
552.0363099706
 21
1125.7251952987
 31
0.0
  0
POLYLINE
  5
3B8
  8
0
  6
CONTINUOUS
 62
     7
 66
     1
 10
0.0
 20
0.0
 30
0.0
 70
   128
  0
VERTEX
  5
7D9
  8
0
  6
CONTINUOUS
 62
     7
 10
570.7414023411
 20
1167.608887444
 30
0.0
  0
VERTEX
  5
7DA
  8
0
  6
CONTINUOUS
 62
     7
 10
570.8694852722
 20
1167.3156325917
 30
0.0
  0
VERTEX
  5
7DB
  8
0
  6
CONTINUOUS
 62
     7
 10
571.1410738361
 20
1166.6938220363
 30
0.0
  0
VERTEX
  5
7DC
  8
0
  6
CONTINUOUS
 62
     7
 10
571.4719988239
 20
1165.9361277919
 30
0.0
  0
VERTEX
  5
7DD
  8
0
  6
CONTINUOUS
 62
     7
 10
571.8495569956
 20
1165.0716965299
 30
0.0
  0
VERTEX
  5
7DE
  8
0
  6
CONTINUOUS
 62
     7
 10
572.2592197192
 20
1164.1337280374
 30
0.0
  0
VERTEX
  5
7DF
  8
0
  6
CONTINUOUS
 62
     7
 10
572.6852662695
 20
1163.1582831245
 30
0.0
  0
SEQEND
  5
9F6
  8
0
  6
CONTINUOUS
 62
     7
  0
POLYLINE
  5
3B9
  8
0
  6
CONTINUOUS
 62
     7
 66
     1
 10
0.0
 20
0.0
 30
0.0
 70
   128
  0
VERTEX
  5
7E0
  8
0
  6
CONTINUOUS
 62
     7
 10
597.7734498513
 20
1094.2290504675
 30
0.0
  0
VERTEX
  5
7E1
  8
0
  6
CONTINUOUS
 62
     7
 10
598.1070719493
 20
1093.3124278884
 30
0.0
  0
VERTEX
  5
7E2
  8
0
  6
CONTINUOUS
 62
     7
 10
598.4278790486
 20
1092.4310316544
 30
0.0
  0
VERTEX
  5
7E3
  8
0
  6
CONTINUOUS
 62
     7
 10
598.7235329879
 20
1091.6187246542
 30
0.0
  0
VERTEX
  5
7E4
  8
0
  6
CONTINUOUS
 62
     7
 10
598.9826790822
 20
1090.9067397218
 30
0.0
  0
VERTEX
  5
7E5
  8
0
  6
CONTINUOUS
 62
     7
 10
599.1953484547
 20
1090.3224279385
 30
0.0
  0
VERTEX
  5
7E6
  8
0
  6
CONTINUOUS
 62
     7
 10
599.3533752692
 20
1089.8882379036
 30
0.0
  0
VERTEX
  5
7E7
  8
0
  6
CONTINUOUS
 62
     7
 10
599.4151554835
 20
1089.7185285788
 30
0.0
  0
SEQEND
  5
9F7
  8
0
  6
CONTINUOUS
 62
     7
  0
LINE
  5
3BA
  8
0
  6
CONTINUOUS
 62
     7
 10
563.7363068593
 20
1092.7251880269
 30
0.0
 11
590.871574713
 21
1092.7251880269
 31
0.0
  0
LINE
  5
3BB
  8
0
  6
CONTINUOUS
 62
     7
 10
565.9203179014
 20
1161.2782036166
 30
0.0
 11
563.7363068593
 21
1160.4832862716
 31
0.0
  0
POLYLINE
  5
3BC
  8
0
  6
CONTINUOUS
 62
     7
 66
     1
 10
0.0
 20
0.0
 30
0.0
 70
   128
  0
VERTEX
  5
7E8
  8
0
  6
CONTINUOUS
 62
     7
 10
569.1257290375
 20
1175.3782783847
 30
0.0
  0
VERTEX
  5
7E9
  8
0
  6
CONTINUOUS
 62
     7
 10
569.1902361643
 20
1175.2010439735
 30
0.0
  0
VERTEX
  5
7EA
  8
0
  6
CONTINUOUS
 62
     7
 10
569.3774320018
 20
1174.6867154937
 30
0.0
  0
VERTEX
  5
7EB
  8
0
  6
CONTINUOUS
 62
     7
 10
569.6690030229
 20
1173.8856290679
 30
0.0
  0
VERTEX
  5
7EC
  8
0
  6
CONTINUOUS
 62
     7
 10
570.0364060533
 20
1172.8761946063
 30
0.0
  0
VERTEX
  5
7ED
  8
0
  6
CONTINUOUS
 62
     7
 10
570.4436771405
 20
1171.7572366099
 30
0.0
  0
VERTEX
  5
7EE
  8
0
  6
CONTINUOUS
 62
     7
 10
570.8509407771
 20
1170.6382786136
 30
0.0
  0
VERTEX
  5
7EF
  8
0
  6
CONTINUOUS
 62
     7
 10
571.2183438075
 20
1169.6288590531
 30
0.0
  0
VERTEX
  5
7F0
  8
0
  6
CONTINUOUS
 62
     7
 10
571.5099148286
 20
1168.8277726274
 30
0.0
  0
VERTEX
  5
7F1
  8
0
  6
CONTINUOUS
 62
     7
 10
571.6971181166
 20
1168.3134292464
 30
0.0
  0
VERTEX
  5
7F2
  8
0
  6
CONTINUOUS
 62
     7
 10
571.7616252434
 20
1168.1362097364
 30
0.0
  0
VERTEX
  5
7F3
  8
0
  6
CONTINUOUS
 62
     7
 10
571.7616252434
 20
1168.1362097364
 30
0.0
  0
SEQEND
  5
9F8
  8
0
  6
CONTINUOUS
 62
     7
  0
POLYLINE
  5
3BD
  8
0
  6
CONTINUOUS
 62
     7
 66
     1
 10
0.0
 20
0.0
 30
0.0
 70
   128
  0
VERTEX
  5
7F4
  8
0
  6
CONTINUOUS
 62
     7
 10
568.8031636012
 20
1175.416857491
 30
0.0
  0
VERTEX
  5
7F5
  8
0
  6
CONTINUOUS
 62
     7
 10
568.8374660742
 20
1175.3226076465
 30
0.0
  0
VERTEX
  5
7F6
  8
0
  6
CONTINUOUS
 62
     7
 10
568.9864478839
 20
1174.9132727485
 30
0.0
  0
VERTEX
  5
7F7
  8
0
  6
CONTINUOUS
 62
     7
 10
569.2407138479
 20
1174.2146914105
 30
0.0
  0
VERTEX
  5
7F8
  8
0
  6
CONTINUOUS
 62
     7
 10
569.5776514542
 20
1173.2889567714
 30
0.0
  0
VERTEX
  5
7F9
  8
0
  6
CONTINUOUS
 62
     7
 10
569.9673391712
 20
1172.2182934384
 30
0.0
  0
VERTEX
  5
7FA
  8
0
  6
CONTINUOUS
 62
     7
 10
570.3751467002
 20
1171.0978751283
 30
0.0
  0
VERTEX
  5
7FB
  8
0
  6
CONTINUOUS
 62
     7
 10
570.7648344171
 20
1170.0272117953
 30
0.0
  0
VERTEX
  5
7FC
  8
0
  6
CONTINUOUS
 62
     7
 10
571.1017720235
 20
1169.1014771562
 30
0.0
  0
VERTEX
  5
7FD
  8
0
  6
CONTINUOUS
 62
     7
 10
571.3560379875
 20
1168.4028958182
 30
0.0
  0
VERTEX
  5
7FE
  8
0
  6
CONTINUOUS
 62
     7
 10
571.5050197971
 20
1167.9935460191
 30
0.0
  0
VERTEX
  5
7FF
  8
0
  6
CONTINUOUS
 62
     7
 10
571.5393222702
 20
1167.8993110757
 30
0.0
  0
SEQEND
  5
9F9
  8
0
  6
CONTINUOUS
 62
     7
  0
POLYLINE
  5
3BE
  8
0
  6
CONTINUOUS
 62
     7
 66
     1
 10
0.0
 20
0.0
 30
0.0
 70
   128
  0
VERTEX
  5
800
  8
0
  6
CONTINUOUS
 62
     7
 10
600.2495609057
 20
1089.8662437897
 30
0.0
  0
VERTEX
  5
801
  8
0
  6
CONTINUOUS
 62
     7
 10
600.3140680325
 20
1089.689016829
 30
0.0
  0
VERTEX
  5
802
  8
0
  6
CONTINUOUS
 62
     7
 10
600.5012713206
 20
1089.1746883493
 30
0.0
  0
VERTEX
  5
803
  8
0
  6
CONTINUOUS
 62
     7
 10
600.7928423417
 20
1088.3736019235
 30
0.0
  0
VERTEX
  5
804
  8
0
  6
CONTINUOUS
 62
     7
 10
601.1602453721
 20
1087.3641749125
 30
0.0
  0
VERTEX
  5
805
  8
0
  6
CONTINUOUS
 62
     7
 10
601.5675090087
 20
1086.2452094655
 30
0.0
  0
VERTEX
  5
806
  8
0
  6
CONTINUOUS
 62
     7
 10
601.9747726453
 20
1085.1262514691
 30
0.0
  0
VERTEX
  5
807
  8
0
  6
CONTINUOUS
 62
     7
 10
602.3421756756
 20
1084.1168244581
 30
0.0
  0
VERTEX
  5
808
  8
0
  6
CONTINUOUS
 62
     7
 10
602.6337466967
 20
1083.3157380323
 30
0.0
  0
VERTEX
  5
809
  8
0
  6
CONTINUOUS
 62
     7
 10
602.8209499848
 20
1082.8014095526
 30
0.0
  0
VERTEX
  5
80A
  8
0
  6
CONTINUOUS
 62
     7
 10
602.8854571116
 20
1082.6241825919
 30
0.0
  0
VERTEX
  5
80B
  8
0
  6
CONTINUOUS
 62
     7
 10
602.8854571116
 20
1082.6241825919
 30
0.0
  0
SEQEND
  5
9FA
  8
0
  6
CONTINUOUS
 62
     7
  0
POLYLINE
  5
3BF
  8
0
  6
CONTINUOUS
 62
     7
 66
     1
 10
0.0
 20
0.0
 30
0.0
 70
   128
  0
VERTEX
  5
80C
  8
0
  6
CONTINUOUS
 62
     7
 10
599.9269954693
 20
1089.904822896
 30
0.0
  0
VERTEX
  5
80D
  8
0
  6
CONTINUOUS
 62
     7
 10
599.9612979424
 20
1089.8105879526
 30
0.0
  0
VERTEX
  5
80E
  8
0
  6
CONTINUOUS
 62
     7
 10
600.110279752
 20
1089.401245604
 30
0.0
  0
VERTEX
  5
80F
  8
0
  6
CONTINUOUS
 62
     7
 10
600.3645382655
 20
1088.7026717167
 30
0.0
  0
VERTEX
  5
810
  8
0
  6
CONTINUOUS
 62
     7
 10
600.7014833224
 20
1087.7769221764
 30
0.0
  0
VERTEX
  5
811
  8
0
  6
CONTINUOUS
 62
     7
 10
601.0911784899
 20
1086.7062737446
 30
0.0
  0
VERTEX
  5
812
  8
0
  6
CONTINUOUS
 62
     7
 10
601.4989785683
 20
1085.5858405333
 30
0.0
  0
VERTEX
  5
813
  8
0
  6
CONTINUOUS
 62
     7
 10
601.8886588347
 20
1084.5151846509
 30
0.0
  0
VERTEX
  5
814
  8
0
  6
CONTINUOUS
 62
     7
 10
602.2256038916
 20
1083.5894425612
 30
0.0
  0
VERTEX
  5
815
  8
0
  6
CONTINUOUS
 62
     7
 10
602.4798624051
 20
1082.8908612232
 30
0.0
  0
VERTEX
  5
816
  8
0
  6
CONTINUOUS
 62
     7
 10
602.6288591159
 20
1082.4815263252
 30
0.0
  0
VERTEX
  5
817
  8
0
  6
CONTINUOUS
 62
     7
 10
602.6631615889
 20
1082.3872839313
 30
0.0
  0
SEQEND
  5
9FB
  8
0
  6
CONTINUOUS
 62
     7
  0
POLYLINE
  5
3C0
  8
0
  6
CONTINUOUS
 62
     7
 66
     1
 10
0.0
 20
0.0
 30
0.0
 70
   128
  0
VERTEX
  5
818
  8
0
  6
CONTINUOUS
 62
     7
 10
369.5132754576
 20
1179.8803066115
 30
0.0
  0
VERTEX
  5
819
  8
0
  6
CONTINUOUS
 62
     7
 10
369.5796303284
 20
1179.8717682462
 30
0.0
  0
VERTEX
  5
81A
  8
0
  6
CONTINUOUS
 62
     7
 10
369.8878235948
 20
1180.0603722434
 30
0.0
  0
VERTEX
  5
81B
  8
0
  6
CONTINUOUS
 62
     7
 10
370.1658494604
 20
1180.6077067952
 30
0.0
  0
VERTEX
  5
81C
  8
0
  6
CONTINUOUS
 62
     7
 10
370.3864909542
 20
1181.4602022271
 30
0.0
  0
VERTEX
  5
81D
  8
0
  6
CONTINUOUS
 62
     7
 10
370.5281562936
 20
1182.5344120364
 30
0.0
  0
VERTEX
  5
81E
  8
0
  6
CONTINUOUS
 62
     7
 10
370.5769650471
 20
1183.7251936297
 30
0.0
  0
VERTEX
  5
81F
  8
0
  6
CONTINUOUS
 62
     7
 10
370.5281562936
 20
1184.9159603219
 30
0.0
  0
VERTEX
  5
820
  8
0
  6
CONTINUOUS
 62
     7
 10
370.3864909542
 20
1185.9901701312
 30
0.0
  0
VERTEX
  5
821
  8
0
  6
CONTINUOUS
 62
     7
 10
370.1658494604
 20
1186.8426655631
 30
0.0
  0
VERTEX
  5
822
  8
0
  6
CONTINUOUS
 62
     7
 10
369.8878235948
 20
1187.3900150161
 30
0.0
  0
VERTEX
  5
823
  8
0
  6
CONTINUOUS
 62
     7
 10
369.5796303284
 20
1187.5786041122
 30
0.0
  0
VERTEX
  5
824
  8
0
  6
CONTINUOUS
 62
     7
 10
369.5160768759
 20
1187.5707810025
 30
0.0
  0
SEQEND
  5
9FC
  8
0
  6
CONTINUOUS
 62
     7
  0
POLYLINE
  5
3C1
  8
0
  6
CONTINUOUS
 62
     7
 66
     1
 10
0.0
 20
0.0
 30
0.0
 70
   128
  0
VERTEX
  5
825
  8
0
  6
CONTINUOUS
 62
     7
 10
369.8596678508
 20
1179.7251855235
 30
0.0
  0
VERTEX
  5
826
  8
0
  6
CONTINUOUS
 62
     7
 10
370.1648212803
 20
1179.9028967719
 30
0.0
  0
VERTEX
  5
827
  8
0
  6
CONTINUOUS
 62
     7
 10
370.442862047
 20
1180.4202352862
 30
0.0
  0
VERTEX
  5
828
  8
0
  6
CONTINUOUS
 62
     7
 10
370.6690765751
 20
1181.2312309842
 30
0.0
  0
VERTEX
  5
829
  8
0
  6
CONTINUOUS
 62
     7
 10
370.8233780992
 20
1182.2638218503
 30
0.0
  0
VERTEX
  5
82A
  8
0
  6
CONTINUOUS
 62
     7
 10
370.8920501006
 20
1183.4262763362
 30
0.0
  0
VERTEX
  5
82B
  8
0
  6
CONTINUOUS
 62
     7
 10
370.8689905536
 20
1184.6152697902
 30
0.0
  0
VERTEX
  5
82C
  8
0
  6
CONTINUOUS
 62
     7
 10
370.7562409175
 20
1185.7251827817
 30
0.0
  0
VERTEX
  5
82D
  8
0
  6
CONTINUOUS
 62
     7
 10
370.5638371241
 20
1186.657399426
 30
0.0
  0
VERTEX
  5
82E
  8
0
  6
CONTINUOUS
 62
     7
 10
370.3088559044
 20
1187.3290692668
 30
0.0
  0
VERTEX
  5
82F
  8
0
  6
CONTINUOUS
 62
     7
 10
370.0139693749
 20
1187.6805131536
 30
0.0
  0
VERTEX
  5
830
  8
0
  6
CONTINUOUS
 62
     7
 10
369.8402739895
 20
1187.7244864802
 30
0.0
  0
SEQEND
  5
9FD
  8
0
  6
CONTINUOUS
 62
     7
  0
LINE
  5
3C2
  8
0
  6
CONTINUOUS
 62
     7
 10
455.0029769373
 20
714.7251968484
 30
0.0
 11
455.0029769373
 21
730.725199471
 31
0.0
  0
LINE
  5
3C3
  8
0
  6
CONTINUOUS
 62
     7
 10
475.6696432662
 20
730.725199471
 30
0.0
 11
475.6696432662
 21
714.7251968484
 31
0.0
  0
LINE
  5
3C4
  8
0
  6
CONTINUOUS
 62
     7
 10
432.4424326253
 20
714.7251968484
 30
0.0
 11
432.4424326253
 21
730.725199471
 31
0.0
  0
LINE
  5
3C5
  8
0
  6
CONTINUOUS
 62
     7
 10
498.2301875782
 20
730.725199471
 30
0.0
 11
498.2301875782
 21
714.7251968484
 31
0.0
  0
LINE
  5
3C6
  8
0
  6
CONTINUOUS
 62
     7
 10
420.7185640764
 20
729.7984068494
 30
0.0
 11
428.061319871
 21
714.7251968484
 31
0.0
  0
LINE
  5
3C7
  8
0
  6
CONTINUOUS
 62
     7
 10
502.6113003326
 20
714.7251968484
 30
0.0
 11
509.4416014683
 21
728.7464444737
 31
0.0
  0
ARC
  5
3C8
  8
0
  6
CONTINUOUS
 62
     7
 10
415.291064979
 20
1043.5435421025
 30
0.0
 40
65.87020284662788
 50
292.5857173319
 51
294.2951019021
  0
POLYLINE
  5
3C9
  8
0
  6
CONTINUOUS
 62
     7
 66
     1
 10
0.0
 20
0.0
 30
0.0
 70
   128
  0
VERTEX
  5
831
  8
0
  6
CONTINUOUS
 62
     7
 10
490.0831043554
 20
982.7251895543
 30
0.0
  0
VERTEX
  5
832
  8
0
  6
CONTINUOUS
 62
     7
 10
489.7484298629
 20
982.8265994068
 30
0.0
  0
VERTEX
  5
833
  8
0
  6
CONTINUOUS
 62
     7
 10
489.1916666013
 20
983.0867429476
 30
0.0
  0
VERTEX
  5
834
  8
0
  6
CONTINUOUS
 62
     7
 10
488.3250206542
 20
983.4986361887
 30
0.0
  0
VERTEX
  5
835
  8
0
  6
CONTINUOUS
 62
     7
 10
488.3067425174
 20
983.5059447426
 30
0.0
  0
SEQEND
  5
9FE
  8
0
  6
CONTINUOUS
 62
     7
  0
LINE
  5
3CA
  8
0
  6
CONTINUOUS
 62
     7
 10
381.3363112343
 20
984.7251898821
 30
0.0
 11
388.7129448188
 21
984.7251898821
 31
0.0
  0
LINE
  5
3CB
  8
0
  6
CONTINUOUS
 62
     7
 10
541.9596753848
 20
984.7251898821
 30
0.0
 11
549.3363089693
 21
984.7251898821
 31
0.0
  0
LINE
  5
3CC
  8
0
  6
CONTINUOUS
 62
     7
 10
487.4777387661
 20
984.7251898821
 30
0.0
 11
518.4167943728
 21
984.7251898821
 31
0.0
  0
LINE
  5
3CD
  8
0
  6
CONTINUOUS
 62
     7
 10
412.2558258307
 20
984.7251898821
 30
0.0
 11
443.1948814374
 21
984.7251898821
 31
0.0
  0
POLYLINE
  5
3CE
  8
0
  6
CONTINUOUS
 62
     7
 66
     1
 10
0.0
 20
0.0
 30
0.0
 70
   128
  0
VERTEX
  5
836
  8
0
  6
CONTINUOUS
 62
     7
 10
439.0286173505
 20
973.7251890104
 30
0.0
  0
VERTEX
  5
837
  8
0
  6
CONTINUOUS
 62
     7
 10
439.6338410509
 20
977.535933743
 30
0.0
  0
VERTEX
  5
838
  8
0
  6
CONTINUOUS
 62
     7
 10
440.6754489821
 20
979.6249405693
 30
0.0
  0
SEQEND
  5
9FF
  8
0
  6
CONTINUOUS
 62
     7
  0
POLYLINE
  5
3CF
  8
0
  6
CONTINUOUS
 62
     7
 66
     1
 10
0.0
 20
0.0
 30
0.0
 70
   128
  0
VERTEX
  5
839
  8
0
  6
CONTINUOUS
 62
     7
 10
489.9632617665
 20
979.692946675
 30
0.0
  0
VERTEX
  5
83A
  8
0
  6
CONTINUOUS
 62
     7
 10
491.0387791526
 20
977.535933743
 30
0.0
  0
VERTEX
  5
83B
  8
0
  6
CONTINUOUS
 62
     7
 10
491.6440028531
 20
973.7251890104
 30
0.0
  0
SEQEND
  5
A00
  8
0
  6
CONTINUOUS
 62
     7
  0
POLYLINE
  5
3D0
  8
0
  6
CONTINUOUS
 62
     7
 66
     1
 10
0.0
 20
0.0
 30
0.0
 70
   128
  0
VERTEX
  5
83C
  8
0
  6
CONTINUOUS
 62
     7
 10
440.5895158482
 20
982.7251895543
 30
0.0
  0
VERTEX
  5
83D
  8
0
  6
CONTINUOUS
 62
     7
 10
440.7133072448
 20
982.6867603909
 30
0.0
  0
VERTEX
  5
83E
  8
0
  6
CONTINUOUS
 62
     7
 10
440.8323414457
 20
982.572949047
 30
0.0
  0
VERTEX
  5
83F
  8
0
  6
CONTINUOUS
 62
     7
 10
440.9420437944
 20
982.3881290134
 30
0.0
  0
VERTEX
  5
840
  8
0
  6
CONTINUOUS
 62
     7
 10
441.038199125
 20
982.1394034873
 30
0.0
  0
VERTEX
  5
841
  8
0
  6
CONTINUOUS
 62
     7
 10
441.1171100867
 20
981.8363306325
 30
0.0
  0
VERTEX
  5
842
  8
0
  6
CONTINUOUS
 62
     7
 10
441.1483522338
 20
981.6725212361
 30
0.0
  0
SEQEND
  5
A01
  8
0
  6
CONTINUOUS
 62
     7
  0
LINE
  5
3D1
  8
0
  6
CONTINUOUS
 62
     7
 10
440.7969176603
 20
980.7251901578
 30
0.0
 11
418.8562840057
 21
980.7251901578
 31
0.0
  0
POLYLINE
  5
3D2
  8
0
  6
CONTINUOUS
 62
     7
 66
     1
 10
0.0
 20
0.0
 30
0.0
 70
   128
  0
VERTEX
  5
843
  8
0
  6
CONTINUOUS
 62
     7
 10
489.5242679697
 20
981.6725212361
 30
0.0
  0
VERTEX
  5
844
  8
0
  6
CONTINUOUS
 62
     7
 10
489.5555101168
 20
981.8363306325
 30
0.0
  0
VERTEX
  5
845
  8
0
  6
CONTINUOUS
 62
     7
 10
489.6344210786
 20
982.1394034873
 30
0.0
  0
VERTEX
  5
846
  8
0
  6
CONTINUOUS
 62
     7
 10
489.7305764091
 20
982.3881290134
 30
0.0
  0
VERTEX
  5
847
  8
0
  6
CONTINUOUS
 62
     7
 10
489.8402787578
 20
982.572949047
 30
0.0
  0
VERTEX
  5
848
  8
0
  6
CONTINUOUS
 62
     7
 10
489.9593129587
 20
982.6867603909
 30
0.0
  0
VERTEX
  5
849
  8
0
  6
CONTINUOUS
 62
     7
 10
490.0831043554
 20
982.7251895543
 30
0.0
  0
SEQEND
  5
A02
  8
0
  6
CONTINUOUS
 62
     7
  0
LINE
  5
3D3
  8
0
  6
CONTINUOUS
 62
     7
 10
513.1296835673
 20
980.7251901578
 30
0.0
 11
489.8757025433
 21
980.7251901578
 31
0.0
  0
LINE
  5
3D4
  8
0
  6
CONTINUOUS
 62
     7
 10
532.836312784
 20
869.7251905899
 30
0.0
 11
484.7567867321
 21
869.7251905899
 31
0.0
  0
LINE
  5
3D5
  8
0
  6
CONTINUOUS
 62
     7
 10
445.9158334714
 20
869.7251905899
 30
0.0
 11
397.8363074196
 21
869.7251905899
 31
0.0
  0
LINE
  5
3D6
  8
0
  6
CONTINUOUS
 62
     7
 10
409.505183233
 20
858.7251906495
 30
0.0
 11
410.0710697305
 21
858.7251906495
 31
0.0
  0
LINE
  5
3D7
  8
0
  6
CONTINUOUS
 62
     7
 10
418.0710673166
 20
858.7251906495
 30
0.0
 11
429.6612128449
 21
858.7251906495
 31
0.0
  0
ARC
  5
3D8
  8
0
  6
CONTINUOUS
 62
     7
 10
409.5758834621
 20
856.6255132009
 30
0.0
 40
2.100867418622257
 50
91.9285318495
 51
177.1801465418
  0
LINE
  5
3D9
  8
0
  6
CONTINUOUS
 62
     7
 10
407.3737844658
 20
841.7251860004
 30
0.0
 11
407.3737844658
 21
842.7251880269
 31
0.0
  0
LINE
  5
3DA
  8
0
  6
CONTINUOUS
 62
     7
 10
435.0402656776
 20
841.7251860004
 30
0.0
 11
418.0710673166
 21
841.7251860004
 31
0.0
  0
LINE
  5
3DB
  8
0
  6
CONTINUOUS
 62
     7
 10
410.0710697305
 20
841.7251860004
 30
0.0
 11
407.3737844658
 21
841.7251860004
 31
0.0
  0
LINE
  5
3DC
  8
0
  6
CONTINUOUS
 62
     7
 10
523.2988357377
 20
842.7251880269
 30
0.0
 11
523.2988357377
 21
841.7251860004
 31
0.0
  0
ARC
  5
3DD
  8
0
  6
CONTINUOUS
 62
     7
 10
521.066899832
 20
856.5951985472
 30
0.0
 40
2.132363494372761
 50
3.5947831072
 51
87.29760426
  0
LINE
  5
3DE
  8
0
  6
CONTINUOUS
 62
     7
 10
501.0114073587
 20
858.7251906495
 30
0.0
 11
512.601552887
 21
858.7251906495
 31
0.0
  0
LINE
  5
3DF
  8
0
  6
CONTINUOUS
 62
     7
 10
520.601550473
 20
858.7251906495
 30
0.0
 11
521.1674369705
 21
858.7251906495
 31
0.0
  0
LINE
  5
3E0
  8
0
  6
CONTINUOUS
 62
     7
 10
523.2988357377
 20
841.7251860004
 30
0.0
 11
520.601550473
 21
841.7251860004
 31
0.0
  0
LINE
  5
3E1
  8
0
  6
CONTINUOUS
 62
     7
 10
512.601552887
 20
841.7251860004
 30
0.0
 11
495.6323545259
 21
841.7251860004
 31
0.0
  0
LINE
  5
3E2
  8
0
  6
CONTINUOUS
 62
     7
 10
403.5961948168
 20
950.7251908283
 30
0.0
 11
416.4257369769
 21
950.7251908283
 31
0.0
  0
LINE
  5
3E3
  8
0
  6
CONTINUOUS
 62
     7
 10
513.1296835673
 20
950.7251908283
 30
0.0
 11
527.0764253867
 21
950.7251908283
 31
0.0
  0
LINE
  5
3E4
  8
0
  6
CONTINUOUS
 62
     7
 10
405.9393390846
 20
980.7251901578
 30
0.0
 11
403.6066740585
 21
980.7251901578
 31
0.0
  0
LINE
  5
3E5
  8
0
  6
CONTINUOUS
 62
     7
 10
524.7332811189
 20
980.7251901578
 30
0.0
 11
527.0659461451
 21
980.7251901578
 31
0.0
  0
LINE
  5
3E6
  8
0
  6
CONTINUOUS
 62
     7
 10
402.304092778
 20
855.7251845698
 30
0.0
 11
402.5188706649
 21
855.7251845698
 31
0.0
  0
LINE
  5
3E7
  8
0
  6
CONTINUOUS
 62
     7
 10
528.1537495387
 20
855.7251845698
 30
0.0
 11
528.3685274255
 21
855.7251845698
 31
0.0
  0
ARC
  5
3E8
  8
0
  6
CONTINUOUS
 62
     7
 10
405.8903362749
 20
980.9086488704
 30
0.0
 40
3.362660497442971
 50
153.2325102891
 51
183.1274734832
  0
ARC
  5
3E9
  8
0
  6
CONTINUOUS
 62
     7
 10
524.4695075951
 20
980.8521988785
 30
0.0
 40
3.672625366365393
 50
358.0181711398
 51
24.635709035
  0
LINE
  5
3EA
  8
0
  6
CONTINUOUS
 62
     7
 10
391.5183789861
 20
950.7251908283
 30
0.0
 11
402.5326840413
 21
950.7251908283
 31
0.0
  0
ARC
  5
3EB
  8
0
  6
CONTINUOUS
 62
     7
 10
406.2299761834
 20
950.5903968857
 30
0.0
 40
3.699748449731304
 50
177.9120651764
 51
202.9759594707
  0
LINE
  5
3EC
  8
0
  6
CONTINUOUS
 62
     7
 10
528.1399361623
 20
950.7251908283
 30
0.0
 11
539.1542412174
 21
950.7251908283
 31
0.0
  0
ARC
  5
3ED
  8
0
  6
CONTINUOUS
 62
     7
 10
524.3341810429
 20
950.6103897028
 30
0.0
 40
3.8074862215424
 50
337.3841642379
 51
1.7278111149
  0
LINE
  5
3EE
  8
0
  6
CONTINUOUS
 62
     7
 10
403.5961948168
 20
980.7251901578
 30
0.0
 11
402.5326840413
 21
980.7251901578
 31
0.0
  0
LINE
  5
3EF
  8
0
  6
CONTINUOUS
 62
     7
 10
402.5326840413
 20
950.7251908283
 30
0.0
 11
403.5961948168
 21
950.7251908283
 31
0.0
  0
LINE
  5
3F0
  8
0
  6
CONTINUOUS
 62
     7
 10
528.1399361623
 20
980.7251901578
 30
0.0
 11
527.2706359458
 21
980.7251901578
 31
0.0
  0
LINE
  5
3F1
  8
0
  6
CONTINUOUS
 62
     7
 10
527.0764253867
 20
950.7251908283
 30
0.0
 11
528.1399361623
 21
950.7251908283
 31
0.0
  0
LINE
  5
3F2
  8
0
  6
CONTINUOUS
 62
     7
 10
392.5901748073
 20
980.7251901578
 30
0.0
 11
391.523035599
 21
980.7251901578
 31
0.0
  0
LINE
  5
3F3
  8
0
  6
CONTINUOUS
 62
     7
 10
538.0824453962
 20
980.7251901578
 30
0.0
 11
539.1495846045
 21
980.7251901578
 31
0.0
  0
POLYLINE
  5
3F4
  8
0
  6
CONTINUOUS
 62
     7
 66
     1
 10
0.0
 20
0.0
 30
0.0
 70
   128
  0
VERTEX
  5
84A
  8
0
  6
CONTINUOUS
 62
     7
 10
391.4983741772
 20
981.8440559532
 30
0.0
  0
VERTEX
  5
84B
  8
0
  6
CONTINUOUS
 62
     7
 10
391.522804631
 20
982.0841546382
 30
0.0
  0
VERTEX
  5
84C
  8
0
  6
CONTINUOUS
 62
     7
 10
391.9108681214
 20
982.3691877748
 30
0.0
  0
VERTEX
  5
84D
  8
0
  6
CONTINUOUS
 62
     7
 10
392.6466055048
 20
982.6168329667
 30
0.0
  0
SEQEND
  5
A03
  8
0
  6
CONTINUOUS
 62
     7
  0
POLYLINE
  5
3F5
  8
0
  6
CONTINUOUS
 62
     7
 66
     1
 10
0.0
 20
0.0
 30
0.0
 70
   128
  0
VERTEX
  5
84E
  8
0
  6
CONTINUOUS
 62
     7
 10
539.1739256513
 20
981.8471581887
 30
0.0
  0
VERTEX
  5
84F
  8
0
  6
CONTINUOUS
 62
     7
 10
539.1498155725
 20
982.0841546382
 30
0.0
  0
VERTEX
  5
850
  8
0
  6
CONTINUOUS
 62
     7
 10
538.7617520821
 20
982.3691877748
 30
0.0
  0
VERTEX
  5
851
  8
0
  6
CONTINUOUS
 62
     7
 10
538.0260146988
 20
982.6168329667
 30
0.0
  0
SEQEND
  5
A04
  8
0
  6
CONTINUOUS
 62
     7
  0
LINE
  5
3F6
  8
0
  6
CONTINUOUS
 62
     7
 10
391.5183789861
 20
980.7251901578
 30
0.0
 11
389.3363125456
 21
980.7251901578
 31
0.0
  0
LINE
  5
3F7
  8
0
  6
CONTINUOUS
 62
     7
 10
389.3363125456
 20
950.7251908283
 30
0.0
 11
391.5183789861
 21
950.7251908283
 31
0.0
  0
LINE
  5
3F8
  8
0
  6
CONTINUOUS
 62
     7
 10
541.336307658
 20
980.7251901578
 30
0.0
 11
539.1542412174
 21
980.7251901578
 31
0.0
  0
LINE
  5
3F9
  8
0
  6
CONTINUOUS
 62
     7
 10
539.1542412174
 20
950.7251908283
 30
0.0
 11
541.336307658
 21
950.7251908283
 31
0.0
  0
CIRCLE
  5
3FA
  8
SLD-0
  6
CONTINUOUS
 62
     7
 10
465.3363101018
 20
963.7251899343
 30
0.0
 40
9.941304535795709
  0
INSERT
  5
406
  8
SLD-0
 62
    11
  2
SW_CENTERMARKSYMBOL_0
 10
465.3363101018
 20
963.7251899343
 30
0.0
  0
LINE
  5
407
  8
0
  6
CONTINUOUS
 62
     7
 10
602.9911212456
 20
398.5837252256
 30
0.0
 11
603.0411295426
 21
398.5837252256
 31
0.0
  0
LINE
  5
408
  8
0
  6
CONTINUOUS
 62
     7
 10
603.0411295426
 20
420.1196228531
 30
0.0
 11
602.9911212456
 21
420.1196228531
 31
0.0
  0
POLYLINE
  5
409
  8
0
  6
CONTINUOUS
 62
     7
 66
     1
 10
0.0
 20
0.0
 30
0.0
 70
   128
  0
VERTEX
  5
852
  8
0
  6
CONTINUOUS
 62
     7
 10
601.3141445649
 20
438.3516732049
 30
0.0
  0
VERTEX
  5
853
  8
0
  6
CONTINUOUS
 62
     7
 10
601.2973807585
 20
439.0202436042
 30
0.0
  0
VERTEX
  5
854
  8
0
  6
CONTINUOUS
 62
     7
 10
601.1724345219
 20
440.260983203
 30
0.0
  0
VERTEX
  5
855
  8
0
  6
CONTINUOUS
 62
     7
 10
600.9201727641
 20
441.4192597758
 30
0.0
  0
VERTEX
  5
856
  8
0
  6
CONTINUOUS
 62
     7
 10
600.5038343203
 20
442.482289989
 30
0.0
  0
VERTEX
  5
857
  8
0
  6
CONTINUOUS
 62
     7
 10
600.0028274787
 20
443.2200204026
 30
0.0
  0
VERTEX
  5
858
  8
0
  6
CONTINUOUS
 62
     7
 10
599.4221292269
 20
443.7116767657
 30
0.0
  0
VERTEX
  5
859
  8
0
  6
CONTINUOUS
 62
     7
 10
598.7138621342
 20
444.0007183146
 30
0.0
  0
VERTEX
  5
85A
  8
0
  6
CONTINUOUS
 62
     7
 10
598.2460550797
 20
444.0516728353
 30
0.0
  0
SEQEND
  5
A05
  8
0
  6
CONTINUOUS
 62
     7
  0
LINE
  5
40A
  8
0
  6
CONTINUOUS
 62
     7
 10
601.3141445649
 20
379.3516747099
 30
0.0
 11
601.3141445649
 21
438.3516732049
 31
0.0
  0
POLYLINE
  5
40B
  8
0
  6
CONTINUOUS
 62
     7
 66
     1
 10
0.0
 20
0.0
 30
0.0
 70
   128
  0
VERTEX
  5
85B
  8
0
  6
CONTINUOUS
 62
     7
 10
598.2460550797
 20
373.6516732168
 30
0.0
  0
VERTEX
  5
85C
  8
0
  6
CONTINUOUS
 62
     7
 10
599.0228377116
 20
373.7946088803
 30
0.0
  0
VERTEX
  5
85D
  8
0
  6
CONTINUOUS
 62
     7
 10
599.6542893183
 20
374.154252131
 30
0.0
  0
VERTEX
  5
85E
  8
0
  6
CONTINUOUS
 62
     7
 10
600.1509450209
 20
374.6622587931
 30
0.0
  0
VERTEX
  5
85F
  8
0
  6
CONTINUOUS
 62
     7
 10
600.5714408887
 20
375.3561313641
 30
0.0
  0
VERTEX
  5
860
  8
0
  6
CONTINUOUS
 62
     7
 10
600.9408108723
 20
376.3563606333
 30
0.0
  0
VERTEX
  5
861
  8
0
  6
CONTINUOUS
 62
     7
 10
601.1930130255
 20
377.5811541271
 30
0.0
  0
VERTEX
  5
862
  8
0
  6
CONTINUOUS
 62
     7
 10
601.3049058449
 20
378.8548383307
 30
0.0
  0
VERTEX
  5
863
  8
0
  6
CONTINUOUS
 62
     7
 10
601.3141445649
 20
379.3516747099
 30
0.0
  0
SEQEND
  5
A06
  8
0
  6
CONTINUOUS
 62
     7
  0
LINE
  5
40C
  8
0
  6
CONTINUOUS
 62
     7
 10
595.7444779408
 20
382.351673339
 30
0.0
 11
594.2053817046
 21
382.351673339
 31
0.0
  0
LINE
  5
40D
  8
0
  6
CONTINUOUS
 62
     7
 10
594.2053817046
 20
378.351674546
 30
0.0
 11
595.7059882415
 21
378.351674546
 31
0.0
  0
LINE
  5
40E
  8
0
  6
CONTINUOUS
 62
     7
 10
600.9390823376
 20
376.3516742182
 30
0.0
 11
601.2950710786
 21
376.3516742182
 31
0.0
  0
LINE
  5
40F
  8
0
  6
CONTINUOUS
 62
     7
 10
601.4421604407
 20
384.3018106562
 30
0.0
 11
601.3245604766
 21
384.3260827851
 31
0.0
  0
LINE
  5
410
  8
0
  6
CONTINUOUS
 62
     7
 10
601.2950710786
 20
376.3516742182
 30
0.0
 11
601.5085004103
 21
376.3987060082
 31
0.0
  0
ARC
  5
411
  8
0
  6
CONTINUOUS
 62
     7
 10
596.6485833729
 20
380.3516740393
 30
0.0
 40
6.500000000000051
 50
328.9823638146
 51
31.0176361854
  0
LINE
  5
412
  8
0
  6
CONTINUOUS
 62
     7
 10
565.0549031627
 20
440.3516735327
 30
0.0
 11
563.3363075388
 21
440.3516735327
 31
0.0
  0
LINE
  5
413
  8
0
  6
CONTINUOUS
 62
     7
 10
563.3363075388
 20
436.3516747397
 30
0.0
 11
565.0549031627
 21
436.3516747397
 31
0.0
  0
LINE
  5
414
  8
0
  6
CONTINUOUS
 62
     7
 10
595.584111644
 20
440.3516735327
 30
0.0
 11
594.2053817046
 21
440.3516735327
 31
0.0
  0
LINE
  5
415
  8
0
  6
CONTINUOUS
 62
     7
 10
594.2053817046
 20
436.3516747397
 30
0.0
 11
595.7444779408
 21
436.3516747397
 31
0.0
  0
LINE
  5
416
  8
0
  6
CONTINUOUS
 62
     7
 10
601.2950710786
 20
442.3516738605
 30
0.0
 11
600.5549900067
 21
442.3516738605
 31
0.0
  0
LINE
  5
417
  8
0
  6
CONTINUOUS
 62
     7
 10
601.4421604407
 20
442.3018108499
 30
0.0
 11
601.3245604766
 21
442.3260811162
 31
0.0
  0
LINE
  5
418
  8
0
  6
CONTINUOUS
 62
     7
 10
601.2950710786
 20
434.3516744119
 30
0.0
 11
601.5085004103
 21
434.3987043392
 31
0.0
  0
ARC
  5
419
  8
0
  6
CONTINUOUS
 62
     7
 10
596.6485833729
 20
438.3516740393
 30
0.0
 40
6.50000000000006
 50
328.9823638146
 51
31.0176361854
  0
LINE
  5
41A
  8
0
  6
CONTINUOUS
 62
     7
 10
565.0549031627
 20
382.351673339
 30
0.0
 11
563.3363075388
 21
382.351673339
 31
0.0
  0
LINE
  5
41B
  8
0
  6
CONTINUOUS
 62
     7
 10
563.3363075388
 20
378.351674546
 30
0.0
 11
565.0549031627
 21
378.351674546
 31
0.0
  0
LINE
  5
41C
  8
0
  6
CONTINUOUS
 62
     7
 10
602.9911212456
 20
399.5837244582
 30
0.0
 11
603.0411295426
 21
399.5837244582
 31
0.0
  0
LINE
  5
41D
  8
0
  6
CONTINUOUS
 62
     7
 10
603.0411295426
 20
399.5837244582
 30
0.0
 11
603.0411295426
 21
398.5837252256
 31
0.0
  0
LINE
  5
41E
  8
0
  6
CONTINUOUS
 62
     7
 10
603.0411295426
 20
419.1196236205
 30
0.0
 11
602.9911212456
 21
419.1196236205
 31
0.0
  0
LINE
  5
41F
  8
0
  6
CONTINUOUS
 62
     7
 10
603.0411295426
 20
420.1196228531
 30
0.0
 11
603.0411295426
 21
419.1196236205
 31
0.0
  0
LINE
  5
420
  8
0
  6
CONTINUOUS
 62
     7
 10
603.0411295426
 20
419.1196236205
 30
0.0
 11
603.0411295426
 21
399.5837244582
 31
0.0
  0
LINE
  5
421
  8
0
  6
CONTINUOUS
 62
     7
 10
603.0911229384
 20
400.4497501445
 30
0.0
 11
603.0411295426
 21
400.4497501445
 31
0.0
  0
LINE
  5
422
  8
0
  6
CONTINUOUS
 62
     7
 10
603.0911229384
 20
418.2535979342
 30
0.0
 11
603.0411295426
 21
418.2535979342
 31
0.0
  0
LINE
  5
423
  8
0
  6
CONTINUOUS
 62
     7
 10
603.0911229384
 20
418.2535979342
 30
0.0
 11
603.0911229384
 21
400.4497501445
 31
0.0
  0
LINE
  5
424
  8
0
  6
CONTINUOUS
 62
     7
 10
594.2053817046
 20
444.0516728353
 30
0.0
 11
563.3363075388
 21
444.0516728353
 31
0.0
  0
POLYLINE
  5
425
  8
0
  6
CONTINUOUS
 62
     7
 66
     1
 10
0.0
 20
0.0
 30
0.0
 70
   128
  0
VERTEX
  5
864
  8
0
  6
CONTINUOUS
 62
     7
 10
596.1549006236
 20
438.3516732049
 30
0.0
  0
VERTEX
  5
865
  8
0
  6
CONTINUOUS
 62
     7
 10
596.1174391043
 20
439.4636891228
 30
0.0
  0
VERTEX
  5
866
  8
0
  6
CONTINUOUS
 62
     7
 10
596.0064999592
 20
440.532970373
 30
0.0
  0
VERTEX
  5
867
  8
0
  6
CONTINUOUS
 62
     7
 10
595.8263449204
 20
441.5184232783
 30
0.0
  0
VERTEX
  5
868
  8
0
  6
CONTINUOUS
 62
     7
 10
595.5839030278
 20
442.3821839881
 30
0.0
  0
VERTEX
  5
869
  8
0
  6
CONTINUOUS
 62
     7
 10
595.288472606
 20
443.0910508525
 30
0.0
  0
VERTEX
  5
86A
  8
0
  6
CONTINUOUS
 62
     7
 10
594.9514232409
 20
443.6177882743
 30
0.0
  0
VERTEX
  5
86B
  8
0
  6
CONTINUOUS
 62
     7
 10
594.5857189429
 20
443.9421493005
 30
0.0
  0
VERTEX
  5
86C
  8
0
  6
CONTINUOUS
 62
     7
 10
594.2053817046
 20
444.0516728353
 30
0.0
  0
SEQEND
  5
A07
  8
0
  6
CONTINUOUS
 62
     7
  0
LINE
  5
426
  8
0
  6
CONTINUOUS
 62
     7
 10
596.1549006236
 20
379.3516747099
 30
0.0
 11
596.1549006236
 21
438.3516732049
 31
0.0
  0
POLYLINE
  5
427
  8
0
  6
CONTINUOUS
 62
     7
 66
     1
 10
0.0
 20
0.0
 30
0.0
 70
   128
  0
VERTEX
  5
86D
  8
0
  6
CONTINUOUS
 62
     7
 10
594.2053817046
 20
373.6516732168
 30
0.0
  0
VERTEX
  5
86E
  8
0
  6
CONTINUOUS
 62
     7
 10
594.5857189429
 20
373.7611967516
 30
0.0
  0
VERTEX
  5
86F
  8
0
  6
CONTINUOUS
 62
     7
 10
594.9514232409
 20
374.0855615031
 30
0.0
  0
VERTEX
  5
870
  8
0
  6
CONTINUOUS
 62
     7
 10
595.288472606
 20
374.6122989249
 30
0.0
  0
VERTEX
  5
871
  8
0
  6
CONTINUOUS
 62
     7
 10
595.5839030278
 20
375.3211657893
 30
0.0
  0
VERTEX
  5
872
  8
0
  6
CONTINUOUS
 62
     7
 10
595.8263449204
 20
376.1849227738
 30
0.0
  0
VERTEX
  5
873
  8
0
  6
CONTINUOUS
 62
     7
 10
596.0064999592
 20
377.1703775418
 30
0.0
  0
VERTEX
  5
874
  8
0
  6
CONTINUOUS
 62
     7
 10
596.1174391043
 20
378.239658792
 30
0.0
  0
VERTEX
  5
875
  8
0
  6
CONTINUOUS
 62
     7
 10
596.1549006236
 20
379.3516747099
 30
0.0
  0
SEQEND
  5
A08
  8
0
  6
CONTINUOUS
 62
     7
  0
LINE
  5
428
  8
0
  6
CONTINUOUS
 62
     7
 10
563.3363075388
 20
373.6516732168
 30
0.0
 11
594.2053817046
 21
373.6516732168
 31
0.0
  0
LINE
  5
429
  8
0
  6
CONTINUOUS
 62
     7
 10
563.3363075388
 20
374.8516749036
 30
0.0
 11
594.2053817046
 21
374.8516749036
 31
0.0
  0
POLYLINE
  5
42A
  8
0
  6
CONTINUOUS
 62
     7
 66
     1
 10
0.0
 20
0.0
 30
0.0
 70
   128
  0
VERTEX
  5
876
  8
0
  6
CONTINUOUS
 62
     7
 10
595.7444779408
 20
379.3516747099
 30
0.0
  0
VERTEX
  5
877
  8
0
  6
CONTINUOUS
 62
     7
 10
595.7148991358
 20
378.4737672102
 30
0.0
  0
VERTEX
  5
878
  8
0
  6
CONTINUOUS
 62
     7
 10
595.6273101103
 20
377.6295978021
 30
0.0
  0
VERTEX
  5
879
  8
0
  6
CONTINUOUS
 62
     7
 10
595.4850934279
 20
376.8516081762
 30
0.0
  0
VERTEX
  5
87A
  8
0
  6
CONTINUOUS
 62
     7
 10
595.2936880124
 20
376.1696937871
 30
0.0
  0
VERTEX
  5
87B
  8
0
  6
CONTINUOUS
 62
     7
 10
595.0604550374
 20
375.610062052
 30
0.0
  0
VERTEX
  5
87C
  8
0
  6
CONTINUOUS
 62
     7
 10
594.7943650019
 20
375.1942153465
 30
0.0
  0
VERTEX
  5
87D
  8
0
  6
CONTINUOUS
 62
     7
 10
594.5056401026
 20
374.9381388914
 30
0.0
  0
VERTEX
  5
87E
  8
0
  6
CONTINUOUS
 62
     7
 10
594.2053817046
 20
374.8516749036
 30
0.0
  0
SEQEND
  5
A09
  8
0
  6
CONTINUOUS
 62
     7
  0
LINE
  5
42B
  8
0
  6
CONTINUOUS
 62
     7
 10
595.7444779408
 20
379.3516747099
 30
0.0
 11
595.7444779408
 21
438.3516732049
 31
0.0
  0
POLYLINE
  5
42C
  8
0
  6
CONTINUOUS
 62
     7
 66
     1
 10
0.0
 20
0.0
 30
0.0
 70
   128
  0
VERTEX
  5
87F
  8
0
  6
CONTINUOUS
 62
     7
 10
594.2053817046
 20
442.8516748738
 30
0.0
  0
VERTEX
  5
880
  8
0
  6
CONTINUOUS
 62
     7
 10
594.5056401026
 20
442.7652071607
 30
0.0
  0
VERTEX
  5
881
  8
0
  6
CONTINUOUS
 62
     7
 10
594.7943650019
 20
442.5091307056
 30
0.0
  0
VERTEX
  5
882
  8
0
  6
CONTINUOUS
 62
     7
 10
595.0604550374
 20
442.0932877254
 30
0.0
  0
VERTEX
  5
883
  8
0
  6
CONTINUOUS
 62
     7
 10
595.2936880124
 20
441.5336559903
 30
0.0
  0
VERTEX
  5
884
  8
0
  6
CONTINUOUS
 62
     7
 10
595.4850934279
 20
440.8517416012
 30
0.0
  0
VERTEX
  5
885
  8
0
  6
CONTINUOUS
 62
     7
 10
595.6273101103
 20
440.0737501126
 30
0.0
  0
VERTEX
  5
886
  8
0
  6
CONTINUOUS
 62
     7
 10
595.7148991358
 20
439.2295807045
 30
0.0
  0
VERTEX
  5
887
  8
0
  6
CONTINUOUS
 62
     7
 10
595.7444779408
 20
438.3516732049
 30
0.0
  0
SEQEND
  5
A0A
  8
0
  6
CONTINUOUS
 62
     7
  0
LINE
  5
42D
  8
0
  6
CONTINUOUS
 62
     7
 10
594.2053817046
 20
442.8516748738
 30
0.0
 11
563.3363075388
 21
442.8516748738
 31
0.0
  0
LINE
  5
42E
  8
0
  6
CONTINUOUS
 62
     7
 10
594.2053817046
 20
444.0516728353
 30
0.0
 11
598.2460550797
 21
444.0516728353
 31
0.0
  0
POLYLINE
  5
42F
  8
0
  6
CONTINUOUS
 62
     7
 66
     1
 10
0.0
 20
0.0
 30
0.0
 70
   128
  0
VERTEX
  5
888
  8
0
  6
CONTINUOUS
 62
     7
 10
600.1955739987
 20
438.3516732049
 30
0.0
  0
VERTEX
  5
889
  8
0
  6
CONTINUOUS
 62
     7
 10
600.1581124795
 20
439.4636891228
 30
0.0
  0
VERTEX
  5
88A
  8
0
  6
CONTINUOUS
 62
     7
 10
600.0471733344
 20
440.532970373
 30
0.0
  0
VERTEX
  5
88B
  8
0
  6
CONTINUOUS
 62
     7
 10
599.8670182955
 20
441.5184232783
 30
0.0
  0
VERTEX
  5
88C
  8
0
  6
CONTINUOUS
 62
     7
 10
599.6245764029
 20
442.3821839881
 30
0.0
  0
VERTEX
  5
88D
  8
0
  6
CONTINUOUS
 62
     7
 10
599.3291459811
 20
443.0910508525
 30
0.0
  0
VERTEX
  5
88E
  8
0
  6
CONTINUOUS
 62
     7
 10
598.9921115172
 20
443.6177882743
 30
0.0
  0
VERTEX
  5
88F
  8
0
  6
CONTINUOUS
 62
     7
 10
598.626392318
 20
443.9421493005
 30
0.0
  0
VERTEX
  5
890
  8
0
  6
CONTINUOUS
 62
     7
 10
598.2460550797
 20
444.0516728353
 30
0.0
  0
SEQEND
  5
A0B
  8
0
  6
CONTINUOUS
 62
     7
  0
LINE
  5
430
  8
0
  6
CONTINUOUS
 62
     7
 10
600.1955739987
 20
438.3516732049
 30
0.0
 11
596.1549006236
 21
438.3516732049
 31
0.0
  0
LINE
  5
431
  8
0
  6
CONTINUOUS
 62
     7
 10
600.1955739987
 20
379.3516747099
 30
0.0
 11
600.1955739987
 21
438.3516732049
 31
0.0
  0
LINE
  5
432
  8
0
  6
CONTINUOUS
 62
     7
 10
596.1549006236
 20
379.3516747099
 30
0.0
 11
600.1955739987
 21
379.3516747099
 31
0.0
  0
POLYLINE
  5
433
  8
0
  6
CONTINUOUS
 62
     7
 66
     1
 10
0.0
 20
0.0
 30
0.0
 70
   128
  0
VERTEX
  5
891
  8
0
  6
CONTINUOUS
 62
     7
 10
598.2460550797
 20
373.6516732168
 30
0.0
  0
VERTEX
  5
892
  8
0
  6
CONTINUOUS
 62
     7
 10
598.626392318
 20
373.7611967516
 30
0.0
  0
VERTEX
  5
893
  8
0
  6
CONTINUOUS
 62
     7
 10
598.9921115172
 20
374.0855615031
 30
0.0
  0
VERTEX
  5
894
  8
0
  6
CONTINUOUS
 62
     7
 10
599.3291459811
 20
374.6122989249
 30
0.0
  0
VERTEX
  5
895
  8
0
  6
CONTINUOUS
 62
     7
 10
599.6245764029
 20
375.3211657893
 30
0.0
  0
VERTEX
  5
896
  8
0
  6
CONTINUOUS
 62
     7
 10
599.8670182955
 20
376.1849227738
 30
0.0
  0
VERTEX
  5
897
  8
0
  6
CONTINUOUS
 62
     7
 10
600.0471733344
 20
377.1703775418
 30
0.0
  0
VERTEX
  5
898
  8
0
  6
CONTINUOUS
 62
     7
 10
600.1581124795
 20
378.239658792
 30
0.0
  0
VERTEX
  5
899
  8
0
  6
CONTINUOUS
 62
     7
 10
600.1955739987
 20
379.3516747099
 30
0.0
  0
SEQEND
  5
A0C
  8
0
  6
CONTINUOUS
 62
     7
  0
LINE
  5
434
  8
0
  6
CONTINUOUS
 62
     7
 10
598.2460550797
 20
373.6516732168
 30
0.0
 11
594.2053817046
 21
373.6516732168
 31
0.0
  0
ARC
  5
435
  8
0
  6
CONTINUOUS
 62
     7
 10
566.7646473644
 20
442.3662984036
 30
0.0
 40
0.4856257162873126
 50
358.2742855777
 51
88.1642244735
  0
ARC
  5
436
  8
0
  6
CONTINUOUS
 62
     7
 10
566.7646533928
 20
375.3370455999
 30
0.0
 40
0.4856197523106488
 50
271.8350864536
 51
1.7259774319
  0
LINE
  5
437
  8
0
  6
CONTINUOUS
 62
     7
 10
601.6751549971
 20
388.1516746622
 30
0.0
 11
601.6751549971
 21
429.5516732526
 31
0.0
  0
LINE
  5
438
  8
0
  6
CONTINUOUS
 62
     7
 10
601.6751549971
 20
429.5516732526
 30
0.0
 11
602.9911212456
 21
429.5516732526
 31
0.0
  0
LINE
  5
439
  8
0
  6
CONTINUOUS
 62
     7
 10
602.9911212456
 20
429.5516732526
 30
0.0
 11
602.9911212456
 21
388.1516746622
 31
0.0
  0
LINE
  5
43A
  8
0
  6
CONTINUOUS
 62
     7
 10
601.6751549971
 20
388.1516746622
 30
0.0
 11
602.9911212456
 21
388.1516746622
 31
0.0
  0
ARC
  5
43B
  8
0
  6
CONTINUOUS
 62
     7
 10
600.99112213
 20
432.5516740393
 30
0.0
 40
2.000000000000016
 50
0.0
 51
77.937198034
  0
LINE
  5
43C
  8
0
  6
CONTINUOUS
 62
     7
 10
602.9911212456
 20
432.5516737443
 30
0.0
 11
602.9911212456
 21
429.5516732526
 31
0.0
  0
LINE
  5
43D
  8
0
  6
CONTINUOUS
 62
     7
 10
602.9911212456
 20
388.1516746622
 30
0.0
 11
602.9911212456
 21
385.1516741705
 31
0.0
  0
ARC
  5
43E
  8
0
  6
CONTINUOUS
 62
     7
 10
600.99112213
 20
385.1516740393
 30
0.0
 40
2.000000000000046
 50
309.7655702554
 51
0.0
  0
POLYLINE
  5
43F
  8
0
  6
CONTINUOUS
 62
     7
 66
     1
 10
0.0
 20
0.0
 30
0.0
 70
   128
  0
VERTEX
  5
89A
  8
0
  6
CONTINUOUS
 62
     7
 10
566.8711535466
 20
380.8516740244
 30
0.0
  0
VERTEX
  5
89B
  8
0
  6
CONTINUOUS
 62
     7
 10
566.7527638209
 20
380.8739549857
 30
0.0
  0
VERTEX
  5
89C
  8
0
  6
CONTINUOUS
 62
     7
 10
566.6363261473
 20
380.9404309284
 30
0.0
  0
VERTEX
  5
89D
  8
0
  6
CONTINUOUS
 62
     7
 10
566.5237627757
 20
381.0500047546
 30
0.0
  0
VERTEX
  5
89E
  8
0
  6
CONTINUOUS
 62
     7
 10
566.4169363511
 20
381.2008678359
 30
0.0
  0
VERTEX
  5
89F
  8
0
  6
CONTINUOUS
 62
     7
 10
566.3176052106
 20
381.3905298155
 30
0.0
  0
VERTEX
  5
8A0
  8
0
  6
CONTINUOUS
 62
     7
 10
566.2274084819
 20
381.6158614498
 30
0.0
  0
VERTEX
  5
8A1
  8
0
  6
CONTINUOUS
 62
     7
 10
566.1478437317
 20
381.8731411737
 30
0.0
  0
VERTEX
  5
8A2
  8
0
  6
CONTINUOUS
 62
     7
 10
566.080207361
 20
382.1581258815
 30
0.0
  0
SEQEND
  5
A0D
  8
0
  6
CONTINUOUS
 62
     7
  0
LINE
  5
440
  8
0
  6
CONTINUOUS
 62
     7
 10
593.543069793
 20
380.8516740244
 30
0.0
 11
566.8711535466
 21
380.8516740244
 31
0.0
  0
ARC
  5
441
  8
0
  6
CONTINUOUS
 62
     7
 10
598.6545491816
 20
381.6337194656
 30
0.0
 40
3.531936332185304
 50
148.0573509404
 51
168.2714702335
  0
LINE
  5
442
  8
0
  6
CONTINUOUS
 62
     7
 10
595.7444779408
 20
383.6428608191
 30
0.0
 11
595.6574253571
 21
383.5023614955
 31
0.0
  0
LINE
  5
443
  8
0
  6
CONTINUOUS
 62
     7
 10
595.6574253571
 20
435.2009865832
 30
0.0
 11
595.7444779408
 21
435.0604872596
 31
0.0
  0
ARC
  5
444
  8
0
  6
CONTINUOUS
 62
     7
 10
598.6545491816
 20
437.069628613
 30
0.0
 40
3.531936332186285
 50
191.7285297665
 51
211.9426490596
  0
LINE
  5
445
  8
0
  6
CONTINUOUS
 62
     7
 10
566.8711535466
 20
437.8516740542
 30
0.0
 11
593.543069793
 21
437.8516740542
 31
0.0
  0
POLYLINE
  5
446
  8
0
  6
CONTINUOUS
 62
     7
 66
     1
 10
0.0
 20
0.0
 30
0.0
 70
   128
  0
VERTEX
  5
8A3
  8
0
  6
CONTINUOUS
 62
     7
 10
566.080207361
 20
436.5452221971
 30
0.0
  0
VERTEX
  5
8A4
  8
0
  6
CONTINUOUS
 62
     7
 10
566.1478437317
 20
436.830206905
 30
0.0
  0
VERTEX
  5
8A5
  8
0
  6
CONTINUOUS
 62
     7
 10
566.2274084819
 20
437.0874866289
 30
0.0
  0
VERTEX
  5
8A6
  8
0
  6
CONTINUOUS
 62
     7
 10
566.3176052106
 20
437.3128182631
 30
0.0
  0
VERTEX
  5
8A7
  8
0
  6
CONTINUOUS
 62
     7
 10
566.4169363511
 20
437.5024802428
 30
0.0
  0
VERTEX
  5
8A8
  8
0
  6
CONTINUOUS
 62
     7
 10
566.5237627757
 20
437.653343324
 30
0.0
  0
VERTEX
  5
8A9
  8
0
  6
CONTINUOUS
 62
     7
 10
566.6363261473
 20
437.7629171502
 30
0.0
  0
VERTEX
  5
8AA
  8
0
  6
CONTINUOUS
 62
     7
 10
566.7527638209
 20
437.829393093
 30
0.0
  0
VERTEX
  5
8AB
  8
0
  6
CONTINUOUS
 62
     7
 10
566.8711535466
 20
437.8516740542
 30
0.0
  0
SEQEND
  5
A0E
  8
0
  6
CONTINUOUS
 62
     7
  0
ARC
  5
447
  8
0
  6
CONTINUOUS
 62
     7
 10
562.4133270706
 20
437.1534646896
 30
0.0
 40
3.716983991556869
 50
328.3125293881
 51
350.5818360842
  0
LINE
  5
448
  8
0
  6
CONTINUOUS
 62
     7
 10
565.4843769801
 20
435.0516732228
 30
0.0
 11
565.5762053859
 21
435.2009865832
 31
0.0
  0
LINE
  5
449
  8
0
  6
CONTINUOUS
 62
     7
 10
565.5762053859
 20
383.5023614955
 30
0.0
 11
565.4843769801
 21
383.6516748559
 31
0.0
  0
ARC
  5
44A
  8
0
  6
CONTINUOUS
 62
     7
 10
562.4133270706
 20
381.549883389
 30
0.0
 40
3.716983991555905
 50
9.4181639158
 51
31.6874706119
  0
POLYLINE
  5
44B
  8
0
  6
CONTINUOUS
 62
     7
 66
     1
 10
0.0
 20
0.0
 30
0.0
 70
   128
  0
VERTEX
  5
8AC
  8
0
  6
CONTINUOUS
 62
     7
 10
563.9952964914
 20
378.351674546
 30
0.0
  0
VERTEX
  5
8AD
  8
0
  6
CONTINUOUS
 62
     7
 10
564.0307538045
 20
378.1849640798
 30
0.0
  0
VERTEX
  5
8AE
  8
0
  6
CONTINUOUS
 62
     7
 10
564.1583598983
 20
377.7303520035
 30
0.0
  0
VERTEX
  5
8AF
  8
0
  6
CONTINUOUS
 62
     7
 10
564.3138460648
 20
377.3572641802
 30
0.0
  0
VERTEX
  5
8B0
  8
0
  6
CONTINUOUS
 62
     7
 10
564.4912369383
 20
377.0800355267
 30
0.0
  0
VERTEX
  5
8B1
  8
0
  6
CONTINUOUS
 62
     7
 10
564.683722688
 20
376.9093166482
 30
0.0
  0
VERTEX
  5
8B2
  8
0
  6
CONTINUOUS
 62
     7
 10
564.8838974369
 20
376.8516752314
 30
0.0
  0
SEQEND
  5
A0F
  8
0
  6
CONTINUOUS
 62
     7
  0
LINE
  5
44C
  8
0
  6
CONTINUOUS
 62
     7
 10
563.8578332794
 20
382.351673339
 30
0.0
 11
563.8578332794
 21
383.6516748559
 31
0.0
  0
LINE
  5
44D
  8
0
  6
CONTINUOUS
 62
     7
 10
563.8578332794
 20
435.0516732228
 30
0.0
 11
563.8578332794
 21
436.3516747397
 31
0.0
  0
POLYLINE
  5
44E
  8
0
  6
CONTINUOUS
 62
     7
 66
     1
 10
0.0
 20
0.0
 30
0.0
 70
   128
  0
VERTEX
  5
8B3
  8
0
  6
CONTINUOUS
 62
     7
 10
564.8838974369
 20
441.8516728472
 30
0.0
  0
VERTEX
  5
8B4
  8
0
  6
CONTINUOUS
 62
     7
 10
564.683722688
 20
441.7940314305
 30
0.0
  0
VERTEX
  5
8B5
  8
0
  6
CONTINUOUS
 62
     7
 10
564.4912369383
 20
441.6233125519
 30
0.0
  0
VERTEX
  5
8B6
  8
0
  6
CONTINUOUS
 62
     7
 10
564.3138460648
 20
441.3460838985
 30
0.0
  0
VERTEX
  5
8B7
  8
0
  6
CONTINUOUS
 62
     7
 10
564.1583598983
 20
440.9729960751
 30
0.0
  0
VERTEX
  5
8B8
  8
0
  6
CONTINUOUS
 62
     7
 10
564.0307538045
 20
440.5183839988
 30
0.0
  0
VERTEX
  5
8B9
  8
0
  6
CONTINUOUS
 62
     7
 10
563.9952964914
 20
440.3516735327
 30
0.0
  0
SEQEND
  5
A10
  8
0
  6
CONTINUOUS
 62
     7
  0
LINE
  5
44F
  8
0
  6
CONTINUOUS
 62
     7
 10
564.8838974369
 20
441.8516728472
 30
0.0
 11
595.1727650893
 21
441.8516728472
 31
0.0
  0
LINE
  5
450
  8
0
  6
CONTINUOUS
 62
     7
 10
595.4851083291
 20
376.8516752314
 30
0.0
 11
564.8838974369
 21
376.8516752314
 31
0.0
  0
POLYLINE
  5
451
  8
0
  6
CONTINUOUS
 62
     7
 66
     1
 10
0.0
 20
0.0
 30
0.0
 70
   128
  0
VERTEX
  5
8BA
  8
0
  6
CONTINUOUS
 62
     7
 10
565.7389409673
 20
438.3516732049
 30
0.0
  0
VERTEX
  5
8BB
  8
0
  6
CONTINUOUS
 62
     7
 10
565.6868763101
 20
437.5863067251
 30
0.0
  0
VERTEX
  5
8BC
  8
0
  6
CONTINUOUS
 62
     7
 10
565.5385948551
 20
436.9374598753
 30
0.0
  0
VERTEX
  5
8BD
  8
0
  6
CONTINUOUS
 62
     7
 10
565.3166718614
 20
436.5039143157
 30
0.0
  0
VERTEX
  5
8BE
  8
0
  6
CONTINUOUS
 62
     7
 10
565.0549031627
 20
436.3516747397
 30
0.0
  0
SEQEND
  5
A11
  8
0
  6
CONTINUOUS
 62
     7
  0
POLYLINE
  5
452
  8
0
  6
CONTINUOUS
 62
     7
 66
     1
 10
0.0
 20
0.0
 30
0.0
 70
   128
  0
VERTEX
  5
8BF
  8
0
  6
CONTINUOUS
 62
     7
 10
565.0549031627
 20
440.3516735327
 30
0.0
  0
VERTEX
  5
8C0
  8
0
  6
CONTINUOUS
 62
     7
 10
565.3166718614
 20
440.1994339567
 30
0.0
  0
VERTEX
  5
8C1
  8
0
  6
CONTINUOUS
 62
     7
 10
565.5385948551
 20
439.7658883971
 30
0.0
  0
VERTEX
  5
8C2
  8
0
  6
CONTINUOUS
 62
     7
 10
565.6868763101
 20
439.1170415473
 30
0.0
  0
VERTEX
  5
8C3
  8
0
  6
CONTINUOUS
 62
     7
 10
565.7389409673
 20
438.3516732049
 30
0.0
  0
SEQEND
  5
A12
  8
0
  6
CONTINUOUS
 62
     7
  0
POLYLINE
  5
453
  8
0
  6
CONTINUOUS
 62
     7
 66
     1
 10
0.0
 20
0.0
 30
0.0
 70
   128
  0
VERTEX
  5
8C4
  8
0
  6
CONTINUOUS
 62
     7
 10
565.7389409673
 20
380.3516748738
 30
0.0
  0
VERTEX
  5
8C5
  8
0
  6
CONTINUOUS
 62
     7
 10
565.6868763101
 20
379.5863065314
 30
0.0
  0
VERTEX
  5
8C6
  8
0
  6
CONTINUOUS
 62
     7
 10
565.5385948551
 20
378.9374596816
 30
0.0
  0
VERTEX
  5
8C7
  8
0
  6
CONTINUOUS
 62
     7
 10
565.3166718614
 20
378.503914122
 30
0.0
  0
VERTEX
  5
8C8
  8
0
  6
CONTINUOUS
 62
     7
 10
565.0549031627
 20
378.351674546
 30
0.0
  0
SEQEND
  5
A13
  8
0
  6
CONTINUOUS
 62
     7
  0
POLYLINE
  5
454
  8
0
  6
CONTINUOUS
 62
     7
 66
     1
 10
0.0
 20
0.0
 30
0.0
 70
   128
  0
VERTEX
  5
8C9
  8
0
  6
CONTINUOUS
 62
     7
 10
565.0549031627
 20
382.351673339
 30
0.0
  0
VERTEX
  5
8CA
  8
0
  6
CONTINUOUS
 62
     7
 10
565.3166718614
 20
382.199433763
 30
0.0
  0
VERTEX
  5
8CB
  8
0
  6
CONTINUOUS
 62
     7
 10
565.5385948551
 20
381.7658882034
 30
0.0
  0
VERTEX
  5
8CC
  8
0
  6
CONTINUOUS
 62
     7
 10
565.6868763101
 20
381.1170413536
 30
0.0
  0
VERTEX
  5
8CD
  8
0
  6
CONTINUOUS
 62
     7
 10
565.7389409673
 20
380.3516748738
 30
0.0
  0
SEQEND
  5
A14
  8
0
  6
CONTINUOUS
 62
     7
  0
LINE
  5
455
  8
0
  6
CONTINUOUS
 62
     7
 10
567.8936712277
 20
436.0516733867
 30
0.0
 11
592.9818622601
 21
436.0516733867
 31
0.0
  0
LINE
  5
456
  8
0
  6
CONTINUOUS
 62
     7
 10
592.9818622601
 20
382.651674692
 30
0.0
 11
567.8936712277
 21
382.651674692
 31
0.0
  0
POLYLINE
  5
457
  8
0
  6
CONTINUOUS
 62
     7
 66
     1
 10
0.0
 20
0.0
 30
0.0
 70
   128
  0
VERTEX
  5
8CE
  8
0
  6
CONTINUOUS
 62
     7
 10
595.1656870377
 20
388.6516738128
 30
0.0
  0
VERTEX
  5
8CF
  8
0
  6
CONTINUOUS
 62
     7
 10
595.1325021517
 20
387.6097846222
 30
0.0
  0
VERTEX
  5
8D0
  8
0
  6
CONTINUOUS
 62
     7
 10
595.0339756739
 20
386.5995529484
 30
0.0
  0
VERTEX
  5
8D1
  8
0
  6
CONTINUOUS
 62
     7
 10
594.8731027377
 20
385.6516733211
 30
0.0
  0
VERTEX
  5
8D2
  8
0
  6
CONTINUOUS
 62
     7
 10
594.6547560227
 20
384.7949478221
 30
0.0
  0
VERTEX
  5
8D3
  8
0
  6
CONTINUOUS
 62
     7
 10
594.3855963481
 20
384.0554069173
 30
0.0
  0
VERTEX
  5
8D4
  8
0
  6
CONTINUOUS
 62
     7
 10
594.0737746489
 20
383.4555215579
 30
0.0
  0
VERTEX
  5
8D5
  8
0
  6
CONTINUOUS
 62
     7
 10
593.7287680638
 20
383.0135177266
 30
0.0
  0
VERTEX
  5
8D6
  8
0
  6
CONTINUOUS
 62
     7
 10
593.3610819113
 20
382.7428269577
 30
0.0
  0
VERTEX
  5
8D7
  8
0
  6
CONTINUOUS
 62
     7
 10
592.9818622601
 20
382.651674692
 30
0.0
  0
SEQEND
  5
A15
  8
0
  6
CONTINUOUS
 62
     7
  0
LINE
  5
458
  8
0
  6
CONTINUOUS
 62
     7
 10
595.1656870377
 20
430.0516742658
 30
0.0
 11
595.1656870377
 21
388.6516738128
 31
0.0
  0
POLYLINE
  5
459
  8
0
  6
CONTINUOUS
 62
     7
 66
     1
 10
0.0
 20
0.0
 30
0.0
 70
   128
  0
VERTEX
  5
8D8
  8
0
  6
CONTINUOUS
 62
     7
 10
592.9818622601
 20
436.0516733867
 30
0.0
  0
VERTEX
  5
8D9
  8
0
  6
CONTINUOUS
 62
     7
 10
593.4079013598
 20
435.9363849652
 30
0.0
  0
VERTEX
  5
8DA
  8
0
  6
CONTINUOUS
 62
     7
 10
593.8175640834
 20
435.5949509334
 30
0.0
  0
VERTEX
  5
8DB
  8
0
  6
CONTINUOUS
 62
     7
 10
594.1951297057
 20
435.0404917639
 30
0.0
  0
VERTEX
  5
8DC
  8
0
  6
CONTINUOUS
 62
     7
 10
594.5260546935
 20
434.2943142545
 30
0.0
  0
VERTEX
  5
8DD
  8
0
  6
CONTINUOUS
 62
     7
 10
594.7976432574
 20
433.3850956899
 30
0.0
  0
VERTEX
  5
8DE
  8
0
  6
CONTINUOUS
 62
     7
 10
594.9994496834
 20
432.3477737051
 30
0.0
  0
VERTEX
  5
8DF
  8
0
  6
CONTINUOUS
 62
     7
 10
595.1237253678
 20
431.222216357
 30
0.0
  0
VERTEX
  5
8E0
  8
0
  6
CONTINUOUS
 62
     7
 10
595.1656870377
 20
430.0516742658
 30
0.0
  0
SEQEND
  5
A16
  8
0
  6
CONTINUOUS
 62
     7
  0
POLYLINE
  5
45A
  8
0
  6
CONTINUOUS
 62
     7
 66
     1
 10
0.0
 20
0.0
 30
0.0
 70
   128
  0
VERTEX
  5
8E1
  8
0
  6
CONTINUOUS
 62
     7
 10
594.7743378413
 20
436.3516747397
 30
0.0
  0
VERTEX
  5
8E2
  8
0
  6
CONTINUOUS
 62
     7
 10
594.8179088366
 20
436.2085285973
 30
0.0
  0
VERTEX
  5
8E3
  8
0
  6
CONTINUOUS
 62
     7
 10
594.8604963553
 20
436.0290925395
 30
0.0
  0
SEQEND
  5
A17
  8
0
  6
CONTINUOUS
 62
     7
  0
ARC
  5
45B
  8
0
  6
CONTINUOUS
 62
     7
 10
599.5747856102
 20
436.8109907478
 30
0.0
 40
4.778691032752342
 50
189.4171835704
 51
211.6878148288
  0
ARC
  5
45C
  8
0
  6
CONTINUOUS
 62
     7
 10
594.0200990715
 20
433.3751054868
 30
0.0
 40
1.75276694472182
 50
10.3259834566
 51
31.8789822001
  0
ARC
  5
45D
  8
0
  6
CONTINUOUS
 62
     7
 10
594.0200990715
 20
385.3282425918
 30
0.0
 40
1.75276694472182
 50
328.1210177999
 51
349.6740165434
  0
ARC
  5
45E
  8
0
  6
CONTINUOUS
 62
     7
 10
599.5747856102
 20
381.8923573309
 30
0.0
 40
4.778691032751962
 50
148.3121851712
 51
170.5828164296
  0
POLYLINE
  5
45F
  8
0
  6
CONTINUOUS
 62
     7
 66
     1
 10
0.0
 20
0.0
 30
0.0
 70
   128
  0
VERTEX
  5
8E4
  8
0
  6
CONTINUOUS
 62
     7
 10
594.8604963553
 20
382.6742555392
 30
0.0
  0
VERTEX
  5
8E5
  8
0
  6
CONTINUOUS
 62
     7
 10
594.8179088366
 20
382.4948194813
 30
0.0
  0
VERTEX
  5
8E6
  8
0
  6
CONTINUOUS
 62
     7
 10
594.7743378413
 20
382.351673339
 30
0.0
  0
SEQEND
  5
A18
  8
0
  6
CONTINUOUS
 62
     7
  0
LINE
  5
460
  8
0
  6
CONTINUOUS
 62
     7
 10
593.7529377473
 20
381.8516741883
 30
0.0
 11
566.8711535466
 21
381.8516741883
 31
0.0
  0
POLYLINE
  5
461
  8
0
  6
CONTINUOUS
 62
     7
 66
     1
 10
0.0
 20
0.0
 30
0.0
 70
   128
  0
VERTEX
  5
8E7
  8
0
  6
CONTINUOUS
 62
     7
 10
566.8711535466
 20
381.8516741883
 30
0.0
  0
VERTEX
  5
8E8
  8
0
  6
CONTINUOUS
 62
     7
 10
566.7966104877
 20
381.8657036316
 30
0.0
  0
VERTEX
  5
8E9
  8
0
  6
CONTINUOUS
 62
     7
 10
566.7233042252
 20
381.9075591308
 30
0.0
  0
VERTEX
  5
8EA
  8
0
  6
CONTINUOUS
 62
     7
 10
566.652426852
 20
381.9765496444
 30
0.0
  0
VERTEX
  5
8EB
  8
0
  6
CONTINUOUS
 62
     7
 10
566.585170461
 20
382.0715370965
 30
0.0
  0
VERTEX
  5
8EC
  8
0
  6
CONTINUOUS
 62
     7
 10
566.5226228368
 20
382.1909531396
 30
0.0
  0
VERTEX
  5
8ED
  8
0
  6
CONTINUOUS
 62
     7
 10
566.4658345115
 20
382.332828958
 30
0.0
  0
VERTEX
  5
8EE
  8
0
  6
CONTINUOUS
 62
     7
 10
566.4157368076
 20
382.4948194813
 30
0.0
  0
VERTEX
  5
8EF
  8
0
  6
CONTINUOUS
 62
     7
 10
566.3731492889
 20
382.6742555392
 30
0.0
  0
SEQEND
  5
A19
  8
0
  6
CONTINUOUS
 62
     7
  0
ARC
  5
462
  8
0
  6
CONTINUOUS
 62
     7
 10
559.6938008944
 20
381.342947082
 30
0.0
 40
6.81073249979607
 50
11.2723060144
 51
19.8149718987
  0
ARC
  5
463
  8
0
  6
CONTINUOUS
 62
     7
 10
559.6938008944
 20
437.3604009967
 30
0.0
 40
6.810732499796156
 50
340.1850281013
 51
348.7276939856
  0
POLYLINE
  5
464
  8
0
  6
CONTINUOUS
 62
     7
 66
     1
 10
0.0
 20
0.0
 30
0.0
 70
   128
  0
VERTEX
  5
8F0
  8
0
  6
CONTINUOUS
 62
     7
 10
566.3731492889
 20
436.0290925395
 30
0.0
  0
VERTEX
  5
8F1
  8
0
  6
CONTINUOUS
 62
     7
 10
566.4157368076
 20
436.2085285973
 30
0.0
  0
VERTEX
  5
8F2
  8
0
  6
CONTINUOUS
 62
     7
 10
566.4658345115
 20
436.3705191207
 30
0.0
  0
VERTEX
  5
8F3
  8
0
  6
CONTINUOUS
 62
     7
 10
566.5226228368
 20
436.512394939
 30
0.0
  0
VERTEX
  5
8F4
  8
0
  6
CONTINUOUS
 62
     7
 10
566.585170461
 20
436.6318109822
 30
0.0
  0
VERTEX
  5
8F5
  8
0
  6
CONTINUOUS
 62
     7
 10
566.652426852
 20
436.7267984342
 30
0.0
  0
VERTEX
  5
8F6
  8
0
  6
CONTINUOUS
 62
     7
 10
566.7233042252
 20
436.7957889479
 30
0.0
  0
VERTEX
  5
8F7
  8
0
  6
CONTINUOUS
 62
     7
 10
566.7966104877
 20
436.8376444471
 30
0.0
  0
VERTEX
  5
8F8
  8
0
  6
CONTINUOUS
 62
     7
 10
566.8711535466
 20
436.8516738903
 30
0.0
  0
SEQEND
  5
A1A
  8
0
  6
CONTINUOUS
 62
     7
  0
LINE
  5
465
  8
0
  6
CONTINUOUS
 62
     7
 10
566.8711535466
 20
436.8516738903
 30
0.0
 11
593.7529377473
 21
436.8516738903
 31
0.0
  0
LINE
  5
466
  8
0
  6
CONTINUOUS
 62
     7
 10
595.1656870377
 20
388.6516738128
 30
0.0
 11
594.2259900105
 21
388.6516738128
 31
0.0
  0
LINE
  5
467
  8
0
  6
CONTINUOUS
 62
     7
 10
594.2259900105
 20
388.6516738128
 30
0.0
 11
594.2259900105
 21
430.0516742658
 31
0.0
  0
LINE
  5
468
  8
0
  6
CONTINUOUS
 62
     7
 10
595.1656870377
 20
430.0516742658
 30
0.0
 11
594.2259900105
 21
430.0516742658
 31
0.0
  0
POLYLINE
  5
469
  8
0
  6
CONTINUOUS
 62
     7
 66
     1
 10
0.0
 20
0.0
 30
0.0
 70
   128
  0
VERTEX
  5
8F9
  8
0
  6
CONTINUOUS
 62
     7
 10
594.2259900105
 20
430.0516742658
 30
0.0
  0
VERTEX
  5
8FA
  8
0
  6
CONTINUOUS
 62
     7
 10
594.1840283406
 20
431.0271247667
 30
0.0
  0
VERTEX
  5
8FB
  8
0
  6
CONTINUOUS
 62
     7
 10
594.0597526562
 20
431.9650913965
 30
0.0
  0
VERTEX
  5
8FC
  8
0
  6
CONTINUOUS
 62
     7
 10
593.8579462302
 20
432.8295245212
 30
0.0
  0
VERTEX
  5
8FD
  8
0
  6
CONTINUOUS
 62
     7
 10
593.5863576663
 20
433.5872075897
 30
0.0
  0
VERTEX
  5
8FE
  8
0
  6
CONTINUOUS
 62
     7
 10
593.2554326785
 20
434.2090218705
 30
0.0
  0
VERTEX
  5
8FF
  8
0
  6
CONTINUOUS
 62
     7
 10
592.8778819573
 20
434.6710714888
 30
0.0
  0
VERTEX
  5
900
  8
0
  6
CONTINUOUS
 62
     7
 10
592.4682043326
 20
434.9555998486
 30
0.0
  0
VERTEX
  5
901
  8
0
  6
CONTINUOUS
 62
     7
 10
592.0421652329
 20
435.0516732228
 30
0.0
  0
SEQEND
  5
A1B
  8
0
  6
CONTINUOUS
 62
     7
  0
ARC
  5
46A
  8
0
  6
CONTINUOUS
 62
     7
 10
592.0110465623
 20
436.0224306012
 30
0.0
 40
0.9712560216310914
 50
271.8360490297
 51
1.7253344035
  0
ARC
  5
46B
  8
0
  6
CONTINUOUS
 62
     7
 10
592.0110465623
 20
382.6809174774
 30
0.0
 40
0.9712560216312051
 50
358.2746655965
 51
88.1639509703
  0
POLYLINE
  5
46C
  8
0
  6
CONTINUOUS
 62
     7
 66
     1
 10
0.0
 20
0.0
 30
0.0
 70
   128
  0
VERTEX
  5
902
  8
0
  6
CONTINUOUS
 62
     7
 10
592.0421652329
 20
383.6516748559
 30
0.0
  0
VERTEX
  5
903
  8
0
  6
CONTINUOUS
 62
     7
 10
592.4213848841
 20
383.7276353878
 30
0.0
  0
VERTEX
  5
904
  8
0
  6
CONTINUOUS
 62
     7
 10
592.7890710366
 20
383.9532110285
 30
0.0
  0
VERTEX
  5
905
  8
0
  6
CONTINUOUS
 62
     7
 10
593.1340776217
 20
384.3215472442
 30
0.0
  0
VERTEX
  5
906
  8
0
  6
CONTINUOUS
 62
     7
 10
593.4458993209
 20
384.8214513999
 30
0.0
  0
VERTEX
  5
907
  8
0
  6
CONTINUOUS
 62
     7
 10
593.7150738967
 20
385.4377354872
 30
0.0
  0
VERTEX
  5
908
  8
0
  6
CONTINUOUS
 62
     7
 10
593.9334057105
 20
386.1516743344
 30
0.0
  0
VERTEX
  5
909
  8
0
  6
CONTINUOUS
 62
     7
 10
594.0942935479
 20
386.9415737134
 30
0.0
  0
VERTEX
  5
90A
  8
0
  6
CONTINUOUS
 62
     7
 10
594.1928051245
 20
387.7834334415
 30
0.0
  0
VERTEX
  5
90B
  8
0
  6
CONTINUOUS
 62
     7
 10
594.2259900105
 20
388.6516738128
 30
0.0
  0
SEQEND
  5
A1C
  8
0
  6
CONTINUOUS
 62
     7
  0
LINE
  5
46D
  8
0
  6
CONTINUOUS
 62
     7
 10
563.7363068593
 20
388.6516738128
 30
0.0
 11
594.2259900105
 21
388.6516738128
 31
0.0
  0
LINE
  5
46E
  8
0
  6
CONTINUOUS
 62
     7
 10
563.7363068593
 20
430.0516742658
 30
0.0
 11
563.7363068593
 21
388.6516738128
 31
0.0
  0
LINE
  5
46F
  8
0
  6
CONTINUOUS
 62
     7
 10
594.2259900105
 20
430.0516742658
 30
0.0
 11
563.7363068593
 21
430.0516742658
 31
0.0
  0
CIRCLE
  5
470
  8
0
  6
CONTINUOUS
 62
     7
 10
578.7363101018
 20
409.3516740393
 30
0.0
 40
11.0
  0
LINE
  5
471
  8
0
  6
CONTINUOUS
 62
     7
 10
563.7363068593
 20
435.0516732228
 30
0.0
 11
563.7363068593
 21
430.0516742658
 31
0.0
  0
LINE
  5
472
  8
0
  6
CONTINUOUS
 62
     7
 10
563.7363068593
 20
435.0516732228
 30
0.0
 11
592.0421652329
 21
435.0516732228
 31
0.0
  0
POLYLINE
  5
473
  8
0
  6
CONTINUOUS
 62
     7
 66
     1
 10
0.0
 20
0.0
 30
0.0
 70
   128
  0
VERTEX
  5
90C
  8
0
  6
CONTINUOUS
 62
     7
 10
563.7363068593
 20
435.0516732228
 30
0.0
  0
VERTEX
  5
90D
  8
0
  6
CONTINUOUS
 62
     7
 10
563.346127404
 20
435.0132449907
 30
0.0
  0
VERTEX
  5
90E
  8
0
  6
CONTINUOUS
 62
     7
 10
563.3363075388
 20
435.0112649989
 30
0.0
  0
SEQEND
  5
A1D
  8
0
  6
CONTINUOUS
 62
     7
  0
LINE
  5
474
  8
0
  6
CONTINUOUS
 62
     7
 10
563.7363068593
 20
388.6516738128
 30
0.0
 11
563.7363068593
 21
383.6516748559
 31
0.0
  0
POLYLINE
  5
475
  8
0
  6
CONTINUOUS
 62
     7
 66
     1
 10
0.0
 20
0.0
 30
0.0
 70
   128
  0
VERTEX
  5
90F
  8
0
  6
CONTINUOUS
 62
     7
 10
563.3363075388
 20
383.6920830798
 30
0.0
  0
VERTEX
  5
910
  8
0
  6
CONTINUOUS
 62
     7
 10
563.346127404
 20
383.690103088
 30
0.0
  0
VERTEX
  5
911
  8
0
  6
CONTINUOUS
 62
     7
 10
563.7363068593
 20
383.6516748559
 30
0.0
  0
SEQEND
  5
A1E
  8
0
  6
CONTINUOUS
 62
     7
  0
LINE
  5
476
  8
0
  6
CONTINUOUS
 62
     7
 10
592.0421652329
 20
383.6516748559
 30
0.0
 11
563.7363068593
 21
383.6516748559
 31
0.0
  0
ARC
  5
477
  8
0
  6
CONTINUOUS
 62
     7
 10
567.5133792292
 20
437.3370495001
 30
0.0
 40
0.4856250736429878
 50
271.8365784994
 51
1.725818264
  0
ARC
  5
478
  8
0
  6
CONTINUOUS
 62
     7
 10
567.5133811623
 20
437.3663003154
 30
0.0
 40
0.4856231417032771
 50
358.2741738876
 51
88.1636423799
  0
ARC
  5
479
  8
0
  6
CONTINUOUS
 62
     7
 10
567.5133792292
 20
381.3662985786
 30
0.0
 40
0.4856250736430588
 50
358.274181736
 51
88.1634215006
  0
ARC
  5
47A
  8
0
  6
CONTINUOUS
 62
     7
 10
567.5133811623
 20
381.3370477633
 30
0.0
 40
0.4856231417032248
 50
271.8363576201
 51
1.7258261124
  0
ARC
  5
47B
  8
0
  6
CONTINUOUS
 62
     7
 10
566.9228516578
 20
436.022434008
 30
0.0
 40
0.971259789460914
 50
271.8367101893
 51
1.7251266497
  0
ARC
  5
47C
  8
0
  6
CONTINUOUS
 62
     7
 10
566.9228516578
 20
382.6809140707
 30
0.0
 40
0.9712597894610275
 50
358.2748733503
 51
88.1632898107
  0
POLYLINE
  5
47D
  8
0
  6
CONTINUOUS
 62
     7
 66
     1
 10
0.0
 20
0.0
 30
0.0
 70
   128
  0
VERTEX
  5
912
  8
0
  6
CONTINUOUS
 62
     7
 10
594.2053817046
 20
378.351674546
 30
0.0
  0
VERTEX
  5
913
  8
0
  6
CONTINUOUS
 62
     7
 10
593.9436130059
 20
378.503914122
 30
0.0
  0
VERTEX
  5
914
  8
0
  6
CONTINUOUS
 62
     7
 10
593.7216900122
 20
378.9374596816
 30
0.0
  0
VERTEX
  5
915
  8
0
  6
CONTINUOUS
 62
     7
 10
593.5734085572
 20
379.5863065314
 30
0.0
  0
VERTEX
  5
916
  8
0
  6
CONTINUOUS
 62
     7
 10
593.5213439
 20
380.3516748738
 30
0.0
  0
VERTEX
  5
917
  8
0
  6
CONTINUOUS
 62
     7
 10
593.5734085572
 20
381.1170413536
 30
0.0
  0
VERTEX
  5
918
  8
0
  6
CONTINUOUS
 62
     7
 10
593.7216900122
 20
381.7658882034
 30
0.0
  0
VERTEX
  5
919
  8
0
  6
CONTINUOUS
 62
     7
 10
593.9436130059
 20
382.199433763
 30
0.0
  0
VERTEX
  5
91A
  8
0
  6
CONTINUOUS
 62
     7
 10
594.2053817046
 20
382.351673339
 30
0.0
  0
VERTEX
  5
91B
  8
0
  6
CONTINUOUS
 62
     7
 10
594.4671504033
 20
382.199433763
 30
0.0
  0
VERTEX
  5
91C
  8
0
  6
CONTINUOUS
 62
     7
 10
594.6890733969
 20
381.7658882034
 30
0.0
  0
VERTEX
  5
91D
  8
0
  6
CONTINUOUS
 62
     7
 10
594.837354852
 20
381.1170413536
 30
0.0
  0
VERTEX
  5
91E
  8
0
  6
CONTINUOUS
 62
     7
 10
594.8894195092
 20
380.3516748738
 30
0.0
  0
VERTEX
  5
91F
  8
0
  6
CONTINUOUS
 62
     7
 10
594.837354852
 20
379.5863065314
 30
0.0
  0
VERTEX
  5
920
  8
0
  6
CONTINUOUS
 62
     7
 10
594.6890733969
 20
378.9374596816
 30
0.0
  0
VERTEX
  5
921
  8
0
  6
CONTINUOUS
 62
     7
 10
594.4671504033
 20
378.503914122
 30
0.0
  0
VERTEX
  5
922
  8
0
  6
CONTINUOUS
 62
     7
 10
594.2053817046
 20
378.351674546
 30
0.0
  0
SEQEND
  5
A1F
  8
0
  6
CONTINUOUS
 62
     7
  0
POLYLINE
  5
47E
  8
0
  6
CONTINUOUS
 62
     7
 66
     1
 10
0.0
 20
0.0
 30
0.0
 70
   128
  0
VERTEX
  5
923
  8
0
  6
CONTINUOUS
 62
     7
 10
601.6514919532
 20
384.1972622466
 30
0.0
  0
VERTEX
  5
924
  8
0
  6
CONTINUOUS
 62
     7
 10
601.9747726453
 20
384.0164943975
 30
0.0
  0
VERTEX
  5
925
  8
0
  6
CONTINUOUS
 62
     7
 10
602.3421756756
 20
383.4691561204
 30
0.0
  0
VERTEX
  5
926
  8
0
  6
CONTINUOUS
 62
     7
 10
602.6337466967
 20
382.6166569632
 30
0.0
  0
VERTEX
  5
927
  8
0
  6
CONTINUOUS
 62
     7
 10
602.8209499848
 20
381.5424471539
 30
0.0
  0
VERTEX
  5
928
  8
0
  6
CONTINUOUS
 62
     7
 10
602.8854571116
 20
380.3516748738
 30
0.0
  0
VERTEX
  5
929
  8
0
  6
CONTINUOUS
 62
     7
 10
602.8209499848
 20
379.1609025937
 30
0.0
  0
VERTEX
  5
92A
  8
0
  6
CONTINUOUS
 62
     7
 10
602.6337466967
 20
378.0866909218
 30
0.0
  0
VERTEX
  5
92B
  8
0
  6
CONTINUOUS
 62
     7
 10
602.3421756756
 20
377.2341917646
 30
0.0
  0
VERTEX
  5
92C
  8
0
  6
CONTINUOUS
 62
     7
 10
601.9747726453
 20
376.6868534875
 30
0.0
  0
VERTEX
  5
92D
  8
0
  6
CONTINUOUS
 62
     7
 10
601.692708565
 20
376.5156801235
 30
0.0
  0
SEQEND
  5
A20
  8
0
  6
CONTINUOUS
 62
     7
  0
ARC
  5
47F
  8
0
  6
CONTINUOUS
 62
     7
 10
560.042392293
 20
438.3516732049
 30
0.0
 40
3.780879050844003
 50
330.5988022273
 51
29.4011977727
  0
POLYLINE
  5
480
  8
0
  6
CONTINUOUS
 62
     7
 66
     1
 10
0.0
 20
0.0
 30
0.0
 70
   128
  0
VERTEX
  5
92E
  8
0
  6
CONTINUOUS
 62
     7
 10
594.2053817046
 20
436.3516747397
 30
0.0
  0
VERTEX
  5
92F
  8
0
  6
CONTINUOUS
 62
     7
 10
593.9436130059
 20
436.5039143157
 30
0.0
  0
VERTEX
  5
930
  8
0
  6
CONTINUOUS
 62
     7
 10
593.7216900122
 20
436.9374598753
 30
0.0
  0
VERTEX
  5
931
  8
0
  6
CONTINUOUS
 62
     7
 10
593.5734085572
 20
437.5863067251
 30
0.0
  0
VERTEX
  5
932
  8
0
  6
CONTINUOUS
 62
     7
 10
593.5213439
 20
438.3516732049
 30
0.0
  0
VERTEX
  5
933
  8
0
  6
CONTINUOUS
 62
     7
 10
593.5734085572
 20
439.1170415473
 30
0.0
  0
VERTEX
  5
934
  8
0
  6
CONTINUOUS
 62
     7
 10
593.7216900122
 20
439.7658883971
 30
0.0
  0
VERTEX
  5
935
  8
0
  6
CONTINUOUS
 62
     7
 10
593.9436130059
 20
440.1994339567
 30
0.0
  0
VERTEX
  5
936
  8
0
  6
CONTINUOUS
 62
     7
 10
594.2053817046
 20
440.3516735327
 30
0.0
  0
VERTEX
  5
937
  8
0
  6
CONTINUOUS
 62
     7
 10
594.4671504033
 20
440.1994339567
 30
0.0
  0
VERTEX
  5
938
  8
0
  6
CONTINUOUS
 62
     7
 10
594.6890733969
 20
439.7658883971
 30
0.0
  0
VERTEX
  5
939
  8
0
  6
CONTINUOUS
 62
     7
 10
594.837354852
 20
439.1170415473
 30
0.0
  0
VERTEX
  5
93A
  8
0
  6
CONTINUOUS
 62
     7
 10
594.8894195092
 20
438.3516732049
 30
0.0
  0
VERTEX
  5
93B
  8
0
  6
CONTINUOUS
 62
     7
 10
594.837354852
 20
437.5863067251
 30
0.0
  0
VERTEX
  5
93C
  8
0
  6
CONTINUOUS
 62
     7
 10
594.6890733969
 20
436.9374598753
 30
0.0
  0
VERTEX
  5
93D
  8
0
  6
CONTINUOUS
 62
     7
 10
594.4671504033
 20
436.5039143157
 30
0.0
  0
VERTEX
  5
93E
  8
0
  6
CONTINUOUS
 62
     7
 10
594.2053817046
 20
436.3516747397
 30
0.0
  0
SEQEND
  5
A21
  8
0
  6
CONTINUOUS
 62
     7
  0
POLYLINE
  5
481
  8
0
  6
CONTINUOUS
 62
     7
 66
     1
 10
0.0
 20
0.0
 30
0.0
 70
   128
  0
VERTEX
  5
93F
  8
0
  6
CONTINUOUS
 62
     7
 10
601.6514919532
 20
442.1972643029
 30
0.0
  0
VERTEX
  5
940
  8
0
  6
CONTINUOUS
 62
     7
 10
601.9747726453
 20
442.0164945912
 30
0.0
  0
VERTEX
  5
941
  8
0
  6
CONTINUOUS
 62
     7
 10
602.3421756756
 20
441.4691563141
 30
0.0
  0
VERTEX
  5
942
  8
0
  6
CONTINUOUS
 62
     7
 10
602.6337466967
 20
440.6166571569
 30
0.0
  0
VERTEX
  5
943
  8
0
  6
CONTINUOUS
 62
     7
 10
602.8209499848
 20
439.542445485
 30
0.0
  0
VERTEX
  5
944
  8
0
  6
CONTINUOUS
 62
     7
 10
602.8854571116
 20
438.3516732049
 30
0.0
  0
VERTEX
  5
945
  8
0
  6
CONTINUOUS
 62
     7
 10
602.8209499848
 20
437.1609009248
 30
0.0
  0
VERTEX
  5
946
  8
0
  6
CONTINUOUS
 62
     7
 10
602.6337466967
 20
436.0866911155
 30
0.0
  0
VERTEX
  5
947
  8
0
  6
CONTINUOUS
 62
     7
 10
602.3421756756
 20
435.2341919583
 30
0.0
  0
VERTEX
  5
948
  8
0
  6
CONTINUOUS
 62
     7
 10
601.9747726453
 20
434.6868536812
 30
0.0
  0
VERTEX
  5
949
  8
0
  6
CONTINUOUS
 62
     7
 10
601.692708565
 20
434.5156821799
 30
0.0
  0
SEQEND
  5
A22
  8
0
  6
CONTINUOUS
 62
     7
  0
ARC
  5
482
  8
0
  6
CONTINUOUS
 62
     7
 10
560.042392293
 20
380.3516748738
 30
0.0
 40
3.780879050844031
 50
330.5988022273
 51
29.4011977727
  0
LINE
  5
483
  8
0
  6
CONTINUOUS
 62
     7
 10
523.1305792761
 20
355.0751406145
 30
0.0
 11
517.2582104635
 21
350.9264822495
 31
0.0
  0
LINE
  5
484
  8
0
  6
CONTINUOUS
 62
     7
 10
517.2582104635
 20
350.9264822495
 30
0.0
 11
510.7291810048
 21
353.9377722335
 31
0.0
  0
LINE
  5
485
  8
0
  6
CONTINUOUS
 62
     7
 10
510.7291810048
 20
353.9377722335
 30
0.0
 11
510.0725240839
 21
361.0977243077
 31
0.0
  0
LINE
  5
486
  8
0
  6
CONTINUOUS
 62
     7
 10
515.9448928964
 20
365.2463826728
 30
0.0
 11
522.4739223552
 21
362.2350926888
 31
0.0
  0
LINE
  5
487
  8
0
  6
CONTINUOUS
 62
     7
 10
522.4739223552
 20
362.2350926888
 30
0.0
 11
523.1305792761
 21
355.0751406145
 31
0.0
  0
LINE
  5
488
  8
0
  6
CONTINUOUS
 62
     7
 10
510.0725240839
 20
361.0977243077
 30
0.0
 11
515.9448928964
 21
365.2463826728
 31
0.0
  0
ARC
  5
489
  8
0
  6
CONTINUOUS
 62
     7
 10
516.6015517378
 20
358.0864324033
 30
0.0
 40
7.189999999999974
 50
155.240102306
 51
215.240102306
  0
ARC
  5
48A
  8
0
  6
CONTINUOUS
 62
     7
 10
516.6015517378
 20
358.0864324033
 30
0.0
 40
7.189999999999971
 50
215.240102306
 51
275.240102306
  0
ARC
  5
48B
  8
0
  6
CONTINUOUS
 62
     7
 10
516.6015517378
 20
358.0864324033
 30
0.0
 40
7.190000000000018
 50
35.240102306
 51
95.240102306
  0
ARC
  5
48C
  8
0
  6
CONTINUOUS
 62
     7
 10
516.6015517378
 20
358.0864324033
 30
0.0
 40
7.190000000000018
 50
335.240102306
 51
35.240102306
  0
ARC
  5
48D
  8
0
  6
CONTINUOUS
 62
     7
 10
516.6015517378
 20
358.0864324033
 30
0.0
 40
7.190000000000015
 50
95.240102306
 51
155.240102306
  0
ARC
  5
48E
  8
0
  6
CONTINUOUS
 62
     7
 10
516.6015517378
 20
358.0864324033
 30
0.0
 40
7.189999999999974
 50
275.240102306
 51
335.240102306
  0
LINE
  5
48F
  8
0
  6
CONTINUOUS
 62
     7
 10
421.2310187352
 20
358.7430912447
 30
0.0
 11
418.2197287512
 21
352.2140617859
 31
0.0
  0
LINE
  5
490
  8
0
  6
CONTINUOUS
 62
     7
 10
418.2197287512
 20
352.2140617859
 30
0.0
 11
411.0597766769
 21
351.557404865
 31
0.0
  0
LINE
  5
491
  8
0
  6
CONTINUOUS
 62
     7
 10
411.0597766769
 20
351.557404865
 30
0.0
 11
406.9111183119
 21
357.4297736776
 31
0.0
  0
LINE
  5
492
  8
0
  6
CONTINUOUS
 62
     7
 10
406.9111183119
 20
357.4297736776
 30
0.0
 11
409.9224082959
 21
363.9588031363
 31
0.0
  0
LINE
  5
493
  8
0
  6
CONTINUOUS
 62
     7
 10
409.9224082959
 20
363.9588031363
 30
0.0
 11
417.0823603702
 21
364.6154600572
 31
0.0
  0
LINE
  5
494
  8
0
  6
CONTINUOUS
 62
     7
 10
417.0823603702
 20
364.6154600572
 30
0.0
 11
421.2310187352
 21
358.7430912447
 31
0.0
  0
ARC
  5
495
  8
0
  6
CONTINUOUS
 62
     7
 10
414.0710684657
 20
358.0864324033
 30
0.0
 40
7.190000000000015
 50
5.240102306
 51
65.240102306
  0
ARC
  5
496
  8
0
  6
CONTINUOUS
 62
     7
 10
414.0710684657
 20
358.0864324033
 30
0.0
 40
7.19000000000005
 50
305.240102306
 51
5.240102306
  0
ARC
  5
497
  8
0
  6
CONTINUOUS
 62
     7
 10
414.0710684657
 20
358.0864324033
 30
0.0
 40
7.189999999999971
 50
125.240102306
 51
185.240102306
  0
ARC
  5
498
  8
0
  6
CONTINUOUS
 62
     7
 10
414.0710684657
 20
358.0864324033
 30
0.0
 40
7.189999999999993
 50
65.240102306
 51
125.240102306
  0
ARC
  5
499
  8
0
  6
CONTINUOUS
 62
     7
 10
414.0710684657
 20
358.0864324033
 30
0.0
 40
7.190000000000049
 50
185.240102306
 51
245.240102306
  0
ARC
  5
49A
  8
0
  6
CONTINUOUS
 62
     7
 10
414.0710684657
 20
358.0864324033
 30
0.0
 40
7.19000000000005
 50
245.240102306
 51
305.240102306
  0
LINE
  5
49B
  8
0
  6
CONTINUOUS
 62
     7
 10
523.7615018916
 20
461.2735744011
 30
0.0
 11
520.7502119076
 21
454.7445449424
 31
0.0
  0
LINE
  5
49C
  8
0
  6
CONTINUOUS
 62
     7
 10
520.7502119076
 20
454.7445449424
 30
0.0
 11
513.5902598334
 21
454.0878880214
 31
0.0
  0
LINE
  5
49D
  8
0
  6
CONTINUOUS
 62
     7
 10
509.4416014683
 20
459.960256834
 30
0.0
 11
512.4528914523
 21
466.4892862928
 31
0.0
  0
LINE
  5
49E
  8
0
  6
CONTINUOUS
 62
     7
 10
512.4528914523
 20
466.4892862928
 30
0.0
 11
519.6128435266
 21
467.1459432137
 31
0.0
  0
LINE
  5
49F
  8
0
  6
CONTINUOUS
 62
     7
 10
513.5902598334
 20
454.0878880214
 30
0.0
 11
509.4416014683
 21
459.960256834
 31
0.0
  0
LINE
  5
4A0
  8
0
  6
CONTINUOUS
 62
     7
 10
519.6128435266
 20
467.1459432137
 30
0.0
 11
523.7615018916
 21
461.2735744011
 31
0.0
  0
ARC
  5
4A1
  8
0
  6
CONTINUOUS
 62
     7
 10
516.6015517378
 20
460.6169156754
 30
0.0
 40
7.189999999999974
 50
65.240102306
 51
125.240102306
  0
ARC
  5
4A2
  8
0
  6
CONTINUOUS
 62
     7
 10
516.6015517378
 20
460.6169156754
 30
0.0
 40
7.190000000000077
 50
125.240102306
 51
185.240102306
  0
ARC
  5
4A3
  8
0
  6
CONTINUOUS
 62
     7
 10
516.6015517378
 20
460.6169156754
 30
0.0
 40
7.189999999999974
 50
5.240102306
 51
65.240102306
  0
ARC
  5
4A4
  8
0
  6
CONTINUOUS
 62
     7
 10
516.6015517378
 20
460.6169156754
 30
0.0
 40
7.190000000000077
 50
185.240102306
 51
245.240102306
  0
ARC
  5
4A5
  8
0
  6
CONTINUOUS
 62
     7
 10
516.6015517378
 20
460.6169156754
 30
0.0
 40
7.190000000000073
 50
245.240102306
 51
305.240102306
  0
ARC
  5
4A6
  8
0
  6
CONTINUOUS
 62
     7
 10
516.6015517378
 20
460.6169156754
 30
0.0
 40
7.190000000000018
 50
305.240102306
 51
5.240102306
  0
LINE
  5
4A7
  8
0
  6
CONTINUOUS
 62
     7
 10
420.6000961197
 20
457.6056237709
 30
0.0
 11
414.7277273071
 21
453.4569654059
 31
0.0
  0
LINE
  5
4A8
  8
0
  6
CONTINUOUS
 62
     7
 10
414.7277273071
 20
453.4569654059
 30
0.0
 11
408.1986978483
 21
456.4682553899
 31
0.0
  0
LINE
  5
4A9
  8
0
  6
CONTINUOUS
 62
     7
 10
419.9434391988
 20
464.7655758452
 30
0.0
 11
420.6000961197
 21
457.6056237709
 31
0.0
  0
LINE
  5
4AA
  8
0
  6
CONTINUOUS
 62
     7
 10
407.5420409274
 20
463.6282074642
 30
0.0
 11
413.41440974
 21
467.7768658292
 31
0.0
  0
LINE
  5
4AB
  8
0
  6
CONTINUOUS
 62
     7
 10
413.41440974
 20
467.7768658292
 30
0.0
 11
419.9434391988
 21
464.7655758452
 31
0.0
  0
LINE
  5
4AC
  8
0
  6
CONTINUOUS
 62
     7
 10
408.1986978483
 20
456.4682553899
 30
0.0
 11
407.5420409274
 21
463.6282074642
 31
0.0
  0
ARC
  5
4AD
  8
0
  6
CONTINUOUS
 62
     7
 10
414.0710684657
 20
460.6169156754
 30
0.0
 40
7.189999999999998
 50
335.240102306
 51
35.240102306
  0
ARC
  5
4AE
  8
0
  6
CONTINUOUS
 62
     7
 10
414.0710684657
 20
460.6169156754
 30
0.0
 40
7.190000000000025
 50
155.240102306
 51
215.240102306
  0
ARC
  5
4AF
  8
0
  6
CONTINUOUS
 62
     7
 10
414.0710684657
 20
460.6169156754
 30
0.0
 40
7.190000000000015
 50
215.240102306
 51
275.240102306
  0
ARC
  5
4B0
  8
0
  6
CONTINUOUS
 62
     7
 10
414.0710684657
 20
460.6169156754
 30
0.0
 40
7.190000000000025
 50
95.240102306
 51
155.240102306
  0
ARC
  5
4B1
  8
0
  6
CONTINUOUS
 62
     7
 10
414.0710684657
 20
460.6169156754
 30
0.0
 40
7.190000000000015
 50
275.240102306
 51
335.240102306
  0
ARC
  5
4B2
  8
0
  6
CONTINUOUS
 62
     7
 10
414.0710684657
 20
460.6169156754
 30
0.0
 40
7.189999999999985
 50
35.240102306
 51
95.240102306
  0
ARC
  5
4B3
  8
0
  6
CONTINUOUS
 62
     7
 10
465.3363101018
 20
448.351675106
 30
0.0
 40
7.000000216066956
 50
359.9999978555
 51
180.0000021445
  0
ARC
  5
4B4
  8
0
  6
CONTINUOUS
 62
     7
 10
465.3363101018
 20
457.3516108049
 30
0.0
 40
7.000000216356347
 50
0.0005209963
 51
179.9994790037
  0
LINE
  5
4B5
  8
0
  6
CONTINUOUS
 62
     7
 10
458.3363098857
 20
457.3516744566
 30
0.0
 11
458.3363098857
 21
448.351674844
 31
0.0
  0
LINE
  5
4B6
  8
0
  6
CONTINUOUS
 62
     7
 10
472.3363103178
 20
448.351674844
 30
0.0
 11
472.3363103178
 21
457.3516744566
 31
0.0
  0
ARC
  5
4B7
  8
0
  6
CONTINUOUS
 62
     7
 10
477.3363101018
 20
443.2927995363
 30
0.0
 40
4.999999999999969
 50
180.0
 51
250.5287793655
  0
ARC
  5
4B8
  8
0
  6
CONTINUOUS
 62
     7
 10
465.3363101018
 20
409.3516740393
 30
0.0
 40
31.00000000000004
 50
349.4712206345
 51
70.5287793655
  0
ARC
  5
4B9
  8
0
  6
CONTINUOUS
 62
     7
 10
500.7301870152
 20
402.7734161363
 30
0.0
 40
4.999999999999967
 50
169.4712206345
 51
240.0
  0
LINE
  5
4BA
  8
0
  6
CONTINUOUS
 62
     7
 10
502.6113003326
 20
395.9138515782
 30
0.0
 11
498.2301875782
 21
398.4432892319
 31
0.0
  0
ARC
  5
4BB
  8
0
  6
CONTINUOUS
 62
     7
 10
499.1113009285
 20
389.8516734994
 30
0.0
 40
6.999999920529725
 50
240.0000007518
 51
60.0000052572
  0
LINE
  5
4BC
  8
0
  6
CONTINUOUS
 62
     7
 10
491.2301864308
 20
386.3189342808
 30
0.0
 11
495.6113010478
 21
383.7894956958
 31
0.0
  0
ARC
  5
4BD
  8
0
  6
CONTINUOUS
 62
     7
 10
488.7301870152
 20
381.9888064454
 30
0.0
 40
5.000000000000016
 50
60.0
 51
130.5287793655
  0
ARC
  5
4BE
  8
0
  6
CONTINUOUS
 62
     7
 10
465.3363101018
 20
409.3516740393
 30
0.0
 40
31.00000000000001
 50
229.4712206345
 51
310.5287793655
  0
ARC
  5
4BF
  8
0
  6
CONTINUOUS
 62
     7
 10
441.9424331884
 20
381.9888064454
 30
0.0
 40
4.999999999999995
 50
49.4712206345
 51
120.0
  0
LINE
  5
4C0
  8
0
  6
CONTINUOUS
 62
     7
 10
435.0613191557
 20
383.7894956958
 30
0.0
 11
439.4424337727
 21
386.3189342808
 31
0.0
  0
ARC
  5
4C1
  8
0
  6
CONTINUOUS
 62
     7
 10
431.561319275
 20
389.8516734994
 30
0.0
 40
6.999999920529725
 50
119.9999947428
 51
299.9999992482
  0
LINE
  5
4C2
  8
0
  6
CONTINUOUS
 62
     7
 10
432.4424326253
 20
398.4432892319
 30
0.0
 11
428.061319871
 21
395.9138515782
 31
0.0
  0
ARC
  5
4C3
  8
0
  6
CONTINUOUS
 62
     7
 10
429.9424331884
 20
402.7734161363
 30
0.0
 40
4.999999999999967
 50
300.0
 51
10.5287793655
  0
ARC
  5
4C4
  8
0
  6
CONTINUOUS
 62
     7
 10
465.3363101018
 20
409.3516740393
 30
0.0
 40
31.00000000000007
 50
109.4712206345
 51
190.5287793655
  0
ARC
  5
4C5
  8
0
  6
CONTINUOUS
 62
     7
 10
453.3363101018
 20
443.2927995363
 30
0.0
 40
4.999999999999943
 50
289.4712206345
 51
0.0
  0
CIRCLE
  5
4C6
  8
0
  6
CONTINUOUS
 62
     7
 10
465.3363101018
 20
448.3516740393
 30
0.0
 40
2.5
  0
CIRCLE
  5
4C7
  8
0
  6
CONTINUOUS
 62
     7
 10
499.1113008494
 20
389.8516740393
 30
0.0
 40
2.5
  0
CIRCLE
  5
4C8
  8
0
  6
CONTINUOUS
 62
     7
 10
431.5613193542
 20
389.8516740393
 30
0.0
 40
2.5
  0
LINE
  5
4C9
  8
0
  6
CONTINUOUS
 62
     7
 10
458.3363098857
 20
448.351674844
 30
0.0
 11
458.3363098857
 21
443.2927976739
 31
0.0
  0
LINE
  5
4CA
  8
0
  6
CONTINUOUS
 62
     7
 10
472.3363103178
 20
443.2927976739
 30
0.0
 11
472.3363103178
 21
448.351674844
 31
0.0
  0
ARC
  5
4CB
  8
0
  6
CONTINUOUS
 62
     7
 10
506.9054735093
 20
385.3517053725
 30
0.0
 40
6.999999920814036
 50
240.0005193503
 51
59.9994866587
  0
LINE
  5
4CC
  8
0
  6
CONTINUOUS
 62
     7
 10
503.4055284989
 20
379.2894958895
 30
0.0
 11
495.6113010478
 21
383.7894956958
 31
0.0
  0
LINE
  5
4CD
  8
0
  6
CONTINUOUS
 62
     7
 10
502.6113003326
 20
395.9138515782
 30
0.0
 11
510.4055277837
 21
391.4138517719
 31
0.0
  0
ARC
  5
4CE
  8
0
  6
CONTINUOUS
 62
     7
 10
423.7671455635
 20
385.3517047197
 30
0.0
 40
6.999999920802304
 50
120.0005026549
 51
299.9994913361
  0
LINE
  5
4CF
  8
0
  6
CONTINUOUS
 62
     7
 10
420.2670924199
 20
391.4138517719
 30
0.0
 11
428.061319871
 21
395.9138515782
 31
0.0
  0
LINE
  5
4D0
  8
0
  6
CONTINUOUS
 62
     7
 10
435.0613191557
 20
383.7894956958
 30
0.0
 11
427.2670917046
 21
379.2894958895
 31
0.0
  0
CIRCLE
  5
4D1
  8
0
  6
CONTINUOUS
 62
     7
 10
465.3363101018
 20
448.3516740393
 30
0.0
 40
2.100000000000023
  0
CIRCLE
  5
4D2
  8
0
  6
CONTINUOUS
 62
     7
 10
499.1113008494
 20
389.8516740393
 30
0.0
 40
2.100000000000023
  0
CIRCLE
  5
4D3
  8
0
  6
CONTINUOUS
 62
     7
 10
431.5613193542
 20
389.8516740393
 30
0.0
 40
2.100000000000023
  0
ARC
  5
4D4
  8
0
  6
CONTINUOUS
 62
     7
 10
416.5582746292
 20
470.2179475859
 30
0.0
 40
2.000000000000063
 50
65.240102306
 51
128.708573461
  0
LINE
  5
4D5
  8
0
  6
CONTINUOUS
 62
     7
 10
427.950600518
 20
467.1660970342
 30
0.0
 11
417.3959068787
 21
472.0340866041
 31
0.0
  0
ARC
  5
4D6
  8
0
  6
CONTINUOUS
 62
     7
 10
429.2070500042
 20
469.8903109979
 30
0.0
 40
2.999999999999963
 50
245.240102306
 51
300.8286141035
  0
ARC
  5
4D7
  8
0
  6
CONTINUOUS
 62
     7
 10
465.3363101018
 20
409.3516740393
 30
0.0
 40
67.50000000000004
 50
59.1713858965
 51
120.8286141035
  0
ARC
  5
4D8
  8
0
  6
CONTINUOUS
 62
     7
 10
501.4655701994
 20
469.8903109979
 30
0.0
 40
3.000000000000005
 50
239.1713858965
 51
294.759897694
  0
LINE
  5
4D9
  8
0
  6
CONTINUOUS
 62
     7
 10
513.2767133248
 20
472.0340866041
 30
0.0
 11
502.7220196855
 21
467.1660970342
 31
0.0
  0
ARC
  5
4DA
  8
0
  6
CONTINUOUS
 62
     7
 10
514.1143455743
 20
470.2179475859
 30
0.0
 40
2.000000000000035
 50
51.291426539
 51
114.759897694
  0
ARC
  5
4DB
  8
0
  6
CONTINUOUS
 62
     7
 10
465.3363101018
 20
409.3516740393
 30
0.0
 40
80.00000000000003
 50
38.708573461
 51
51.291426539
  0
ARC
  5
4DC
  8
0
  6
CONTINUOUS
 62
     7
 10
526.2025836483
 20
458.1297095119
 30
0.0
 40
2.0000000000001
 50
335.240102306
 51
38.708573461
  0
LINE
  5
4DD
  8
0
  6
CONTINUOUS
 62
     7
 10
523.1507330966
 20
446.7373836231
 30
0.0
 11
528.0187226665
 21
457.2920772624
 31
0.0
  0
ARC
  5
4DE
  8
0
  6
CONTINUOUS
 62
     7
 10
525.8749470603
 20
445.4809341369
 30
0.0
 40
3.000000000000009
 50
155.240102306
 51
210.8286141035
  0
ARC
  5
4DF
  8
0
  6
CONTINUOUS
 62
     7
 10
465.3363101018
 20
409.3516740393
 30
0.0
 40
67.50000000000007
 50
329.1713858965
 51
30.8286141035
  0
ARC
  5
4E0
  8
0
  6
CONTINUOUS
 62
     7
 10
525.8749470603
 20
373.2224139417
 30
0.0
 40
3.000000000000057
 50
149.1713858965
 51
204.759897694
  0
LINE
  5
4E1
  8
0
  6
CONTINUOUS
 62
     7
 10
528.0187226665
 20
361.4112708163
 30
0.0
 11
523.1507330966
 21
371.9659644556
 31
0.0
  0
ARC
  5
4E2
  8
0
  6
CONTINUOUS
 62
     7
 10
526.2025836483
 20
360.5736385668
 30
0.0
 40
2.000000000000012
 50
321.291426539
 51
24.759897694
  0
ARC
  5
4E3
  8
0
  6
CONTINUOUS
 62
     7
 10
465.3363101018
 20
409.3516740393
 30
0.0
 40
80.00000000000011
 50
308.708573461
 51
321.291426539
  0
ARC
  5
4E4
  8
0
  6
CONTINUOUS
 62
     7
 10
514.1143455743
 20
348.4854004928
 30
0.0
 40
2.0000000000001
 50
245.240102306
 51
308.708573461
  0
LINE
  5
4E5
  8
0
  6
CONTINUOUS
 62
     7
 10
502.7220196855
 20
351.5372510445
 30
0.0
 11
513.2767133248
 21
346.6692614746
 31
0.0
  0
ARC
  5
4E6
  8
0
  6
CONTINUOUS
 62
     7
 10
501.4655701994
 20
348.8130370808
 30
0.0
 40
3.000000000000057
 50
65.240102306
 51
120.8286141035
  0
ARC
  5
4E7
  8
0
  6
CONTINUOUS
 62
     7
 10
465.3363101018
 20
409.3516740393
 30
0.0
 40
67.50000000000006
 50
239.1713858965
 51
300.8286141035
  0
ARC
  5
4E8
  8
0
  6
CONTINUOUS
 62
     7
 10
429.2070500042
 20
348.8130370808
 30
0.0
 40
3.000000000000001
 50
59.1713858965
 51
114.759897694
  0
LINE
  5
4E9
  8
0
  6
CONTINUOUS
 62
     7
 10
417.3959068787
 20
346.6692614746
 30
0.0
 11
427.950600518
 21
351.5372510445
 31
0.0
  0
ARC
  5
4EA
  8
0
  6
CONTINUOUS
 62
     7
 10
416.5582746292
 20
348.4854004928
 30
0.0
 40
2.000000000000063
 50
231.291426539
 51
294.759897694
  0
ARC
  5
4EB
  8
0
  6
CONTINUOUS
 62
     7
 10
465.3363101018
 20
409.3516740393
 30
0.0
 40
80.00000000000006
 50
218.708573461
 51
231.291426539
  0
ARC
  5
4EC
  8
0
  6
CONTINUOUS
 62
     7
 10
404.4700365552
 20
360.5736385668
 30
0.0
 40
2.000000000000063
 50
155.240102306
 51
218.708573461
  0
LINE
  5
4ED
  8
0
  6
CONTINUOUS
 62
     7
 10
407.5218871069
 20
371.9659644556
 30
0.0
 11
402.653897537
 21
361.4112708163
 31
0.0
  0
ARC
  5
4EE
  8
0
  6
CONTINUOUS
 62
     7
 10
404.7976731432
 20
373.2224139417
 30
0.0
 40
3.000000000000057
 50
335.240102306
 51
30.8286141035
  0
ARC
  5
4EF
  8
0
  6
CONTINUOUS
 62
     7
 10
465.3363101018
 20
409.3516740393
 30
0.0
 40
67.50000000000003
 50
149.1713858965
 51
210.8286141035
  0
ARC
  5
4F0
  8
0
  6
CONTINUOUS
 62
     7
 10
404.7976731432
 20
445.4809341369
 30
0.0
 40
3.000000000000005
 50
329.1713858965
 51
24.759897694
  0
LINE
  5
4F1
  8
0
  6
CONTINUOUS
 62
     7
 10
402.653897537
 20
457.2920772624
 30
0.0
 11
407.5218871069
 21
446.7373836231
 31
0.0
  0
ARC
  5
4F2
  8
0
  6
CONTINUOUS
 62
     7
 10
404.4700365552
 20
458.1297095119
 30
0.0
 40
2.000000000000012
 50
141.291426539
 51
204.759897694
  0
ARC
  5
4F3
  8
0
  6
CONTINUOUS
 62
     7
 10
465.3363101018
 20
409.3516740393
 30
0.0
 40
80.00000000000004
 50
128.708573461
 51
141.291426539
  0
ARC
  5
4F4
  8
0
  6
CONTINUOUS
 62
     7
 10
453.3363101018
 20
457.8903184374
 30
0.0
 40
5.000000000000625
 50
0.0
 51
103.8865403626
  0
ARC
  5
4F5
  8
0
  6
CONTINUOUS
 62
     7
 10
465.3363101018
 20
409.3516740393
 30
0.0
 40
55.00000000000002
 50
103.8865403626
 51
196.1134596374
  0
ARC
  5
4F6
  8
0
  6
CONTINUOUS
 62
     7
 10
417.3006109878
 20
395.4746566857
 30
0.0
 40
5.000000000000016
 50
196.1134596374
 51
300.0
  0
ARC
  5
4F7
  8
0
  6
CONTINUOUS
 62
     7
 10
429.3006109878
 20
374.6900469949
 30
0.0
 40
5.000000000000007
 50
120.0
 51
223.8865403626
  0
ARC
  5
4F8
  8
0
  6
CONTINUOUS
 62
     7
 10
465.3363101018
 20
409.3516740393
 30
0.0
 40
55.00000000000002
 50
223.8865403626
 51
316.1134596374
  0
ARC
  5
4F9
  8
0
  6
CONTINUOUS
 62
     7
 10
501.3720092157
 20
374.6900469949
 30
0.0
 40
5.000000000000004
 50
316.1134596374
 51
60.0
  0
ARC
  5
4FA
  8
0
  6
CONTINUOUS
 62
     7
 10
513.3720092157
 20
395.4746566857
 30
0.0
 40
4.999999999999989
 50
240.0
 51
343.8865403626
  0
ARC
  5
4FB
  8
0
  6
CONTINUOUS
 62
     7
 10
465.3363101018
 20
409.3516740393
 30
0.0
 40
55.00000000000002
 50
343.8865403626
 51
76.1134596374
  0
ARC
  5
4FC
  8
0
  6
CONTINUOUS
 62
     7
 10
477.3363101018
 20
457.8903184374
 30
0.0
 40
5.000000000000052
 50
76.1134596374
 51
180.0
  0
LINE
  5
4FD
  8
0
  6
CONTINUOUS
 62
     7
 10
419.8006115687
 20
391.1445300472
 30
0.0
 11
420.2670924199
 21
391.4138517719
 31
0.0
  0
LINE
  5
4FE
  8
0
  6
CONTINUOUS
 62
     7
 10
427.2670917046
 20
379.2894958895
 30
0.0
 11
426.8006108535
 21
379.0201741647
 31
0.0
  0
LINE
  5
4FF
  8
0
  6
CONTINUOUS
 62
     7
 10
503.8720093501
 20
379.0201741647
 30
0.0
 11
503.4055284989
 21
379.2894958895
 31
0.0
  0
LINE
  5
500
  8
0
  6
CONTINUOUS
 62
     7
 10
510.4055277837
 20
391.4138517719
 30
0.0
 11
510.8720086348
 21
391.1445300472
 31
0.0
  0
LINE
  5
501
  8
0
  6
CONTINUOUS
 62
     7
 10
458.3363098857
 20
457.3516744566
 30
0.0
 11
458.3363098857
 21
457.8903179061
 31
0.0
  0
LINE
  5
502
  8
0
  6
CONTINUOUS
 62
     7
 10
472.3363103178
 20
457.8903179061
 30
0.0
 11
472.3363103178
 21
457.3516744566
 31
0.0
  0
CIRCLE
  5
503
  8
0
  6
CONTINUOUS
 62
     7
 10
465.3363101018
 20
409.3516740393
 30
0.0
 40
19.5
  0
LINE
  5
504
  8
0
  6
CONTINUOUS
 62
     7
 10
432.287102921
 20
469.3516726982
 30
0.0
 11
433.693776263
 21
469.3516726982
 31
0.0
  0
ARC
  5
505
  8
0
  6
CONTINUOUS
 62
     7
 10
433.6939118735
 20
472.3510911224
 30
0.0
 40
2.999418427205746
 50
269.9974095279
 51
296.671311187
  0
ARC
  5
506
  8
0
  6
CONTINUOUS
 62
     7
 10
433.6939118735
 20
346.3522569563
 30
0.0
 40
2.999418427205746
 50
63.328688813
 51
90.0025904721
  0
LINE
  5
507
  8
0
  6
CONTINUOUS
 62
     7
 10
433.693776263
 20
349.3516753804
 30
0.0
 11
432.287102921
 21
349.3516753804
 31
0.0
  0
LINE
  5
508
  8
0
  6
CONTINUOUS
 62
     7
 10
498.3855172825
 20
349.3516753804
 30
0.0
 11
496.9788439405
 21
349.3516753804
 31
0.0
  0
ARC
  5
509
  8
0
  6
CONTINUOUS
 62
     7
 10
496.97870833
 20
346.3522569563
 30
0.0
 40
2.999418427205406
 50
89.9974095279
 51
116.671311187
  0
ARC
  5
50A
  8
0
  6
CONTINUOUS
 62
     7
 10
496.97870833
 20
472.3510911224
 30
0.0
 40
2.999418427205406
 50
243.328688813
 51
270.0025904721
  0
LINE
  5
50B
  8
0
  6
CONTINUOUS
 62
     7
 10
496.9788439405
 20
469.3516726982
 30
0.0
 11
498.3855172825
 21
469.3516726982
 31
0.0
  0
ARC
  5
50C
  8
0
  6
CONTINUOUS
 62
     7
 10
403.3040910873
 20
458.2700121564
 30
0.0
 40
1.000000000000042
 50
141.7408415961
 51
204.759897694
  0
LINE
  5
50D
  8
0
  6
CONTINUOUS
 62
     7
 10
402.9093630445
 20
459.3804265749
 30
0.0
 11
402.5188706649
 21
458.8892321479
 31
0.0
  0
LINE
  5
50E
  8
0
  6
CONTINUOUS
 62
     7
 10
402.3960180414
 20
457.8511949074
 30
0.0
 11
402.653897537
 21
457.2920772624
 31
0.0
  0
LINE
  5
50F
  8
0
  6
CONTINUOUS
 62
     7
 10
432.287102921
 20
469.3516726982
 30
0.0
 11
423.2118747962
 21
469.3516726982
 31
0.0
  0
LINE
  5
510
  8
0
  6
CONTINUOUS
 62
     7
 10
527.763257159
 20
459.3804265749
 30
0.0
 11
528.1537495387
 21
458.8892321479
 31
0.0
  0
ARC
  5
511
  8
0
  6
CONTINUOUS
 62
     7
 10
527.3685291162
 20
458.2700121564
 30
0.0
 40
1.000000000000093
 50
335.240102306
 51
38.2591584039
  0
LINE
  5
512
  8
0
  6
CONTINUOUS
 62
     7
 10
528.2766021621
 20
457.8511949074
 30
0.0
 11
528.0187226665
 21
457.2920772624
 31
0.0
  0
LINE
  5
513
  8
0
  6
CONTINUOUS
 62
     7
 10
498.3855172825
 20
469.3516726982
 30
0.0
 11
507.4607454074
 21
469.3516726982
 31
0.0
  0
LINE
  5
514
  8
0
  6
CONTINUOUS
 62
     7
 10
402.9093630445
 20
359.3229215038
 30
0.0
 11
402.5188706649
 21
359.8141159308
 31
0.0
  0
ARC
  5
515
  8
0
  6
CONTINUOUS
 62
     7
 10
403.3040910873
 20
360.4333359222
 30
0.0
 40
1.000000000000018
 50
155.240102306
 51
218.2591584039
  0
LINE
  5
516
  8
0
  6
CONTINUOUS
 62
     7
 10
402.3960180414
 20
360.8521531713
 30
0.0
 11
402.653897537
 21
361.4112708163
 31
0.0
  0
LINE
  5
517
  8
0
  6
CONTINUOUS
 62
     7
 10
432.287102921
 20
349.3516753804
 30
0.0
 11
423.2118747962
 21
349.3516753804
 31
0.0
  0
LINE
  5
518
  8
0
  6
CONTINUOUS
 62
     7
 10
527.763257159
 20
359.3229215038
 30
0.0
 11
528.1537495387
 21
359.8141159308
 31
0.0
  0
ARC
  5
519
  8
0
  6
CONTINUOUS
 62
     7
 10
527.3685291162
 20
360.4333359222
 30
0.0
 40
1.000000000000069
 50
321.7408415961
 51
24.759897694
  0
LINE
  5
51A
  8
0
  6
CONTINUOUS
 62
     7
 10
528.2766021621
 20
360.8521531713
 30
0.0
 11
528.0187226665
 21
361.4112708163
 31
0.0
  0
LINE
  5
51B
  8
0
  6
CONTINUOUS
 62
     7
 10
498.3855172825
 20
349.3516753804
 30
0.0
 11
507.4607454074
 21
349.3516753804
 31
0.0
  0
ARC
  5
51C
  8
0
  6
CONTINUOUS
 62
     7
 10
558.2450009218
 20
537.3153091483
 30
0.0
 40
128.3200747598551
 50
208.1021659918
 51
209.4733800617
  0
ARC
  5
51D
  8
0
  6
CONTINUOUS
 62
     7
 10
465.3363101018
 20
409.3516740393
 30
0.0
 40
70.49999999999996
 50
73.279047548
 51
106.720952452
  0
ARC
  5
51E
  8
0
  6
CONTINUOUS
 62
     7
 10
372.4276192712
 20
537.3153091541
 30
0.0
 40
128.3200747718372
 50
330.5266199383
 51
331.8978340082
  0
POLYLINE
  5
51F
  8
0
  6
CONTINUOUS
 62
     7
 66
     1
 10
0.0
 20
0.0
 30
0.0
 70
   128
  0
VERTEX
  5
94A
  8
0
  6
CONTINUOUS
 62
     7
 10
463.1502636542
 20
338.8855728698
 30
0.0
  0
VERTEX
  5
94B
  8
0
  6
CONTINUOUS
 62
     7
 10
463.1684116387
 20
339.4705626559
 30
0.0
  0
VERTEX
  5
94C
  8
0
  6
CONTINUOUS
 62
     7
 10
463.1858620626
 20
340.0330740404
 30
0.0
  0
VERTEX
  5
94D
  8
0
  6
CONTINUOUS
 62
     7
 10
463.2019446065
 20
340.5514854383
 30
0.0
  0
VERTEX
  5
94E
  8
0
  6
CONTINUOUS
 62
     7
 10
463.2160408721
 20
341.0058739972
 30
0.0
  0
VERTEX
  5
94F
  8
0
  6
CONTINUOUS
 62
     7
 10
463.2276095283
 20
341.3787830066
 30
0.0
  0
VERTEX
  5
950
  8
0
  6
CONTINUOUS
 62
     7
 10
463.2362058685
 20
341.6558775496
 30
0.0
  0
VERTEX
  5
951
  8
0
  6
CONTINUOUS
 62
     7
 10
463.241499506
 20
341.826518197
 30
0.0
  0
VERTEX
  5
952
  8
0
  6
CONTINUOUS
 62
     7
 10
463.2432869469
 20
341.8841335368
 30
0.0
  0
SEQEND
  5
A23
  8
0
  6
CONTINUOUS
 62
     7
  0
POLYLINE
  5
520
  8
0
  6
CONTINUOUS
 62
     7
 66
     1
 10
0.0
 20
0.0
 30
0.0
 70
   128
  0
VERTEX
  5
953
  8
0
  6
CONTINUOUS
 62
     7
 10
467.5223565494
 20
338.8855728698
 30
0.0
  0
VERTEX
  5
954
  8
0
  6
CONTINUOUS
 62
     7
 10
467.5042085649
 20
339.4705626559
 30
0.0
  0
VERTEX
  5
955
  8
0
  6
CONTINUOUS
 62
     7
 10
467.4867581409
 20
340.0330740404
 30
0.0
  0
VERTEX
  5
956
  8
0
  6
CONTINUOUS
 62
     7
 10
467.4706755971
 20
340.5514854383
 30
0.0
  0
VERTEX
  5
957
  8
0
  6
CONTINUOUS
 62
     7
 10
467.4565793314
 20
341.0058739972
 30
0.0
  0
VERTEX
  5
958
  8
0
  6
CONTINUOUS
 62
     7
 10
467.4450106752
 20
341.3787830066
 30
0.0
  0
VERTEX
  5
959
  8
0
  6
CONTINUOUS
 62
     7
 10
467.436414335
 20
341.6558775496
 30
0.0
  0
VERTEX
  5
95A
  8
0
  6
CONTINUOUS
 62
     7
 10
467.4311206975
 20
341.826518197
 30
0.0
  0
VERTEX
  5
95B
  8
0
  6
CONTINUOUS
 62
     7
 10
467.4293332567
 20
341.8841335368
 30
0.0
  0
SEQEND
  5
A24
  8
0
  6
CONTINUOUS
 62
     7
  0
ARC
  5
521
  8
0
  6
CONTINUOUS
 62
     7
 10
465.3363101018
 20
409.3516740393
 30
0.0
 40
70.50000000000007
 50
268.223101862
 51
271.776898138
  0
CIRCLE
  5
522
  8
0
  6
CONTINUOUS
 62
     7
 10
465.3363101018
 20
409.3516740393
 30
0.0
 40
85.0
  0
CIRCLE
  5
523
  8
0
  6
CONTINUOUS
 62
     7
 10
541.3502890793
 20
333.3376950618
 30
0.0
 40
5.999999999999886
  0
CIRCLE
  5
524
  8
0
  6
CONTINUOUS
 62
     7
 10
389.3223311242
 20
333.3376950618
 30
0.0
 40
6.0
  0
CIRCLE
  5
525
  8
0
  6
CONTINUOUS
 62
     7
 10
541.3502890793
 20
485.3656530169
 30
0.0
 40
6.0
  0
CIRCLE
  5
526
  8
0
  6
CONTINUOUS
 62
     7
 10
389.3223311242
 20
485.3656530169
 30
0.0
 40
6.000000000000057
  0
CIRCLE
  5
527
  8
0
  6
CONTINUOUS
 62
     7
 10
409.6947873573
 20
498.3967241358
 30
0.0
 40
4.0
  0
CIRCLE
  5
528
  8
0
  6
CONTINUOUS
 62
     7
 10
520.9778328463
 20
320.3066239429
 30
0.0
 40
4.000000000000114
  0
ARC
  5
529
  8
0
  6
CONTINUOUS
 62
     7
 10
465.3363101018
 20
409.3516740393
 30
0.0
 40
117.5
 50
33.483726477
 51
56.516273523
  0
LINE
  5
52A
  8
0
  6
CONTINUOUS
 62
     7
 10
563.3363075388
 20
474.1764414501
 30
0.0
 11
563.3363075388
 21
344.5269066286
 31
0.0
  0
ARC
  5
52B
  8
0
  6
CONTINUOUS
 62
     7
 10
465.3363101018
 20
409.3516740393
 30
0.0
 40
117.5
 50
303.483726477
 51
326.516273523
  0
LINE
  5
52C
  8
0
  6
CONTINUOUS
 62
     7
 10
530.1610775125
 20
311.3516766023
 30
0.0
 11
400.511542691
 21
311.3516766023
 31
0.0
  0
ARC
  5
52D
  8
0
  6
CONTINUOUS
 62
     7
 10
465.3363101018
 20
409.3516740393
 30
0.0
 40
117.5
 50
213.483726477
 51
236.516273523
  0
LINE
  5
52E
  8
0
  6
CONTINUOUS
 62
     7
 10
367.3363126648
 20
344.5269066286
 30
0.0
 11
367.3363126648
 21
474.1764414501
 31
0.0
  0
ARC
  5
52F
  8
0
  6
CONTINUOUS
 62
     7
 10
465.3363101018
 20
409.3516740393
 30
0.0
 40
117.5
 50
123.483726477
 51
146.516273523
  0
LINE
  5
530
  8
0
  6
CONTINUOUS
 62
     7
 10
400.511542691
 20
507.3516714763
 30
0.0
 11
423.336310668
 21
507.3516714763
 31
0.0
  0
LINE
  5
531
  8
0
  6
CONTINUOUS
 62
     7
 10
440.3363097292
 20
524.3516761255
 30
0.0
 11
423.336310668
 21
507.3516714763
 31
0.0
  0
LINE
  5
532
  8
0
  6
CONTINUOUS
 62
     7
 10
440.3363097292
 20
524.3516761255
 30
0.0
 11
490.3363104743
 21
524.3516761255
 31
0.0
  0
LINE
  5
533
  8
0
  6
CONTINUOUS
 62
     7
 10
507.3363095355
 20
507.3516714763
 30
0.0
 11
490.3363104743
 21
524.3516761255
 31
0.0
  0
LINE
  5
534
  8
0
  6
CONTINUOUS
 62
     7
 10
507.3363095355
 20
507.3516714763
 30
0.0
 11
530.1610775125
 21
507.3516714763
 31
0.0
  0
LINE
  5
535
  8
0
  6
CONTINUOUS
 62
     7
 10
601.3141445649
 20
438.3516732049
 30
0.0
 11
600.1955739987
 21
438.3516732049
 31
0.0
  0
LINE
  5
536
  8
0
  6
CONTINUOUS
 62
     7
 10
601.3141445649
 20
379.3516747099
 30
0.0
 11
600.1955739987
 21
379.3516747099
 31
0.0
  0
ARC
  5
537
  8
0
  6
CONTINUOUS
 62
     7
 10
567.4028863106
 20
441.4605585594
 30
0.0
 40
0.904126404308087
 50
99.7320047825
 51
154.3680825484
  0
LINE
  5
538
  8
0
  6
CONTINUOUS
 62
     7
 10
594.91047485
 20
442.3516738605
 30
0.0
 11
567.2500528228
 21
442.3516738605
 31
0.0
  0
LINE
  5
539
  8
0
  6
CONTINUOUS
 62
     7
 10
567.2500528228
 20
375.3516721916
 30
0.0
 11
594.91047485
 21
375.3516721916
 31
0.0
  0
POLYLINE
  5
53A
  8
0
  6
CONTINUOUS
 62
     7
 66
     1
 10
0.0
 20
0.0
 30
0.0
 70
   128
  0
VERTEX
  5
95C
  8
0
  6
CONTINUOUS
 62
     7
 10
566.1820940507
 20
376.8516752314
 30
0.0
  0
VERTEX
  5
95D
  8
0
  6
CONTINUOUS
 62
     7
 10
566.2826768887
 20
376.5232461881
 30
0.0
  0
VERTEX
  5
95E
  8
0
  6
CONTINUOUS
 62
     7
 10
566.4899892938
 20
376.0257969987
 30
0.0
  0
VERTEX
  5
95F
  8
0
  6
CONTINUOUS
 62
     7
 10
566.7265154255
 20
375.6561550688
 30
0.0
  0
VERTEX
  5
960
  8
0
  6
CONTINUOUS
 62
     7
 10
566.9831581247
 20
375.428532381
 30
0.0
  0
VERTEX
  5
961
  8
0
  6
CONTINUOUS
 62
     7
 10
567.2500528228
 20
375.3516721916
 30
0.0
  0
SEQEND
  5
A25
  8
0
  6
CONTINUOUS
 62
     7
  0
ARC
  5
53B
  8
0
  6
CONTINUOUS
 62
     7
 10
582.9619053768
 20
430.2373535555
 30
0.0
 40
18.72580756152258
 50
357.9015392616
 51
11.463759083
  0
LINE
  5
53C
  8
0
  6
CONTINUOUS
 62
     7
 10
601.6751549971
 20
429.5516732526
 30
0.0
 11
601.3141445649
 21
429.5516732526
 31
0.0
  0
LINE
  5
53D
  8
0
  6
CONTINUOUS
 62
     7
 10
601.3141445649
 20
388.1516746622
 30
0.0
 11
601.6751549971
 21
388.1516746622
 31
0.0
  0
ARC
  5
53E
  8
0
  6
CONTINUOUS
 62
     7
 10
576.915093916
 20
387.824793362
 30
0.0
 40
24.76221872384802
 50
351.6125321384
 51
0.7563725653
  0
ARC
  5
53F
  8
0
  6
CONTINUOUS
 62
     7
 10
567.1846048735
 20
441.492560129
 30
0.0
 40
1.418003069763508
 50
106.5702174617
 51
165.3299421411
  0
POLYLINE
  5
540
  8
0
  6
CONTINUOUS
 62
     7
 66
     1
 10
0.0
 20
0.0
 30
0.0
 70
   128
  0
VERTEX
  5
962
  8
0
  6
CONTINUOUS
 62
     7
 10
566.7802043092
 20
374.8516749036
 30
0.0
  0
VERTEX
  5
963
  8
0
  6
CONTINUOUS
 62
     7
 10
566.4799459112
 20
374.9381388914
 30
0.0
  0
VERTEX
  5
964
  8
0
  6
CONTINUOUS
 62
     7
 10
566.1912210119
 20
375.1942153465
 30
0.0
  0
VERTEX
  5
965
  8
0
  6
CONTINUOUS
 62
     7
 10
565.9251309765
 20
375.610062052
 30
0.0
  0
VERTEX
  5
966
  8
0
  6
CONTINUOUS
 62
     7
 10
565.691905452
 20
376.1696937871
 30
0.0
  0
VERTEX
  5
967
  8
0
  6
CONTINUOUS
 62
     7
 10
565.5005000365
 20
376.8516081762
 30
0.0
  0
VERTEX
  5
968
  8
0
  6
CONTINUOUS
 62
     7
 10
565.5004851353
 20
376.8516752314
 30
0.0
  0
SEQEND
  5
A26
  8
0
  6
CONTINUOUS
 62
     7
  0
ARC
  5
541
  8
0
  6
CONTINUOUS
 62
     7
 10
568.1821684927
 20
434.5810403553
 30
0.0
 40
1.498663466194329
 50
101.0988946008
 51
161.6974290829
  0
ARC
  5
542
  8
0
  6
CONTINUOUS
 62
     7
 10
568.1821684927
 20
384.1223077234
 30
0.0
 40
1.498663466194311
 50
198.3025709171
 51
258.9011053992
  0
LINE
  5
543
  8
0
  6
CONTINUOUS
 62
     7
 10
595.7444779408
 20
434.300788809
 30
0.0
 11
595.508488251
 21
434.300788809
 31
0.0
  0
LINE
  5
544
  8
0
  6
CONTINUOUS
 62
     7
 10
595.7444779408
 20
384.4025592696
 30
0.0
 11
595.508488251
 21
384.4025592696
 31
0.0
  0
LINE
  5
545
  8
0
  6
CONTINUOUS
 62
     7
 10
595.2832124961
 20
436.0290925395
 30
0.0
 11
594.8604963553
 21
436.0290925395
 31
0.0
  0
LINE
  5
546
  8
0
  6
CONTINUOUS
 62
     7
 10
595.2832124961
 20
382.6742555392
 30
0.0
 11
594.8604963553
 21
382.6742555392
 31
0.0
  0
LINE
  5
547
  8
0
  6
CONTINUOUS
 62
     7
 10
563.3363075388
 20
430.0516742658
 30
0.0
 11
563.7363068593
 21
430.0516742658
 31
0.0
  0
LINE
  5
548
  8
0
  6
CONTINUOUS
 62
     7
 10
563.3363075388
 20
388.6516738128
 30
0.0
 11
563.7363068593
 21
388.6516738128
 31
0.0
  0
LINE
  5
549
  8
0
  6
CONTINUOUS
 62
     7
 10
567.9987840188
 20
437.3516749036
 30
0.0
 11
593.6129860413
 21
437.3516749036
 31
0.0
  0
LINE
  5
54A
  8
0
  6
CONTINUOUS
 62
     7
 10
593.6129860413
 20
381.3516731751
 30
0.0
 11
567.9987840188
 21
381.3516731751
 31
0.0
  0
POLYLINE
  5
54B
  8
0
  6
CONTINUOUS
 62
     7
 66
     1
 10
0.0
 20
0.0
 30
0.0
 70
   128
  0
VERTEX
  5
969
  8
0
  6
CONTINUOUS
 62
     7
 10
566.8088070882
 20
436.8418726515
 30
0.0
  0
VERTEX
  5
96A
  8
0
  6
CONTINUOUS
 62
     7
 10
566.885197891
 20
437.0874866289
 30
0.0
  0
VERTEX
  5
96B
  8
0
  6
CONTINUOUS
 62
     7
 10
566.9753946197
 20
437.3128182631
 30
0.0
  0
VERTEX
  5
96C
  8
0
  6
CONTINUOUS
 62
     7
 10
567.0747257602
 20
437.5024802428
 30
0.0
  0
VERTEX
  5
96D
  8
0
  6
CONTINUOUS
 62
     7
 10
567.1815521848
 20
437.653343324
 30
0.0
  0
VERTEX
  5
96E
  8
0
  6
CONTINUOUS
 62
     7
 10
567.2941155565
 20
437.7629171502
 30
0.0
  0
VERTEX
  5
96F
  8
0
  6
CONTINUOUS
 62
     7
 10
567.4105532301
 20
437.829393093
 30
0.0
  0
VERTEX
  5
970
  8
0
  6
CONTINUOUS
 62
     7
 10
567.5289429558
 20
437.8516740542
 30
0.0
  0
SEQEND
  5
A27
  8
0
  6
CONTINUOUS
 62
     7
  0
LINE
  5
54C
  8
0
  6
CONTINUOUS
 62
     7
 10
566.5381423962
 20
436.5452221971
 30
0.0
 11
566.080207361
 21
436.5452221971
 31
0.0
  0
LINE
  5
54D
  8
0
  6
CONTINUOUS
 62
     7
 10
566.5381423962
 20
382.1581258815
 30
0.0
 11
566.080207361
 21
382.1581258815
 31
0.0
  0
POLYLINE
  5
54E
  8
0
  6
CONTINUOUS
 62
     7
 66
     1
 10
0.0
 20
0.0
 30
0.0
 70
   128
  0
VERTEX
  5
971
  8
0
  6
CONTINUOUS
 62
     7
 10
567.5289429558
 20
380.8516740244
 30
0.0
  0
VERTEX
  5
972
  8
0
  6
CONTINUOUS
 62
     7
 10
567.4105532301
 20
380.8739549857
 30
0.0
  0
VERTEX
  5
973
  8
0
  6
CONTINUOUS
 62
     7
 10
567.2941155565
 20
380.9404309284
 30
0.0
  0
VERTEX
  5
974
  8
0
  6
CONTINUOUS
 62
     7
 10
567.1815521848
 20
381.0500047546
 30
0.0
  0
VERTEX
  5
975
  8
0
  6
CONTINUOUS
 62
     7
 10
567.0747257602
 20
381.2008678359
 30
0.0
  0
VERTEX
  5
976
  8
0
  6
CONTINUOUS
 62
     7
 10
566.9753946197
 20
381.3905298155
 30
0.0
  0
VERTEX
  5
977
  8
0
  6
CONTINUOUS
 62
     7
 10
566.885197891
 20
381.6158614498
 30
0.0
  0
VERTEX
  5
978
  8
0
  6
CONTINUOUS
 62
     7
 10
566.8088070882
 20
381.8614754271
 30
0.0
  0
SEQEND
  5
A28
  8
0
  6
CONTINUOUS
 62
     7
  0
ARC
  5
54F
  8
0
  6
CONTINUOUS
 62
     7
 10
568.2020849027
 20
382.0239738109
 30
0.0
 40
0.7023669940683291
 50
194.2003207097
 51
253.1749042519
  0
ARC
  5
550
  8
0
  6
CONTINUOUS
 62
     7
 10
568.2020849027
 20
436.6793742678
 30
0.0
 40
0.7023669940684811
 50
106.8250957481
 51
165.7996792903
  0
LINE
  5
551
  8
0
  6
CONTINUOUS
 62
     7
 10
566.1538041961
 20
383.5023614955
 30
0.0
 11
565.5762053859
 21
383.5023614955
 31
0.0
  0
LINE
  5
552
  8
0
  6
CONTINUOUS
 62
     7
 10
566.1538041961
 20
435.2009865832
 30
0.0
 11
565.5762053859
 21
435.2009865832
 31
0.0
  0
POLYLINE
  5
553
  8
0
  6
CONTINUOUS
 62
     7
 66
     1
 10
0.0
 20
0.0
 30
0.0
 70
   128
  0
VERTEX
  5
979
  8
0
  6
CONTINUOUS
 62
     7
 10
601.3328604233
 20
384.3501481604
 30
0.0
  0
VERTEX
  5
97A
  8
0
  6
CONTINUOUS
 62
     7
 10
601.4989785683
 20
384.3069981229
 30
0.0
  0
VERTEX
  5
97B
  8
0
  6
CONTINUOUS
 62
     7
 10
601.8886588347
 20
383.9555486482
 30
0.0
  0
VERTEX
  5
97C
  8
0
  6
CONTINUOUS
 62
     7
 10
602.2256038916
 20
383.28388067
 30
0.0
  0
VERTEX
  5
97D
  8
0
  6
CONTINUOUS
 62
     7
 10
602.4798624051
 20
382.351673339
 30
0.0
  0
VERTEX
  5
97E
  8
0
  6
CONTINUOUS
 62
     7
 10
602.6288591159
 20
381.2417584848
 30
0.0
  0
VERTEX
  5
97F
  8
0
  6
CONTINUOUS
 62
     7
 10
602.6593319905
 20
380.052753855
 30
0.0
  0
VERTEX
  5
980
  8
0
  6
CONTINUOUS
 62
     7
 10
602.5685839188
 20
378.8903105449
 30
0.0
  0
VERTEX
  5
981
  8
0
  6
CONTINUOUS
 62
     7
 10
602.3646913302
 20
377.8577159536
 30
0.0
  0
VERTEX
  5
982
  8
0
  6
CONTINUOUS
 62
     7
 10
602.0657442343
 20
377.0467202556
 30
0.0
  0
VERTEX
  5
983
  8
0
  6
CONTINUOUS
 62
     7
 10
601.6983263028
 20
376.5293817413
 30
0.0
  0
VERTEX
  5
984
  8
0
  6
CONTINUOUS
 62
     7
 10
601.2950710786
 20
376.3516742182
 30
0.0
  0
SEQEND
  5
A29
  8
0
  6
CONTINUOUS
 62
     7
  0
POLYLINE
  5
554
  8
0
  6
CONTINUOUS
 62
     7
 66
     1
 10
0.0
 20
0.0
 30
0.0
 70
   128
  0
VERTEX
  5
985
  8
0
  6
CONTINUOUS
 62
     7
 10
601.2950710786
 20
442.3516738605
 30
0.0
  0
VERTEX
  5
986
  8
0
  6
CONTINUOUS
 62
     7
 10
601.4989785683
 20
442.306996454
 30
0.0
  0
VERTEX
  5
987
  8
0
  6
CONTINUOUS
 62
     7
 10
601.8886588347
 20
441.9555488419
 30
0.0
  0
VERTEX
  5
988
  8
0
  6
CONTINUOUS
 62
     7
 10
602.2256038916
 20
441.2838827264
 30
0.0
  0
VERTEX
  5
989
  8
0
  6
CONTINUOUS
 62
     7
 10
602.4798624051
 20
440.3516735327
 30
0.0
  0
VERTEX
  5
98A
  8
0
  6
CONTINUOUS
 62
     7
 10
602.6288591159
 20
439.2417586785
 30
0.0
  0
VERTEX
  5
98B
  8
0
  6
CONTINUOUS
 62
     7
 10
602.6593319905
 20
438.0527540487
 30
0.0
  0
VERTEX
  5
98C
  8
0
  6
CONTINUOUS
 62
     7
 10
602.5685839188
 20
436.8903107387
 30
0.0
  0
VERTEX
  5
98D
  8
0
  6
CONTINUOUS
 62
     7
 10
602.3646913302
 20
435.8577142846
 30
0.0
  0
VERTEX
  5
98E
  8
0
  6
CONTINUOUS
 62
     7
 10
602.0657442343
 20
435.0467185867
 30
0.0
  0
VERTEX
  5
98F
  8
0
  6
CONTINUOUS
 62
     7
 10
601.6983263028
 20
434.529381935
 30
0.0
  0
VERTEX
  5
990
  8
0
  6
CONTINUOUS
 62
     7
 10
601.2950710786
 20
434.3516744119
 30
0.0
  0
VERTEX
  5
991
  8
0
  6
CONTINUOUS
 62
     7
 10
601.2950710786
 20
434.3516744119
 30
0.0
  0
SEQEND
  5
A2A
  8
0
  6
CONTINUOUS
 62
     7
  0
POLYLINE
  5
555
  8
0
  6
CONTINUOUS
 62
     7
 66
     1
 10
0.0
 20
0.0
 30
0.0
 70
   128
  0
VERTEX
  5
992
  8
0
  6
CONTINUOUS
 62
     7
 10
428.3577225936
 20
467.0130472076
 30
0.0
  0
VERTEX
  5
993
  8
0
  6
CONTINUOUS
 62
     7
 10
428.6251462829
 20
467.1836766791
 30
0.0
  0
VERTEX
  5
994
  8
0
  6
CONTINUOUS
 62
     7
 10
432.287102921
 20
469.3516726982
 30
0.0
  0
SEQEND
  5
A2B
  8
0
  6
CONTINUOUS
 62
     7
  0
POLYLINE
  5
556
  8
0
  6
CONTINUOUS
 62
     7
 66
     1
 10
0.0
 20
0.0
 30
0.0
 70
   128
  0
VERTEX
  5
995
  8
0
  6
CONTINUOUS
 62
     7
 10
432.287102921
 20
349.3516753804
 30
0.0
  0
VERTEX
  5
996
  8
0
  6
CONTINUOUS
 62
     7
 10
428.6251462829
 20
351.5196713996
 30
0.0
  0
VERTEX
  5
997
  8
0
  6
CONTINUOUS
 62
     7
 10
428.3577225936
 20
351.6903008711
 30
0.0
  0
SEQEND
  5
A2C
  8
0
  6
CONTINUOUS
 62
     7
  0
POLYLINE
  5
557
  8
0
  6
CONTINUOUS
 62
     7
 66
     1
 10
0.0
 20
0.0
 30
0.0
 70
   128
  0
VERTEX
  5
998
  8
0
  6
CONTINUOUS
 62
     7
 10
502.31489761
 20
351.6903008711
 30
0.0
  0
VERTEX
  5
999
  8
0
  6
CONTINUOUS
 62
     7
 10
502.0474739206
 20
351.5196713996
 30
0.0
  0
VERTEX
  5
99A
  8
0
  6
CONTINUOUS
 62
     7
 10
498.3855172825
 20
349.3516753804
 30
0.0
  0
SEQEND
  5
A2D
  8
0
  6
CONTINUOUS
 62
     7
  0
POLYLINE
  5
558
  8
0
  6
CONTINUOUS
 62
     7
 66
     1
 10
0.0
 20
0.0
 30
0.0
 70
   128
  0
VERTEX
  5
99B
  8
0
  6
CONTINUOUS
 62
     7
 10
498.3855172825
 20
469.3516726982
 30
0.0
  0
VERTEX
  5
99C
  8
0
  6
CONTINUOUS
 62
     7
 10
502.0474739206
 20
467.1836766791
 30
0.0
  0
VERTEX
  5
99D
  8
0
  6
CONTINUOUS
 62
     7
 10
502.31489761
 20
467.0130472076
 30
0.0
  0
SEQEND
  5
A2E
  8
0
  6
CONTINUOUS
 62
     7
  0
ARC
  5
559
  8
0
  6
CONTINUOUS
 62
     7
 10
453.3363101018
 20
466.8516740393
 30
0.0
 40
13.00000000000004
 50
129.5833975053
 51
153.9424697186
  0
ARC
  5
55A
  8
0
  6
CONTINUOUS
 62
     7
 10
477.3363101018
 20
466.8516740393
 30
0.0
 40
13.00000000000001
 50
26.0575302814
 51
50.4166024947
  0
ARC
  5
55B
  8
0
  6
CONTINUOUS
 62
     7
 10
463.3363101018
 20
344.8826892482
 30
0.0
 40
5.999999999999996
 50
205.9408495516
 51
268.223101862
  0
ARC
  5
55C
  8
0
  6
CONTINUOUS
 62
     7
 10
467.3363101018
 20
344.8826892482
 30
0.0
 40
6.000000000000109
 50
271.776898138
 51
334.0591504484
  0
INSERT
  5
584
  8
SLD-0
 62
    11
  2
SW_CENTERMARKSYMBOL_1
 10
389.3223311242
 20
485.3656530169
 30
0.0
  0
INSERT
  5
590
  8
SLD-0
 62
    11
  2
SW_CENTERMARKSYMBOL_2
 10
578.7363101018
 20
409.3516740393
 30
0.0
  0
ENDSEC
  0
EOF
