  0
SECTION
  2
HEADER
  9
$ACADVER
  1
AC1015
  9
$ACADMAINTVER
 70
     6
  9
$DWGCODEPAGE
  3
DOS932
  9
$INSBASE
 10
0.0
 20
0.0
 30
0.0
  9
$EXTMIN
 10
0.0
 20
0.0
 30
0.0
  9
$EXTMAX
 10
841.0
 20
594.0
 30
0.0
  9
$LIMMIN
 10
0.0
 20
0.0
  9
$LIMMAX
 10
841.0
 20
594.0
  9
$ORTHOMODE
 70
     0
  9
$REGENMODE
 70
     1
  9
$FILLMODE
 70
     1
  9
$QTEXTMODE
 70
     0
  9
$MIRRTEXT
 70
     1
  9
$LTSCALE
 40
1.0
  9
$ATTMODE
 70
     1
  9
$TEXTSIZE
 40
3.5
  9
$TRACEWID
 40
1.0
  9
$TEXTSTYLE
  7
Standard
  9
$CLAYER
  8
0
  9
$CELTYPE
  6
ByLayer
  9
$CECOLOR
 62
   256
  9
$CELTSCALE
 40
1.0
  9
$DISPSILH
 70
     0
  9
$DIMSCALE
 40
1.0
  9
$DIMASZ
 40
3.8637032976
  9
$DIMEXO
 40
1.0
  9
$DIMDLI
 40
3.75
  9
$DIMRND
 40
0.0
  9
$DIMDLE
 40
0.0
  9
$DIMEXE
 40
1.0
  9
$DIMTP
 40
0.0
  9
$DIMTM
 40
0.0
  9
$DIMTXT
 40
2.7999999523
  9
$DIMCEN
 40
2.5
  9
$DIMTSZ
 40
0.0
  9
$DIMTOL
 70
     0
  9
$DIMLIM
 70
     0
  9
$DIMTIH
 70
     1
  9
$DIMTOH
 70
     1
  9
$DIMSE1
 70
     0
  9
$DIMSE2
 70
     0
  9
$DIMTAD
 70
     1
  9
$DIMZIN
 70
     1
  9
$DIMBLK
  1

  9
$DIMASO
 70
     1
  9
$DIMSHO
 70
     1
  9
$DIMPOST
  1

  9
$DIMAPOST
  1

  9
$DIMALT
 70
     0
  9
$DIMALTD
 70
     3
  9
$DIMALTF
 40
0.0393700787
  9
$DIMLFAC
 40
1.0
  9
$DIMTOFL
 70
     1
  9
$DIMTVP
 40
0.0
  9
$DIMTIX
 70
     0
  9
$DIMSOXD
 70
     0
  9
$DIMSAH
 70
     0
  9
$DIMBLK1
  1

  9
$DIMBLK2
  1

  9
$DIMSTYLE
  2
ISO-25
  9
$DIMCLRD
 70
     0
  9
$DIMCLRE
 70
     0
  9
$DIMCLRT
 70
     0
  9
$DIMTFAC
 40
1.0
  9
$DIMGAP
 40
1.524
  9
$DIMJUST
 70
     0
  9
$DIMSD1
 70
     0
  9
$DIMSD2
 70
     0
  9
$DIMTOLJ
 70
     0
  9
$DIMTZIN
 70
     1
  9
$DIMALTZ
 70
     0
  9
$DIMALTTZ
 70
     0
  9
$DIMUPT
 70
     0
  9
$DIMDEC
 70
     2
  9
$DIMTDEC
 70
     2
  9
$DIMALTU
 70
     2
  9
$DIMALTTD
 70
     3
  9
$DIMTXSTY
  7
Standard
  9
$DIMAUNIT
 70
     0
  9
$DIMADEC
 70
     0
  9
$DIMALTRND
 40
0.0
  9
$DIMAZIN
 70
     0
  9
$DIMDSEP
 70
    44
  9
$DIMATFIT
 70
     3
  9
$DIMFRAC
 70
     0
  9
$DIMLDRBLK
  1

  9
$DIMLUNIT
 70
     2
  9
$DIMLWD
 70
    -2
  9
$DIMLWE
 70
    -2
  9
$DIMTMOVE
 70
     0
  9
$LUNITS
 70
     2
  9
$LUPREC
 70
     3
  9
$SKETCHINC
 40
1.0
  9
$FILLETRAD
 40
10.0
  9
$AUNITS
 70
     0
  9
$AUPREC
 70
     0
  9
$MENU
  1
.
  9
$ELEVATION
 40
0.0
  9
$PELEVATION
 40
0.0
  9
$THICKNESS
 40
0.0
  9
$LIMCHECK
 70
     0
  9
$CHAMFERA
 40
10.0
  9
$CHAMFERB
 40
10.0
  9
$CHAMFERC
 40
20.0
  9
$CHAMFERD
 40
0.0
  9
$SKPOLY
 70
     0
  9
$TDCREATE
 40
2456366.751886748
  9
$TDUCREATE
 40
2456366.376886748
  9
$TDUPDATE
 40
2456366.751886759
  9
$TDUUPDATE
 40
2456366.376886759
  9
$TDINDWG
 40
0.0000000116
  9
$TDUSRTIMER
 40
0.0000000116
  9
$USRTIMER
 70
     1
  9
$ANGBASE
 50
0.0
  9
$ANGDIR
 70
     0
  9
$PDMODE
 70
     0
  9
$PDSIZE
 40
-1.0
  9
$PLINEWID
 40
0.0
  9
$SPLFRAME
 70
     0
  9
$SPLINETYPE
 70
     6
  9
$SPLINESEGS
 70
     8
  9
$HANDSEED
  5
275
  9
$SURFTAB1
 70
     6
  9
$SURFTAB2
 70
     6
  9
$SURFTYPE
 70
     6
  9
$SURFU
 70
     6
  9
$SURFV
 70
     6
  9
$UCSBASE
  2

  9
$UCSNAME
  2

  9
$UCSORG
 10
0.0
 20
0.0
 30
0.0
  9
$UCSXDIR
 10
1.0
 20
0.0
 30
0.0
  9
$UCSYDIR
 10
0.0
 20
1.0
 30
0.0
  9
$UCSORTHOREF
  2

  9
$UCSORTHOVIEW
 70
     0
  9
$UCSORGTOP
 10
0.0
 20
0.0
 30
0.0
  9
$UCSORGBOTTOM
 10
0.0
 20
0.0
 30
0.0
  9
$UCSORGLEFT
 10
0.0
 20
0.0
 30
0.0
  9
$UCSORGRIGHT
 10
0.0
 20
0.0
 30
0.0
  9
$UCSORGFRONT
 10
0.0
 20
0.0
 30
0.0
  9
$UCSORGBACK
 10
0.0
 20
0.0
 30
0.0
  9
$PUCSBASE
  2

  9
$PUCSNAME
  2

  9
$PUCSORG
 10
0.0
 20
0.0
 30
0.0
  9
$PUCSXDIR
 10
1.0
 20
0.0
 30
0.0
  9
$PUCSYDIR
 10
0.0
 20
1.0
 30
0.0
  9
$PUCSORTHOREF
  2

  9
$PUCSORTHOVIEW
 70
     0
  9
$PUCSORGTOP
 10
0.0
 20
0.0
 30
0.0
  9
$PUCSORGBOTTOM
 10
0.0
 20
0.0
 30
0.0
  9
$PUCSORGLEFT
 10
0.0
 20
0.0
 30
0.0
  9
$PUCSORGRIGHT
 10
0.0
 20
0.0
 30
0.0
  9
$PUCSORGFRONT
 10
0.0
 20
0.0
 30
0.0
  9
$PUCSORGBACK
 10
0.0
 20
0.0
 30
0.0
  9
$USERI1
 70
     0
  9
$USERI2
 70
     0
  9
$USERI3
 70
     0
  9
$USERI4
 70
     0
  9
$USERI5
 70
     0
  9
$USERR1
 40
0.0
  9
$USERR2
 40
0.0
  9
$USERR3
 40
0.0
  9
$USERR4
 40
0.0
  9
$USERR5
 40
0.0
  9
$WORLDVIEW
 70
     1
  9
$SHADEDGE
 70
     3
  9
$SHADEDIF
 70
    70
  9
$TILEMODE
 70
     1
  9
$MAXACTVP
 70
    64
  9
$PINSBASE
 10
0.0
 20
0.0
 30
0.0
  9
$PLIMCHECK
 70
     0
  9
$PEXTMIN
 10
1.0000000000E+20
 20
1.0000000000E+20
 30
1.0000000000E+20
  9
$PEXTMAX
 10
-1.0000000000E+20
 20
-1.0000000000E+20
 30
-1.0000000000E+20
  9
$PLIMMIN
 10
0.0
 20
0.0
  9
$PLIMMAX
 10
420.0
 20
297.0
  9
$UNITMODE
 70
     0
  9
$VISRETAIN
 70
     1
  9
$PLINEGEN
 70
     0
  9
$PSLTSCALE
 70
     1
  9
$TREEDEPTH
 70
  3020
  9
$CMLSTYLE
  2
Standard
  9
$CMLJUST
 70
     0
  9
$CMLSCALE
 40
20.0
  9
$PROXYGRAPHICS
 70
     1
  9
$MEASUREMENT
 70
     1
  9
$CELWEIGHT
370
    -1
  9
$ENDCAPS
280
     0
  9
$JOINSTYLE
280
     0
  9
$LWDISPLAY
290
     1
  9
$INSUNITS
 70
     4
  9
$HYPERLINKBASE
  1

  9
$STYLESHEET
  1

  9
$XEDIT
290
     1
  9
$CEPSNTYPE
380
     0
  9
$PSTYLEMODE
290
     1
  9
$FINGERPRINTGUID
  2
{CD5F171E-7735-4BB3-ADDC-527AF0086CF1}
  9
$VERSIONGUID
  2
{FAEB1C32-E019-11D5-929B-00C0DF256EC4}
  9
$EXTNAMES
290
     1
  9
$PSVPSCALE
 40
0.0
  9
$OLESTARTUP
290
     0
  0
ENDSEC
  0
SECTION
  2
CLASSES
  0
CLASS
  1
ACDBDICTIONARYWDFLT
  2
AcDbDictionaryWithDefault
  3
ObjectDBX Classes
 90
        0
280
     0
281
     0
  0
CLASS
  1
VISUALSTYLE
  2
AcDbVisualStyle
  3
ObjectDBX Classes
 90
     4095
280
     0
281
     0
  0
CLASS
  1
DICTIONARYVAR
  2
AcDbDictionaryVar
  3
ObjectDBX Classes
 90
        0
280
     0
281
     0
  0
CLASS
  1
ACDBPLACEHOLDER
  2
AcDbPlaceHolder
  3
ObjectDBX Classes
 90
        0
280
     0
281
     0
  0
CLASS
  1
LAYOUT
  2
AcDbLayout
  3
ObjectDBX Classes
 90
        0
280
     0
281
     0
  0
ENDSEC
  0
SECTION
  2
TABLES
  0
TABLE
  2
VPORT
  5
8
330
0
100
AcDbSymbolTable
 70
     1
  0
VPORT
  5
29
330
8
100
AcDbSymbolTableRecord
100
AcDbViewportTableRecord
  2
*Active
 70
     0
 10
0.0
 20
0.0
 11
1.0
 21
1.0
 12
420.5
 22
297.0
 13
0.0
 23
0.0
 14
10.0
 24
10.0
 15
10.0
 25
10.0
 16
0.0
 26
0.0
 36
1.0
 17
0.0
 27
0.0
 37
0.0
 40
594.0
 41
1.4158249158
 42
50.0
 43
0.0
 44
0.0
 50
0.0
 51
0.0
 71
     0
 72
  2000
 73
     1
 74
     3
 75
     0
 76
     0
 77
     0
 78
     0
281
     0
 65
     1
110
0.0
120
0.0
130
0.0
111
1.0
121
0.0
131
0.0
112
0.0
122
1.0
132
0.0
 79
     0
146
0.0
  0
ENDTAB
  0
TABLE
  2
LTYPE
  5
5
330
0
100
AcDbSymbolTable
 70
     6
  0
LTYPE
  5
14
330
5
100
AcDbSymbolTableRecord
100
AcDbLinetypeTableRecord
  2
ByBlock
 70
     0
  3

 72
    65
 73
     0
 40
0.0
  0
LTYPE
  5
15
330
5
100
AcDbSymbolTableRecord
100
AcDbLinetypeTableRecord
  2
ByLayer
 70
     0
  3

 72
    65
 73
     0
 40
0.0
  0
LTYPE
  5
16
330
5
100
AcDbSymbolTableRecord
100
AcDbLinetypeTableRecord
  2
Continuous
 70
     0
  3
Solid line
 72
    65
 73
     0
 40
0.0
  0
LTYPE
  5
3B
330
5
100
AcDbSymbolTableRecord
100
AcDbLinetypeTableRecord
  2
HIDDEN
 70
     0
  3
Hidden __ __ __ __ __ __ __ __ __ __ __ __ __ __
 72
    65
 73
     2
 40
1.905
 49
1.27
 74
     0
 49
-0.635
 74
     0
  0
LTYPE
  5
3C
330
5
100
AcDbSymbolTableRecord
100
AcDbLinetypeTableRecord
  2
PHANTOM
 70
     0
  3
Phantom ______  __  __  ______  __  __  ______
 72
    65
 73
     6
 40
12.7
 49
6.35
 74
     0
 49
-1.27
 74
     0
 49
1.27
 74
     0
 49
-1.27
 74
     0
 49
1.27
 74
     0
 49
-1.27
 74
     0
  0
LTYPE
  5
3D
330
5
100
AcDbSymbolTableRecord
100
AcDbLinetypeTableRecord
  2
CENTER
 70
     0
  3
Center ____ _ ____ _ ____ _ ____ _ ____ _ ____
 72
    65
 73
     4
 40
10.16
 49
6.35
 74
     0
 49
-1.27
 74
     0
 49
1.27
 74
     0
 49
-1.27
 74
     0
  0
LTYPE
  5
3E
330
5
100
AcDbSymbolTableRecord
100
AcDbLinetypeTableRecord
  2
CENTERX2
 70
     0
  3
Center (2x) ________  __  ________  __  _____
 72
    65
 73
     4
 40
20.32
 49
12.7
 74
     0
 49
-2.54
 74
     0
 49
2.54
 74
     0
 49
-2.54
 74
     0
  0
LTYPE
  5
3F
330
5
100
AcDbSymbolTableRecord
100
AcDbLinetypeTableRecord
  2
DOT2
 70
     0
  3
Dot (.5x) ........................................
 72
    65
 73
     2
 40
0.635
 49
0.0
 74
     0
 49
-0.635
 74
     0
  0
ENDTAB
  0
TABLE
  2
LAYER
  5
2
330
0
100
AcDbSymbolTable
 70
     4
  0
LAYER
  5
10
330
2
100
AcDbSymbolTableRecord
100
AcDbLayerTableRecord
  2
0
 70
     0
 62
     7
  6
Continuous
370
    -3
390
F
  0
LAYER
  5
40
330
2
100
AcDbSymbolTableRecord
100
AcDbLayerTableRecord
  2
SLD-0
 70
     0
 62
     3
  6
Continuous
370
    -3
390
F
  0
LAYER
  5
41
330
2
100
AcDbSymbolTableRecord
100
AcDbLayerTableRecord
  2
SLD-DEFPOINTS
 70
     0
 62
   179
  6
Continuous
370
    -3
390
F
  0
LAYER
  5
42
330
2
100
AcDbSymbolTableRecord
100
AcDbLayerTableRecord
  2
AM_REFDIM
 70
     0
 62
     4
  6
Continuous
370
    15
390
F
  0
ENDTAB
  0
TABLE
  2
STYLE
  5
3
330
0
100
AcDbSymbolTable
 70
     1
  0
STYLE
  5
11
330
3
100
AcDbSymbolTableRecord
100
AcDbTextStyleTableRecord
  2
Standard
 70
     0
 40
0.0
 41
1.0
 50
0.0
 71
     0
 42
2.5
  3
txt
  4
bigfont
  0
ENDTAB
  0
TABLE
  2
VIEW
  5
6
330
0
100
AcDbSymbolTable
 70
     0
  0
ENDTAB
  0
TABLE
  2
UCS
  5
7
330
0
100
AcDbSymbolTable
 70
     0
  0
ENDTAB
  0
TABLE
  2
APPID
  5
9
330
0
100
AcDbSymbolTable
 70
     1
  0
APPID
  5
12
330
9
100
AcDbSymbolTableRecord
100
AcDbRegAppTableRecord
  2
ACAD
 70
     0
  0
ENDTAB
  0
TABLE
  2
DIMSTYLE
  5
A
330
0
100
AcDbSymbolTable
 70
     1
100
AcDbDimStyleTable
  0
DIMSTYLE
105
27
330
A
100
AcDbSymbolTableRecord
100
AcDbDimStyleTableRecord
  2
ISO-25
 70
     0
 41
2.5
 42
0.625
 43
3.75
 44
1.25
 73
     0
 74
     0
 77
     1
 78
     8
140
2.5
141
2.5
143
0.0393700787
147
0.625
171
     3
172
     1
271
     2
272
     2
274
     3
278
    44
283
     0
284
     8
340
11
  0
ENDTAB
  0
TABLE
  2
BLOCK_RECORD
  5
1
330
0
100
AcDbSymbolTable
 70
     1
  0
BLOCK_RECORD
  5
1F
330
1
100
AcDbSymbolTableRecord
100
AcDbBlockTableRecord
  2
*Model_Space
340
22
  0
BLOCK_RECORD
  5
1B
330
1
100
AcDbSymbolTableRecord
100
AcDbBlockTableRecord
  2
*Paper_Space
340
1E
  0
BLOCK_RECORD
  5
23
330
1
100
AcDbSymbolTableRecord
100
AcDbBlockTableRecord
  2
*Paper_Space0
340
26
  0
ENDTAB
  0
ENDSEC
  0
SECTION
  2
BLOCKS
  0
BLOCK
  5
20
330
1F
100
AcDbEntity
  8
0
100
AcDbBlockBegin
  2
*Model_Space
 70
     0
 10
0.0
 20
0.0
 30
0.0
  3
*Model_Space
  1

  0
ENDBLK
  5
21
330
1F
100
AcDbEntity
  8
0
100
AcDbBlockEnd
  0
BLOCK
  5
1C
330
1B
100
AcDbEntity
 67
     1
  8
0
100
AcDbBlockBegin
  2
*Paper_Space
 70
     0
 10
0.0
 20
0.0
 30
0.0
  3
*Paper_Space
  1

  0
ENDBLK
  5
1D
330
1B
100
AcDbEntity
 67
     1
  8
0
100
AcDbBlockEnd
  0
BLOCK
  5
24
330
23
100
AcDbEntity
  8
0
100
AcDbBlockBegin
  2
*Paper_Space0
 70
     0
 10
0.0
 20
0.0
 30
0.0
  3
*Paper_Space0
  1

  0
ENDBLK
  5
25
330
23
100
AcDbEntity
  8
0
100
AcDbBlockEnd
  0
ENDSEC
  0
SECTION
  2
ENTITIES
  0
ARC
  5
43
330
1F
100
AcDbEntity
  8
0
  6
Continuous
 62
     7
370
    15
100
AcDbCircle
 10
233.2408513239
 20
309.5674566638
 30
0.0
 40
3.988226635556696
100
AcDbArc
 50
2.6083214027
 51
177.278230716
  0
LINE
  5
44
330
1F
100
AcDbEntity
  8
0
  6
Continuous
 62
     7
370
    15
100
AcDbLine
 10
237.2571250983
 20
309.2068414819
 30
0.0
 11
237.2571250983
 21
309.7568414789
 31
0.0
  0
LINE
  5
45
330
1F
100
AcDbEntity
  8
0
  6
Continuous
 62
     7
370
    15
100
AcDbLine
 10
229.257123787
 20
309.7568414789
 30
0.0
 11
229.257123787
 21
309.2068414819
 31
0.0
  0
LINE
  5
46
330
1F
100
AcDbEntity
  8
0
  6
Continuous
 62
     7
370
    15
100
AcDbLine
 10
175.9571230598
 20
254.8568416071
 30
0.0
 11
176.7571217008
 21
254.8568416071
 31
0.0
  0
LINE
  5
47
330
1F
100
AcDbEntity
  8
0
  6
Continuous
 62
     7
370
    15
100
AcDbLine
 10
176.7571217008
 20
263.8568412197
 30
0.0
 11
175.9571230598
 21
263.8568412197
 31
0.0
  0
ARC
  5
48
330
1F
100
AcDbEntity
  8
0
  6
Continuous
 62
     7
370
    15
100
AcDbCircle
 10
174.8571228929
 20
261.3568421137
 30
0.0
 40
2.000000000000006
100
AcDbArc
 50
90.0
 51
132.3072493592
  0
ARC
  5
49
330
1F
100
AcDbEntity
  8
0
  6
Continuous
 62
     7
370
    15
100
AcDbCircle
 10
174.8571228929
 20
257.3568421137
 30
0.0
 40
2.000000000000057
100
AcDbArc
 50
227.7525973771
 51
270.0
  0
LINE
  5
4A
330
1F
100
AcDbEntity
  8
0
  6
Continuous
 62
     7
370
    15
100
AcDbLine
 10
175.9571230598
 20
263.356842069
 30
0.0
 11
174.8571193405
 21
263.356842069
 31
0.0
  0
LINE
  5
4B
330
1F
100
AcDbEntity
  8
0
  6
Continuous
 62
     7
370
    15
100
AcDbLine
 10
174.8571193405
 20
255.3568426204
 30
0.0
 11
175.9571230598
 21
255.3568426204
 31
0.0
  0
LINE
  5
4C
330
1F
100
AcDbEntity
  8
0
  6
Continuous
 62
     7
370
    15
100
AcDbLine
 10
210.6571218558
 20
323.9075932336
 30
0.0
 11
210.6571218558
 21
325.6176951957
 31
0.0
  0
LINE
  5
4D
330
1F
100
AcDbEntity
  8
0
  6
Continuous
 62
     7
370
    15
100
AcDbLine
 10
201.8571293541
 20
325.6176951957
 30
0.0
 11
201.8571293541
 21
323.9075932336
 31
0.0
  0
LINE
  5
4E
330
1F
100
AcDbEntity
  8
0
  6
Continuous
 62
     7
370
    15
100
AcDbLine
 10
212.5071233698
 20
325.959714098
 30
0.0
 11
212.5071233698
 21
326.3017330003
 31
0.0
  0
LINE
  5
4F
330
1F
100
AcDbEntity
  8
0
  6
Continuous
 62
     7
370
    15
100
AcDbLine
 10
200.0071203895
 20
326.3017330003
 30
0.0
 11
200.0071203895
 21
325.959714098
 31
0.0
  0
LINE
  5
50
330
1F
100
AcDbEntity
  8
0
  6
Continuous
 62
     7
370
    15
100
AcDbLine
 10
216.2571197935
 20
327.3277934325
 30
0.0
 11
216.2571197935
 21
328.3538538647
 31
0.0
  0
LINE
  5
51
330
1F
100
AcDbEntity
  8
0
  6
Continuous
 62
     7
370
    15
100
AcDbLine
 10
196.2571239658
 20
328.3538538647
 30
0.0
 11
196.2571239658
 21
327.3277934325
 31
0.0
  0
LINE
  5
52
330
1F
100
AcDbEntity
  8
0
  6
Continuous
 62
     7
370
    15
100
AcDbLine
 10
263.8571208902
 20
372.6051728857
 30
0.0
 11
246.2571209856
 21
372.6051728857
 31
0.0
  0
LINE
  5
53
330
1F
100
AcDbEntity
  8
0
  6
Continuous
 62
     7
370
    15
100
AcDbLine
 10
246.2571209856
 20
332.6051700544
 30
0.0
 11
263.8571208902
 21
332.6051700544
 31
0.0
  0
LINE
  5
54
330
1F
100
AcDbEntity
  8
0
  6
Continuous
 62
     7
370
    15
100
AcDbLine
 10
184.8844832369
 20
332.0568408501
 30
0.0
 11
183.2571274229
 21
332.0568408501
 31
0.0
  0
ARC
  5
55
330
1F
100
AcDbEntity
  8
0
  6
Continuous
 62
     7
370
    15
100
AcDbCircle
 10
196.8571228929
 20
366.841165451
 30
0.0
 40
10.59999999999999
100
AcDbArc
 50
90.0
 51
180.0
  0
LINE
  5
56
330
1F
100
AcDbEntity
  8
0
  6
Continuous
 62
     7
370
    15
100
AcDbLine
 10
246.2571209856
 20
377.4411659372
 30
0.0
 11
196.8571192213
 21
377.4411659372
 31
0.0
  0
ARC
  5
57
330
1F
100
AcDbEntity
  8
0
  6
Continuous
 62
     7
370
    15
100
AcDbCircle
 10
184.5420614584
 20
333.7424762416
 30
0.0
 40
1.702993756585761
100
AcDbArc
 50
280.1828005418
 51
3.9714736418
  0
LINE
  5
58
330
1F
100
AcDbEntity
  8
0
  6
Continuous
 62
     7
370
    15
100
AcDbLine
 10
293.2571231016
 20
282.3568419237
 30
0.0
 11
304.257123042
 21
282.3568419237
 31
0.0
  0
LINE
  5
59
330
1F
100
AcDbEntity
  8
0
  6
Continuous
 62
     7
370
    15
100
AcDbLine
 10
304.257123042
 20
290.3568423037
 30
0.0
 11
293.2571231016
 21
290.3568423037
 31
0.0
  0
LINE
  5
5A
330
1F
100
AcDbEntity
  8
0
  6
Continuous
 62
     7
370
    15
100
AcDbLine
 10
299.8041866907
 20
329.5368347001
 30
0.0
 11
300.2930341848
 21
327.7124259305
 31
0.0
  0
LINE
  5
5B
330
1F
100
AcDbEntity
  8
0
  6
Continuous
 62
     7
370
    15
100
AcDbLine
 10
296.9934961387
 20
342.2423060667
 30
0.0
 11
297.5111326762
 21
340.3104524744
 31
0.0
  0
LINE
  5
5C
330
1F
100
AcDbEntity
  8
0
  6
Continuous
 62
     7
370
    15
100
AcDbLine
 10
305.2385395952
 20
342.3810060751
 30
0.0
 11
304.7209030577
 21
344.3128559422
 31
0.0
  0
LINE
  5
5D
330
1F
100
AcDbEntity
  8
0
  6
Continuous
 62
     7
370
    15
100
AcDbLine
 10
353.8071236201
 20
368.856845392
 30
0.0
 11
353.8071236201
 21
369.3568389547
 31
0.0
  0
LINE
  5
5E
330
1F
100
AcDbEntity
  8
0
  6
Continuous
 62
     7
370
    15
100
AcDbLine
 10
317.7071225457
 20
369.3568389547
 30
0.0
 11
317.7071225457
 21
368.856845392
 31
0.0
  0
LINE
  5
5F
330
1F
100
AcDbEntity
  8
0
  6
Continuous
 62
     7
370
    15
100
AcDbLine
 10
317.7071225457
 20
203.8568388355
 30
0.0
 11
317.7071225457
 21
203.3568452728
 31
0.0
  0
LINE
  5
60
330
1F
100
AcDbEntity
  8
0
  6
Continuous
 62
     7
370
    15
100
AcDbLine
 10
353.8071236201
 20
203.3568452728
 30
0.0
 11
353.8071236201
 21
203.8568388355
 31
0.0
  0
LINE
  5
61
330
1F
100
AcDbEntity
  8
0
  6
Continuous
 62
     7
370
    15
100
AcDbLine
 10
176.7571217008
 20
240.3568420243
 30
0.0
 11
183.2571274229
 21
240.3568420243
 31
0.0
  0
LINE
  5
62
330
1F
100
AcDbEntity
  8
0
  6
Continuous
 62
     7
370
    15
100
AcDbLine
 10
183.2571274229
 20
332.3568422031
 30
0.0
 11
176.7571217008
 21
332.3568422031
 31
0.0
  0
ARC
  5
63
330
1F
100
AcDbEntity
  8
0
  6
Continuous
 62
     7
370
    15
100
AcDbCircle
 10
174.7571228929
 20
308.3389621356
 30
0.0
 40
2.0
100
AcDbArc
 50
274.0960437582
 51
0.0
  0
ARC
  5
64
330
1F
100
AcDbEntity
  8
0
  6
Continuous
 62
     7
370
    15
100
AcDbCircle
 10
174.7571228929
 20
264.3747220918
 30
0.0
 40
2.0
100
AcDbArc
 50
0.0
 51
85.9039562418
  0
ARC
  5
65
330
1F
100
AcDbEntity
  8
0
  6
Continuous
 62
     7
370
    15
100
AcDbCircle
 10
175.2571228929
 20
301.3568421137
 30
0.0
 40
5.000000000000038
100
AcDbArc
 50
94.0960437582
 51
180.0
  0
ARC
  5
66
330
1F
100
AcDbEntity
  8
0
  6
Continuous
 62
     7
370
    15
100
AcDbCircle
 10
175.2571228929
 20
271.3568421137
 30
0.0
 40
5.0
100
AcDbArc
 50
180.0
 51
265.9039562418
  0
LINE
  5
67
330
1F
100
AcDbEntity
  8
0
  6
Continuous
 62
     7
370
    15
100
AcDbLine
 10
288.2571241446
 20
331.4568418694
 30
0.0
 11
246.2571209856
 21
331.4568418694
 31
0.0
  0
LINE
  5
68
330
1F
100
AcDbEntity
  8
0
  6
Continuous
 62
     7
370
    15
100
AcDbLine
 10
183.2571274229
 20
241.2568423581
 30
0.0
 11
288.2571241446
 21
241.2568423581
 31
0.0
  0
LINE
  5
69
330
1F
100
AcDbEntity
  8
0
  6
Continuous
 62
     7
370
    15
100
AcDbLine
 10
293.2571231016
 20
332.3568422031
 30
0.0
 11
288.2571241446
 21
332.3568422031
 31
0.0
  0
LINE
  5
6A
330
1F
100
AcDbEntity
  8
0
  6
Continuous
 62
     7
370
    15
100
AcDbLine
 10
288.2571241446
 20
240.3568420243
 30
0.0
 11
293.2571231016
 21
240.3568420243
 31
0.0
  0
LINE
  5
6B
330
1F
100
AcDbEntity
  8
0
  6
Continuous
 62
     7
370
    15
100
AcDbLine
 10
304.257123042
 20
271.856842531
 30
0.0
 11
308.2571236976
 21
271.856842531
 31
0.0
  0
ARC
  5
6C
330
1F
100
AcDbEntity
  8
0
  6
Continuous
 62
     7
370
    15
100
AcDbCircle
 10
304.2571228929
 20
303.8568421137
 30
0.0
 40
7.000000000000012
100
AcDbArc
 50
235.150095421
 51
270.0
  0
LINE
  5
6D
330
1F
100
AcDbEntity
  8
0
  6
Continuous
 62
     7
370
    15
100
AcDbLine
 10
346.4437129535
 20
306.85684268
 30
0.0
 11
340.7571225055
 21
323.5585633349
 31
0.0
  0
LINE
  5
6E
330
1F
100
AcDbEntity
  8
0
  6
Continuous
 62
     7
370
    15
100
AcDbLine
 10
354.7571229376
 20
306.85684268
 30
0.0
 11
346.4437129535
 21
306.85684268
 31
0.0
  0
ARC
  5
6F
330
1F
100
AcDbEntity
  8
0
  6
Continuous
 62
     7
370
    15
100
AcDbCircle
 10
350.7786868627
 20
347.3568516173
 30
0.0
 40
2.999987898065703
100
AcDbArc
 50
90.0629801648
 51
165.9357443738
  0
ARC
  5
70
330
1F
100
AcDbEntity
  8
0
  6
Continuous
 62
     7
370
    15
100
AcDbCircle
 10
318.3344984779
 20
347.3568421137
 30
0.0
 40
3.00000000000006
100
AcDbArc
 50
2.8530142744
 51
89.9330873647
  0
ARC
  5
71
330
1F
100
AcDbEntity
  8
0
  6
Continuous
 62
     7
370
    15
100
AcDbCircle
 10
319.5559768583
 20
225.3568515913
 30
0.0
 40
3.000012588377948
100
AcDbArc
 50
270.0124650091
 51
344.8260071989
  0
ARC
  5
72
330
1F
100
AcDbEntity
  8
0
  6
Continuous
 62
     7
370
    15
100
AcDbCircle
 10
355.9329014111
 20
225.3568431195
 30
0.0
 40
3.000004073948382
100
AcDbArc
 50
140.8038896439
 51
269.9921288818
  0
LWPOLYLINE
  5
73
330
1F
100
AcDbEntity
  8
0
  6
Continuous
 62
     7
370
    15
100
AcDbPolyline
 90
       17
 70
   128
 43
0.0
 10
376.7571246811
 20
278.3568417338
 10
376.7571246811
 20
281.7507050616
 10
376.7571246811
 20
284.7919824683
 10
376.6855208763
 20
287.9260235616
 10
376.1757223495
 20
290.7773172167
 10
375.350488592
 20
293.1339046602
 10
374.3777407893
 20
295.0307819676
 10
373.3865341731
 20
296.5140631106
 10
372.7646006831
 20
297.297961047
 10
372.2003272363
 20
297.93510676
 10
371.4550791868
 20
298.6875381005
 10
370.2402173169
 20
299.7367558685
 10
368.4633059986
 20
300.9582273346
 10
366.0222052225
 20
302.1633326691
 10
362.8240379133
 20
303.0804115963
 10
358.8146625646
 20
303.3568430376
 10
354.7571229376
 20
303.3568430376
  0
LWPOLYLINE
  5
74
330
1F
100
AcDbEntity
  8
0
  6
Continuous
 62
     7
370
    15
100
AcDbPolyline
 90
        9
 70
   128
 43
0.0
 10
353.6021693238
 20
227.2464353275
 10
358.6263379641
 20
233.2232203019
 10
363.3518612572
 20
238.8447355163
 10
367.4231565185
 20
243.6879742575
 10
370.8402237483
 20
247.7529402506
 10
373.3643239923
 20
251.1933128965
 10
374.8429252394
 20
254.0670241845
 10
375.6838834473
 20
256.3363071215
 10
376.2002831884
 20
258.3568412495
  0
ARC
  5
75
330
1F
100
AcDbEntity
  8
0
  6
Continuous
 62
     7
370
    15
100
AcDbCircle
 10
362.5547366925
 20
214.9471548283
 30
0.0
 40
41.18849282086381
100
AcDbArc
 50
150.2972374405
 51
166.4954511123
  0
LWPOLYLINE
  5
76
330
1F
100
AcDbEntity
  8
0
  6
Continuous
 62
     7
370
    15
100
AcDbPolyline
 90
        3
 70
   128
 43
0.0
 10
330.9855307546
 20
242.1017866266
 10
328.8727782295
 20
239.0533554983
 10
328.7469006703
 20
238.8311717343
  0
LWPOLYLINE
  5
77
330
1F
100
AcDbEntity
  8
0
  6
Continuous
 62
     7
370
    15
100
AcDbPolyline
 90
        4
 70
   128
 43
0.0
 10
321.3311762177
 20
347.5090171826
 10
321.5198146739
 20
343.8926767242
 10
321.7227601074
 20
340.1408660841
 10
321.8861001172
 20
337.2481073868
  0
ARC
  5
78
330
1F
100
AcDbEntity
  8
0
  6
Continuous
 62
     7
370
    15
100
AcDbCircle
 10
173.1510548941
 20
387.5291286676
 30
0.0
 40
179.1197744752463
100
AcDbArc
 50
339.3448807497
 51
347.3425232023
  0
LINE
  5
79
330
1F
100
AcDbEntity
  8
0
  6
Continuous
 62
     7
370
    15
100
AcDbLine
 10
328.7571228669
 20
242.0903015566
 30
0.0
 11
331.0606362159
 21
242.0903015566
 31
0.0
  0
LINE
  5
7A
330
1F
100
AcDbEntity
  8
0
  6
Continuous
 62
     7
370
    15
100
AcDbLine
 10
320.7571229525
 20
235.3568430674
 30
0.0
 11
326.7635738105
 21
235.3568430674
 31
0.0
  0
LINE
  5
7B
330
1F
100
AcDbEntity
  8
0
  6
Continuous
 62
     7
370
    15
100
AcDbLine
 10
321.9838228636
 20
337.3568411601
 30
0.0
 11
320.7571229525
 21
337.3568411601
 31
0.0
  0
LINE
  5
7C
330
1F
100
AcDbEntity
  8
0
  6
Continuous
 62
     7
370
    15
100
AcDbLine
 10
307.7571226843
 20
241.7507897747
 30
0.0
 11
312.7571235039
 21
241.7507897747
 31
0.0
  0
LINE
  5
7D
330
1F
100
AcDbEntity
  8
0
  6
Continuous
 62
     7
370
    15
100
AcDbLine
 10
307.7571226843
 20
241.7507897747
 30
0.0
 11
307.7571226843
 21
247.524293108
 31
0.0
  0
LINE
  5
7E
330
1F
100
AcDbEntity
  8
0
  6
Continuous
 62
     7
370
    15
100
AcDbLine
 10
307.7571226843
 20
247.524293108
 30
0.0
 11
312.7571235039
 21
247.524293108
 31
0.0
  0
LINE
  5
7F
330
1F
100
AcDbEntity
  8
0
  6
Continuous
 62
     7
370
    15
100
AcDbLine
 10
307.7571226843
 20
238.8640399706
 30
0.0
 11
312.7571235039
 21
238.8640399706
 31
0.0
  0
LINE
  5
80
330
1F
100
AcDbEntity
  8
0
  6
Continuous
 62
     7
370
    15
100
AcDbLine
 10
307.7571226843
 20
238.8640399706
 30
0.0
 11
307.7571226843
 21
241.7507897747
 31
0.0
  0
LINE
  5
81
330
1F
100
AcDbEntity
  8
0
  6
Continuous
 62
     7
370
    15
100
AcDbLine
 10
307.7571226843
 20
250.411042912
 30
0.0
 11
312.7571235039
 21
250.411042912
 31
0.0
  0
LINE
  5
82
330
1F
100
AcDbEntity
  8
0
  6
Continuous
 62
     7
370
    15
100
AcDbLine
 10
307.7571226843
 20
247.524293108
 30
0.0
 11
307.7571226843
 21
250.411042912
 31
0.0
  0
LINE
  5
83
330
1F
100
AcDbEntity
  8
0
  6
Continuous
 62
     7
370
    15
100
AcDbLine
 10
307.7571226843
 20
322.6561937165
 30
0.0
 11
312.7571235039
 21
322.6561937165
 31
0.0
  0
LINE
  5
84
330
1F
100
AcDbEntity
  8
0
  6
Continuous
 62
     7
370
    15
100
AcDbLine
 10
307.7571226843
 20
325.5429435205
 30
0.0
 11
312.7571235039
 21
325.5429435205
 31
0.0
  0
LINE
  5
85
330
1F
100
AcDbEntity
  8
0
  6
Continuous
 62
     7
370
    15
100
AcDbLine
 10
307.7571226843
 20
322.6561937165
 30
0.0
 11
307.7571226843
 21
325.5429435205
 31
0.0
  0
LINE
  5
86
330
1F
100
AcDbEntity
  8
0
  6
Continuous
 62
     7
370
    15
100
AcDbLine
 10
307.7571226843
 20
331.3164468539
 30
0.0
 11
312.7571235039
 21
331.3164468539
 31
0.0
  0
LINE
  5
87
330
1F
100
AcDbEntity
  8
0
  6
Continuous
 62
     7
370
    15
100
AcDbLine
 10
307.7571226843
 20
334.2031966579
 30
0.0
 11
312.7571235039
 21
334.2031966579
 31
0.0
  0
LINE
  5
88
330
1F
100
AcDbEntity
  8
0
  6
Continuous
 62
     7
370
    15
100
AcDbLine
 10
312.7571235039
 20
331.3164468539
 30
0.0
 11
312.7571235039
 21
331.6062185597
 31
0.0
  0
LINE
  5
89
330
1F
100
AcDbEntity
  8
0
  6
Continuous
 62
     7
370
    15
100
AcDbLine
 10
312.7571235039
 20
334.0428378117
 30
0.0
 11
312.7571235039
 21
334.2031966579
 31
0.0
  0
LINE
  5
8A
330
1F
100
AcDbEntity
  8
0
  6
Continuous
 62
     7
370
    15
100
AcDbLine
 10
307.7571226843
 20
331.3164468539
 30
0.0
 11
307.7571226843
 21
334.2031966579
 31
0.0
  0
LINE
  5
8B
330
1F
100
AcDbEntity
  8
0
  6
Continuous
 62
     7
370
    15
100
AcDbLine
 10
312.7571235039
 20
330.7852875125
 30
0.0
 11
312.7571235039
 21
331.3164468539
 31
0.0
  0
LINE
  5
8C
330
1F
100
AcDbEntity
  8
0
  6
Continuous
 62
     7
370
    15
100
AcDbLine
 10
307.7571226843
 20
325.5429435205
 30
0.0
 11
307.7571226843
 21
331.3164468539
 31
0.0
  0
LINE
  5
8D
330
1F
100
AcDbEntity
  8
0
  6
Continuous
 62
     7
370
    15
100
AcDbLine
 10
229.7990045138
 20
310.8546361011
 30
0.0
 11
229.7990045138
 21
309.9886104149
 31
0.0
  0
ARC
  5
8E
330
1F
100
AcDbEntity
  8
0
  6
Continuous
 62
     7
370
    15
100
AcDbCircle
 10
231.2528093403
 20
307.0105852334
 30
0.0
 40
3.313937605756971
100
AcDbArc
 50
88.827358882
 51
116.0205882887
  0
LINE
  5
8F
330
1F
100
AcDbEntity
  8
0
  6
Continuous
 62
     7
370
    15
100
AcDbLine
 10
232.7571234294
 20
309.0797904563
 30
0.0
 11
232.7571234294
 21
307.4268083703
 31
0.0
  0
LINE
  5
90
330
1F
100
AcDbEntity
  8
0
  6
Continuous
 62
     7
370
    15
100
AcDbLine
 10
232.7571234294
 20
307.4268083703
 30
0.0
 11
233.7571254559
 21
307.4268083703
 31
0.0
  0
LINE
  5
91
330
1F
100
AcDbEntity
  8
0
  6
Continuous
 62
     7
370
    15
100
AcDbLine
 10
233.7571254559
 20
307.4268083703
 30
0.0
 11
233.7571254559
 21
309.0797904563
 31
0.0
  0
ARC
  5
92
330
1F
100
AcDbEntity
  8
0
  6
Continuous
 62
     7
370
    15
100
AcDbCircle
 10
235.3051086162
 20
307.2088418744
 30
0.0
 40
3.11698170901053
100
AcDbArc
 50
63.1021108386
 51
92.0499419907
  0
LINE
  5
93
330
1F
100
AcDbEntity
  8
0
  6
Continuous
 62
     7
370
    15
100
AcDbLine
 10
236.7152369209
 20
309.9886104149
 30
0.0
 11
236.7152369209
 21
310.8546361011
 31
0.0
  0
ARC
  5
94
330
1F
100
AcDbEntity
  8
0
  6
Continuous
 62
     7
370
    15
100
AcDbCircle
 10
235.2614441078
 20
307.8766654504
 30
0.0
 40
3.313883332314985
100
AcDbArc
 50
63.9791847549
 51
91.1728680743
  0
LINE
  5
95
330
1F
100
AcDbEntity
  8
0
  6
Continuous
 62
     7
370
    15
100
AcDbLine
 10
233.7571254559
 20
312.4338928294
 30
0.0
 11
233.7571254559
 21
313.4164400083
 31
0.0
  0
LINE
  5
96
330
1F
100
AcDbEntity
  8
0
  6
Continuous
 62
     7
370
    15
100
AcDbLine
 10
233.7571254559
 20
313.4164400083
 30
0.0
 11
232.7571234294
 21
313.4164400083
 31
0.0
  0
LINE
  5
97
330
1F
100
AcDbEntity
  8
0
  6
Continuous
 62
     7
370
    15
100
AcDbLine
 10
232.7571234294
 20
313.4164400083
 30
0.0
 11
232.7571234294
 21
312.4338928294
 31
0.0
  0
ARC
  5
98
330
1F
100
AcDbEntity
  8
0
  6
Continuous
 62
     7
370
    15
100
AcDbCircle
 10
231.2091328185
 20
308.0748675607
 30
0.0
 40
3.11698170901053
100
AcDbArc
 50
87.9500580093
 51
116.8978891614
  0
LINE
  5
99
330
1F
100
AcDbEntity
  8
0
  6
Continuous
 62
     7
370
    15
100
AcDbLine
 10
231.3206291386
 20
310.3238287997
 30
0.0
 11
232.7571234294
 21
310.3238287997
 31
0.0
  0
LINE
  5
9A
330
1F
100
AcDbEntity
  8
0
  6
Continuous
 62
     7
370
    15
100
AcDbLine
 10
232.7571234294
 20
310.3238287997
 30
0.0
 11
232.7571234294
 21
309.0797904563
 31
0.0
  0
LINE
  5
9B
330
1F
100
AcDbEntity
  8
0
  6
Continuous
 62
     7
370
    15
100
AcDbLine
 10
233.7571254559
 20
310.3238287997
 30
0.0
 11
235.1936122962
 21
310.3238287997
 31
0.0
  0
LINE
  5
9C
330
1F
100
AcDbEntity
  8
0
  6
Continuous
 62
     7
370
    15
100
AcDbLine
 10
233.7571254559
 20
309.0797904563
 30
0.0
 11
233.7571254559
 21
310.3238287997
 31
0.0
  0
LWPOLYLINE
  5
9D
330
1F
100
AcDbEntity
  8
0
  6
Continuous
 62
     7
370
    15
100
AcDbPolyline
 90
       13
 70
   128
 43
0.0
 10
237.2571250983
 20
309.2068414819
 10
237.2124439665
 20
308.6905441862
 10
236.8610000797
 20
307.7038246822
 10
236.1893302389
 20
306.8506549728
 10
235.2571210452
 20
306.2068428528
 10
234.1472080537
 20
305.8295920175
 10
232.9581996985
 20
305.7524263543
 10
231.7957601138
 20
305.9822003973
 10
230.7631617971
 20
306.4984976929
 10
229.9521660992
 20
307.2554450166
 10
229.4348350354
 20
308.1857803893
 10
229.257123787
 20
309.2068414819
 10
229.257123787
 20
309.2068414819
  0
LINE
  5
9E
330
1F
100
AcDbEntity
  8
0
  6
Continuous
 62
     7
370
    15
100
AcDbLine
 10
232.7571234294
 20
311.189854486
 30
0.0
 11
232.7571234294
 21
310.3238287997
 31
0.0
  0
LINE
  5
9F
330
1F
100
AcDbEntity
  8
0
  6
Continuous
 62
     7
370
    15
100
AcDbLine
 10
232.7571234294
 20
311.189854486
 30
0.0
 11
231.3206291386
 21
311.189854486
 31
0.0
  0
LINE
  5
A0
330
1F
100
AcDbEntity
  8
0
  6
Continuous
 62
     7
370
    15
100
AcDbLine
 10
235.1936122962
 20
311.189854486
 30
0.0
 11
233.7571254559
 21
311.189854486
 31
0.0
  0
LINE
  5
A1
330
1F
100
AcDbEntity
  8
0
  6
Continuous
 62
     7
370
    15
100
AcDbLine
 10
233.7571254559
 20
310.3238287997
 30
0.0
 11
233.7571254559
 21
311.189854486
 31
0.0
  0
LINE
  5
A2
330
1F
100
AcDbEntity
  8
0
  6
Continuous
 62
     7
370
    15
100
AcDbLine
 10
232.7571234294
 20
312.4338928294
 30
0.0
 11
232.7571234294
 21
311.189854486
 31
0.0
  0
LINE
  5
A3
330
1F
100
AcDbEntity
  8
0
  6
Continuous
 62
     7
370
    15
100
AcDbLine
 10
233.7571254559
 20
311.189854486
 30
0.0
 11
233.7571254559
 21
312.4338928294
 31
0.0
  0
LINE
  5
A4
330
1F
100
AcDbEntity
  8
0
  6
Continuous
 62
     7
370
    15
100
AcDbLine
 10
233.7571254559
 20
312.5016577226
 30
0.0
 11
232.7571234294
 21
312.5016577226
 31
0.0
  0
LINE
  5
A5
330
1F
100
AcDbEntity
  8
0
  6
Continuous
 62
     7
370
    15
100
AcDbLine
 10
175.9571230598
 20
263.8568412197
 30
0.0
 11
175.9571230598
 21
254.8568416071
 31
0.0
  0
LWPOLYLINE
  5
A6
330
1F
100
AcDbEntity
  8
0
  6
Continuous
 62
     7
370
    15
100
AcDbPolyline
 90
        2
 70
   128
 43
0.0
 10
173.527563233
 20
255.8987270725
 10
173.527563233
 20
255.8987270725
  0
ARC
  5
A7
330
1F
100
AcDbEntity
  8
0
  6
Continuous
 62
     7
370
    15
100
AcDbCircle
 10
174.8993030428
 20
257.4116302064
 30
0.0
 40
2.042191469659001
100
AcDbArc
 50
179.7553611328
 51
227.8015999983
  0
LINE
  5
A8
330
1F
100
AcDbEntity
  8
0
  6
Continuous
 62
     7
370
    15
100
AcDbLine
 10
172.8571301885
 20
257.4203498346
 30
0.0
 11
172.8571301885
 21
258.8568422627
 31
0.0
  0
LINE
  5
A9
330
1F
100
AcDbEntity
  8
0
  6
Continuous
 62
     7
370
    15
100
AcDbLine
 10
172.8571301885
 20
258.8568422627
 30
0.0
 11
173.527563233
 21
258.8568422627
 31
0.0
  0
LINE
  5
AA
330
1F
100
AcDbEntity
  8
0
  6
Continuous
 62
     7
370
    15
100
AcDbLine
 10
173.527563233
 20
258.8568422627
 30
0.0
 11
173.527563233
 21
259.8568424267
 31
0.0
  0
LINE
  5
AB
330
1F
100
AcDbEntity
  8
0
  6
Continuous
 62
     7
370
    15
100
AcDbLine
 10
173.527563233
 20
259.8568424267
 30
0.0
 11
172.8571301885
 21
259.8568424267
 31
0.0
  0
LINE
  5
AC
330
1F
100
AcDbEntity
  8
0
  6
Continuous
 62
     7
370
    15
100
AcDbLine
 10
172.8571301885
 20
259.8568424267
 30
0.0
 11
172.8571301885
 21
261.2933329922
 31
0.0
  0
ARC
  5
AD
330
1F
100
AcDbEntity
  8
0
  6
Continuous
 62
     7
370
    15
100
AcDbCircle
 10
174.8914612454
 20
261.3055095952
 30
0.0
 40
2.034367498404425
100
AcDbArc
 50
132.1001476094
 51
180.3429430168
  0
LWPOLYLINE
  5
AE
330
1F
100
AcDbEntity
  8
0
  6
Continuous
 62
     7
370
    15
100
AcDbPolyline
 90
        2
 70
   128
 43
0.0
 10
173.527563233
 20
262.8149576169
 10
173.527563233
 20
262.8149576169
  0
ARC
  5
AF
330
1F
100
AcDbEntity
  8
0
  6
Continuous
 62
     7
370
    15
100
AcDbCircle
 10
206.257125605
 20
325.4089929748
 30
0.0
 40
4.404943089829965
100
AcDbArc
 50
2.7156388775
 51
177.2843611225
  0
LWPOLYLINE
  5
B0
330
1F
100
AcDbEntity
  8
0
  6
Continuous
 62
     7
370
    15
100
AcDbPolyline
 90
       23
 70
   128
 43
0.0
 10
210.6571218558
 20
323.9075932336
 10
210.4788890668
 20
325.0724579823
 10
209.9586373754
 20
326.1429536772
 10
209.1385072657
 20
327.0323518348
 10
208.0849504658
 20
327.6686016154
 10
206.8833059259
 20
328.0001561773
 10
205.6309378334
 20
328.0001561773
 10
204.4292932936
 20
327.6686016154
 10
203.3757364937
 20
327.0323518348
 10
202.5556063839
 20
326.1429536772
 10
202.035347242
 20
325.0724579823
 10
201.8571293541
 20
323.9075932336
 10
202.035347242
 20
322.7427284849
 10
202.5556063839
 20
321.67223279
 10
203.3757364937
 20
320.7828346324
 10
204.4292932936
 20
320.1465848517
 10
205.6309378334
 20
319.8150302899
 10
206.8833059259
 20
319.8150302899
 10
208.0849504658
 20
320.1465848517
 10
209.1385072657
 20
320.7828346324
 10
209.9586373754
 20
321.67223279
 10
210.4788890668
 20
322.7427284849
 10
210.6571218558
 20
323.9075932336
  0
LWPOLYLINE
  5
B1
330
1F
100
AcDbEntity
  8
0
  6
Continuous
 62
     7
370
    15
100
AcDbPolyline
 90
       19
 70
   128
 43
0.0
 10
200.0071203895
 20
325.959714098
 10
200.1887357422
 20
327.3652326
 10
200.7230168768
 20
328.6890703869
 10
201.5789246746
 20
329.8542853129
 10
202.7067190596
 20
330.7931627762
 10
204.0408349224
 20
331.4511384499
 10
205.5037713238
 20
331.789972229
 10
207.0104798861
 20
331.789972229
 10
208.4734013863
 20
331.4511384499
 10
209.8075246998
 20
330.7931627762
 10
210.9353116341
 20
329.8542853129
 10
211.791219432
 20
328.6890703869
 10
212.3255080171
 20
327.3652326
 10
212.5071233698
 20
325.959714098
 10
212.3255080171
 20
324.554195596
 10
211.791219432
 20
323.2303578091
 10
210.9353116341
 20
322.0651428831
 10
209.8075246998
 20
321.1262654197
 10
209.026547391
 20
320.6946868134
  0
ARC
  5
B2
330
1F
100
AcDbEntity
  8
0
  6
Continuous
 62
     7
370
    15
100
AcDbCircle
 10
205.8636060555
 20
326.048310961
 30
0.0
 40
5.857155773864486
100
AcDbArc
 50
180.8667039293
 51
246.0685418785
  0
LWPOLYLINE
  5
B3
330
1F
100
AcDbEntity
  8
0
  6
Continuous
 62
     7
370
    15
100
AcDbPolyline
 90
       18
 70
   128
 43
0.0
 10
216.2571197935
 20
328.3538538647
 10
216.0764134117
 20
330.1322366726
 10
215.5407986232
 20
331.8463395965
 10
214.6696618386
 20
333.4342185092
 10
213.4944668599
 20
334.8384778631
 10
212.057689447
 20
336.0083643031
 10
210.4112750479
 20
336.9015995097
 10
208.6147090979
 20
337.4858963919
 10
206.7329383083
 20
337.7401362789
 10
204.8339790293
 20
337.6551326048
 10
202.9864436575
 20
337.2339587343
 10
201.2571191975
 20
336.491832478
 10
199.7085160204
 20
335.4555796516
 10
198.3965879866
 20
334.1626505983
 10
197.368765492
 20
332.6597753596
 10
196.6621971317
 20
331.0012761188
 10
196.3024085947
 20
329.2470890713
 10
196.2571239658
 20
328.3538538647
  0
LWPOLYLINE
  5
B4
330
1F
100
AcDbEntity
  8
0
  6
Continuous
 62
     7
370
    15
100
AcDbPolyline
 90
       34
 70
   128
 43
0.0
 10
216.2571197935
 20
327.3277934325
 10
216.0764134117
 20
329.1061762404
 10
215.5407986232
 20
330.8202791643
 10
214.6696618386
 20
332.408158077
 10
213.4944668599
 20
333.8124174309
 10
212.057689447
 20
334.9823038709
 10
210.4112750479
 20
335.8755390775
 10
208.6147090979
 20
336.4598359597
 10
206.7329383083
 20
336.7140758467
 10
204.8339790293
 20
336.6290721726
 10
202.9864436575
 20
336.2078983021
 10
201.2571191975
 20
335.4657720458
 10
199.7085160204
 20
334.4295192194
 10
198.3965879866
 20
333.1365901661
 10
197.368765492
 20
331.6337149274
 10
196.6621971317
 20
329.9752156866
 10
196.3024085947
 20
328.2210286391
 10
196.3024085947
 20
326.4345582259
 10
196.6621971317
 20
324.6803749037
 10
197.368765492
 20
323.0218719375
 10
198.3965879866
 20
321.5190004241
 10
199.7085160204
 20
320.2260713708
 10
201.2571191975
 20
319.1898185444
 10
202.9864436575
 20
318.4476922882
 10
204.8339790293
 20
318.0265146923
 10
206.7329383083
 20
317.9415110183
 10
208.6147090979
 20
318.1957546306
 10
210.4112750479
 20
318.7800515127
 10
212.057689447
 20
319.673282994
 10
213.4944668599
 20
320.8431731594
 10
214.6696618386
 20
322.2474325132
 10
215.5407986232
 20
323.8353114259
 10
216.0764134117
 20
325.5494143498
 10
216.2571197935
 20
327.3277934325
  0
LINE
  5
B5
330
1F
100
AcDbEntity
  8
0
  6
Continuous
 62
     7
370
    15
100
AcDbLine
 10
263.8571208902
 20
372.6051728857
 30
0.0
 11
263.8571208902
 21
332.6051700544
 31
0.0
  0
LINE
  5
B6
330
1F
100
AcDbEntity
  8
0
  6
Continuous
 62
     7
370
    15
100
AcDbLine
 10
246.2571209856
 20
368.2514037621
 30
0.0
 11
246.2571209856
 21
354.6652476919
 31
0.0
  0
LINE
  5
B7
330
1F
100
AcDbEntity
  8
0
  6
Continuous
 62
     7
370
    15
100
AcDbLine
 10
186.2571186014
 20
325.3384921384
 30
0.0
 11
186.2571186014
 21
358.2906629574
 31
0.0
  0
LINE
  5
B8
330
1F
100
AcDbEntity
  8
0
  6
Continuous
 62
     7
370
    15
100
AcDbLine
 10
202.0071244427
 20
318.8217598629
 30
0.0
 11
202.0071244427
 21
314.8551676106
 31
0.0
  0
LINE
  5
B9
330
1F
100
AcDbEntity
  8
0
  6
Continuous
 62
     7
370
    15
100
AcDbLine
 10
202.0071244427
 20
314.8551676106
 30
0.0
 11
201.7571276613
 21
314.8551676106
 31
0.0
  0
LINE
  5
BA
330
1F
100
AcDbEntity
  8
0
  6
Continuous
 62
     7
370
    15
100
AcDbLine
 10
210.7571235486
 20
314.8551676106
 30
0.0
 11
210.5071193167
 21
314.8551676106
 31
0.0
  0
LINE
  5
BB
330
1F
100
AcDbEntity
  8
0
  6
Continuous
 62
     7
370
    15
100
AcDbLine
 10
210.5071193167
 20
314.8551676106
 30
0.0
 11
210.5071193167
 21
318.8217598629
 31
0.0
  0
LINE
  5
BC
330
1F
100
AcDbEntity
  8
0
  6
Continuous
 62
     7
370
    15
100
AcDbLine
 10
246.2571209856
 20
316.5720365626
 30
0.0
 11
246.2571209856
 21
354.6652476919
 31
0.0
  0
LINE
  5
BD
330
1F
100
AcDbEntity
  8
0
  6
Continuous
 62
     7
370
    15
100
AcDbLine
 10
198.2571280189
 20
304.4456094187
 30
0.0
 11
201.7571276613
 21
304.4456094187
 31
0.0
  0
LWPOLYLINE
  5
BE
330
1F
100
AcDbEntity
  8
0
  6
Continuous
 62
     7
370
    15
100
AcDbPolyline
 90
       10
 70
   128
 43
0.0
 10
183.2571274229
 20
317.2184191328
 10
183.450619001
 20
315.3212908339
 10
184.0330457874
 20
313.3877850753
 10
185.0128567406
 20
311.4802874309
 10
186.3644516655
 20
309.6765149069
 10
188.0079901405
 20
308.0932888818
 10
189.9263805338
 20
306.737730248
 10
192.0935011097
 20
305.6561629903
 10
194.4281107374
 20
304.9008994979
 10
198.2571280189
 20
304.4456094187
  0
LINE
  5
BF
330
1F
100
AcDbEntity
  8
0
  6
Continuous
 62
     7
370
    15
100
AcDbLine
 10
184.4460463711
 20
332.0266212952
 30
0.0
 11
184.8844832369
 21
332.0474680197
 31
0.0
  0
LINE
  5
C0
330
1F
100
AcDbEntity
  8
0
  6
Continuous
 62
     7
370
    15
100
AcDbLine
 10
201.7571276613
 20
304.4456094187
 30
0.0
 11
201.7571276613
 21
314.6497923565
 31
0.0
  0
LWPOLYLINE
  5
C1
330
1F
100
AcDbEntity
  8
0
  6
Continuous
 62
     7
370
    15
100
AcDbPolyline
 90
       10
 70
   128
 43
0.0
 10
198.2571280189
 20
304.2081202996
 10
195.7415735908
 20
304.4045902473
 10
193.2967996784
 20
304.9799725097
 10
190.9932887741
 20
305.9172182959
 10
188.895115871
 20
307.1731868815
 10
187.0745068975
 20
308.6940552723
 10
185.5690872856
 20
310.4193657321
 10
184.443632383
 20
312.2452553046
 10
183.685327191
 20
314.1312040073
 10
183.2571274229
 20
316.9667981249
  0
LINE
  5
C2
330
1F
100
AcDbEntity
  8
0
  6
Continuous
 62
     7
370
    15
100
AcDbLine
 10
198.2571280189
 20
304.2081202996
 30
0.0
 11
201.7571276613
 21
304.2081202996
 31
0.0
  0
LINE
  5
C3
330
1F
100
AcDbEntity
  8
0
  6
Continuous
 62
     7
370
    15
100
AcDbLine
 10
235.6571203657
 20
304.4456094187
 30
0.0
 11
246.2571209856
 21
304.4456094187
 31
0.0
  0
LINE
  5
C4
330
1F
100
AcDbEntity
  8
0
  6
Continuous
 62
     7
370
    15
100
AcDbLine
 10
235.6571203657
 20
304.4456094187
 30
0.0
 11
235.6571203657
 21
306.435560776
 31
0.0
  0
LINE
  5
C5
330
1F
100
AcDbEntity
  8
0
  6
Continuous
 62
     7
370
    15
100
AcDbLine
 10
230.857121069
 20
306.435560776
 30
0.0
 11
230.857121069
 21
304.4456094187
 31
0.0
  0
LINE
  5
C6
330
1F
100
AcDbEntity
  8
0
  6
Continuous
 62
     7
370
    15
100
AcDbLine
 10
210.7571235486
 20
304.4456094187
 30
0.0
 11
230.857121069
 21
304.4456094187
 31
0.0
  0
LINE
  5
C7
330
1F
100
AcDbEntity
  8
0
  6
Continuous
 62
     7
370
    15
100
AcDbLine
 10
210.7571235486
 20
314.6497923565
 30
0.0
 11
210.7571235486
 21
304.4456094187
 31
0.0
  0
LINE
  5
C8
330
1F
100
AcDbEntity
  8
0
  6
Continuous
 62
     7
370
    15
100
AcDbLine
 10
246.2571209856
 20
304.4456094187
 30
0.0
 11
246.2571209856
 21
314.6497923565
 31
0.0
  0
LINE
  5
C9
330
1F
100
AcDbEntity
  8
0
  6
Continuous
 62
     7
370
    15
100
AcDbLine
 10
186.2571186014
 20
358.2906629574
 30
0.0
 11
186.2571186014
 21
366.8411653173
 31
0.0
  0
LINE
  5
CA
330
1F
100
AcDbEntity
  8
0
  6
Continuous
 62
     7
370
    15
100
AcDbLine
 10
246.2571209856
 20
368.2514037621
 30
0.0
 11
246.2571209856
 21
376.801906122
 31
0.0
  0
LINE
  5
CB
330
1F
100
AcDbEntity
  8
0
  6
Continuous
 62
     7
370
    15
100
AcDbLine
 10
230.857121069
 20
304.4456094187
 30
0.0
 11
230.857121069
 21
304.2081202996
 31
0.0
  0
LINE
  5
CC
330
1F
100
AcDbEntity
  8
0
  6
Continuous
 62
     7
370
    15
100
AcDbLine
 10
210.7571235486
 20
304.2081202996
 30
0.0
 11
230.857121069
 21
304.2081202996
 31
0.0
  0
LINE
  5
CD
330
1F
100
AcDbEntity
  8
0
  6
Continuous
 62
     7
370
    15
100
AcDbLine
 10
210.7571235486
 20
304.4456094187
 30
0.0
 11
210.7571235486
 21
304.2081202996
 31
0.0
  0
LINE
  5
CE
330
1F
100
AcDbEntity
  8
0
  6
Continuous
 62
     7
370
    15
100
AcDbLine
 10
201.7571276613
 20
304.2081202996
 30
0.0
 11
201.7571276613
 21
304.4456094187
 31
0.0
  0
LINE
  5
CF
330
1F
100
AcDbEntity
  8
0
  6
Continuous
 62
     7
370
    15
100
AcDbLine
 10
235.6571203657
 20
304.2081202996
 30
0.0
 11
235.6571203657
 21
304.4456094187
 31
0.0
  0
LINE
  5
D0
330
1F
100
AcDbEntity
  8
0
  6
Continuous
 62
     7
370
    15
100
AcDbLine
 10
235.6571203657
 20
304.2081202996
 30
0.0
 11
246.2571209856
 21
304.2081202996
 31
0.0
  0
LINE
  5
D1
330
1F
100
AcDbEntity
  8
0
  6
Continuous
 62
     7
370
    15
100
AcDbLine
 10
246.2571209856
 20
304.2081202996
 30
0.0
 11
246.2571209856
 21
304.4456094187
 31
0.0
  0
LINE
  5
D2
330
1F
100
AcDbEntity
  8
0
  6
Continuous
 62
     7
370
    15
100
AcDbLine
 10
210.7571235486
 20
314.6497923565
 30
0.0
 11
210.7571235486
 21
316.5720365626
 31
0.0
  0
LINE
  5
D3
330
1F
100
AcDbEntity
  8
0
  6
Continuous
 62
     7
370
    15
100
AcDbLine
 10
246.2571209856
 20
316.5720365626
 30
0.0
 11
246.2571209856
 21
314.6497923565
 31
0.0
  0
LINE
  5
D4
330
1F
100
AcDbEntity
  8
0
  6
Continuous
 62
     7
370
    15
100
AcDbLine
 10
201.7571276613
 20
316.5720365626
 30
0.0
 11
201.7571276613
 21
314.6497923565
 31
0.0
  0
LINE
  5
D5
330
1F
100
AcDbEntity
  8
0
  6
Continuous
 62
     7
370
    15
100
AcDbLine
 10
246.2571209856
 20
377.4411659372
 30
0.0
 11
246.2571209856
 21
376.801906122
 31
0.0
  0
LINE
  5
D6
330
1F
100
AcDbEntity
  8
0
  6
Continuous
 62
     7
370
    15
100
AcDbLine
 10
308.1070075371
 20
345.2201615703
 30
0.0
 11
306.5540923365
 21
351.0157148969
 31
0.0
  0
LINE
  5
D7
330
1F
100
AcDbEntity
  8
0
  6
Continuous
 62
     7
370
    15
100
AcDbLine
 10
304.4821026363
 20
344.2488703561
 30
0.0
 11
308.1070075371
 21
345.2201615703
 31
0.0
  0
LINE
  5
D8
330
1F
100
AcDbEntity
  8
0
  6
Continuous
 62
     7
370
    15
100
AcDbLine
 10
304.4821026363
 20
344.2488703561
 30
0.0
 11
302.9291892984
 21
350.044427408
 31
0.0
  0
LINE
  5
D9
330
1F
100
AcDbEntity
  8
0
  6
Continuous
 62
     7
370
    15
100
AcDbLine
 10
306.5540923365
 20
351.0157148969
 30
0.0
 11
302.9291892984
 21
350.044427408
 31
0.0
  0
LINE
  5
DA
330
1F
100
AcDbEntity
  8
0
  6
Continuous
 62
     7
370
    15
100
AcDbLine
 10
297.2322946974
 20
342.3062916529
 30
0.0
 11
304.4821026363
 21
344.2488703561
 31
0.0
  0
LINE
  5
DB
330
1F
100
AcDbEntity
  8
0
  6
Continuous
 62
     7
370
    15
100
AcDbLine
 10
297.2322946974
 20
342.3062916529
 30
0.0
 11
295.6793813594
 21
348.1018449795
 31
0.0
  0
LINE
  5
DC
330
1F
100
AcDbEntity
  8
0
  6
Continuous
 62
     7
370
    15
100
AcDbLine
 10
302.9291892984
 20
350.044427408
 30
0.0
 11
295.6793813594
 21
348.1018449795
 31
0.0
  0
LINE
  5
DD
330
1F
100
AcDbEntity
  8
0
  6
Continuous
 62
     7
370
    15
100
AcDbLine
 10
307.7571226843
 20
332.0263307226
 30
0.0
 11
304.9997410365
 21
342.317020489
 31
0.0
  0
LINE
  5
DE
330
1F
100
AcDbEntity
  8
0
  6
Continuous
 62
     7
370
    15
100
AcDbLine
 10
308.6246459373
 20
343.2883079779
 30
0.0
 11
304.9997410365
 21
342.317020489
 31
0.0
  0
LINE
  5
DF
330
1F
100
AcDbEntity
  8
0
  6
Continuous
 62
     7
370
    15
100
AcDbLine
 10
311.0589927622
 20
334.2031966579
 30
0.0
 11
308.6246459373
 21
343.2883079779
 31
0.0
  0
LINE
  5
E0
330
1F
100
AcDbEntity
  8
0
  6
Continuous
 62
     7
370
    15
100
AcDbLine
 10
293.6073897966
 20
341.3350004387
 30
0.0
 11
292.0544764586
 21
347.1305574906
 31
0.0
  0
LINE
  5
E1
330
1F
100
AcDbEntity
  8
0
  6
Continuous
 62
     7
370
    15
100
AcDbLine
 10
293.6073897966
 20
341.3350004387
 30
0.0
 11
297.2322946974
 21
342.3062916529
 31
0.0
  0
LINE
  5
E2
330
1F
100
AcDbEntity
  8
0
  6
Continuous
 62
     7
370
    15
100
AcDbLine
 10
295.6793813594
 20
348.1018449795
 30
0.0
 11
292.0544764586
 21
347.1305574906
 31
0.0
  0
LINE
  5
E3
330
1F
100
AcDbEntity
  8
0
  6
Continuous
 62
     7
370
    15
100
AcDbLine
 10
307.7571226843
 20
331.6678199601
 30
0.0
 11
300.5969433673
 21
329.7492544782
 31
0.0
  0
LINE
  5
E4
330
1F
100
AcDbEntity
  8
0
  6
Continuous
 62
     7
370
    15
100
AcDbLine
 10
300.5969433673
 20
329.7492544782
 30
0.0
 11
297.7499349602
 21
340.3744380605
 31
0.0
  0
LINE
  5
E5
330
1F
100
AcDbEntity
  8
0
  6
Continuous
 62
     7
370
    15
100
AcDbLine
 10
304.9997410365
 20
342.317020489
 30
0.0
 11
297.7499349602
 21
340.3744380605
 31
0.0
  0
LINE
  5
E6
330
1F
100
AcDbEntity
  8
0
  6
Continuous
 62
     7
370
    15
100
AcDbLine
 10
296.9720384665
 20
328.7779669893
 30
0.0
 11
294.1250300594
 21
339.4031505716
 31
0.0
  0
LINE
  5
E7
330
1F
100
AcDbEntity
  8
0
  6
Continuous
 62
     7
370
    15
100
AcDbLine
 10
300.5969433673
 20
329.7492544782
 30
0.0
 11
296.9720384665
 21
328.7779669893
 31
0.0
  0
LINE
  5
E8
330
1F
100
AcDbEntity
  8
0
  6
Continuous
 62
     7
370
    15
100
AcDbLine
 10
297.7499349602
 20
340.3744380605
 30
0.0
 11
294.1250300594
 21
339.4031505716
 31
0.0
  0
LINE
  5
E9
330
1F
100
AcDbEntity
  8
0
  6
Continuous
 62
     7
370
    15
100
AcDbLine
 10
328.8496870176
 20
369.3568389547
 30
0.0
 11
317.7071225457
 21
369.3568389547
 31
0.0
  0
LINE
  5
EA
330
1F
100
AcDbEntity
  8
0
  6
Continuous
 62
     7
370
    15
100
AcDbLine
 10
353.8071236201
 20
369.3568389547
 30
0.0
 11
328.8496870176
 21
369.3568389547
 31
0.0
  0
LINE
  5
EB
330
1F
100
AcDbEntity
  8
0
  6
Continuous
 62
     7
370
    15
100
AcDbLine
 10
328.9225990978
 20
383.8568385375
 30
0.0
 11
328.9225990978
 21
369.3568389547
 31
0.0
  0
LINE
  5
EC
330
1F
100
AcDbEntity
  8
0
  6
Continuous
 62
     7
370
    15
100
AcDbLine
 10
342.5916463696
 20
383.8568385375
 30
0.0
 11
342.5916463696
 21
369.3568389547
 31
0.0
  0
LINE
  5
ED
330
1F
100
AcDbEntity
  8
0
  6
Continuous
 62
     7
370
    15
100
AcDbLine
 10
342.5916463696
 20
383.8568385375
 30
0.0
 11
328.9225990978
 21
383.8568385375
 31
0.0
  0
LINE
  5
EE
330
1F
100
AcDbEntity
  8
0
  6
Continuous
 62
     7
370
    15
100
AcDbLine
 10
352.2571234592
 20
383.8568385375
 30
0.0
 11
352.2571234592
 21
369.3568389547
 31
0.0
  0
LINE
  5
EF
330
1F
100
AcDbEntity
  8
0
  6
Continuous
 62
     7
370
    15
100
AcDbLine
 10
352.2571234592
 20
383.8568385375
 30
0.0
 11
342.5916463696
 21
383.8568385375
 31
0.0
  0
LINE
  5
F0
330
1F
100
AcDbEntity
  8
0
  6
Continuous
 62
     7
370
    15
100
AcDbLine
 10
319.2571227067
 20
383.8568385375
 30
0.0
 11
319.2571227067
 21
369.3568389547
 31
0.0
  0
LINE
  5
F1
330
1F
100
AcDbEntity
  8
0
  6
Continuous
 62
     7
370
    15
100
AcDbLine
 10
328.9225990978
 20
383.8568385375
 30
0.0
 11
319.2571227067
 21
383.8568385375
 31
0.0
  0
LINE
  5
F2
330
1F
100
AcDbEntity
  8
0
  6
Continuous
 62
     7
370
    15
100
AcDbLine
 10
317.7071225457
 20
203.3568452728
 30
0.0
 11
353.8071236201
 21
203.3568452728
 31
0.0
  0
LINE
  5
F3
330
1F
100
AcDbEntity
  8
0
  6
Continuous
 62
     7
370
    15
100
AcDbLine
 10
342.5916463696
 20
188.85684569
 30
0.0
 11
342.5916463696
 21
203.3568452728
 31
0.0
  0
LINE
  5
F4
330
1F
100
AcDbEntity
  8
0
  6
Continuous
 62
     7
370
    15
100
AcDbLine
 10
328.9225990978
 20
188.85684569
 30
0.0
 11
328.9225990978
 21
203.3568452728
 31
0.0
  0
LINE
  5
F5
330
1F
100
AcDbEntity
  8
0
  6
Continuous
 62
     7
370
    15
100
AcDbLine
 10
328.9225990978
 20
188.85684569
 30
0.0
 11
342.5916463696
 21
188.85684569
 31
0.0
  0
LINE
  5
F6
330
1F
100
AcDbEntity
  8
0
  6
Continuous
 62
     7
370
    15
100
AcDbLine
 10
352.2571234592
 20
188.85684569
 30
0.0
 11
352.2571234592
 21
203.3568452728
 31
0.0
  0
LINE
  5
F7
330
1F
100
AcDbEntity
  8
0
  6
Continuous
 62
     7
370
    15
100
AcDbLine
 10
342.5916463696
 20
188.85684569
 30
0.0
 11
352.2571234592
 21
188.85684569
 31
0.0
  0
LINE
  5
F8
330
1F
100
AcDbEntity
  8
0
  6
Continuous
 62
     7
370
    15
100
AcDbLine
 10
319.2571227067
 20
188.85684569
 30
0.0
 11
319.2571227067
 21
203.3568452728
 31
0.0
  0
LINE
  5
F9
330
1F
100
AcDbEntity
  8
0
  6
Continuous
 62
     7
370
    15
100
AcDbLine
 10
319.2571227067
 20
188.85684569
 30
0.0
 11
328.9225990978
 21
188.85684569
 31
0.0
  0
LINE
  5
FA
330
1F
100
AcDbEntity
  8
0
  6
Continuous
 62
     7
370
    15
100
AcDbLine
 10
325.6088907458
 20
368.856845392
 30
0.0
 11
325.6088907458
 21
350.3568451536
 31
0.0
  0
LINE
  5
FB
330
1F
100
AcDbEntity
  8
0
  6
Continuous
 62
     7
370
    15
100
AcDbLine
 10
345.90535542
 20
368.856845392
 30
0.0
 11
345.90535542
 21
350.3568451536
 31
0.0
  0
LINE
  5
FC
330
1F
100
AcDbEntity
  8
0
  6
Continuous
 62
     7
370
    15
100
AcDbLine
 10
345.90535542
 20
368.856845392
 30
0.0
 11
325.6088907458
 21
368.856845392
 31
0.0
  0
LINE
  5
FD
330
1F
100
AcDbEntity
  8
0
  6
Continuous
 62
     7
370
    15
100
AcDbLine
 10
325.6088907458
 20
350.3568451536
 30
0.0
 11
345.90535542
 21
350.3568451536
 31
0.0
  0
LINE
  5
FE
330
1F
100
AcDbEntity
  8
0
  6
Continuous
 62
     7
370
    15
100
AcDbLine
 10
360.2571229078
 20
368.856845392
 30
0.0
 11
360.2571229078
 21
350.3568451536
 31
0.0
  0
LINE
  5
FF
330
1F
100
AcDbEntity
  8
0
  6
Continuous
 62
     7
370
    15
100
AcDbLine
 10
360.2571229078
 20
368.856845392
 30
0.0
 11
345.90535542
 21
368.856845392
 31
0.0
  0
LINE
  5
100
330
1F
100
AcDbEntity
  8
0
  6
Continuous
 62
     7
370
    15
100
AcDbLine
 10
345.90535542
 20
350.3568451536
 30
0.0
 11
360.2571229078
 21
350.3568451536
 31
0.0
  0
LINE
  5
101
330
1F
100
AcDbEntity
  8
0
  6
Continuous
 62
     7
370
    15
100
AcDbLine
 10
311.2571223267
 20
368.856845392
 30
0.0
 11
311.2571223267
 21
350.3568451536
 31
0.0
  0
LINE
  5
102
330
1F
100
AcDbEntity
  8
0
  6
Continuous
 62
     7
370
    15
100
AcDbLine
 10
325.6088907458
 20
368.856845392
 30
0.0
 11
311.2571223267
 21
368.856845392
 31
0.0
  0
LINE
  5
103
330
1F
100
AcDbEntity
  8
0
  6
Continuous
 62
     7
370
    15
100
AcDbLine
 10
311.2571223267
 20
350.3568451536
 30
0.0
 11
325.6088907458
 21
350.3568451536
 31
0.0
  0
LINE
  5
104
330
1F
100
AcDbEntity
  8
0
  6
Continuous
 62
     7
370
    15
100
AcDbLine
 10
345.90535542
 20
203.8568388355
 30
0.0
 11
345.90535542
 21
222.3568390739
 31
0.0
  0
LINE
  5
105
330
1F
100
AcDbEntity
  8
0
  6
Continuous
 62
     7
370
    15
100
AcDbLine
 10
325.6088907458
 20
203.8568388355
 30
0.0
 11
325.6088907458
 21
222.3568390739
 31
0.0
  0
LINE
  5
106
330
1F
100
AcDbEntity
  8
0
  6
Continuous
 62
     7
370
    15
100
AcDbLine
 10
345.90535542
 20
222.3568390739
 30
0.0
 11
325.6088907458
 21
222.3568390739
 31
0.0
  0
LINE
  5
107
330
1F
100
AcDbEntity
  8
0
  6
Continuous
 62
     7
370
    15
100
AcDbLine
 10
325.6088907458
 20
203.8568388355
 30
0.0
 11
345.90535542
 21
203.8568388355
 31
0.0
  0
LINE
  5
108
330
1F
100
AcDbEntity
  8
0
  6
Continuous
 62
     7
370
    15
100
AcDbLine
 10
360.2571229078
 20
203.8568388355
 30
0.0
 11
360.2571229078
 21
222.3568390739
 31
0.0
  0
LINE
  5
109
330
1F
100
AcDbEntity
  8
0
  6
Continuous
 62
     7
370
    15
100
AcDbLine
 10
360.2571229078
 20
222.3568390739
 30
0.0
 11
345.90535542
 21
222.3568390739
 31
0.0
  0
LINE
  5
10A
330
1F
100
AcDbEntity
  8
0
  6
Continuous
 62
     7
370
    15
100
AcDbLine
 10
345.90535542
 20
203.8568388355
 30
0.0
 11
360.2571229078
 21
203.8568388355
 31
0.0
  0
LINE
  5
10B
330
1F
100
AcDbEntity
  8
0
  6
Continuous
 62
     7
370
    15
100
AcDbLine
 10
311.2571223267
 20
203.8568388355
 30
0.0
 11
311.2571223267
 21
222.3568390739
 31
0.0
  0
LINE
  5
10C
330
1F
100
AcDbEntity
  8
0
  6
Continuous
 62
     7
370
    15
100
AcDbLine
 10
325.6088907458
 20
222.3568390739
 30
0.0
 11
311.2571223267
 21
222.3568390739
 31
0.0
  0
LINE
  5
10D
330
1F
100
AcDbEntity
  8
0
  6
Continuous
 62
     7
370
    15
100
AcDbLine
 10
311.2571223267
 20
203.8568388355
 30
0.0
 11
325.6088907458
 21
203.8568388355
 31
0.0
  0
LINE
  5
10E
330
1F
100
AcDbEntity
  8
0
  6
Continuous
 62
     7
370
    15
100
AcDbLine
 10
176.7571217008
 20
286.3568421137
 30
0.0
 11
176.7571217008
 21
332.3568422031
 31
0.0
  0
LINE
  5
10F
330
1F
100
AcDbEntity
  8
0
  6
Continuous
 62
     7
370
    15
100
AcDbLine
 10
176.7571217008
 20
240.3568420243
 30
0.0
 11
176.7571217008
 21
286.3568421137
 31
0.0
  0
LINE
  5
110
330
1F
100
AcDbEntity
  8
0
  6
Continuous
 62
     7
370
    15
100
AcDbLine
 10
183.2571274229
 20
286.3568421137
 30
0.0
 11
183.2571274229
 21
332.3568422031
 31
0.0
  0
LINE
  5
111
330
1F
100
AcDbEntity
  8
0
  6
Continuous
 62
     7
370
    15
100
AcDbLine
 10
183.2571274229
 20
240.3568420243
 30
0.0
 11
183.2571274229
 21
286.3568421137
 31
0.0
  0
LINE
  5
112
330
1F
100
AcDbEntity
  8
0
  6
Continuous
 62
     7
370
    15
100
AcDbLine
 10
170.2571159788
 20
271.356842449
 30
0.0
 11
170.2571159788
 21
301.3568417785
 31
0.0
  0
LWPOLYLINE
  5
113
330
1F
100
AcDbEntity
  8
0
  6
Continuous
 62
     7
370
    15
100
AcDbPolyline
 90
        6
 70
   128
 43
0.0
 10
191.2571287342
 20
246.6317768824
 10
191.3696921059
 20
246.9494621885
 10
191.6949546524
 20
247.2385037374
 10
192.196050901
 20
247.4626283777
 10
192.816803474
 20
247.5926484597
 10
193.2571178861
 20
247.6177494657
  0
LINE
  5
114
330
1F
100
AcDbEntity
  8
0
  6
Continuous
 62
     7
370
    15
100
AcDbLine
 10
191.2571287342
 20
246.3314737809
 30
0.0
 11
191.2571287342
 21
246.6317768824
 31
0.0
  0
LWPOLYLINE
  5
115
330
1F
100
AcDbEntity
  8
0
  6
Continuous
 62
     7
370
    15
100
AcDbPolyline
 90
        6
 70
   128
 43
0.0
 10
193.2571178861
 20
245.4491574001
 10
192.595118899
 20
245.496751709
 10
192.0077598282
 20
245.6356044543
 10
191.5612912365
 20
245.8536978495
 10
191.3060492464
 20
246.1305949521
 10
191.2571287342
 20
246.3314737809
  0
LINE
  5
116
330
1F
100
AcDbEntity
  8
0
  6
Continuous
 62
     7
370
    15
100
AcDbLine
 10
202.257121224
 20
245.4491574001
 30
0.0
 11
193.2571178861
 21
245.4491574001
 31
0.0
  0
LWPOLYLINE
  5
117
330
1F
100
AcDbEntity
  8
0
  6
Continuous
 62
     7
370
    15
100
AcDbPolyline
 90
        6
 70
   128
 43
0.0
 10
204.2571252771
 20
246.3314737809
 10
204.1445470043
 20
246.0307199192
 10
203.8192844578
 20
245.7710895371
 10
203.3181882091
 20
245.5783690941
 10
202.6974356361
 20
245.4698439372
 10
202.257121224
 20
245.4491574001
  0
LINE
  5
118
330
1F
100
AcDbEntity
  8
0
  6
Continuous
 62
     7
370
    15
100
AcDbLine
 10
204.2571252771
 20
246.3314737809
 30
0.0
 11
204.2571252771
 21
246.6317768824
 31
0.0
  0
LWPOLYLINE
  5
119
330
1F
100
AcDbEntity
  8
0
  6
Continuous
 62
     7
370
    15
100
AcDbPolyline
 90
        6
 70
   128
 43
0.0
 10
202.257121224
 20
247.6177494657
 10
202.9191202112
 20
247.5601453018
 10
203.5064941831
 20
247.3951819968
 10
203.9529478737
 20
247.1449803245
 10
204.2081898638
 20
246.841995014
 10
204.2571252771
 20
246.6317768824
  0
LINE
  5
11A
330
1F
100
AcDbEntity
  8
0
  6
Continuous
 62
     7
370
    15
100
AcDbLine
 10
202.257121224
 20
247.6177494657
 30
0.0
 11
193.2571178861
 21
247.6177494657
 31
0.0
  0
LWPOLYLINE
  5
11B
330
1F
100
AcDbEntity
  8
0
  6
Continuous
 62
     7
370
    15
100
AcDbPolyline
 90
        6
 70
   128
 43
0.0
 10
191.2571287342
 20
253.0834842157
 10
191.3696921059
 20
253.5339351428
 10
191.6949546524
 20
253.9396080804
 10
192.196050901
 20
254.251616044
 10
192.816803474
 20
254.431644423
 10
193.2571178861
 20
254.4663268757
  0
LINE
  5
11C
330
1F
100
AcDbEntity
  8
0
  6
Continuous
 62
     7
370
    15
100
AcDbLine
 10
191.2571287342
 20
252.6529337895
 30
0.0
 11
191.2571287342
 21
253.0834842157
 31
0.0
  0
LWPOLYLINE
  5
11D
330
1F
100
AcDbEntity
  8
0
  6
Continuous
 62
     7
370
    15
100
AcDbPolyline
 90
        6
 70
   128
 43
0.0
 10
193.2571178861
 20
251.3571474385
 10
192.595118899
 20
251.4283600879
 10
192.0077598282
 20
251.6351919305
 10
191.5612912365
 20
251.9574146402
 10
191.3060492464
 20
252.36215253
 10
191.2571287342
 20
252.6529337895
  0
LINE
  5
11E
330
1F
100
AcDbEntity
  8
0
  6
Continuous
 62
     7
370
    15
100
AcDbLine
 10
202.257121224
 20
251.3571474385
 30
0.0
 11
193.2571178861
 21
251.3571474385
 31
0.0
  0
LWPOLYLINE
  5
11F
330
1F
100
AcDbEntity
  8
0
  6
Continuous
 62
     7
370
    15
100
AcDbPolyline
 90
        6
 70
   128
 43
0.0
 10
204.2571252771
 20
252.6529337895
 10
204.1445470043
 20
252.2167060208
 10
203.8192844578
 20
251.8357354832
 10
203.3181882091
 20
251.5500988495
 10
202.6974356361
 20
251.3881195021
 10
202.257121224
 20
251.3571474385
  0
LINE
  5
120
330
1F
100
AcDbEntity
  8
0
  6
Continuous
 62
     7
370
    15
100
AcDbLine
 10
204.2571252771
 20
252.6529337895
 30
0.0
 11
204.2571252771
 21
253.0834842157
 31
0.0
  0
LWPOLYLINE
  5
121
330
1F
100
AcDbEntity
  8
0
  6
Continuous
 62
     7
370
    15
100
AcDbPolyline
 90
        6
 70
   128
 43
0.0
 10
202.257121224
 20
254.4663268757
 10
202.9191202112
 20
254.3867062461
 10
203.5064941831
 20
254.1579473448
 10
203.9529478737
 20
253.8087609839
 10
204.2081898638
 20
253.3821109366
 10
204.2571252771
 20
253.0834842157
  0
LINE
  5
122
330
1F
100
AcDbEntity
  8
0
  6
Continuous
 62
     7
370
    15
100
AcDbLine
 10
202.257121224
 20
254.4663268757
 30
0.0
 11
193.2571178861
 21
254.4663268757
 31
0.0
  0
ARC
  5
123
330
1F
100
AcDbEntity
  8
0
  6
Continuous
 62
     7
370
    15
100
AcDbCircle
 10
193.1428656399
 20
261.3711154009
 30
0.0
 40
1.89603986752446
100
AcDbArc
 50
86.5453576624
 51
174.0242585221
  0
LINE
  5
124
330
1F
100
AcDbEntity
  8
0
  6
Continuous
 62
     7
370
    15
100
AcDbLine
 10
191.2571287342
 20
261.0340136719
 30
0.0
 11
191.2571287342
 21
261.568507148
 31
0.0
  0
ARC
  5
125
330
1F
100
AcDbEntity
  8
0
  6
Continuous
 62
     7
370
    15
100
AcDbCircle
 10
193.0573851461
 20
261.2008519935
 30
0.0
 40
1.80797073380858
100
AcDbArc
 50
185.2947487031
 51
276.3426078179
  0
LINE
  5
126
330
1F
100
AcDbEntity
  8
0
  6
Continuous
 62
     7
370
    15
100
AcDbLine
 10
202.257121224
 20
259.4039477092
 30
0.0
 11
193.2571178861
 21
259.4039477092
 31
0.0
  0
ARC
  5
127
330
1F
100
AcDbEntity
  8
0
  6
Continuous
 62
     7
370
    15
100
AcDbCircle
 10
202.4049883326
 20
261.2645048157
 30
0.0
 40
1.866423700159665
100
AcDbArc
 50
265.4559894033
 51
352.9062359636
  0
LINE
  5
128
330
1F
100
AcDbEntity
  8
0
  6
Continuous
 62
     7
370
    15
100
AcDbLine
 10
204.2571252771
 20
261.0340136719
 30
0.0
 11
204.2571252771
 21
261.568507148
 31
0.0
  0
ARC
  5
129
330
1F
100
AcDbEntity
  8
0
  6
Continuous
 62
     7
370
    15
100
AcDbCircle
 10
202.4142258759
 20
261.4216561928
 30
0.0
 40
1.84874103267582
100
AcDbArc
 50
4.5559724742
 51
94.8748324593
  0
LINE
  5
12A
330
1F
100
AcDbEntity
  8
0
  6
Continuous
 62
     7
370
    15
100
AcDbLine
 10
202.257121224
 20
263.2637098116
 30
0.0
 11
193.2571178861
 21
263.2637098116
 31
0.0
  0
ARC
  5
12B
330
1F
100
AcDbEntity
  8
0
  6
Continuous
 62
     7
370
    15
100
AcDbCircle
 10
192.8783804334
 20
240.5047545087
 30
0.0
 40
2.647738574804547
100
AcDbArc
 50
81.7760959157
 51
127.7571266895
  0
LINE
  5
12C
330
1F
100
AcDbEntity
  8
0
  6
Continuous
 62
     7
370
    15
100
AcDbLine
 10
191.2571287342
 20
242.4469347727
 30
0.0
 11
191.2571287342
 21
242.5980921519
 31
0.0
  0
LWPOLYLINE
  5
12D
330
1F
100
AcDbEntity
  8
0
  6
Continuous
 62
     7
370
    15
100
AcDbPolyline
 90
        6
 70
   128
 43
0.0
 10
193.2571178861
 20
242.033714397
 10
192.595118899
 20
242.0546877813
 10
192.0077598282
 20
242.1167995465
 10
191.5612912365
 20
242.2170098555
 10
191.3060492464
 20
242.3486094606
 10
191.2571287342
 20
242.4469347727
  0
LINE
  5
12E
330
1F
100
AcDbEntity
  8
0
  6
Continuous
 62
     7
370
    15
100
AcDbLine
 10
202.257121224
 20
242.033714397
 30
0.0
 11
193.2571178861
 21
242.033714397
 31
0.0
  0
ARC
  5
12F
330
1F
100
AcDbEntity
  8
0
  6
Continuous
 62
     7
370
    15
100
AcDbCircle
 10
202.6801433339
 20
245.0329317252
 30
0.0
 40
3.028902819055144
100
AcDbArc
 50
261.9717217278
 51
301.3755009605
  0
LINE
  5
130
330
1F
100
AcDbEntity
  8
0
  6
Continuous
 62
     7
370
    15
100
AcDbLine
 10
204.2571252771
 20
242.4469347727
 30
0.0
 11
204.2571252771
 21
242.5980921519
 31
0.0
  0
LWPOLYLINE
  5
131
330
1F
100
AcDbEntity
  8
0
  6
Continuous
 62
     7
370
    15
100
AcDbPolyline
 90
        6
 70
   128
 43
0.0
 10
202.257121224
 20
243.1252654326
 10
202.9191202112
 20
243.0932875407
 10
203.5064941831
 20
243.0024724138
 10
203.9529478737
 20
242.8669687045
 10
204.2081898638
 20
242.7066880894
 10
204.2571252771
 20
242.5980921519
  0
LINE
  5
132
330
1F
100
AcDbEntity
  8
0
  6
Continuous
 62
     7
370
    15
100
AcDbLine
 10
202.257121224
 20
243.1252654326
 30
0.0
 11
193.2571178861
 21
243.1252654326
 31
0.0
  0
LWPOLYLINE
  5
133
330
1F
100
AcDbEntity
  8
0
  6
Continuous
 62
     7
370
    15
100
AcDbPolyline
 90
        6
 70
   128
 43
0.0
 10
280.2571228333
 20
246.3314737809
 10
280.1445482858
 20
246.0307199192
 10
279.8192894646
 20
245.7710895371
 10
279.3181932159
 20
245.5783690941
 10
278.6974406429
 20
245.4698439372
 10
278.2571225055
 20
245.4491574001
  0
LINE
  5
134
330
1F
100
AcDbEntity
  8
0
  6
Continuous
 62
     7
370
    15
100
AcDbLine
 10
280.2571228333
 20
246.3314737809
 30
0.0
 11
280.2571228333
 21
246.6317768824
 31
0.0
  0
LWPOLYLINE
  5
135
330
1F
100
AcDbEntity
  8
0
  6
Continuous
 62
     7
370
    15
100
AcDbPolyline
 90
        6
 70
   128
 43
0.0
 10
278.2571225055
 20
247.6177494657
 10
278.9191214927
 20
247.5601453018
 10
279.5064880141
 20
247.3951819968
 10
279.9529491552
 20
247.1449803245
 10
280.2081948706
 20
246.841995014
 10
280.2571228333
 20
246.6317768824
  0
LINE
  5
136
330
1F
100
AcDbEntity
  8
0
  6
Continuous
 62
     7
370
    15
100
AcDbLine
 10
269.2571228929
 20
247.6177494657
 30
0.0
 11
278.2571225055
 21
247.6177494657
 31
0.0
  0
LWPOLYLINE
  5
137
330
1F
100
AcDbEntity
  8
0
  6
Continuous
 62
     7
370
    15
100
AcDbPolyline
 90
        6
 70
   128
 43
0.0
 10
267.2571262904
 20
246.6317768824
 10
267.3696971126
 20
246.9494621885
 10
267.6949522086
 20
247.2385037374
 10
268.1960484572
 20
247.4626283777
 10
268.8168010302
 20
247.5926484597
 10
269.2571228929
 20
247.6177494657
  0
LINE
  5
138
330
1F
100
AcDbEntity
  8
0
  6
Continuous
 62
     7
370
    15
100
AcDbLine
 10
267.2571262904
 20
246.3314737809
 30
0.0
 11
267.2571262904
 21
246.6317768824
 31
0.0
  0
LWPOLYLINE
  5
139
330
1F
100
AcDbEntity
  8
0
  6
Continuous
 62
     7
370
    15
100
AcDbPolyline
 90
        6
 70
   128
 43
0.0
 10
269.2571228929
 20
245.4491574001
 10
268.5951239057
 20
245.496751709
 10
268.0077573844
 20
245.6356044543
 10
267.5612962433
 20
245.8536978495
 10
267.3060542532
 20
246.1305949521
 10
267.2571262904
 20
246.3314737809
  0
LINE
  5
13A
330
1F
100
AcDbEntity
  8
0
  6
Continuous
 62
     7
370
    15
100
AcDbLine
 10
269.2571228929
 20
245.4491574001
 30
0.0
 11
278.2571225055
 21
245.4491574001
 31
0.0
  0
LWPOLYLINE
  5
13B
330
1F
100
AcDbEntity
  8
0
  6
Continuous
 62
     7
370
    15
100
AcDbPolyline
 90
        6
 70
   128
 43
0.0
 10
280.2571228333
 20
252.6529337895
 10
280.1445482858
 20
252.2167060208
 10
279.8192894646
 20
251.8357354832
 10
279.3181932159
 20
251.5500988495
 10
278.6974406429
 20
251.3881195021
 10
278.2571225055
 20
251.3571474385
  0
LINE
  5
13C
330
1F
100
AcDbEntity
  8
0
  6
Continuous
 62
     7
370
    15
100
AcDbLine
 10
280.2571228333
 20
252.6529337895
 30
0.0
 11
280.2571228333
 21
253.0834842157
 31
0.0
  0
LWPOLYLINE
  5
13D
330
1F
100
AcDbEntity
  8
0
  6
Continuous
 62
     7
370
    15
100
AcDbPolyline
 90
        6
 70
   128
 43
0.0
 10
278.2571225055
 20
254.4663268757
 10
278.9191214927
 20
254.3867062461
 10
279.5064880141
 20
254.1579473448
 10
279.9529491552
 20
253.8087609839
 10
280.2081948706
 20
253.3821109366
 10
280.2571228333
 20
253.0834842157
  0
LINE
  5
13E
330
1F
100
AcDbEntity
  8
0
  6
Continuous
 62
     7
370
    15
100
AcDbLine
 10
269.2571228929
 20
254.4663268757
 30
0.0
 11
278.2571225055
 21
254.4663268757
 31
0.0
  0
LWPOLYLINE
  5
13F
330
1F
100
AcDbEntity
  8
0
  6
Continuous
 62
     7
370
    15
100
AcDbPolyline
 90
        6
 70
   128
 43
0.0
 10
267.2571262904
 20
253.0834842157
 10
267.3696971126
 20
253.5339351428
 10
267.6949522086
 20
253.9396080804
 10
268.1960484572
 20
254.251616044
 10
268.8168010302
 20
254.431644423
 10
269.2571228929
 20
254.4663268757
  0
LINE
  5
140
330
1F
100
AcDbEntity
  8
0
  6
Continuous
 62
     7
370
    15
100
AcDbLine
 10
267.2571262904
 20
252.6529337895
 30
0.0
 11
267.2571262904
 21
253.0834842157
 31
0.0
  0
LWPOLYLINE
  5
141
330
1F
100
AcDbEntity
  8
0
  6
Continuous
 62
     7
370
    15
100
AcDbPolyline
 90
        6
 70
   128
 43
0.0
 10
269.2571228929
 20
251.3571474385
 10
268.5951239057
 20
251.4283600879
 10
268.0077573844
 20
251.6351919305
 10
267.5612962433
 20
251.9574146402
 10
267.3060542532
 20
252.36215253
 10
267.2571262904
 20
252.6529337895
  0
LINE
  5
142
330
1F
100
AcDbEntity
  8
0
  6
Continuous
 62
     7
370
    15
100
AcDbLine
 10
269.2571228929
 20
251.3571474385
 30
0.0
 11
278.2571225055
 21
251.3571474385
 31
0.0
  0
ARC
  5
143
330
1F
100
AcDbEntity
  8
0
  6
Continuous
 62
     7
370
    15
100
AcDbCircle
 10
278.4049955723
 20
261.2644932727
 30
0.0
 40
1.866412665396126
100
AcDbArc
 50
265.4557789999
 51
352.9065508946
  0
LINE
  5
144
330
1F
100
AcDbEntity
  8
0
  6
Continuous
 62
     7
370
    15
100
AcDbLine
 10
280.2571228333
 20
261.0340136719
 30
0.0
 11
280.2571228333
 21
261.568507148
 31
0.0
  0
ARC
  5
145
330
1F
100
AcDbEntity
  8
0
  6
Continuous
 62
     7
370
    15
100
AcDbCircle
 10
278.4142387518
 20
261.4216739217
 30
0.0
 40
1.848724353274227
100
AcDbArc
 50
4.5554624703
 51
94.875237184
  0
LINE
  5
146
330
1F
100
AcDbEntity
  8
0
  6
Continuous
 62
     7
370
    15
100
AcDbLine
 10
269.2571228929
 20
263.2637098116
 30
0.0
 11
278.2571225055
 21
263.2637098116
 31
0.0
  0
ARC
  5
147
330
1F
100
AcDbEntity
  8
0
  6
Continuous
 62
     7
370
    15
100
AcDbCircle
 10
269.1428715948
 20
261.3711059942
 30
0.0
 40
1.896049199953969
100
AcDbArc
 50
86.5454033913
 51
174.0240022338
  0
LINE
  5
148
330
1F
100
AcDbEntity
  8
0
  6
Continuous
 62
     7
370
    15
100
AcDbLine
 10
267.2571262904
 20
261.0340136719
 30
0.0
 11
267.2571262904
 21
261.568507148
 31
0.0
  0
ARC
  5
149
330
1F
100
AcDbEntity
  8
0
  6
Continuous
 62
     7
370
    15
100
AcDbCircle
 10
269.0574015988
 20
261.2008742654
 30
0.0
 40
1.807991604949783
100
AcDbArc
 50
185.2953962338
 51
276.3421693437
  0
LINE
  5
14A
330
1F
100
AcDbEntity
  8
0
  6
Continuous
 62
     7
370
    15
100
AcDbLine
 10
269.2571228929
 20
259.4039477092
 30
0.0
 11
278.2571225055
 21
259.4039477092
 31
0.0
  0
ARC
  5
14B
330
1F
100
AcDbEntity
  8
0
  6
Continuous
 62
     7
370
    15
100
AcDbCircle
 10
278.680148838
 20
245.0328970708
 30
0.0
 40
3.028869094064865
100
AcDbArc
 50
261.9715510796
 51
301.3757139028
  0
LINE
  5
14C
330
1F
100
AcDbEntity
  8
0
  6
Continuous
 62
     7
370
    15
100
AcDbLine
 10
280.2571228333
 20
242.4469347727
 30
0.0
 11
280.2571228333
 21
242.5980921519
 31
0.0
  0
LWPOLYLINE
  5
14D
330
1F
100
AcDbEntity
  8
0
  6
Continuous
 62
     7
370
    15
100
AcDbPolyline
 90
        6
 70
   128
 43
0.0
 10
278.2571225055
 20
243.1252654326
 10
278.9191214927
 20
243.0932875407
 10
279.5064880141
 20
243.0024724138
 10
279.9529491552
 20
242.8669687045
 10
280.2081948706
 20
242.7066880894
 10
280.2571228333
 20
242.5980921519
  0
LINE
  5
14E
330
1F
100
AcDbEntity
  8
0
  6
Continuous
 62
     7
370
    15
100
AcDbLine
 10
269.2571228929
 20
243.1252654326
 30
0.0
 11
278.2571225055
 21
243.1252654326
 31
0.0
  0
ARC
  5
14F
330
1F
100
AcDbEntity
  8
0
  6
Continuous
 62
     7
370
    15
100
AcDbCircle
 10
268.8783861708
 20
240.5047288234
 30
0.0
 40
2.647763891482829
100
AcDbArc
 50
81.7761910686
 51
127.7569263242
  0
LINE
  5
150
330
1F
100
AcDbEntity
  8
0
  6
Continuous
 62
     7
370
    15
100
AcDbLine
 10
267.2571262904
 20
242.4469347727
 30
0.0
 11
267.2571262904
 21
242.5980921519
 31
0.0
  0
LWPOLYLINE
  5
151
330
1F
100
AcDbEntity
  8
0
  6
Continuous
 62
     7
370
    15
100
AcDbPolyline
 90
        6
 70
   128
 43
0.0
 10
269.2571228929
 20
242.033714397
 10
268.5951239057
 20
242.0546877813
 10
268.0077573844
 20
242.1167995465
 10
267.5612962433
 20
242.2170098555
 10
267.3060542532
 20
242.3486094606
 10
267.2571262904
 20
242.4469347727
  0
LINE
  5
152
330
1F
100
AcDbEntity
  8
0
  6
Continuous
 62
     7
370
    15
100
AcDbLine
 10
269.2571228929
 20
242.033714397
 30
0.0
 11
278.2571225055
 21
242.033714397
 31
0.0
  0
ARC
  5
153
330
1F
100
AcDbEntity
  8
0
  6
Continuous
 62
     7
370
    15
100
AcDbCircle
 10
193.1638025465
 20
250.3944422463
 30
0.0
 40
3.4952619270023
100
AcDbArc
 50
245.2016815565
 51
271.5298454268
  0
ARC
  5
154
330
1F
100
AcDbEntity
  8
0
  6
Continuous
 62
     7
370
    15
100
AcDbCircle
 10
202.4262394601
 20
249.8855827222
 30
0.0
 40
2.989943224482032
100
AcDbArc
 50
266.7574851305
 51
297.7362315642
  0
LINE
  5
155
330
1F
100
AcDbEntity
  8
0
  6
Continuous
 62
     7
370
    15
100
AcDbLine
 10
202.257121224
 20
246.9004261923
 30
0.0
 11
193.2571178861
 21
246.9004261923
 31
0.0
  0
ARC
  5
156
330
1F
100
AcDbEntity
  8
0
  6
Continuous
 62
     7
370
    15
100
AcDbCircle
 10
192.9881389867
 20
254.4949053984
 30
0.0
 40
1.9150651465142
100
AcDbArc
 50
212.0169762193
 51
278.07412837
  0
ARC
  5
157
330
1F
100
AcDbEntity
  8
0
  6
Continuous
 62
     7
370
    15
100
AcDbCircle
 10
202.4844889142
 20
254.5457165915
 30
0.0
 40
1.96012423894197
100
AcDbArc
 50
263.338890943
 51
328.1779153708
  0
LINE
  5
158
330
1F
100
AcDbEntity
  8
0
  6
Continuous
 62
     7
370
    15
100
AcDbLine
 10
202.257121224
 20
252.5988239479
 30
0.0
 11
193.2571178861
 21
252.5988239479
 31
0.0
  0
ARC
  5
159
330
1F
100
AcDbEntity
  8
0
  6
Continuous
 62
     7
370
    15
100
AcDbCircle
 10
193.0736785199
 20
262.173681002
 30
0.0
 40
1.822787090124556
100
AcDbArc
 50
196.6186478016
 51
275.7758384653
  0
ARC
  5
15A
330
1F
100
AcDbEntity
  8
0
  6
Continuous
 62
     7
370
    15
100
AcDbCircle
 10
202.4565918254
 20
262.1572902068
 30
0.0
 40
1.808178489550002
100
AcDbArc
 50
263.6664813918
 51
354.7294014727
  0
LINE
  5
15B
330
1F
100
AcDbEntity
  8
0
  6
Continuous
 62
     7
370
    15
100
AcDbLine
 10
202.257121224
 20
260.3601477724
 30
0.0
 11
193.2571178861
 21
260.3601477724
 31
0.0
  0
ARC
  5
15C
330
1F
100
AcDbEntity
  8
0
  6
Continuous
 62
     7
370
    15
100
AcDbCircle
 10
278.4262225034
 20
249.8856973499
 30
0.0
 40
2.990056637242285
100
AcDbArc
 50
266.7579582938
 51
297.7356449966
  0
LINE
  5
15D
330
1F
100
AcDbEntity
  8
0
  6
Continuous
 62
     7
370
    15
100
AcDbLine
 10
269.2571228929
 20
246.9004261923
 30
0.0
 11
278.2571225055
 21
246.9004261923
 31
0.0
  0
ARC
  5
15E
330
1F
100
AcDbEntity
  8
0
  6
Continuous
 62
     7
370
    15
100
AcDbCircle
 10
269.1637988985
 20
250.3944002111
 30
0.0
 40
3.495220137869077
100
AcDbArc
 50
245.2015213364
 51
271.5300056469
  0
ARC
  5
15F
330
1F
100
AcDbEntity
  8
0
  6
Continuous
 62
     7
370
    15
100
AcDbCircle
 10
278.4844827357
 20
254.5457320519
 30
0.0
 40
1.960138729683083
100
AcDbArc
 50
263.3391599514
 51
328.1776463624
  0
LINE
  5
160
330
1F
100
AcDbEntity
  8
0
  6
Continuous
 62
     7
370
    15
100
AcDbLine
 10
269.2571228929
 20
252.5988239479
 30
0.0
 11
278.2571225055
 21
252.5988239479
 31
0.0
  0
ARC
  5
161
330
1F
100
AcDbEntity
  8
0
  6
Continuous
 62
     7
370
    15
100
AcDbCircle
 10
268.9880565717
 20
254.4947312671
 30
0.0
 40
1.914905023316478
100
AcDbArc
 50
212.0138271581
 51
278.0774499723
  0
ARC
  5
162
330
1F
100
AcDbEntity
  8
0
  6
Continuous
 62
     7
370
    15
100
AcDbCircle
 10
278.4566067923
 20
262.1572693132
 30
0.0
 40
1.808159233261928
100
AcDbArc
 50
263.6659773474
 51
354.7300100574
  0
LINE
  5
163
330
1F
100
AcDbEntity
  8
0
  6
Continuous
 62
     7
370
    15
100
AcDbLine
 10
269.2571228929
 20
260.3601477724
 30
0.0
 11
278.2571225055
 21
260.3601477724
 31
0.0
  0
ARC
  5
164
330
1F
100
AcDbEntity
  8
0
  6
Continuous
 62
     7
370
    15
100
AcDbCircle
 10
269.0736504152
 20
262.1736315459
 30
0.0
 40
1.82274121769591
100
AcDbArc
 50
196.6174558159
 51
275.7770304509
  0
LINE
  5
165
330
1F
100
AcDbEntity
  8
0
  6
Continuous
 62
     7
370
    15
100
AcDbLine
 10
312.7571235039
 20
259.3098096234
 30
0.0
 11
320.7571229525
 21
259.3098096234
 31
0.0
  0
LINE
  5
166
330
1F
100
AcDbEntity
  8
0
  6
Continuous
 62
     7
370
    15
100
AcDbLine
 10
312.7571235039
 20
244.4181237054
 30
0.0
 11
312.7571235039
 21
259.3098096234
 31
0.0
  0
LINE
  5
167
330
1F
100
AcDbEntity
  8
0
  6
Continuous
 62
     7
370
    15
100
AcDbLine
 10
312.7571235039
 20
313.4038746041
 30
0.0
 11
320.7571229525
 21
313.4038746041
 31
0.0
  0
LINE
  5
168
330
1F
100
AcDbEntity
  8
0
  6
Continuous
 62
     7
370
    15
100
AcDbLine
 10
312.7571235039
 20
313.4038746041
 30
0.0
 11
312.7571235039
 21
328.2955605221
 31
0.0
  0
LINE
  5
169
330
1F
100
AcDbEntity
  8
0
  6
Continuous
 62
     7
370
    15
100
AcDbLine
 10
320.7571229525
 20
306.686162917
 30
0.0
 11
316.7571232282
 21
306.686162917
 31
0.0
  0
LINE
  5
16A
330
1F
100
AcDbEntity
  8
0
  6
Continuous
 62
     7
370
    15
100
AcDbLine
 10
316.7571232282
 20
304.9991726559
 30
0.0
 11
314.2571228184
 21
304.9991726559
 31
0.0
  0
LWPOLYLINE
  5
16B
330
1F
100
AcDbEntity
  8
0
  6
Continuous
 62
     7
370
    15
100
AcDbPolyline
 90
        3
 70
   128
 43
0.0
 10
314.2571228184
 20
304.9991726559
 10
302.0874599554
 20
302.368935166
 10
300.2571223863
 20
301.9704613519
  0
LINE
  5
16C
330
1F
100
AcDbEntity
  8
0
  6
Continuous
 62
     7
370
    15
100
AcDbLine
 10
300.2571223863
 20
301.9704613519
 30
0.0
 11
300.2571223863
 21
298.110919973
 31
0.0
  0
LINE
  5
16D
330
1F
100
AcDbEntity
  8
0
  6
Continuous
 62
     7
370
    15
100
AcDbLine
 10
300.2571223863
 20
298.110919973
 30
0.0
 11
293.2571231016
 21
298.110919973
 31
0.0
  0
LINE
  5
16E
330
1F
100
AcDbEntity
  8
0
  6
Continuous
 62
     7
370
    15
100
AcDbLine
 10
293.2571231016
 20
306.4992241245
 30
0.0
 11
303.0568475463
 21
306.4992241245
 31
0.0
  0
LWPOLYLINE
  5
16F
330
1F
100
AcDbEntity
  8
0
  6
Continuous
 62
     7
370
    15
100
AcDbPolyline
 90
        3
 70
   128
 43
0.0
 10
303.0568475463
 20
306.4992241245
 10
306.4046802559
 20
307.2138316613
 10
312.7571235039
 20
308.5653278661
  0
LINE
  5
170
330
1F
100
AcDbEntity
  8
0
  6
Continuous
 62
     7
370
    15
100
AcDbLine
 10
312.7571235039
 20
308.5653278661
 30
0.0
 11
312.7571235039
 21
313.4038746041
 31
0.0
  0
LINE
  5
171
330
1F
100
AcDbEntity
  8
0
  6
Continuous
 62
     7
370
    15
100
AcDbLine
 10
312.7571235039
 20
259.3098096234
 30
0.0
 11
312.7571235039
 21
264.1483563614
 31
0.0
  0
LWPOLYLINE
  5
172
330
1F
100
AcDbEntity
  8
0
  6
Continuous
 62
     7
370
    15
100
AcDbPolyline
 90
        3
 70
   128
 43
0.0
 10
312.7571235039
 20
264.1483563614
 10
309.1237957217
 20
264.9206686449
 10
303.0568475463
 20
266.2144601029
  0
LINE
  5
173
330
1F
100
AcDbEntity
  8
0
  6
Continuous
 62
     7
370
    15
100
AcDbLine
 10
303.0568475463
 20
266.2144601029
 30
0.0
 11
293.2571231016
 21
266.2144601029
 31
0.0
  0
LINE
  5
174
330
1F
100
AcDbEntity
  8
0
  6
Continuous
 62
     7
370
    15
100
AcDbLine
 10
293.2571231016
 20
274.6027642545
 30
0.0
 11
300.2571223863
 21
274.6027642545
 31
0.0
  0
LINE
  5
175
330
1F
100
AcDbEntity
  8
0
  6
Continuous
 62
     7
370
    15
100
AcDbLine
 10
300.2571223863
 20
274.6027642545
 30
0.0
 11
300.2571223863
 21
270.7432228756
 31
0.0
  0
LWPOLYLINE
  5
176
330
1F
100
AcDbEntity
  8
0
  6
Continuous
 62
     7
370
    15
100
AcDbPolyline
 90
        3
 70
   128
 43
0.0
 10
300.2571223863
 20
270.7432228756
 10
312.4189900794
 20
268.1098486912
 10
314.2571228184
 20
267.7145115715
  0
LINE
  5
177
330
1F
100
AcDbEntity
  8
0
  6
Continuous
 62
     7
370
    15
100
AcDbLine
 10
314.2571228184
 20
267.7145115715
 30
0.0
 11
316.7571232282
 21
267.7145115715
 31
0.0
  0
LINE
  5
178
330
1F
100
AcDbEntity
  8
0
  6
Continuous
 62
     7
370
    15
100
AcDbLine
 10
316.7571232282
 20
266.0275213104
 30
0.0
 11
320.7571229525
 21
266.0275213104
 31
0.0
  0
LINE
  5
179
330
1F
100
AcDbEntity
  8
0
  6
Continuous
 62
     7
370
    15
100
AcDbLine
 10
312.7571235039
 20
238.6415544581
 30
0.0
 11
312.7571235039
 21
244.4181237054
 31
0.0
  0
LINE
  5
17A
330
1F
100
AcDbEntity
  8
0
  6
Continuous
 62
     7
370
    15
100
AcDbLine
 10
312.7571235039
 20
328.2955605221
 30
0.0
 11
312.7571235039
 21
330.7852875125
 31
0.0
  0
LINE
  5
17B
330
1F
100
AcDbEntity
  8
0
  6
Continuous
 62
     7
370
    15
100
AcDbLine
 10
312.7571235039
 20
331.6062185597
 30
0.0
 11
312.7571235039
 21
334.0428378117
 31
0.0
  0
LINE
  5
17C
330
1F
100
AcDbEntity
  8
0
  6
Continuous
 62
     7
370
    15
100
AcDbLine
 10
288.2571241446
 20
332.3568422031
 30
0.0
 11
288.2571241446
 21
240.3568420243
 31
0.0
  0
LINE
  5
17D
330
1F
100
AcDbEntity
  8
0
  6
Continuous
 62
     7
370
    15
100
AcDbLine
 10
293.2571231016
 20
327.7124259305
 30
0.0
 11
293.2571231016
 21
332.3568422031
 31
0.0
  0
LINE
  5
17E
330
1F
100
AcDbEntity
  8
0
  6
Continuous
 62
     7
370
    15
100
AcDbLine
 10
303.0568475463
 20
327.7124259305
 30
0.0
 11
293.2571231016
 21
327.7124259305
 31
0.0
  0
LINE
  5
17F
330
1F
100
AcDbEntity
  8
0
  6
Continuous
 62
     7
370
    15
100
AcDbLine
 10
303.0568475463
 20
327.7124259305
 30
0.0
 11
303.0568475463
 21
306.4992241245
 31
0.0
  0
LINE
  5
180
330
1F
100
AcDbEntity
  8
0
  6
Continuous
 62
     7
370
    15
100
AcDbLine
 10
293.2571231016
 20
266.2144601029
 30
0.0
 11
293.2571231016
 21
306.4992241245
 31
0.0
  0
LINE
  5
181
330
1F
100
AcDbEntity
  8
0
  6
Continuous
 62
     7
370
    15
100
AcDbLine
 10
303.0568475463
 20
266.2144601029
 30
0.0
 11
303.0568475463
 21
245.001258297
 31
0.0
  0
LINE
  5
182
330
1F
100
AcDbEntity
  8
0
  6
Continuous
 62
     7
370
    15
100
AcDbLine
 10
293.2571231016
 20
245.001258297
 30
0.0
 11
303.0568475463
 21
245.001258297
 31
0.0
  0
LINE
  5
183
330
1F
100
AcDbEntity
  8
0
  6
Continuous
 62
     7
370
    15
100
AcDbLine
 10
293.2571231016
 20
240.3568420243
 30
0.0
 11
293.2571231016
 21
245.001258297
 31
0.0
  0
LWPOLYLINE
  5
184
330
1F
100
AcDbEntity
  8
0
  6
Continuous
 62
     7
370
    15
100
AcDbPolyline
 90
        3
 70
   128
 43
0.0
 10
307.7571226843
 20
328.7147711647
 10
306.4046802559
 20
328.4270334673
 10
303.0568475463
 20
327.7124259305
  0
LINE
  5
185
330
1F
100
AcDbEntity
  8
0
  6
Continuous
 62
     7
370
    15
100
AcDbLine
 10
303.0568475463
 20
245.001258297
 30
0.0
 11
307.7571226843
 21
243.9984436762
 31
0.0
  0
LINE
  5
186
330
1F
100
AcDbEntity
  8
0
  6
Continuous
 62
     7
370
    15
100
AcDbLine
 10
312.7571235039
 20
238.0966078174
 30
0.0
 11
320.7571229525
 21
238.0966078174
 31
0.0
  0
LINE
  5
187
330
1F
100
AcDbEntity
  8
0
  6
Continuous
 62
     7
370
    15
100
AcDbLine
 10
312.7571235039
 20
238.0966078174
 30
0.0
 11
312.7571235039
 21
238.6415544581
 31
0.0
  0
LINE
  5
188
330
1F
100
AcDbEntity
  8
0
  6
Continuous
 62
     7
370
    15
100
AcDbLine
 10
312.7571235039
 20
334.6170764101
 30
0.0
 11
320.7571229525
 21
334.6170764101
 31
0.0
  0
LINE
  5
189
330
1F
100
AcDbEntity
  8
0
  6
Continuous
 62
     7
370
    15
100
AcDbLine
 10
312.7571235039
 20
334.2031966579
 30
0.0
 11
312.7571235039
 21
334.6170764101
 31
0.0
  0
LINE
  5
18A
330
1F
100
AcDbEntity
  8
0
  6
Continuous
 62
     7
370
    15
100
AcDbLine
 10
316.7571232282
 20
306.686162917
 30
0.0
 11
316.7571232282
 21
266.0275213104
 31
0.0
  0
LINE
  5
18B
330
1F
100
AcDbEntity
  8
0
  6
Continuous
 62
     7
370
    15
100
AcDbLine
 10
315.2571229823
 20
304.9991726559
 30
0.0
 11
315.2571229823
 21
267.7145115715
 31
0.0
  0
LINE
  5
18C
330
1F
100
AcDbEntity
  8
0
  6
Continuous
 62
     7
370
    15
100
AcDbLine
 10
308.2571236976
 20
303.7989940178
 30
0.0
 11
308.2571236976
 21
268.9264379126
 31
0.0
  0
LINE
  5
18D
330
1F
100
AcDbEntity
  8
0
  6
Continuous
 62
     7
370
    15
100
AcDbLine
 10
304.257123042
 20
298.4915030804
 30
0.0
 11
304.257123042
 21
271.856842531
 31
0.0
  0
LINE
  5
18E
330
1F
100
AcDbEntity
  8
0
  6
Continuous
 62
     7
370
    15
100
AcDbLine
 10
305.2571232059
 20
298.4502287266
 30
0.0
 11
304.257123042
 21
298.4915030804
 31
0.0
  0
LINE
  5
18F
330
1F
100
AcDbEntity
  8
0
  6
Continuous
 62
     7
370
    15
100
AcDbLine
 10
308.2571236976
 20
298.4502287266
 30
0.0
 11
305.2571232059
 21
298.4502287266
 31
0.0
  0
LINE
  5
190
330
1F
100
AcDbEntity
  8
0
  6
Continuous
 62
     7
370
    15
100
AcDbLine
 10
304.257123042
 20
302.8378653955
 30
0.0
 11
304.257123042
 21
298.4915030804
 31
0.0
  0
LINE
  5
191
330
1F
100
AcDbEntity
  8
0
  6
Continuous
 62
     7
370
    15
100
AcDbLine
 10
320.7571229525
 20
290.0381134507
 30
0.0
 11
320.7571229525
 21
282.6755707768
 31
0.0
  0
LINE
  5
192
330
1F
100
AcDbEntity
  8
0
  6
Continuous
 62
     7
370
    15
100
AcDbLine
 10
328.7571228669
 20
290.0381134507
 30
0.0
 11
328.7571228669
 21
282.6755707768
 31
0.0
  0
LINE
  5
193
330
1F
100
AcDbEntity
  8
0
  6
Continuous
 62
     7
370
    15
100
AcDbLine
 10
320.7571229525
 20
282.6755707768
 30
0.0
 11
320.7571229525
 21
243.8508961034
 31
0.0
  0
LINE
  5
194
330
1F
100
AcDbEntity
  8
0
  6
Continuous
 62
     7
370
    15
100
AcDbLine
 10
328.7571228669
 20
282.6755707768
 30
0.0
 11
328.7571228669
 21
243.8508961034
 31
0.0
  0
LINE
  5
195
330
1F
100
AcDbEntity
  8
0
  6
Continuous
 62
     7
370
    15
100
AcDbLine
 10
320.7571229525
 20
328.8627881241
 30
0.0
 11
320.7571229525
 21
290.0381134507
 31
0.0
  0
LINE
  5
196
330
1F
100
AcDbEntity
  8
0
  6
Continuous
 62
     7
370
    15
100
AcDbLine
 10
328.7571228669
 20
328.8627881241
 30
0.0
 11
328.7571228669
 21
290.0381134507
 31
0.0
  0
LINE
  5
197
330
1F
100
AcDbEntity
  8
0
  6
Continuous
 62
     7
370
    15
100
AcDbLine
 10
320.7571229525
 20
243.8508961034
 30
0.0
 11
320.7571229525
 21
238.299639864
 31
0.0
  0
LINE
  5
198
330
1F
100
AcDbEntity
  8
0
  6
Continuous
 62
     7
370
    15
100
AcDbLine
 10
328.7571228669
 20
243.8508961034
 30
0.0
 11
328.7571228669
 21
238.299639864
 31
0.0
  0
LINE
  5
199
330
1F
100
AcDbEntity
  8
0
  6
Continuous
 62
     7
370
    15
100
AcDbLine
 10
320.7571229525
 20
334.4140443635
 30
0.0
 11
320.7571229525
 21
328.8627881241
 31
0.0
  0
LINE
  5
19A
330
1F
100
AcDbEntity
  8
0
  6
Continuous
 62
     7
370
    15
100
AcDbLine
 10
328.7571228669
 20
334.4140443635
 30
0.0
 11
328.7571228669
 21
328.8627881241
 31
0.0
  0
LINE
  5
19B
330
1F
100
AcDbEntity
  8
0
  6
Continuous
 62
     7
370
    15
100
AcDbLine
 10
328.7571228669
 20
235.6877121758
 30
0.0
 11
327.4036806636
 21
235.4898769093
 31
0.0
  0
LINE
  5
19C
330
1F
100
AcDbEntity
  8
0
  6
Continuous
 62
     7
370
    15
100
AcDbLine
 10
320.7571229525
 20
238.299639864
 30
0.0
 11
320.7571229525
 21
235.4898769093
 31
0.0
  0
LINE
  5
19D
330
1F
100
AcDbEntity
  8
0
  6
Continuous
 62
     7
370
    15
100
AcDbLine
 10
328.7571228669
 20
238.299639864
 30
0.0
 11
328.7571228669
 21
235.6877121758
 31
0.0
  0
ARC
  5
19E
330
1F
100
AcDbEntity
  8
0
  6
Continuous
 62
     7
370
    15
100
AcDbCircle
 10
327.947352396
 20
361.3123766599
 30
0.0
 40
24.71244867636618
100
AcDbArc
 50
257.0982695078
 51
271.8777879034
  0
LINE
  5
19F
330
1F
100
AcDbEntity
  8
0
  6
Continuous
 62
     7
370
    15
100
AcDbLine
 10
320.7571229525
 20
337.2238073182
 30
0.0
 11
320.7571229525
 21
334.4140443635
 31
0.0
  0
LINE
  5
1A0
330
1F
100
AcDbEntity
  8
0
  6
Continuous
 62
     7
370
    15
100
AcDbLine
 10
328.7571228669
 20
336.6131987107
 30
0.0
 11
328.7571228669
 21
334.4140443635
 31
0.0
  0
LWPOLYLINE
  5
1A1
330
1F
100
AcDbEntity
  8
0
  6
Continuous
 62
     7
370
    15
100
AcDbPolyline
 90
        6
 70
   128
 43
0.0
 10
340.4902278074
 20
292.6505892222
 10
340.5796180107
 20
285.676951896
 10
340.6430550479
 20
280.1856961717
 10
340.6963881665
 20
274.7097732183
 10
340.7334697061
 20
269.6405965519
 10
340.7538796403
 20
264.833202554
  0
LWPOLYLINE
  5
1A2
330
1F
100
AcDbEntity
  8
0
  6
Continuous
 62
     7
370
    15
100
AcDbPolyline
 90
        9
 70
   128
 43
0.0
 10
335.257123001
 20
318.7015335691
 10
335.4603787978
 20
318.6752963495
 10
335.6860240549
 20
318.5858260524
 10
336.1321969517
 20
318.2365353835
 10
336.8223181554
 20
317.3215351683
 10
337.3928724416
 20
316.2886295152
 10
338.5975163058
 20
313.3648447376
 10
339.6027118527
 20
309.9443837684
 10
340.1065601595
 20
307.6108265352
  0
LWPOLYLINE
  5
1A3
330
1F
100
AcDbEntity
  8
0
  6
Continuous
 62
     7
370
    15
100
AcDbPolyline
 90
        5
 70
   128
 43
0.0
 10
340.1065601595
 20
307.6108265352
 10
340.2072528937
 20
304.4317569268
 10
340.3432651051
 20
299.4275046197
 10
340.4638201558
 20
294.0121395197
 10
340.4902278074
 20
292.6505892222
  0
LINE
  5
1A4
330
1F
100
AcDbEntity
  8
0
  6
Continuous
 62
     7
370
    15
100
AcDbLine
 10
335.257123001
 20
318.7015335691
 30
0.0
 11
328.7571228669
 21
318.7015335691
 31
0.0
  0
LINE
  5
1A5
330
1F
100
AcDbEntity
  8
0
  6
Continuous
 62
     7
370
    15
100
AcDbLine
 10
340.7571225055
 20
261.3744847161
 30
0.0
 11
340.7571225055
 21
307.6108265352
 31
0.0
  0
LWPOLYLINE
  5
1A6
330
1F
100
AcDbEntity
  8
0
  6
Continuous
 62
     7
370
    15
100
AcDbPolyline
 90
        3
 70
   128
 43
0.0
 10
340.7538796403
 20
264.833202554
 10
340.7551900112
 20
263.9824784976
 10
340.7571225055
 20
261.3744847161
  0
LINE
  5
1A7
330
1F
100
AcDbEntity
  8
0
  6
Continuous
 62
     7
370
    15
100
AcDbLine
 10
340.1065601595
 20
307.6108265352
 30
0.0
 11
340.7571225055
 21
307.6108265352
 31
0.0
  0
LINE
  5
1A8
330
1F
100
AcDbEntity
  8
0
  6
Continuous
 62
     7
370
    15
100
AcDbLine
 10
346.4437129535
 20
274.0096188766
 30
0.0
 11
346.4437129535
 21
306.85684268
 31
0.0
  0
LWPOLYLINE
  5
1A9
330
1F
100
AcDbEntity
  8
0
  6
Continuous
 62
     7
370
    15
100
AcDbPolyline
 90
        3
 70
   128
 43
0.0
 10
340.7571225055
 20
252.689937098
 10
343.8431231864
 20
263.2759269011
 10
346.4437129535
 20
274.0096188766
  0
LINE
  5
1AA
330
1F
100
AcDbEntity
  8
0
  6
Continuous
 62
     7
370
    15
100
AcDbLine
 10
340.7571225055
 20
261.3744847161
 30
0.0
 11
340.7571225055
 21
251.8386449349
 31
0.0
  0
ARC
  5
1AB
330
1F
100
AcDbEntity
  8
0
  6
Continuous
 62
     7
370
    15
100
AcDbCircle
 10
334.8784591045
 20
251.5355904313
 30
0.0
 40
5.886469690273724
100
AcDbArc
 50
273.6882605966
 51
2.9510767234
  0
LINE
  5
1AC
330
1F
100
AcDbEntity
  8
0
  6
Continuous
 62
     7
370
    15
100
AcDbLine
 10
333.8634381164
 20
243.0158275795
 30
0.0
 11
328.7571228669
 21
243.0158275795
 31
0.0
  0
LINE
  5
1AD
330
1F
100
AcDbEntity
  8
0
  6
Continuous
 62
     7
370
    15
100
AcDbLine
 10
354.7571229376
 20
245.6613126826
 30
0.0
 11
335.257123001
 21
245.6613126826
 31
0.0
  0
LINE
  5
1AE
330
1F
100
AcDbEntity
  8
0
  6
Continuous
 62
     7
370
    15
100
AcDbLine
 10
354.7571229376
 20
245.6613126826
 30
0.0
 11
354.7571229376
 21
245.4490493667
 31
0.0
  0
ARC
  5
1AF
330
1F
100
AcDbEntity
  8
0
  6
Continuous
 62
     7
370
    15
100
AcDbCircle
 10
351.1696214373
 20
185.3323793769
 30
0.0
 40
60.22361810516393
100
AcDbArc
 50
86.5848870844
 51
106.7002911448
  0
LINE
  5
1B0
330
1F
100
AcDbEntity
  8
0
  6
Continuous
 62
     7
370
    15
100
AcDbLine
 10
340.7571225055
 20
323.0244759154
 30
0.0
 11
340.7571225055
 21
307.6108265352
 31
0.0
  0
LINE
  5
1B1
330
1F
100
AcDbEntity
  8
0
  6
Continuous
 62
     7
370
    15
100
AcDbLine
 10
354.7571229376
 20
274.0096188766
 30
0.0
 11
346.4437129535
 21
274.0096188766
 31
0.0
  0
LINE
  5
1B2
330
1F
100
AcDbEntity
  8
0
  6
Continuous
 62
     7
370
    15
100
AcDbLine
 10
354.7571229376
 20
306.85684268
 30
0.0
 11
354.7571229376
 21
274.0096188766
 31
0.0
  0
LINE
  5
1B3
330
1F
100
AcDbEntity
  8
0
  6
Continuous
 62
     7
370
    15
100
AcDbLine
 10
354.7571229376
 20
274.0096188766
 30
0.0
 11
354.7571229376
 21
245.6613126826
 31
0.0
  0
LWPOLYLINE
  5
1B4
330
1F
100
AcDbEntity
  8
0
  6
Continuous
 62
     7
370
    15
100
AcDbPolyline
 90
        5
 70
   128
 43
0.0
 10
330.96993797
 20
242.1125936937
 10
330.9686401138
 20
242.1127911341
 10
331.2030265318
 20
242.2219346893
 10
332.4318502076
 20
242.6135707331
 10
333.8634381164
 20
243.0158275795
  0
LWPOLYLINE
  5
1B5
330
1F
100
AcDbEntity
  8
0
  6
Continuous
 62
     7
370
    15
100
AcDbPolyline
 90
        3
 70
   128
 43
0.0
 10
327.4036806636
 20
235.4898769093
 10
326.7293686607
 20
235.357338531
 10
326.7638983764
 20
235.3641185594
  0
LINE
  5
1B6
330
1F
100
AcDbEntity
  8
0
  6
Continuous
 62
     7
370
    15
100
AcDbLine
 10
376.7076900788
 20
268.3568428886
 30
0.0
 11
376.7116686889
 21
276.3568423372
 31
0.0
  0
LINE
  5
1B7
330
1F
100
AcDbEntity
  8
0
  6
Continuous
 62
     7
370
    15
100
AcDbLine
 10
376.5588945337
 20
267.3568427247
 30
0.0
 11
376.7076900788
 21
268.3568428886
 31
0.0
  0
LWPOLYLINE
  5
1B8
330
1F
100
AcDbEntity
  8
0
  6
Continuous
 62
     7
370
    15
100
AcDbPolyline
 90
        3
 70
   128
 43
0.0
 10
376.0216108151
 20
258.3568412495
 10
376.545077432
 20
262.8018613589
 10
376.5588945337
 20
267.3568427247
  0
LINE
  5
1B9
330
1F
100
AcDbEntity
  8
0
  6
Continuous
 62
     7
370
    15
100
AcDbLine
 10
376.5767796524
 20
276.3568423372
 30
0.0
 11
376.7571246811
 21
278.3568417338
 31
0.0
  0
LINE
  5
1BA
330
1F
100
AcDbEntity
  8
0
  6
Continuous
 62
     7
370
    15
100
AcDbLine
 10
321.9838228636
 20
337.3563494217
 30
0.0
 11
322.4295678177
 21
337.2238073182
 31
0.0
  0
LINE
  5
1BB
330
1F
100
AcDbEntity
  8
0
  6
Continuous
 62
     7
370
    15
100
AcDbLine
 10
340.7571225055
 20
323.6174825263
 30
0.0
 11
340.7571225055
 21
323.0244759154
 31
0.0
  0
LINE
  5
1BC
330
1F
100
AcDbEntity
  8
0
  6
Continuous
 62
     7
370
    15
100
AcDbLine
 10
340.7571225055
 20
323.6174825263
 30
0.0
 11
340.7571225055
 21
331.4474355113
 31
0.0
  0
LINE
  5
1BD
330
1F
100
AcDbEntity
  8
0
  6
Continuous
 62
     7
370
    15
100
AcDbLine
 10
320.7571229525
 20
235.4898769093
 30
0.0
 11
320.7571229525
 21
235.3568430674
 31
0.0
  0
LINE
  5
1BE
330
1F
100
AcDbEntity
  8
0
  6
Continuous
 62
     7
370
    15
100
AcDbLine
 10
320.7571229525
 20
337.3568411601
 30
0.0
 11
320.7571229525
 21
337.2238073182
 31
0.0
  0
LINE
  5
1BF
330
1F
100
AcDbEntity
  8
0
  6
Continuous
 62
     7
370
    15
100
AcDbLine
 10
377.7571229823
 20
278.3568417338
 30
0.0
 11
376.7571246811
 21
278.3568417338
 31
0.0
  0
LINE
  5
1C0
330
1F
100
AcDbEntity
  8
0
  6
Continuous
 62
     7
370
    15
100
AcDbLine
 10
377.7571229823
 20
278.3568417338
 30
0.0
 11
377.7571229823
 21
276.3568423372
 31
0.0
  0
LINE
  5
1C1
330
1F
100
AcDbEntity
  8
0
  6
Continuous
 62
     7
370
    15
100
AcDbLine
 10
377.7571229823
 20
276.3568423372
 30
0.0
 11
376.5767796524
 21
276.3568423372
 31
0.0
  0
LINE
  5
1C2
330
1F
100
AcDbEntity
  8
0
  6
Continuous
 62
     7
370
    15
100
AcDbLine
 10
377.7571229823
 20
268.3568428886
 30
0.0
 11
376.7076900788
 21
268.3568428886
 31
0.0
  0
LINE
  5
1C3
330
1F
100
AcDbEntity
  8
0
  6
Continuous
 62
     7
370
    15
100
AcDbLine
 10
377.7571229823
 20
267.3568427247
 30
0.0
 11
376.5588945337
 21
267.3568427247
 31
0.0
  0
LINE
  5
1C4
330
1F
100
AcDbEntity
  8
0
  6
Continuous
 62
     7
370
    15
100
AcDbLine
 10
377.7571229823
 20
268.3568428886
 30
0.0
 11
377.7571229823
 21
267.3568427247
 31
0.0
  0
LINE
  5
1C5
330
1F
100
AcDbEntity
  8
0
  6
Continuous
 62
     7
370
    15
100
AcDbLine
 10
377.7571229823
 20
258.3568412495
 30
0.0
 11
376.0216108151
 21
258.3568412495
 31
0.0
  0
LINE
  5
1C6
330
1F
100
AcDbEntity
  8
0
  6
Continuous
 62
     7
370
    15
100
AcDbLine
 10
377.7571229823
 20
267.3568427247
 30
0.0
 11
377.7571229823
 21
258.3568412495
 31
0.0
  0
LINE
  5
1C7
330
1F
100
AcDbEntity
  8
0
  6
Continuous
 62
     7
370
    15
100
AcDbLine
 10
377.7571229823
 20
276.3568423372
 30
0.0
 11
377.7571229823
 21
268.3568428886
 31
0.0
  0
LINE
  5
1C8
330
1F
100
AcDbEntity
  8
SLD-0
  6
CENTERX2
370
     0
100
AcDbLine
 10
162.6540985243
 20
286.3568421137
 30
0.0
 11
381.3803018646
 21
286.3568421137
 31
0.0
  0
LINE
  5
1C9
330
1F
100
AcDbEntity
  8
SLD-0
  6
CENTERX2
370
     0
100
AcDbLine
 10
335.7571228929
 20
394.0185010322
 30
0.0
 11
335.7571228929
 21
180.5840606759
 31
0.0
  0
LINE
  5
1CA
330
1F
100
AcDbEntity
  8
0
  6
Continuous
 62
     7
370
    15
100
AcDbLine
 10
493.848465642
 20
337.7507794332
 30
0.0
 11
491.0293857363
 21
336.7247190011
 31
0.0
  0
ARC
  5
1CB
330
1F
100
AcDbEntity
  8
0
  6
Continuous
 62
     7
370
    15
100
AcDbCircle
 10
488.4668231725
 20
334.993890849
 30
0.0
 40
3.000000000000038
100
AcDbArc
 50
290.0
 51
20.0
  0
LINE
  5
1CC
330
1F
100
AcDbEntity
  8
0
  6
Continuous
 62
     7
370
    15
100
AcDbLine
 10
489.4928823021
 20
332.1748133433
 30
0.0
 11
488.5531927255
 21
331.832794441
 31
0.0
  0
ARC
  5
1CD
330
1F
100
AcDbEntity
  8
0
  6
Continuous
 62
     7
370
    15
100
AcDbCircle
 10
488.895211125
 20
330.8931002225
 30
0.0
 40
1.000000000000044
100
AcDbArc
 50
110.0
 51
200.0
  0
LINE
  5
1CE
330
1F
100
AcDbEntity
  8
0
  6
Continuous
 62
     7
370
    15
100
AcDbLine
 10
486.5575509873
 20
319.7729456854
 30
0.0
 11
488.4722272661
 21
320.4698320162
 31
0.0
  0
LINE
  5
1CF
330
1F
100
AcDbEntity
  8
0
  6
Continuous
 62
     7
370
    15
100
AcDbLine
 10
488.2462362554
 20
329.7523427439
 30
0.0
 11
483.5477734712
 21
328.0422407818
 31
0.0
  0
LINE
  5
1D0
330
1F
100
AcDbEntity
  8
0
  6
Continuous
 62
     7
370
    15
100
AcDbLine
 10
561.636833733
 20
291.0875295904
 30
0.0
 11
558.6368351039
 21
290.9937794004
 31
0.0
  0
LINE
  5
1D1
330
1F
100
AcDbEntity
  8
0
  6
Continuous
 62
     7
370
    15
100
AcDbLine
 10
558.6368351039
 20
281.719904827
 30
0.0
 11
561.636833733
 21
281.626154637
 31
0.0
  0
LINE
  5
1D2
330
1F
100
AcDbEntity
  8
0
  6
Continuous
 62
     7
370
    15
100
AcDbLine
 10
555.1868344453
 20
368.856845392
 30
0.0
 11
555.1868344453
 21
369.3568389547
 31
0.0
  0
LINE
  5
1D3
330
1F
100
AcDbEntity
  8
0
  6
Continuous
 62
     7
370
    15
100
AcDbLine
 10
519.0868343022
 20
369.3568389547
 30
0.0
 11
519.0868343022
 21
368.856845392
 31
0.0
  0
LINE
  5
1D4
330
1F
100
AcDbEntity
  8
0
  6
Continuous
 62
     7
370
    15
100
AcDbLine
 10
519.0868343022
 20
203.8568388355
 30
0.0
 11
519.0868343022
 21
203.3568452728
 31
0.0
  0
LINE
  5
1D5
330
1F
100
AcDbEntity
  8
0
  6
Continuous
 62
     7
370
    15
100
AcDbLine
 10
555.1868344453
 20
203.3568452728
 30
0.0
 11
555.1868344453
 21
203.8568388355
 31
0.0
  0
LWPOLYLINE
  5
1D6
330
1F
100
AcDbEntity
  8
0
  6
Continuous
 62
     7
370
    15
100
AcDbPolyline
 90
        5
 70
   128
 43
0.0
 10
521.6456104797
 20
245.5624062252
 10
521.7207933572
 20
243.070295049
 10
521.9101861846
 20
237.2377011609
 10
522.1148005482
 20
230.8526094687
 10
522.2849960235
 20
225.4581469727
  0
LWPOLYLINE
  5
1D7
330
1F
100
AcDbEntity
  8
0
  6
Continuous
 62
     7
370
    15
100
AcDbPolyline
 90
       12
 70
   128
 43
0.0
 10
520.4280859586
 20
282.6584456173
 10
520.4539879021
 20
282.329465231
 10
520.5716921744
 20
280.290062042
 10
520.6504280475
 20
278.4976586384
 10
520.6963198986
 20
277.3171588463
 10
520.7500516233
 20
275.8237542269
 10
520.8187422511
 20
273.763481496
 10
520.9024197218
 20
271.0666339529
 10
521.0011101123
 20
267.7028439623
 10
521.1148432252
 20
263.7862879467
 10
521.2436488625
 20
259.3452837002
 10
521.2988148239
 20
257.4372626525
  0
LWPOLYLINE
  5
1D8
330
1F
100
AcDbEntity
  8
0
  6
Continuous
 62
     7
370
    15
100
AcDbPolyline
 90
       14
 70
   128
 43
0.0
 10
551.9886196387
 20
225.4581432474
 10
552.1244372037
 20
229.7675329876
 10
552.2937544417
 20
235.0725065601
 10
552.446947692
 20
239.8066725266
 10
552.5840160233
 20
244.0582979155
 10
552.7049603668
 20
248.0790409875
 10
552.8097844478
 20
251.6995835733
 10
552.8994167951
 20
254.8206839395
 10
552.9867711273
 20
257.8435651642
 10
553.106110802
 20
261.9623914045
 10
553.2286654022
 20
266.1847434622
 10
553.3543846366
 20
270.4975045902
 10
553.4658881631
 20
274.1005671826
 10
553.5456410405
 20
276.3557014671
  0
ARC
  5
1D9
330
1F
100
AcDbEntity
  8
0
  6
Continuous
 62
     7
370
    15
100
AcDbCircle
 10
555.7998099975
 20
347.3568449686
 30
0.0
 40
3.000000195108389
100
AcDbArc
 50
90.0047222127
 51
190.888248618
  0
ARC
  5
1DA
330
1F
100
AcDbEntity
  8
0
  6
Continuous
 62
     7
370
    15
100
AcDbCircle
 10
519.2990959702
 20
347.3568557309
 30
0.0
 40
2.999989438929424
100
AcDbArc
 50
0.7326690959
 51
89.9940276634
  0
ARC
  5
1DB
330
1F
100
AcDbEntity
  8
0
  6
Continuous
 62
     7
370
    15
100
AcDbCircle
 10
546.7569907333
 20
346.349852653
 30
0.0
 40
24.45403501029748
100
AcDbArc
 50
177.5469255133
 51
218.329157129
  0
ARC
  5
1DC
330
1F
100
AcDbEntity
  8
0
  6
Continuous
 62
     7
370
    15
100
AcDbCircle
 10
589.3282739402
 20
353.1549879916
 30
0.0
 40
36.98390939541738
100
AcDbArc
 50
189.8978575704
 51
231.5156453602
  0
ARC
  5
1DD
330
1F
100
AcDbEntity
  8
0
  6
Continuous
 62
     7
370
    15
100
AcDbCircle
 10
519.2869702279
 20
225.3568425443
 30
0.0
 40
2.999997203704132
100
AcDbArc
 50
270.0509007256
 51
1.8388264461
  0
ARC
  5
1DE
330
1F
100
AcDbEntity
  8
0
  6
Continuous
 62
     7
370
    15
100
AcDbCircle
 10
554.986709023
 20
225.356846106
 30
0.0
 40
3.000007633106467
100
AcDbArc
 50
178.2910835154
 51
269.9637331361
  0
ARC
  5
1DF
330
1F
100
AcDbEntity
  8
0
  6
Continuous
 62
     7
370
    15
100
AcDbCircle
 10
523.5603855972
 20
328.1468298964
 30
0.0
 40
4.975165554887047
100
AcDbArc
 50
283.1022769216
 51
37.1218831979
  0
CIRCLE
  5
1E0
330
1F
100
AcDbEntity
  8
0
  6
Continuous
 62
     7
370
    15
100
AcDbCircle
 10
578.8561344638
 20
244.6375420237
 30
0.0
 40
3.0
  0
CIRCLE
  5
1E1
330
1F
100
AcDbEntity
  8
0
  6
Continuous
 62
     7
370
    15
100
AcDbCircle
 10
495.4175342837
 20
244.6375420237
 30
0.0
 40
3.0
  0
CIRCLE
  5
1E2
330
1F
100
AcDbEntity
  8
0
  6
Continuous
 62
     7
370
    15
100
AcDbCircle
 10
495.0639808932
 20
328.4296955943
 30
0.0
 40
3.0
  0
CIRCLE
  5
1E3
330
1F
100
AcDbEntity
  8
0
  6
Continuous
 62
     7
370
    15
100
AcDbCircle
 10
578.8561344638
 20
328.0761422037
 30
0.0
 40
2.999999999999886
  0
LWPOLYLINE
  5
1E4
330
1F
100
AcDbEntity
  8
0
  6
Continuous
 62
     7
370
    15
100
AcDbPolyline
 90
        7
 70
   128
 43
0.0
 10
492.1413103845
 20
333.6697350872
 10
492.0893798378
 20
333.8124174309
 10
491.6635717061
 20
334.9823038709
 10
491.3384618965
 20
335.8755390775
 10
491.1257962492
 20
336.4598359597
 10
491.0332600382
 20
336.7140758467
 10
491.0293857363
 20
336.7247190011
  0
LINE
  5
1E5
330
1F
100
AcDbEntity
  8
0
  6
Continuous
 62
     7
370
    15
100
AcDbLine
 10
499.7177461889
 20
334.7821812761
 30
0.0
 11
499.410957357
 21
335.6250691843
 31
0.0
  0
LINE
  5
1E6
330
1F
100
AcDbEntity
  8
0
  6
Continuous
 62
     7
370
    15
100
AcDbLine
 10
501.3826045003
 20
336.3426904809
 30
0.0
 11
499.410957357
 21
335.6250691843
 31
0.0
  0
LINE
  5
1E7
330
1F
100
AcDbEntity
  8
0
  6
Continuous
 62
     7
370
    15
100
AcDbLine
 10
498.0014192667
 20
335.1120408308
 30
0.0
 11
496.4442553726
 21
334.5452788901
 31
0.0
  0
LINE
  5
1E8
330
1F
100
AcDbEntity
  8
0
  6
Continuous
 62
     7
370
    15
100
AcDbLine
 10
498.1624449399
 20
334.669625355
 30
0.0
 11
498.0014192667
 21
335.1120408308
 31
0.0
  0
LWPOLYLINE
  5
1E9
330
1F
100
AcDbEntity
  8
0
  6
Continuous
 62
     7
370
    15
100
AcDbPolyline
 90
        6
 70
   128
 43
0.0
 10
488.9951052871
 20
327.6948351097
 10
488.8533207384
 20
328.0843887162
 10
488.481439909
 20
329.1061240864
 10
488.1960826722
 20
329.8901300561
 10
488.0167024937
 20
330.382978512
 10
487.9555183258
 20
330.5510785115
  0
LINE
  5
1EA
330
1F
100
AcDbEntity
  8
0
  6
Continuous
 62
     7
370
    15
100
AcDbLine
 10
499.410957357
 20
335.6250691843
 30
0.0
 11
498.0014192667
 21
335.1120408308
 31
0.0
  0
LWPOLYLINE
  5
1EB
330
1F
100
AcDbEntity
  8
0
  6
Continuous
 62
     7
370
    15
100
AcDbPolyline
 90
        7
 70
   128
 43
0.0
 10
485.0526603666
 20
323.9075932336
 10
484.6286850777
 20
325.0724579823
 10
484.2390569654
 20
326.1429536772
 10
483.9153404143
 20
327.0323518348
 10
483.6837651935
 20
327.6686016154
 10
483.5630918649
 20
328.0001561773
 10
483.5477734712
 20
328.0422407818
  0
LWPOLYLINE
  5
1EC
330
1F
100
AcDbEntity
  8
0
  6
Continuous
 62
     7
370
    15
100
AcDbPolyline
 90
        7
 70
   128
 43
0.0
 10
486.5575509873
 20
319.7729456854
 10
486.5422325936
 20
319.8150302899
 10
486.4215555396
 20
320.1465848517
 10
486.1899803188
 20
320.7828346324
 10
485.8662637678
 20
321.67223279
 10
485.4766356554
 20
322.7427284849
 10
485.0526603666
 20
323.9075932336
  0
ARC
  5
1ED
330
1F
100
AcDbEntity
  8
0
  6
Continuous
 62
     7
370
    15
100
AcDbCircle
 10
513.0244142693
 20
352.6051718791
 30
0.0
 40
20.00000000000004
100
AcDbArc
 50
67.6278455487
 51
241.3639961644
  0
ARC
  5
1EE
330
1F
100
AcDbEntity
  8
0
  6
Continuous
 62
     7
370
    15
100
AcDbCircle
 10
497.6528429902
 20
358.2906618679
 30
0.0
 40
10.60000000000001
100
AcDbArc
 50
110.0
 51
200.0
  0
LINE
  5
1EF
330
1F
100
AcDbEntity
  8
0
  6
Continuous
 62
     7
370
    15
100
AcDbLine
 10
495.673969647
 20
334.4895336461
 30
0.0
 11
488.2559182849
 21
354.8704590332
 31
0.0
  0
LINE
  5
1F0
330
1F
100
AcDbEntity
  8
0
  6
Continuous
 62
     7
370
    15
100
AcDbLine
 10
495.0518498924
 20
334.4445097876
 30
0.0
 11
487.6921030488
 21
354.6652476919
 31
0.0
  0
LWPOLYLINE
  5
1F1
330
1F
100
AcDbEntity
  8
0
  6
Continuous
 62
     7
370
    15
100
AcDbPolyline
 90
        3
 70
   128
 43
0.0
 10
520.6368344632
 20
377.4289693367
 10
519.5326509681
 20
377.3177992237
 10
517.519744372
 20
376.801906122
  0
LINE
  5
1F2
330
1F
100
AcDbEntity
  8
0
  6
Continuous
 62
     7
370
    15
100
AcDbLine
 10
494.027428588
 20
368.2514037621
 30
0.0
 11
517.519744372
 21
376.801906122
 31
0.0
  0
LINE
  5
1F3
330
1F
100
AcDbEntity
  8
0
  6
Continuous
 62
     7
370
    15
100
AcDbLine
 10
494.2326399293
 20
367.687588526
 30
0.0
 11
517.7249575761
 21
376.2380908859
 31
0.0
  0
ARC
  5
1F4
330
1F
100
AcDbEntity
  8
0
  6
Continuous
 62
     7
370
    15
100
AcDbCircle
 10
497.6528429902
 20
358.2906618679
 30
0.0
 40
10.00000000000001
100
AcDbArc
 50
110.0
 51
200.0
  0
LWPOLYLINE
  5
1F5
330
1F
100
AcDbEntity
  8
0
  6
Continuous
 62
     7
370
    15
100
AcDbPolyline
 90
        3
 70
   128
 43
0.0
 10
520.6368344632
 20
376.8282364738
 10
519.6239243057
 20
376.7247777116
 10
517.7249575761
 20
376.2380908859
  0
LINE
  5
1F6
330
1F
100
AcDbEntity
  8
0
  6
Continuous
 62
     7
370
    15
100
AcDbLine
 10
561.636833733
 20
289.8568422218
 30
0.0
 11
561.636833733
 21
291.0875295904
 31
0.0
  0
LINE
  5
1F7
330
1F
100
AcDbEntity
  8
0
  6
Continuous
 62
     7
370
    15
100
AcDbLine
 10
561.636833733
 20
283.1741696839
 30
0.0
 11
561.636833733
 21
289.5395145436
 31
0.0
  0
LINE
  5
1F8
330
1F
100
AcDbEntity
  8
0
  6
Continuous
 62
     7
370
    15
100
AcDbLine
 10
561.636833733
 20
281.626154637
 30
0.0
 11
561.636833733
 21
282.8568420057
 31
0.0
  0
LINE
  5
1F9
330
1F
100
AcDbEntity
  8
0
  6
Continuous
 62
     7
370
    15
100
AcDbLine
 10
561.636833733
 20
282.8568420057
 30
0.0
 11
568.6368348804
 21
282.8568420057
 31
0.0
  0
LINE
  5
1FA
330
1F
100
AcDbEntity
  8
0
  6
Continuous
 62
     7
370
    15
100
AcDbLine
 10
561.636833733
 20
283.1741696839
 30
0.0
 11
561.636833733
 21
282.8568420057
 31
0.0
  0
LINE
  5
1FB
330
1F
100
AcDbEntity
  8
0
  6
Continuous
 62
     7
370
    15
100
AcDbLine
 10
561.636833733
 20
289.8568422218
 30
0.0
 11
568.6368348804
 21
289.8568422218
 31
0.0
  0
LINE
  5
1FC
330
1F
100
AcDbEntity
  8
0
  6
Continuous
 62
     7
370
    15
100
AcDbLine
 10
568.6368348804
 20
289.8568422218
 30
0.0
 11
568.6368348804
 21
282.8568420057
 31
0.0
  0
LINE
  5
1FD
330
1F
100
AcDbEntity
  8
0
  6
Continuous
 62
     7
370
    15
100
AcDbLine
 10
561.636833733
 20
289.8568422218
 30
0.0
 11
561.636833733
 21
289.5395145436
 31
0.0
  0
LINE
  5
1FE
330
1F
100
AcDbEntity
  8
0
  6
Continuous
 62
     7
370
    15
100
AcDbLine
 10
543.6368345079
 20
350.044427408
 30
0.0
 11
541.5461065975
 21
350.3568451536
 31
0.0
  0
LINE
  5
1FF
330
1F
100
AcDbEntity
  8
0
  6
Continuous
 62
     7
370
    15
100
AcDbLine
 10
532.72756215
 20
350.3568451536
 30
0.0
 11
530.6368342396
 21
350.044427408
 31
0.0
  0
LINE
  5
200
330
1F
100
AcDbEntity
  8
0
  6
Continuous
 62
     7
370
    15
100
AcDbLine
 10
555.1868344453
 20
369.3568389547
 30
0.0
 11
519.0868343022
 21
369.3568389547
 31
0.0
  0
LINE
  5
201
330
1F
100
AcDbEntity
  8
0
  6
Continuous
 62
     7
370
    15
100
AcDbLine
 10
530.3023106214
 20
383.8568385375
 30
0.0
 11
530.3023106214
 21
369.3568389547
 31
0.0
  0
LINE
  5
202
330
1F
100
AcDbEntity
  8
0
  6
Continuous
 62
     7
370
    15
100
AcDbLine
 10
543.9713581261
 20
383.8568385375
 30
0.0
 11
543.9713581261
 21
369.3568389547
 31
0.0
  0
LINE
  5
203
330
1F
100
AcDbEntity
  8
0
  6
Continuous
 62
     7
370
    15
100
AcDbLine
 10
543.9713581261
 20
383.8568385375
 30
0.0
 11
530.3023106214
 21
383.8568385375
 31
0.0
  0
LINE
  5
204
330
1F
100
AcDbEntity
  8
0
  6
Continuous
 62
     7
370
    15
100
AcDbLine
 10
553.6368342843
 20
383.8568385375
 30
0.0
 11
553.6368342843
 21
369.3568389547
 31
0.0
  0
LINE
  5
205
330
1F
100
AcDbEntity
  8
0
  6
Continuous
 62
     7
370
    15
100
AcDbLine
 10
553.6368342843
 20
383.8568385375
 30
0.0
 11
543.9713581261
 21
383.8568385375
 31
0.0
  0
LINE
  5
206
330
1F
100
AcDbEntity
  8
0
  6
Continuous
 62
     7
370
    15
100
AcDbLine
 10
520.6368344632
 20
383.8568385375
 30
0.0
 11
520.6368344632
 21
369.3568389547
 31
0.0
  0
LINE
  5
207
330
1F
100
AcDbEntity
  8
0
  6
Continuous
 62
     7
370
    15
100
AcDbLine
 10
530.3023106214
 20
383.8568385375
 30
0.0
 11
520.6368344632
 21
383.8568385375
 31
0.0
  0
LINE
  5
208
330
1F
100
AcDbEntity
  8
0
  6
Continuous
 62
     7
370
    15
100
AcDbLine
 10
553.8128598389
 20
203.3568452728
 30
0.0
 11
555.1868344453
 21
203.3568452728
 31
0.0
  0
LINE
  5
209
330
1F
100
AcDbEntity
  8
0
  6
Continuous
 62
     7
370
    15
100
AcDbLine
 10
519.0868343022
 20
203.3568452728
 30
0.0
 11
553.8128598389
 21
203.3568452728
 31
0.0
  0
LINE
  5
20A
330
1F
100
AcDbEntity
  8
0
  6
Continuous
 62
     7
370
    15
100
AcDbLine
 10
543.9713581261
 20
188.85684569
 30
0.0
 11
543.9713581261
 21
203.3568452728
 31
0.0
  0
LINE
  5
20B
330
1F
100
AcDbEntity
  8
0
  6
Continuous
 62
     7
370
    15
100
AcDbLine
 10
530.3023106214
 20
188.85684569
 30
0.0
 11
530.3023106214
 21
203.3568452728
 31
0.0
  0
LINE
  5
20C
330
1F
100
AcDbEntity
  8
0
  6
Continuous
 62
     7
370
    15
100
AcDbLine
 10
530.3023106214
 20
188.85684569
 30
0.0
 11
543.9713581261
 21
188.85684569
 31
0.0
  0
LINE
  5
20D
330
1F
100
AcDbEntity
  8
0
  6
Continuous
 62
     7
370
    15
100
AcDbLine
 10
553.6368342843
 20
188.85684569
 30
0.0
 11
553.6368342843
 21
203.3568452728
 31
0.0
  0
LINE
  5
20E
330
1F
100
AcDbEntity
  8
0
  6
Continuous
 62
     7
370
    15
100
AcDbLine
 10
543.9713581261
 20
188.85684569
 30
0.0
 11
553.6368342843
 21
188.85684569
 31
0.0
  0
LINE
  5
20F
330
1F
100
AcDbEntity
  8
0
  6
Continuous
 62
     7
370
    15
100
AcDbLine
 10
520.6368344632
 20
188.85684569
 30
0.0
 11
520.6368344632
 21
203.3568452728
 31
0.0
  0
LINE
  5
210
330
1F
100
AcDbEntity
  8
0
  6
Continuous
 62
     7
370
    15
100
AcDbLine
 10
520.6368344632
 20
188.85684569
 30
0.0
 11
530.3023106214
 21
188.85684569
 31
0.0
  0
LINE
  5
211
330
1F
100
AcDbEntity
  8
0
  6
Continuous
 62
     7
370
    15
100
AcDbLine
 10
526.9886025023
 20
368.856845392
 30
0.0
 11
526.9886025023
 21
350.3568451536
 31
0.0
  0
LINE
  5
212
330
1F
100
AcDbEntity
  8
0
  6
Continuous
 62
     7
370
    15
100
AcDbLine
 10
547.2850662452
 20
368.856845392
 30
0.0
 11
547.2850662452
 21
350.3568451536
 31
0.0
  0
LINE
  5
213
330
1F
100
AcDbEntity
  8
0
  6
Continuous
 62
     7
370
    15
100
AcDbLine
 10
547.2850662452
 20
368.856845392
 30
0.0
 11
526.9886025023
 21
368.856845392
 31
0.0
  0
LINE
  5
214
330
1F
100
AcDbEntity
  8
0
  6
Continuous
 62
     7
370
    15
100
AcDbLine
 10
526.9886025023
 20
350.3568451536
 30
0.0
 11
547.2850662452
 21
350.3568451536
 31
0.0
  0
LINE
  5
215
330
1F
100
AcDbEntity
  8
0
  6
Continuous
 62
     7
370
    15
100
AcDbLine
 10
561.636833733
 20
368.856845392
 30
0.0
 11
561.636833733
 21
350.3568451536
 31
0.0
  0
LINE
  5
216
330
1F
100
AcDbEntity
  8
0
  6
Continuous
 62
     7
370
    15
100
AcDbLine
 10
561.636833733
 20
368.856845392
 30
0.0
 11
547.2850662452
 21
368.856845392
 31
0.0
  0
LINE
  5
217
330
1F
100
AcDbEntity
  8
0
  6
Continuous
 62
     7
370
    15
100
AcDbLine
 10
547.2850662452
 20
350.3568451536
 30
0.0
 11
561.636833733
 21
350.3568451536
 31
0.0
  0
LINE
  5
218
330
1F
100
AcDbEntity
  8
0
  6
Continuous
 62
     7
370
    15
100
AcDbLine
 10
512.6368350145
 20
368.856845392
 30
0.0
 11
512.6368350145
 21
350.3568451536
 31
0.0
  0
LINE
  5
219
330
1F
100
AcDbEntity
  8
0
  6
Continuous
 62
     7
370
    15
100
AcDbLine
 10
526.9886025023
 20
368.856845392
 30
0.0
 11
512.6368350145
 21
368.856845392
 31
0.0
  0
LINE
  5
21A
330
1F
100
AcDbEntity
  8
0
  6
Continuous
 62
     7
370
    15
100
AcDbLine
 10
512.6368350145
 20
350.3568451536
 30
0.0
 11
526.9886025023
 21
350.3568451536
 31
0.0
  0
LINE
  5
21B
330
1F
100
AcDbEntity
  8
0
  6
Continuous
 62
     7
370
    15
100
AcDbLine
 10
547.2850662452
 20
203.8568388355
 30
0.0
 11
547.2850662452
 21
222.3568390739
 31
0.0
  0
LINE
  5
21C
330
1F
100
AcDbEntity
  8
0
  6
Continuous
 62
     7
370
    15
100
AcDbLine
 10
526.9886025023
 20
203.8568388355
 30
0.0
 11
526.9886025023
 21
222.3568390739
 31
0.0
  0
LINE
  5
21D
330
1F
100
AcDbEntity
  8
0
  6
Continuous
 62
     7
370
    15
100
AcDbLine
 10
526.9886025023
 20
203.8568388355
 30
0.0
 11
547.2850662452
 21
203.8568388355
 31
0.0
  0
LINE
  5
21E
330
1F
100
AcDbEntity
  8
0
  6
Continuous
 62
     7
370
    15
100
AcDbLine
 10
547.2850662452
 20
222.3568390739
 30
0.0
 11
526.9886025023
 21
222.3568390739
 31
0.0
  0
LINE
  5
21F
330
1F
100
AcDbEntity
  8
0
  6
Continuous
 62
     7
370
    15
100
AcDbLine
 10
561.636833733
 20
203.8568388355
 30
0.0
 11
561.636833733
 21
222.3568390739
 31
0.0
  0
LINE
  5
220
330
1F
100
AcDbEntity
  8
0
  6
Continuous
 62
     7
370
    15
100
AcDbLine
 10
547.2850662452
 20
203.8568388355
 30
0.0
 11
561.636833733
 21
203.8568388355
 31
0.0
  0
LINE
  5
221
330
1F
100
AcDbEntity
  8
0
  6
Continuous
 62
     7
370
    15
100
AcDbLine
 10
561.636833733
 20
222.3568390739
 30
0.0
 11
547.2850662452
 21
222.3568390739
 31
0.0
  0
LINE
  5
222
330
1F
100
AcDbEntity
  8
0
  6
Continuous
 62
     7
370
    15
100
AcDbLine
 10
512.6368350145
 20
203.8568388355
 30
0.0
 11
512.6368350145
 21
222.3568390739
 31
0.0
  0
LINE
  5
223
330
1F
100
AcDbEntity
  8
0
  6
Continuous
 62
     7
370
    15
100
AcDbLine
 10
512.6368350145
 20
203.8568388355
 30
0.0
 11
526.9886025023
 21
203.8568388355
 31
0.0
  0
LINE
  5
224
330
1F
100
AcDbEntity
  8
0
  6
Continuous
 62
     7
370
    15
100
AcDbLine
 10
526.9886025023
 20
222.3568390739
 30
0.0
 11
512.6368350145
 21
222.3568390739
 31
0.0
  0
LINE
  5
225
330
1F
100
AcDbEntity
  8
0
  6
Continuous
 62
     7
370
    15
100
AcDbLine
 10
538.1368344212
 20
268.3568428886
 30
0.0
 11
538.1368344212
 21
276.3568423372
 31
0.0
  0
LINE
  5
226
330
1F
100
AcDbEntity
  8
0
  6
Continuous
 62
     7
370
    15
100
AcDbLine
 10
538.1368344212
 20
276.3568423372
 30
0.0
 11
539.1368344687
 21
276.3568423372
 31
0.0
  0
LINE
  5
227
330
1F
100
AcDbEntity
  8
0
  6
Continuous
 62
     7
370
    15
100
AcDbLine
 10
536.1368343263
 20
276.3568423372
 30
0.0
 11
536.1368343263
 21
268.3568428886
 31
0.0
  0
LINE
  5
228
330
1F
100
AcDbEntity
  8
0
  6
Continuous
 62
     7
370
    15
100
AcDbLine
 10
535.1368342788
 20
276.3568423372
 30
0.0
 11
536.1368343263
 21
276.3568423372
 31
0.0
  0
LINE
  5
229
330
1F
100
AcDbEntity
  8
0
  6
Continuous
 62
     7
370
    15
100
AcDbLine
 10
537.1368343738
 20
278.3568417338
 30
0.0
 11
535.1368342788
 21
276.3568423372
 31
0.0
  0
LINE
  5
22A
330
1F
100
AcDbEntity
  8
0
  6
Continuous
 62
     7
370
    15
100
AcDbLine
 10
539.1368344687
 20
276.3568423372
 30
0.0
 11
537.1368343738
 21
278.3568417338
 31
0.0
  0
LINE
  5
22B
330
1F
100
AcDbEntity
  8
0
  6
Continuous
 62
     7
370
    15
100
AcDbLine
 10
539.1368344687
 20
258.3568412495
 30
0.0
 11
539.1368344687
 21
267.3568427247
 31
0.0
  0
LINE
  5
22C
330
1F
100
AcDbEntity
  8
0
  6
Continuous
 62
     7
370
    15
100
AcDbLine
 10
535.1368342788
 20
267.3568427247
 30
0.0
 11
535.1368342788
 21
258.3568412495
 31
0.0
  0
LINE
  5
22D
330
1F
100
AcDbEntity
  8
0
  6
Continuous
 62
     7
370
    15
100
AcDbLine
 10
539.1368344687
 20
267.3568427247
 30
0.0
 11
538.1368344212
 21
268.3568428886
 31
0.0
  0
LINE
  5
22E
330
1F
100
AcDbEntity
  8
0
  6
Continuous
 62
     7
370
    15
100
AcDbLine
 10
537.1368343738
 20
260.3568415773
 30
0.0
 11
539.1368344687
 21
258.3568412495
 31
0.0
  0
LINE
  5
22F
330
1F
100
AcDbEntity
  8
0
  6
Continuous
 62
     7
370
    15
100
AcDbLine
 10
535.1368342788
 20
258.3568412495
 30
0.0
 11
537.1368343738
 21
260.3568415773
 31
0.0
  0
LINE
  5
230
330
1F
100
AcDbEntity
  8
0
  6
Continuous
 62
     7
370
    15
100
AcDbLine
 10
536.1368343263
 20
268.3568428886
 30
0.0
 11
535.1368342788
 21
267.3568427247
 31
0.0
  0
LWPOLYLINE
  5
231
330
1F
100
AcDbEntity
  8
0
  6
Continuous
 62
     7
370
    15
100
AcDbPolyline
 90
       17
 70
   128
 43
0.0
 10
550.3444171306
 20
296.3568418902
 10
548.6395454761
 20
298.4127439243
 10
546.5763567742
 20
300.2154631224
 10
544.1693568398
 20
301.6904350054
 10
541.4533142727
 20
302.7467466575
 10
538.82876891
 20
303.2638039124
 10
536.0721438453
 20
303.3199682516
 10
533.5072006826
 20
302.9270618838
 10
530.9728787076
 20
302.0915686768
 10
528.6510049161
 20
300.8691332918
 10
526.5008176473
 20
299.2434650344
 10
524.6287773159
 20
297.2804018912
 10
523.0518712458
 20
294.9865031672
 10
521.8112918344
 20
292.3975949791
 10
520.9532494452
 20
289.5874452927
 10
520.409906542
 20
285.5693627764
 10
520.4860626516
 20
282.6599632074
  0
ARC
  5
232
330
1F
100
AcDbEntity
  8
0
  6
Continuous
 62
     7
370
    15
100
AcDbCircle
 10
636.0885500278
 20
257.865791668
 30
0.0
 40
114.7859137703153
100
AcDbArc
 50
180.2138854778
 51
186.2100105525
  0
LWPOLYLINE
  5
233
330
1F
100
AcDbEntity
  8
0
  6
Continuous
 62
     7
370
    15
100
AcDbPolyline
 90
       13
 70
   128
 43
0.0
 10
552.2783317399
 20
276.3568423372
 10
551.4457740617
 20
276.5182256383
 10
550.4839218017
 20
276.9738295731
 10
548.3792575803
 20
278.6151873563
 10
547.0961446669
 20
279.9636376706
 10
545.868050566
 20
281.5768364501
 10
544.6119758096
 20
284.0177265146
 10
544.0422448125
 20
286.8736711364
 10
544.0537955408
 20
289.49364388
 10
544.5021095481
 20
291.9859331717
 10
545.3451352921
 20
294.1647008677
 10
546.5494927746
 20
295.7395594251
 10
548.0933052283
 20
296.3568418902
  0
LINE
  5
234
330
1F
100
AcDbEntity
  8
0
  6
Continuous
 62
     7
370
    15
100
AcDbLine
 10
552.4719201755
 20
246.9764705431
 30
0.0
 11
552.1000896376
 21
244.2030962241
 31
0.0
  0
LINE
  5
235
330
1F
100
AcDbEntity
  8
0
  6
Continuous
 62
     7
370
    15
100
AcDbLine
 10
558.6368351039
 20
296.3568418902
 30
0.0
 11
548.0933052283
 21
296.3568418902
 31
0.0
  0
LINE
  5
236
330
1F
100
AcDbEntity
  8
0
  6
Continuous
 62
     7
370
    15
100
AcDbLine
 10
558.6368351039
 20
276.3568423372
 30
0.0
 11
552.2783317399
 21
276.3568423372
 31
0.0
  0
LINE
  5
237
330
1F
100
AcDbEntity
  8
0
  6
Continuous
 62
     7
370
    15
100
AcDbLine
 10
558.6368351039
 20
296.3568418902
 30
0.0
 11
558.6368351039
 21
276.3568423372
 31
0.0
  0
ARC
  5
238
330
1F
100
AcDbEntity
  8
0
  6
Continuous
 62
     7
370
    15
100
AcDbCircle
 10
537.1368343738
 20
286.3568421137
 30
0.0
 40
20.50000000000001
100
AcDbArc
 50
322.4372617621
 51
330.8035955904
  0
ARC
  5
239
330
1F
100
AcDbEntity
  8
0
  6
Continuous
 62
     7
370
    15
100
AcDbCircle
 10
539.2303114763
 20
285.9304853691
 30
0.0
 40
44.00512699591706
100
AcDbArc
 50
246.2201989618
 51
246.9151788601
  0
LINE
  5
23A
330
1F
100
AcDbEntity
  8
0
  6
Continuous
 62
     7
370
    15
100
AcDbLine
 10
520.7723586616
 20
274.0096188766
 30
0.0
 11
521.4864446577
 21
245.6613126826
 31
0.0
  0
ARC
  5
23B
330
1F
100
AcDbEntity
  8
0
  6
Continuous
 62
     7
370
    15
100
AcDbCircle
 10
537.1368343738
 20
286.3568421137
 30
0.0
 40
20.50000000000004
100
AcDbArc
 50
29.1964044096
 51
217.0350576228
  0
LINE
  5
23C
330
1F
100
AcDbEntity
  8
0
  6
Continuous
 62
     7
370
    15
100
AcDbLine
 10
552.3806086537
 20
244.2936692071
 30
0.0
 11
552.4719201755
 21
246.9764705431
 31
0.0
  0
ARC
  5
23D
330
1F
100
AcDbEntity
  8
0
  6
Continuous
 62
     7
370
    15
100
AcDbCircle
 10
538.534280408
 20
286.6982610985
 30
0.0
 40
44.60796065874414
100
AcDbArc
 50
287.7047377879
 51
288.0833616476
  0
LINE
  5
23E
330
1F
100
AcDbEntity
  8
0
  6
Continuous
 62
     7
370
    15
100
AcDbLine
 10
522.3516144585
 20
347.4054652882
 30
0.0
 11
522.3945670557
 21
347.3981413674
 31
0.0
  0
LWPOLYLINE
  5
23F
330
1F
100
AcDbEntity
  8
0
  6
Continuous
 62
     7
370
    15
100
AcDbPolyline
 90
        2
 70
   128
 43
0.0
 10
566.3131533918
 20
324.2047931683
 10
566.3131533918
 20
324.2047931683
  0
LWPOLYLINE
  5
240
330
1F
100
AcDbEntity
  8
0
  6
Continuous
 62
     7
370
    15
100
AcDbPolyline
 90
        2
 70
   128
 43
0.0
 10
566.3131533918
 20
324.2047931683
 10
566.3131533918
 20
324.2047931683
  0
LWPOLYLINE
  5
241
330
1F
100
AcDbEntity
  8
0
  6
Continuous
 62
     7
370
    15
100
AcDbPolyline
 90
        3
 70
   128
 43
0.0
 10
527.5712257978
 20
331.1818297636
 10
527.5656890851
 20
331.1825375688
 10
527.585407978
 20
331.1975765657
  0
ARC
  5
242
330
1F
100
AcDbEntity
  8
0
  6
Continuous
 62
     7
370
    15
100
AcDbCircle
 10
537.1368343738
 20
286.3568421137
 30
0.0
 40
37.20172307670469
100
AcDbArc
 50
145.1578699505
 51
222.1858520007
  0
ARC
  5
243
330
1F
100
AcDbEntity
  8
0
  6
Continuous
 62
     7
370
    15
100
AcDbCircle
 10
537.1368343738
 20
286.3568421137
 30
0.0
 40
37.20172307670463
100
AcDbArc
 50
294.6650596725
 51
145.1578699505
  0
ARC
  5
244
330
1F
100
AcDbEntity
  8
0
  6
Continuous
 62
     7
370
    15
100
AcDbCircle
 10
537.1368343738
 20
286.3568421137
 30
0.0
 40
37.20172307670469
100
AcDbArc
 50
222.1858520007
 51
244.8209079133
  0
LINE
  5
245
330
1F
100
AcDbEntity
  8
0
  6
Continuous
 62
     7
370
    15
100
AcDbLine
 10
568.0406189319
 20
294.6608233881
 30
0.0
 11
565.5023923871
 21
296.1238864493
 31
0.0
  0
LINE
  5
246
330
1F
100
AcDbEntity
  8
0
  6
Continuous
 62
     7
370
    15
100
AcDbLine
 10
567.074874675
 20
294.4013243225
 30
0.0
 11
568.0406189319
 21
294.6608233881
 31
0.0
  0
ARC
  5
247
330
1F
100
AcDbEntity
  8
0
  6
Continuous
 62
     7
370
    15
100
AcDbCircle
 10
537.1368343738
 20
286.3568421137
 30
0.0
 40
30.99999999999998
100
AcDbArc
 50
6.4827010511
 51
15.0403619203
  0
LINE
  5
248
330
1F
100
AcDbEntity
  8
0
  6
Continuous
 62
     7
370
    15
100
AcDbLine
 10
569.1368358937
 20
286.3570403599
 30
0.0
 11
568.6368348804
 21
286.8406168684
 31
0.0
  0
ARC
  5
249
330
1F
100
AcDbEntity
  8
0
  6
Continuous
 62
     7
370
    15
100
AcDbCircle
 10
537.1368343738
 20
286.3568421137
 30
0.0
 40
31.99999999999995
100
AcDbArc
 50
341.0
 51
0.0003549584
  0
LINE
  5
24A
330
1F
100
AcDbEntity
  8
0
  6
Continuous
 62
     7
370
    15
100
AcDbLine
 10
566.0901314375
 20
278.5014882368
 30
0.0
 11
567.3934279737
 21
275.9386608061
 31
0.0
  0
LINE
  5
24B
330
1F
100
AcDbEntity
  8
0
  6
Continuous
 62
     7
370
    15
100
AcDbLine
 10
563.6113549378
 20
277.2409338188
 30
0.0
 11
566.0901314375
 21
278.5014882368
 31
0.0
  0
ARC
  5
24C
330
1F
100
AcDbEntity
  8
0
  6
Continuous
 62
     7
370
    15
100
AcDbCircle
 10
537.1368343738
 20
286.3568421137
 30
0.0
 40
27.99999999999996
100
AcDbArc
 50
341.0
 51
352.8192442185
  0
ARC
  5
24D
330
1F
100
AcDbEntity
  8
0
  6
Continuous
 62
     7
370
    15
100
AcDbCircle
 10
537.1368343738
 20
286.3568421137
 30
0.0
 40
28.99999999999996
100
AcDbArc
 50
6.9319061976
 51
15.0403619203
  0
LINE
  5
24E
330
1F
100
AcDbEntity
  8
0
  6
Continuous
 62
     7
370
    15
100
AcDbLine
 10
564.0393293258
 20
293.5856594388
 30
0.0
 11
565.1433898863
 21
293.88232526
 31
0.0
  0
LINE
  5
24F
330
1F
100
AcDbEntity
  8
0
  6
Continuous
 62
     7
370
    15
100
AcDbLine
 10
565.5023923871
 20
296.1238864493
 30
0.0
 11
564.0393293258
 21
293.5856594388
 31
0.0
  0
ARC
  5
250
330
1F
100
AcDbEntity
  8
0
  6
Continuous
 62
     7
370
    15
100
AcDbCircle
 10
538.3141396208
 20
284.5734014478
 30
0.0
 40
42.50266068643923
100
AcDbArc
 50
167.9074810759
 51
212.1191005105
  0
ARC
  5
251
330
1F
100
AcDbEntity
  8
0
  6
Continuous
 62
     7
370
    15
100
AcDbCircle
 10
536.7058055393
 20
284.2631923385
 30
0.0
 40
41.00000000000009
100
AcDbArc
 50
122.8641505446
 51
167.012712281
  0
ARC
  5
252
330
1F
100
AcDbEntity
  8
0
  6
Continuous
 62
     7
370
    15
100
AcDbCircle
 10
535.6023761032
 20
286.6549767358
 30
0.0
 40
48.50918065735819
100
AcDbArc
 50
33.6718784228
 51
50.7213817026
  0
ARC
  5
253
330
1F
100
AcDbEntity
  8
0
  6
Continuous
 62
     7
370
    15
100
AcDbCircle
 10
538.534280408
 20
286.6982610985
 30
0.0
 40
44.60796065874415
100
AcDbArc
 50
288.0833616476
 51
303.2778979435
  0
ARC
  5
254
330
1F
100
AcDbEntity
  8
0
  6
Continuous
 62
     7
370
    15
100
AcDbCircle
 10
539.2303114763
 20
285.9304853691
 30
0.0
 40
44.00512699591696
100
AcDbArc
 50
212.9814173341
 51
246.2201989618
  0
ARC
  5
255
330
1F
100
AcDbEntity
  8
0
  6
Continuous
 62
     7
370
    15
100
AcDbCircle
 10
536.6491754195
 20
287.7931815474
 30
0.0
 40
47.00837647512817
100
AcDbArc
 50
348.3789225082
 51
33.2247285886
  0
ARC
  5
256
330
1F
100
AcDbEntity
  8
0
  6
Continuous
 62
     7
370
    15
100
AcDbCircle
 10
537.8529159791
 20
287.6865140596
 30
0.0
 40
45.80803208715199
100
AcDbArc
 50
303.312142945
 51
348.2063164848
  0
ARC
  5
257
330
1F
100
AcDbEntity
  8
0
  6
Continuous
 62
     7
370
    15
100
AcDbCircle
 10
540.6368343738
 20
250.527384959
 30
0.0
 40
74.5
100
AcDbArc
 50
101.1645588741
 51
103.3158167013
  0
ARC
  5
258
330
1F
100
AcDbEntity
  8
0
  6
Continuous
 62
     7
370
    15
100
AcDbCircle
 10
528.8905971025
 20
300.1562667716
 30
0.0
 40
23.50000000000004
100
AcDbArc
 50
103.3158167013
 51
161.5053974528
  0
LINE
  5
259
330
1F
100
AcDbEntity
  8
0
  6
Continuous
 62
     7
370
    15
100
AcDbLine
 10
552.3342287895
 20
236.3233025801
 30
0.0
 11
579.6427803841
 21
238.299639864
 31
0.0
  0
CIRCLE
  5
25A
330
1F
100
AcDbEntity
  8
0
  6
Continuous
 62
     7
370
    15
100
AcDbCircle
 10
578.8561344638
 20
328.0761422037
 30
0.0
 40
3.0
  0
ARC
  5
25B
330
1F
100
AcDbEntity
  8
0
  6
Continuous
 62
     7
370
    15
100
AcDbCircle
 10
579.2096878543
 20
244.2839886331
 30
0.0
 40
5.999999999999956
100
AcDbArc
 50
274.1393116946
 51
355.8606883054
  0
LINE
  5
25C
330
1F
100
AcDbEntity
  8
0
  6
Continuous
 62
     7
370
    15
100
AcDbLine
 10
585.1940366235
 20
243.8508961034
 30
0.0
 11
588.0037995782
 21
282.6755707768
 31
0.0
  0
ARC
  5
25D
330
1F
100
AcDbEntity
  8
0
  6
Continuous
 62
     7
370
    15
100
AcDbCircle
 10
495.0639808932
 20
244.2839886331
 30
0.0
 40
5.999999999999987
100
AcDbArc
 50
184.1393116946
 51
265.8606883054
  0
CIRCLE
  5
25E
330
1F
100
AcDbEntity
  8
0
  6
Continuous
 62
     7
370
    15
100
AcDbCircle
 10
495.4175342837
 20
244.6375420237
 30
0.0
 40
3.0
  0
CIRCLE
  5
25F
330
1F
100
AcDbEntity
  8
0
  6
Continuous
 62
     7
370
    15
100
AcDbCircle
 10
495.4175342837
 20
328.0761422037
 30
0.0
 40
3.0
  0
LINE
  5
260
330
1F
100
AcDbEntity
  8
0
  6
Continuous
 62
     7
370
    15
100
AcDbLine
 10
486.2698691693
 20
282.6755707768
 30
0.0
 11
489.079632124
 21
243.8508961034
 31
0.0
  0
CIRCLE
  5
261
330
1F
100
AcDbEntity
  8
0
  6
Continuous
 62
     7
370
    15
100
AcDbCircle
 10
578.8561344638
 20
244.6375420237
 30
0.0
 40
3.0
  0
LINE
  5
262
330
1F
100
AcDbEntity
  8
0
  6
Continuous
 62
     7
370
    15
100
AcDbLine
 10
489.079632124
 20
328.8627881241
 30
0.0
 11
486.2698691693
 21
290.0381134507
 31
0.0
  0
ARC
  5
263
330
1F
100
AcDbEntity
  8
0
  6
Continuous
 62
     7
370
    15
100
AcDbCircle
 10
579.2096878544
 20
328.4296955943
 30
0.0
 40
6.000000000000015
100
AcDbArc
 50
4.1393116946
 51
85.8606883054
  0
ARC
  5
264
330
1F
100
AcDbEntity
  8
0
  6
Continuous
 62
     7
370
    15
100
AcDbCircle
 10
537.1368343738
 20
286.3568421137
 30
0.0
 40
51.00000000000004
100
AcDbArc
 50
355.8606883054
 51
4.1393116946
  0
ARC
  5
265
330
1F
100
AcDbEntity
  8
0
  6
Continuous
 62
     7
370
    15
100
AcDbCircle
 10
495.0639808932
 20
328.4296955943
 30
0.0
 40
5.999999999999955
100
AcDbArc
 50
94.1393116946
 51
175.8606883054
  0
LINE
  5
266
330
1F
100
AcDbEntity
  8
0
  6
Continuous
 62
     7
370
    15
100
AcDbLine
 10
588.0037995782
 20
290.0381134507
 30
0.0
 11
585.1940366235
 21
328.8627881241
 31
0.0
  0
ARC
  5
267
330
1F
100
AcDbEntity
  8
0
  6
Continuous
 62
     7
370
    15
100
AcDbCircle
 10
537.1368343738
 20
286.3568421137
 30
0.0
 40
51.00000000000006
100
AcDbArc
 50
175.8606883054
 51
184.1393116946
  0
LINE
  5
268
330
1F
100
AcDbEntity
  8
0
  6
Continuous
 62
     7
370
    15
100
AcDbLine
 10
494.6308883634
 20
238.299639864
 30
0.0
 11
521.9394883868
 21
236.3233025801
 31
0.0
  0
LINE
  5
269
330
1F
100
AcDbEntity
  8
0
  6
Continuous
 62
     7
370
    15
100
AcDbLine
 10
579.6427803841
 20
334.4140443635
 30
0.0
 11
556.5638917294
 21
336.0842782688
 31
0.0
  0
LINE
  5
26A
330
1F
100
AcDbEntity
  8
0
  6
Continuous
 62
     7
370
    15
100
AcDbLine
 10
524.4638419506
 20
336.5730736089
 30
0.0
 11
494.6308883634
 21
334.4140443635
 31
0.0
  0
LINE
  5
26B
330
1F
100
AcDbEntity
  8
SLD-0
  6
CENTERX2
370
     0
100
AcDbLine
 10
537.1368343738
 20
392.2242885112
 30
0.0
 11
537.1368343738
 21
179.4347637727
 31
0.0
  0
LINE
  5
26C
330
1F
100
AcDbEntity
  8
SLD-0
  6
CENTERX2
370
     0
100
AcDbLine
 10
479.1531074974
 20
286.3568421137
 30
0.0
 11
592.467854411
 21
286.3568421137
 31
0.0
  0
LINE
  5
26D
330
1F
100
AcDbEntity
  8
SLD-0
  6
CENTERX2
370
     0
100
AcDbLine
 10
566.1238209388
 20
286.3568421137
 30
0.0
 11
545.6628612437
 21
286.3568421137
 31
0.0
  0
LINE
  5
26E
330
1F
100
AcDbEntity
  8
SLD-0
  6
CENTERX2
370
     0
100
AcDbLine
 10
537.1368343738
 20
372.8568421137
 30
0.0
 11
537.1368343738
 21
355.8568421137
 31
0.0
  0
LINE
  5
26F
330
1F
100
AcDbEntity
  8
SLD-0
  6
CENTERX2
370
     0
100
AcDbLine
 10
537.1368343738
 20
199.8568421137
 30
0.0
 11
537.1368343738
 21
216.8568421137
 31
0.0
  0
ENDSEC
  0
SECTION
  2
OBJECTS
  0
DICTIONARY
  5
C
330
0
100
AcDbDictionary
281
     1
  3
ACAD_GROUP
350
D
  3
ACAD_LAYOUT
350
1A
  3
ACAD_MLEADERSTYLE
350
271
  3
ACAD_MLINESTYLE
350
17
  3
ACAD_PLOTSETTINGS
350
19
  3
ACAD_PLOTSTYLENAME
350
E
  3
ACAD_TABLESTYLE
350
270
  3
ACAD_VISUALSTYLE
350
2A
  3
AcDbVariableDictionary
350
272
  0
DICTIONARY
  5
D
102
{ACAD_REACTORS
330
C
102
}
330
C
100
AcDbDictionary
281
     1
  0
DICTIONARY
  5
1A
102
{ACAD_REACTORS
330
C
102
}
330
C
100
AcDbDictionary
281
     1
  3
Layout1
350
1E
  3
Layout2
350
26
  3
Model
350
22
  0
DICTIONARY
  5
271
102
{ACAD_REACTORS
330
C
102
}
330
C
100
AcDbDictionary
281
     1
  0
DICTIONARY
  5
17
102
{ACAD_REACTORS
330
C
102
}
330
C
100
AcDbDictionary
281
     1
  3
Standard
350
18
  0
DICTIONARY
  5
19
102
{ACAD_REACTORS
330
C
102
}
330
C
100
AcDbDictionary
281
     1
  0
ACDBDICTIONARYWDFLT
  5
E
102
{ACAD_REACTORS
330
C
102
}
330
C
100
AcDbDictionary
281
     1
  3
Normal
350
F
100
AcDbDictionaryWithDefault
340
F
  0
DICTIONARY
  5
270
102
{ACAD_REACTORS
330
C
102
}
330
C
100
AcDbDictionary
281
     1
  0
DICTIONARY
  5
2A
102
{ACAD_REACTORS
330
C
102
}
330
C
100
AcDbDictionary
281
     1
  3
2dWireframe
350
2F
  3
3D Hidden
350
31
  3
3dWireframe
350
30
  3
Basic
350
32
  3
Brighten
350
36
  3
ColorChange
350
3A
  3
Conceptual
350
34
  3
Dim
350
35
  3
Facepattern
350
39
  3
Flat
350
2B
  3
FlatWithEdges
350
2C
  3
Gouraud
350
2D
  3
GouraudWithEdges
350
2E
  3
Linepattern
350
38
  3
Realistic
350
33
  3
Thicken
350
37
  0
DICTIONARY
  5
272
102
{ACAD_REACTORS
330
C
102
}
330
C
100
AcDbDictionary
281
     1
  3
PSOLHEIGHT
350
274
  3
PSOLWIDTH
350
273
  0
LAYOUT
  5
1E
102
{ACAD_REACTORS
330
1A
102
}
330
1A
100
AcDbPlotSettings
  1

  2
none_device
  4

  6

 40
0.0
 41
0.0
 42
0.0
 43
0.0
 44
0.0
 45
0.0
 46
0.0
 47
0.0
 48
0.0
 49
0.0
140
0.0
141
0.0
142
1.0
143
1.0
 70
   688
 72
     0
 73
     0
 74
     5
  7

 75
    16
147
1.0
148
0.0
149
0.0
100
AcDbLayout
  1
Layout1
 70
     1
 71
     1
 10
0.0
 20
0.0
 11
420.0
 21
297.0
 12
0.0
 22
0.0
 32
0.0
 14
1.0000000000E+20
 24
1.0000000000E+20
 34
1.0000000000E+20
 15
-1.0000000000E+20
 25
-1.0000000000E+20
 35
-1.0000000000E+20
146
0.0
 13
0.0
 23
0.0
 33
0.0
 16
1.0
 26
0.0
 36
0.0
 17
0.0
 27
1.0
 37
0.0
 76
     0
330
1B
  0
LAYOUT
  5
26
102
{ACAD_REACTORS
330
1A
102
}
330
1A
100
AcDbPlotSettings
  1

  2
none_device
  4

  6

 40
0.0
 41
0.0
 42
0.0
 43
0.0
 44
0.0
 45
0.0
 46
0.0
 47
0.0
 48
0.0
 49
0.0
140
0.0
141
0.0
142
1.0
143
1.0
 70
   688
 72
     0
 73
     0
 74
     5
  7

 75
    16
147
1.0
148
0.0
149
0.0
100
AcDbLayout
  1
Layout2
 70
     1
 71
     2
 10
0.0
 20
0.0
 11
0.0
 21
0.0
 12
0.0
 22
0.0
 32
0.0
 14
0.0
 24
0.0
 34
0.0
 15
0.0
 25
0.0
 35
0.0
146
0.0
 13
0.0
 23
0.0
 33
0.0
 16
1.0
 26
0.0
 36
0.0
 17
0.0
 27
1.0
 37
0.0
 76
     0
330
23
  0
LAYOUT
  5
22
102
{ACAD_REACTORS
330
1A
102
}
330
1A
100
AcDbPlotSettings
  1

  2
none_device
  4

  6

 40
0.0
 41
0.0
 42
0.0
 43
0.0
 44
0.0
 45
0.0
 46
0.0
 47
0.0
 48
0.0
 49
0.0
140
0.0
141
0.0
142
1.0
143
1.0
 70
  1712
 72
     0
 73
     0
 74
     0
  7

 75
     0
147
1.0
148
0.0
149
0.0
100
AcDbLayout
  1
Model
 70
     1
 71
     0
 10
0.0
 20
0.0
 11
841.0
 21
594.0
 12
0.0
 22
0.0
 32
0.0
 14
0.0
 24
0.0
 34
0.0
 15
841.0
 25
594.0
 35
0.0
146
0.0
 13
0.0
 23
0.0
 33
0.0
 16
1.0
 26
0.0
 36
0.0
 17
0.0
 27
1.0
 37
0.0
 76
     0
330
1F
331
29
  0
MLINESTYLE
  5
18
102
{ACAD_REACTORS
330
17
102
}
330
17
100
AcDbMlineStyle
  2
Standard
 70
     0
  3

 62
   256
 51
90.0
 52
90.0
 71
     2
 49
0.5
 62
   256
  6
BYLAYER
 49
-0.5
 62
   256
  6
BYLAYER
  0
ACDBPLACEHOLDER
  5
F
102
{ACAD_REACTORS
330
E
102
}
330
E
  0
VISUALSTYLE
  5
2F
102
{ACAD_REACTORS
330
2A
102
}
330
2A
100
AcDbVisualStyle
  2
2dWireframe
 70
     4
 71
     0
 72
     2
 73
     0
 90
        0
 40
-0.6
 41
-30.0
 62
     5
 63
     7
 74
     1
 91
        4
 64
     7
 65
   257
 75
     1
175
     1
 42
1.0
 92
        0
 66
   257
 43
1.0
 76
     1
 77
     6
 78
     2
 67
     7
 79
     5
170
     0
171
     0
290
     0
174
     0
 93
        1
 44
0.0
173
     0
291
     0
 45
0.0
1001
ACAD
1000
AcDbSavedByObjectVersion
1070
     0
  0
VISUALSTYLE
  5
31
102
{ACAD_REACTORS
330
2A
102
}
330
2A
100
AcDbVisualStyle
  2
3D Hidden
 70
     6
 71
     1
 72
     2
 73
     2
 90
        0
 40
-0.6
 41
-30.0
 62
     5
 63
     7
 74
     2
 91
        2
 64
     7
 65
   257
 75
     2
175
     1
 42
40.0
 92
        0
 66
   257
 43
1.0
 76
     1
 77
     6
 78
     2
 67
     7
 79
     3
170
     0
171
     0
290
     0
174
     0
 93
        1
 44
0.0
173
     0
291
     0
 45
0.0
1001
ACAD
1000
AcDbSavedByObjectVersion
1070
     0
  0
VISUALSTYLE
  5
30
102
{ACAD_REACTORS
330
2A
102
}
330
2A
100
AcDbVisualStyle
  2
3dWireframe
 70
     5
 71
     0
 72
     2
 73
     0
 90
        0
 40
-0.6
 41
-30.0
 62
     5
 63
     7
 74
     1
 91
        4
 64
     7
 65
   257
 75
     1
175
     1
 42
1.0
 92
        0
 66
   257
 43
1.0
 76
     1
 77
     6
 78
     2
 67
     7
 79
     5
170
     0
171
     0
290
     0
174
     0
 93
        1
 44
0.0
173
     0
291
     0
 45
0.0
1001
ACAD
1000
AcDbSavedByObjectVersion
1070
     0
  0
VISUALSTYLE
  5
32
102
{ACAD_REACTORS
330
2A
102
}
330
2A
100
AcDbVisualStyle
  2
Basic
 70
     7
 71
     1
 72
     0
 73
     1
 90
        0
 40
-0.6
 41
-30.0
 62
     5
 63
     7
 74
     0
 91
        4
 64
     7
 65
   257
 75
     1
175
     1
 42
1.0
 92
        8
 66
     7
 43
1.0
 76
     1
 77
     6
 78
     2
 67
     7
 79
     5
170
     0
171
     0
290
     0
174
     0
 93
        1
 44
0.0
173
     0
291
     1
 45
0.0
1001
ACAD
1000
AcDbSavedByObjectVersion
1070
     0
  0
VISUALSTYLE
  5
36
102
{ACAD_REACTORS
330
2A
102
}
330
2A
100
AcDbVisualStyle
  2
Brighten
 70
    12
 71
     2
 72
     2
 73
     0
 90
        0
 40
-0.6
 41
-30.0
 62
     5
 63
     7
 74
     1
 91
        4
 64
     7
 65
   257
 75
     1
175
     1
 42
1.0
 92
        8
 66
     7
 43
1.0
 76
     1
 77
     6
 78
     2
 67
     7
 79
     5
170
     0
171
     0
290
     0
174
     0
 93
        1
 44
50.0
173
     0
291
     1
 45
0.0
1001
ACAD
1000
AcDbSavedByObjectVersion
1070
     0
  0
VISUALSTYLE
  5
3A
102
{ACAD_REACTORS
330
2A
102
}
330
2A
100
AcDbVisualStyle
  2
ColorChange
 70
    16
 71
     2
 72
     2
 73
     3
 90
        0
 40
-0.6
 41
-30.0
 62
     5
 63
     8
 74
     1
 91
        4
 64
     7
 65
   257
 75
     1
175
     1
 42
1.0
 92
        8
 66
     8
 43
1.0
 76
     1
 77
     6
 78
     2
 67
     7
 79
     5
170
     0
171
     0
290
     0
174
     0
 93
        1
 44
0.0
173
     0
291
     1
 45
0.0
1001
ACAD
1000
AcDbSavedByObjectVersion
1070
     0
  0
VISUALSTYLE
  5
34
102
{ACAD_REACTORS
330
2A
102
}
330
2A
100
AcDbVisualStyle
  2
Conceptual
 70
     9
 71
     3
 72
     2
 73
     0
 90
        0
 40
-0.6
 41
-30.0
 62
     5
 63
     7
 74
     2
 91
        2
 64
     7
 65
   257
 75
     1
175
     1
 42
40.0
 92
        8
 66
     7
 43
1.0
 76
     1
 77
     6
 78
     2
 67
     7
 79
     3
170
     0
171
     0
290
     0
174
     0
 93
        1
 44
0.0
173
     0
291
     0
 45
0.0
1001
ACAD
1000
AcDbSavedByObjectVersion
1070
     0
  0
VISUALSTYLE
  5
35
102
{ACAD_REACTORS
330
2A
102
}
330
2A
100
AcDbVisualStyle
  2
Dim
 70
    11
 71
     2
 72
     2
 73
     0
 90
        0
 40
-0.6
 41
-30.0
 62
     5
 63
     7
 74
     1
 91
        4
 64
     7
 65
   257
 75
     1
175
     1
 42
1.0
 92
        8
 66
     7
 43
1.0
 76
     1
 77
     6
 78
     2
 67
     7
 79
     5
170
     0
171
     0
290
     0
174
     0
 93
        1
 44
-50.0
173
     0
291
     1
 45
0.0
1001
ACAD
1000
AcDbSavedByObjectVersion
1070
     0
  0
VISUALSTYLE
  5
39
102
{ACAD_REACTORS
330
2A
102
}
330
2A
100
AcDbVisualStyle
  2
Facepattern
 70
    15
 71
     2
 72
     2
 73
     0
 90
        0
 40
-0.6
 41
-30.0
 62
     5
 63
     7
 74
     1
 91
        4
 64
     7
 65
   257
 75
     1
175
     1
 42
1.0
 92
        8
 66
     7
 43
1.0
 76
     1
 77
     6
 78
     2
 67
     7
 79
     5
170
     0
171
     0
290
     0
174
     0
 93
        1
 44
0.0
173
     0
291
     1
 45
0.0
1001
ACAD
1000
AcDbSavedByObjectVersion
1070
     0
  0
VISUALSTYLE
  5
2B
102
{ACAD_REACTORS
330
2A
102
}
330
2A
100
AcDbVisualStyle
  2
Flat
 70
     0
 71
     2
 72
     1
 73
     1
 90
        2
 40
-0.6
 41
30.0
 62
     5
 63
     7
 74
     0
 91
        4
 64
     7
 65
   257
 75
     1
175
     1
 42
1.0
 92
        8
 66
     7
 43
1.0
 76
     1
 77
     6
 78
     2
 67
     7
 79
     5
170
     0
171
     0
290
     0
174
     0
 93
       13
 44
0.0
173
     0
291
     1
 45
0.0
1001
ACAD
1000
AcDbSavedByObjectVersion
1070
     0
  0
VISUALSTYLE
  5
2C
102
{ACAD_REACTORS
330
2A
102
}
330
2A
100
AcDbVisualStyle
  2
FlatWithEdges
 70
     1
 71
     2
 72
     1
 73
     1
 90
        2
 40
-0.6
 41
30.0
 62
     5
 63
     7
 74
     1
 91
        4
 64
     7
 65
   257
 75
     1
175
     1
 42
1.0
 92
        0
 66
   257
 43
1.0
 76
     1
 77
     6
 78
     2
 67
     7
 79
     5
170
     0
171
     0
290
     0
174
     0
 93
       13
 44
0.0
173
     0
291
     1
 45
0.0
1001
ACAD
1000
AcDbSavedByObjectVersion
1070
     0
  0
VISUALSTYLE
  5
2D
102
{ACAD_REACTORS
330
2A
102
}
330
2A
100
AcDbVisualStyle
  2
Gouraud
 70
     2
 71
     2
 72
     2
 73
     1
 90
        2
 40
-0.6
 41
30.0
 62
     5
 63
     7
 74
     0
 91
        4
 64
     7
 65
   257
 75
     1
175
     1
 42
1.0
 92
        0
 66
     7
 43
1.0
 76
     1
 77
     6
 78
     2
 67
     7
 79
     5
170
     0
171
     0
290
     0
174
     0
 93
       13
 44
0.0
173
     0
291
     1
 45
0.0
1001
ACAD
1000
AcDbSavedByObjectVersion
1070
     0
  0
VISUALSTYLE
  5
2E
102
{ACAD_REACTORS
330
2A
102
}
330
2A
100
AcDbVisualStyle
  2
GouraudWithEdges
 70
     3
 71
     2
 72
     2
 73
     1
 90
        2
 40
-0.6
 41
30.0
 62
     5
 63
     7
 74
     1
 91
        4
 64
     7
 65
   257
 75
     1
175
     1
 42
1.0
 92
        0
 66
   257
 43
1.0
 76
     1
 77
     6
 78
     2
 67
     7
 79
     5
170
     0
171
     0
290
     0
174
     0
 93
       13
 44
0.0
173
     0
291
     1
 45
0.0
1001
ACAD
1000
AcDbSavedByObjectVersion
1070
     0
  0
VISUALSTYLE
  5
38
102
{ACAD_REACTORS
330
2A
102
}
330
2A
100
AcDbVisualStyle
  2
Linepattern
 70
    14
 71
     2
 72
     2
 73
     0
 90
        0
 40
-0.6
 41
-30.0
 62
     5
 63
     7
 74
     1
 91
        4
 64
     7
 65
   257
 75
     7
175
     7
 42
1.0
 92
        8
 66
     7
 43
1.0
 76
     1
 77
     6
 78
     2
 67
     7
 79
     5
170
     0
171
     0
290
     0
174
     0
 93
        1
 44
0.0
173
     0
291
     1
 45
0.0
1001
ACAD
1000
AcDbSavedByObjectVersion
1070
     0
  0
VISUALSTYLE
  5
33
102
{ACAD_REACTORS
330
2A
102
}
330
2A
100
AcDbVisualStyle
  2
Realistic
 70
     8
 71
     2
 72
     2
 73
     0
 90
        0
 40
-0.6
 41
-30.0
 62
     5
 63
     7
 74
     1
 91
        0
 64
     7
 65
   257
 75
     1
175
     1
 42
1.0
 92
        8
 66
     8
 43
1.0
 76
     1
 77
     6
 78
     2
 67
     7
 79
     5
170
     0
171
     0
290
     0
174
     0
 93
       13
 44
0.0
173
     0
291
     0
 45
0.0
1001
ACAD
1000
AcDbSavedByObjectVersion
1070
     0
  0
VISUALSTYLE
  5
37
102
{ACAD_REACTORS
330
2A
102
}
330
2A
100
AcDbVisualStyle
  2
Thicken
 70
    13
 71
     2
 72
     2
 73
     0
 90
        0
 40
-0.6
 41
-30.0
 62
     5
 63
     7
 74
     1
 91
        4
 64
     7
 65
   257
 75
     1
175
     1
 42
1.0
 92
       12
 66
     7
 43
1.0
 76
     1
 77
     6
 78
     2
 67
     7
 79
     5
170
     0
171
     0
290
     0
174
     0
 93
        1
 44
0.0
173
     0
291
     1
 45
0.0
1001
ACAD
1000
AcDbSavedByObjectVersion
1070
     0
  0
DICTIONARYVAR
  5
274
102
{ACAD_REACTORS
330
272
102
}
330
272
100
DictionaryVariables
280
     0
  1
80.000000
  0
DICTIONARYVAR
  5
273
102
{ACAD_REACTORS
330
272
102
}
330
272
100
DictionaryVariables
280
     0
  1
5.000000
  0
ENDSEC
  0
EOF
