  0
SECTION
  2
HEADER
  9
$ACADVER
  1
AC1015
  9
$ACADMAINTVER
 70
     6
  9
$DWGCODEPAGE
  3
DOS932
  9
$INSBASE
 10
0.0
 20
0.0
 30
0.0
  9
$EXTMIN
 10
0.0
 20
0.0
 30
0.0
  9
$EXTMAX
 10
210.0
 20
297.0
 30
0.0
  9
$LIMMIN
 10
0.0
 20
0.0
  9
$LIMMAX
 10
210.0
 20
297.0
  9
$ORTHOMODE
 70
     0
  9
$REGENMODE
 70
     1
  9
$FILLMODE
 70
     1
  9
$QTEXTMODE
 70
     0
  9
$MIRRTEXT
 70
     1
  9
$LTSCALE
 40
1.0
  9
$ATTMODE
 70
     1
  9
$TEXTSIZE
 40
3.5
  9
$TRACEWID
 40
1.0
  9
$TEXTSTYLE
  7
STANDARD
  9
$CLAYER
  8
0
  9
$CELTYPE
  6
ByLayer
  9
$CECOLOR
 62
   256
  9
$CELTSCALE
 40
1.0
  9
$DISPSILH
 70
     0
  9
$DIMSCALE
 40
1.0
  9
$DIMASZ
 40
2.0
  9
$DIMEXO
 40
1.0
  9
$DIMDLI
 40
3.75
  9
$DIMRND
 40
0.0
  9
$DIMDLE
 40
0.0
  9
$DIMEXE
 40
1.0
  9
$DIMTP
 40
0.0
  9
$DIMTM
 40
0.0
  9
$DIMTXT
 40
2.7999999523
  9
$DIMCEN
 40
2.5
  9
$DIMTSZ
 40
0.0
  9
$DIMTOL
 70
     0
  9
$DIMLIM
 70
     0
  9
$DIMTIH
 70
     1
  9
$DIMTOH
 70
     1
  9
$DIMSE1
 70
     0
  9
$DIMSE2
 70
     0
  9
$DIMTAD
 70
     1
  9
$DIMZIN
 70
     1
  9
$DIMBLK
  1

  9
$DIMASO
 70
     1
  9
$DIMSHO
 70
     1
  9
$DIMPOST
  1

  9
$DIMAPOST
  1

  9
$DIMALT
 70
     0
  9
$DIMALTD
 70
     3
  9
$DIMALTF
 40
0.0393700787
  9
$DIMLFAC
 40
5.0
  9
$DIMTOFL
 70
     1
  9
$DIMTVP
 40
0.0
  9
$DIMTIX
 70
     0
  9
$DIMSOXD
 70
     0
  9
$DIMSAH
 70
     0
  9
$DIMBLK1
  1

  9
$DIMBLK2
  1

  9
$DIMSTYLE
  2
ISO-25
  9
$DIMCLRD
 70
     0
  9
$DIMCLRE
 70
     0
  9
$DIMCLRT
 70
     0
  9
$DIMTFAC
 40
1.0
  9
$DIMGAP
 40
1.524
  9
$DIMJUST
 70
     0
  9
$DIMSD1
 70
     0
  9
$DIMSD2
 70
     0
  9
$DIMTOLJ
 70
     0
  9
$DIMTZIN
 70
     1
  9
$DIMALTZ
 70
     0
  9
$DIMALTTZ
 70
     0
  9
$DIMUPT
 70
     0
  9
$DIMDEC
 70
     3
  9
$DIMTDEC
 70
     3
  9
$DIMALTU
 70
     2
  9
$DIMALTTD
 70
     3
  9
$DIMTXSTY
  7
STANDARD
  9
$DIMAUNIT
 70
     0
  9
$DIMADEC
 70
     0
  9
$DIMALTRND
 40
0.0
  9
$DIMAZIN
 70
     0
  9
$DIMDSEP
 70
    44
  9
$DIMATFIT
 70
     3
  9
$DIMFRAC
 70
     0
  9
$DIMLDRBLK
  1

  9
$DIMLUNIT
 70
     2
  9
$DIMLWD
 70
    -2
  9
$DIMLWE
 70
    -2
  9
$DIMTMOVE
 70
     0
  9
$LUNITS
 70
     2
  9
$LUPREC
 70
     3
  9
$SKETCHINC
 40
1.0
  9
$FILLETRAD
 40
10.0
  9
$AUNITS
 70
     0
  9
$AUPREC
 70
     0
  9
$MENU
  1
.
  9
$ELEVATION
 40
0.0
  9
$PELEVATION
 40
0.0
  9
$THICKNESS
 40
0.0
  9
$LIMCHECK
 70
     0
  9
$CHAMFERA
 40
0.0
  9
$CHAMFERB
 40
0.0
  9
$CHAMFERC
 40
0.0
  9
$CHAMFERD
 40
0.0
  9
$SKPOLY
 70
     0
  9
$TDCREATE
 40
2458252.623868866
  9
$TDUCREATE
 40
2458252.248868866
  9
$TDUPDATE
 40
2458252.623870313
  9
$TDUUPDATE
 40
2458252.248870313
  9
$TDINDWG
 40
0.0000000116
  9
$TDUSRTIMER
 40
0.0000000116
  9
$USRTIMER
 70
     1
  9
$ANGBASE
 50
0.0
  9
$ANGDIR
 70
     0
  9
$PDMODE
 70
     0
  9
$PDSIZE
 40
-1.0
  9
$PLINEWID
 40
0.0
  9
$SPLFRAME
 70
     0
  9
$SPLINETYPE
 70
     6
  9
$SPLINESEGS
 70
     8
  9
$HANDSEED
  5
4A4
  9
$SURFTAB1
 70
     6
  9
$SURFTAB2
 70
     6
  9
$SURFTYPE
 70
     6
  9
$SURFU
 70
     6
  9
$SURFV
 70
     6
  9
$UCSBASE
  2

  9
$UCSNAME
  2

  9
$UCSORG
 10
0.0
 20
0.0
 30
0.0
  9
$UCSXDIR
 10
1.0
 20
0.0
 30
0.0
  9
$UCSYDIR
 10
0.0
 20
1.0
 30
0.0
  9
$UCSORTHOREF
  2

  9
$UCSORTHOVIEW
 70
     0
  9
$UCSORGTOP
 10
0.0
 20
0.0
 30
0.0
  9
$UCSORGBOTTOM
 10
0.0
 20
0.0
 30
0.0
  9
$UCSORGLEFT
 10
0.0
 20
0.0
 30
0.0
  9
$UCSORGRIGHT
 10
0.0
 20
0.0
 30
0.0
  9
$UCSORGFRONT
 10
0.0
 20
0.0
 30
0.0
  9
$UCSORGBACK
 10
0.0
 20
0.0
 30
0.0
  9
$PUCSBASE
  2

  9
$PUCSNAME
  2

  9
$PUCSORG
 10
0.0
 20
0.0
 30
0.0
  9
$PUCSXDIR
 10
1.0
 20
0.0
 30
0.0
  9
$PUCSYDIR
 10
0.0
 20
1.0
 30
0.0
  9
$PUCSORTHOREF
  2

  9
$PUCSORTHOVIEW
 70
     0
  9
$PUCSORGTOP
 10
0.0
 20
0.0
 30
0.0
  9
$PUCSORGBOTTOM
 10
0.0
 20
0.0
 30
0.0
  9
$PUCSORGLEFT
 10
0.0
 20
0.0
 30
0.0
  9
$PUCSORGRIGHT
 10
0.0
 20
0.0
 30
0.0
  9
$PUCSORGFRONT
 10
0.0
 20
0.0
 30
0.0
  9
$PUCSORGBACK
 10
0.0
 20
0.0
 30
0.0
  9
$USERI1
 70
     0
  9
$USERI2
 70
     0
  9
$USERI3
 70
     0
  9
$USERI4
 70
     0
  9
$USERI5
 70
     0
  9
$USERR1
 40
0.0
  9
$USERR2
 40
0.0
  9
$USERR3
 40
0.0
  9
$USERR4
 40
0.0
  9
$USERR5
 40
0.0
  9
$WORLDVIEW
 70
     1
  9
$SHADEDGE
 70
     3
  9
$SHADEDIF
 70
    70
  9
$TILEMODE
 70
     1
  9
$MAXACTVP
 70
    64
  9
$PINSBASE
 10
0.0
 20
0.0
 30
0.0
  9
$PLIMCHECK
 70
     0
  9
$PEXTMIN
 10
1.0000000000E+20
 20
1.0000000000E+20
 30
1.0000000000E+20
  9
$PEXTMAX
 10
-1.0000000000E+20
 20
-1.0000000000E+20
 30
-1.0000000000E+20
  9
$PLIMMIN
 10
0.0
 20
0.0
  9
$PLIMMAX
 10
420.0
 20
297.0
  9
$UNITMODE
 70
     0
  9
$VISRETAIN
 70
     1
  9
$PLINEGEN
 70
     0
  9
$PSLTSCALE
 70
     1
  9
$TREEDEPTH
 70
  3020
  9
$CMLSTYLE
  2
Standard
  9
$CMLJUST
 70
     0
  9
$CMLSCALE
 40
20.0
  9
$PROXYGRAPHICS
 70
     1
  9
$MEASUREMENT
 70
     1
  9
$CELWEIGHT
370
    -1
  9
$ENDCAPS
280
     0
  9
$JOINSTYLE
280
     0
  9
$LWDISPLAY
290
     1
  9
$INSUNITS
 70
     4
  9
$HYPERLINKBASE
  1

  9
$STYLESHEET
  1

  9
$XEDIT
290
     1
  9
$CEPSNTYPE
380
     0
  9
$PSTYLEMODE
290
     1
  9
$FINGERPRINTGUID
  2
{9F3C12FB-4BAA-4E20-AEBD-3EDBDA6F789C}
  9
$VERSIONGUID
  2
{FAEB1C32-E019-11D5-929B-00C0DF256EC4}
  9
$EXTNAMES
290
     1
  9
$PSVPSCALE
 40
0.0
  9
$OLESTARTUP
290
     0
  0
ENDSEC
  0
SECTION
  2
CLASSES
  0
CLASS
  1
ACDBDICTIONARYWDFLT
  2
AcDbDictionaryWithDefault
  3
ObjectDBX Classes
 90
        0
280
     0
281
     0
  0
CLASS
  1
VISUALSTYLE
  2
AcDbVisualStyle
  3
ObjectDBX Classes
 90
     4095
280
     0
281
     0
  0
CLASS
  1
MATERIAL
  2
AcDbMaterial
  3
ObjectDBX Classes
 90
     1153
280
     0
281
     0
  0
CLASS
  1
SCALE
  2
AcDbScale
  3
ObjectDBX Classes
 90
     1153
280
     0
281
     0
  0
CLASS
  1
TABLESTYLE
  2
AcDbTableStyle
  3
ObjectDBX Classes
 90
     4095
280
     0
281
     0
  0
CLASS
  1
MLEADERSTYLE
  2
AcDbMLeaderStyle
  3
ACDB_MLEADERSTYLE_CLASS
 90
     4095
280
     0
281
     0
  0
CLASS
  1
SUN
  2
AcDbSun
  3
SCENEOE
 90
     1153
280
     0
281
     0
  0
CLASS
  1
ACDBPLACEHOLDER
  2
AcDbPlaceHolder
  3
ObjectDBX Classes
 90
        0
280
     0
281
     0
  0
CLASS
  1
LAYOUT
  2
AcDbLayout
  3
ObjectDBX Classes
 90
        0
280
     0
281
     0
  0
ENDSEC
  0
SECTION
  2
TABLES
  0
TABLE
  2
VPORT
  5
8
330
0
100
AcDbSymbolTable
 70
     1
  0
VPORT
  5
29
330
8
100
AcDbSymbolTableRecord
100
AcDbViewportTableRecord
  2
*Active
 70
     0
 10
0.0
 20
0.0
 11
1.0
 21
1.0
 12
105.0
 22
148.5
 13
0.0
 23
0.0
 14
10.0
 24
10.0
 15
10.0
 25
10.0
 16
0.0
 26
0.0
 36
1.0
 17
0.0
 27
0.0
 37
0.0
 40
297.0
 41
0.7070707071
 42
50.0
 43
0.0
 44
0.0
 50
0.0
 51
0.0
 71
     0
 72
  2000
 73
     1
 74
     3
 75
     0
 76
     0
 77
     0
 78
     0
281
     0
 65
     1
110
0.0
120
0.0
130
0.0
111
1.0
121
0.0
131
0.0
112
0.0
122
1.0
132
0.0
 79
     0
146
0.0
  0
ENDTAB
  0
TABLE
  2
LTYPE
  5
5
330
0
100
AcDbSymbolTable
 70
     6
  0
LTYPE
  5
14
330
5
100
AcDbSymbolTableRecord
100
AcDbLinetypeTableRecord
  2
ByBlock
 70
     0
  3

 72
    65
 73
     0
 40
0.0
  0
LTYPE
  5
15
330
5
100
AcDbSymbolTableRecord
100
AcDbLinetypeTableRecord
  2
ByLayer
 70
     0
  3

 72
    65
 73
     0
 40
0.0
  0
LTYPE
  5
16
330
5
100
AcDbSymbolTableRecord
100
AcDbLinetypeTableRecord
  2
Continuous
 70
     0
  3
Solid line
 72
    65
 73
     0
 40
0.0
  0
LTYPE
  5
6E
330
5
100
AcDbSymbolTableRecord
100
AcDbLinetypeTableRecord
  2
HIDDEN
 70
     0
  3
Hidden __ __ __ __ __ __ __ __ __ __ __ __ __ __
 72
    65
 73
     2
 40
1.905
 49
1.27
 74
     0
 49
-0.635
 74
     0
  0
LTYPE
  5
6F
330
5
100
AcDbSymbolTableRecord
100
AcDbLinetypeTableRecord
  2
PHANTOM
 70
     0
  3
Phantom ______  __  __  ______  __  __  ______
 72
    65
 73
     6
 40
12.7
 49
6.35
 74
     0
 49
-1.27
 74
     0
 49
1.27
 74
     0
 49
-1.27
 74
     0
 49
1.27
 74
     0
 49
-1.27
 74
     0
  0
LTYPE
  5
70
330
5
100
AcDbSymbolTableRecord
100
AcDbLinetypeTableRecord
  2
CENTER
 70
     0
  3
Center ____ _ ____ _ ____ _ ____ _ ____ _ ____
 72
    65
 73
     4
 40
10.16
 49
6.35
 74
     0
 49
-1.27
 74
     0
 49
1.27
 74
     0
 49
-1.27
 74
     0
  0
LTYPE
  5
71
330
5
100
AcDbSymbolTableRecord
100
AcDbLinetypeTableRecord
  2
CENTERX2
 70
     0
  3
Center (2x) ________  __  ________  __  _____
 72
    65
 73
     4
 40
20.32
 49
12.7
 74
     0
 49
-2.54
 74
     0
 49
2.54
 74
     0
 49
-2.54
 74
     0
  0
LTYPE
  5
72
330
5
100
AcDbSymbolTableRecord
100
AcDbLinetypeTableRecord
  2
DOT2
 70
     0
  3
Dot (.5x) ........................................
 72
    65
 73
     2
 40
0.635
 49
0.0
 74
     0
 49
-0.635
 74
     0
  0
ENDTAB
  0
TABLE
  2
LAYER
  5
2
330
0
100
AcDbSymbolTable
 70
     2
  0
LAYER
  5
10
330
2
100
AcDbSymbolTableRecord
100
AcDbLayerTableRecord
  2
0
 70
     0
 62
     7
  6
Continuous
370
    -3
390
F
  0
LAYER
  5
73
330
2
100
AcDbSymbolTableRecord
100
AcDbLayerTableRecord
  2
SLD-0
 70
     0
 62
     3
  6
Continuous
370
    -3
390
F
  0
ENDTAB
  0
TABLE
  2
STYLE
  5
3
330
0
100
AcDbSymbolTable
 70
     1
  0
STYLE
  5
11
330
3
100
AcDbSymbolTableRecord
100
AcDbTextStyleTableRecord
  2
STANDARD
 70
     0
 40
0.0
 41
1.0
 50
0.0
 71
     0
 42
3.5
  3
MSGOTHIC.TTC
  4

1001
ACAD
1000
ＭＳ ゴシック
1071
    32817
  0
ENDTAB
  0
TABLE
  2
VIEW
  5
6
330
0
100
AcDbSymbolTable
 70
     0
  0
ENDTAB
  0
TABLE
  2
UCS
  5
7
330
0
100
AcDbSymbolTable
 70
     0
  0
ENDTAB
  0
TABLE
  2
APPID
  5
9
330
0
100
AcDbSymbolTable
 70
     1
  0
APPID
  5
12
330
9
100
AcDbSymbolTableRecord
100
AcDbRegAppTableRecord
  2
ACAD
 70
     0
  0
ENDTAB
  0
TABLE
  2
DIMSTYLE
  5
A
330
0
100
AcDbSymbolTable
 70
     1
100
AcDbDimStyleTable
  0
DIMSTYLE
105
27
330
A
100
AcDbSymbolTableRecord
100
AcDbDimStyleTableRecord
  2
ISO-25
 70
     0
 41
2.5
 42
0.625
 43
3.75
 44
1.25
 73
     0
 74
     0
 77
     1
 78
     8
140
2.5
141
2.5
143
0.0393700787
147
0.625
171
     3
172
     1
178
     0
271
     2
272
     2
274
     3
278
    44
283
     0
284
     8
340
11
  0
ENDTAB
  0
TABLE
  2
BLOCK_RECORD
  5
1
330
0
100
AcDbSymbolTable
 70
     5
  0
BLOCK_RECORD
  5
1F
330
1
100
AcDbSymbolTableRecord
100
AcDbBlockTableRecord
  2
*Model_Space
340
22
  0
BLOCK_RECORD
  5
1B
330
1
100
AcDbSymbolTableRecord
100
AcDbBlockTableRecord
  2
*Paper_Space
340
1E
  0
BLOCK_RECORD
  5
23
330
1
100
AcDbSymbolTableRecord
100
AcDbBlockTableRecord
  2
*Paper_Space0
340
26
  0
BLOCK_RECORD
  5
257
330
1
100
AcDbSymbolTableRecord
100
AcDbBlockTableRecord
  2
SW_CENTERMARKSYMBOL_0
340
0
102
{BLKREFS
331
262
102
}
  0
BLOCK_RECORD
  5
263
330
1
100
AcDbSymbolTableRecord
100
AcDbBlockTableRecord
  2
SW_CENTERMARKSYMBOL_1
340
0
102
{BLKREFS
331
26E
102
}
  0
BLOCK_RECORD
  5
26F
330
1
100
AcDbSymbolTableRecord
100
AcDbBlockTableRecord
  2
SW_CENTERMARKSYMBOL_2
340
0
102
{BLKREFS
331
27A
102
}
  0
BLOCK_RECORD
  5
491
330
1
100
AcDbSymbolTableRecord
100
AcDbBlockTableRecord
  2
SW_CENTERMARKSYMBOL_3
340
0
102
{BLKREFS
331
4A3
102
}
  0
ENDTAB
  0
ENDSEC
  0
SECTION
  2
BLOCKS
  0
BLOCK
  5
20
330
1F
100
AcDbEntity
  8
0
100
AcDbBlockBegin
  2
*Model_Space
 70
     0
 10
0.0
 20
0.0
 30
0.0
  3
*Model_Space
  1

  0
ENDBLK
  5
21
330
1F
100
AcDbEntity
  8
0
100
AcDbBlockEnd
  0
BLOCK
  5
1C
330
1B
100
AcDbEntity
 67
     1
  8
0
100
AcDbBlockBegin
  2
*Paper_Space
 70
     0
 10
0.0
 20
0.0
 30
0.0
  3
*Paper_Space
  1

  0
ENDBLK
  5
1D
330
1B
100
AcDbEntity
 67
     1
  8
0
100
AcDbBlockEnd
  0
BLOCK
  5
24
330
23
100
AcDbEntity
  8
0
100
AcDbBlockBegin
  2
*Paper_Space0
 70
     0
 10
0.0
 20
0.0
 30
0.0
  3
*Paper_Space0
  1

  0
ENDBLK
  5
25
330
23
100
AcDbEntity
  8
0
100
AcDbBlockEnd
  0
BLOCK
  5
258
330
257
100
AcDbEntity
  8
0
100
AcDbBlockBegin
  2
SW_CENTERMARKSYMBOL_0
 70
     0
 10
0.0
 20
0.0
 30
0.0
  3
SW_CENTERMARKSYMBOL_0
  1

  0
LINE
  5
25A
330
257
100
AcDbEntity
  8
SLD-0
 62
     0
100
AcDbLine
 10
0.0
 20
0.0
 30
0.0
 11
0.0
 21
0.5
 31
0.0
  0
LINE
  5
25B
330
257
100
AcDbEntity
  8
SLD-0
 62
     0
100
AcDbLine
 10
0.0
 20
0.0
 30
0.0
 11
-0.5
 21
0.0
 31
0.0
  0
LINE
  5
25C
330
257
100
AcDbEntity
  8
SLD-0
 62
     0
100
AcDbLine
 10
0.0
 20
0.0
 30
0.0
 11
0.0
 21
-0.5
 31
0.0
  0
LINE
  5
25D
330
257
100
AcDbEntity
  8
SLD-0
 62
     0
100
AcDbLine
 10
0.0
 20
0.0
 30
0.0
 11
0.5
 21
0.0
 31
0.0
  0
LINE
  5
25E
330
257
100
AcDbEntity
  8
SLD-0
 62
     0
100
AcDbLine
 10
0.0
 20
1.0
 30
0.0
 11
0.0
 21
1.7
 31
0.0
  0
LINE
  5
25F
330
257
100
AcDbEntity
  8
SLD-0
 62
     0
100
AcDbLine
 10
-1.0
 20
0.0
 30
0.0
 11
-1.7
 21
0.0
 31
0.0
  0
LINE
  5
260
330
257
100
AcDbEntity
  8
SLD-0
 62
     0
100
AcDbLine
 10
0.0
 20
-1.0
 30
0.0
 11
0.0
 21
-1.7
 31
0.0
  0
LINE
  5
261
330
257
100
AcDbEntity
  8
SLD-0
 62
     0
100
AcDbLine
 10
1.0
 20
0.0
 30
0.0
 11
1.7
 21
0.0
 31
0.0
  0
ENDBLK
  5
259
330
257
100
AcDbEntity
  8
0
100
AcDbBlockEnd
  0
BLOCK
  5
264
330
263
100
AcDbEntity
  8
0
100
AcDbBlockBegin
  2
SW_CENTERMARKSYMBOL_1
 70
     0
 10
0.0
 20
0.0
 30
0.0
  3
SW_CENTERMARKSYMBOL_1
  1

  0
LINE
  5
266
330
263
100
AcDbEntity
  8
SLD-0
 62
     0
100
AcDbLine
 10
0.0
 20
0.0
 30
0.0
 11
0.0
 21
0.5
 31
0.0
  0
LINE
  5
267
330
263
100
AcDbEntity
  8
SLD-0
 62
     0
100
AcDbLine
 10
0.0
 20
0.0
 30
0.0
 11
-0.5
 21
0.0
 31
0.0
  0
LINE
  5
268
330
263
100
AcDbEntity
  8
SLD-0
 62
     0
100
AcDbLine
 10
0.0
 20
0.0
 30
0.0
 11
0.0
 21
-0.5
 31
0.0
  0
LINE
  5
269
330
263
100
AcDbEntity
  8
SLD-0
 62
     0
100
AcDbLine
 10
0.0
 20
0.0
 30
0.0
 11
0.5
 21
0.0
 31
0.0
  0
LINE
  5
26A
330
263
100
AcDbEntity
  8
SLD-0
 62
     0
100
AcDbLine
 10
0.0
 20
1.0
 30
0.0
 11
0.0
 21
1.7
 31
0.0
  0
LINE
  5
26B
330
263
100
AcDbEntity
  8
SLD-0
 62
     0
100
AcDbLine
 10
-1.0
 20
0.0
 30
0.0
 11
-1.7
 21
0.0
 31
0.0
  0
LINE
  5
26C
330
263
100
AcDbEntity
  8
SLD-0
 62
     0
100
AcDbLine
 10
0.0
 20
-1.0
 30
0.0
 11
0.0
 21
-1.7
 31
0.0
  0
LINE
  5
26D
330
263
100
AcDbEntity
  8
SLD-0
 62
     0
100
AcDbLine
 10
1.0
 20
0.0
 30
0.0
 11
1.7
 21
0.0
 31
0.0
  0
ENDBLK
  5
265
330
263
100
AcDbEntity
  8
0
100
AcDbBlockEnd
  0
BLOCK
  5
270
330
26F
100
AcDbEntity
  8
0
100
AcDbBlockBegin
  2
SW_CENTERMARKSYMBOL_2
 70
     0
 10
0.0
 20
0.0
 30
0.0
  3
SW_CENTERMARKSYMBOL_2
  1

  0
LINE
  5
272
330
26F
100
AcDbEntity
  8
SLD-0
 62
     0
100
AcDbLine
 10
0.0
 20
0.0
 30
0.0
 11
0.0
 21
0.5
 31
0.0
  0
LINE
  5
273
330
26F
100
AcDbEntity
  8
SLD-0
 62
     0
100
AcDbLine
 10
0.0
 20
0.0
 30
0.0
 11
-0.5
 21
0.0
 31
0.0
  0
LINE
  5
274
330
26F
100
AcDbEntity
  8
SLD-0
 62
     0
100
AcDbLine
 10
0.0
 20
0.0
 30
0.0
 11
0.0
 21
-0.5
 31
0.0
  0
LINE
  5
275
330
26F
100
AcDbEntity
  8
SLD-0
 62
     0
100
AcDbLine
 10
0.0
 20
0.0
 30
0.0
 11
0.5
 21
0.0
 31
0.0
  0
LINE
  5
276
330
26F
100
AcDbEntity
  8
SLD-0
 62
     0
100
AcDbLine
 10
0.0
 20
1.0
 30
0.0
 11
0.0
 21
1.212414057
 31
0.0
  0
LINE
  5
277
330
26F
100
AcDbEntity
  8
SLD-0
 62
     0
100
AcDbLine
 10
-1.0
 20
0.0
 30
0.0
 11
-1.212414057
 21
0.0
 31
0.0
  0
LINE
  5
278
330
26F
100
AcDbEntity
  8
SLD-0
 62
     0
100
AcDbLine
 10
0.0
 20
-1.0
 30
0.0
 11
0.0
 21
-1.212414057
 31
0.0
  0
LINE
  5
279
330
26F
100
AcDbEntity
  8
SLD-0
 62
     0
100
AcDbLine
 10
1.0
 20
0.0
 30
0.0
 11
1.212414057
 21
0.0
 31
0.0
  0
ENDBLK
  5
271
330
26F
100
AcDbEntity
  8
0
100
AcDbBlockEnd
  0
BLOCK
  5
492
330
491
100
AcDbEntity
  8
0
100
AcDbBlockBegin
  2
SW_CENTERMARKSYMBOL_3
 70
     0
 10
0.0
 20
0.0
 30
0.0
  3
SW_CENTERMARKSYMBOL_3
  1

  0
LINE
  5
494
330
491
100
AcDbEntity
  8
SLD-0
 62
     0
100
AcDbLine
 10
0.0
 20
0.0
 30
0.0
 11
0.0
 21
0.5
 31
0.0
  0
LINE
  5
495
330
491
100
AcDbEntity
  8
SLD-0
 62
     0
100
AcDbLine
 10
0.0
 20
0.0
 30
0.0
 11
-0.5
 21
0.0
 31
0.0
  0
LINE
  5
496
330
491
100
AcDbEntity
  8
SLD-0
 62
     0
100
AcDbLine
 10
0.0
 20
0.0
 30
0.0
 11
0.0
 21
-0.5
 31
0.0
  0
LINE
  5
497
330
491
100
AcDbEntity
  8
SLD-0
 62
     0
100
AcDbLine
 10
0.0
 20
0.0
 30
0.0
 11
0.5
 21
0.0
 31
0.0
  0
LINE
  5
498
330
491
100
AcDbEntity
  8
SLD-0
 62
     0
100
AcDbLine
 10
0.0
 20
1.0
 30
0.0
 11
0.0
 21
5.8
 31
0.0
  0
LINE
  5
499
330
491
100
AcDbEntity
  8
SLD-0
 62
     0
100
AcDbLine
 10
-1.0
 20
0.0
 30
0.0
 11
-23.0245653148
 21
0.0
 31
0.0
  0
LINE
  5
49A
330
491
100
AcDbEntity
  8
SLD-0
 62
     0
100
AcDbLine
 10
0.0
 20
-1.0
 30
0.0
 11
0.0
 21
-5.8
 31
0.0
  0
LINE
  5
49B
330
491
100
AcDbEntity
  8
SLD-0
 62
     0
100
AcDbLine
 10
32.0
 20
0.0
 30
0.0
 11
32.0
 21
0.5
 31
0.0
  0
LINE
  5
49C
330
491
100
AcDbEntity
  8
SLD-0
 62
     0
100
AcDbLine
 10
32.0
 20
0.0
 30
0.0
 11
31.5
 21
0.0
 31
0.0
  0
LINE
  5
49D
330
491
100
AcDbEntity
  8
SLD-0
 62
     0
100
AcDbLine
 10
32.0
 20
0.0
 30
0.0
 11
32.0
 21
-0.5
 31
0.0
  0
LINE
  5
49E
330
491
100
AcDbEntity
  8
SLD-0
 62
     0
100
AcDbLine
 10
32.0
 20
0.0
 30
0.0
 11
32.5
 21
0.0
 31
0.0
  0
LINE
  5
49F
330
491
100
AcDbEntity
  8
SLD-0
 62
     0
100
AcDbLine
 10
32.0
 20
1.0
 30
0.0
 11
32.0
 21
5.8
 31
0.0
  0
LINE
  5
4A0
330
491
100
AcDbEntity
  8
SLD-0
 62
     0
100
AcDbLine
 10
32.0
 20
-1.0
 30
0.0
 11
32.0
 21
-5.8
 31
0.0
  0
LINE
  5
4A1
330
491
100
AcDbEntity
  8
SLD-0
 62
     0
100
AcDbLine
 10
33.0
 20
0.0
 30
0.0
 11
52.6012843472
 21
0.0
 31
0.0
  0
LINE
  5
4A2
330
491
100
AcDbEntity
  8
SLD-0
 62
     0
100
AcDbLine
 10
1.0
 20
0.0
 30
0.0
 11
31.0
 21
0.0
 31
0.0
  0
ENDBLK
  5
493
330
491
100
AcDbEntity
  8
0
100
AcDbBlockEnd
  0
ENDSEC
  0
SECTION
  2
ENTITIES
  0
LINE
  5
74
330
1F
100
AcDbEntity
  8
0
  6
Continuous
 62
     7
370
    25
100
AcDbLine
 10
137.104340794
 20
179.6638069022
 30
0.0
 11
137.104340794
 21
180.0638077129
 31
0.0
  0
LINE
  5
75
330
1F
100
AcDbEntity
  8
0
  6
Continuous
 62
     7
370
    25
100
AcDbLine
 10
133.1043416284
 20
180.0638077129
 30
0.0
 11
133.1043416284
 21
179.6638069022
 31
0.0
  0
LINE
  5
76
330
1F
100
AcDbEntity
  8
0
  6
Continuous
 62
     7
370
    25
100
AcDbLine
 10
136.1067646764
 20
180.0638077129
 30
0.0
 11
136.1067646764
 21
180.1638064254
 31
0.0
  0
LINE
  5
77
330
1F
100
AcDbEntity
  8
0
  6
Continuous
 62
     7
370
    25
100
AcDbLine
 10
134.1067636036
 20
180.1638064254
 30
0.0
 11
134.1067636036
 21
180.0638077129
 31
0.0
  0
LINE
  5
78
330
1F
100
AcDbEntity
  8
0
  6
Continuous
 62
     7
370
    25
100
AcDbLine
 10
121.1043411516
 20
179.6638069022
 30
0.0
 11
121.1043411516
 21
180.0638077129
 31
0.0
  0
LINE
  5
79
330
1F
100
AcDbEntity
  8
0
  6
Continuous
 62
     7
370
    25
100
AcDbLine
 10
117.104341241
 20
180.0638077129
 30
0.0
 11
117.104341241
 21
179.6638069022
 31
0.0
  0
LINE
  5
7A
330
1F
100
AcDbEntity
  8
0
  6
Continuous
 62
     7
370
    25
100
AcDbLine
 10
120.106764289
 20
180.0638077129
 30
0.0
 11
120.106764289
 21
180.1638064254
 31
0.0
  0
LINE
  5
7B
330
1F
100
AcDbEntity
  8
0
  6
Continuous
 62
     7
370
    25
100
AcDbLine
 10
118.1067647062
 20
180.1638064254
 30
0.0
 11
118.1067647062
 21
180.0638077129
 31
0.0
  0
LINE
  5
7C
330
1F
100
AcDbEntity
  8
0
  6
Continuous
 62
     7
370
    25
100
AcDbLine
 10
105.1043407642
 20
179.5838085283
 30
0.0
 11
105.1043407642
 21
179.9838063586
 31
0.0
  0
LINE
  5
7D
330
1F
100
AcDbEntity
  8
0
  6
Continuous
 62
     7
370
    25
100
AcDbLine
 10
101.1043408536
 20
179.9838063586
 30
0.0
 11
101.1043408536
 21
179.5838085283
 31
0.0
  0
LINE
  5
7E
330
1F
100
AcDbEntity
  8
0
  6
Continuous
 62
     7
370
    25
100
AcDbLine
 10
89.1043403767
 20
179.5838085283
 30
0.0
 11
89.1043403767
 21
179.9838063586
 31
0.0
  0
LINE
  5
7F
330
1F
100
AcDbEntity
  8
0
  6
Continuous
 62
     7
370
    25
100
AcDbLine
 10
85.1043397211
 20
179.9838063586
 30
0.0
 11
85.1043397211
 21
179.5838085283
 31
0.0
  0
LINE
  5
80
330
1F
100
AcDbEntity
  8
0
  6
Continuous
 62
     7
370
    25
100
AcDbLine
 10
133.109187486
 20
242.7638081182
 30
0.0
 11
133.109187486
 21
242.3638073076
 31
0.0
  0
LINE
  5
81
330
1F
100
AcDbEntity
  8
0
  6
Continuous
 62
     7
370
    25
100
AcDbLine
 10
137.1091866516
 20
242.3638073076
 30
0.0
 11
137.1091866516
 21
242.7638081182
 31
0.0
  0
LINE
  5
82
330
1F
100
AcDbEntity
  8
0
  6
Continuous
 62
     7
370
    25
100
AcDbLine
 10
117.1091878437
 20
242.7638081182
 30
0.0
 11
117.1091878437
 21
242.3638073076
 31
0.0
  0
LINE
  5
83
330
1F
100
AcDbEntity
  8
0
  6
Continuous
 62
     7
370
    25
100
AcDbLine
 10
121.1091877543
 20
242.3638073076
 30
0.0
 11
121.1091877543
 21
242.7638081182
 31
0.0
  0
LINE
  5
84
330
1F
100
AcDbEntity
  8
0
  6
Continuous
 62
     7
370
    25
100
AcDbLine
 10
75.3067636512
 20
184.7662297357
 30
0.0
 11
75.7067644619
 21
184.7662297357
 31
0.0
  0
LINE
  5
85
330
1F
100
AcDbEntity
  8
0
  6
Continuous
 62
     7
370
    25
100
AcDbLine
 10
75.7067644619
 20
188.7662303913
 30
0.0
 11
75.3067636512
 21
188.7662303913
 31
0.0
  0
LINE
  5
86
330
1F
100
AcDbEntity
  8
0
  6
Continuous
 62
     7
370
    25
100
AcDbLine
 10
75.3067636512
 20
200.7662308682
 30
0.0
 11
75.7067644619
 21
200.7662308682
 31
0.0
  0
LINE
  5
87
330
1F
100
AcDbEntity
  8
0
  6
Continuous
 62
     7
370
    25
100
AcDbLine
 10
75.7067644619
 20
204.7662311513
 30
0.0
 11
75.3067636512
 21
204.7662311513
 31
0.0
  0
LINE
  5
88
330
1F
100
AcDbEntity
  8
0
  6
Continuous
 62
     7
370
    25
100
AcDbLine
 10
145.1067650341
 20
188.7709913123
 30
0.0
 11
144.7067642234
 21
188.7709913123
 31
0.0
  0
LINE
  5
89
330
1F
100
AcDbEntity
  8
0
  6
Continuous
 62
     7
370
    25
100
AcDbLine
 10
144.7067642234
 20
184.7709921468
 30
0.0
 11
145.1067650341
 21
184.7709921468
 31
0.0
  0
LINE
  5
8A
330
1F
100
AcDbEntity
  8
0
  6
Continuous
 62
     7
370
    25
100
AcDbLine
 10
145.1067650341
 20
204.7613841761
 30
0.0
 11
144.7067642234
 21
204.7613841761
 31
0.0
  0
LINE
  5
8B
330
1F
100
AcDbEntity
  8
0
  6
Continuous
 62
     7
370
    25
100
AcDbLine
 10
144.7067642234
 20
200.7613842655
 30
0.0
 11
145.1067650341
 21
200.7613842655
 31
0.0
  0
LINE
  5
8C
330
1F
100
AcDbEntity
  8
0
  6
Continuous
 62
     7
370
    25
100
AcDbLine
 10
129.2067641042
 20
242.7638081182
 30
0.0
 11
129.2067641042
 21
243.9638075698
 31
0.0
  0
LINE
  5
8D
330
1F
100
AcDbEntity
  8
0
  6
Continuous
 62
     7
370
    25
100
AcDbLine
 10
125.0067645334
 20
243.9638075698
 30
0.0
 11
125.0067645334
 21
242.7638081182
 31
0.0
  0
ARC
  5
8E
330
1F
100
AcDbEntity
  8
0
  6
Continuous
 62
     7
370
    25
100
AcDbCircle
 10
116.7067643427
 20
241.963807546
 30
0.0
 40
0.3999999999999915
100
AcDbArc
 50
90.0
 51
180.0
  0
LINE
  5
8F
330
1F
100
AcDbEntity
  8
0
  6
Continuous
 62
     7
370
    25
100
AcDbLine
 10
116.3067644112
 20
241.9638064969
 30
0.0
 11
116.3067644112
 21
241.2383881677
 31
0.0
  0
ARC
  5
90
330
1F
100
AcDbEntity
  8
0
  6
Continuous
 62
     7
370
    25
100
AcDbCircle
 10
137.5067643427
 20
241.963807546
 30
0.0
 40
0.4000000000000057
100
AcDbArc
 50
0.0
 51
90.0
  0
LINE
  5
91
330
1F
100
AcDbEntity
  8
0
  6
Continuous
 62
     7
370
    25
100
AcDbLine
 10
137.906765344
 20
241.2383881677
 30
0.0
 11
137.906765344
 21
241.9638064969
 31
0.0
  0
ARC
  5
92
330
1F
100
AcDbEntity
  8
0
  6
Continuous
 62
     7
370
    25
100
AcDbCircle
 10
130.8067643427
 20
242.763807546
 30
0.0
 40
0.4000000000000057
100
AcDbArc
 50
180.0
 51
270.0
  0
LINE
  5
93
330
1F
100
AcDbEntity
  8
0
  6
Continuous
 62
     7
370
    25
100
AcDbLine
 10
143.5813450836
 20
183.9638081659
 30
0.0
 11
144.3067634128
 21
183.9638081659
 31
0.0
  0
ARC
  5
94
330
1F
100
AcDbEntity
  8
0
  6
Continuous
 62
     7
370
    25
100
AcDbCircle
 10
144.3067643427
 20
184.363807546
 30
0.0
 40
0.4000000000000341
100
AcDbArc
 50
270.0
 51
0.0
  0
LINE
  5
95
330
1F
100
AcDbEntity
  8
0
  6
Continuous
 62
     7
370
    25
100
AcDbLine
 10
144.3067634128
 20
205.5638076086
 30
0.0
 11
143.5813450836
 21
205.5638076086
 31
0.0
  0
ARC
  5
96
330
1F
100
AcDbEntity
  8
0
  6
Continuous
 62
     7
370
    25
100
AcDbCircle
 10
144.3067643427
 20
205.163807546
 30
0.0
 40
0.4000000000000341
100
AcDbArc
 50
0.0
 51
90.0
  0
ARC
  5
97
330
1F
100
AcDbEntity
  8
0
  6
Continuous
 62
     7
370
    25
100
AcDbCircle
 10
145.1067643427
 20
191.063807546
 30
0.0
 40
0.4000000000000057
100
AcDbArc
 50
90.0
 51
180.0
  0
LINE
  5
98
330
1F
100
AcDbEntity
  8
0
  6
Continuous
 62
     7
370
    25
100
AcDbLine
 10
76.1067652725
 20
183.9638081659
 30
0.0
 11
76.8321478389
 21
183.9638081659
 31
0.0
  0
ARC
  5
99
330
1F
100
AcDbEntity
  8
0
  6
Continuous
 62
     7
370
    25
100
AcDbCircle
 10
76.1067643427
 20
205.163807546
 30
0.0
 40
0.4000000000000057
100
AcDbArc
 50
90.0
 51
180.0
  0
LINE
  5
9A
330
1F
100
AcDbEntity
  8
0
  6
Continuous
 62
     7
370
    25
100
AcDbLine
 10
76.8321478389
 20
205.5638076086
 30
0.0
 11
76.1067652725
 21
205.5638076086
 31
0.0
  0
ARC
  5
9B
330
1F
100
AcDbEntity
  8
0
  6
Continuous
 62
     7
370
    25
100
AcDbCircle
 10
76.1067643427
 20
184.363807546
 30
0.0
 40
0.4000000000000057
100
AcDbArc
 50
180.0
 51
270.0
  0
ARC
  5
9C
330
1F
100
AcDbEntity
  8
0
  6
Continuous
 62
     7
370
    25
100
AcDbCircle
 10
75.3067643427
 20
191.063807546
 30
0.0
 40
0.4000000000000057
100
AcDbArc
 50
42.9639231986
 51
90.0
  0
ARC
  5
9D
330
1F
100
AcDbEntity
  8
0
  6
Continuous
 62
     7
370
    25
100
AcDbCircle
 10
75.3067643427
 20
198.463807546
 30
0.0
 40
0.4000000000000057
100
AcDbArc
 50
270.0
 51
0.0
  0
ARC
  5
9E
330
1F
100
AcDbEntity
  8
0
  6
Continuous
 62
     7
370
    25
100
AcDbCircle
 10
90.0067643427
 20
177.463807546
 30
0.0
 40
0.2000000000000171
100
AcDbArc
 50
180.0
 51
270.0
  0
ARC
  5
9F
330
1F
100
AcDbEntity
  8
0
  6
Continuous
 62
     7
370
    25
100
AcDbCircle
 10
100.2067643427
 20
177.463807546
 30
0.0
 40
0.2000000000000171
100
AcDbArc
 50
270.0
 51
0.0
  0
LINE
  5
A0
330
1F
100
AcDbEntity
  8
0
  6
Continuous
 62
     7
370
    25
100
AcDbLine
 10
89.8067647241
 20
179.7838089336
 30
0.0
 11
89.8067647241
 21
177.4638084043
 31
0.0
  0
LINE
  5
A1
330
1F
100
AcDbEntity
  8
0
  6
Continuous
 62
     7
370
    25
100
AcDbLine
 10
100.406764599
 20
177.4638084043
 30
0.0
 11
100.406764599
 21
179.7838089336
 31
0.0
  0
ARC
  5
A2
330
1F
100
AcDbEntity
  8
0
  6
Continuous
 62
     7
370
    25
100
AcDbCircle
 10
84.9067643427
 20
180.583807546
 30
0.0
 40
0.6000000000000227
100
AcDbArc
 50
189.0521945398
 51
270.0
  0
ARC
  5
A3
330
1F
100
AcDbEntity
  8
0
  6
Continuous
 62
     7
370
    25
100
AcDbCircle
 10
105.3067643427
 20
180.583807546
 30
0.0
 40
0.6000000000000227
100
AcDbArc
 50
270.0
 51
350.9477061031
  0
ARC
  5
A4
330
1F
100
AcDbEntity
  8
0
  6
Continuous
 62
     7
370
    25
100
AcDbCircle
 10
89.6067643427
 20
179.783807546
 30
0.0
 40
0.2000000000000171
100
AcDbArc
 50
0.0
 51
90.0
  0
ARC
  5
A5
330
1F
100
AcDbEntity
  8
0
  6
Continuous
 62
     7
370
    25
100
AcDbCircle
 10
100.6067643427
 20
179.783807546
 30
0.0
 40
0.2000000000000171
100
AcDbArc
 50
90.0
 51
180.0
  0
ARC
  5
A6
330
1F
100
AcDbEntity
  8
0
  6
Continuous
 62
     7
370
    25
100
AcDbCircle
 10
122.0067643427
 20
177.643807546
 30
0.0
 40
0.2000000000000028
100
AcDbArc
 50
180.0
 51
270.0
  0
ARC
  5
A7
330
1F
100
AcDbEntity
  8
0
  6
Continuous
 62
     7
370
    25
100
AcDbCircle
 10
132.2067643427
 20
177.643807546
 30
0.0
 40
0.2000000000000171
100
AcDbArc
 50
270.0
 51
0.0
  0
LINE
  5
A8
330
1F
100
AcDbEntity
  8
0
  6
Continuous
 62
     7
370
    25
100
AcDbLine
 10
121.8067640089
 20
179.9638090003
 30
0.0
 11
121.8067640089
 21
177.643808471
 31
0.0
  0
LINE
  5
A9
330
1F
100
AcDbEntity
  8
0
  6
Continuous
 62
     7
370
    25
100
AcDbLine
 10
132.4067646288
 20
177.643808471
 30
0.0
 11
132.4067646288
 21
179.9638090003
 31
0.0
  0
ARC
  5
AA
330
1F
100
AcDbEntity
  8
0
  6
Continuous
 62
     7
370
    25
100
AcDbCircle
 10
137.3067643427
 20
180.763807546
 30
0.0
 40
0.6000000000000227
100
AcDbArc
 50
270.0
 51
332.956180753
  0
ARC
  5
AB
330
1F
100
AcDbEntity
  8
0
  6
Continuous
 62
     7
370
    25
100
AcDbCircle
 10
116.9067643427
 20
180.763807546
 30
0.0
 40
0.6000000000000227
100
AcDbArc
 50
207.0437190229
 51
270.0
  0
ARC
  5
AC
330
1F
100
AcDbEntity
  8
0
  6
Continuous
 62
     7
370
    25
100
AcDbCircle
 10
121.6067643427
 20
179.963807546
 30
0.0
 40
0.2000000000000028
100
AcDbArc
 50
0.0
 51
90.0
  0
ARC
  5
AD
330
1F
100
AcDbEntity
  8
0
  6
Continuous
 62
     7
370
    25
100
AcDbCircle
 10
132.6067643427
 20
179.963807546
 30
0.0
 40
0.1999999999999886
100
AcDbArc
 50
90.0
 51
180.0
  0
LINE
  5
AE
330
1F
100
AcDbEntity
  8
0
  6
Continuous
 62
     7
370
    25
100
AcDbLine
 10
133.1043416284
 20
179.6638069022
 30
0.0
 11
137.104340794
 21
179.6638069022
 31
0.0
  0
LINE
  5
AF
330
1F
100
AcDbEntity
  8
0
  6
Continuous
 62
     7
370
    25
100
AcDbLine
 10
133.1043416284
 20
180.0638077129
 30
0.0
 11
137.104340794
 21
180.0638077129
 31
0.0
  0
LINE
  5
B0
330
1F
100
AcDbEntity
  8
0
  6
Continuous
 62
     7
370
    25
100
AcDbLine
 10
135.10676414
 20
178.2638070453
 30
0.0
 11
135.10676414
 21
179.6638069022
 31
0.0
  0
LINE
  5
B1
330
1F
100
AcDbEntity
  8
0
  6
Continuous
 62
     7
370
    25
100
AcDbLine
 10
135.10676414
 20
178.2638070453
 30
0.0
 11
133.4067636751
 21
178.2638070453
 31
0.0
  0
LINE
  5
B2
330
1F
100
AcDbEntity
  8
0
  6
Continuous
 62
     7
370
    25
100
AcDbLine
 10
133.4067636751
 20
178.2638070453
 30
0.0
 11
133.4067636751
 21
179.6638069022
 31
0.0
  0
LINE
  5
B3
330
1F
100
AcDbEntity
  8
0
  6
Continuous
 62
     7
370
    25
100
AcDbLine
 10
136.8067646049
 20
178.2638070453
 30
0.0
 11
136.8067646049
 21
179.6638069022
 31
0.0
  0
LINE
  5
B4
330
1F
100
AcDbEntity
  8
0
  6
Continuous
 62
     7
370
    25
100
AcDbLine
 10
136.8067646049
 20
178.2638070453
 30
0.0
 11
135.10676414
 21
178.2638070453
 31
0.0
  0
LINE
  5
B5
330
1F
100
AcDbEntity
  8
0
  6
Continuous
 62
     7
370
    25
100
AcDbLine
 10
117.104341241
 20
180.0638077129
 30
0.0
 11
121.1043411516
 21
180.0638077129
 31
0.0
  0
LINE
  5
B6
330
1F
100
AcDbEntity
  8
0
  6
Continuous
 62
     7
370
    25
100
AcDbLine
 10
117.104341241
 20
179.6638069022
 30
0.0
 11
121.1043411516
 21
179.6638069022
 31
0.0
  0
LINE
  5
B7
330
1F
100
AcDbEntity
  8
0
  6
Continuous
 62
     7
370
    25
100
AcDbLine
 10
119.1067644976
 20
178.2638070453
 30
0.0
 11
119.1067644976
 21
179.6638069022
 31
0.0
  0
LINE
  5
B8
330
1F
100
AcDbEntity
  8
0
  6
Continuous
 62
     7
370
    25
100
AcDbLine
 10
117.4067640327
 20
178.2638070453
 30
0.0
 11
117.4067640327
 21
179.6638069022
 31
0.0
  0
LINE
  5
B9
330
1F
100
AcDbEntity
  8
0
  6
Continuous
 62
     7
370
    25
100
AcDbLine
 10
119.1067644976
 20
178.2638070453
 30
0.0
 11
117.4067640327
 21
178.2638070453
 31
0.0
  0
LINE
  5
BA
330
1F
100
AcDbEntity
  8
0
  6
Continuous
 62
     7
370
    25
100
AcDbLine
 10
120.8067642175
 20
178.2638070453
 30
0.0
 11
120.8067642175
 21
179.6638069022
 31
0.0
  0
LINE
  5
BB
330
1F
100
AcDbEntity
  8
0
  6
Continuous
 62
     7
370
    25
100
AcDbLine
 10
120.8067642175
 20
178.2638070453
 30
0.0
 11
119.1067644976
 21
178.2638070453
 31
0.0
  0
LINE
  5
BC
330
1F
100
AcDbEntity
  8
0
  6
Continuous
 62
     7
370
    25
100
AcDbLine
 10
101.7705538891
 20
179.9838063586
 30
0.0
 11
104.4381277286
 21
179.9838063586
 31
0.0
  0
LINE
  5
BD
330
1F
100
AcDbEntity
  8
0
  6
Continuous
 62
     7
370
    25
100
AcDbLine
 10
101.1043408536
 20
179.5838085283
 30
0.0
 11
105.1043407642
 21
179.5838085283
 31
0.0
  0
LINE
  5
BE
330
1F
100
AcDbEntity
  8
0
  6
Continuous
 62
     7
370
    25
100
AcDbLine
 10
104.8067642026
 20
178.1838086713
 30
0.0
 11
104.8067642026
 21
179.5838085283
 31
0.0
  0
LINE
  5
BF
330
1F
100
AcDbEntity
  8
0
  6
Continuous
 62
     7
370
    25
100
AcDbLine
 10
103.1067641102
 20
178.1838086713
 30
0.0
 11
103.1067641102
 21
179.5838085283
 31
0.0
  0
LINE
  5
C0
330
1F
100
AcDbEntity
  8
0
  6
Continuous
 62
     7
370
    25
100
AcDbLine
 10
104.8067642026
 20
178.1838086713
 30
0.0
 11
103.1067641102
 21
178.1838086713
 31
0.0
  0
LINE
  5
C1
330
1F
100
AcDbEntity
  8
0
  6
Continuous
 62
     7
370
    25
100
AcDbLine
 10
101.4067643903
 20
178.1838086713
 30
0.0
 11
101.4067643903
 21
179.5838085283
 31
0.0
  0
LINE
  5
C2
330
1F
100
AcDbEntity
  8
0
  6
Continuous
 62
     7
370
    25
100
AcDbLine
 10
103.1067641102
 20
178.1838086713
 30
0.0
 11
101.4067643903
 21
178.1838086713
 31
0.0
  0
LINE
  5
C3
330
1F
100
AcDbEntity
  8
0
  6
Continuous
 62
     7
370
    25
100
AcDbLine
 10
85.1043397211
 20
179.5838085283
 30
0.0
 11
89.1043403767
 21
179.5838085283
 31
0.0
  0
LINE
  5
C4
330
1F
100
AcDbEntity
  8
0
  6
Continuous
 62
     7
370
    25
100
AcDbLine
 10
85.7705542468
 20
179.9838063586
 30
0.0
 11
88.4381273411
 21
179.9838063586
 31
0.0
  0
LINE
  5
C5
330
1F
100
AcDbEntity
  8
0
  6
Continuous
 62
     7
370
    25
100
AcDbLine
 10
88.8067641877
 20
178.1838086713
 30
0.0
 11
88.8067641877
 21
179.5838085283
 31
0.0
  0
LINE
  5
C6
330
1F
100
AcDbEntity
  8
0
  6
Continuous
 62
     7
370
    25
100
AcDbLine
 10
87.1067637228
 20
178.1838086713
 30
0.0
 11
87.1067637228
 21
179.5838085283
 31
0.0
  0
LINE
  5
C7
330
1F
100
AcDbEntity
  8
0
  6
Continuous
 62
     7
370
    25
100
AcDbLine
 10
88.8067641877
 20
178.1838086713
 30
0.0
 11
87.1067637228
 21
178.1838086713
 31
0.0
  0
LINE
  5
C8
330
1F
100
AcDbEntity
  8
0
  6
Continuous
 62
     7
370
    25
100
AcDbLine
 10
85.406764748
 20
178.1838086713
 30
0.0
 11
85.406764748
 21
179.5838085283
 31
0.0
  0
LINE
  5
C9
330
1F
100
AcDbEntity
  8
0
  6
Continuous
 62
     7
370
    25
100
AcDbLine
 10
87.1067637228
 20
178.1838086713
 30
0.0
 11
85.406764748
 21
178.1838086713
 31
0.0
  0
LINE
  5
CA
330
1F
100
AcDbEntity
  8
0
  6
Continuous
 62
     7
370
    25
100
AcDbLine
 10
137.1091866516
 20
242.7638081182
 30
0.0
 11
133.109187486
 21
242.7638081182
 31
0.0
  0
LINE
  5
CB
330
1F
100
AcDbEntity
  8
0
  6
Continuous
 62
     7
370
    25
100
AcDbLine
 10
133.4067636751
 20
244.1638079751
 30
0.0
 11
133.4067636751
 21
242.7638081182
 31
0.0
  0
LINE
  5
CC
330
1F
100
AcDbEntity
  8
0
  6
Continuous
 62
     7
370
    25
100
AcDbLine
 10
135.10676414
 20
244.1638079751
 30
0.0
 11
135.10676414
 21
242.7638081182
 31
0.0
  0
LINE
  5
CD
330
1F
100
AcDbEntity
  8
0
  6
Continuous
 62
     7
370
    25
100
AcDbLine
 10
133.4067636751
 20
244.1638079751
 30
0.0
 11
135.10676414
 21
244.1638079751
 31
0.0
  0
LINE
  5
CE
330
1F
100
AcDbEntity
  8
0
  6
Continuous
 62
     7
370
    25
100
AcDbLine
 10
136.8067646049
 20
244.1638079751
 30
0.0
 11
136.8067646049
 21
242.7638081182
 31
0.0
  0
LINE
  5
CF
330
1F
100
AcDbEntity
  8
0
  6
Continuous
 62
     7
370
    25
100
AcDbLine
 10
135.10676414
 20
244.1638079751
 30
0.0
 11
136.8067646049
 21
244.1638079751
 31
0.0
  0
LINE
  5
D0
330
1F
100
AcDbEntity
  8
0
  6
Continuous
 62
     7
370
    25
100
AcDbLine
 10
121.1091877543
 20
242.7638081182
 30
0.0
 11
117.1091878437
 21
242.7638081182
 31
0.0
  0
LINE
  5
D1
330
1F
100
AcDbEntity
  8
0
  6
Continuous
 62
     7
370
    25
100
AcDbLine
 10
119.1067644976
 20
244.1638079751
 30
0.0
 11
119.1067644976
 21
242.7638081182
 31
0.0
  0
LINE
  5
D2
330
1F
100
AcDbEntity
  8
0
  6
Continuous
 62
     7
370
    25
100
AcDbLine
 10
119.1067644976
 20
244.1638079751
 30
0.0
 11
120.8067642175
 21
244.1638079751
 31
0.0
  0
LINE
  5
D3
330
1F
100
AcDbEntity
  8
0
  6
Continuous
 62
     7
370
    25
100
AcDbLine
 10
120.8067642175
 20
244.1638079751
 30
0.0
 11
120.8067642175
 21
242.7638081182
 31
0.0
  0
LINE
  5
D4
330
1F
100
AcDbEntity
  8
0
  6
Continuous
 62
     7
370
    25
100
AcDbLine
 10
117.4067640327
 20
244.1638079751
 30
0.0
 11
117.4067640327
 21
242.7638081182
 31
0.0
  0
LINE
  5
D5
330
1F
100
AcDbEntity
  8
0
  6
Continuous
 62
     7
370
    25
100
AcDbLine
 10
117.4067640327
 20
244.1638079751
 30
0.0
 11
119.1067644976
 21
244.1638079751
 31
0.0
  0
LINE
  5
D6
330
1F
100
AcDbEntity
  8
0
  6
Continuous
 62
     7
370
    25
100
AcDbLine
 10
75.3067636512
 20
188.7662303913
 30
0.0
 11
75.3067636512
 21
184.7662297357
 31
0.0
  0
LINE
  5
D7
330
1F
100
AcDbEntity
  8
0
  6
Continuous
 62
     7
370
    25
100
AcDbLine
 10
73.9067637943
 20
185.063808905
 30
0.0
 11
75.3067636512
 21
185.063808905
 31
0.0
  0
LINE
  5
D8
330
1F
100
AcDbEntity
  8
0
  6
Continuous
 62
     7
370
    25
100
AcDbLine
 10
73.9067637943
 20
186.7638078798
 30
0.0
 11
75.3067636512
 21
186.7638078798
 31
0.0
  0
LINE
  5
D9
330
1F
100
AcDbEntity
  8
0
  6
Continuous
 62
     7
370
    25
100
AcDbLine
 10
73.9067637943
 20
185.063808905
 30
0.0
 11
73.9067637943
 21
186.7638078798
 31
0.0
  0
LINE
  5
DA
330
1F
100
AcDbEntity
  8
0
  6
Continuous
 62
     7
370
    25
100
AcDbLine
 10
73.9067637943
 20
188.4638068546
 30
0.0
 11
75.3067636512
 21
188.4638068546
 31
0.0
  0
LINE
  5
DB
330
1F
100
AcDbEntity
  8
0
  6
Continuous
 62
     7
370
    25
100
AcDbLine
 10
73.9067637943
 20
186.7638078798
 30
0.0
 11
73.9067637943
 21
188.4638068546
 31
0.0
  0
LINE
  5
DC
330
1F
100
AcDbEntity
  8
0
  6
Continuous
 62
     7
370
    25
100
AcDbLine
 10
75.3067636512
 20
204.7662311513
 30
0.0
 11
75.3067636512
 21
200.7662308682
 31
0.0
  0
LINE
  5
DD
330
1F
100
AcDbEntity
  8
0
  6
Continuous
 62
     7
370
    25
100
AcDbLine
 10
73.9067637943
 20
202.7638075221
 30
0.0
 11
75.3067636512
 21
202.7638075221
 31
0.0
  0
LINE
  5
DE
330
1F
100
AcDbEntity
  8
0
  6
Continuous
 62
     7
370
    25
100
AcDbLine
 10
73.9067637943
 20
202.7638075221
 30
0.0
 11
73.9067637943
 21
204.463807242
 31
0.0
  0
LINE
  5
DF
330
1F
100
AcDbEntity
  8
0
  6
Continuous
 62
     7
370
    25
100
AcDbLine
 10
73.9067637943
 20
204.463807242
 30
0.0
 11
75.3067636512
 21
204.463807242
 31
0.0
  0
LINE
  5
E0
330
1F
100
AcDbEntity
  8
0
  6
Continuous
 62
     7
370
    25
100
AcDbLine
 10
73.9067637943
 20
201.0638078023
 30
0.0
 11
75.3067636512
 21
201.0638078023
 31
0.0
  0
LINE
  5
E1
330
1F
100
AcDbEntity
  8
0
  6
Continuous
 62
     7
370
    25
100
AcDbLine
 10
73.9067637943
 20
201.0638078023
 30
0.0
 11
73.9067637943
 21
202.7638075221
 31
0.0
  0
LINE
  5
E2
330
1F
100
AcDbEntity
  8
0
  6
Continuous
 62
     7
370
    25
100
AcDbLine
 10
145.1067650341
 20
185.7709911931
 30
0.0
 11
145.1067650341
 21
188.7709913123
 31
0.0
  0
LINE
  5
E3
330
1F
100
AcDbEntity
  8
0
  6
Continuous
 62
     7
370
    25
100
AcDbLine
 10
145.1067650341
 20
184.7709921468
 30
0.0
 11
145.1067650341
 21
185.7709911931
 31
0.0
  0
LINE
  5
E4
330
1F
100
AcDbEntity
  8
0
  6
Continuous
 62
     7
370
    25
100
AcDbLine
 10
146.506764891
 20
188.4638068546
 30
0.0
 11
145.1067650341
 21
188.4638068546
 31
0.0
  0
LINE
  5
E5
330
1F
100
AcDbEntity
  8
0
  6
Continuous
 62
     7
370
    25
100
AcDbLine
 10
146.506764891
 20
186.7638078798
 30
0.0
 11
145.1067650341
 21
186.7638078798
 31
0.0
  0
LINE
  5
E6
330
1F
100
AcDbEntity
  8
0
  6
Continuous
 62
     7
370
    25
100
AcDbLine
 10
146.506764891
 20
188.4638068546
 30
0.0
 11
146.506764891
 21
186.7638078798
 31
0.0
  0
LINE
  5
E7
330
1F
100
AcDbEntity
  8
0
  6
Continuous
 62
     7
370
    25
100
AcDbLine
 10
146.506764891
 20
185.063808905
 30
0.0
 11
145.1067650341
 21
185.063808905
 31
0.0
  0
LINE
  5
E8
330
1F
100
AcDbEntity
  8
0
  6
Continuous
 62
     7
370
    25
100
AcDbLine
 10
146.506764891
 20
186.7638078798
 30
0.0
 11
146.506764891
 21
185.063808905
 31
0.0
  0
LINE
  5
E9
330
1F
100
AcDbEntity
  8
0
  6
Continuous
 62
     7
370
    25
100
AcDbLine
 10
145.1067650341
 20
200.7613842655
 30
0.0
 11
145.1067650341
 21
204.7613841761
 31
0.0
  0
LINE
  5
EA
330
1F
100
AcDbEntity
  8
0
  6
Continuous
 62
     7
370
    25
100
AcDbLine
 10
146.506764891
 20
204.463807242
 30
0.0
 11
145.1067650341
 21
204.463807242
 31
0.0
  0
LINE
  5
EB
330
1F
100
AcDbEntity
  8
0
  6
Continuous
 62
     7
370
    25
100
AcDbLine
 10
146.506764891
 20
202.7638075221
 30
0.0
 11
145.1067650341
 21
202.7638075221
 31
0.0
  0
LINE
  5
EC
330
1F
100
AcDbEntity
  8
0
  6
Continuous
 62
     7
370
    25
100
AcDbLine
 10
146.506764891
 20
204.463807242
 30
0.0
 11
146.506764891
 21
202.7638075221
 31
0.0
  0
LINE
  5
ED
330
1F
100
AcDbEntity
  8
0
  6
Continuous
 62
     7
370
    25
100
AcDbLine
 10
146.506764891
 20
201.0638078023
 30
0.0
 11
145.1067650341
 21
201.0638078023
 31
0.0
  0
LINE
  5
EE
330
1F
100
AcDbEntity
  8
0
  6
Continuous
 62
     7
370
    25
100
AcDbLine
 10
146.506764891
 20
202.7638075221
 30
0.0
 11
146.506764891
 21
201.0638078023
 31
0.0
  0
LINE
  5
EF
330
1F
100
AcDbEntity
  8
0
  6
Continuous
 62
     7
370
    25
100
AcDbLine
 10
127.1067643188
 20
243.9638075698
 30
0.0
 11
127.1067643188
 21
246.963807689
 31
0.0
  0
LINE
  5
F0
330
1F
100
AcDbEntity
  8
0
  6
Continuous
 62
     7
370
    25
100
AcDbLine
 10
124.5086887501
 20
243.9638075698
 30
0.0
 11
124.5086887501
 21
246.963807689
 31
0.0
  0
LINE
  5
F1
330
1F
100
AcDbEntity
  8
0
  6
Continuous
 62
     7
370
    25
100
AcDbLine
 10
127.1067643188
 20
246.963807689
 30
0.0
 11
124.5086887501
 21
246.963807689
 31
0.0
  0
LINE
  5
F2
330
1F
100
AcDbEntity
  8
0
  6
Continuous
 62
     7
370
    25
100
AcDbLine
 10
127.1067643188
 20
243.9638075698
 30
0.0
 11
124.5086887501
 21
243.9638075698
 31
0.0
  0
LINE
  5
F3
330
1F
100
AcDbEntity
  8
0
  6
Continuous
 62
     7
370
    25
100
AcDbLine
 10
129.7048398875
 20
243.9638075698
 30
0.0
 11
129.7048398875
 21
246.963807689
 31
0.0
  0
LINE
  5
F4
330
1F
100
AcDbEntity
  8
0
  6
Continuous
 62
     7
370
    25
100
AcDbLine
 10
129.7048398875
 20
246.963807689
 30
0.0
 11
127.1067643188
 21
246.963807689
 31
0.0
  0
LINE
  5
F5
330
1F
100
AcDbEntity
  8
0
  6
Continuous
 62
     7
370
    25
100
AcDbLine
 10
129.7048398875
 20
243.9638075698
 30
0.0
 11
127.1067643188
 21
243.9638075698
 31
0.0
  0
LINE
  5
F6
330
1F
100
AcDbEntity
  8
0
  6
Continuous
 62
     7
370
    25
100
AcDbLine
 10
117.2981591545
 20
242.3638073076
 30
0.0
 11
127.1067643188
 21
242.3638073076
 31
0.0
  0
LINE
  5
F7
330
1F
100
AcDbEntity
  8
0
  6
Continuous
 62
     7
370
    25
100
AcDbLine
 10
127.1067643188
 20
242.3638073076
 30
0.0
 11
136.9153702282
 21
242.3638073076
 31
0.0
  0
LINE
  5
F8
330
1F
100
AcDbEntity
  8
0
  6
Continuous
 62
     7
370
    25
100
AcDbLine
 10
126.7653846763
 20
242.7638081182
 30
0.0
 11
127.4481439613
 21
242.7638081182
 31
0.0
  0
SPLINE
  5
F9
330
1F
100
AcDbEntity
  8
0
  6
Continuous
 62
     7
370
    25
100
AcDbSpline
210
0.0
220
0.0
230
1.0
 70
     8
 71
     3
 72
    11
 73
     7
 74
     0
 42
0.000000001
 43
0.00000001
 40
0.0
 40
0.0
 40
0.0
 40
0.0
 40
0.0037789449790733
 40
0.2992978082228497
 40
0.5919902502157433
 40
1.0
 40
1.0
 40
1.0
 40
1.0
 10
127.4481439612995
 20
242.7638081181778
 30
0.0
 10
127.4486054496148
 20
242.7633730445245
 30
0.0
 10
127.4851559794726
 20
242.7289145934044
 30
0.0
 10
127.555625633273
 20
242.6592598605484
 30
0.0
 10
127.6679600237913
 20
242.5341869143554
 30
0.0
 10
127.7170919176627
 20
242.4265075799457
 30
0.0
 10
127.7457007788311
 20
242.3638073075546
 30
0.0
  0
SPLINE
  5
FA
330
1F
100
AcDbEntity
  8
0
  6
Continuous
 62
     7
370
    25
100
AcDbSpline
210
0.0
220
0.0
230
1.0
 70
     8
 71
     3
 72
    10
 73
     6
 74
     0
 42
0.000000001
 43
0.00000001
 40
0.0
 40
0.0
 40
0.0
 40
0.0
 40
0.4082517227410928
 40
0.9962188138919076
 40
1.0
 40
1.0
 40
1.0
 40
1.0
 10
126.4678278587948
 20
242.3638073075546
 30
0.0
 10
126.4967827214503
 20
242.4263307607354
 30
0.0
 10
126.5674385872417
 20
242.5789009445178
 30
0.0
 10
126.6927130017398
 20
242.6952801834197
 30
0.0
 10
126.764923263175
 20
242.7633730148104
 30
0.0
 10
126.7653846763263
 20
242.7638081181778
 30
0.0
  0
SPLINE
  5
FB
330
1F
100
AcDbEntity
  8
0
  6
Continuous
 62
     7
370
    25
100
AcDbSpline
210
0.0
220
0.0
230
1.0
 70
     8
 71
     3
 72
    11
 73
     7
 74
     0
 42
0.000000001
 43
0.00000001
 40
0.0
 40
0.0
 40
0.0
 40
0.0
 40
0.3833434105418153
 40
0.6883374085199412
 40
0.9962500673034194
 40
0.9999999999999999
 40
0.9999999999999999
 40
0.9999999999999999
 40
0.9999999999999999
 10
130.3629273198734
 20
242.3638073075546
 30
0.0
 10
130.3675350781936
 20
242.4229755675808
 30
0.0
 10
130.3758088409191
 20
242.5292190183694
 30
0.0
 10
130.3897123395816
 20
242.6543707426798
 30
0.0
 10
130.3961944677373
 20
242.7272126843085
 30
0.0
 10
130.3988754065639
 20
242.7633730358539
 30
0.0
 10
130.3989076636921
 20
242.7638081181778
 30
0.0
  0
LINE
  5
FC
330
1F
100
AcDbEntity
  8
0
  6
Continuous
 62
     7
370
    25
100
AcDbLine
 10
127.4481439613
 20
242.7638081182
 30
0.0
 11
130.3989076637
 21
242.7638081182
 31
0.0
  0
SPLINE
  5
FD
330
1F
100
AcDbEntity
  8
0
  6
Continuous
 62
     7
370
    25
100
AcDbSpline
210
0.0
220
0.0
230
1.0
 70
     8
 71
     3
 72
    10
 73
     6
 74
     0
 42
0.000000001
 43
0.00000001
 40
0.0
 40
0.0
 40
0.0
 40
0.0
 40
0.0037521809382603
 40
0.616426759031095
 40
1.0
 40
1.0
 40
1.0
 40
1.0
 10
123.8146209739338
 20
242.7638081181778
 30
0.0
 10
123.8146532194807
 20
242.7633730036176
 30
0.0
 10
123.8199506766999
 20
242.6918902413065
 30
0.0
 10
123.833838261164
 20
242.5760129522872
 30
0.0
 10
123.8459413947157
 20
242.4227978602138
 30
0.0
 10
123.8506013177524
 20
242.3638073075546
 30
0.0
  0
LINE
  5
FE
330
1F
100
AcDbEntity
  8
0
  6
Continuous
 62
     7
370
    25
100
AcDbLine
 10
123.8146209739
 20
242.7638081182
 30
0.0
 11
126.7653846763
 21
242.7638081182
 31
0.0
  0
LINE
  5
FF
330
1F
100
AcDbEntity
  8
0
  6
Continuous
 62
     7
370
    25
100
AcDbLine
 10
116.7067641042
 20
242.3638073076
 30
0.0
 11
117.2981591545
 21
242.3638073076
 31
0.0
  0
LINE
  5
100
330
1F
100
AcDbEntity
  8
0
  6
Continuous
 62
     7
370
    25
100
AcDbLine
 10
136.9153702282
 20
242.3638073076
 30
0.0
 11
137.5067645334
 21
242.3638073076
 31
0.0
  0
SPLINE
  5
101
330
1F
100
AcDbEntity
  8
0
  6
Continuous
 62
     7
370
    25
100
AcDbSpline
210
0.0
220
0.0
230
1.0
 70
     8
 71
     3
 72
    12
 73
     8
 74
     0
 42
0.000000001
 43
0.00000001
 40
0.0
 40
0.0
 40
0.0
 40
0.0
 40
0.1394663224238302
 40
0.3538121435907006
 40
0.5689665170547489
 40
0.7844849814422453
 40
1.0
 40
1.0
 40
1.0
 40
1.0
 10
130.3989076636921
 20
242.7638081181778
 30
0.0
 10
130.4008328176544
 20
242.7345704290991
 30
0.0
 10
130.4057167411588
 20
242.660397329337
 30
0.0
 10
130.4538706577411
 20
242.5478933222326
 30
0.0
 10
130.5449757965429
 20
242.4462165663344
 30
0.0
 10
130.6656100398084
 20
242.3771211181736
 30
0.0
 10
130.7561070844131
 20
242.3682452207753
 30
0.0
 10
130.8013552449833
 20
242.3638073075546
 30
0.0
  0
SPLINE
  5
102
330
1F
100
AcDbEntity
  8
0
  6
Continuous
 62
     7
370
    25
100
AcDbSpline
210
0.0
220
0.0
230
1.0
 70
     8
 71
     3
 72
    12
 73
     8
 74
     0
 42
0.000000001
 43
0.00000001
 40
0.0
 40
0.0
 40
0.0
 40
0.0
 40
0.1351096261295876
 40
0.3503860435592419
 40
0.5650368408194028
 40
0.7789015822786312
 40
1.0
 40
1.0
 40
1.0
 40
1.0
 10
123.4121733926426
 20
242.3638073075546
 30
0.0
 10
123.4404460140449
 20
242.3655797155036
 30
0.0
 10
123.5137667110076
 20
242.3701761830286
 30
0.0
 10
123.6259068996664
 20
242.416337527228
 30
0.0
 10
123.7288167851964
 20
242.505539052179
 30
0.0
 10
123.8004623871022
 20
242.6257817290224
 30
0.0
 10
123.8098494078859
 20
242.7172920329192
 30
0.0
 10
123.8146209739338
 20
242.7638081181778
 30
0.0
  0
LINE
  5
103
330
1F
100
AcDbEntity
  8
0
  6
Continuous
 62
     7
370
    25
100
AcDbLine
 10
123.8067650818
 20
242.7638081182
 30
0.0
 11
123.8146209739
 21
242.7638081182
 31
0.0
  0
LINE
  5
104
330
1F
100
AcDbEntity
  8
0
  6
Continuous
 62
     7
370
    25
100
AcDbLine
 10
130.3989076637
 20
242.7638081182
 30
0.0
 11
130.406765046
 21
242.7638081182
 31
0.0
  0
LINE
  5
105
330
1F
100
AcDbEntity
  8
0
  6
Continuous
 62
     7
370
    25
100
AcDbLine
 10
144.7067642234
 20
194.7638077009
 30
0.0
 11
144.7067642234
 21
184.9552032817
 31
0.0
  0
LINE
  5
106
330
1F
100
AcDbEntity
  8
0
  6
Continuous
 62
     7
370
    25
100
AcDbLine
 10
144.7067642234
 20
204.5724121202
 30
0.0
 11
144.7067642234
 21
194.7638077009
 31
0.0
  0
SPLINE
  5
107
330
1F
100
AcDbEntity
  8
0
  6
Continuous
 62
     7
370
    25
100
AcDbSpline
210
0.0
220
0.0
230
1.0
 70
     8
 71
     3
 72
    11
 73
     7
 74
     0
 42
0.000000001
 43
0.00000001
 40
0.0
 40
0.0
 40
0.0
 40
0.0
 40
0.0037789442410311
 40
0.2992998364213125
 40
0.5919903299015837
 40
0.9999999999999999
 40
0.9999999999999999
 40
0.9999999999999999
 40
0.9999999999999999
 10
145.1067650340687
 20
194.4224280584587
 30
0.0
 10
145.1063299603785
 20
194.4219665701821
 30
0.0
 10
145.0718712661004
 20
194.3854157885622
 30
0.0
 10
145.0022178661539
 20
194.3149446912476
 30
0.0
 10
144.877143070794
 20
194.2026124016407
 30
0.0
 10
144.7694643233155
 20
194.1534803001889
 30
0.0
 10
144.7067642234455
 20
194.1248712409271
 30
0.0
  0
LINE
  5
108
330
1F
100
AcDbEntity
  8
0
  6
Continuous
 62
     7
370
    25
100
AcDbLine
 10
145.1067650341
 20
195.1051873434
 30
0.0
 11
145.1067650341
 21
194.4224280585
 31
0.0
  0
SPLINE
  5
109
330
1F
100
AcDbEntity
  8
0
  6
Continuous
 62
     7
370
    25
100
AcDbSpline
210
0.0
220
0.0
230
1.0
 70
     8
 71
     3
 72
    10
 73
     6
 74
     0
 42
0.000000001
 43
0.00000001
 40
0.0
 40
0.0
 40
0.0
 40
0.0
 40
0.4082533501634645
 40
0.9962188115581188
 40
1.0
 40
1.0
 40
1.0
 40
1.0
 10
144.7067642234455
 20
195.4027441609634
 30
0.0
 10
144.7692875805703
 20
195.3737886615671
 30
0.0
 10
144.9218569214086
 20
195.3031315238238
 30
0.0
 10
145.0382373301906
 20
195.177858776865
 30
0.0
 10
145.1063299307113
 20
195.1056487565959
 30
0.0
 10
145.1067650340687
 20
195.1051873434319
 30
0.0
  0
SPLINE
  5
10A
330
1F
100
AcDbEntity
  8
0
  6
Continuous
 62
     7
370
    25
100
AcDbSpline
210
0.0
220
0.0
230
1.0
 70
     8
 71
     3
 72
    10
 73
     6
 74
     0
 42
0.000000001
 43
0.00000001
 40
0.0
 40
0.0
 40
0.0
 40
0.0
 40
0.0037521809382603
 40
0.616426759031095
 40
1.0
 40
1.0
 40
1.0
 40
1.0
 10
145.1067650340687
 20
198.0559510458244
 30
0.0
 10
145.1063299195085
 20
198.0559188002775
 30
0.0
 10
145.0348471571974
 20
198.0506213430584
 30
0.0
 10
144.918969868178
 20
198.0367337585942
 30
0.0
 10
144.7657547761046
 20
198.0246306250425
 30
0.0
 10
144.7067642234455
 20
198.0199707020058
 30
0.0
  0
LINE
  5
10B
330
1F
100
AcDbEntity
  8
0
  6
Continuous
 62
     7
370
    25
100
AcDbLine
 10
145.1067650341
 20
198.0559510458
 30
0.0
 11
145.1067650341
 21
195.1051873434
 31
0.0
  0
SPLINE
  5
10C
330
1F
100
AcDbEntity
  8
0
  6
Continuous
 62
     7
370
    25
100
AcDbSpline
210
0.0
220
0.0
230
1.0
 70
     8
 71
     3
 72
    11
 73
     7
 74
     0
 42
0.000000001
 43
0.00000001
 40
0.0
 40
0.0
 40
0.0
 40
0.0
 40
0.3833434105418153
 40
0.6883374085199412
 40
0.9962500673034194
 40
0.9999999999999999
 40
0.9999999999999999
 40
0.9999999999999999
 40
0.9999999999999999
 10
144.7067642234455
 20
191.5076446998848
 30
0.0
 10
144.7659324834716
 20
191.5030369415646
 30
0.0
 10
144.8721759342603
 20
191.4947631788391
 30
0.0
 10
144.9973276585706
 20
191.4808596801766
 30
0.0
 10
145.0701696001994
 20
191.4743775520209
 30
0.0
 10
145.1063299517447
 20
191.4716966131943
 30
0.0
 10
145.1067650340687
 20
191.4716643560661
 30
0.0
  0
LINE
  5
10D
330
1F
100
AcDbEntity
  8
0
  6
Continuous
 62
     7
370
    25
100
AcDbLine
 10
145.1067650341
 20
194.4224280585
 30
0.0
 11
145.1067650341
 21
191.4716643561
 31
0.0
  0
LINE
  5
10E
330
1F
100
AcDbEntity
  8
0
  6
Continuous
 62
     7
370
    25
100
AcDbLine
 10
144.7067642234
 20
184.9552032817
 30
0.0
 11
144.7067642234
 21
184.3638089765
 31
0.0
  0
LINE
  5
10F
330
1F
100
AcDbEntity
  8
0
  6
Continuous
 62
     7
370
    25
100
AcDbLine
 10
144.7067642234
 20
205.163807543
 30
0.0
 11
144.7067642234
 21
204.5724121202
 31
0.0
  0
SPLINE
  5
110
330
1F
100
AcDbEntity
  8
0
  6
Continuous
 62
     7
370
    25
100
AcDbSpline
210
0.0
220
0.0
230
1.0
 70
     8
 71
     3
 72
    12
 73
     8
 74
     0
 42
0.000000001
 43
0.00000001
 40
0.0
 40
0.0
 40
0.0
 40
0.0
 40
0.1394663224238302
 40
0.3538121435907006
 40
0.5689665170547489
 40
0.7844849814422453
 40
1.0
 40
1.0
 40
1.0
 40
1.0
 10
145.1067650340687
 20
191.4716643560661
 30
0.0
 10
145.0775273449899
 20
191.4697392021038
 30
0.0
 10
145.0033542452279
 20
191.4648552785994
 30
0.0
 10
144.8908502381235
 20
191.4167013620171
 30
0.0
 10
144.7891734822253
 20
191.3255962232153
 30
0.0
 10
144.7200780340644
 20
191.2049619799498
 30
0.0
 10
144.7112021366662
 20
191.1144649353451
 30
0.0
 10
144.7067642234455
 20
191.0692167747749
 30
0.0
  0
SPLINE
  5
111
330
1F
100
AcDbEntity
  8
0
  6
Continuous
 62
     7
370
    25
100
AcDbSpline
210
0.0
220
0.0
230
1.0
 70
     8
 71
     3
 72
    12
 73
     8
 74
     0
 42
0.000000001
 43
0.00000001
 40
0.0
 40
0.0
 40
0.0
 40
0.0
 40
0.1351074399233721
 40
0.3503852281728412
 40
0.5650362948596966
 40
0.7789013047589732
 40
0.9999999999999999
 40
0.9999999999999999
 40
0.9999999999999999
 40
0.9999999999999999
 10
144.7067642234455
 20
198.4583978820576
 30
0.0
 10
144.7085366934224
 20
198.4301257707676
 30
0.0
 10
144.7131333854894
 20
198.3568053809292
 30
0.0
 10
144.7592942100459
 20
198.2446652676616
 30
0.0
 10
144.8484959894191
 20
198.1417552420764
 30
0.0
 10
144.9687386393733
 20
198.070109630706
 30
0.0
 10
145.0602489469431
 20
198.0607226112151
 30
0.0
 10
145.1067650340687
 20
198.0559510458244
 30
0.0
  0
LINE
  5
112
330
1F
100
AcDbEntity
  8
0
  6
Continuous
 62
     7
370
    25
100
AcDbLine
 10
145.1067650341
 20
198.063806938
 30
0.0
 11
145.1067650341
 21
198.0559510458
 31
0.0
  0
LINE
  5
113
330
1F
100
AcDbEntity
  8
0
  6
Continuous
 62
     7
370
    25
100
AcDbLine
 10
145.1067650341
 20
191.4716643561
 30
0.0
 11
145.1067650341
 21
191.4638069738
 31
0.0
  0
LINE
  5
114
330
1F
100
AcDbEntity
  8
0
  6
Continuous
 62
     7
370
    25
100
AcDbLine
 10
75.7067644619
 20
184.9552032817
 30
0.0
 11
75.7067644619
 21
194.7638077009
 31
0.0
  0
LINE
  5
115
330
1F
100
AcDbEntity
  8
0
  6
Continuous
 62
     7
370
    25
100
AcDbLine
 10
75.7067644619
 20
194.7638077009
 30
0.0
 11
75.7067644619
 21
204.5724121202
 31
0.0
  0
SPLINE
  5
116
330
1F
100
AcDbEntity
  8
0
  6
Continuous
 62
     7
370
    25
100
AcDbSpline
210
0.0
220
0.0
230
1.0
 70
     8
 71
     3
 72
    11
 73
     7
 74
     0
 42
0.000000001
 43
0.00000001
 40
0.0
 40
0.0
 40
0.0
 40
0.0
 40
0.0037789469317313
 40
0.2992979628761324
 40
0.5919886647591482
 40
1.0
 40
1.0
 40
1.0
 40
1.0
 10
75.3067636512409
 20
195.1051873434319
 30
0.0
 10
75.30719872490249
 20
195.1056488317366
 30
0.0
 10
75.34165717668121
 20
195.1421993607568
 30
0.0
 10
75.41131137890417
 20
195.2126691813593
 30
0.0
 10
75.53638578917534
 20
195.3250015565079
 30
0.0
 10
75.6440643705032
 20
195.374134544953
 30
0.0
 10
75.70676446186405
 20
195.4027441609634
 30
0.0
  0
LINE
  5
117
330
1F
100
AcDbEntity
  8
0
  6
Continuous
 62
     7
370
    25
100
AcDbLine
 10
75.3067636512
 20
194.4224280585
 30
0.0
 11
75.3067636512
 21
195.1051873434
 31
0.0
  0
SPLINE
  5
118
330
1F
100
AcDbEntity
  8
0
  6
Continuous
 62
     7
370
    25
100
AcDbSpline
210
0.0
220
0.0
230
1.0
 70
     8
 71
     3
 72
    10
 73
     6
 74
     0
 42
0.000000001
 43
0.00000001
 40
0.0
 40
0.0
 40
0.0
 40
0.0
 40
0.4082517227410928
 40
0.9962188138919076
 40
1.0
 40
1.0
 40
1.0
 40
1.0
 10
75.70676446186405
 20
194.1248712409271
 30
0.0
 10
75.64424100868334
 20
194.1538261035826
 30
0.0
 10
75.49167082490082
 20
194.224481969374
 30
0.0
 10
75.3752915859991
 20
194.3497563838724
 30
0.0
 10
75.30719875460834
 20
194.4219666453074
 30
0.0
 10
75.3067636512409
 20
194.4224280584587
 30
0.0
  0
SPLINE
  5
119
330
1F
100
AcDbEntity
  8
0
  6
Continuous
 62
     7
370
    25
100
AcDbSpline
210
0.0
220
0.0
230
1.0
 70
     8
 71
     3
 72
    11
 73
     7
 74
     0
 42
0.000000001
 43
0.00000001
 40
0.0
 40
0.0
 40
0.0
 40
0.0
 40
0.3833434105418153
 40
0.6883374085199412
 40
0.9962500673034194
 40
0.9999999999999999
 40
0.9999999999999999
 40
0.9999999999999999
 40
0.9999999999999999
 10
75.70676446186405
 20
198.0199707020058
 30
0.0
 10
75.64759620183789
 20
198.024578460326
 30
0.0
 10
75.54135275104926
 20
198.0328522230515
 30
0.0
 10
75.41620102673895
 20
198.0467557217139
 30
0.0
 10
75.34335908511012
 20
198.0532378498698
 30
0.0
 10
75.30719873356482
 20
198.0559187886962
 30
0.0
 10
75.3067636512409
 20
198.0559510458244
 30
0.0
  0
LINE
  5
11A
330
1F
100
AcDbEntity
  8
0
  6
Continuous
 62
     7
370
    25
100
AcDbLine
 10
75.3067636512
 20
195.1051873434
 30
0.0
 11
75.3067636512
 21
198.0559510458
 31
0.0
  0
SPLINE
  5
11B
330
1F
100
AcDbEntity
  8
0
  6
Continuous
 62
     7
370
    25
100
AcDbSpline
210
0.0
220
0.0
230
1.0
 70
     8
 71
     3
 72
    10
 73
     6
 74
     0
 42
0.000000001
 43
0.00000001
 40
0.0
 40
0.0
 40
0.0
 40
0.0
 40
0.0037521809382603
 40
0.616426759031095
 40
1.0
 40
1.0
 40
1.0
 40
1.0
 10
75.3067636512409
 20
191.4716643560661
 30
0.0
 10
75.30719876580109
 20
191.4716966016131
 30
0.0
 10
75.37868152811214
 20
191.4769940588324
 30
0.0
 10
75.49455881713149
 20
191.4908816432964
 30
0.0
 10
75.64777390920489
 20
191.5029847768481
 30
0.0
 10
75.70676446186405
 20
191.5076446998848
 30
0.0
  0
LINE
  5
11C
330
1F
100
AcDbEntity
  8
0
  6
Continuous
 62
     7
370
    25
100
AcDbLine
 10
75.3067636512
 20
191.4716643561
 30
0.0
 11
75.3067636512
 21
194.4224280585
 31
0.0
  0
LINE
  5
11D
330
1F
100
AcDbEntity
  8
0
  6
Continuous
 62
     7
370
    25
100
AcDbLine
 10
75.7067644619
 20
204.5724121202
 30
0.0
 11
75.7067644619
 21
205.163807543
 31
0.0
  0
LINE
  5
11E
330
1F
100
AcDbEntity
  8
0
  6
Continuous
 62
     7
370
    25
100
AcDbLine
 10
75.7067644619
 20
184.3638089765
 30
0.0
 11
75.7067644619
 21
184.9552032817
 31
0.0
  0
SPLINE
  5
11F
330
1F
100
AcDbEntity
  8
0
  6
Continuous
 62
     7
370
    25
100
AcDbSpline
210
0.0
220
0.0
230
1.0
 70
     8
 71
     3
 72
    12
 73
     8
 74
     0
 42
0.000000001
 43
0.00000001
 40
0.0
 40
0.0
 40
0.0
 40
0.0
 40
0.1394661338909883
 40
0.3538129714386422
 40
0.5689674580226506
 40
0.7844860357215321
 40
1.0
 40
1.0
 40
1.0
 40
1.0
 10
75.3067636512409
 20
198.0559510458244
 30
0.0
 10
75.3360013813815
 20
198.0578755302691
 30
0.0
 10
75.41017485913243
 20
198.0627577732971
 30
0.0
 10
75.52267807197055
 20
198.1109146176313
 30
0.0
 10
75.62435526681708
 20
198.2020189901768
 30
0.0
 10
75.69345050502048
 20
198.322653250139
 30
0.0
 10
75.7023265079167
 20
198.4131499942858
 30
0.0
 10
75.70676446186405
 20
198.4583978820576
 30
0.0
  0
SPLINE
  5
120
330
1F
100
AcDbEntity
  8
0
  6
Continuous
 62
     7
370
    25
100
AcDbSpline
210
0.0
220
0.0
230
1.0
 70
     8
 71
     3
 72
    12
 73
     8
 74
     0
 42
0.000000001
 43
0.00000001
 40
0.0
 40
0.0
 40
0.0
 40
0.0
 40
0.1351096261295876
 40
0.3503860435592419
 40
0.5650368408194028
 40
0.7789015822786312
 40
1.0
 40
1.0
 40
1.0
 40
1.0
 10
75.70676446186405
 20
191.0692167747749
 30
0.0
 10
75.70499205391506
 20
191.0974893961773
 30
0.0
 10
75.70039558639004
 20
191.17081009314
 30
0.0
 10
75.6542342421907
 20
191.2829502817987
 30
0.0
 10
75.56503271723972
 20
191.3858601673287
 30
0.0
 10
75.44479004039628
 20
191.4575057692345
 30
0.0
 10
75.35327973649947
 20
191.4668927900183
 30
0.0
 10
75.3067636512409
 20
191.4716643560661
 30
0.0
  0
LINE
  5
121
330
1F
100
AcDbEntity
  8
0
  6
Continuous
 62
     7
370
    25
100
AcDbLine
 10
75.3067636512
 20
191.4638069738
 30
0.0
 11
75.3067636512
 21
191.4716643561
 31
0.0
  0
LINE
  5
122
330
1F
100
AcDbEntity
  8
0
  6
Continuous
 62
     7
370
    25
100
AcDbLine
 10
75.3067636512
 20
198.0559510458
 30
0.0
 11
75.3067636512
 21
198.063806938
 31
0.0
  0
LINE
  5
123
330
1F
100
AcDbEntity
  8
0
  6
Continuous
 62
     7
370
    25
100
AcDbLine
 10
100.2067641936
 20
177.263807999
 30
0.0
 11
90.0067636393
 21
177.263807999
 31
0.0
  0
LINE
  5
124
330
1F
100
AcDbEntity
  8
0
  6
Continuous
 62
     7
370
    25
100
AcDbLine
 10
89.8152613662
 20
179.9838063586
 30
0.0
 11
88.4381273411
 21
179.9838063586
 31
0.0
  0
LINE
  5
125
330
1F
100
AcDbEntity
  8
0
  6
Continuous
 62
     7
370
    25
100
AcDbLine
 10
85.7705542468
 20
179.9838063586
 30
0.0
 11
85.6405743979
 21
179.9838063586
 31
0.0
  0
LINE
  5
126
330
1F
100
AcDbEntity
  8
0
  6
Continuous
 62
     7
370
    25
100
AcDbLine
 10
104.5729545526
 20
179.9838063586
 30
0.0
 11
104.4381277286
 21
179.9838063586
 31
0.0
  0
LINE
  5
127
330
1F
100
AcDbEntity
  8
0
  6
Continuous
 62
     7
370
    25
100
AcDbLine
 10
101.7705538891
 20
179.9838063586
 30
0.0
 11
100.3982672118
 21
179.9838063586
 31
0.0
  0
LINE
  5
128
330
1F
100
AcDbEntity
  8
0
  6
Continuous
 62
     7
370
    25
100
AcDbLine
 10
85.6405743979
 20
179.9838063586
 30
0.0
 11
84.9067652248
 21
179.9838063586
 31
0.0
  0
LINE
  5
129
330
1F
100
AcDbEntity
  8
0
  6
Continuous
 62
     7
370
    25
100
AcDbLine
 10
105.3067644708
 20
179.9838063586
 30
0.0
 11
104.5729545526
 21
179.9838063586
 31
0.0
  0
LINE
  5
12A
330
1F
100
AcDbEntity
  8
0
  6
Continuous
 62
     7
370
    25
100
AcDbLine
 10
132.2067642234
 20
177.4438080657
 30
0.0
 11
122.0067644142
 21
177.4438080657
 31
0.0
  0
SPLINE
  5
12B
330
1F
100
AcDbEntity
  8
0
  6
Continuous
 62
     7
370
    25
100
AcDbSpline
210
0.0
220
0.0
230
1.0
 70
     8
 71
     3
 72
    12
 73
     8
 74
     0
 42
0.000000001
 43
0.00000001
 40
0.0
 40
0.0
 40
0.0
 40
0.0
 40
0.1795108785398584
 40
0.4638289750993572
 40
0.7592201066363891
 40
0.9959863677917902
 40
0.9999999999999999
 40
0.9999999999999999
 40
0.9999999999999999
 40
0.9999999999999999
 10
136.7441260837207
 20
180.5103180278076
 30
0.0
 10
136.7388872521364
 20
180.4725242709841
 30
0.0
 10
136.7253509032296
 20
180.3748709162951
 30
0.0
 10
136.6844534899466
 20
180.2578357005338
 30
0.0
 10
136.6311824619403
 20
180.1797046471301
 30
0.0
 10
136.5914348576069
 20
180.163887931126
 30
0.0
 10
136.5732564855863
 20
180.1638077617729
 30
0.0
 10
136.5729534648548
 20
180.1638064254059
 30
0.0
  0
LINE
  5
12C
330
1F
100
AcDbEntity
  8
0
  6
Continuous
 62
     7
370
    25
100
AcDbLine
 10
136.5729534649
 20
180.1638064254
 30
0.0
 11
132.3982664965
 21
180.1638064254
 31
0.0
  0
LINE
  5
12D
330
1F
100
AcDbEntity
  8
0
  6
Continuous
 62
     7
370
    25
100
AcDbLine
 10
121.815261396
 20
180.1638064254
 30
0.0
 11
117.6405736827
 21
180.1638064254
 31
0.0
  0
LINE
  5
12E
330
1F
100
AcDbEntity
  8
0
  6
Continuous
 62
     7
370
    25
100
AcDbLine
 10
137.3067641281
 20
180.1638064254
 30
0.0
 11
136.5729534649
 21
180.1638064254
 31
0.0
  0
LINE
  5
12F
330
1F
100
AcDbEntity
  8
0
  6
Continuous
 62
     7
370
    25
100
AcDbLine
 10
117.6405736827
 20
180.1638064254
 30
0.0
 11
116.9067645095
 21
180.1638064254
 31
0.0
  0
ELLIPSE
  5
130
330
1F
100
AcDbEntity
  8
0
  6
Continuous
 62
     7
370
    25
100
AcDbEllipse
 10
141.0063530569
 20
183.0642188317
 30
0.0
 11
1.909769910757859
 21
-1.909769910757859
 31
0.0
210
0.0
220
0.0
230
1.0
 40
0.9996954599
 41
0.7261129271811935
 42
0.7852458701498755
  0
ELLIPSE
  5
131
330
1F
100
AcDbEntity
  8
0
  6
Continuous
 62
     7
370
    25
100
AcDbEllipse
 10
140.9335086071
 20
183.1370632815
 30
0.0
 11
2.539416399645319
 21
-1.077918309519106
 31
0.0
210
0.0
220
0.0
230
1.0
 40
0.9751955544
 41
0.0969060091214255
 42
0.3240669365865716
  0
ELLIPSE
  5
132
330
1F
100
AcDbEntity
  8
0
  6
Continuous
 62
     7
370
    25
100
AcDbEllipse
 10
141.0063530569
 20
183.0642188317
 30
0.0
 11
1.909769910757859
 21
-1.909769910757859
 31
0.0
210
0.0
220
0.0
230
1.0
 40
0.9996954599
 41
5.497939437029736
 42
6.783284049686826
  0
ELLIPSE
  5
133
330
1F
100
AcDbEntity
  8
0
  6
Continuous
 62
     7
370
    25
100
AcDbEllipse
 10
79.4071756284
 20
238.6633962603
 30
0.0
 11
-1.909769910757859
 21
1.909769910757859
 31
0.0
210
0.0
220
0.0
230
1.0
 40
0.9996954599
 41
0.7261129271811805
 42
0.785245870149863
  0
ELLIPSE
  5
134
330
1F
100
AcDbEntity
  8
0
  6
Continuous
 62
     7
370
    25
100
AcDbEllipse
 10
79.4800200782
 20
238.5905518104
 30
0.0
 11
2.539416399645319
 21
-1.077918309519077
 31
0.0
210
0.0
220
0.0
230
1.0
 40
0.9751955544
 41
3.238498662711215
 42
3.465659590176361
  0
ELLIPSE
  5
135
330
1F
100
AcDbEntity
  8
0
  6
Continuous
 62
     7
370
    25
100
AcDbEllipse
 10
79.4071756284
 20
238.6633962603
 30
0.0
 11
-1.909769910757859
 21
1.909769910757859
 31
0.0
210
0.0
220
0.0
230
1.0
 40
0.9996954599
 41
5.497939437029737
 42
6.783284049686813
  0
ELLIPSE
  5
136
330
1F
100
AcDbEntity
  8
0
  6
Continuous
 62
     7
370
    25
100
AcDbEllipse
 10
141.0063530569
 20
238.6633962603
 30
0.0
 11
1.909769910757888
 21
1.909769910757888
 31
0.0
210
0.0
220
0.0
230
1.0
 40
0.9996954599
 41
5.78308656467236
 42
7.068431177329458
  0
ELLIPSE
  5
137
330
1F
100
AcDbEntity
  8
0
  6
Continuous
 62
     7
370
    25
100
AcDbEllipse
 10
140.9335086071
 20
238.5905518104
 30
0.0
 11
2.53941639964529
 21
1.077918309519077
 31
0.0
210
0.0
220
0.0
230
1.0
 40
0.9751955544
 41
5.95911837059303
 42
6.186279298058163
  0
ELLIPSE
  5
138
330
1F
100
AcDbEntity
  8
0
  6
Continuous
 62
     7
370
    25
100
AcDbEllipse
 10
141.0063530569
 20
238.6633962603
 30
0.0
 11
1.909769910757888
 21
1.909769910757888
 31
0.0
210
0.0
220
0.0
230
1.0
 40
0.9996954599
 41
5.497939437029729
 42
5.557072379998409
  0
ELLIPSE
  5
139
330
1F
100
AcDbEntity
  8
0
  6
Continuous
 62
     7
370
    25
100
AcDbEllipse
 10
79.4071756284
 20
183.0642188317
 30
0.0
 11
-1.909769910757859
 21
-1.909769910757859
 31
0.0
210
0.0
220
0.0
230
1.0
 40
0.9996954599
 41
5.783086564672361
 42
7.068431177329449
  0
ELLIPSE
  5
13A
330
1F
100
AcDbEntity
  8
0
  6
Continuous
 62
     7
370
    25
100
AcDbEllipse
 10
79.4800200782
 20
183.1370632815
 30
0.0
 11
2.539416399645319
 21
1.077918309519077
 31
0.0
210
0.0
220
0.0
230
1.0
 40
0.9751955544
 41
2.817525717003236
 42
3.044686644468385
  0
ELLIPSE
  5
13B
330
1F
100
AcDbEntity
  8
0
  6
Continuous
 62
     7
370
    25
100
AcDbEllipse
 10
79.4071756284
 20
183.0642188317
 30
0.0
 11
-1.909769910757859
 21
-1.909769910757859
 31
0.0
210
0.0
220
0.0
230
1.0
 40
0.9996954599
 41
5.497939437029737
 42
5.557072379998409
  0
LINE
  5
13C
330
1F
100
AcDbEntity
  8
0
  6
Continuous
 62
     7
370
    25
100
AcDbLine
 10
141.0071754478
 20
241.3638082612
 30
0.0
 11
137.906765344
 21
241.3638082612
 31
0.0
  0
LINE
  5
13D
330
1F
100
AcDbEntity
  8
0
  6
Continuous
 62
     7
370
    25
100
AcDbLine
 10
116.3067644112
 20
241.3638082612
 30
0.0
 11
79.4063532375
 21
241.3638082612
 31
0.0
  0
LINE
  5
13E
330
1F
100
AcDbEntity
  8
0
  6
Continuous
 62
     7
370
    25
100
AcDbLine
 10
79.4063532375
 20
180.3638068307
 30
0.0
 11
84.3485528253
 21
180.3638068307
 31
0.0
  0
LINE
  5
13F
330
1F
100
AcDbEntity
  8
0
  6
Continuous
 62
     7
370
    25
100
AcDbLine
 10
105.8649757527
 20
180.3638068307
 30
0.0
 11
116.4595508598
 21
180.3638068307
 31
0.0
  0
LINE
  5
140
330
1F
100
AcDbEntity
  8
0
  6
Continuous
 62
     7
370
    25
100
AcDbLine
 10
137.7539777778
 20
180.3638068307
 30
0.0
 11
141.0071754478
 21
180.3638068307
 31
0.0
  0
LINE
  5
141
330
1F
100
AcDbEntity
  8
0
  6
Continuous
 62
     7
370
    25
100
AcDbLine
 10
143.7067651771
 20
236.1638066638
 30
0.0
 11
143.7067651771
 21
238.6642185319
 31
0.0
  0
LINE
  5
142
330
1F
100
AcDbEntity
  8
0
  6
Continuous
 62
     7
370
    25
100
AcDbLine
 10
143.7067651771
 20
221.2638077605
 30
0.0
 11
143.7067651771
 21
228.9638069738
 31
0.0
  0
LINE
  5
143
330
1F
100
AcDbEntity
  8
0
  6
Continuous
 62
     7
370
    25
100
AcDbLine
 10
143.619489076
 20
205.5638076086
 30
0.0
 11
143.619489076
 21
205.9637894202
 31
0.0
  0
LINE
  5
144
330
1F
100
AcDbEntity
  8
0
  6
Continuous
 62
     7
370
    25
100
AcDbLine
 10
143.7067651771
 20
183.06339656
 30
0.0
 11
143.7067651771
 21
183.9638081659
 31
0.0
  0
LINE
  5
145
330
1F
100
AcDbEntity
  8
0
  6
Continuous
 62
     7
370
    25
100
AcDbLine
 10
76.7067635082
 20
183.9638081659
 30
0.0
 11
76.7067635082
 21
183.06339656
 31
0.0
  0
LINE
  5
146
330
1F
100
AcDbEntity
  8
0
  6
Continuous
 62
     7
370
    25
100
AcDbLine
 10
76.7940396093
 20
205.9637894202
 30
0.0
 11
76.7940396093
 21
205.5638076086
 31
0.0
  0
LINE
  5
147
330
1F
100
AcDbEntity
  8
0
  6
Continuous
 62
     7
370
    25
100
AcDbLine
 10
76.7067635082
 20
228.9638069738
 30
0.0
 11
76.7067635082
 21
221.2638077605
 31
0.0
  0
LINE
  5
148
330
1F
100
AcDbEntity
  8
0
  6
Continuous
 62
     7
370
    25
100
AcDbLine
 10
76.7067635082
 20
238.6642185319
 30
0.0
 11
76.7067635082
 21
236.1638066638
 31
0.0
  0
LINE
  5
149
330
1F
100
AcDbEntity
  8
0
  6
Continuous
 62
     7
370
    25
100
AcDbLine
 10
76.5067631029
 20
205.5638076086
 30
0.0
 11
76.5067631029
 21
220.2638072241
 31
0.0
  0
LINE
  5
14A
330
1F
100
AcDbEntity
  8
0
  6
Continuous
 62
     7
370
    25
100
AcDbLine
 10
76.7615908407
 20
221.2638077605
 30
0.0
 11
76.5067631029
 21
221.2638077605
 31
0.0
  0
LINE
  5
14B
330
1F
100
AcDbEntity
  8
0
  6
Continuous
 62
     7
370
    25
100
AcDbLine
 10
76.5067631029
 20
220.2638072241
 30
0.0
 11
76.5067631029
 21
221.2638077605
 31
0.0
  0
LINE
  5
14C
330
1F
100
AcDbEntity
  8
0
  6
Continuous
 62
     7
370
    25
100
AcDbLine
 10
143.9067655824
 20
220.2638072241
 30
0.0
 11
143.9067655824
 21
205.5638076086
 31
0.0
  0
LINE
  5
14D
330
1F
100
AcDbEntity
  8
0
  6
Continuous
 62
     7
370
    25
100
AcDbLine
 10
143.6519020818
 20
221.2638077605
 30
0.0
 11
143.9067655824
 21
221.2638077605
 31
0.0
  0
LINE
  5
14E
330
1F
100
AcDbEntity
  8
0
  6
Continuous
 62
     7
370
    25
100
AcDbLine
 10
143.9067655824
 20
221.2638077605
 30
0.0
 11
143.9067655824
 21
220.2638072241
 31
0.0
  0
LINE
  5
14F
330
1F
100
AcDbEntity
  8
0
  6
Continuous
 62
     7
370
    25
100
AcDbLine
 10
143.9067655824
 20
228.9638069738
 30
0.0
 11
143.651955726
 21
228.9638069738
 31
0.0
  0
LINE
  5
150
330
1F
100
AcDbEntity
  8
0
  6
Continuous
 62
     7
370
    25
100
AcDbLine
 10
143.9067655824
 20
229.7638071049
 30
0.0
 11
143.9067655824
 21
228.9638069738
 31
0.0
  0
LINE
  5
151
330
1F
100
AcDbEntity
  8
0
  6
Continuous
 62
     7
370
    25
100
AcDbLine
 10
76.5067631029
 20
236.1638066638
 30
0.0
 11
76.7615729593
 21
236.1638066638
 31
0.0
  0
LINE
  5
152
330
1F
100
AcDbEntity
  8
0
  6
Continuous
 62
     7
370
    25
100
AcDbLine
 10
76.5067631029
 20
235.3638080228
 30
0.0
 11
76.5067631029
 21
236.1638066638
 31
0.0
  0
LINE
  5
153
330
1F
100
AcDbEntity
  8
0
  6
Continuous
 62
     7
370
    25
100
AcDbLine
 10
143.9067655824
 20
229.7638071049
 30
0.0
 11
143.9067655824
 21
235.3638080228
 31
0.0
  0
LINE
  5
154
330
1F
100
AcDbEntity
  8
0
  6
Continuous
 62
     7
370
    25
100
AcDbLine
 10
143.651955726
 20
236.1638066638
 30
0.0
 11
143.9067655824
 21
236.1638066638
 31
0.0
  0
LINE
  5
155
330
1F
100
AcDbEntity
  8
0
  6
Continuous
 62
     7
370
    25
100
AcDbLine
 10
143.9067655824
 20
236.1638066638
 30
0.0
 11
143.9067655824
 21
235.3638080228
 31
0.0
  0
LINE
  5
156
330
1F
100
AcDbEntity
  8
0
  6
Continuous
 62
     7
370
    25
100
AcDbLine
 10
76.7615729593
 20
228.9638069738
 30
0.0
 11
76.5067631029
 21
228.9638069738
 31
0.0
  0
LINE
  5
157
330
1F
100
AcDbEntity
  8
0
  6
Continuous
 62
     7
370
    25
100
AcDbLine
 10
76.5067631029
 20
228.9638069738
 30
0.0
 11
76.5067631029
 21
229.7638071049
 31
0.0
  0
LINE
  5
158
330
1F
100
AcDbEntity
  8
0
  6
Continuous
 62
     7
370
    25
100
AcDbLine
 10
76.5067631029
 20
229.7638071049
 30
0.0
 11
76.5067631029
 21
235.3638080228
 31
0.0
  0
LINE
  5
159
330
1F
100
AcDbEntity
  8
0
  6
Continuous
 62
     7
370
    25
100
AcDbLine
 10
76.3067656778
 20
182.3038068879
 30
0.0
 11
76.3067656778
 21
182.9038081039
 31
0.0
  0
LINE
  5
15A
330
1F
100
AcDbEntity
  8
0
  6
Continuous
 62
     7
370
    25
100
AcDbLine
 10
76.7380619072
 20
182.9038081039
 30
0.0
 11
76.3067656778
 21
182.9038081039
 31
0.0
  0
LINE
  5
15B
330
1F
100
AcDbEntity
  8
0
  6
Continuous
 62
     7
370
    25
100
AcDbLine
 10
76.8508100532
 20
182.3038068879
 30
0.0
 11
76.3067656778
 21
182.3038068879
 31
0.0
  0
LINE
  5
15C
330
1F
100
AcDbEntity
  8
0
  6
Continuous
 62
     7
370
    25
100
AcDbLine
 10
76.7380619072
 20
238.8238069881
 30
0.0
 11
76.3067656778
 21
238.8238069881
 31
0.0
  0
LINE
  5
15D
330
1F
100
AcDbEntity
  8
0
  6
Continuous
 62
     7
370
    25
100
AcDbLine
 10
76.3067656778
 20
239.423808204
 30
0.0
 11
76.3067656778
 21
238.8238069881
 31
0.0
  0
LINE
  5
15E
330
1F
100
AcDbEntity
  8
0
  6
Continuous
 62
     7
370
    25
100
AcDbLine
 10
76.8508100532
 20
239.423808204
 30
0.0
 11
76.3067656778
 21
239.423808204
 31
0.0
  0
LINE
  5
15F
330
1F
100
AcDbEntity
  8
0
  6
Continuous
 62
     7
370
    25
100
AcDbLine
 10
143.6754667781
 20
182.9038081039
 30
0.0
 11
144.1067630075
 21
182.9038081039
 31
0.0
  0
LINE
  5
160
330
1F
100
AcDbEntity
  8
0
  6
Continuous
 62
     7
370
    25
100
AcDbLine
 10
144.1067630075
 20
182.3038068879
 30
0.0
 11
144.1067630075
 21
182.9038081039
 31
0.0
  0
LINE
  5
161
330
1F
100
AcDbEntity
  8
0
  6
Continuous
 62
     7
370
    25
100
AcDbLine
 10
143.5627186321
 20
182.3038068879
 30
0.0
 11
144.1067630075
 21
182.3038068879
 31
0.0
  0
LINE
  5
162
330
1F
100
AcDbEntity
  8
0
  6
Continuous
 62
     7
370
    25
100
AcDbLine
 10
144.1067630075
 20
239.423808204
 30
0.0
 11
144.1067630075
 21
238.8238069881
 31
0.0
  0
LINE
  5
163
330
1F
100
AcDbEntity
  8
0
  6
Continuous
 62
     7
370
    25
100
AcDbLine
 10
143.6754667781
 20
238.8238069881
 30
0.0
 11
144.1067630075
 21
238.8238069881
 31
0.0
  0
LINE
  5
164
330
1F
100
AcDbEntity
  8
0
  6
Continuous
 62
     7
370
    25
100
AcDbLine
 10
143.5627186321
 20
239.423808204
 30
0.0
 11
144.1067630075
 21
239.423808204
 31
0.0
  0
ARC
  5
165
330
1F
100
AcDbEntity
  8
0
  6
Continuous
 62
     7
370
    25
100
AcDbCircle
 10
141.0067643427
 20
238.663807546
 30
0.0
 40
2.900000000000006
100
AcDbArc
 50
0.0
 51
3.1627524092
  0
LINE
  5
166
330
1F
100
AcDbEntity
  8
0
  6
Continuous
 62
     7
370
    25
100
AcDbLine
 10
143.9067655824
 20
236.1638066638
 30
0.0
 11
143.9067655824
 21
238.6638072599
 31
0.0
  0
ARC
  5
167
330
1F
100
AcDbEntity
  8
0
  6
Continuous
 62
     7
370
    25
100
AcDbCircle
 10
79.4067643427
 20
183.063807546
 30
0.0
 40
2.899999999999996
100
AcDbArc
 50
180.0
 51
183.1627524092
  0
LINE
  5
168
330
1F
100
AcDbEntity
  8
0
  6
Continuous
 62
     7
370
    25
100
AcDbLine
 10
76.5067631029
 20
183.9638081659
 30
0.0
 11
76.5067631029
 21
183.0638078321
 31
0.0
  0
ARC
  5
169
330
1F
100
AcDbEntity
  8
0
  6
Continuous
 62
     7
370
    25
100
AcDbCircle
 10
79.4067643427
 20
238.663807546
 30
0.0
 40
2.899999999999996
100
AcDbArc
 50
176.8372475908
 51
180.0
  0
LINE
  5
16A
330
1F
100
AcDbEntity
  8
0
  6
Continuous
 62
     7
370
    25
100
AcDbLine
 10
76.5067631029
 20
238.6638072599
 30
0.0
 11
76.5067631029
 21
236.1638066638
 31
0.0
  0
ARC
  5
16B
330
1F
100
AcDbEntity
  8
0
  6
Continuous
 62
     7
370
    25
100
AcDbCircle
 10
141.0067643427
 20
183.063807546
 30
0.0
 40
2.900000000000024
100
AcDbArc
 50
356.8372475908
 51
0.0
  0
LINE
  5
16C
330
1F
100
AcDbEntity
  8
0
  6
Continuous
 62
     7
370
    25
100
AcDbLine
 10
143.9067655824
 20
183.0638078321
 30
0.0
 11
143.9067655824
 21
183.9638081659
 31
0.0
  0
LINE
  5
16D
330
1F
100
AcDbEntity
  8
0
  6
Continuous
 62
     7
370
    25
100
AcDbLine
 10
76.5067631029
 20
228.9638069738
 30
0.0
 11
76.5067631029
 21
221.2638077605
 31
0.0
  0
LINE
  5
16E
330
1F
100
AcDbEntity
  8
0
  6
Continuous
 62
     7
370
    25
100
AcDbLine
 10
143.9067655824
 20
221.2638077605
 30
0.0
 11
143.9067655824
 21
228.9638069738
 31
0.0
  0
ARC
  5
16F
330
1F
100
AcDbEntity
  8
0
  6
Continuous
 62
     7
370
    25
100
AcDbCircle
 10
141.0067643427
 20
238.663807546
 30
0.0
 40
2.899999999999987
100
AcDbArc
 50
15.192862725
 51
90.0
  0
LINE
  5
170
330
1F
100
AcDbEntity
  8
0
  6
Continuous
 62
     7
370
    25
100
AcDbLine
 10
141.0067641758
 20
241.5638086665
 30
0.0
 11
137.906765344
 21
241.5638086665
 31
0.0
  0
LINE
  5
171
330
1F
100
AcDbEntity
  8
0
  6
Continuous
 62
     7
370
    25
100
AcDbLine
 10
116.3067644112
 20
241.5638086665
 30
0.0
 11
79.4067645095
 21
241.5638086665
 31
0.0
  0
ARC
  5
172
330
1F
100
AcDbEntity
  8
0
  6
Continuous
 62
     7
370
    25
100
AcDbCircle
 10
79.4067643427
 20
238.663807546
 30
0.0
 40
2.900000000000008
100
AcDbArc
 50
90.0
 51
164.807137275
  0
LINE
  5
173
330
1F
100
AcDbEntity
  8
0
  6
Continuous
 62
     7
370
    25
100
AcDbLine
 10
79.4067645095
 20
180.1638064254
 30
0.0
 11
84.4782793544
 21
180.1638064254
 31
0.0
  0
LINE
  5
174
330
1F
100
AcDbEntity
  8
0
  6
Continuous
 62
     7
370
    25
100
AcDbLine
 10
105.7352499686
 20
180.1638064254
 30
0.0
 11
116.9067645095
 21
180.1638064254
 31
0.0
  0
LINE
  5
175
330
1F
100
AcDbEntity
  8
0
  6
Continuous
 62
     7
370
    25
100
AcDbLine
 10
137.3067641281
 20
180.1638064254
 30
0.0
 11
141.0067641758
 21
180.1638064254
 31
0.0
  0
ARC
  5
176
330
1F
100
AcDbEntity
  8
0
  6
Continuous
 62
     7
370
    25
100
AcDbCircle
 10
79.4067643427
 20
183.063807546
 30
0.0
 40
2.900000000000034
100
AcDbArc
 50
195.192862725
 51
270.0
  0
ARC
  5
177
330
1F
100
AcDbEntity
  8
0
  6
Continuous
 62
     7
370
    25
100
AcDbCircle
 10
141.0067643427
 20
183.063807546
 30
0.0
 40
2.900000000000006
100
AcDbArc
 50
270.0
 51
344.807137275
  0
ELLIPSE
  5
178
330
1F
100
AcDbEntity
  8
0
  6
Continuous
 62
     7
370
    25
100
AcDbEllipse
 10
140.73403607
 20
183.3364998705
 30
0.0
 11
1.909769910757859
 21
-1.909769910757859
 31
0.0
210
0.0
220
0.0
230
1.0
 40
0.9996954599
 41
5.497939437029732
 42
6.778534153124914
  0
SPLINE
  5
179
330
1F
100
AcDbEntity
  8
0
  6
Continuous
 62
     7
370
    25
100
AcDbSpline
210
0.0
220
0.0
230
1.0
 70
     8
 71
     3
 72
    11
 73
     7
 74
     0
 42
0.000000001
 43
0.00000001
 40
0.0
 40
0.0
 40
0.0
 40
0.0
 40
0.2603313587373986
 40
0.5299649819655594
 40
0.7617526740168178
 40
1.0
 40
1.0
 40
1.0
 40
1.0
 10
143.3470541261325
 20
183.4230688679947
 30
0.0
 10
143.3439163537673
 20
183.2886725740507
 30
0.0
 10
143.3375286888966
 20
183.0150776839009
 30
0.0
 10
143.2901366499916
 20
182.7547479089508
 30
0.0
 10
143.2579749255353
 20
182.592672077811
 30
0.0
 10
143.2609178737105
 20
182.5735054458451
 30
0.0
 10
143.262409570087
 20
182.5637904275192
 30
0.0
  0
ELLIPSE
  5
17A
330
1F
100
AcDbEntity
  8
0
  6
Continuous
 62
     7
370
    25
100
AcDbEllipse
 10
79.6794566672
 20
238.3910792733
 30
0.0
 11
-1.909769910757873
 21
1.909769910757859
 31
0.0
210
0.0
220
0.0
230
1.0
 40
0.9996954599
 41
5.497939437029725
 42
7.068431177329455
  0
ELLIPSE
  5
17B
330
1F
100
AcDbEntity
  8
0
  6
Continuous
 62
     7
370
    25
100
AcDbEllipse
 10
140.73403607
 20
238.3910792733
 30
0.0
 11
1.909769910757859
 21
1.909769910757859
 31
0.0
210
0.0
220
0.0
230
1.0
 40
0.9996954599
 41
5.497939437029736
 42
7.068431177329451
  0
SPLINE
  5
17C
330
1F
100
AcDbEntity
  8
0
  6
Continuous
 62
     7
370
    25
100
AcDbSpline
210
0.0
220
0.0
230
1.0
 70
     8
 71
     3
 72
    12
 73
     8
 74
     0
 42
0.000000001
 43
0.00000001
 40
0.0
 40
0.0
 40
0.0
 40
0.0
 40
0.2047564732690466
 40
0.414039924134409
 40
0.64774088107744
 40
0.8877002106347123
 40
1.0
 40
1.0
 40
1.0
 40
1.0
 10
77.15108335243565
 20
182.5637904275192
 30
0.0
 10
77.15282666162283
 20
182.5710519817213
 30
0.0
 10
77.1563518229624
 20
182.5857356364206
 30
0.0
 10
77.13169054693431
 20
182.7089903230619
 30
0.0
 10
77.09430974064979
 20
182.9200906751518
 30
0.0
 10
77.06597993555775
 20
183.1747802263336
 30
0.0
 10
77.06632787402074
 20
183.363049004716
 30
0.0
 10
77.06643879639012
 20
183.4230688679947
 30
0.0
  0
ELLIPSE
  5
17D
330
1F
100
AcDbEntity
  8
0
  6
Continuous
 62
     7
370
    25
100
AcDbEllipse
 10
79.6794566672
 20
183.3364998705
 30
0.0
 11
-1.909769910757859
 21
-1.909769910757859
 31
0.0
210
0.0
220
0.0
230
1.0
 40
0.9996954599
 41
5.787836461234277
 42
7.068431177329449
  0
ELLIPSE
  5
17E
330
1F
100
AcDbEntity
  8
0
  6
Continuous
 62
     7
370
    25
100
AcDbEllipse
 10
143.5287047064
 20
194.7637895719
 30
0.0
 11
-2.842170943040401E-14
 21
15.40000000000001
 31
0.0
210
0.0
220
0.0
230
1.0
 40
0.0174550649
 41
0.7610127542248326
 42
2.380579899364932
  0
ELLIPSE
  5
17F
330
1F
100
AcDbEntity
  8
0
  6
Continuous
 62
     7
370
    25
100
AcDbEllipse
 10
143.3890641869
 20
186.3637895719
 30
0.0
 11
0.0
 21
3.800000000000011
 31
0.0
210
0.0
220
0.0
230
1.0
 40
0.0174550649
 41
2.380579899365229
 42
2.455731142893891
  0
LINE
  5
180
330
1F
100
AcDbEntity
  8
0
  6
Continuous
 62
     7
370
    25
100
AcDbLine
 10
143.4344464563
 20
238.3919027913
 30
0.0
 11
143.4344464563
 21
206.9637895841
 31
0.0
  0
ELLIPSE
  5
181
330
1F
100
AcDbEntity
  8
0
  6
Continuous
 62
     7
370
    25
100
AcDbEllipse
 10
143.3890641869
 20
203.1637895719
 30
0.0
 11
0.0
 21
3.800000000000011
 31
0.0
210
0.0
220
0.0
230
1.0
 40
0.0174550649
 41
0.0
 42
0.761012754224881
  0
ELLIPSE
  5
182
330
1F
100
AcDbEntity
  8
0
  6
Continuous
 62
     7
370
    25
100
AcDbEllipse
 10
111.1067463686
 20
241.0513439097
 30
0.0
 11
1.599999999999994
 21
0.0
 31
0.0
210
0.0
220
0.0
230
1.0
 40
0.0174550649
 41
3.141592653589786
 42
4.712388980384681
  0
ELLIPSE
  5
183
330
1F
100
AcDbEntity
  8
0
  6
Continuous
 62
     7
370
    25
100
AcDbEllipse
 10
111.1067463686
 20
241.0513439097
 30
0.0
 11
1.600000000000009
 21
0.0
 31
0.0
210
0.0
220
0.0
230
1.0
 40
0.0174550649
 41
4.71238898038469
 42
6.283185307179586
  0
LINE
  5
184
330
1F
100
AcDbEntity
  8
0
  6
Continuous
 62
     7
370
    25
100
AcDbLine
 10
112.7067463122
 20
241.0914895404
 30
0.0
 11
114.9067463003
 21
241.0914895404
 31
0.0
  0
ELLIPSE
  5
185
330
1F
100
AcDbEntity
  8
0
  6
Continuous
 62
     7
370
    25
100
AcDbEllipse
 10
118.7067463686
 20
241.0461073903
 30
0.0
 11
3.799999999999997
 21
0.0
 31
0.0
210
0.0
220
0.0
230
1.0
 40
0.0174550649
 41
3.141592653589786
 42
3.90260540781499
  0
ELLIPSE
  5
186
330
1F
100
AcDbEntity
  8
0
  6
Continuous
 62
     7
370
    25
100
AcDbEllipse
 10
127.1067463686
 20
241.1857479097
 30
0.0
 11
15.39999999999998
 21
0.0
 31
0.0
210
0.0
220
0.0
230
1.0
 40
0.0174550649
 41
3.902605407814952
 42
5.522172552955283
  0
ELLIPSE
  5
187
330
1F
100
AcDbEntity
  8
0
  6
Continuous
 62
     7
370
    25
100
AcDbEllipse
 10
135.5067463686
 20
241.0461073903
 30
0.0
 11
3.799999999999983
 21
0.0
 31
0.0
210
0.0
220
0.0
230
1.0
 40
0.0174550649
 41
5.522172552955221
 42
6.283185307179586
  0
LINE
  5
188
330
1F
100
AcDbEntity
  8
0
  6
Continuous
 62
     7
370
    25
100
AcDbLine
 10
139.3067473196
 20
241.0914895404
 30
0.0
 11
140.7348597072
 21
241.0914895404
 31
0.0
  0
LINE
  5
189
330
1F
100
AcDbEntity
  8
0
  6
Continuous
 62
     7
370
    25
100
AcDbLine
 10
79.6786332153
 20
241.0914895404
 30
0.0
 11
86.4067459129
 21
241.0914895404
 31
0.0
  0
ELLIPSE
  5
18A
330
1F
100
AcDbEntity
  8
0
  6
Continuous
 62
     7
370
    25
100
AcDbEllipse
 10
88.5067463686
 20
241.0216702994
 30
0.0
 11
2.100000000000009
 21
0.0
 31
0.0
210
0.0
220
0.0
230
1.0
 40
0.0174550649
 41
3.141592653589786
 42
6.283185307179586
  0
LINE
  5
18B
330
1F
100
AcDbEntity
  8
0
  6
Continuous
 62
     7
370
    25
100
AcDbLine
 10
90.6067469739
 20
241.0914895404
 30
0.0
 11
109.5067463465
 21
241.0914895404
 31
0.0
  0
ELLIPSE
  5
18C
330
1F
100
AcDbEntity
  8
0
  6
Continuous
 62
     7
370
    25
100
AcDbEllipse
 10
127.1067463686
 20
180.5418312342
 30
0.0
 11
15.40000000000001
 21
0.0
 31
0.0
210
0.0
220
0.0
230
1.0
 40
0.0174550649
 41
0.7610127542246822
 42
2.380579899365106
  0
ELLIPSE
  5
18D
330
1F
100
AcDbEntity
  8
0
  6
Continuous
 62
     7
370
    25
100
AcDbEllipse
 10
118.7067463686
 20
180.6814717536
 30
0.0
 11
3.799999999999997
 21
0.0
 31
0.0
210
0.0
220
0.0
230
1.0
 40
0.0174550649
 41
2.38057989936491
 42
3.141592653589786
  0
LINE
  5
18E
330
1F
100
AcDbEntity
  8
0
  6
Continuous
 62
     7
370
    25
100
AcDbLine
 10
114.9067463003
 20
180.6360897887
 30
0.0
 11
112.7067463122
 21
180.6360897887
 31
0.0
  0
ELLIPSE
  5
18F
330
1F
100
AcDbEntity
  8
0
  6
Continuous
 62
     7
370
    25
100
AcDbEllipse
 10
111.1067463686
 20
180.6762352342
 30
0.0
 11
1.600000000000009
 21
0.0
 31
0.0
210
0.0
220
0.0
230
1.0
 40
0.0174550649
 41
0.0
 42
1.570796326794888
  0
ELLIPSE
  5
190
330
1F
100
AcDbEntity
  8
0
  6
Continuous
 62
     7
370
    25
100
AcDbEllipse
 10
111.1067463686
 20
180.6762352342
 30
0.0
 11
1.599999999999994
 21
0.0
 31
0.0
210
0.0
220
0.0
230
1.0
 40
0.0174550649
 41
1.570796326794897
 42
3.141592653589786
  0
LINE
  5
191
330
1F
100
AcDbEntity
  8
0
  6
Continuous
 62
     7
370
    25
100
AcDbLine
 10
109.5067463465
 20
180.6360897887
 30
0.0
 11
107.3067463584
 21
180.6360897887
 31
0.0
  0
ELLIPSE
  5
192
330
1F
100
AcDbEntity
  8
0
  6
Continuous
 62
     7
370
    25
100
AcDbEllipse
 10
103.5067463686
 20
180.6814717536
 30
0.0
 11
3.799999999999997
 21
0.0
 31
0.0
210
0.0
220
0.0
230
1.0
 40
0.0174550649
 41
0.0
 42
0.7610127542248792
  0
ELLIPSE
  5
193
330
1F
100
AcDbEntity
  8
0
  6
Continuous
 62
     7
370
    25
100
AcDbEllipse
 10
95.1067463686
 20
180.5418312342
 30
0.0
 11
15.40000000000001
 21
0.0
 31
0.0
210
0.0
220
0.0
230
1.0
 40
0.0174550649
 41
0.7610127542246828
 42
2.380579899365106
  0
ELLIPSE
  5
194
330
1F
100
AcDbEntity
  8
0
  6
Continuous
 62
     7
370
    25
100
AcDbEllipse
 10
86.7067463686
 20
180.6814717536
 30
0.0
 11
3.799999999999997
 21
0.0
 31
0.0
210
0.0
220
0.0
230
1.0
 40
0.0174550649
 41
2.38057989936491
 42
3.141592653589786
  0
LINE
  5
195
330
1F
100
AcDbEntity
  8
0
  6
Continuous
 62
     7
370
    25
100
AcDbLine
 10
82.9067462705
 20
180.6360897887
 30
0.0
 11
79.6786332153
 21
180.6360897887
 31
0.0
  0
LINE
  5
196
330
1F
100
AcDbEntity
  8
0
  6
Continuous
 62
     7
370
    25
100
AcDbLine
 10
140.7348597072
 20
180.6360897887
 30
0.0
 11
139.3067473196
 21
180.6360897887
 31
0.0
  0
ELLIPSE
  5
197
330
1F
100
AcDbEntity
  8
0
  6
Continuous
 62
     7
370
    25
100
AcDbEllipse
 10
135.5067463686
 20
180.6814717536
 30
0.0
 11
3.799999999999983
 21
0.0
 31
0.0
210
0.0
220
0.0
230
1.0
 40
0.0174550649
 41
0.0
 42
0.7610127542248774
  0
ELLIPSE
  5
198
330
1F
100
AcDbEntity
  8
0
  6
Continuous
 62
     7
370
    25
100
AcDbEllipse
 10
77.0244285503
 20
186.3637895719
 30
0.0
 11
0.0
 21
3.800000000000011
 31
0.0
210
0.0
220
0.0
230
1.0
 40
0.0174550649
 41
3.827454164286447
 42
3.902605407814884
  0
ELLIPSE
  5
199
330
1F
100
AcDbEntity
  8
0
  6
Continuous
 62
     7
370
    25
100
AcDbEllipse
 10
76.8847880309
 20
194.7637895719
 30
0.0
 11
0.0
 21
15.40000000000001
 31
0.0
210
0.0
220
0.0
230
1.0
 40
0.0174550649
 41
3.902605407814953
 42
5.522172552955282
  0
ELLIPSE
  5
19A
330
1F
100
AcDbEntity
  8
0
  6
Continuous
 62
     7
370
    25
100
AcDbEllipse
 10
77.0244285503
 20
203.1637895719
 30
0.0
 11
0.0
 21
3.799999999999955
 31
0.0
210
0.0
220
0.0
230
1.0
 40
0.0174550649
 41
5.522172552955279
 42
6.283185307179586
  0
LINE
  5
19B
330
1F
100
AcDbEntity
  8
0
  6
Continuous
 62
     7
370
    25
100
AcDbLine
 10
76.9790464662
 20
206.9637895841
 30
0.0
 11
76.9790464662
 21
238.3919027913
 31
0.0
  0
ELLIPSE
  5
19C
330
1F
100
AcDbEntity
  8
0
  6
Continuous
 62
     7
370
    25
100
AcDbEllipse
 10
143.6065192519
 20
186.3637895719
 30
0.0
 11
0.0
 21
3.800000000000011
 31
0.0
210
0.0
220
0.0
230
1.0
 40
0.0174550649
 41
2.380579899364922
 42
2.859887565224827
  0
ELLIPSE
  5
19D
330
1F
100
AcDbEntity
  8
0
  6
Continuous
 62
     7
370
    25
100
AcDbEllipse
 10
143.7461597713
 20
194.7637895719
 30
0.0
 11
0.0
 21
15.40000000000001
 31
0.0
210
0.0
220
0.0
230
1.0
 40
0.0174550649
 41
0.7610127542247587
 42
2.380579899365038
  0
ELLIPSE
  5
19E
330
1F
100
AcDbEntity
  8
0
  6
Continuous
 62
     7
370
    25
100
AcDbEllipse
 10
143.6065192519
 20
203.1637895719
 30
0.0
 11
0.0
 21
3.800000000000011
 31
0.0
210
0.0
220
0.0
230
1.0
 40
0.0174550649
 41
0.0
 42
0.761012754224881
  0
LINE
  5
19F
330
1F
100
AcDbEntity
  8
0
  6
Continuous
 62
     7
370
    25
100
AcDbLine
 10
143.6065191053
 20
206.9637895841
 30
0.0
 11
143.6519020818
 21
206.9637895841
 31
0.0
  0
LINE
  5
1A0
330
1F
100
AcDbEntity
  8
0
  6
Continuous
 62
     7
370
    25
100
AcDbLine
 10
143.6519020818
 20
205.9637894202
 30
0.0
 11
143.6519020818
 21
206.9637895841
 31
0.0
  0
LINE
  5
1A1
330
1F
100
AcDbEntity
  8
0
  6
Continuous
 62
     7
370
    25
100
AcDbLine
 10
143.6519020818
 20
205.9637894202
 30
0.0
 11
143.6065191053
 21
205.9637894202
 31
0.0
  0
ELLIPSE
  5
1A2
330
1F
100
AcDbEntity
  8
0
  6
Continuous
 62
     7
370
    25
100
AcDbEllipse
 10
143.6065192519
 20
203.1637895719
 30
0.0
 11
0.0
 21
2.799999999999983
 31
0.0
210
0.0
220
0.0
230
1.0
 40
0.0174550649
 41
0.0
 42
0.761012754224304
  0
ELLIPSE
  5
1A3
330
1F
100
AcDbEntity
  8
0
  6
Continuous
 62
     7
370
    25
100
AcDbEllipse
 10
143.7461597713
 20
194.7637895719
 30
0.0
 11
0.0
 21
14.40000000000001
 31
0.0
210
0.0
220
0.0
230
1.0
 40
0.0174550649
 41
0.7610127542246391
 42
2.380579899365154
  0
ELLIPSE
  5
1A4
330
1F
100
AcDbEntity
  8
0
  6
Continuous
 62
     7
370
    25
100
AcDbEllipse
 10
143.6065192519
 20
186.3637895719
 30
0.0
 11
0.0
 21
2.799999999999983
 31
0.0
210
0.0
220
0.0
230
1.0
 40
0.0174550649
 41
2.380579899365495
 42
3.141592653589786
  0
LINE
  5
1A5
330
1F
100
AcDbEntity
  8
0
  6
Continuous
 62
     7
370
    25
100
AcDbLine
 10
143.6065191053
 20
183.5637894738
 30
0.0
 11
143.6519020818
 21
183.5637894738
 31
0.0
  0
LINE
  5
1A6
330
1F
100
AcDbEntity
  8
0
  6
Continuous
 62
     7
370
    25
100
AcDbLine
 10
143.6519020818
 20
183.3186325897
 30
0.0
 11
143.6519020818
 21
183.5637894738
 31
0.0
  0
ARC
  5
1A7
330
1F
100
AcDbEntity
  8
0
  6
Continuous
 62
     7
370
    25
100
AcDbCircle
 10
140.7519024207
 20
183.3186335199
 30
0.0
 40
2.900000000000006
100
AcDbArc
 50
347.9572806887
 51
0.0
  0
ELLIPSE
  5
1A8
330
1F
100
AcDbEntity
  8
0
  6
Continuous
 62
     7
370
    25
100
AcDbEllipse
 10
76.667332966
 20
194.7637895719
 30
0.0
 11
0.0
 21
15.40000000000001
 31
0.0
210
0.0
220
0.0
230
1.0
 40
0.0174550649
 41
3.902605407814927
 42
5.522172552955282
  0
ELLIPSE
  5
1A9
330
1F
100
AcDbEntity
  8
0
  6
Continuous
 62
     7
370
    25
100
AcDbEllipse
 10
95.1067463686
 20
180.3243761693
 30
0.0
 11
15.40000000000001
 21
0.0
 31
0.0
210
0.0
220
0.0
230
1.0
 40
0.0174550649
 41
0.7610127542246828
 42
2.380579899365106
  0
ELLIPSE
  5
1AA
330
1F
100
AcDbEntity
  8
0
  6
Continuous
 62
     7
370
    25
100
AcDbEllipse
 10
127.1067463686
 20
180.3243761693
 30
0.0
 11
15.40000000000001
 21
0.0
 31
0.0
210
0.0
220
0.0
230
1.0
 40
0.0174550649
 41
0.7610127542246822
 42
2.380579899365106
  0
LINE
  5
1AB
330
1F
100
AcDbEntity
  8
0
  6
Continuous
 62
     7
370
    25
100
AcDbLine
 10
114.9067463003
 20
241.2635621894
 30
0.0
 11
114.9067463003
 21
241.3089451659
 31
0.0
  0
LINE
  5
1AC
330
1F
100
AcDbEntity
  8
0
  6
Continuous
 62
     7
370
    25
100
AcDbLine
 10
115.9067464642
 20
241.3089451659
 30
0.0
 11
114.9067463003
 21
241.3089451659
 31
0.0
  0
LINE
  5
1AD
330
1F
100
AcDbEntity
  8
0
  6
Continuous
 62
     7
370
    25
100
AcDbLine
 10
115.9067464642
 20
241.3089451659
 30
0.0
 11
115.9067464642
 21
241.2635621894
 31
0.0
  0
ELLIPSE
  5
1AE
330
1F
100
AcDbEntity
  8
0
  6
Continuous
 62
     7
370
    25
100
AcDbEllipse
 10
118.7067463686
 20
241.2635624552
 30
0.0
 11
2.799999999999997
 21
0.0
 31
0.0
210
0.0
220
0.0
230
1.0
 40
0.0174550649
 41
3.141592653589786
 42
3.902605407814941
  0
ELLIPSE
  5
1AF
330
1F
100
AcDbEntity
  8
0
  6
Continuous
 62
     7
370
    25
100
AcDbEllipse
 10
127.1067463686
 20
241.4032029746
 30
0.0
 11
14.40000000000001
 21
0.0
 31
0.0
210
0.0
220
0.0
230
1.0
 40
0.0174550649
 41
3.902605407814932
 42
5.52217255295529
  0
ELLIPSE
  5
1B0
330
1F
100
AcDbEntity
  8
0
  6
Continuous
 62
     7
370
    25
100
AcDbEllipse
 10
135.5067463686
 20
241.2635624552
 30
0.0
 11
2.799999999999983
 21
0.0
 31
0.0
210
0.0
220
0.0
230
1.0
 40
0.0174550649
 41
5.522172552955284
 42
6.283185307179586
  0
LINE
  5
1B1
330
1F
100
AcDbEntity
  8
0
  6
Continuous
 62
     7
370
    25
100
AcDbLine
 10
138.306745293
 20
241.2635621894
 30
0.0
 11
138.306745293
 21
241.3089451659
 31
0.0
  0
LINE
  5
1B2
330
1F
100
AcDbEntity
  8
0
  6
Continuous
 62
     7
370
    25
100
AcDbLine
 10
139.3067473196
 20
241.3089451659
 30
0.0
 11
138.306745293
 21
241.3089451659
 31
0.0
  0
LINE
  5
1B3
330
1F
100
AcDbEntity
  8
0
  6
Continuous
 62
     7
370
    25
100
AcDbLine
 10
139.3067473196
 20
241.3089451659
 30
0.0
 11
139.3067473196
 21
241.2635621894
 31
0.0
  0
ELLIPSE
  5
1B4
330
1F
100
AcDbEntity
  8
0
  6
Continuous
 62
     7
370
    25
100
AcDbEllipse
 10
135.5067463686
 20
241.2635624552
 30
0.0
 11
3.799999999999983
 21
0.0
 31
0.0
210
0.0
220
0.0
230
1.0
 40
0.0174550649
 41
5.522172552955436
 42
6.283185307179586
  0
ELLIPSE
  5
1B5
330
1F
100
AcDbEntity
  8
0
  6
Continuous
 62
     7
370
    25
100
AcDbEllipse
 10
127.1067463686
 20
241.4032029746
 30
0.0
 11
15.39999999999998
 21
0.0
 31
0.0
210
0.0
220
0.0
230
1.0
 40
0.0174550649
 41
3.9026054078149
 42
5.522172552955336
  0
ELLIPSE
  5
1B6
330
1F
100
AcDbEntity
  8
0
  6
Continuous
 62
     7
370
    25
100
AcDbEllipse
 10
118.7067463686
 20
241.2635624552
 30
0.0
 11
3.799999999999997
 21
0.0
 31
0.0
210
0.0
220
0.0
230
1.0
 40
0.0174550649
 41
3.141592653589786
 42
3.902605407814776
  0
LINE
  5
1B7
330
1F
100
AcDbEntity
  8
0
  6
Continuous
 62
     7
370
    25
100
AcDbLine
 10
83.9067453169
 20
180.4186341632
 30
0.0
 11
82.9067462705
 21
180.4186341632
 31
0.0
  0
LINE
  5
1B8
330
1F
100
AcDbEntity
  8
0
  6
Continuous
 62
     7
370
    25
100
AcDbLine
 10
82.9067462705
 20
180.4186341632
 30
0.0
 11
82.9067462705
 21
180.4640171397
 31
0.0
  0
ELLIPSE
  5
1B9
330
1F
100
AcDbEntity
  8
0
  6
Continuous
 62
     7
370
    25
100
AcDbEllipse
 10
86.7067463686
 20
180.4640166887
 30
0.0
 11
3.799999999999997
 21
0.0
 31
0.0
210
0.0
220
0.0
230
1.0
 40
0.0174550649
 41
2.380579899365217
 42
3.141592653589786
  0
ELLIPSE
  5
1BA
330
1F
100
AcDbEntity
  8
0
  6
Continuous
 62
     7
370
    25
100
AcDbEllipse
 10
103.5067463686
 20
180.4640166887
 30
0.0
 11
3.799999999999997
 21
0.0
 31
0.0
210
0.0
220
0.0
230
1.0
 40
0.0174550649
 41
0.0
 42
0.7610127542245689
  0
LINE
  5
1BB
330
1F
100
AcDbEntity
  8
0
  6
Continuous
 62
     7
370
    25
100
AcDbLine
 10
107.3067463584
 20
180.4640171397
 30
0.0
 11
107.3067463584
 21
180.4186341632
 31
0.0
  0
LINE
  5
1BC
330
1F
100
AcDbEntity
  8
0
  6
Continuous
 62
     7
370
    25
100
AcDbLine
 10
107.3067463584
 20
180.4186341632
 30
0.0
 11
106.3067463808
 21
180.4186341632
 31
0.0
  0
LINE
  5
1BD
330
1F
100
AcDbEntity
  8
0
  6
Continuous
 62
     7
370
    25
100
AcDbLine
 10
106.3067463808
 20
180.4640171397
 30
0.0
 11
106.3067463808
 21
180.4186341632
 31
0.0
  0
ELLIPSE
  5
1BE
330
1F
100
AcDbEntity
  8
0
  6
Continuous
 62
     7
370
    25
100
AcDbEllipse
 10
103.5067463686
 20
180.4640166887
 30
0.0
 11
2.799999999999997
 21
0.0
 31
0.0
210
0.0
220
0.0
230
1.0
 40
0.0174550649
 41
0.0
 42
0.7610127542246006
  0
ELLIPSE
  5
1BF
330
1F
100
AcDbEntity
  8
0
  6
Continuous
 62
     7
370
    25
100
AcDbEllipse
 10
95.1067463686
 20
180.3243761693
 30
0.0
 11
14.40000000000001
 21
0.0
 31
0.0
210
0.0
220
0.0
230
1.0
 40
0.0174550649
 41
0.7610127542246963
 42
2.380579899365098
  0
ELLIPSE
  5
1C0
330
1F
100
AcDbEntity
  8
0
  6
Continuous
 62
     7
370
    25
100
AcDbEllipse
 10
86.7067463686
 20
180.4640166887
 30
0.0
 11
2.800000000000011
 21
0.0
 31
0.0
210
0.0
220
0.0
230
1.0
 40
0.0174550649
 41
2.380579899365185
 42
3.141592653589786
  0
LINE
  5
1C1
330
1F
100
AcDbEntity
  8
0
  6
Continuous
 62
     7
370
    25
100
AcDbLine
 10
83.9067453169
 20
180.4186341632
 30
0.0
 11
83.9067453169
 21
180.4640171397
 31
0.0
  0
LINE
  5
1C2
330
1F
100
AcDbEntity
  8
0
  6
Continuous
 62
     7
370
    25
100
AcDbLine
 10
138.306745293
 20
180.4186341632
 30
0.0
 11
138.306745293
 21
180.4640171397
 31
0.0
  0
ELLIPSE
  5
1C3
330
1F
100
AcDbEntity
  8
0
  6
Continuous
 62
     7
370
    25
100
AcDbEllipse
 10
135.5067463686
 20
180.4640166887
 30
0.0
 11
2.799999999999983
 21
0.0
 31
0.0
210
0.0
220
0.0
230
1.0
 40
0.0174550649
 41
0.0
 42
0.7610127542246015
  0
ELLIPSE
  5
1C4
330
1F
100
AcDbEntity
  8
0
  6
Continuous
 62
     7
370
    25
100
AcDbEllipse
 10
127.1067463686
 20
180.3243761693
 30
0.0
 11
14.40000000000001
 21
0.0
 31
0.0
210
0.0
220
0.0
230
1.0
 40
0.0174550649
 41
0.7610127542246969
 42
2.380579899365098
  0
ELLIPSE
  5
1C5
330
1F
100
AcDbEntity
  8
0
  6
Continuous
 62
     7
370
    25
100
AcDbEllipse
 10
118.7067463686
 20
180.4640166887
 30
0.0
 11
2.799999999999997
 21
0.0
 31
0.0
210
0.0
220
0.0
230
1.0
 40
0.0174550649
 41
2.380579899365201
 42
3.141592653589786
  0
LINE
  5
1C6
330
1F
100
AcDbEntity
  8
0
  6
Continuous
 62
     7
370
    25
100
AcDbLine
 10
115.9067464642
 20
180.4640171397
 30
0.0
 11
115.9067464642
 21
180.4186341632
 31
0.0
  0
LINE
  5
1C7
330
1F
100
AcDbEntity
  8
0
  6
Continuous
 62
     7
370
    25
100
AcDbLine
 10
115.9067464642
 20
180.4186341632
 30
0.0
 11
114.9067463003
 21
180.4186341632
 31
0.0
  0
LINE
  5
1C8
330
1F
100
AcDbEntity
  8
0
  6
Continuous
 62
     7
370
    25
100
AcDbLine
 10
114.9067463003
 20
180.4186341632
 30
0.0
 11
114.9067463003
 21
180.4640171397
 31
0.0
  0
ELLIPSE
  5
1C9
330
1F
100
AcDbEntity
  8
0
  6
Continuous
 62
     7
370
    25
100
AcDbEllipse
 10
118.7067463686
 20
180.4640166887
 30
0.0
 11
3.799999999999997
 21
0.0
 31
0.0
210
0.0
220
0.0
230
1.0
 40
0.0174550649
 41
2.380579899365217
 42
3.141592653589786
  0
ELLIPSE
  5
1CA
330
1F
100
AcDbEntity
  8
0
  6
Continuous
 62
     7
370
    25
100
AcDbEllipse
 10
135.5067463686
 20
180.4640166887
 30
0.0
 11
3.799999999999983
 21
0.0
 31
0.0
210
0.0
220
0.0
230
1.0
 40
0.0174550649
 41
0.0
 42
0.761012754224567
  0
LINE
  5
1CB
330
1F
100
AcDbEntity
  8
0
  6
Continuous
 62
     7
370
    25
100
AcDbLine
 10
139.3067473196
 20
180.4640171397
 30
0.0
 11
139.3067473196
 21
180.4186341632
 31
0.0
  0
LINE
  5
1CC
330
1F
100
AcDbEntity
  8
0
  6
Continuous
 62
     7
370
    25
100
AcDbLine
 10
139.3067473196
 20
180.4186341632
 30
0.0
 11
138.306745293
 21
180.4186341632
 31
0.0
  0
LINE
  5
1CD
330
1F
100
AcDbEntity
  8
0
  6
Continuous
 62
     7
370
    25
100
AcDbLine
 10
76.7615908407
 20
183.5637894738
 30
0.0
 11
76.8069738172
 21
183.5637894738
 31
0.0
  0
ELLIPSE
  5
1CE
330
1F
100
AcDbEntity
  8
0
  6
Continuous
 62
     7
370
    25
100
AcDbEllipse
 10
76.8069734854
 20
186.3637895719
 30
0.0
 11
0.0
 21
2.799999999999983
 31
0.0
210
0.0
220
0.0
230
1.0
 40
0.0174550649
 41
3.141592653589786
 42
3.902605407815015
  0
ELLIPSE
  5
1CF
330
1F
100
AcDbEntity
  8
0
  6
Continuous
 62
     7
370
    25
100
AcDbEllipse
 10
76.667332966
 20
194.7637895719
 30
0.0
 11
0.0
 21
14.40000000000001
 31
0.0
210
0.0
220
0.0
230
1.0
 40
0.0174550649
 41
3.902605407814948
 42
5.522172552955261
  0
ELLIPSE
  5
1D0
330
1F
100
AcDbEntity
  8
0
  6
Continuous
 62
     7
370
    25
100
AcDbEllipse
 10
76.8069734854
 20
203.1637895719
 30
0.0
 11
0.0
 21
2.799999999999983
 31
0.0
210
0.0
220
0.0
230
1.0
 40
0.0174550649
 41
5.522172552955206
 42
6.283185307179586
  0
LINE
  5
1D1
330
1F
100
AcDbEntity
  8
0
  6
Continuous
 62
     7
370
    25
100
AcDbLine
 10
76.8069738172
 20
205.9637894202
 30
0.0
 11
76.7615908407
 21
205.9637894202
 31
0.0
  0
LINE
  5
1D2
330
1F
100
AcDbEntity
  8
0
  6
Continuous
 62
     7
370
    25
100
AcDbLine
 10
76.7615908407
 20
205.9637894202
 30
0.0
 11
76.7615908407
 21
206.9637895841
 31
0.0
  0
LINE
  5
1D3
330
1F
100
AcDbEntity
  8
0
  6
Continuous
 62
     7
370
    25
100
AcDbLine
 10
76.7615908407
 20
206.9637895841
 30
0.0
 11
76.8069738172
 21
206.9637895841
 31
0.0
  0
ELLIPSE
  5
1D4
330
1F
100
AcDbEntity
  8
0
  6
Continuous
 62
     7
370
    25
100
AcDbEllipse
 10
76.8069734854
 20
203.1637895719
 30
0.0
 11
0.0
 21
3.799999999999955
 31
0.0
210
0.0
220
0.0
230
1.0
 40
0.0174550649
 41
5.522172552955332
 42
6.283185307179586
  0
ELLIPSE
  5
1D5
330
1F
100
AcDbEntity
  8
0
  6
Continuous
 62
     7
370
    25
100
AcDbEllipse
 10
76.8069734854
 20
186.3637895719
 30
0.0
 11
0.0
 21
3.800000000000011
 31
0.0
210
0.0
220
0.0
230
1.0
 40
0.0174550649
 41
3.423297741955555
 42
3.902605407814884
  0
ARC
  5
1D6
330
1F
100
AcDbEntity
  8
0
  6
Continuous
 62
     7
370
    25
100
AcDbCircle
 10
79.6615903166
 20
183.3186335199
 30
0.0
 40
2.899999999999999
100
AcDbArc
 50
180.0
 51
192.0427193113
  0
LINE
  5
1D7
330
1F
100
AcDbEntity
  8
0
  6
Continuous
 62
     7
370
    25
100
AcDbLine
 10
76.7615908407
 20
183.3186325897
 30
0.0
 11
76.7615908407
 21
183.5637894738
 31
0.0
  0
LINE
  5
1D8
330
1F
100
AcDbEntity
  8
0
  6
Continuous
 62
     7
370
    25
100
AcDbLine
 10
86.4067459129
 20
241.0216716398
 30
0.0
 11
86.4067459129
 21
241.2391242851
 31
0.0
  0
ELLIPSE
  5
1D9
330
1F
100
AcDbEntity
  8
0
  6
Continuous
 62
     7
370
    25
100
AcDbEllipse
 10
88.5067463686
 20
241.2391253643
 30
0.0
 11
2.100000000000009
 21
0.0
 31
0.0
210
0.0
220
0.0
230
1.0
 40
0.0174550649
 41
3.14159265344403
 42
6.283185307179586
  0
LINE
  5
1DA
330
1F
100
AcDbEntity
  8
0
  6
Continuous
 62
     7
370
    25
100
AcDbLine
 10
90.6067469739
 20
241.0216716398
 30
0.0
 11
90.6067469739
 21
241.2391242851
 31
0.0
  0
LINE
  5
1DB
330
1F
100
AcDbEntity
  8
0
  6
Continuous
 62
     7
370
    25
100
AcDbLine
 10
90.6067469739
 20
241.3089451659
 30
0.0
 11
90.6067469739
 21
241.2391242851
 31
0.0
  0
LINE
  5
1DC
330
1F
100
AcDbEntity
  8
0
  6
Continuous
 62
     7
370
    25
100
AcDbLine
 10
86.4067459129
 20
241.2391242851
 30
0.0
 11
86.4067459129
 21
241.3089451659
 31
0.0
  0
LINE
  5
1DD
330
1F
100
AcDbEntity
  8
0
  6
Continuous
 62
     7
370
    25
100
AcDbLine
 10
87.4067464493
 20
241.3089451659
 30
0.0
 11
86.4067459129
 21
241.3089451659
 31
0.0
  0
LINE
  5
1DE
330
1F
100
AcDbEntity
  8
0
  6
Continuous
 62
     7
370
    25
100
AcDbLine
 10
87.4067464493
 20
241.2391242851
 30
0.0
 11
87.4067464493
 21
241.3089451659
 31
0.0
  0
ELLIPSE
  5
1DF
330
1F
100
AcDbEntity
  8
0
  6
Continuous
 62
     7
370
    25
100
AcDbEllipse
 10
88.5067463686
 20
241.2391253643
 30
0.0
 11
1.100000000000009
 21
0.0
 31
0.0
210
0.0
220
0.0
230
1.0
 40
0.0174550649
 41
3.141592653589786
 42
6.283185307179586
  0
LINE
  5
1E0
330
1F
100
AcDbEntity
  8
0
  6
Continuous
 62
     7
370
    25
100
AcDbLine
 10
89.6067464374
 20
241.3089451659
 30
0.0
 11
89.6067464374
 21
241.2391242851
 31
0.0
  0
LINE
  5
1E1
330
1F
100
AcDbEntity
  8
0
  6
Continuous
 62
     7
370
    25
100
AcDbLine
 10
90.6067469739
 20
241.3089451659
 30
0.0
 11
89.6067464374
 21
241.3089451659
 31
0.0
  0
LINE
  5
1E2
330
1F
100
AcDbEntity
  8
0
  6
Continuous
 62
     7
370
    25
100
AcDbLine
 10
143.3890634798
 20
206.9637895841
 30
0.0
 11
143.6065191053
 21
206.9637895841
 31
0.0
  0
LINE
  5
1E3
330
1F
100
AcDbEntity
  8
0
  6
Continuous
 62
     7
370
    25
100
AcDbLine
 10
143.2624095701
 20
182.5637904275
 30
0.0
 11
143.5519391321
 21
182.5637904275
 31
0.0
  0
SPLINE
  5
1E4
330
1F
100
AcDbEntity
  8
0
  6
Continuous
 62
     7
370
    25
100
AcDbSpline
210
0.0
220
0.0
230
1.0
 70
     8
 71
     3
 72
     9
 73
     5
 74
     0
 42
0.000000001
 43
0.00000001
 40
0.0
 40
0.0
 40
0.0
 40
0.0
 40
0.4948381101399356
 40
1.0
 40
1.0
 40
1.0
 40
1.0
 10
143.588080408443
 20
182.7135739196075
 30
0.0
 10
143.5780608382825
 20
182.670387502738
 30
0.0
 10
143.5578126602314
 20
182.5831136732074
 30
0.0
 10
143.5539104034792
 20
182.5702756882582
 30
0.0
 10
143.5519391320835
 20
182.5637904275192
 30
0.0
  0
LINE
  5
1E5
330
1F
100
AcDbEntity
  8
0
  6
Continuous
 62
     7
370
    25
100
AcDbLine
 10
114.9067463003
 20
180.6814727653
 30
0.0
 11
114.9067463003
 21
180.4640171397
 31
0.0
  0
LINE
  5
1E6
330
1F
100
AcDbEntity
  8
0
  6
Continuous
 62
     7
370
    25
100
AcDbLine
 10
107.3067463584
 20
180.6814727653
 30
0.0
 11
107.3067463584
 21
180.4640171397
 31
0.0
  0
LINE
  5
1E7
330
1F
100
AcDbEntity
  8
0
  6
Continuous
 62
     7
370
    25
100
AcDbLine
 10
139.3067473196
 20
241.2635621894
 30
0.0
 11
139.3067473196
 21
241.0461065639
 31
0.0
  0
LINE
  5
1E8
330
1F
100
AcDbEntity
  8
0
  6
Continuous
 62
     7
370
    25
100
AcDbLine
 10
139.3067473196
 20
180.6814727653
 30
0.0
 11
139.3067473196
 21
180.4640171397
 31
0.0
  0
LINE
  5
1E9
330
1F
100
AcDbEntity
  8
0
  6
Continuous
 62
     7
370
    25
100
AcDbLine
 10
114.9067463003
 20
241.2635621894
 30
0.0
 11
114.9067463003
 21
241.0461065639
 31
0.0
  0
LINE
  5
1EA
330
1F
100
AcDbEntity
  8
0
  6
Continuous
 62
     7
370
    25
100
AcDbLine
 10
82.9067462705
 20
180.6814727653
 30
0.0
 11
82.9067462705
 21
180.4640171397
 31
0.0
  0
LINE
  5
1EB
330
1F
100
AcDbEntity
  8
0
  6
Continuous
 62
     7
370
    25
100
AcDbLine
 10
77.1510833524
 20
182.5637904275
 30
0.0
 11
76.8615537904
 21
182.5637904275
 31
0.0
  0
SPLINE
  5
1EC
330
1F
100
AcDbEntity
  8
0
  6
Continuous
 62
     7
370
    25
100
AcDbSpline
210
0.0
220
0.0
230
1.0
 70
     8
 71
     3
 72
     9
 73
     5
 74
     0
 42
0.000000001
 43
0.00000001
 40
0.0
 40
0.0
 40
0.0
 40
0.0
 40
0.4947671148487
 40
1.0
 40
1.0
 40
1.0
 40
1.0
 10
76.86155379043919
 20
182.5637904275192
 30
0.0
 10
76.85966287004265
 20
182.5700107763886
 30
0.0
 10
76.85584103075753
 20
182.5825830526834
 30
0.0
 10
76.83562587536326
 20
182.669606707439
 30
0.0
 10
76.82541251407963
 20
182.7135739196075
 30
0.0
  0
LINE
  5
1ED
330
1F
100
AcDbEntity
  8
0
  6
Continuous
 62
     7
370
    25
100
AcDbLine
 10
77.0244294428
 20
206.9637895841
 30
0.0
 11
76.8069738172
 21
206.9637895841
 31
0.0
  0
ELLIPSE
  5
1EE
330
1F
100
AcDbEntity
  8
0
  6
Continuous
 62
     7
370
    25
100
AcDbEllipse
 10
111.1067463686
 20
241.2687989747
 30
0.0
 11
0.6000000000000085
 21
0.0
 31
0.0
210
0.0
220
0.0
230
1.0
 40
0.0174550649
 41
3.141592653589786
 42
6.283185307179586
  0
LINE
  5
1EF
330
1F
100
AcDbEntity
  8
0
  6
Continuous
 62
     7
370
    25
100
AcDbLine
 10
111.7067463346
 20
241.3089451659
 30
0.0
 11
111.7067463346
 21
241.2687984575
 31
0.0
  0
LINE
  5
1F0
330
1F
100
AcDbEntity
  8
0
  6
Continuous
 62
     7
370
    25
100
AcDbLine
 10
112.7067463122
 20
241.3089451659
 30
0.0
 11
111.7067463346
 21
241.3089451659
 31
0.0
  0
LINE
  5
1F1
330
1F
100
AcDbEntity
  8
0
  6
Continuous
 62
     7
370
    25
100
AcDbLine
 10
112.7067463122
 20
241.3089451659
 30
0.0
 11
112.7067463122
 21
241.2687984575
 31
0.0
  0
ELLIPSE
  5
1F2
330
1F
100
AcDbEntity
  8
0
  6
Continuous
 62
     7
370
    25
100
AcDbEllipse
 10
111.1067463686
 20
241.2687989747
 30
0.0
 11
1.600000000000009
 21
0.0
 31
0.0
210
0.0
220
0.0
230
1.0
 40
0.0174550649
 41
4.712388980384699
 42
6.283185307179586
  0
ELLIPSE
  5
1F3
330
1F
100
AcDbEntity
  8
0
  6
Continuous
 62
     7
370
    25
100
AcDbEllipse
 10
111.1067463686
 20
241.2687989747
 30
0.0
 11
1.599999999999994
 21
0.0
 31
0.0
210
0.0
220
0.0
230
1.0
 40
0.0174550649
 41
3.141592653589786
 42
4.71238898038469
  0
LINE
  5
1F4
330
1F
100
AcDbEntity
  8
0
  6
Continuous
 62
     7
370
    25
100
AcDbLine
 10
109.5067463465
 20
241.2687984575
 30
0.0
 11
109.5067463465
 21
241.3089451659
 31
0.0
  0
LINE
  5
1F5
330
1F
100
AcDbEntity
  8
0
  6
Continuous
 62
     7
370
    25
100
AcDbLine
 10
110.5067463707
 20
241.3089451659
 30
0.0
 11
109.5067463465
 21
241.3089451659
 31
0.0
  0
LINE
  5
1F6
330
1F
100
AcDbEntity
  8
0
  6
Continuous
 62
     7
370
    25
100
AcDbLine
 10
110.5067463707
 20
241.2687984575
 30
0.0
 11
110.5067463707
 21
241.3089451659
 31
0.0
  0
LINE
  5
1F7
330
1F
100
AcDbEntity
  8
0
  6
Continuous
 62
     7
370
    25
100
AcDbLine
 10
112.7067463122
 20
241.2687984575
 30
0.0
 11
112.7067463122
 21
241.0513428319
 31
0.0
  0
LINE
  5
1F8
330
1F
100
AcDbEntity
  8
0
  6
Continuous
 62
     7
370
    25
100
AcDbLine
 10
112.7067463122
 20
180.6762364972
 30
0.0
 11
112.7067463122
 21
180.4587808717
 31
0.0
  0
ELLIPSE
  5
1F9
330
1F
100
AcDbEntity
  8
0
  6
Continuous
 62
     7
370
    25
100
AcDbEllipse
 10
111.1067463686
 20
180.4587801692
 30
0.0
 11
1.600000000000009
 21
0.0
 31
0.0
210
0.0
220
0.0
230
1.0
 40
0.0174550649
 41
0.0
 42
1.570796326794897
  0
LINE
  5
1FA
330
1F
100
AcDbEntity
  8
0
  6
Continuous
 62
     7
370
    25
100
AcDbLine
 10
112.7067463122
 20
180.4587808717
 30
0.0
 11
112.7067463122
 21
180.4186341632
 31
0.0
  0
LINE
  5
1FB
330
1F
100
AcDbEntity
  8
0
  6
Continuous
 62
     7
370
    25
100
AcDbLine
 10
112.7067463122
 20
180.4186341632
 30
0.0
 11
111.7067463346
 21
180.4186341632
 31
0.0
  0
LINE
  5
1FC
330
1F
100
AcDbEntity
  8
0
  6
Continuous
 62
     7
370
    25
100
AcDbLine
 10
111.7067463346
 20
180.4587808717
 30
0.0
 11
111.7067463346
 21
180.4186341632
 31
0.0
  0
ELLIPSE
  5
1FD
330
1F
100
AcDbEntity
  8
0
  6
Continuous
 62
     7
370
    25
100
AcDbEllipse
 10
111.1067463686
 20
180.4587801692
 30
0.0
 11
0.6000000000000085
 21
0.0
 31
0.0
210
0.0
220
0.0
230
1.0
 40
0.0174550649
 41
0.0
 42
3.141592653589786
  0
LINE
  5
1FE
330
1F
100
AcDbEntity
  8
0
  6
Continuous
 62
     7
370
    25
100
AcDbLine
 10
110.5067463707
 20
180.4186341632
 30
0.0
 11
110.5067463707
 21
180.4587808717
 31
0.0
  0
LINE
  5
1FF
330
1F
100
AcDbEntity
  8
0
  6
Continuous
 62
     7
370
    25
100
AcDbLine
 10
110.5067463707
 20
180.4186341632
 30
0.0
 11
109.5067463465
 21
180.4186341632
 31
0.0
  0
LINE
  5
200
330
1F
100
AcDbEntity
  8
0
  6
Continuous
 62
     7
370
    25
100
AcDbLine
 10
109.5067463465
 20
180.4186341632
 30
0.0
 11
109.5067463465
 21
180.4587808717
 31
0.0
  0
ELLIPSE
  5
201
330
1F
100
AcDbEntity
  8
0
  6
Continuous
 62
     7
370
    25
100
AcDbEllipse
 10
111.1067463686
 20
180.4587801692
 30
0.0
 11
1.599999999999994
 21
0.0
 31
0.0
210
0.0
220
0.0
230
1.0
 40
0.0174550649
 41
1.570796326794905
 42
3.141592653589786
  0
LINE
  5
202
330
1F
100
AcDbEntity
  8
0
  6
Continuous
 62
     7
370
    25
100
AcDbLine
 10
109.5067463465
 20
241.0513428319
 30
0.0
 11
109.5067463465
 21
241.2687984575
 31
0.0
  0
LINE
  5
203
330
1F
100
AcDbEntity
  8
0
  6
Continuous
 62
     7
370
    25
100
AcDbLine
 10
109.5067463465
 20
180.4587808717
 30
0.0
 11
109.5067463465
 21
180.6762364972
 31
0.0
  0
LINE
  5
204
330
1F
100
AcDbEntity
  8
0
  6
Continuous
 62
     7
370
    25
100
AcDbLine
 10
82.9067462705
 20
180.4186341632
 30
0.0
 11
79.6615892671
 21
180.4186341632
 31
0.0
  0
ARC
  5
205
330
1F
100
AcDbEntity
  8
0
  6
Continuous
 62
     7
370
    25
100
AcDbCircle
 10
79.6615903166
 20
183.3186335199
 30
0.0
 40
2.900000000000034
100
AcDbArc
 50
195.0873307316
 51
270.0
  0
LINE
  5
206
330
1F
100
AcDbEntity
  8
0
  6
Continuous
 62
     7
370
    25
100
AcDbLine
 10
139.3067473196
 20
241.3089451659
 30
0.0
 11
140.7519036554
 21
241.3089451659
 31
0.0
  0
ARC
  5
207
330
1F
100
AcDbEntity
  8
0
  6
Continuous
 62
     7
370
    25
100
AcDbCircle
 10
140.7519024207
 20
238.408945624
 30
0.0
 40
2.900000000000006
100
AcDbArc
 50
0.0
 51
90.0
  0
LINE
  5
208
330
1F
100
AcDbEntity
  8
0
  6
Continuous
 62
     7
370
    25
100
AcDbLine
 10
143.6519020818
 20
238.4089467395
 30
0.0
 11
143.6519020818
 21
206.9637895841
 31
0.0
  0
LINE
  5
209
330
1F
100
AcDbEntity
  8
0
  6
Continuous
 62
     7
370
    25
100
AcDbLine
 10
90.6067469739
 20
241.3089451659
 30
0.0
 11
109.5067463465
 21
241.3089451659
 31
0.0
  0
LINE
  5
20A
330
1F
100
AcDbEntity
  8
0
  6
Continuous
 62
     7
370
    25
100
AcDbLine
 10
112.7067463122
 20
241.3089451659
 30
0.0
 11
114.9067463003
 21
241.3089451659
 31
0.0
  0
LINE
  5
20B
330
1F
100
AcDbEntity
  8
0
  6
Continuous
 62
     7
370
    25
100
AcDbLine
 10
114.9067463003
 20
180.4186341632
 30
0.0
 11
112.7067463122
 21
180.4186341632
 31
0.0
  0
LINE
  5
20C
330
1F
100
AcDbEntity
  8
0
  6
Continuous
 62
     7
370
    25
100
AcDbLine
 10
109.5067463465
 20
180.4186341632
 30
0.0
 11
107.3067463584
 21
180.4186341632
 31
0.0
  0
LINE
  5
20D
330
1F
100
AcDbEntity
  8
0
  6
Continuous
 62
     7
370
    25
100
AcDbLine
 10
79.6615892671
 20
241.3089451659
 30
0.0
 11
86.4067459129
 21
241.3089451659
 31
0.0
  0
LINE
  5
20E
330
1F
100
AcDbEntity
  8
0
  6
Continuous
 62
     7
370
    25
100
AcDbLine
 10
76.7615908407
 20
206.9637895841
 30
0.0
 11
76.7615908407
 21
238.4089467395
 31
0.0
  0
ARC
  5
20F
330
1F
100
AcDbEntity
  8
0
  6
Continuous
 62
     7
370
    25
100
AcDbCircle
 10
79.6615903166
 20
238.408945624
 30
0.0
 40
2.899999999999991
100
AcDbArc
 50
90.0
 51
180.0
  0
LINE
  5
210
330
1F
100
AcDbEntity
  8
0
  6
Continuous
 62
     7
370
    25
100
AcDbLine
 10
140.7519036554
 20
180.4186341632
 30
0.0
 11
139.3067473196
 21
180.4186341632
 31
0.0
  0
ARC
  5
211
330
1F
100
AcDbEntity
  8
0
  6
Continuous
 62
     7
370
    25
100
AcDbCircle
 10
140.7519024207
 20
183.3186335199
 30
0.0
 40
2.900000000000006
100
AcDbArc
 50
270.0
 51
344.9126692684
  0
LINE
  5
212
330
1F
100
AcDbEntity
  8
SLD-0
  6
HIDDEN
 62
    70
370
    18
100
AcDbLine
 10
142.7067643427
 20
206.7538006396
 30
0.0
 11
142.7067643427
 21
182.76719748
 31
0.0
  0
LINE
  5
213
330
1F
100
AcDbEntity
  8
SLD-0
  6
HIDDEN
 62
    70
370
    18
100
AcDbLine
 10
142.7067643427
 20
182.76719748
 30
0.0
 11
141.9067643427
 21
182.76719748
 31
0.0
  0
LINE
  5
214
330
1F
100
AcDbEntity
  8
SLD-0
  6
HIDDEN
 62
    70
370
    18
100
AcDbLine
 10
141.9067643427
 20
182.76719748
 30
0.0
 11
141.9067643427
 21
183.1790672092
 31
0.0
  0
LINE
  5
215
330
1F
100
AcDbEntity
  8
SLD-0
  6
HIDDEN
 62
    70
370
    18
100
AcDbLine
 10
141.9067643427
 20
183.1790672092
 30
0.0
 11
139.9067643427
 21
183.1790672092
 31
0.0
  0
LINE
  5
216
330
1F
100
AcDbEntity
  8
SLD-0
  6
HIDDEN
 62
    70
370
    18
100
AcDbLine
 10
139.9067643427
 20
206.348449159
 30
0.0
 11
139.9067643427
 21
204.463807546
 31
0.0
  0
LINE
  5
217
330
1F
100
AcDbEntity
  8
SLD-0
  6
HIDDEN
 62
    70
370
    18
100
AcDbLine
 10
139.9067643427
 20
188.463807546
 30
0.0
 11
140.7067643427
 21
188.463807546
 31
0.0
  0
LINE
  5
218
330
1F
100
AcDbEntity
  8
SLD-0
  6
HIDDEN
 62
    70
370
    18
100
AcDbLine
 10
140.7067643427
 20
188.463807546
 30
0.0
 11
140.7067643427
 21
185.063807546
 31
0.0
  0
LINE
  5
219
330
1F
100
AcDbEntity
  8
SLD-0
  6
HIDDEN
 62
    70
370
    18
100
AcDbLine
 10
140.7067643427
 20
185.063807546
 30
0.0
 11
139.9067643427
 21
185.063807546
 31
0.0
  0
LINE
  5
21A
330
1F
100
AcDbEntity
  8
SLD-0
  6
HIDDEN
 62
    70
370
    18
100
AcDbLine
 10
139.1156009137
 20
240.3297878135
 30
0.0
 11
139.1156009137
 21
237.563807546
 31
0.0
  0
LINE
  5
21B
330
1F
100
AcDbEntity
  8
SLD-0
  6
HIDDEN
 62
    70
370
    18
100
AcDbLine
 10
139.1156009137
 20
237.563807546
 30
0.0
 11
136.8067643427
 21
237.563807546
 31
0.0
  0
LINE
  5
21C
330
1F
100
AcDbEntity
  8
SLD-0
  6
HIDDEN
 62
    70
370
    18
100
AcDbLine
 10
136.8067643427
 20
237.563807546
 30
0.0
 11
136.8067643427
 21
238.363807546
 31
0.0
  0
LINE
  5
21D
330
1F
100
AcDbEntity
  8
SLD-0
  6
HIDDEN
 62
    70
370
    18
100
AcDbLine
 10
136.8067643427
 20
238.363807546
 30
0.0
 11
133.4067643427
 21
238.363807546
 31
0.0
  0
LINE
  5
21E
330
1F
100
AcDbEntity
  8
SLD-0
  6
HIDDEN
 62
    70
370
    18
100
AcDbLine
 10
133.4067643427
 20
238.363807546
 30
0.0
 11
133.4067643427
 21
237.563807546
 31
0.0
  0
LINE
  5
21F
330
1F
100
AcDbEntity
  8
SLD-0
  6
HIDDEN
 62
    70
370
    18
100
AcDbLine
 10
133.4067643427
 20
237.563807546
 30
0.0
 11
120.8067643427
 21
237.563807546
 31
0.0
  0
LINE
  5
220
330
1F
100
AcDbEntity
  8
SLD-0
  6
HIDDEN
 62
    70
370
    18
100
AcDbLine
 10
120.8067643427
 20
237.563807546
 30
0.0
 11
120.8067643427
 21
238.363807546
 31
0.0
  0
LINE
  5
221
330
1F
100
AcDbEntity
  8
SLD-0
  6
HIDDEN
 62
    70
370
    18
100
AcDbLine
 10
120.8067643427
 20
238.363807546
 30
0.0
 11
117.4067643427
 21
238.363807546
 31
0.0
  0
LINE
  5
222
330
1F
100
AcDbEntity
  8
SLD-0
  6
HIDDEN
 62
    70
370
    18
100
AcDbLine
 10
117.4067643427
 20
238.363807546
 30
0.0
 11
117.4067643427
 21
237.563807546
 31
0.0
  0
LINE
  5
223
330
1F
100
AcDbEntity
  8
SLD-0
  6
HIDDEN
 62
    70
370
    18
100
AcDbLine
 10
117.4067643427
 20
237.563807546
 30
0.0
 11
115.1056530032
 21
237.563807546
 31
0.0
  0
LINE
  5
224
330
1F
100
AcDbEntity
  8
SLD-0
  6
HIDDEN
 62
    70
370
    18
100
AcDbLine
 10
115.1056530032
 20
237.563807546
 30
0.0
 11
115.1056530032
 21
240.3297878135
 31
0.0
  0
LINE
  5
225
330
1F
100
AcDbEntity
  8
SLD-0
  6
HIDDEN
 62
    70
370
    18
100
AcDbLine
 10
139.9067643427
 20
185.063807546
 30
0.0
 11
139.9067643427
 21
183.1790672092
 31
0.0
  0
LINE
  5
226
330
1F
100
AcDbEntity
  8
SLD-0
  6
HIDDEN
 62
    70
370
    18
100
AcDbLine
 10
141.9067643427
 20
206.348449159
 30
0.0
 11
139.9067643427
 21
206.348449159
 31
0.0
  0
LINE
  5
227
330
1F
100
AcDbEntity
  8
SLD-0
  6
HIDDEN
 62
    70
370
    18
100
AcDbLine
 10
141.9067643427
 20
206.348449159
 30
0.0
 11
141.9067643427
 21
206.7538006396
 31
0.0
  0
LINE
  5
228
330
1F
100
AcDbEntity
  8
SLD-0
  6
HIDDEN
 62
    70
370
    18
100
AcDbLine
 10
141.9067643427
 20
206.7538006396
 30
0.0
 11
142.7067643427
 21
206.7538006396
 31
0.0
  0
LINE
  5
229
330
1F
100
AcDbEntity
  8
SLD-0
  6
HIDDEN
 62
    70
370
    18
100
AcDbLine
 10
139.9067643427
 20
204.463807546
 30
0.0
 11
140.7067643427
 21
204.463807546
 31
0.0
  0
LINE
  5
22A
330
1F
100
AcDbEntity
  8
SLD-0
  6
HIDDEN
 62
    70
370
    18
100
AcDbLine
 10
140.7067643427
 20
204.463807546
 30
0.0
 11
140.7067643427
 21
201.063807546
 31
0.0
  0
LINE
  5
22B
330
1F
100
AcDbEntity
  8
SLD-0
  6
HIDDEN
 62
    70
370
    18
100
AcDbLine
 10
140.7067643427
 20
201.063807546
 30
0.0
 11
139.9067643427
 21
201.063807546
 31
0.0
  0
LINE
  5
22C
330
1F
100
AcDbEntity
  8
SLD-0
  6
HIDDEN
 62
    70
370
    18
100
AcDbLine
 10
139.9067643427
 20
201.063807546
 30
0.0
 11
139.9067643427
 21
188.463807546
 31
0.0
  0
LINE
  5
22D
330
1F
100
AcDbEntity
  8
SLD-0
  6
HIDDEN
 62
    70
370
    18
100
AcDbLine
 10
138.7015952211
 20
182.563807546
 30
0.0
 11
138.7015952211
 21
185.063807546
 31
0.0
  0
LINE
  5
22E
330
1F
100
AcDbEntity
  8
SLD-0
  6
HIDDEN
 62
    70
370
    18
100
AcDbLine
 10
138.7015952211
 20
185.063807546
 30
0.0
 11
136.8067643427
 21
185.063807546
 31
0.0
  0
LINE
  5
22F
330
1F
100
AcDbEntity
  8
SLD-0
  6
HIDDEN
 62
    70
370
    18
100
AcDbLine
 10
136.8067643427
 20
185.063807546
 30
0.0
 11
136.8067643427
 21
184.563807546
 31
0.0
  0
LINE
  5
230
330
1F
100
AcDbEntity
  8
SLD-0
  6
HIDDEN
 62
    70
370
    18
100
AcDbLine
 10
136.8067643427
 20
184.563807546
 30
0.0
 11
133.4067643427
 21
184.563807546
 31
0.0
  0
LINE
  5
231
330
1F
100
AcDbEntity
  8
SLD-0
  6
HIDDEN
 62
    70
370
    18
100
AcDbLine
 10
133.4067643427
 20
184.563807546
 30
0.0
 11
133.4067643427
 21
185.363807546
 31
0.0
  0
LINE
  5
232
330
1F
100
AcDbEntity
  8
SLD-0
  6
HIDDEN
 62
    70
370
    18
100
AcDbLine
 10
133.4067643427
 20
185.363807546
 30
0.0
 11
120.8067643427
 21
185.363807546
 31
0.0
  0
LINE
  5
233
330
1F
100
AcDbEntity
  8
SLD-0
  6
HIDDEN
 62
    70
370
    18
100
AcDbLine
 10
120.8067643427
 20
185.363807546
 30
0.0
 11
120.8067643427
 21
184.563807546
 31
0.0
  0
LINE
  5
234
330
1F
100
AcDbEntity
  8
SLD-0
  6
HIDDEN
 62
    70
370
    18
100
AcDbLine
 10
120.8067643427
 20
184.563807546
 30
0.0
 11
117.4067643427
 21
184.563807546
 31
0.0
  0
LINE
  5
235
330
1F
100
AcDbEntity
  8
SLD-0
  6
HIDDEN
 62
    70
370
    18
100
AcDbLine
 10
117.4067643427
 20
184.563807546
 30
0.0
 11
117.4067643427
 21
185.363807546
 31
0.0
  0
LINE
  5
236
330
1F
100
AcDbEntity
  8
SLD-0
  6
HIDDEN
 62
    70
370
    18
100
AcDbLine
 10
117.4067643427
 20
185.363807546
 30
0.0
 11
115.5583911278
 21
185.363807546
 31
0.0
  0
LINE
  5
237
330
1F
100
AcDbEntity
  8
SLD-0
  6
HIDDEN
 62
    70
370
    18
100
AcDbLine
 10
115.5583911278
 20
185.363807546
 30
0.0
 11
115.558475367
 21
182.563807546
 31
0.0
  0
LINE
  5
238
330
1F
100
AcDbEntity
  8
SLD-0
  6
HIDDEN
 62
    70
370
    18
100
AcDbLine
 10
115.558475367
 20
182.563807546
 30
0.0
 11
138.7015952211
 21
182.563807546
 31
0.0
  0
LINE
  5
239
330
1F
100
AcDbEntity
  8
SLD-0
  6
HIDDEN
 62
    70
370
    18
100
AcDbLine
 10
104.8067643427
 20
185.363807546
 30
0.0
 11
106.6551375575
 21
185.363807546
 31
0.0
  0
LINE
  5
23A
330
1F
100
AcDbEntity
  8
SLD-0
  6
HIDDEN
 62
    70
370
    18
100
AcDbLine
 10
106.6551375575
 20
185.363807546
 30
0.0
 11
106.6551375575
 21
182.5743648269
 31
0.0
  0
LINE
  5
23B
330
1F
100
AcDbEntity
  8
SLD-0
  6
HIDDEN
 62
    70
370
    18
100
AcDbLine
 10
106.6551375575
 20
182.5743648269
 30
0.0
 11
83.5583911278
 21
182.5743648269
 31
0.0
  0
LINE
  5
23C
330
1F
100
AcDbEntity
  8
SLD-0
  6
HIDDEN
 62
    70
370
    18
100
AcDbLine
 10
83.5583911278
 20
182.5743648269
 30
0.0
 11
83.5583911278
 21
185.363807546
 31
0.0
  0
LINE
  5
23D
330
1F
100
AcDbEntity
  8
SLD-0
  6
HIDDEN
 62
    70
370
    18
100
AcDbLine
 10
83.5583911278
 20
185.363807546
 30
0.0
 11
85.4067643427
 21
185.363807546
 31
0.0
  0
LINE
  5
23E
330
1F
100
AcDbEntity
  8
SLD-0
  6
HIDDEN
 62
    70
370
    18
100
AcDbLine
 10
85.4067643427
 20
185.363807546
 30
0.0
 11
85.4067643427
 21
184.563807546
 31
0.0
  0
LINE
  5
23F
330
1F
100
AcDbEntity
  8
SLD-0
  6
HIDDEN
 62
    70
370
    18
100
AcDbLine
 10
85.4067643427
 20
184.563807546
 30
0.0
 11
88.8067643427
 21
184.563807546
 31
0.0
  0
LINE
  5
240
330
1F
100
AcDbEntity
  8
SLD-0
  6
HIDDEN
 62
    70
370
    18
100
AcDbLine
 10
88.8067643427
 20
184.563807546
 30
0.0
 11
88.8067643427
 21
185.363807546
 31
0.0
  0
LINE
  5
241
330
1F
100
AcDbEntity
  8
SLD-0
  6
HIDDEN
 62
    70
370
    18
100
AcDbLine
 10
88.8067643427
 20
185.363807546
 30
0.0
 11
101.4067643427
 21
185.363807546
 31
0.0
  0
LINE
  5
242
330
1F
100
AcDbEntity
  8
SLD-0
  6
HIDDEN
 62
    70
370
    18
100
AcDbLine
 10
101.4067643427
 20
185.363807546
 30
0.0
 11
101.4067643427
 21
184.563807546
 31
0.0
  0
LINE
  5
243
330
1F
100
AcDbEntity
  8
SLD-0
  6
HIDDEN
 62
    70
370
    18
100
AcDbLine
 10
101.4067643427
 20
184.563807546
 30
0.0
 11
104.8067643427
 21
184.563807546
 31
0.0
  0
LINE
  5
244
330
1F
100
AcDbEntity
  8
SLD-0
  6
HIDDEN
 62
    70
370
    18
100
AcDbLine
 10
104.8067643427
 20
184.563807546
 30
0.0
 11
104.8067643427
 21
185.363807546
 31
0.0
  0
LINE
  5
245
330
1F
100
AcDbEntity
  8
SLD-0
  6
HIDDEN
 62
    70
370
    18
100
AcDbLine
 10
80.5067643427
 20
188.463807546
 30
0.0
 11
79.7067643427
 21
188.463807546
 31
0.0
  0
LINE
  5
246
330
1F
100
AcDbEntity
  8
SLD-0
  6
HIDDEN
 62
    70
370
    18
100
AcDbLine
 10
79.7067643427
 20
188.463807546
 30
0.0
 11
79.7067643427
 21
185.063807546
 31
0.0
  0
LINE
  5
247
330
1F
100
AcDbEntity
  8
SLD-0
  6
HIDDEN
 62
    70
370
    18
100
AcDbLine
 10
79.7067643427
 20
185.063807546
 30
0.0
 11
80.5067643427
 21
185.063807546
 31
0.0
  0
LINE
  5
248
330
1F
100
AcDbEntity
  8
SLD-0
  6
HIDDEN
 62
    70
370
    18
100
AcDbLine
 10
80.5067643427
 20
185.063807546
 30
0.0
 11
80.5067643427
 21
183.2153957418
 31
0.0
  0
LINE
  5
249
330
1F
100
AcDbEntity
  8
SLD-0
  6
HIDDEN
 62
    70
370
    18
100
AcDbLine
 10
80.5067643427
 20
183.2153957418
 30
0.0
 11
77.7067643427
 21
183.2153957418
 31
0.0
  0
LINE
  5
24A
330
1F
100
AcDbEntity
  8
SLD-0
  6
HIDDEN
 62
    70
370
    18
100
AcDbLine
 10
77.7067643427
 20
206.3905536772
 30
0.0
 11
80.5067643427
 21
206.3905536772
 31
0.0
  0
LINE
  5
24B
330
1F
100
AcDbEntity
  8
SLD-0
  6
HIDDEN
 62
    70
370
    18
100
AcDbLine
 10
80.5067643427
 20
206.3905536772
 30
0.0
 11
80.5067643427
 21
204.463807546
 31
0.0
  0
LINE
  5
24C
330
1F
100
AcDbEntity
  8
SLD-0
  6
HIDDEN
 62
    70
370
    18
100
AcDbLine
 10
80.5067643427
 20
204.463807546
 30
0.0
 11
79.7067643427
 21
204.463807546
 31
0.0
  0
LINE
  5
24D
330
1F
100
AcDbEntity
  8
SLD-0
  6
HIDDEN
 62
    70
370
    18
100
AcDbLine
 10
79.7067643427
 20
204.463807546
 30
0.0
 11
79.7067643427
 21
201.063807546
 31
0.0
  0
LINE
  5
24E
330
1F
100
AcDbEntity
  8
SLD-0
  6
HIDDEN
 62
    70
370
    18
100
AcDbLine
 10
79.7067643427
 20
201.063807546
 30
0.0
 11
80.5067643427
 21
201.063807546
 31
0.0
  0
LINE
  5
24F
330
1F
100
AcDbEntity
  8
SLD-0
  6
HIDDEN
 62
    70
370
    18
100
AcDbLine
 10
80.5067643427
 20
201.063807546
 30
0.0
 11
80.5067643427
 21
188.463807546
 31
0.0
  0
LINE
  5
250
330
1F
100
AcDbEntity
  8
SLD-0
  6
HIDDEN
 62
    70
370
    18
100
AcDbLine
 10
77.7067643427
 20
183.2153957418
 30
0.0
 11
77.7067643427
 21
206.3905536772
 31
0.0
  0
LINE
  5
251
330
1F
100
AcDbEntity
  8
SLD-0
  6
HIDDEN
 62
    70
370
    18
100
AcDbLine
 10
139.1156009137
 20
240.3297878135
 30
0.0
 11
115.1056530032
 21
240.3297878135
 31
0.0
  0
LINE
  5
252
330
1F
100
AcDbEntity
  8
SLD-0
  6
Continuous
 62
     7
370
    25
100
AcDbLine
 10
96.9028551333
 20
231.6459889802
 30
0.0
 11
96.9028551333
 21
227.8992187545
 31
0.0
  0
LINE
  5
253
330
1F
100
AcDbEntity
  8
SLD-0
  6
HIDDEN
 62
    70
370
    18
100
AcDbLine
 10
87.4943287774
 20
241.363807546
 30
0.0
 11
89.5943287774
 21
241.363807546
 31
0.0
  0
CIRCLE
  5
254
330
1F
100
AcDbEntity
  8
SLD-0
  6
HIDDEN
 62
    70
370
    18
100
AcDbCircle
 10
91.7067643427
 20
232.563807546
 30
0.0
 40
1.199999999999984
  0
CIRCLE
  5
255
330
1F
100
AcDbEntity
  8
SLD-0
  6
HIDDEN
 62
    70
370
    18
100
AcDbCircle
 10
111.9067643427
 20
189.163807546
 30
0.0
 40
1.199999999999998
  0
ARC
  5
256
330
1F
100
AcDbEntity
  8
SLD-0
  6
Continuous
 62
     7
370
    35
100
AcDbCircle
 10
96.9028551333
 20
229.7870703942
 30
0.0
 40
0.7124140570063275
100
AcDbArc
 50
90.0000000001
 51
269.9999999999
  0
INSERT
  5
262
330
1F
100
AcDbEntity
  8
SLD-0
 62
    70
100
AcDbBlockReference
  2
SW_CENTERMARKSYMBOL_0
 10
91.7067643427
 20
232.563807546
 30
0.0
  0
INSERT
  5
26E
330
1F
100
AcDbEntity
  8
SLD-0
 62
    70
100
AcDbBlockReference
  2
SW_CENTERMARKSYMBOL_1
 10
111.9067643427
 20
189.163807546
 30
0.0
  0
INSERT
  5
27A
330
1F
100
AcDbEntity
  8
SLD-0
 62
    70
100
AcDbBlockReference
  2
SW_CENTERMARKSYMBOL_2
 10
96.9028551333
 20
229.7870703942
 30
0.0
  0
LINE
  5
27B
330
1F
100
AcDbEntity
  8
SLD-0
  6
CENTERX2
 62
    70
370
    18
100
AcDbLine
 10
95.1067643427
 20
175.463807546
 30
0.0
 11
95.1067643427
 21
181.783807546
 31
0.0
  0
LINE
  5
27C
330
1F
100
AcDbEntity
  8
SLD-0
  6
CENTERX2
 62
    70
370
    18
100
AcDbLine
 10
71.9067643427
 20
194.763807546
 30
0.0
 11
87.7598610817
 21
194.763807546
 31
0.0
  0
LINE
  5
27D
330
1F
100
AcDbEntity
  8
SLD-0
  6
CENTERX2
 62
    70
370
    18
100
AcDbLine
 10
148.5067643427
 20
194.763807546
 30
0.0
 11
87.9498107237
 21
194.763807546
 31
0.0
  0
LINE
  5
27E
330
1F
100
AcDbEntity
  8
SLD-0
  6
CENTERX2
 62
    70
370
    18
100
AcDbLine
 10
127.1067643427
 20
191.800737089
 30
0.0
 11
127.1067643427
 21
248.963807546
 31
0.0
  0
LINE
  5
27F
330
1F
100
AcDbEntity
  8
SLD-0
  6
CENTERX2
 62
    70
370
    18
100
AcDbLine
 10
127.1067643427
 20
175.643807546
 30
0.0
 11
127.1067643427
 21
191.4621529305
 31
0.0
  0
LINE
  5
280
330
1F
100
AcDbEntity
  8
0
  6
Continuous
 62
     7
370
    25
100
AcDbLine
 10
145.1067650341
 20
91.9517856734
 30
0.0
 11
144.7067642234
 21
91.9517856734
 31
0.0
  0
LINE
  5
281
330
1F
100
AcDbEntity
  8
0
  6
Continuous
 62
     7
370
    25
100
AcDbLine
 10
144.7067642234
 20
87.9517850178
 30
0.0
 11
145.1067650341
 21
87.9517850178
 31
0.0
  0
LINE
  5
282
330
1F
100
AcDbEntity
  8
0
  6
Continuous
 62
     7
370
    25
100
AcDbLine
 10
75.3067636512
 20
87.954534282
 30
0.0
 11
75.7067644619
 21
87.954534282
 31
0.0
  0
LINE
  5
283
330
1F
100
AcDbEntity
  8
0
  6
Continuous
 62
     7
370
    25
100
AcDbLine
 10
75.7067644619
 20
91.9545334476
 30
0.0
 11
75.3067636512
 21
91.9545334476
 31
0.0
  0
ARC
  5
284
330
1F
100
AcDbEntity
  8
0
  6
Continuous
 62
     7
370
    25
100
AcDbCircle
 10
76.1067643427
 20
95.5448931369
 30
0.0
 40
0.4000000000000057
100
AcDbArc
 50
90.0
 51
180.0
  0
ARC
  5
285
330
1F
100
AcDbEntity
  8
0
  6
Continuous
 62
     7
370
    25
100
AcDbCircle
 10
76.1067643427
 20
84.3447867514
 30
0.0
 40
0.4000000000000057
100
AcDbArc
 50
180.0
 51
270.0
  0
LINE
  5
286
330
1F
100
AcDbEntity
  8
0
  6
Continuous
 62
     7
370
    25
100
AcDbLine
 10
76.9082123064
 20
95.9448930519
 30
0.0
 11
76.1067652725
 21
95.9448930519
 31
0.0
  0
LINE
  5
287
330
1F
100
AcDbEntity
  8
0
  6
Continuous
 62
     7
370
    25
100
AcDbLine
 10
76.1067652725
 20
83.9447867768
 30
0.0
 11
76.9092434667
 21
83.9447867768
 31
0.0
  0
ARC
  5
288
330
1F
100
AcDbEntity
  8
0
  6
Continuous
 62
     7
370
    25
100
AcDbCircle
 10
75.3067643427
 20
86.2448399442
 30
0.0
 40
0.4000000000000057
100
AcDbArc
 50
0.0
 51
90.0
  0
ARC
  5
289
330
1F
100
AcDbEntity
  8
0
  6
Continuous
 62
     7
370
    25
100
AcDbCircle
 10
75.3067643427
 20
93.6448399442
 30
0.0
 40
0.4000000000000057
100
AcDbArc
 50
270.0
 51
0.0
  0
LINE
  5
28A
330
1F
100
AcDbEntity
  8
0
  6
Continuous
 62
     7
370
    25
100
AcDbLine
 10
143.5042852186
 20
83.9447867768
 30
0.0
 11
144.3067634128
 21
83.9447867768
 31
0.0
  0
ARC
  5
28B
330
1F
100
AcDbEntity
  8
0
  6
Continuous
 62
     7
370
    25
100
AcDbCircle
 10
144.3067643427
 20
84.3447867514
 30
0.0
 40
0.4000000000000341
100
AcDbArc
 50
270.0
 51
0.0
  0
ARC
  5
28C
330
1F
100
AcDbEntity
  8
0
  6
Continuous
 62
     7
370
    25
100
AcDbCircle
 10
144.3067643427
 20
95.5448931369
 30
0.0
 40
0.4000000000000341
100
AcDbArc
 50
0.0
 51
90.0
  0
LINE
  5
28D
330
1F
100
AcDbEntity
  8
0
  6
Continuous
 62
     7
370
    25
100
AcDbLine
 10
144.3067634128
 20
95.9448930519
 30
0.0
 11
143.5052776359
 21
95.9448930519
 31
0.0
  0
ARC
  5
28E
330
1F
100
AcDbEntity
  8
0
  6
Continuous
 62
     7
370
    25
100
AcDbCircle
 10
145.1067643427
 20
93.6448399442
 30
0.0
 40
0.4000000000000057
100
AcDbArc
 50
180.0
 51
270.0
  0
ARC
  5
28F
330
1F
100
AcDbEntity
  8
0
  6
Continuous
 62
     7
370
    25
100
AcDbCircle
 10
145.1067643427
 20
86.2448399442
 30
0.0
 40
0.4000000000000057
100
AcDbArc
 50
90.0
 51
180.0
  0
LINE
  5
290
330
1F
100
AcDbEntity
  8
0
  6
Continuous
 62
     7
370
    25
100
AcDbLine
 10
136.78514302
 20
80.5498045581
 30
0.0
 11
136.78514302
 21
80.5522476035
 31
0.0
  0
LINE
  5
291
330
1F
100
AcDbEntity
  8
0
  6
Continuous
 62
     7
370
    25
100
AcDbLine
 10
135.4503953479
 20
80.5574302273
 30
0.0
 11
135.4503953479
 21
80.5598740178
 31
0.0
  0
LINE
  5
292
330
1F
100
AcDbEntity
  8
0
  6
Continuous
 62
     7
370
    25
100
AcDbLine
 10
136.7241257452
 20
81.3352782922
 30
0.0
 11
136.7241257452
 21
81.3377213376
 31
0.0
  0
LINE
  5
293
330
1F
100
AcDbEntity
  8
0
  6
Continuous
 62
     7
370
    25
100
AcDbLine
 10
135.5266684316
 20
81.3429039615
 30
0.0
 11
135.5266684316
 21
81.3453470069
 31
0.0
  0
LINE
  5
294
330
1F
100
AcDbEntity
  8
0
  6
Continuous
 62
     7
370
    25
100
AcDbLine
 10
134.458870592
 20
81.4801712232
 30
0.0
 11
134.458870592
 21
81.4826142686
 31
0.0
  0
LINE
  5
295
330
1F
100
AcDbEntity
  8
0
  6
Continuous
 62
     7
370
    25
100
AcDbLine
 10
136.1292088054
 20
81.4954233068
 30
0.0
 11
136.1292088054
 21
81.4978663521
 31
0.0
  0
LINE
  5
296
330
1F
100
AcDbEntity
  8
0
  6
Continuous
 62
     7
370
    25
100
AcDbLine
 10
77.1535956882
 20
97.5448411601
 30
0.0
 11
76.9361400627
 21
97.5448411601
 31
0.0
  0
LINE
  5
297
330
1F
100
AcDbEntity
  8
0
  6
Continuous
 62
     7
370
    25
100
AcDbLine
 10
143.4773528598
 20
97.5448411601
 30
0.0
 11
143.2598972343
 21
97.5448411601
 31
0.0
  0
LINE
  5
298
330
1F
100
AcDbEntity
  8
0
  6
Continuous
 62
     7
370
    25
100
AcDbLine
 10
133.4067636751
 20
90.9263354438
 30
0.0
 11
133.4067636751
 21
88.963344385
 31
0.0
  0
LINE
  5
299
330
1F
100
AcDbEntity
  8
0
  6
Continuous
 62
     7
370
    25
100
AcDbLine
 10
135.10676414
 20
91.9078302282
 30
0.0
 11
133.4067636751
 21
90.9263354438
 31
0.0
  0
LINE
  5
29A
330
1F
100
AcDbEntity
  8
0
  6
Continuous
 62
     7
370
    25
100
AcDbLine
 10
136.8067646049
 20
90.9263354438
 30
0.0
 11
135.10676414
 21
91.9078302282
 31
0.0
  0
LINE
  5
29B
330
1F
100
AcDbEntity
  8
0
  6
Continuous
 62
     7
370
    25
100
AcDbLine
 10
133.4067636751
 20
88.963344385
 30
0.0
 11
135.10676414
 21
87.9818496006
 31
0.0
  0
LINE
  5
29C
330
1F
100
AcDbEntity
  8
0
  6
Continuous
 62
     7
370
    25
100
AcDbLine
 10
135.10676414
 20
87.9818496006
 30
0.0
 11
136.8067646049
 21
88.963344385
 31
0.0
  0
LINE
  5
29D
330
1F
100
AcDbEntity
  8
0
  6
Continuous
 62
     7
370
    25
100
AcDbLine
 10
136.8067646049
 20
88.963344385
 30
0.0
 11
136.8067646049
 21
90.9263354438
 31
0.0
  0
CIRCLE
  5
29E
330
1F
100
AcDbEntity
  8
0
  6
Continuous
 62
     7
370
    25
100
AcDbCircle
 10
135.1043408971
 20
89.9545337265
 30
0.0
 40
2.0
  0
LINE
  5
29F
330
1F
100
AcDbEntity
  8
0
  6
Continuous
 62
     7
370
    25
100
AcDbLine
 10
101.4067643903
 20
90.9263354438
 30
0.0
 11
101.4067643903
 21
88.963344385
 31
0.0
  0
LINE
  5
2A0
330
1F
100
AcDbEntity
  8
0
  6
Continuous
 62
     7
370
    25
100
AcDbLine
 10
104.8067642026
 20
88.963344385
 30
0.0
 11
104.8067642026
 21
90.9263354438
 31
0.0
  0
LINE
  5
2A1
330
1F
100
AcDbEntity
  8
0
  6
Continuous
 62
     7
370
    25
100
AcDbLine
 10
103.1067641102
 20
87.9818496006
 30
0.0
 11
104.8067642026
 21
88.963344385
 31
0.0
  0
LINE
  5
2A2
330
1F
100
AcDbEntity
  8
0
  6
Continuous
 62
     7
370
    25
100
AcDbLine
 10
101.4067643903
 20
88.963344385
 30
0.0
 11
103.1067641102
 21
87.9818496006
 31
0.0
  0
LINE
  5
2A3
330
1F
100
AcDbEntity
  8
0
  6
Continuous
 62
     7
370
    25
100
AcDbLine
 10
104.8067642026
 20
90.9263354438
 30
0.0
 11
103.1067641102
 21
91.9078302282
 31
0.0
  0
LINE
  5
2A4
330
1F
100
AcDbEntity
  8
0
  6
Continuous
 62
     7
370
    25
100
AcDbLine
 10
103.1067641102
 20
91.9078302282
 30
0.0
 11
101.4067643903
 21
90.9263354438
 31
0.0
  0
CIRCLE
  5
2A5
330
1F
100
AcDbEntity
  8
0
  6
Continuous
 62
     7
370
    25
100
AcDbCircle
 10
103.1043408971
 20
89.9545337265
 30
0.0
 40
2.000000000000014
  0
LINE
  5
2A6
330
1F
100
AcDbEntity
  8
0
  6
Continuous
 62
     7
370
    25
100
AcDbLine
 10
85.406764748
 20
90.9263354438
 30
0.0
 11
85.406764748
 21
88.963344385
 31
0.0
  0
LINE
  5
2A7
330
1F
100
AcDbEntity
  8
0
  6
Continuous
 62
     7
370
    25
100
AcDbLine
 10
87.1067637228
 20
91.9078302282
 30
0.0
 11
85.406764748
 21
90.9263354438
 31
0.0
  0
LINE
  5
2A8
330
1F
100
AcDbEntity
  8
0
  6
Continuous
 62
     7
370
    25
100
AcDbLine
 10
88.8067641877
 20
90.9263354438
 30
0.0
 11
87.1067637228
 21
91.9078302282
 31
0.0
  0
LINE
  5
2A9
330
1F
100
AcDbEntity
  8
0
  6
Continuous
 62
     7
370
    25
100
AcDbLine
 10
88.8067641877
 20
88.963344385
 30
0.0
 11
88.8067641877
 21
90.9263354438
 31
0.0
  0
LINE
  5
2AA
330
1F
100
AcDbEntity
  8
0
  6
Continuous
 62
     7
370
    25
100
AcDbLine
 10
87.1067637228
 20
87.9818496006
 30
0.0
 11
88.8067641877
 21
88.963344385
 31
0.0
  0
LINE
  5
2AB
330
1F
100
AcDbEntity
  8
0
  6
Continuous
 62
     7
370
    25
100
AcDbLine
 10
85.406764748
 20
88.963344385
 30
0.0
 11
87.1067637228
 21
87.9818496006
 31
0.0
  0
CIRCLE
  5
2AC
330
1F
100
AcDbEntity
  8
0
  6
Continuous
 62
     7
370
    25
100
AcDbCircle
 10
87.1043408971
 20
89.9545337265
 30
0.0
 40
2.000000000000014
  0
LINE
  5
2AD
330
1F
100
AcDbEntity
  8
0
  6
Continuous
 62
     7
370
    25
100
AcDbLine
 10
145.1067650341
 20
91.6838359731
 30
0.0
 11
145.1067650341
 21
91.9517856734
 31
0.0
  0
LINE
  5
2AE
330
1F
100
AcDbEntity
  8
0
  6
Continuous
 62
     7
370
    25
100
AcDbLine
 10
145.1067650341
 20
87.9517850178
 30
0.0
 11
145.1067650341
 21
91.6838359731
 31
0.0
  0
LINE
  5
2AF
330
1F
100
AcDbEntity
  8
0
  6
Continuous
 62
     7
370
    25
100
AcDbLine
 10
146.506764891
 20
90.9263354438
 30
0.0
 11
145.1067650341
 21
90.9263354438
 31
0.0
  0
LINE
  5
2B0
330
1F
100
AcDbEntity
  8
0
  6
Continuous
 62
     7
370
    25
100
AcDbLine
 10
146.506764891
 20
88.963344385
 30
0.0
 11
145.1067650341
 21
88.963344385
 31
0.0
  0
LINE
  5
2B1
330
1F
100
AcDbEntity
  8
0
  6
Continuous
 62
     7
370
    25
100
AcDbLine
 10
146.506764891
 20
90.9263354438
 30
0.0
 11
146.506764891
 21
88.963344385
 31
0.0
  0
LINE
  5
2B2
330
1F
100
AcDbEntity
  8
0
  6
Continuous
 62
     7
370
    25
100
AcDbLine
 10
146.506764891
 20
87.9818496006
 30
0.0
 11
145.1067650341
 21
87.9818496006
 31
0.0
  0
LINE
  5
2B3
330
1F
100
AcDbEntity
  8
0
  6
Continuous
 62
     7
370
    25
100
AcDbLine
 10
146.506764891
 20
88.963344385
 30
0.0
 11
146.506764891
 21
87.9818496006
 31
0.0
  0
LINE
  5
2B4
330
1F
100
AcDbEntity
  8
0
  6
Continuous
 62
     7
370
    25
100
AcDbLine
 10
146.506764891
 20
91.9078302282
 30
0.0
 11
145.1067650341
 21
91.9078302282
 31
0.0
  0
LINE
  5
2B5
330
1F
100
AcDbEntity
  8
0
  6
Continuous
 62
     7
370
    25
100
AcDbLine
 10
146.506764891
 20
91.9078302282
 30
0.0
 11
146.506764891
 21
90.9263354438
 31
0.0
  0
LINE
  5
2B6
330
1F
100
AcDbEntity
  8
0
  6
Continuous
 62
     7
370
    25
100
AcDbLine
 10
75.3067636512
 20
91.9545334476
 30
0.0
 11
75.3067636512
 21
87.954534282
 31
0.0
  0
LINE
  5
2B7
330
1F
100
AcDbEntity
  8
0
  6
Continuous
 62
     7
370
    25
100
AcDbLine
 10
73.9067637943
 20
88.963344385
 30
0.0
 11
75.3067636512
 21
88.963344385
 31
0.0
  0
LINE
  5
2B8
330
1F
100
AcDbEntity
  8
0
  6
Continuous
 62
     7
370
    25
100
AcDbLine
 10
73.9067637943
 20
90.9263354438
 30
0.0
 11
75.3067636512
 21
90.9263354438
 31
0.0
  0
LINE
  5
2B9
330
1F
100
AcDbEntity
  8
0
  6
Continuous
 62
     7
370
    25
100
AcDbLine
 10
73.9067637943
 20
88.963344385
 30
0.0
 11
73.9067637943
 21
90.9263354438
 31
0.0
  0
LINE
  5
2BA
330
1F
100
AcDbEntity
  8
0
  6
Continuous
 62
     7
370
    25
100
AcDbLine
 10
73.9067637943
 20
91.9078302282
 30
0.0
 11
75.3067636512
 21
91.9078302282
 31
0.0
  0
LINE
  5
2BB
330
1F
100
AcDbEntity
  8
0
  6
Continuous
 62
     7
370
    25
100
AcDbLine
 10
73.9067637943
 20
90.9263354438
 30
0.0
 11
73.9067637943
 21
91.9078302282
 31
0.0
  0
LINE
  5
2BC
330
1F
100
AcDbEntity
  8
0
  6
Continuous
 62
     7
370
    25
100
AcDbLine
 10
73.9067637943
 20
87.9818496006
 30
0.0
 11
75.3067636512
 21
87.9818496006
 31
0.0
  0
LINE
  5
2BD
330
1F
100
AcDbEntity
  8
0
  6
Continuous
 62
     7
370
    25
100
AcDbLine
 10
73.9067637943
 20
87.9818496006
 30
0.0
 11
73.9067637943
 21
88.963344385
 31
0.0
  0
LINE
  5
2BE
330
1F
100
AcDbEntity
  8
0
  6
Continuous
 62
     7
370
    25
100
AcDbLine
 10
117.4067640327
 20
90.9263354438
 30
0.0
 11
117.4067640327
 21
88.963344385
 31
0.0
  0
LINE
  5
2BF
330
1F
100
AcDbEntity
  8
0
  6
Continuous
 62
     7
370
    25
100
AcDbLine
 10
120.8067642175
 20
88.963344385
 30
0.0
 11
120.8067642175
 21
90.9263354438
 31
0.0
  0
LINE
  5
2C0
330
1F
100
AcDbEntity
  8
0
  6
Continuous
 62
     7
370
    25
100
AcDbLine
 10
119.1067644976
 20
87.9818496006
 30
0.0
 11
120.8067642175
 21
88.963344385
 31
0.0
  0
LINE
  5
2C1
330
1F
100
AcDbEntity
  8
0
  6
Continuous
 62
     7
370
    25
100
AcDbLine
 10
117.4067640327
 20
88.963344385
 30
0.0
 11
119.1067644976
 21
87.9818496006
 31
0.0
  0
LINE
  5
2C2
330
1F
100
AcDbEntity
  8
0
  6
Continuous
 62
     7
370
    25
100
AcDbLine
 10
119.1067644976
 20
91.9078302282
 30
0.0
 11
117.4067640327
 21
90.9263354438
 31
0.0
  0
LINE
  5
2C3
330
1F
100
AcDbEntity
  8
0
  6
Continuous
 62
     7
370
    25
100
AcDbLine
 10
120.8067642175
 20
90.9263354438
 30
0.0
 11
119.1067644976
 21
91.9078302282
 31
0.0
  0
CIRCLE
  5
2C4
330
1F
100
AcDbEntity
  8
0
  6
Continuous
 62
     7
370
    25
100
AcDbCircle
 10
119.1043408971
 20
89.9545337265
 30
0.0
 40
2.000000000000014
  0
LINE
  5
2C5
330
1F
100
AcDbEntity
  8
0
  6
Continuous
 62
     7
370
    25
100
AcDbLine
 10
75.7067644619
 20
88.4839799898
 30
0.0
 11
75.7067644619
 21
91.4056998389
 31
0.0
  0
LINE
  5
2C6
330
1F
100
AcDbEntity
  8
0
  6
Continuous
 62
     7
370
    25
100
AcDbLine
 10
75.7067644619
 20
91.4056998389
 30
0.0
 11
75.7067644619
 21
95.5448385971
 31
0.0
  0
LINE
  5
2C7
330
1F
100
AcDbEntity
  8
0
  6
Continuous
 62
     7
370
    25
100
AcDbLine
 10
75.7067644619
 20
84.3448412316
 30
0.0
 11
75.7067644619
 21
88.4839799898
 31
0.0
  0
SPLINE
  5
2C8
330
1F
100
AcDbEntity
  8
0
  6
Continuous
 62
     7
370
    25
100
AcDbSpline
210
0.0
220
0.0
230
1.0
 70
     8
 71
     3
 72
    10
 73
     6
 74
     0
 42
0.000000001
 43
0.00000001
 40
0.0
 40
0.0
 40
0.0
 40
0.0
 40
0.4082517227410928
 40
0.9962188138919076
 40
1.0
 40
1.0
 40
1.0
 40
1.0
 10
75.70676446186405
 20
93.18195848638382
 30
0.0
 10
75.64424100868334
 20
93.18771685541405
 30
0.0
 10
75.49167082490082
 20
93.2017684692731
 30
0.0
 10
75.3752915859991
 20
93.21963091989818
 30
0.0
 10
75.30719875460834
 20
93.22708669544525
 30
0.0
 10
75.3067636512409
 20
93.22713433677521
 30
0.0
  0
LINE
  5
2C9
330
1F
100
AcDbEntity
  8
0
  6
Continuous
 62
     7
370
    25
100
AcDbLine
 10
75.3067636512
 20
91.9545334476
 30
0.0
 11
75.3067636512
 21
93.2271343368
 31
0.0
  0
SPLINE
  5
2CA
330
1F
100
AcDbEntity
  8
0
  6
Continuous
 62
     7
370
    25
100
AcDbSpline
210
0.0
220
0.0
230
1.0
 70
     8
 71
     3
 72
    11
 73
     7
 74
     0
 42
0.000000001
 43
0.00000001
 40
0.0
 40
0.0
 40
0.0
 40
0.0
 40
0.0037789442410311
 40
0.2992998364213125
 40
0.5919903299015837
 40
0.9999999999999999
 40
0.9999999999999999
 40
0.9999999999999999
 40
0.9999999999999999
 10
75.3067636512409
 20
86.66254549199905
 30
0.0
 10
75.30719872493106
 20
86.66259314502402
 30
0.0
 10
75.34165741920911
 20
86.66636735857908
 30
0.0
 10
75.41131081915569
 20
86.67497482021983
 30
0.0
 10
75.5363856145156
 20
86.69222132964686
 30
0.0
 10
75.64406436199405
 20
86.70201727547055
 30
0.0
 10
75.70676446186405
 20
86.70772134239044
 30
0.0
  0
LINE
  5
2CB
330
1F
100
AcDbEntity
  8
0
  6
Continuous
 62
     7
370
    25
100
AcDbLine
 10
75.3067636512
 20
86.662545492
 30
0.0
 11
75.3067636512
 21
87.954534282
 31
0.0
  0
SPLINE
  5
2CC
330
1F
100
AcDbEntity
  8
0
  6
Continuous
 62
     7
370
    25
100
AcDbSpline
210
0.0
220
0.0
230
1.0
 70
     8
 71
     3
 72
    12
 73
     8
 74
     0
 42
0.000000001
 43
0.00000001
 40
0.0
 40
0.0
 40
0.0
 40
0.0
 40
0.2165390626657107
 40
0.4330901161374434
 40
0.648818990082698
 40
0.8627281020199413
 40
1.0
 40
1.0
 40
1.0
 40
1.0
 10
75.70676446186405
 20
86.25702231103743
 30
0.0
 10
75.70230796066934
 20
86.30262172671947
 30
0.0
 10
75.69339471150211
 20
86.39382308314173
 30
0.0
 10
75.6241233254313
 20
86.51541742991999
 30
0.0
 10
75.52222386982635
 20
86.60733031041254
 30
0.0
 10
75.40967719025352
 20
86.65576266258884
 30
0.0
 10
75.33568585970706
 20
86.66063928599279
 30
0.0
 10
75.3067636512409
 20
86.66254549199904
 30
0.0
  0
SPLINE
  5
2CD
330
1F
100
AcDbEntity
  8
0
  6
Continuous
 62
     7
370
    25
100
AcDbSpline
210
0.0
220
0.0
230
1.0
 70
     8
 71
     3
 72
    13
 73
     9
 74
     0
 42
0.000000001
 43
0.00000001
 40
0.0
 40
0.0
 40
0.0
 40
0.0
 40
0.0088094291609142
 40
0.2207149683450593
 40
0.4335062823061775
 40
0.6480517048294706
 40
0.8640096548413636
 40
0.9999999999999999
 40
0.9999999999999999
 40
0.9999999999999999
 40
0.9999999999999999
 10
75.3067636512409
 20
93.22713433677521
 30
0.0
 10
75.30861722590959
 20
93.22714318193819
 30
0.0
 10
75.35505742843108
 20
93.22736479219567
 30
0.0
 10
75.44675066846712
 20
93.24468803260916
 30
0.0
 10
75.56511358246922
 20
93.31335607445595
 30
0.0
 10
75.65412162742257
 20
93.41758816496551
 30
0.0
 10
75.7003481728652
 20
93.53019698739281
 30
0.0
 10
75.70497621784428
 20
93.60410138027409
 30
0.0
 10
75.70676446186405
 20
93.6326575177368
 30
0.0
  0
LINE
  5
2CE
330
1F
100
AcDbEntity
  8
0
  6
Continuous
 62
     7
370
    25
100
AcDbLine
 10
75.3067636512
 20
86.6448399323
 30
0.0
 11
75.3067636512
 21
86.662545492
 31
0.0
  0
LINE
  5
2CF
330
1F
100
AcDbEntity
  8
0
  6
Continuous
 62
     7
370
    25
100
AcDbLine
 10
75.3067636512
 20
93.2271343368
 30
0.0
 11
75.3067636512
 21
93.2448398965
 31
0.0
  0
LINE
  5
2D0
330
1F
100
AcDbEntity
  8
0
  6
Continuous
 62
     7
370
    25
100
AcDbLine
 10
144.7067642234
 20
91.4056998389
 30
0.0
 11
144.7067642234
 21
88.4839799898
 31
0.0
  0
LINE
  5
2D1
330
1F
100
AcDbEntity
  8
0
  6
Continuous
 62
     7
370
    25
100
AcDbLine
 10
144.7067642234
 20
88.4839799898
 30
0.0
 11
144.7067642234
 21
84.3448412316
 31
0.0
  0
LINE
  5
2D2
330
1F
100
AcDbEntity
  8
0
  6
Continuous
 62
     7
370
    25
100
AcDbLine
 10
144.7067642234
 20
95.5448385971
 30
0.0
 11
144.7067642234
 21
91.4056998389
 31
0.0
  0
SPLINE
  5
2D3
330
1F
100
AcDbEntity
  8
0
  6
Continuous
 62
     7
370
    25
100
AcDbSpline
210
0.0
220
0.0
230
1.0
 70
     8
 71
     3
 72
    10
 73
     6
 74
     0
 42
0.000000001
 43
0.00000001
 40
0.0
 40
0.0
 40
0.0
 40
0.0
 40
0.4082517227410928
 40
0.9962188138919076
 40
1.0
 40
1.0
 40
1.0
 40
1.0
 10
144.7067642234455
 20
86.70772134239044
 30
0.0
 10
144.7692876766262
 20
86.70196297336024
 30
0.0
 10
144.9218578604087
 20
86.68791135950123
 30
0.0
 10
145.0382370993105
 20
86.67004890887577
 30
0.0
 10
145.1063299307012
 20
86.662593133329
 30
0.0
 10
145.1067650340687
 20
86.66254549199905
 30
0.0
  0
LINE
  5
2D4
330
1F
100
AcDbEntity
  8
0
  6
Continuous
 62
     7
370
    25
100
AcDbLine
 10
145.1067650341
 20
87.954534282
 30
0.0
 11
145.1067650341
 21
86.662545492
 31
0.0
  0
SPLINE
  5
2D5
330
1F
100
AcDbEntity
  8
0
  6
Continuous
 62
     7
370
    25
100
AcDbSpline
210
0.0
220
0.0
230
1.0
 70
     8
 71
     3
 72
    11
 73
     7
 74
     0
 42
0.000000001
 43
0.00000001
 40
0.0
 40
0.0
 40
0.0
 40
0.0
 40
0.0037789442410311
 40
0.2992998364213125
 40
0.5919903299015837
 40
0.9999999999999999
 40
0.9999999999999999
 40
0.9999999999999999
 40
0.9999999999999999
 10
145.1067650340687
 20
93.22713433677521
 30
0.0
 10
145.1063299603785
 20
93.22708668375024
 30
0.0
 10
145.0718712661004
 20
93.2233124701953
 30
0.0
 10
145.0022178661539
 20
93.21470500855439
 30
0.0
 10
144.877143070794
 20
93.19745849912742
 30
0.0
 10
144.7694643233155
 20
93.18766255330371
 30
0.0
 10
144.7067642234455
 20
93.18195848638382
 30
0.0
  0
LINE
  5
2D6
330
1F
100
AcDbEntity
  8
0
  6
Continuous
 62
     7
370
    25
100
AcDbLine
 10
145.1067650341
 20
93.2271343368
 30
0.0
 11
145.1067650341
 21
91.9545334476
 31
0.0
  0
SPLINE
  5
2D7
330
1F
100
AcDbEntity
  8
0
  6
Continuous
 62
     7
370
    25
100
AcDbSpline
210
0.0
220
0.0
230
1.0
 70
     8
 71
     3
 72
    12
 73
     8
 74
     0
 42
0.000000001
 43
0.00000001
 40
0.0
 40
0.0
 40
0.0
 40
0.0
 40
0.2165367993214868
 40
0.4330899699056773
 40
0.648818899497191
 40
0.8627280666112941
 40
0.9999999999999999
 40
0.9999999999999999
 40
0.9999999999999999
 40
0.9999999999999999
 10
144.7067642234455
 20
93.6326575177368
 30
0.0
 10
144.7112208817502
 20
93.58705866224066
 30
0.0
 10
144.7201345353052
 20
93.49585750374732
 30
0.0
 10
144.7894048474853
 20
93.3742625922809
 30
0.0
 10
144.891304865626
 20
93.28234954506277
 30
0.0
 10
145.0038514876242
 20
93.23391716222794
 30
0.0
 10
145.0778428235139
 20
93.22904054166929
 30
0.0
 10
145.1067650340687
 20
93.22713433677521
 30
0.0
  0
SPLINE
  5
2D8
330
1F
100
AcDbEntity
  8
0
  6
Continuous
 62
     7
370
    25
100
AcDbSpline
210
0.0
220
0.0
230
1.0
 70
     8
 71
     3
 72
    13
 73
     9
 74
     0
 42
0.000000001
 43
0.00000001
 40
0.0
 40
0.0
 40
0.0
 40
0.0
 40
0.0088094291609142
 40
0.2207149683450593
 40
0.4335062823061775
 40
0.6480517048294706
 40
0.8640096548413636
 40
0.9999999999999999
 40
0.9999999999999999
 40
0.9999999999999999
 40
0.9999999999999999
 10
145.1067650340687
 20
86.66254549199905
 30
0.0
 10
145.1049114593999
 20
86.66253664683609
 30
0.0
 10
145.0584712568784
 20
86.66231503657846
 30
0.0
 10
144.9667780168424
 20
86.64499179616517
 30
0.0
 10
144.8484151028403
 20
86.57632375431828
 30
0.0
 10
144.759407057887
 20
86.47209166380873
 30
0.0
 10
144.7131805124443
 20
86.35948284138145
 30
0.0
 10
144.7085524674653
 20
86.28557844850017
 30
0.0
 10
144.7067642234455
 20
86.25702231103743
 30
0.0
  0
LINE
  5
2D9
330
1F
100
AcDbEntity
  8
0
  6
Continuous
 62
     7
370
    25
100
AcDbLine
 10
145.1067650341
 20
93.2448398965
 30
0.0
 11
145.1067650341
 21
93.2271343368
 31
0.0
  0
LINE
  5
2DA
330
1F
100
AcDbEntity
  8
0
  6
Continuous
 62
     7
370
    25
100
AcDbLine
 10
145.1067650341
 20
86.662545492
 30
0.0
 11
145.1067650341
 21
86.6448399323
 31
0.0
  0
CIRCLE
  5
2DB
330
1F
100
AcDbEntity
  8
0
  6
Continuous
 62
     7
370
    25
100
AcDbCircle
 10
95.1067643427
 20
89.9448399442
 30
0.0
 40
5.299999999999997
  0
CIRCLE
  5
2DC
330
1F
100
AcDbEntity
  8
0
  6
Continuous
 62
     7
370
    25
100
AcDbCircle
 10
95.1067643427
 20
89.9448399442
 30
0.0
 40
4.459999999999994
  0
CIRCLE
  5
2DD
330
1F
100
AcDbEntity
  8
0
  6
Continuous
 62
     7
370
    25
100
AcDbCircle
 10
95.1067643427
 20
89.9448399442
 30
0.0
 40
3.759999999999991
  0
ARC
  5
2DE
330
1F
100
AcDbEntity
  8
0
  6
Continuous
 62
     7
370
    25
100
AcDbCircle
 10
90.1107659439
 20
92.2448399442
 30
0.0
 40
0.2000000000000028
100
AcDbArc
 50
270.0
 51
335.2801488171
  0
ARC
  5
2DF
330
1F
100
AcDbEntity
  8
0
  6
Continuous
 62
     7
370
    25
100
AcDbCircle
 10
100.1027627414
 20
87.6448399442
 30
0.0
 40
0.2000000000000028
100
AcDbArc
 50
90.0
 51
155.2801488171
  0
ARC
  5
2E0
330
1F
100
AcDbEntity
  8
0
  6
Continuous
 62
     7
370
    25
100
AcDbCircle
 10
90.1107659439
 20
87.6448399442
 30
0.0
 40
0.2000000000000028
100
AcDbArc
 50
24.7198511829
 51
90.0
  0
ARC
  5
2E1
330
1F
100
AcDbEntity
  8
0
  6
Continuous
 62
     7
370
    25
100
AcDbCircle
 10
100.1027627414
 20
92.2448399442
 30
0.0
 40
0.2000000000000028
100
AcDbArc
 50
204.7198511829
 51
270.0
  0
ARC
  5
2E2
330
1F
100
AcDbEntity
  8
0
  6
Continuous
 62
     7
370
    25
100
AcDbCircle
 10
104.5729547216
 20
91.4448399442
 30
0.0
 40
0.5999999999999949
100
AcDbArc
 50
52.1363536383
 51
90.0
  0
LINE
  5
2E3
330
1F
100
AcDbEntity
  8
0
  6
Continuous
 62
     7
370
    25
100
AcDbLine
 10
85.6405743979
 20
92.0448404449
 30
0.0
 11
90.1107662939
 21
92.0448404449
 31
0.0
  0
LINE
  5
2E4
330
1F
100
AcDbEntity
  8
0
  6
Continuous
 62
     7
370
    25
100
AcDbLine
 10
104.5729545526
 20
87.8448393839
 30
0.0
 11
100.1027630292
 21
87.8448393839
 31
0.0
  0
ARC
  5
2E5
330
1F
100
AcDbEntity
  8
0
  6
Continuous
 62
     7
370
    25
100
AcDbCircle
 10
85.6405739637
 20
91.4448399442
 30
0.0
 40
0.5999999999999949
100
AcDbArc
 50
90.0
 51
127.8636463617
  0
SPLINE
  5
2E6
330
1F
100
AcDbEntity
  8
0
  6
Continuous
 62
     7
370
    25
100
AcDbSpline
210
0.0
220
0.0
230
1.0
 70
     8
 71
     3
 72
    13
 73
     9
 74
     0
 42
0.000000001
 43
0.00000001
 40
0.0
 40
0.0
 40
0.0
 40
0.0
 40
0.2028202974495563
 40
0.4055282505741886
 40
0.6115265945454508
 40
0.8255473863569296
 40
0.9970924913946201
 40
1.0
 40
1.0
 40
1.0
 40
1.0
 10
85.45029849039418
 20
87.84483938390579
 30
0.0
 10
85.4521329794644
 20
87.85108357444936
 30
0.0
 10
85.4558009414618
 20
87.86356849681279
 30
0.0
 10
85.48464086161803
 20
87.96037715082691
 30
0.0
 10
85.52854912340958
 20
88.10363510521256
 30
0.0
 10
85.58245321546654
 20
88.27252700809157
 30
0.0
 10
85.62212016055135
 20
88.39103052067904
 30
0.0
 10
85.64027187300682
 20
88.44395847782667
 30
0.0
 10
85.64057439791065
 20
88.44484059984053
 30
0.0
  0
LINE
  5
2E7
330
1F
100
AcDbEntity
  8
0
  6
Continuous
 62
     7
370
    25
100
AcDbLine
 10
90.1107662939
 20
87.8448393839
 30
0.0
 11
85.4502984904
 21
87.8448393839
 31
0.0
  0
ARC
  5
2E8
330
1F
100
AcDbEntity
  8
0
  6
Continuous
 62
     7
370
    25
100
AcDbCircle
 10
104.5729547216
 20
88.4448399442
 30
0.0
 40
0.5999999999999949
100
AcDbArc
 50
270.0
 51
307.8636463617
  0
ARC
  5
2E9
330
1F
100
AcDbEntity
  8
0
  6
Continuous
 62
     7
370
    25
100
AcDbCircle
 10
103.4067643427
 20
89.9448399442
 30
0.0
 40
2.499999999999999
100
AcDbArc
 50
307.8636463617
 51
52.1363536383
  0
ARC
  5
2EA
330
1F
100
AcDbEntity
  8
0
  6
Continuous
 62
     7
370
    25
100
AcDbCircle
 10
86.8067643427
 20
89.9448399442
 30
0.0
 40
2.5
100
AcDbArc
 50
127.8636463617
 51
237.1401196211
  0
LINE
  5
2EB
330
1F
100
AcDbEntity
  8
0
  6
Continuous
 62
     7
370
    25
100
AcDbLine
 10
100.1027630292
 20
92.0448404449
 30
0.0
 11
104.5729545526
 21
92.0448404449
 31
0.0
  0
SPLINE
  5
2EC
330
1F
100
AcDbEntity
  8
0
  6
Continuous
 62
     7
370
    25
100
AcDbSpline
210
0.0
220
0.0
230
1.0
 70
     8
 71
     3
 72
     9
 73
     5
 74
     0
 42
0.000000001
 43
0.00000001
 40
0.0
 40
0.0
 40
0.0
 40
0.0
 40
0.9800794180774839
 40
1.0
 40
1.0
 40
1.0
 40
1.0
 10
85.47882080303532
 20
87.82668827945555
 30
0.0
 10
85.49448045609287
 20
87.81409386183253
 30
0.0
 10
85.51045839907249
 20
87.80124345666054
 30
0.0
 10
85.52237495090479
 20
87.78310606254033
 30
0.0
 10
85.52261233555181
 20
87.7827447550949
 30
0.0
  0
ARC
  5
2ED
330
1F
100
AcDbEntity
  8
0
  6
Continuous
 62
     7
370
    25
100
AcDbCircle
 10
95.1067643427
 20
97.9448399442
 30
0.0
 40
14.00000000000001
100
AcDbArc
 50
225.6760576839
 51
314.3454126321
  0
ARC
  5
2EE
330
1F
100
AcDbEntity
  8
0
  6
Continuous
 62
     7
370
    25
100
AcDbCircle
 10
95.1067643427
 20
81.9448399442
 30
0.0
 40
14.00000000000002
100
AcDbArc
 50
45.6545873679
 51
134.3454126321
  0
ARC
  5
2EF
330
1F
100
AcDbEntity
  8
0
  6
Continuous
 62
     7
370
    25
100
AcDbCircle
 10
85.1812153416
 20
92.0998129637
 30
0.0
 40
0.2000000000000147
100
AcDbArc
 50
305.0435064044
 51
314.3454126321
  0
ARC
  5
2F0
330
1F
100
AcDbEntity
  8
0
  6
Continuous
 62
     7
370
    25
100
AcDbCircle
 10
105.0323133438
 20
87.7898669247
 30
0.0
 40
0.2000000000000182
100
AcDbArc
 50
125.0435064044
 51
134.3454126321
  0
ARC
  5
2F1
330
1F
100
AcDbEntity
  8
0
  6
Continuous
 62
     7
370
    25
100
AcDbCircle
 10
105.0323133438
 20
92.0998129637
 30
0.0
 40
0.2000000000000083
100
AcDbArc
 50
225.6545873679
 51
234.9564935956
  0
ARC
  5
2F2
330
1F
100
AcDbEntity
  8
0
  6
Continuous
 62
     7
370
    25
100
AcDbCircle
 10
85.1850213881
 20
87.7861482596
 30
0.0
 40
0.2000000000000107
100
AcDbArc
 50
45.6760576839
 51
53.0838550447
  0
CIRCLE
  5
2F3
330
1F
100
AcDbEntity
  8
0
  6
Continuous
 62
     7
370
    25
100
AcDbCircle
 10
127.1067643427
 20
89.9448399442
 30
0.0
 40
5.300000000000011
  0
CIRCLE
  5
2F4
330
1F
100
AcDbEntity
  8
0
  6
Continuous
 62
     7
370
    25
100
AcDbCircle
 10
127.1067643427
 20
89.9448399442
 30
0.0
 40
4.460000000000008
  0
CIRCLE
  5
2F5
330
1F
100
AcDbEntity
  8
0
  6
Continuous
 62
     7
370
    25
100
AcDbCircle
 10
127.1067643427
 20
89.9448399442
 30
0.0
 40
3.759999999999991
  0
ARC
  5
2F6
330
1F
100
AcDbEntity
  8
0
  6
Continuous
 62
     7
370
    25
100
AcDbCircle
 10
132.1027627414
 20
87.6448399442
 30
0.0
 40
0.2000000000000371
100
AcDbArc
 50
90.0
 51
155.2801488171
  0
ARC
  5
2F7
330
1F
100
AcDbEntity
  8
0
  6
Continuous
 62
     7
370
    25
100
AcDbCircle
 10
122.1107659439
 20
92.2448399442
 30
0.0
 40
0.2000000000000028
100
AcDbArc
 50
270.0
 51
335.2801488171
  0
ARC
  5
2F8
330
1F
100
AcDbEntity
  8
0
  6
Continuous
 62
     7
370
    25
100
AcDbCircle
 10
132.1027627414
 20
92.2448399442
 30
0.0
 40
0.2000000000000371
100
AcDbArc
 50
204.7198511829
 51
270.0
  0
ARC
  5
2F9
330
1F
100
AcDbEntity
  8
0
  6
Continuous
 62
     7
370
    25
100
AcDbCircle
 10
122.1107659439
 20
87.6448399442
 30
0.0
 40
0.2000000000000028
100
AcDbArc
 50
24.7198511829
 51
90.0
  0
ARC
  5
2FA
330
1F
100
AcDbEntity
  8
0
  6
Continuous
 62
     7
370
    25
100
AcDbCircle
 10
136.5729547216
 20
88.4448399442
 30
0.0
 40
0.5999999999999801
100
AcDbArc
 50
270.0
 51
307.8636463617
  0
LINE
  5
2FB
330
1F
100
AcDbEntity
  8
0
  6
Continuous
 62
     7
370
    25
100
AcDbLine
 10
117.6405736827
 20
92.0448404449
 30
0.0
 11
122.1107655786
 21
92.0448404449
 31
0.0
  0
LINE
  5
2FC
330
1F
100
AcDbEntity
  8
0
  6
Continuous
 62
     7
370
    25
100
AcDbLine
 10
122.1107655786
 20
87.8448393839
 30
0.0
 11
117.6405736827
 21
87.8448393839
 31
0.0
  0
ARC
  5
2FD
330
1F
100
AcDbEntity
  8
0
  6
Continuous
 62
     7
370
    25
100
AcDbCircle
 10
117.6405739637
 20
88.4448399442
 30
0.0
 40
0.5999999999999923
100
AcDbArc
 50
232.1363536383
 51
270.0
  0
ARC
  5
2FE
330
1F
100
AcDbEntity
  8
0
  6
Continuous
 62
     7
370
    25
100
AcDbCircle
 10
135.4067643427
 20
89.9448399442
 30
0.0
 40
2.499999999999992
100
AcDbArc
 50
307.8636463617
 51
57.1401196211
  0
SPLINE
  5
2FF
330
1F
100
AcDbEntity
  8
0
  6
Continuous
 62
     7
370
    25
100
AcDbSpline
210
0.0
220
0.0
230
1.0
 70
     8
 71
     3
 72
    13
 73
     9
 74
     0
 42
0.000000001
 43
0.00000001
 40
0.0
 40
0.0
 40
0.0
 40
0.0
 40
0.2028202639990586
 40
0.4055281836917217
 40
0.6115261559381441
 40
0.8255469124518638
 40
0.9970919891971732
 40
1.0
 40
1.0
 40
1.0
 40
1.0
 10
136.7632293723713
 20
92.04484044486847
 30
0.0
 10
136.7613950151798
 20
92.03859621600954
 30
0.0
 10
136.757727316867
 20
92.02611121703664
 30
0.0
 10
136.728885425152
 20
91.92930319392423
 30
0.0
 10
136.68498496935
 20
91.78604309665829
 30
0.0
 10
136.6310609651312
 20
91.61715800300901
 30
0.0
 10
136.5914351683394
 20
91.49864022294368
 30
0.0
 10
136.5732564906811
 20
91.44572134949588
 30
0.0
 10
136.5729534648548
 20
91.4448392289337
 30
0.0
  0
LINE
  5
300
330
1F
100
AcDbEntity
  8
0
  6
Continuous
 62
     7
370
    25
100
AcDbLine
 10
132.102763059
 20
92.0448404449
 30
0.0
 11
136.7632293724
 21
92.0448404449
 31
0.0
  0
LINE
  5
301
330
1F
100
AcDbEntity
  8
0
  6
Continuous
 62
     7
370
    25
100
AcDbLine
 10
136.5729534649
 20
87.8448393839
 30
0.0
 11
132.102763059
 21
87.8448393839
 31
0.0
  0
ARC
  5
302
330
1F
100
AcDbEntity
  8
0
  6
Continuous
 62
     7
370
    25
100
AcDbCircle
 10
117.6405739637
 20
91.4448399442
 30
0.0
 40
0.6000000000000036
100
AcDbArc
 50
90.0
 51
127.8636463617
  0
ARC
  5
303
330
1F
100
AcDbEntity
  8
0
  6
Continuous
 62
     7
370
    25
100
AcDbCircle
 10
118.8067643427
 20
89.9448399442
 30
0.0
 40
2.499999999999996
100
AcDbArc
 50
127.8636463617
 51
232.1363536383
  0
SPLINE
  5
304
330
1F
100
AcDbEntity
  8
0
  6
Continuous
 62
     7
370
    25
100
AcDbSpline
210
0.0
220
0.0
230
1.0
 70
     8
 71
     3
 72
     9
 73
     5
 74
     0
 42
0.000000001
 43
0.00000001
 40
0.0
 40
0.0
 40
0.0
 40
0.0
 40
0.9800879406463922
 40
1.0
 40
1.0
 40
1.0
 40
1.0
 10
136.7347085498462
 20
92.0629915493187
 30
0.0
 10
136.7190386697327
 20
92.0755821553765
 30
0.0
 10
136.7030504308577
 20
92.08842855980168
 30
0.0
 10
136.691153901724
 20
92.10657376527107
 30
0.0
 10
136.6909170173298
 20
92.10693507367934
 30
0.0
  0
ARC
  5
305
330
1F
100
AcDbEntity
  8
0
  6
Continuous
 62
     7
370
    25
100
AcDbCircle
 10
127.1067643427
 20
81.9448399442
 30
0.0
 40
14.00000000000001
100
AcDbArc
 50
45.6760576839
 51
134.3454126321
  0
ARC
  5
306
330
1F
100
AcDbEntity
  8
0
  6
Continuous
 62
     7
370
    25
100
AcDbCircle
 10
127.1067643427
 20
97.9448399442
 30
0.0
 40
14.00000000000003
100
AcDbArc
 50
225.6545873679
 51
314.3454126321
  0
ARC
  5
307
330
1F
100
AcDbEntity
  8
0
  6
Continuous
 62
     7
370
    25
100
AcDbCircle
 10
117.1812153416
 20
87.7898669247
 30
0.0
 40
0.2000000000000147
100
AcDbArc
 50
45.6545873679
 51
54.9564935956
  0
ARC
  5
308
330
1F
100
AcDbEntity
  8
0
  6
Continuous
 62
     7
370
    25
100
AcDbCircle
 10
137.0323133438
 20
87.7898669247
 30
0.0
 40
0.2000000000000264
100
AcDbArc
 50
125.0435064044
 51
134.3454126321
  0
ARC
  5
309
330
1F
100
AcDbEntity
  8
0
  6
Continuous
 62
     7
370
    25
100
AcDbCircle
 10
117.1812153416
 20
92.0998129637
 30
0.0
 40
0.2000000000000147
100
AcDbArc
 50
305.0435064044
 51
314.3454126321
  0
ARC
  5
30A
330
1F
100
AcDbEntity
  8
0
  6
Continuous
 62
     7
370
    25
100
AcDbCircle
 10
137.0285072972
 20
92.1035316288
 30
0.0
 40
0.1999999999999916
100
AcDbArc
 50
225.6760576839
 51
233.0838550447
  0
LINE
  5
30B
330
1F
100
AcDbEntity
  8
0
  6
Continuous
 62
     7
370
    25
100
AcDbLine
 10
76.6081208013
 20
72.3448399632
 30
0.0
 11
79.4067645095
 21
72.3448399632
 31
0.0
  0
LINE
  5
30C
330
1F
100
AcDbEntity
  8
0
  6
Continuous
 62
     7
370
    25
100
AcDbLine
 10
79.4067645095
 20
71.9448399442
 30
0.0
 11
76.6081208013
 21
71.9448399442
 31
0.0
  0
LINE
  5
30D
330
1F
100
AcDbEntity
  8
0
  6
Continuous
 62
     7
370
    25
100
AcDbLine
 10
76.6081208013
 20
71.9448399442
 30
0.0
 11
76.6081208013
 21
72.3448399632
 31
0.0
  0
LINE
  5
30E
330
1F
100
AcDbEntity
  8
0
  6
Continuous
 62
     7
370
    25
100
AcDbLine
 10
79.4067645095
 20
72.3448399632
 30
0.0
 11
141.0067641758
 21
72.3448399632
 31
0.0
  0
LINE
  5
30F
330
1F
100
AcDbEntity
  8
0
  6
Continuous
 62
     7
370
    25
100
AcDbLine
 10
79.4067645095
 20
71.9448399442
 30
0.0
 11
141.0067641758
 21
71.9448399442
 31
0.0
  0
LINE
  5
310
330
1F
100
AcDbEntity
  8
0
  6
Continuous
 62
     7
370
    25
100
AcDbLine
 10
143.805407884
 20
71.9448399442
 30
0.0
 11
143.805407884
 21
72.3448399632
 31
0.0
  0
LINE
  5
311
330
1F
100
AcDbEntity
  8
0
  6
Continuous
 62
     7
370
    25
100
AcDbLine
 10
141.0067641758
 20
72.3448399632
 30
0.0
 11
143.805407884
 21
72.3448399632
 31
0.0
  0
LINE
  5
312
330
1F
100
AcDbEntity
  8
0
  6
Continuous
 62
     7
370
    25
100
AcDbLine
 10
143.805407884
 20
71.9448399442
 30
0.0
 11
141.0067641758
 21
71.9448399442
 31
0.0
  0
LINE
  5
313
330
1F
100
AcDbEntity
  8
0
  6
Continuous
 62
     7
370
    25
100
AcDbLine
 10
85.9533751033
 20
79.798812111
 30
0.0
 11
85.9533751033
 21
79.7963690656
 31
0.0
  0
SPLINE
  5
314
330
1F
100
AcDbEntity
  8
0
  6
Continuous
 62
     7
370
    25
100
AcDbSpline
210
0.0
220
0.0
230
1.0
 70
     8
 71
     3
 72
    15
 73
    11
 74
     0
 42
0.000000001
 43
0.00000001
 40
0.0
 40
0.0
 40
0.0
 40
0.0
 40
0.1122544903080602
 40
0.2278313141874824
 40
0.3464663639233467
 40
0.468536958932686
 40
0.5943895220308021
 40
0.724985248922661
 40
0.8599571288527077
 40
1.0
 40
1.0
 40
1.0
 40
1.0
 10
86.44913722401071
 20
80.11910227961275
 30
0.0
 10
86.43341921526707
 20
80.10336039822572
 30
0.0
 10
86.40151800063731
 20
80.0714107317638
 30
0.0
 10
86.34933398683458
 20
80.02672435195737
 30
0.0
 10
86.29332954244168
 20
79.9837204412872
 30
0.0
 10
86.23331459898303
 20
79.9427635102553
 30
0.0
 10
86.16924234252679
 20
79.90373984239284
 30
0.0
 10
86.1011703886658
 20
79.86655051018745
 30
0.0
 10
86.02903997302525
 20
79.83104074808008
 30
0.0
 10
85.97890448153075
 20
79.80968622505425
 30
0.0
 10
85.9533745121463
 20
79.79881208574062
 30
0.0
  0
LINE
  5
315
330
1F
100
AcDbEntity
  8
0
  6
Continuous
 62
     7
370
    25
100
AcDbLine
 10
86.4491367363
 20
80.11910214
 30
0.0
 11
86.4491367363
 21
80.1166590946
 31
0.0
  0
SPLINE
  5
316
330
1F
100
AcDbEntity
  8
0
  6
Continuous
 62
     7
370
    25
100
AcDbSpline
210
0.0
220
0.0
230
1.0
 70
     8
 71
     3
 72
    15
 73
    11
 74
     0
 42
0.000000001
 43
0.00000001
 40
0.0
 40
0.0
 40
0.0
 40
0.0
 40
0.1122544903080602
 40
0.2278313141874824
 40
0.3464663639233467
 40
0.468536958932686
 40
0.5943895220308021
 40
0.724985248922661
 40
0.8599571288527077
 40
1.0
 40
1.0
 40
1.0
 40
1.0
 10
86.44913722401071
 20
80.11665894271152
 30
0.0
 10
86.43341921526707
 20
80.1009170613245
 30
0.0
 10
86.40151800063731
 20
80.0689673948626
 30
0.0
 10
86.34933398683458
 20
80.02428101505615
 30
0.0
 10
86.29332954244168
 20
79.981277104386
 30
0.0
 10
86.23331459898303
 20
79.9403201733541
 30
0.0
 10
86.16924234252679
 20
79.90129650549163
 30
0.0
 10
86.1011703886658
 20
79.86410717328624
 30
0.0
 10
86.02903997302525
 20
79.82859741117888
 30
0.0
 10
85.97890448153075
 20
79.80724288815303
 30
0.0
 10
85.9533745121463
 20
79.7963687488394
 30
0.0
  0
SPLINE
  5
317
330
1F
100
AcDbEntity
  8
0
  6
Continuous
 62
     7
370
    25
100
AcDbSpline
210
0.0
220
0.0
230
1.0
 70
     8
 71
     3
 72
    15
 73
    11
 74
     0
 42
0.000000001
 43
0.00000001
 40
0.0
 40
0.0
 40
0.0
 40
0.0
 40
0.1175175609944375
 40
0.2357133764367592
 40
0.3552848228027226
 40
0.4769357572092705
 40
0.6017566068333007
 40
0.730394258021457
 40
0.8627234622098481
 40
1.0
 40
1.0
 40
1.0
 40
1.0
 10
86.12879824095985
 20
81.17148434519261
 30
0.0
 10
86.13149718138078
 20
81.13714228996788
 30
0.0
 10
86.13691063919967
 20
81.06825997380764
 30
0.0
 10
86.1559257894966
 20
80.96575107739854
 30
0.0
 10
86.18247007985983
 20
80.86377983987572
 30
0.0
 10
86.21743340247335
 20
80.76228565101886
 30
0.0
 10
86.26085721288733
 20
80.66122814117931
 30
0.0
 10
86.31274228572892
 20
80.56073525385594
 30
0.0
 10
86.3726817809253
 20
80.46050397398282
 30
0.0
 10
86.41828836642392
 20
80.39598457609812
 30
0.0
 10
86.44151010536663
 20
80.36313290351532
 30
0.0
  0
SPLINE
  5
318
330
1F
100
AcDbEntity
  8
0
  6
Continuous
 62
     7
370
    25
100
AcDbSpline
210
0.0
220
0.0
230
1.0
 70
     8
 71
     3
 72
    15
 73
    11
 74
     0
 42
0.000000001
 43
0.00000001
 40
0.0
 40
0.0
 40
0.0
 40
0.0
 40
0.1169287601657851
 40
0.2349935981650714
 40
0.3553924049287305
 40
0.4785052158024166
 40
0.6039442449022551
 40
0.7326152411347512
 40
0.8648607103883583
 40
1.0
 40
1.0
 40
1.0
 40
1.0
 10
86.44151010536663
 20
80.36313290351532
 30
0.0
 10
86.4546986063253
 20
80.38069361580271
 30
0.0
 10
86.48120374749233
 20
80.4159856599577
 30
0.0
 10
86.51773097837798
 20
80.47190745462396
 30
0.0
 10
86.551446830647
 20
80.5308633750301
 30
0.0
 10
86.58360902842294
 20
80.5922653711869
 30
0.0
 10
86.61245162435611
 20
80.65699772152868
 30
0.0
 10
86.63977490462966
 20
80.72422018112943
 30
0.0
 10
86.66432394911607
 20
80.79446717182672
 30
0.0
 10
86.67844231814794
 20
80.84265584770732
 30
0.0
 10
86.68557790197681
 20
80.86701095101786
 30
0.0
  0
LINE
  5
319
330
1F
100
AcDbEntity
  8
0
  6
Continuous
 62
     7
370
    25
100
AcDbLine
 10
86.6855779313
 20
80.8670107918
 30
0.0
 11
86.5254083298
 21
80.8670107918
 31
0.0
  0
LINE
  5
31A
330
1F
100
AcDbEntity
  8
0
  6
Continuous
 62
     7
370
    25
100
AcDbLine
 10
86.5254083298
 20
80.8670107918
 30
0.0
 11
86.4948996924
 21
80.7673086124
 31
0.0
  0
LINE
  5
31B
330
1F
100
AcDbEntity
  8
0
  6
Continuous
 62
     7
370
    25
100
AcDbLine
 10
86.4948996924
 20
80.7673086124
 30
0.0
 11
86.3423579954
 21
80.813064118
 31
0.0
  0
SPLINE
  5
31C
330
1F
100
AcDbEntity
  8
0
  6
Continuous
 62
     7
370
    25
100
AcDbSpline
210
0.0
220
0.0
230
1.0
 70
     8
 71
     3
 72
    11
 73
     7
 74
     0
 42
0.000000001
 43
0.00000001
 40
0.0
 40
0.0
 40
0.0
 40
0.0
 40
0.2330878704223509
 40
0.4774638020264426
 40
0.7331545842005797
 40
1.0
 40
1.0
 40
1.0
 40
1.0
 10
86.34235756299375
 20
80.8130643663357
 30
0.0
 10
86.35354981415303
 20
80.85225178117835
 30
0.0
 10
86.37647633873821
 20
80.93252439274096
 30
0.0
 10
86.40647187411925
 20
81.05717893819184
 30
0.0
 10
86.43362917401822
 20
81.18850556181239
 30
0.0
 10
86.4489436465723
 20
81.27857320675355
 30
0.0
 10
86.45676434265476
 20
81.3245683708352
 30
0.0
  0
LINE
  5
31D
330
1F
100
AcDbEntity
  8
0
  6
Continuous
 62
     7
370
    25
100
AcDbLine
 10
86.4567646407
 20
81.3245680826
 30
0.0
 11
86.1287975334
 21
81.3245680826
 31
0.0
  0
LINE
  5
31E
330
1F
100
AcDbEntity
  8
0
  6
Continuous
 62
     7
370
    25
100
AcDbLine
 10
86.1287975334
 20
81.3245680826
 30
0.0
 11
86.1287975334
 21
81.1714839833
 31
0.0
  0
SPLINE
  5
31F
330
1F
100
AcDbEntity
  8
0
  6
Continuous
 62
     7
370
    25
100
AcDbSpline
210
0.0
220
0.0
230
1.0
 70
     8
 71
     3
 72
    23
 73
    19
 74
     0
 42
0.000000001
 43
0.00000001
 40
0.0
 40
0.0
 40
0.0
 40
0.0
 40
0.067520608192395
 40
0.1332321604425257
 40
0.1973993751688982
 40
0.2599531619310779
 40
0.3216372830924898
 40
0.3824410095268582
 40
0.4426201637566837
 40
0.5022071461625303
 40
0.5620741738246438
 40
0.6219782107029725
 40
0.6824964988582387
 40
0.7433622731223128
 40
0.8055713226572285
 40
0.8687875855246168
 40
0.9334922324973322
 40
0.9999999999999999
 40
0.9999999999999999
 40
0.9999999999999999
 40
0.9999999999999999
 10
86.10591688502765
 20
80.70630096837833
 30
0.0
 10
86.10455888476474
 20
80.6821805773845
 30
0.0
 10
86.10187926866304
 20
80.63458604456171
 30
0.0
 10
86.09370794815239
 20
80.56439096720887
 30
0.0
 10
86.08156622350874
 20
80.49658702065308
 30
0.0
 10
86.06568472630906
 20
80.43104269673948
 30
0.0
 10
86.04623863826164
 20
80.36772037538212
 30
0.0
 10
86.02303632076911
 20
80.30658015143891
 30
0.0
 10
85.99622458490555
 20
80.24775636324667
 30
0.0
 10
85.96556135785566
 20
80.19121454846074
 30
0.0
 10
85.9310064080848
 20
80.13709695206651
 30
0.0
 10
85.89313680757934
 20
80.08482480265015
 30
0.0
 10
85.85125038605352
 20
80.03523606857242
 30
0.0
 10
85.80579793037883
 20
79.9877581460324
 30
0.0
 10
85.75660728181134
 20
79.94272747664752
 30
0.0
 10
85.70399123241509
 20
79.89955341733204
 30
0.0
 10
85.64730004122954
 20
79.85913813543935
 30
0.0
 10
85.60746436580025
 20
79.83428651990468
 30
0.0
 10
85.58727281723104
 20
79.82168995673149
 30
0.0
  0
LINE
  5
320
330
1F
100
AcDbEntity
  8
0
  6
Continuous
 62
     7
370
    25
100
AcDbLine
 10
85.5872729443
 20
79.8216898637
 30
0.0
 11
85.4881206177
 21
79.974209209
 31
0.0
  0
SPLINE
  5
321
330
1F
100
AcDbEntity
  8
0
  6
Continuous
 62
     7
370
    25
100
AcDbSpline
210
0.0
220
0.0
230
1.0
 70
     8
 71
     3
 72
    23
 73
    19
 74
     0
 42
0.000000001
 43
0.00000001
 40
0.0
 40
0.0
 40
0.0
 40
0.0
 40
0.059037457230064
 40
0.116963743280029
 40
0.1740595613765741
 40
0.2310675135775109
 40
0.2876243020067392
 40
0.3448153798800754
 40
0.4022602469064129
 40
0.4609670326414569
 40
0.5210250169484067
 40
0.5826215331472394
 40
0.6460234593355594
 40
0.7116613982106698
 40
0.7795885362319862
 40
0.8502796276381128
 40
0.9235936918454054
 40
1.0
 40
1.0
 40
1.0
 40
1.0
 10
85.48812027485816
 20
79.97420909667059
 30
0.0
 10
85.5075982371652
 20
79.9853160966957
 30
0.0
 10
85.54618755807753
 20
80.00732104678163
 30
0.0
 10
85.60055186465017
 20
80.04505941433457
 30
0.0
 10
85.65107383820218
 20
80.0865453106421
 30
0.0
 10
85.69790828734448
 20
80.13140291064427
 30
0.0
 10
85.74124965585503
 20
80.17970549203795
 30
0.0
 10
85.78038873985561
 20
80.23168612872902
 30
0.0
 10
85.81585765520501
 20
80.28717712800909
 30
0.0
 10
85.84792503862386
 20
80.34595899837252
 30
0.0
 10
85.8757645888994
 20
80.40858478634038
 30
0.0
 10
85.90006170299063
 20
80.47454595571624
 30
0.0
 10
85.92077395838837
 20
80.54394373655076
 30
0.0
 10
85.93729071840454
 20
80.61692130293089
 30
0.0
 10
85.95015459528766
 20
80.69341362113391
 30
0.0
 10
85.95993123799667
 20
80.7733073002084
 30
0.0
 10
85.96510662770822
 20
80.85686806791645
 30
0.0
 10
85.96594236390679
 20
80.9137018414435
 30
0.0
 10
85.96636886242878
 20
80.94270563528394
 30
0.0
  0
LINE
  5
322
330
1F
100
AcDbEntity
  8
0
  6
Continuous
 62
     7
370
    25
100
AcDbLine
 10
85.9663689159
 20
80.9427057105
 30
0.0
 11
85.9663689159
 21
81.3245680826
 31
0.0
  0
LINE
  5
323
330
1F
100
AcDbEntity
  8
0
  6
Continuous
 62
     7
370
    25
100
AcDbLine
 10
85.9663689159
 20
81.3245680826
 30
0.0
 11
85.8313405536
 21
81.3245680826
 31
0.0
  0
LINE
  5
324
330
1F
100
AcDbEntity
  8
0
  6
Continuous
 62
     7
370
    25
100
AcDbLine
 10
85.8313405536
 20
81.3245680826
 30
0.0
 11
85.8313405536
 21
81.4688970047
 31
0.0
  0
LINE
  5
325
330
1F
100
AcDbEntity
  8
0
  6
Continuous
 62
     7
370
    25
100
AcDbLine
 10
85.8313405536
 20
81.4688970047
 30
0.0
 11
86.5177819155
 21
81.4688970047
 31
0.0
  0
LINE
  5
326
330
1F
100
AcDbEntity
  8
0
  6
Continuous
 62
     7
370
    25
100
AcDbLine
 10
86.5177819155
 20
81.4688970047
 30
0.0
 11
86.5330362342
 21
81.4994004267
 31
0.0
  0
LINE
  5
327
330
1F
100
AcDbEntity
  8
0
  6
Continuous
 62
     7
370
    25
100
AcDbLine
 10
86.5330362342
 20
81.4994004267
 30
0.0
 11
86.6626971983
 21
81.423140754
 31
0.0
  0
LINE
  5
328
330
1F
100
AcDbEntity
  8
0
  6
Continuous
 62
     7
370
    25
100
AcDbLine
 10
86.6626971983
 20
81.423140754
 30
0.0
 11
86.6321885608
 21
81.3773852485
 31
0.0
  0
LINE
  5
329
330
1F
100
AcDbEntity
  8
0
  6
Continuous
 62
     7
370
    25
100
AcDbLine
 10
86.6321885608
 20
81.3773852485
 30
0.0
 11
86.5559169673
 21
81.0113389688
 31
0.0
  0
LINE
  5
32A
330
1F
100
AcDbEntity
  8
0
  6
Continuous
 62
     7
370
    25
100
AcDbLine
 10
86.5559169673
 20
81.0113389688
 30
0.0
 11
86.723712983
 21
81.0113389688
 31
0.0
  0
LINE
  5
32B
330
1F
100
AcDbEntity
  8
0
  6
Continuous
 62
     7
370
    25
100
AcDbLine
 10
86.723712983
 20
81.0113389688
 30
0.0
 11
86.7542216204
 21
81.0418431359
 31
0.0
  0
LINE
  5
32C
330
1F
100
AcDbEntity
  8
0
  6
Continuous
 62
     7
370
    25
100
AcDbLine
 10
86.7542216204
 20
81.0418431359
 30
0.0
 11
86.8991369032
 21
80.9503313797
 31
0.0
  0
LINE
  5
32D
330
1F
100
AcDbEntity
  8
0
  6
Continuous
 62
     7
370
    25
100
AcDbLine
 10
86.8991369032
 20
80.9503313797
 30
0.0
 11
86.8686282657
 21
80.9045758742
 31
0.0
  0
SPLINE
  5
32E
330
1F
100
AcDbEntity
  8
0
  6
Continuous
 62
     7
370
    25
100
AcDbSpline
210
0.0
220
0.0
230
1.0
 70
     8
 71
     3
 72
    15
 73
    11
 74
     0
 42
0.000000001
 43
0.00000001
 40
0.0
 40
0.0
 40
0.0
 40
0.0
 40
0.1400803533298556
 40
0.2755184539549109
 40
0.4058584866356063
 40
0.5321262056425834
 40
0.6543010307409726
 40
0.7725630977186625
 40
0.8877118459702696
 40
0.9999999999999999
 40
0.9999999999999999
 40
0.9999999999999999
 40
0.9999999999999999
 10
86.86862874943444
 20
80.90457585029917
 30
0.0
 10
86.85950225008554
 20
80.87163214254234
 30
0.0
 10
86.84155170291133
 20
80.80683647910386
 30
0.0
 10
86.81015663237947
 20
80.71286129423977
 30
0.0
 10
86.77563769798775
 20
80.6236122309427
 30
0.0
 10
86.73817752910244
 20
80.53907126216856
 30
0.0
 10
86.6974408640444
 20
80.45935254343304
 30
0.0
 10
86.65396528754735
 20
80.38422232324689
 30
0.0
 10
86.60722667686213
 20
80.31388772412409
 30
0.0
 10
86.57287613399005
 20
80.27027542877966
 30
0.0
 10
86.55591688502764
 20
80.248743548561
 30
0.0
  0
SPLINE
  5
32F
330
1F
100
AcDbEntity
  8
0
  6
Continuous
 62
     7
370
    25
100
AcDbSpline
210
0.0
220
0.0
230
1.0
 70
     8
 71
     3
 72
    15
 73
    11
 74
     0
 42
0.000000001
 43
0.00000001
 40
0.0
 40
0.0
 40
0.0
 40
0.0
 40
0.0996056598744133
 40
0.2047612278559107
 40
0.3171768059196581
 40
0.4367423369603076
 40
0.5640650102145294
 40
0.700197179588466
 40
0.8455784941082279
 40
1.0
 40
1.0
 40
1.0
 40
1.0
 10
86.55591688502764
 20
80.24874354856098
 30
0.0
 10
86.56668858619918
 20
80.23728072020866
 30
0.0
 10
86.58883217483421
 20
80.21371636843304
 30
0.0
 10
86.62794901011428
 20
80.18230644115658
 30
0.0
 10
86.67173087795393
 20
80.15206319071623
 30
0.0
 10
86.72082371641552
 20
80.123612593246
 30
0.0
 10
86.77499158931437
 20
80.09675222840406
 30
0.0
 10
86.83447316727563
 20
80.07172944917782
 30
0.0
 10
86.89915891483052
 20
80.04826718244806
 30
0.0
 10
86.94445191427954
 20
80.03462009505263
 30
0.0
 10
86.96778129180731
 20
80.02759079564927
 30
0.0
  0
LINE
  5
330
330
1F
100
AcDbEntity
  8
0
  6
Continuous
 62
     7
370
    25
100
AcDbLine
 10
86.9677805923
 20
80.0275911289
 30
0.0
 11
86.9067648076
 21
79.8369419473
 31
0.0
  0
SPLINE
  5
331
330
1F
100
AcDbEntity
  8
0
  6
Continuous
 62
     7
370
    25
100
AcDbSpline
210
0.0
220
0.0
230
1.0
 70
     8
 71
     3
 72
    15
 73
    11
 74
     0
 42
0.000000001
 43
0.00000001
 40
0.0
 40
0.0
 40
0.0
 40
0.0
 40
0.1519298021912425
 40
0.2959605118082205
 40
0.4320569543835685
 40
0.5595220142805266
 40
0.6802509916185285
 40
0.7932959107664691
 40
0.899610846448218
 40
1.0
 40
1.0
 40
1.0
 40
1.0
 10
86.90676434265477
 20
79.8369418707254
 30
0.0
 10
86.88153486541985
 20
79.84766633109531
 30
0.0
 10
86.83238763500549
 20
79.8685576686352
 30
0.0
 10
86.76210659985504
 20
79.90232420254225
 30
0.0
 10
86.69682704593362
 20
79.9362242802482
 30
0.0
 10
86.636934936233
 20
79.97119035337013
 30
0.0
 10
86.58205784434412
 20
80.00642488550274
 30
0.0
 10
86.53284877418282
 20
80.04311701888317
 30
0.0
 10
86.48830120946617
 20
80.07987495562851
 30
0.0
 10
86.46193997835961
 20
80.10627881982197
 30
0.0
 10
86.44913722401071
 20
80.11910227961275
 30
0.0
  0
LINE
  5
332
330
1F
100
AcDbEntity
  8
0
  6
Continuous
 62
     7
370
    25
100
AcDbLine
 10
85.9533751033
 20
79.798812111
 30
0.0
 11
85.8999842428
 21
79.9665827947
 31
0.0
  0
SPLINE
  5
333
330
1F
100
AcDbEntity
  8
0
  6
Continuous
 62
     7
370
    25
100
AcDbSpline
210
0.0
220
0.0
230
1.0
 70
     8
 71
     3
 72
    15
 73
    11
 74
     0
 42
0.000000001
 43
0.00000001
 40
0.0
 40
0.0
 40
0.0
 40
0.0
 40
0.1381703670475944
 40
0.2719400279635656
 40
0.4018201475115393
 40
0.5278565140211259
 40
0.6499364784239635
 40
0.7693262742042547
 40
0.886042233408524
 40
1.0
 40
1.0
 40
1.0
 40
1.0
 10
85.89998468163782
 20
79.96658313967365
 30
0.0
 10
85.92239467025934
 20
79.97559234512909
 30
0.0
 10
85.96650089261811
 20
79.99332381415414
 30
0.0
 10
86.03006521574174
 20
80.02325452980467
 30
0.0
 10
86.09063437566859
 20
80.05443324805319
 30
0.0
 10
86.14774261902673
 20
80.08771260759934
 30
0.0
 10
86.2013540333089
 20
80.12315384478774
 30
0.0
 10
86.25157831403843
 20
80.16054299531885
 30
0.0
 10
86.29907700620593
 20
80.19919591709667
 30
0.0
 10
86.32804617329977
 20
80.22725553745812
 30
0.0
 10
86.34235756299375
 20
80.24111759156403
 30
0.0
  0
SPLINE
  5
334
330
1F
100
AcDbEntity
  8
0
  6
Continuous
 62
     7
370
    25
100
AcDbSpline
210
0.0
220
0.0
230
1.0
 70
     8
 71
     3
 72
    15
 73
    11
 74
     0
 42
0.000000001
 43
0.00000001
 40
0.0
 40
0.0
 40
0.0
 40
0.0
 40
0.1353923026820224
 40
0.2672166673234462
 40
0.3955744028918646
 40
0.521390126888473
 40
0.6440446990461136
 40
0.7645653651336881
 40
0.8830881791135972
 40
1.0
 40
1.0
 40
1.0
 40
1.0
 10
86.34235756299375
 20
80.24111759156403
 30
0.0
 10
86.32813403513343
 20
80.26009225810068
 30
0.0
 10
86.30006180623171
 20
80.29754155953847
 30
0.0
 10
86.26185064921734
 20
80.35535483294264
 30
0.0
 10
86.22649080153386
 20
80.41298415572803
 30
0.0
 10
86.19524333659322
 20
80.47114248541098
 30
0.0
 10
86.16744728416933
 20
80.52949890019015
 30
0.0
 10
86.14309320239057
 20
80.58798962110173
 30
0.0
 10
86.12222365020395
 20
80.64677952471479
 30
0.0
 10
86.11132762090537
 20
80.68655120150292
 30
0.0
 10
86.10591688502765
 20
80.70630096837833
 30
0.0
  0
LINE
  5
335
330
1F
100
AcDbEntity
  8
0
  6
Continuous
 62
     7
370
    25
100
AcDbLine
 10
85.8999842428
 20
79.9665827947
 30
0.0
 11
85.8999842428
 21
79.9641397494
 31
0.0
  0
LINE
  5
336
330
1F
100
AcDbEntity
  8
0
  6
Continuous
 62
     7
370
    25
100
AcDbLine
 10
85.9533751033
 20
79.7963690656
 30
0.0
 11
85.8999842428
 21
79.9641397494
 31
0.0
  0
LINE
  5
337
330
1F
100
AcDbEntity
  8
0
  6
Continuous
 62
     7
370
    25
100
AcDbLine
 10
85.5872729443
 20
79.8216898637
 30
0.0
 11
85.5872729443
 21
79.8192468184
 31
0.0
  0
LINE
  5
338
330
1F
100
AcDbEntity
  8
0
  6
Continuous
 62
     7
370
    25
100
AcDbLine
 10
86.1059168004
 20
80.7063010233
 30
0.0
 11
86.1059168004
 21
80.7038579779
 31
0.0
  0
SPLINE
  5
339
330
1F
100
AcDbEntity
  8
0
  6
Continuous
 62
     7
370
    25
100
AcDbSpline
210
0.0
220
0.0
230
1.0
 70
     8
 71
     3
 72
    23
 73
    19
 74
     0
 42
0.000000001
 43
0.00000001
 40
0.0
 40
0.0
 40
0.0
 40
0.0
 40
0.067520608192395
 40
0.1332321604425257
 40
0.1973993751688982
 40
0.2599531619310779
 40
0.3216372830924898
 40
0.3824410095268582
 40
0.4426201637566837
 40
0.5022071461625303
 40
0.5620741738246438
 40
0.6219782107029725
 40
0.6824964988582387
 40
0.7433622731223128
 40
0.8055713226572285
 40
0.8687875855246168
 40
0.9334922324973322
 40
0.9999999999999999
 40
0.9999999999999999
 40
0.9999999999999999
 40
0.9999999999999999
 10
86.10591688502765
 20
80.7038576314771
 30
0.0
 10
86.10455888476474
 20
80.67973724048328
 30
0.0
 10
86.10187926866304
 20
80.63214270766049
 30
0.0
 10
86.09370794815239
 20
80.56194763030764
 30
0.0
 10
86.08156622350874
 20
80.49414368375186
 30
0.0
 10
86.06568472630906
 20
80.42859935983826
 30
0.0
 10
86.04623863826164
 20
80.3652770384809
 30
0.0
 10
86.02303632076911
 20
80.30413681453769
 30
0.0
 10
85.99622458490555
 20
80.24531302634546
 30
0.0
 10
85.96556135785566
 20
80.18877121155951
 30
0.0
 10
85.9310064080848
 20
80.13465361516529
 30
0.0
 10
85.89313680757934
 20
80.08238146574892
 30
0.0
 10
85.85125038605352
 20
80.03279273167121
 30
0.0
 10
85.80579793037883
 20
79.98531480913118
 30
0.0
 10
85.75660728181134
 20
79.94028413974628
 30
0.0
 10
85.70399123241509
 20
79.8971100804308
 30
0.0
 10
85.64730004122954
 20
79.85669479853813
 30
0.0
 10
85.60746436580025
 20
79.83184318300346
 30
0.0
 10
85.58727281723104
 20
79.81924661983027
 30
0.0
  0
LINE
  5
33A
330
1F
100
AcDbEntity
  8
0
  6
Continuous
 62
     7
370
    25
100
AcDbLine
 10
85.4881206177
 20
79.974209209
 30
0.0
 11
85.4881206177
 21
79.9717654186
 31
0.0
  0
LINE
  5
33B
330
1F
100
AcDbEntity
  8
0
  6
Continuous
 62
     7
370
    25
100
AcDbLine
 10
85.5872729443
 20
79.8192468184
 30
0.0
 11
85.4881206177
 21
79.9717654186
 31
0.0
  0
LINE
  5
33C
330
1F
100
AcDbEntity
  8
0
  6
Continuous
 62
     7
370
    25
100
AcDbLine
 10
86.9067648076
 20
79.8369419473
 30
0.0
 11
86.9067648076
 21
79.8344989019
 31
0.0
  0
LINE
  5
33D
330
1F
100
AcDbEntity
  8
0
  6
Continuous
 62
     7
370
    25
100
AcDbLine
 10
86.9677805923
 20
80.0275911289
 30
0.0
 11
86.9677805923
 21
80.0251473385
 31
0.0
  0
LINE
  5
33E
330
1F
100
AcDbEntity
  8
0
  6
Continuous
 62
     7
370
    25
100
AcDbLine
 10
86.9677805923
 20
80.0251473385
 30
0.0
 11
86.9067648076
 21
79.8344989019
 31
0.0
  0
SPLINE
  5
33F
330
1F
100
AcDbEntity
  8
0
  6
Continuous
 62
     7
370
    25
100
AcDbSpline
210
0.0
220
0.0
230
1.0
 70
     8
 71
     3
 72
    15
 73
    11
 74
     0
 42
0.000000001
 43
0.00000001
 40
0.0
 40
0.0
 40
0.0
 40
0.0
 40
0.1519298021912425
 40
0.2959605118082205
 40
0.4320569543835685
 40
0.5595220142805266
 40
0.6802509916185285
 40
0.7932959107664691
 40
0.899610846448218
 40
1.0
 40
1.0
 40
1.0
 40
1.0
 10
86.90676434265477
 20
79.83449853382417
 30
0.0
 10
86.88153486541985
 20
79.84522299419409
 30
0.0
 10
86.83238763500549
 20
79.866114331734
 30
0.0
 10
86.76210659985504
 20
79.89988086564101
 30
0.0
 10
86.69682704593362
 20
79.93378094334699
 30
0.0
 10
86.636934936233
 20
79.96874701646891
 30
0.0
 10
86.58205784434412
 20
80.00398154860152
 30
0.0
 10
86.53284877418282
 20
80.04067368198194
 30
0.0
 10
86.48830120946617
 20
80.0774316187273
 30
0.0
 10
86.46193997835961
 20
80.10383548292074
 30
0.0
 10
86.44913722401071
 20
80.11665894271152
 30
0.0
  0
LINE
  5
340
330
1F
100
AcDbEntity
  8
0
  6
Continuous
 62
     7
370
    25
100
AcDbLine
 10
87.2652390622
 20
79.8369419473
 30
0.0
 11
87.2652390622
 21
79.8344989019
 31
0.0
  0
SPLINE
  5
341
330
1F
100
AcDbEntity
  8
0
  6
Continuous
 62
     7
370
    25
100
AcDbSpline
210
0.0
220
0.0
230
1.0
 70
     8
 71
     3
 72
    11
 73
     7
 74
     0
 42
0.000000001
 43
0.00000001
 40
0.0
 40
0.0
 40
0.0
 40
0.0
 40
0.2716193648964742
 40
0.5280771645180985
 40
0.7712910727263808
 40
0.9999999999999999
 40
0.9999999999999999
 40
0.9999999999999999
 40
0.9999999999999999
 10
87.53981519011239
 20
80.06572058063406
 30
0.0
 10
87.51615061650891
 20
80.04360781896185
 30
0.0
 10
87.47014240596467
 20
80.00061661143887
 30
0.0
 10
87.40032095080252
 20
79.94074616048647
 30
0.0
 10
87.33290481742091
 20
79.8859518359154
 30
0.0
 10
87.2873272624474
 20
79.85294031264621
 30
0.0
 10
87.26523891892596
 20
79.8369418707254
 30
0.0
  0
LINE
  5
342
330
1F
100
AcDbEntity
  8
0
  6
Continuous
 62
     7
370
    25
100
AcDbLine
 10
87.5398153089
 20
80.0657202202
 30
0.0
 11
87.5398153089
 21
80.0632771748
 31
0.0
  0
SPLINE
  5
343
330
1F
100
AcDbEntity
  8
0
  6
Continuous
 62
     7
370
    25
100
AcDbSpline
210
0.0
220
0.0
230
1.0
 70
     8
 71
     3
 72
    11
 73
     7
 74
     0
 42
0.000000001
 43
0.00000001
 40
0.0
 40
0.0
 40
0.0
 40
0.0
 40
0.2716193648964742
 40
0.5280771645180985
 40
0.7712910727263808
 40
0.9999999999999999
 40
0.9999999999999999
 40
0.9999999999999999
 40
0.9999999999999999
 10
87.53981519011239
 20
80.06327724373284
 30
0.0
 10
87.51615061650891
 20
80.04116448206062
 30
0.0
 10
87.47014240596467
 20
79.99817327453765
 30
0.0
 10
87.40032095080252
 20
79.93830282358525
 30
0.0
 10
87.33290481742091
 20
79.88350849901418
 30
0.0
 10
87.2873272624474
 20
79.85049697574499
 30
0.0
 10
87.26523891892596
 20
79.83449853382417
 30
0.0
  0
SPLINE
  5
344
330
1F
100
AcDbEntity
  8
0
  6
Continuous
 62
     7
370
    25
100
AcDbSpline
210
0.0
220
0.0
230
1.0
 70
     8
 71
     3
 72
    11
 73
     7
 74
     0
 42
0.000000001
 43
0.00000001
 40
0.0
 40
0.0
 40
0.0
 40
0.0
 40
0.2256032100470418
 40
0.4670225063011044
 40
0.7252068012491973
 40
1.0
 40
1.0
 40
1.0
 40
1.0
 10
87.17371349519715
 20
80.0047129246584
 30
0.0
 10
87.19659908431738
 20
80.0154369465424
 30
0.0
 10
87.24397467434949
 20
80.03763680609597
 30
0.0
 10
87.31557665343529
 20
80.07604420858347
 30
0.0
 10
87.39140534512889
 20
80.1181673922626
 30
0.0
 10
87.44254472847348
 20
80.14897447010429
 30
0.0
 10
87.46891123531015
 20
80.16485802159448
 30
0.0
  0
LINE
  5
345
330
1F
100
AcDbEntity
  8
0
  6
Continuous
 62
     7
370
    25
100
AcDbLine
 10
87.4689111136
 20
80.1648583906
 30
0.0
 11
87.4689111136
 21
80.6249570745
 31
0.0
  0
LINE
  5
346
330
1F
100
AcDbEntity
  8
0
  6
Continuous
 62
     7
370
    25
100
AcDbLine
 10
87.4689111136
 20
80.6249570745
 30
0.0
 11
87.1889674686
 21
80.6249570745
 31
0.0
  0
LINE
  5
347
330
1F
100
AcDbEntity
  8
0
  6
Continuous
 62
     7
370
    25
100
AcDbLine
 10
87.1889674686
 20
80.6249570745
 30
0.0
 11
87.1889674686
 21
80.8054384487
 31
0.0
  0
LINE
  5
348
330
1F
100
AcDbEntity
  8
0
  6
Continuous
 62
     7
370
    25
100
AcDbLine
 10
87.1889674686
 20
80.8054384487
 30
0.0
 11
87.6313412212
 21
80.8054384487
 31
0.0
  0
LINE
  5
349
330
1F
100
AcDbEntity
  8
0
  6
Continuous
 62
     7
370
    25
100
AcDbLine
 10
87.6313412212
 20
80.8054384487
 30
0.0
 11
87.6313412212
 21
80.1648583906
 31
0.0
  0
SPLINE
  5
34A
330
1F
100
AcDbEntity
  8
0
  6
Continuous
 62
     7
370
    25
100
AcDbSpline
210
0.0
220
0.0
230
1.0
 70
     8
 71
     3
 72
    15
 73
    11
 74
     0
 42
0.000000001
 43
0.00000001
 40
0.0
 40
0.0
 40
0.0
 40
0.0
 40
0.0927205184294737
 40
0.1900426654195179
 40
0.2960396415772344
 40
0.4118287688157883
 40
0.5390239035058114
 40
0.6789552040343103
 40
0.8323791358377305
 40
1.0
 40
1.0
 40
1.0
 40
1.0
 10
87.63134061384122
 20
80.16485802159448
 30
0.0
 10
87.63969865598052
 20
80.15558511133966
 30
0.0
 10
87.65682954170839
 20
80.1365790853718
 30
0.0
 10
87.68950029596424
 20
80.11342917156308
 30
0.0
 10
87.72762668323412
 20
80.09366836935806
 30
0.0
 10
87.7718304949545
 20
80.07770580228355
 30
0.0
 10
87.8218621414226
 20
80.06551995380119
 30
0.0
 10
87.8776834659798
 20
80.05659876094798
 30
0.0
 10
87.93942900766271
 20
80.05127285937714
 30
0.0
 10
87.98255361592005
 20
80.05074451880765
 30
0.0
 10
88.00506942740053
 20
80.05046866664014
 30
0.0
  0
LINE
  5
34B
330
1F
100
AcDbEntity
  8
0
  6
Continuous
 62
     7
370
    25
100
AcDbLine
 10
88.0050697945
 20
80.0504688817
 30
0.0
 11
88.9126965426
 21
80.0504688817
 31
0.0
  0
LINE
  5
34C
330
1F
100
AcDbEntity
  8
0
  6
Continuous
 62
     7
370
    25
100
AcDbLine
 10
88.9126965426
 20
80.0504688817
 30
0.0
 11
88.8821879052
 21
79.8699875074
 31
0.0
  0
LINE
  5
34D
330
1F
100
AcDbEntity
  8
0
  6
Continuous
 62
     7
370
    25
100
AcDbLine
 10
88.8821879052
 20
79.8699875074
 30
0.0
 11
88.0050697945
 21
79.8699875074
 31
0.0
  0
SPLINE
  5
34E
330
1F
100
AcDbEntity
  8
0
  6
Continuous
 62
     7
370
    25
100
AcDbSpline
210
0.0
220
0.0
230
1.0
 70
     8
 71
     3
 72
    15
 73
    11
 74
     0
 42
0.000000001
 43
0.00000001
 40
0.0
 40
0.0
 40
0.0
 40
0.0
 40
0.1447436740888948
 40
0.2807528478643904
 40
0.4098201638555548
 40
0.5323681759720313
 40
0.6511035928835375
 40
0.7675458012611487
 40
0.8830350363833409
 40
1.0
 40
1.0
 40
1.0
 40
1.0
 10
88.00506942740054
 20
79.86998768437886
 30
0.0
 10
87.97980565668908
 20
79.87056861584433
 30
0.0
 10
87.93080264761335
 20
79.87169542269356
 30
0.0
 10
87.85973938411273
 20
79.88083154358898
 30
0.0
 10
87.79366957666652
 20
79.89584070962316
 30
0.0
 10
87.73258113577536
 20
79.91740558265806
 30
0.0
 10
87.67655400718
 20
79.94526264273085
 30
0.0
 10
87.62529428605556
 20
79.97893722535457
 30
0.0
 10
87.57917764793199
 20
80.01907625895096
 30
0.0
 10
87.55299142353846
 20
80.05010680790389
 30
0.0
 10
87.53981519011239
 20
80.06572058063406
 30
0.0
  0
LINE
  5
34F
330
1F
100
AcDbEntity
  8
0
  6
Continuous
 62
     7
370
    25
100
AcDbLine
 10
87.2652390622
 20
79.8369419473
 30
0.0
 11
87.1737131499
 21
80.0047126311
 31
0.0
  0
LINE
  5
350
330
1F
100
AcDbEntity
  8
0
  6
Continuous
 62
     7
370
    25
100
AcDbLine
 10
87.1737131499
 20
80.0047126311
 30
0.0
 11
87.1737131499
 21
80.0022695857
 31
0.0
  0
LINE
  5
351
330
1F
100
AcDbEntity
  8
0
  6
Continuous
 62
     7
370
    25
100
AcDbLine
 10
87.2652390622
 20
79.8344989019
 30
0.0
 11
87.1737131499
 21
80.0022695857
 31
0.0
  0
LINE
  5
352
330
1F
100
AcDbEntity
  8
0
  6
Continuous
 62
     7
370
    25
100
AcDbLine
 10
135.2629804634
 20
79.8521940308
 30
0.0
 11
135.2629804634
 21
79.8497502404
 31
0.0
  0
LINE
  5
353
330
1F
100
AcDbEntity
  8
0
  6
Continuous
 62
     7
370
    25
100
AcDbLine
 10
135.4254090809
 20
79.8521940308
 30
0.0
 11
135.2629804634
 21
79.8521940308
 31
0.0
  0
LINE
  5
354
330
1F
100
AcDbEntity
  8
0
  6
Continuous
 62
     7
370
    25
100
AcDbLine
 10
135.4254090809
 20
79.8521940308
 30
0.0
 11
135.4254090809
 21
79.8497502404
 31
0.0
  0
LINE
  5
355
330
1F
100
AcDbEntity
  8
0
  6
Continuous
 62
     7
370
    25
100
AcDbLine
 10
135.4254090809
 20
79.8497502404
 30
0.0
 11
135.2629804634
 21
79.8497502404
 31
0.0
  0
SPLINE
  5
356
330
1F
100
AcDbEntity
  8
0
  6
Continuous
 62
     7
370
    25
100
AcDbSpline
210
0.0
220
0.0
230
1.0
 70
     8
 71
     3
 72
    15
 73
    11
 74
     0
 42
0.000000001
 43
0.00000001
 40
0.0
 40
0.0
 40
0.0
 40
0.0
 40
0.1750648012014863
 40
0.3081745028418131
 40
0.403966913698753
 40
0.4812097920158847
 40
0.5610885761264529
 40
0.6678700571599571
 40
0.812892317082053
 40
1.0
 40
1.0
 40
1.0
 40
1.0
 10
135.494052478248
 20
81.3621332701165
 30
0.0
 10
135.4986056352703
 20
81.36153622578632
 30
0.0
 10
135.5066207639089
 20
81.36048522159604
 30
0.0
 10
135.5167204908141
 20
81.35720482292463
 30
0.0
 10
135.5237628066495
 20
81.3530680190064
 30
0.0
 10
135.5273104535579
 20
81.34693397992748
 30
0.0
 10
135.5259033705268
 20
81.33972340964107
 30
0.0
 10
135.52068141845
 20
81.33269029670566
 30
0.0
 10
135.5126822698676
 20
81.32440483315999
 30
0.0
 10
135.5056444186697
 20
81.31927017375372
 30
0.0
 10
135.501679596892
 20
81.31637752813477
 30
0.0
  0
LINE
  5
357
330
1F
100
AcDbEntity
  8
0
  6
Continuous
 62
     7
370
    25
100
AcDbLine
 10
135.5016791843
 20
81.3163776594
 30
0.0
 11
135.5016791843
 21
80.9045758742
 31
0.0
  0
LINE
  5
358
330
1F
100
AcDbEntity
  8
0
  6
Continuous
 62
     7
370
    25
100
AcDbLine
 10
135.5016791843
 20
80.9045758742
 30
0.0
 11
135.9417939209
 21
80.9045758742
 31
0.0
  0
LINE
  5
359
330
1F
100
AcDbEntity
  8
0
  6
Continuous
 62
     7
370
    25
100
AcDbLine
 10
135.9417939209
 20
80.9045758742
 30
0.0
 11
135.9417939209
 21
81.5146525102
 31
0.0
  0
LINE
  5
35A
330
1F
100
AcDbEntity
  8
0
  6
Continuous
 62
     7
370
    25
100
AcDbLine
 10
135.9417939209
 20
81.5146525102
 30
0.0
 11
136.096596124
 21
81.5146525102
 31
0.0
  0
SPLINE
  5
35B
330
1F
100
AcDbEntity
  8
0
  6
Continuous
 62
     7
370
    25
100
AcDbSpline
210
0.0
220
0.0
230
1.0
 70
     8
 71
     3
 72
    15
 73
    11
 74
     0
 42
0.000000001
 43
0.00000001
 40
0.0
 40
0.0
 40
0.0
 40
0.0
 40
0.1750648012015493
 40
0.3081745028418819
 40
0.4039669136988081
 40
0.481209792015921
 40
0.561088576126486
 40
0.667870057160039
 40
0.8128923170821163
 40
1.0
 40
1.0
 40
1.0
 40
1.0
 10
136.0965948511293
 20
81.5146524100556
 30
0.0
 10
136.1011480081517
 20
81.51405536572543
 30
0.0
 10
136.1091631367902
 20
81.51300436153517
 30
0.0
 10
136.1192628636955
 20
81.50972396286375
 30
0.0
 10
136.1263051795309
 20
81.5055871589455
 30
0.0
 10
136.1298528264393
 20
81.4994531198666
 30
0.0
 10
136.1284457434082
 20
81.49224254958018
 30
0.0
 10
136.1232237913313
 20
81.48520943664478
 30
0.0
 10
136.115224642749
 20
81.47692397309909
 30
0.0
 10
136.108186791551
 20
81.47178931369284
 30
0.0
 10
136.1042219697734
 20
81.46889666807388
 30
0.0
  0
LINE
  5
35C
330
1F
100
AcDbEntity
  8
0
  6
Continuous
 62
     7
370
    25
100
AcDbLine
 10
136.1042225383
 20
81.4688970047
 30
0.0
 11
136.1042225383
 21
80.9045758742
 31
0.0
  0
LINE
  5
35D
330
1F
100
AcDbEntity
  8
0
  6
Continuous
 62
     7
370
    25
100
AcDbLine
 10
136.1042225383
 20
80.9045758742
 30
0.0
 11
136.5367078804
 21
80.9045758742
 31
0.0
  0
LINE
  5
35E
330
1F
100
AcDbEntity
  8
0
  6
Continuous
 62
     7
370
    25
100
AcDbLine
 10
136.5367078804
 20
80.9045758742
 30
0.0
 11
136.5367078804
 21
81.3545074957
 31
0.0
  0
LINE
  5
35F
330
1F
100
AcDbEntity
  8
0
  6
Continuous
 62
     7
370
    25
100
AcDbLine
 10
136.5367078804
 20
81.3545074957
 30
0.0
 11
136.6915100835
 21
81.3545074957
 31
0.0
  0
SPLINE
  5
360
330
1F
100
AcDbEntity
  8
0
  6
Continuous
 62
     7
370
    25
100
AcDbSpline
210
0.0
220
0.0
230
1.0
 70
     8
 71
     3
 72
    15
 73
    11
 74
     0
 42
0.000000001
 43
0.00000001
 40
0.0
 40
0.0
 40
0.0
 40
0.0
 40
0.175064801201547
 40
0.3081745028418703
 40
0.4039669136987344
 40
0.4812097920158936
 40
0.5610885761264388
 40
0.6678700571599886
 40
0.8128923170820871
 40
1.0
 40
1.0
 40
1.0
 40
1.0
 10
136.6915101053666
 20
81.35450731311956
 30
0.0
 10
136.696063262389
 20
81.35391026878935
 30
0.0
 10
136.7040783910275
 20
81.35285926459909
 30
0.0
 10
136.7141781179328
 20
81.34957886592768
 30
0.0
 10
136.7212204337681
 20
81.34544206200943
 30
0.0
 10
136.7247680806766
 20
81.33930802293054
 30
0.0
 10
136.7233609976455
 20
81.3320974526441
 30
0.0
 10
136.7181390455686
 20
81.3250643397087
 30
0.0
 10
136.7101398969863
 20
81.31677887616303
 30
0.0
 10
136.7031020457883
 20
81.31164421675676
 30
0.0
 10
136.6991372240107
 20
81.30875157113782
 30
0.0
  0
LINE
  5
361
330
1F
100
AcDbEntity
  8
0
  6
Continuous
 62
     7
370
    25
100
AcDbLine
 10
136.6991364978
 20
81.3087512451
 30
0.0
 11
136.6991364978
 21
80.6910489398
 31
0.0
  0
LINE
  5
362
330
1F
100
AcDbEntity
  8
0
  6
Continuous
 62
     7
370
    25
100
AcDbLine
 10
136.6991364978
 20
80.6910489398
 30
0.0
 11
136.5367078804
 21
80.6910489398
 31
0.0
  0
LINE
  5
363
330
1F
100
AcDbEntity
  8
0
  6
Continuous
 62
     7
370
    25
100
AcDbLine
 10
136.5367078804
 20
80.6910489398
 30
0.0
 11
136.5367078804
 21
80.7602476972
 31
0.0
  0
LINE
  5
364
330
1F
100
AcDbEntity
  8
0
  6
Continuous
 62
     7
370
    25
100
AcDbLine
 10
136.5367078804
 20
80.7602476972
 30
0.0
 11
136.1042225383
 21
80.7602476972
 31
0.0
  0
LINE
  5
365
330
1F
100
AcDbEntity
  8
0
  6
Continuous
 62
     7
370
    25
100
AcDbLine
 10
136.1042225383
 20
80.7602476972
 30
0.0
 11
136.1042225383
 21
80.1038500565
 31
0.0
  0
LINE
  5
366
330
1F
100
AcDbEntity
  8
0
  6
Continuous
 62
     7
370
    25
100
AcDbLine
 10
136.1042225383
 20
80.1038500565
 30
0.0
 11
136.5977251552
 21
80.1038500565
 31
0.0
  0
LINE
  5
367
330
1F
100
AcDbEntity
  8
0
  6
Continuous
 62
     7
370
    25
100
AcDbLine
 10
136.5977251552
 20
80.1038500565
 30
0.0
 11
136.5977251552
 21
80.5690337616
 31
0.0
  0
LINE
  5
368
330
1F
100
AcDbEntity
  8
0
  6
Continuous
 62
     7
370
    25
100
AcDbLine
 10
136.5977251552
 20
80.5690337616
 30
0.0
 11
136.7525273584
 21
80.5690337616
 31
0.0
  0
SPLINE
  5
369
330
1F
100
AcDbEntity
  8
0
  6
Continuous
 62
     7
370
    25
100
AcDbSpline
210
0.0
220
0.0
230
1.0
 70
     8
 71
     3
 72
    15
 73
    11
 74
     0
 42
0.000000001
 43
0.00000001
 40
0.0
 40
0.0
 40
0.0
 40
0.0
 40
0.1750648012015543
 40
0.3081745028418855
 40
0.4039669136988144
 40
0.4812097920159296
 40
0.5610885761265241
 40
0.6678700571600272
 40
0.8128923170821216
 40
1.0
 40
1.0
 40
1.0
 40
1.0
 10
136.7525270545192
 20
80.56903374243312
 30
0.0
 10
136.7570802115415
 20
80.56843669810294
 30
0.0
 10
136.7650953401801
 20
80.56738569391267
 30
0.0
 10
136.7751950670853
 20
80.56410529524126
 30
0.0
 10
136.7822373829207
 20
80.55996849132302
 30
0.0
 10
136.7857850298291
 20
80.5538344522441
 30
0.0
 10
136.784377946798
 20
80.5466238819577
 30
0.0
 10
136.7791559947211
 20
80.53959076902228
 30
0.0
 10
136.7711568461388
 20
80.53130530547661
 30
0.0
 10
136.7641189949409
 20
80.52617064607034
 30
0.0
 10
136.7601541731632
 20
80.5232780004514
 30
0.0
  0
LINE
  5
36A
330
1F
100
AcDbEntity
  8
0
  6
Continuous
 62
     7
370
    25
100
AcDbLine
 10
136.7601537727
 20
80.523278256
 30
0.0
 11
136.7601537727
 21
79.8750717836
 31
0.0
  0
LINE
  5
36B
330
1F
100
AcDbEntity
  8
0
  6
Continuous
 62
     7
370
    25
100
AcDbLine
 10
136.7601537727
 20
79.8750717836
 30
0.0
 11
136.5977251552
 21
79.8750717836
 31
0.0
  0
LINE
  5
36C
330
1F
100
AcDbEntity
  8
0
  6
Continuous
 62
     7
370
    25
100
AcDbLine
 10
136.5977251552
 20
79.8750717836
 30
0.0
 11
136.5977251552
 21
79.9595218795
 31
0.0
  0
LINE
  5
36D
330
1F
100
AcDbEntity
  8
0
  6
Continuous
 62
     7
370
    25
100
AcDbLine
 10
136.5977251552
 20
79.9595218795
 30
0.0
 11
135.4254090809
 21
79.9595218795
 31
0.0
  0
LINE
  5
36E
330
1F
100
AcDbEntity
  8
0
  6
Continuous
 62
     7
370
    25
100
AcDbLine
 10
135.2629804634
 20
80.5766594308
 30
0.0
 11
135.4177826666
 21
80.5766594308
 31
0.0
  0
SPLINE
  5
36F
330
1F
100
AcDbEntity
  8
0
  6
Continuous
 62
     7
370
    25
100
AcDbSpline
210
0.0
220
0.0
230
1.0
 70
     8
 71
     3
 72
    15
 73
    11
 74
     0
 42
0.000000001
 43
0.00000001
 40
0.0
 40
0.0
 40
0.0
 40
0.0
 40
0.1750648012015595
 40
0.3081745028418862
 40
0.4039669136987679
 40
0.4812097920159326
 40
0.561088576126493
 40
0.6678700571600122
 40
0.8128923170821084
 40
1.0
 40
1.0
 40
1.0
 40
1.0
 10
135.4177812918073
 20
80.5766596994301
 30
0.0
 10
135.4223344488296
 20
80.57606265509989
 30
0.0
 10
135.4303495774682
 20
80.57501165090963
 30
0.0
 10
135.4404493043734
 20
80.57173125223822
 30
0.0
 10
135.4474916202088
 20
80.56759444831997
 30
0.0
 10
135.4510392671172
 20
80.56146040924108
 30
0.0
 10
135.4496321840862
 20
80.55424983895466
 30
0.0
 10
135.4444102320093
 20
80.54721672601924
 30
0.0
 10
135.436411083427
 20
80.53893126247357
 30
0.0
 10
135.429373232229
 20
80.5337966030673
 30
0.0
 10
135.4254084104514
 20
80.53090395744836
 30
0.0
  0
LINE
  5
370
330
1F
100
AcDbEntity
  8
0
  6
Continuous
 62
     7
370
    25
100
AcDbLine
 10
135.4254090809
 20
80.5309039252
 30
0.0
 11
135.4254090809
 21
80.1038500565
 31
0.0
  0
LINE
  5
371
330
1F
100
AcDbEntity
  8
0
  6
Continuous
 62
     7
370
    25
100
AcDbLine
 10
135.4254090809
 20
80.1038500565
 30
0.0
 11
135.9417939209
 21
80.1038500565
 31
0.0
  0
LINE
  5
372
330
1F
100
AcDbEntity
  8
0
  6
Continuous
 62
     7
370
    25
100
AcDbLine
 10
135.9417939209
 20
80.1038500565
 30
0.0
 11
135.9417939209
 21
80.7602476972
 31
0.0
  0
LINE
  5
373
330
1F
100
AcDbEntity
  8
0
  6
Continuous
 62
     7
370
    25
100
AcDbLine
 10
135.9417939209
 20
80.7602476972
 30
0.0
 11
135.5016791843
 21
80.7602476972
 31
0.0
  0
LINE
  5
374
330
1F
100
AcDbEntity
  8
0
  6
Continuous
 62
     7
370
    25
100
AcDbLine
 10
135.5016791843
 20
80.7602476972
 30
0.0
 11
135.5016791843
 21
80.6757968562
 31
0.0
  0
LINE
  5
375
330
1F
100
AcDbEntity
  8
0
  6
Continuous
 62
     7
370
    25
100
AcDbLine
 10
135.5016791843
 20
80.6757968562
 30
0.0
 11
135.3392505668
 21
80.6757968562
 31
0.0
  0
LINE
  5
376
330
1F
100
AcDbEntity
  8
0
  6
Continuous
 62
     7
370
    25
100
AcDbLine
 10
135.3392505668
 20
80.6757968562
 30
0.0
 11
135.3392505668
 21
81.3621331649
 31
0.0
  0
LINE
  5
377
330
1F
100
AcDbEntity
  8
0
  6
Continuous
 62
     7
370
    25
100
AcDbLine
 10
135.3392505668
 20
81.3621331649
 30
0.0
 11
135.49405277
 21
81.3621331649
 31
0.0
  0
LINE
  5
378
330
1F
100
AcDbEntity
  8
0
  6
Continuous
 62
     7
370
    25
100
AcDbLine
 10
135.4254090809
 20
79.9595218795
 30
0.0
 11
135.4254090809
 21
79.8521940308
 31
0.0
  0
LINE
  5
379
330
1F
100
AcDbEntity
  8
0
  6
Continuous
 62
     7
370
    25
100
AcDbLine
 10
135.2629804634
 20
79.8521940308
 30
0.0
 11
135.2629804634
 21
80.5766594308
 31
0.0
  0
LINE
  5
37A
330
1F
100
AcDbEntity
  8
0
  6
Continuous
 62
     7
370
    25
100
AcDbLine
 10
88.0050697945
 20
79.8699875074
 30
0.0
 11
88.0050697945
 21
79.867544462
 31
0.0
  0
SPLINE
  5
37B
330
1F
100
AcDbEntity
  8
0
  6
Continuous
 62
     7
370
    25
100
AcDbSpline
210
0.0
220
0.0
230
1.0
 70
     8
 71
     3
 72
    15
 73
    11
 74
     0
 42
0.000000001
 43
0.00000001
 40
0.0
 40
0.0
 40
0.0
 40
0.0
 40
0.1447436740888948
 40
0.2807528478643904
 40
0.4098201638555548
 40
0.5323681759720313
 40
0.6511035928835375
 40
0.7675458012611487
 40
0.8830350363833409
 40
1.0
 40
1.0
 40
1.0
 40
1.0
 10
88.00506942740054
 20
79.86754434747765
 30
0.0
 10
87.97980565668908
 20
79.86812527894313
 30
0.0
 10
87.93080264761335
 20
79.86925208579235
 30
0.0
 10
87.85973938411273
 20
79.87838820668777
 30
0.0
 10
87.79366957666652
 20
79.89339737272194
 30
0.0
 10
87.73258113577536
 20
79.91496224575684
 30
0.0
 10
87.67655400718
 20
79.94281930582964
 30
0.0
 10
87.62529428605556
 20
79.97649388845335
 30
0.0
 10
87.57917764793199
 20
80.01663292204977
 30
0.0
 10
87.55299142353846
 20
80.04766347100268
 30
0.0
 10
87.53981519011239
 20
80.06327724373284
 30
0.0
  0
LINE
  5
37C
330
1F
100
AcDbEntity
  8
0
  6
Continuous
 62
     7
370
    25
100
AcDbLine
 10
88.8821879052
 20
79.8699875074
 30
0.0
 11
88.8821879052
 21
79.867544462
 31
0.0
  0
LINE
  5
37D
330
1F
100
AcDbEntity
  8
0
  6
Continuous
 62
     7
370
    25
100
AcDbLine
 10
88.9126965426
 20
80.0504688817
 30
0.0
 11
88.9126965426
 21
80.0480250912
 31
0.0
  0
LINE
  5
37E
330
1F
100
AcDbEntity
  8
0
  6
Continuous
 62
     7
370
    25
100
AcDbLine
 10
88.9126965426
 20
80.0480250912
 30
0.0
 11
88.8821879052
 21
79.867544462
 31
0.0
  0
LINE
  5
37F
330
1F
100
AcDbEntity
  8
0
  6
Continuous
 62
     7
370
    25
100
AcDbLine
 10
88.8821879052
 20
79.867544462
 30
0.0
 11
88.0050697945
 21
79.867544462
 31
0.0
  0
LINE
  5
380
330
1F
100
AcDbEntity
  8
0
  6
Continuous
 62
     7
370
    25
100
AcDbLine
 10
136.5977251552
 20
79.8750717836
 30
0.0
 11
136.5977251552
 21
79.8726279932
 31
0.0
  0
LINE
  5
381
330
1F
100
AcDbEntity
  8
0
  6
Continuous
 62
     7
370
    25
100
AcDbLine
 10
136.7601537727
 20
79.8750717836
 30
0.0
 11
136.7601537727
 21
79.8726279932
 31
0.0
  0
LINE
  5
382
330
1F
100
AcDbEntity
  8
0
  6
Continuous
 62
     7
370
    25
100
AcDbLine
 10
136.7601537727
 20
79.8726279932
 30
0.0
 11
136.5977251552
 21
79.8726279932
 31
0.0
  0
LINE
  5
383
330
1F
100
AcDbEntity
  8
0
  6
Continuous
 62
     7
370
    25
100
AcDbLine
 10
134.2714542173
 20
81.4994004267
 30
0.0
 11
134.4262564205
 21
81.4994004267
 31
0.0
  0
SPLINE
  5
384
330
1F
100
AcDbEntity
  8
0
  6
Continuous
 62
     7
370
    25
100
AcDbSpline
210
0.0
220
0.0
230
1.0
 70
     8
 71
     3
 72
    15
 73
    11
 74
     0
 42
0.000000001
 43
0.00000001
 40
0.0
 40
0.0
 40
0.0
 40
0.0
 40
0.1750648012014892
 40
0.3081745028418549
 40
0.4039669136987555
 40
0.4812097920159024
 40
0.5610885761264578
 40
0.6678700571599958
 40
0.8128923170820914
 40
1.0
 40
1.0
 40
1.0
 40
1.0
 10
134.4262558680785
 20
81.49940049606171
 30
0.0
 10
134.4308090251008
 20
81.4988034517315
 30
0.0
 10
134.4388241537394
 20
81.49775244754125
 30
0.0
 10
134.4489238806446
 20
81.49447204886984
 30
0.0
 10
134.45596619648
 20
81.49033524495158
 30
0.0
 10
134.4595138433884
 20
81.48420120587268
 30
0.0
 10
134.4581067603574
 20
81.47699063558628
 30
0.0
 10
134.4528848082805
 20
81.46995752265086
 30
0.0
 10
134.4448856596981
 20
81.46167205910518
 30
0.0
 10
134.4378478085002
 20
81.45653739969892
 30
0.0
 10
134.4338829867226
 20
81.45364475407997
 30
0.0
  0
LINE
  5
385
330
1F
100
AcDbEntity
  8
0
  6
Continuous
 62
     7
370
    25
100
AcDbLine
 10
134.4338828348
 20
81.4536449211
 30
0.0
 11
134.4338828348
 21
80.9808355468
 31
0.0
  0
LINE
  5
386
330
1F
100
AcDbEntity
  8
0
  6
Continuous
 62
     7
370
    25
100
AcDbLine
 10
134.4338828348
 20
80.9808355468
 30
0.0
 11
134.8610022687
 21
80.9808355468
 31
0.0
  0
LINE
  5
387
330
1F
100
AcDbEntity
  8
0
  6
Continuous
 62
     7
370
    25
100
AcDbLine
 10
134.8610022687
 20
80.9808355468
 30
0.0
 11
134.8610022687
 21
80.8365073698
 31
0.0
  0
LINE
  5
388
330
1F
100
AcDbEntity
  8
0
  6
Continuous
 62
     7
370
    25
100
AcDbLine
 10
134.8610022687
 20
80.8365073698
 30
0.0
 11
134.4338828348
 21
80.8365073698
 31
0.0
  0
LINE
  5
389
330
1F
100
AcDbEntity
  8
0
  6
Continuous
 62
     7
370
    25
100
AcDbLine
 10
134.4338828348
 20
80.8365073698
 30
0.0
 11
134.4338828348
 21
80.0657202202
 31
0.0
  0
LINE
  5
38A
330
1F
100
AcDbEntity
  8
0
  6
Continuous
 62
     7
370
    25
100
AcDbLine
 10
134.4338828348
 20
80.0657202202
 30
0.0
 11
134.9525266908
 21
80.0657202202
 31
0.0
  0
LINE
  5
38B
330
1F
100
AcDbEntity
  8
0
  6
Continuous
 62
     7
370
    25
100
AcDbLine
 10
134.9525266908
 20
80.0657202202
 30
0.0
 11
134.9525266908
 21
79.9213920432
 31
0.0
  0
LINE
  5
38C
330
1F
100
AcDbEntity
  8
0
  6
Continuous
 62
     7
370
    25
100
AcDbLine
 10
134.9525266908
 20
79.9213920432
 30
0.0
 11
133.5948997759
 21
79.9213920432
 31
0.0
  0
LINE
  5
38D
330
1F
100
AcDbEntity
  8
0
  6
Continuous
 62
     7
370
    25
100
AcDbLine
 10
133.5948997759
 20
79.9213920432
 30
0.0
 11
133.5948997759
 21
80.0657202202
 31
0.0
  0
LINE
  5
38E
330
1F
100
AcDbEntity
  8
0
  6
Continuous
 62
     7
370
    25
100
AcDbLine
 10
133.5948997759
 20
80.0657202202
 30
0.0
 11
134.2714542173
 21
80.0657202202
 31
0.0
  0
LINE
  5
38F
330
1F
100
AcDbEntity
  8
0
  6
Continuous
 62
     7
370
    25
100
AcDbLine
 10
134.2714542173
 20
80.0657202202
 30
0.0
 11
134.2714542173
 21
80.8365073698
 31
0.0
  0
LINE
  5
390
330
1F
100
AcDbEntity
  8
0
  6
Continuous
 62
     7
370
    25
100
AcDbLine
 10
134.2714542173
 20
80.8365073698
 30
0.0
 11
133.922865393
 21
80.8365073698
 31
0.0
  0
LINE
  5
391
330
1F
100
AcDbEntity
  8
0
  6
Continuous
 62
     7
370
    25
100
AcDbLine
 10
133.922865393
 20
80.8365073698
 30
0.0
 11
133.922865393
 21
80.9808355468
 31
0.0
  0
LINE
  5
392
330
1F
100
AcDbEntity
  8
0
  6
Continuous
 62
     7
370
    25
100
AcDbLine
 10
133.922865393
 20
80.9808355468
 30
0.0
 11
134.2714542173
 21
80.9808355468
 31
0.0
  0
LINE
  5
393
330
1F
100
AcDbEntity
  8
0
  6
Continuous
 62
     7
370
    25
100
AcDbLine
 10
134.2714542173
 20
80.9808355468
 30
0.0
 11
134.2714542173
 21
81.4994004267
 31
0.0
  0
LINE
  5
394
330
1F
100
AcDbEntity
  8
0
  6
Continuous
 62
     7
370
    25
100
AcDbLine
 10
134.9525266908
 20
79.9213920432
 30
0.0
 11
134.9525266908
 21
79.9189489978
 31
0.0
  0
LINE
  5
395
330
1F
100
AcDbEntity
  8
0
  6
Continuous
 62
     7
370
    25
100
AcDbLine
 10
134.9525266908
 20
79.9189489978
 30
0.0
 11
133.5948997759
 21
79.9189489978
 31
0.0
  0
LINE
  5
396
330
1F
100
AcDbEntity
  8
0
  6
Continuous
 62
     7
370
    25
100
AcDbLine
 10
133.5948997759
 20
79.9213920432
 30
0.0
 11
133.5948997759
 21
79.9189489978
 31
0.0
  0
LINE
  5
397
330
1F
100
AcDbEntity
  8
0
  6
Continuous
 62
     7
370
    25
100
AcDbLine
 10
136.5977251552
 20
79.9570788341
 30
0.0
 11
135.4254090809
 21
79.9570788341
 31
0.0
  0
LINE
  5
398
330
1F
100
AcDbEntity
  8
0
  6
Continuous
 62
     7
370
    25
100
AcDbLine
 10
87.7991372369
 20
80.1496063071
 30
0.0
 11
87.7991372369
 21
80.1471625167
 31
0.0
  0
SPLINE
  5
399
330
1F
100
AcDbEntity
  8
0
  6
Continuous
 62
     7
370
    25
100
AcDbSpline
210
0.0
220
0.0
230
1.0
 70
     8
 71
     3
 72
    23
 73
    19
 74
     0
 42
0.000000001
 43
0.00000001
 40
0.0
 40
0.0
 40
0.0
 40
0.0
 40
0.0639607387530563
 40
0.1274840798105228
 40
0.1901677961534538
 40
0.2526448960227353
 40
0.3144792211464672
 40
0.3759152824287744
 40
0.4375089902303572
 40
0.4985094228928231
 40
0.559989863116229
 40
0.6212917708891361
 40
0.6830345428399486
 40
0.7453205609858587
 40
0.8080268347022522
 40
0.8712688772723857
 40
0.935159296050267
 40
1.0
 40
1.0
 40
1.0
 40
1.0
 10
88.29489993587511
 20
80.86644606531439
 30
0.0
 10
88.28971161551331
 20
80.84821951108043
 30
0.0
 10
88.27937045529563
 20
80.8118910455259
 30
0.0
 10
88.26076384684268
 20
80.75869664969578
 30
0.0
 10
88.24085635373203
 20
80.70645492982639
 30
0.0
 10
88.21842048719905
 20
80.65578690078422
 30
0.0
 10
88.19448040525324
 20
80.6062316469486
 30
0.0
 10
88.16840963279522
 20
80.55804927908842
 30
0.0
 10
88.14024843826293
 20
80.51134724629067
 30
0.0
 10
88.11004339360436
 20
80.46593491003205
 30
0.0
 10
88.07837104670135
 20
80.42163028979184
 30
0.0
 10
88.04423612605484
 20
80.37890754869177
 30
0.0
 10
88.00834287360102
 20
80.33734862686326
 30
0.0
 10
87.9705292970368
 20
80.2969486920293
 30
0.0
 10
87.93064894304553
 20
80.25794737099191
 30
0.0
 10
87.88879114701304
 20
80.22036624519411
 30
0.0
 10
87.84494412781923
 20
80.18411455519583
 30
0.0
 10
87.81448115055046
 20
80.16116539322957
 30
0.0
 10
87.79913722401069
 20
80.14960610760056
 30
0.0
  0
LINE
  5
39A
330
1F
100
AcDbEntity
  8
0
  6
Continuous
 62
     7
370
    25
100
AcDbLine
 10
88.29490036
 20
80.8664460378
 30
0.0
 11
88.29490036
 21
80.8640029925
 31
0.0
  0
SPLINE
  5
39B
330
1F
100
AcDbEntity
  8
0
  6
Continuous
 62
     7
370
    25
100
AcDbSpline
210
0.0
220
0.0
230
1.0
 70
     8
 71
     3
 72
    23
 73
    19
 74
     0
 42
0.000000001
 43
0.00000001
 40
0.0
 40
0.0
 40
0.0
 40
0.0
 40
0.0639607387530563
 40
0.1274840798105228
 40
0.1901677961534538
 40
0.2526448960227353
 40
0.3144792211464672
 40
0.3759152824287744
 40
0.4375089902303572
 40
0.4985094228928231
 40
0.559989863116229
 40
0.6212917708891361
 40
0.6830345428399486
 40
0.7453205609858587
 40
0.8080268347022522
 40
0.8712688772723857
 40
0.935159296050267
 40
1.0
 40
1.0
 40
1.0
 40
1.0
 10
88.29489993587511
 20
80.86400272841317
 30
0.0
 10
88.28971161551331
 20
80.8457761741792
 30
0.0
 10
88.27937045529563
 20
80.80944770862467
 30
0.0
 10
88.26076384684268
 20
80.75625331279456
 30
0.0
 10
88.24085635373203
 20
80.70401159292517
 30
0.0
 10
88.21842048719905
 20
80.653343563883
 30
0.0
 10
88.19448040525324
 20
80.60378831004739
 30
0.0
 10
88.16840963279522
 20
80.5556059421872
 30
0.0
 10
88.14024843826293
 20
80.50890390938945
 30
0.0
 10
88.11004339360436
 20
80.46349157313084
 30
0.0
 10
88.07837104670135
 20
80.41918695289061
 30
0.0
 10
88.04423612605484
 20
80.37646421179055
 30
0.0
 10
88.00834287360102
 20
80.33490528996204
 30
0.0
 10
87.9705292970368
 20
80.29450535512808
 30
0.0
 10
87.93064894304553
 20
80.25550403409069
 30
0.0
 10
87.88879114701304
 20
80.21792290829289
 30
0.0
 10
87.84494412781923
 20
80.18167121829461
 30
0.0
 10
87.81448115055046
 20
80.15872205632834
 30
0.0
 10
87.79913722401069
 20
80.14716277069935
 30
0.0
  0
SPLINE
  5
39C
330
1F
100
AcDbEntity
  8
0
  6
Continuous
 62
     7
370
    25
100
AcDbSpline
210
0.0
220
0.0
230
1.0
 70
     8
 71
     3
 72
    23
 73
    19
 74
     0
 42
0.000000001
 43
0.00000001
 40
0.0
 40
0.0
 40
0.0
 40
0.0
 40
0.0707886064411247
 40
0.1402442596327636
 40
0.2079437561269591
 40
0.2744605752479274
 40
0.3396219865046965
 40
0.4035723116837491
 40
0.4663834360762359
 40
0.5281586238205109
 40
0.5889043525279778
 40
0.6489383130584488
 40
0.7085753832131805
 40
0.7673406099966075
 40
0.8257853151644744
 40
0.8841024791625737
 40
0.9419154465244176
 40
1.0
 40
1.0
 40
1.0
 40
1.0
 10
88.75252705451918
 20
80.1801099355884
 30
0.0
 10
88.73729147357672
 20
80.19282588570573
 30
0.0
 10
88.7071071984967
 20
80.21801834391884
 30
0.0
 10
88.66367047180366
 20
80.2569104576146
 30
0.0
 10
88.62251796681805
 20
80.29651127932611
 30
0.0
 10
88.58401127064376
 20
80.3370289982624
 30
0.0
 10
88.5470058783804
 20
80.37751932111209
 30
0.0
 10
88.51293683567656
 20
80.41918245733363
 30
0.0
 10
88.48089724799307
 20
80.46123085672156
 30
0.0
 10
88.45137412734422
 20
80.5039900190589
 30
0.0
 10
88.4233892747517
 20
80.54685160830225
 30
0.0
 10
88.39829112196611
 20
80.590787429354
 30
0.0
 10
88.37546126367505
 20
80.63530862917432
 30
0.0
 10
88.35484341108351
 20
80.6803993928194
 30
0.0
 10
88.33594856789865
 20
80.72585394436712
 30
0.0
 10
88.32008341563153
 20
80.77216585912731
 30
0.0
 10
88.30595279526456
 20
80.81893536781112
 30
0.0
 10
88.29858997351145
 20
80.85058444473833
 30
0.0
 10
88.29489993587511
 20
80.86644606531439
 30
0.0
  0
LINE
  5
39D
330
1F
100
AcDbEntity
  8
0
  6
Continuous
 62
     7
370
    25
100
AcDbLine
 10
87.7991372369
 20
80.1496063071
 30
0.0
 11
87.6923570059
 21
80.3250034052
 31
0.0
  0
SPLINE
  5
39E
330
1F
100
AcDbEntity
  8
0
  6
Continuous
 62
     7
370
    25
100
AcDbSpline
210
0.0
220
0.0
230
1.0
 70
     8
 71
     3
 72
    23
 73
    19
 74
     0
 42
0.000000001
 43
0.00000001
 40
0.0
 40
0.0
 40
0.0
 40
0.0
 40
0.0686013099984581
 40
0.1355051097468985
 40
0.2007125535129883
 40
0.2642651908058442
 40
0.32672394216636
 40
0.3878148610606568
 40
0.4482843956677104
 40
0.5083751749736435
 40
0.5681143988993694
 40
0.6276773229093892
 40
0.6876436910561777
 40
0.7479552367177494
 40
0.8091623052560976
 40
0.8714255334291539
 40
0.9350548672498937
 40
0.9999999999999999
 40
0.9999999999999999
 40
0.9999999999999999
 40
0.9999999999999999
 10
87.69235756299376
 20
80.32500311853055
 30
0.0
 10
87.71371028225997
 20
80.34012578892717
 30
0.0
 10
87.75588735683228
 20
80.36999692567086
 30
0.0
 10
87.8154779258663
 20
80.41811562587003
 30
0.0
 10
87.87091215922857
 20
80.46810939949077
 30
0.0
 10
87.9222360764681
 20
80.51995971389631
 30
0.0
 10
87.9694715904995
 20
80.57349393880087
 30
0.0
 10
88.012296811173
 20
80.62914655313637
 30
0.0
 10
88.05106631961499
 20
80.68659452332453
 30
0.0
 10
88.08599539462774
 20
80.74587723703783
 30
0.0
 10
88.11617622223262
 20
80.80733260651527
 30
0.0
 10
88.14223414830631
 20
80.87057287353004
 30
0.0
 10
88.16434351960541
 20
80.93554289033376
 30
0.0
 10
88.18205930516498
 20
81.00248103752148
 30
0.0
 10
88.19612348974329
 20
81.07118938757709
 30
0.0
 10
88.20513695894904
 20
81.14200238117486
 30
0.0
 10
88.21081856321874
 20
81.214602368325
 30
0.0
 10
88.2109401933557
 20
81.26364395354477
 30
0.0
 10
88.21100163079036
 20
81.28841568581261
 30
0.0
  0
LINE
  5
39F
330
1F
100
AcDbEntity
  8
0
  6
Continuous
 62
     7
370
    25
100
AcDbLine
 10
88.2110023521
 20
81.2884156304
 30
0.0
 11
87.8601545118
 21
81.2884156304
 31
0.0
  0
LINE
  5
3A0
330
1F
100
AcDbEntity
  8
0
  6
Continuous
 62
     7
370
    25
100
AcDbLine
 10
87.8601545118
 20
81.2884156304
 30
0.0
 11
87.8601545118
 21
81.4688970047
 31
0.0
  0
LINE
  5
3A1
330
1F
100
AcDbEntity
  8
0
  6
Continuous
 62
     7
370
    25
100
AcDbLine
 10
87.8601545118
 20
81.4688970047
 30
0.0
 11
88.3635440491
 21
81.4688970047
 31
0.0
  0
SPLINE
  5
3A2
330
1F
100
AcDbEntity
  8
0
  6
Continuous
 62
     7
370
    25
100
AcDbSpline
210
0.0
220
0.0
230
1.0
 70
     8
 71
     3
 72
    23
 73
    19
 74
     0
 42
0.000000001
 43
0.00000001
 40
0.0
 40
0.0
 40
0.0
 40
0.0
 40
0.0735666833915973
 40
0.1445177453506526
 40
0.2132365714237011
 40
0.2795183143298369
 40
0.3438225441282022
 40
0.4063043111681313
 40
0.467333060214963
 40
0.5271331638973651
 40
0.5860013893732585
 40
0.6442487491502047
 40
0.7023215172384691
 40
0.7604334003523322
 40
0.8189090953434575
 40
0.8780673088932313
 40
0.938387622034893
 40
1.0
 40
1.0
 40
1.0
 40
1.0
 10
88.36354400367172
 20
81.46889666807387
 30
0.0
 10
88.36233754308888
 20
81.43707826978388
 30
0.0
 10
88.35996751694051
 20
81.37457275819159
 30
0.0
 10
88.36260306446862
 20
81.28228587493942
 30
0.0
 10
88.36875340887781
 20
81.1933508796499
 30
0.0
 10
88.3800184224163
 20
81.1077797403403
 30
0.0
 10
88.3962560994172
 20
81.02578559823942
 30
0.0
 10
88.41637356013092
 20
80.94698597272296
 30
0.0
 10
88.44163173935787
 20
80.87172018643948
 30
0.0
 10
88.47128318342978
 20
80.7997704755152
 30
0.0
 10
88.50554872324894
 20
80.7312369196433
 30
0.0
 10
88.54429237453844
 20
80.66598919965602
 30
0.0
 10
88.58796066294825
 20
80.60432644826477
 30
0.0
 10
88.63610503731829
 20
80.54597495639449
 30
0.0
 10
88.68881459255054
 20
80.491048487541
 30
0.0
 10
88.74610654651885
 20
80.43950319311483
 30
0.0
 10
88.80799385039562
 20
80.39126847867159
 30
0.0
 10
88.85221571905899
 20
80.3624452945937
 30
0.0
 10
88.87456095282425
 20
80.34788098952141
 30
0.0
  0
LINE
  5
3A3
330
1F
100
AcDbEntity
  8
0
  6
Continuous
 62
     7
370
    25
100
AcDbLine
 10
88.8745614909
 20
80.3478811579
 30
0.0
 11
88.7525269412
 21
80.1801097291
 31
0.0
  0
LINE
  5
3A4
330
1F
100
AcDbEntity
  8
0
  6
Continuous
 62
     7
370
    25
100
AcDbLine
 10
87.6923570059
 20
80.3250034052
 30
0.0
 11
87.6923570059
 21
80.3225596147
 31
0.0
  0
LINE
  5
3A5
330
1F
100
AcDbEntity
  8
0
  6
Continuous
 62
     7
370
    25
100
AcDbLine
 10
87.7991372369
 20
80.1471625167
 30
0.0
 11
87.6923570059
 21
80.3225596147
 31
0.0
  0
LINE
  5
3A6
330
1F
100
AcDbEntity
  8
0
  6
Continuous
 62
     7
370
    25
100
AcDbLine
 10
133.2875558756
 20
80.1724840599
 30
0.0
 11
133.2875558756
 21
80.1700402694
 31
0.0
  0
LINE
  5
3A7
330
1F
100
AcDbEntity
  8
0
  6
Continuous
 62
     7
370
    25
100
AcDbLine
 10
133.4499844931
 20
80.1724840599
 30
0.0
 11
133.2875558756
 21
80.1724840599
 31
0.0
  0
LINE
  5
3A8
330
1F
100
AcDbEntity
  8
0
  6
Continuous
 62
     7
370
    25
100
AcDbLine
 10
133.4499844931
 20
80.1724840599
 30
0.0
 11
133.4499844931
 21
80.1700402694
 31
0.0
  0
LINE
  5
3A9
330
1F
100
AcDbEntity
  8
0
  6
Continuous
 62
     7
370
    25
100
AcDbLine
 10
133.4499844931
 20
80.1700402694
 30
0.0
 11
133.2875558756
 21
80.1700402694
 31
0.0
  0
LINE
  5
3AA
330
1F
100
AcDbEntity
  8
0
  6
Continuous
 62
     7
370
    25
100
AcDbLine
 10
133.684165182
 20
81.1873008209
 30
0.0
 11
133.4499844931
 21
81.1873008209
 31
0.0
  0
LINE
  5
3AB
330
1F
100
AcDbEntity
  8
0
  6
Continuous
 62
     7
370
    25
100
AcDbLine
 10
133.4499844931
 20
81.1873008209
 30
0.0
 11
133.4499844931
 21
80.5003997582
 31
0.0
  0
LINE
  5
3AC
330
1F
100
AcDbEntity
  8
0
  6
Continuous
 62
     7
370
    25
100
AcDbLine
 10
133.4499844931
 20
80.5003997582
 30
0.0
 11
133.684165182
 21
80.5003997582
 31
0.0
  0
LINE
  5
3AD
330
1F
100
AcDbEntity
  8
0
  6
Continuous
 62
     7
370
    25
100
AcDbLine
 10
133.684165182
 20
80.5003997582
 30
0.0
 11
133.684165182
 21
81.1873008209
 31
0.0
  0
LINE
  5
3AE
330
1F
100
AcDbEntity
  8
0
  6
Continuous
 62
     7
370
    25
100
AcDbLine
 10
133.8465952896
 20
80.2716214853
 30
0.0
 11
133.684165182
 21
80.2716214853
 31
0.0
  0
LINE
  5
3AF
330
1F
100
AcDbEntity
  8
0
  6
Continuous
 62
     7
370
    25
100
AcDbLine
 10
133.684165182
 20
80.2716214853
 30
0.0
 11
133.684165182
 21
80.3560715812
 31
0.0
  0
LINE
  5
3B0
330
1F
100
AcDbEntity
  8
0
  6
Continuous
 62
     7
370
    25
100
AcDbLine
 10
133.684165182
 20
80.3560715812
 30
0.0
 11
133.4499844931
 21
80.3560715812
 31
0.0
  0
LINE
  5
3B1
330
1F
100
AcDbEntity
  8
0
  6
Continuous
 62
     7
370
    25
100
AcDbLine
 10
133.2875558756
 20
81.3316297429
 30
0.0
 11
133.8465952896
 21
81.3316297429
 31
0.0
  0
LINE
  5
3B2
330
1F
100
AcDbEntity
  8
0
  6
Continuous
 62
     7
370
    25
100
AcDbLine
 10
133.8465952896
 20
81.3316297429
 30
0.0
 11
133.8465952896
 21
80.2716214853
 31
0.0
  0
LINE
  5
3B3
330
1F
100
AcDbEntity
  8
0
  6
Continuous
 62
     7
370
    25
100
AcDbLine
 10
133.2875558756
 20
80.1724840599
 30
0.0
 11
133.2875558756
 21
81.3316297429
 31
0.0
  0
LINE
  5
3B4
330
1F
100
AcDbEntity
  8
0
  6
Continuous
 62
     7
370
    25
100
AcDbLine
 10
133.4499844931
 20
80.3560715812
 30
0.0
 11
133.4499844931
 21
80.1724840599
 31
0.0
  0
LINE
  5
3B5
330
1F
100
AcDbEntity
  8
0
  6
Continuous
 62
     7
370
    25
100
AcDbLine
 10
88.7525269412
 20
80.1801097291
 30
0.0
 11
88.7525269412
 21
80.1776666837
 31
0.0
  0
LINE
  5
3B6
330
1F
100
AcDbEntity
  8
0
  6
Continuous
 62
     7
370
    25
100
AcDbLine
 10
88.8745614909
 20
80.3478811579
 30
0.0
 11
88.8745614909
 21
80.3454373675
 31
0.0
  0
LINE
  5
3B7
330
1F
100
AcDbEntity
  8
0
  6
Continuous
 62
     7
370
    25
100
AcDbLine
 10
88.8745614909
 20
80.3454373675
 30
0.0
 11
88.7525269412
 21
80.1776666837
 31
0.0
  0
SPLINE
  5
3B8
330
1F
100
AcDbEntity
  8
0
  6
Continuous
 62
     7
370
    25
100
AcDbSpline
210
0.0
220
0.0
230
1.0
 70
     8
 71
     3
 72
    23
 73
    19
 74
     0
 42
0.000000001
 43
0.00000001
 40
0.0
 40
0.0
 40
0.0
 40
0.0
 40
0.0707886064411247
 40
0.1402442596327636
 40
0.2079437561269591
 40
0.2744605752479274
 40
0.3396219865046965
 40
0.4035723116837491
 40
0.4663834360762359
 40
0.5281586238205109
 40
0.5889043525279778
 40
0.6489383130584488
 40
0.7085753832131805
 40
0.7673406099966075
 40
0.8257853151644744
 40
0.8841024791625737
 40
0.9419154465244176
 40
1.0
 40
1.0
 40
1.0
 40
1.0
 10
88.75252705451918
 20
80.17766659868718
 30
0.0
 10
88.73729147357672
 20
80.19038254880451
 30
0.0
 10
88.7071071984967
 20
80.21557500701762
 30
0.0
 10
88.66367047180366
 20
80.25446712071337
 30
0.0
 10
88.62251796681805
 20
80.29406794242489
 30
0.0
 10
88.58401127064376
 20
80.33458566136117
 30
0.0
 10
88.5470058783804
 20
80.37507598421087
 30
0.0
 10
88.51293683567656
 20
80.41673912043241
 30
0.0
 10
88.48089724799307
 20
80.45878751982033
 30
0.0
 10
88.45137412734422
 20
80.50154668215768
 30
0.0
 10
88.4233892747517
 20
80.54440827140102
 30
0.0
 10
88.39829112196611
 20
80.58834409245277
 30
0.0
 10
88.37546126367505
 20
80.6328652922731
 30
0.0
 10
88.35484341108351
 20
80.67795605591819
 30
0.0
 10
88.33594856789865
 20
80.7234106074659
 30
0.0
 10
88.32008341563153
 20
80.7697225222261
 30
0.0
 10
88.30595279526456
 20
80.8164920309099
 30
0.0
 10
88.29858997351145
 20
80.8481411078371
 30
0.0
 10
88.29489993587511
 20
80.86400272841317
 30
0.0
  0
LINE
  5
3B9
330
1F
100
AcDbEntity
  8
0
  6
Continuous
 62
     7
370
    25
100
AcDbLine
 10
85.257046821
 20
80.1953618127
 30
0.0
 11
85.257046821
 21
80.1929187673
 31
0.0
  0
LINE
  5
3BA
330
1F
100
AcDbEntity
  8
0
  6
Continuous
 62
     7
370
    25
100
AcDbLine
 10
85.4194769286
 20
80.1953618127
 30
0.0
 11
85.257046821
 21
80.1953618127
 31
0.0
  0
LINE
  5
3BB
330
1F
100
AcDbEntity
  8
0
  6
Continuous
 62
     7
370
    25
100
AcDbLine
 10
85.4194769286
 20
80.1953618127
 30
0.0
 11
85.4194769286
 21
80.1929187673
 31
0.0
  0
LINE
  5
3BC
330
1F
100
AcDbEntity
  8
0
  6
Continuous
 62
     7
370
    25
100
AcDbLine
 10
85.4194769286
 20
80.1929187673
 30
0.0
 11
85.257046821
 21
80.1929187673
 31
0.0
  0
LINE
  5
3BD
330
1F
100
AcDbEntity
  8
0
  6
Continuous
 62
     7
370
    25
100
AcDbLine
 10
85.6078946613
 20
80.4775220054
 30
0.0
 11
85.6078946613
 21
81.1873008209
 31
0.0
  0
LINE
  5
3BE
330
1F
100
AcDbEntity
  8
0
  6
Continuous
 62
     7
370
    25
100
AcDbLine
 10
85.6078946613
 20
81.1873008209
 30
0.0
 11
85.4194769286
 21
81.1873008209
 31
0.0
  0
LINE
  5
3BF
330
1F
100
AcDbEntity
  8
0
  6
Continuous
 62
     7
370
    25
100
AcDbLine
 10
85.4194769286
 20
81.1873008209
 30
0.0
 11
85.4194769286
 21
80.4775220054
 31
0.0
  0
LINE
  5
3C0
330
1F
100
AcDbEntity
  8
0
  6
Continuous
 62
     7
370
    25
100
AcDbLine
 10
85.4194769286
 20
80.4775220054
 30
0.0
 11
85.6078946613
 21
80.4775220054
 31
0.0
  0
LINE
  5
3C1
330
1F
100
AcDbEntity
  8
0
  6
Continuous
 62
     7
370
    25
100
AcDbLine
 10
85.257046821
 20
80.1953618127
 30
0.0
 11
85.257046821
 21
81.3316297429
 31
0.0
  0
LINE
  5
3C2
330
1F
100
AcDbEntity
  8
0
  6
Continuous
 62
     7
370
    25
100
AcDbLine
 10
85.257046821
 20
81.3316297429
 30
0.0
 11
85.7703232788
 21
81.3316297429
 31
0.0
  0
LINE
  5
3C3
330
1F
100
AcDbEntity
  8
0
  6
Continuous
 62
     7
370
    25
100
AcDbLine
 10
85.7703232788
 20
81.3316297429
 30
0.0
 11
85.7703232788
 21
80.3331938284
 31
0.0
  0
LINE
  5
3C4
330
1F
100
AcDbEntity
  8
0
  6
Continuous
 62
     7
370
    25
100
AcDbLine
 10
85.7703232788
 20
80.3331938284
 30
0.0
 11
85.4194769286
 21
80.3331938284
 31
0.0
  0
LINE
  5
3C5
330
1F
100
AcDbEntity
  8
0
  6
Continuous
 62
     7
370
    25
100
AcDbLine
 10
85.4194769286
 20
80.3331938284
 30
0.0
 11
85.4194769286
 21
80.1953618127
 31
0.0
  0
SPLINE
  5
3C6
330
1F
100
AcDbEntity
  8
0
  6
Continuous
 62
     7
370
    25
100
AcDbSpline
210
0.0
220
0.0
230
1.0
 70
     8
 71
     3
 72
    15
 73
    11
 74
     0
 42
0.000000001
 43
0.00000001
 40
0.0
 40
0.0
 40
0.0
 40
0.0
 40
0.1353923026820224
 40
0.2672166673234462
 40
0.3955744028918646
 40
0.521390126888473
 40
0.6440446990461136
 40
0.7645653651336881
 40
0.8830881791135972
 40
1.0
 40
1.0
 40
1.0
 40
1.0
 10
86.34235756299375
 20
80.23867425466281
 30
0.0
 10
86.32813403513343
 20
80.25764892119946
 30
0.0
 10
86.30006180623171
 20
80.29509822263725
 30
0.0
 10
86.26185064921734
 20
80.35291149604143
 30
0.0
 10
86.22649080153386
 20
80.4105408188268
 30
0.0
 10
86.19524333659322
 20
80.46869914850977
 30
0.0
 10
86.16744728416933
 20
80.52705556328893
 30
0.0
 10
86.14309320239057
 20
80.5855462842005
 30
0.0
 10
86.12222365020395
 20
80.64433618781355
 30
0.0
 10
86.11132762090537
 20
80.6841078646017
 30
0.0
 10
86.10591688502765
 20
80.7038576314771
 30
0.0
  0
LINE
  5
3C7
330
1F
100
AcDbEntity
  8
0
  6
Continuous
 62
     7
370
    25
100
AcDbLine
 10
86.8686282657
 20
80.9045758742
 30
0.0
 11
86.8686282657
 21
80.9021328288
 31
0.0
  0
SPLINE
  5
3C8
330
1F
100
AcDbEntity
  8
0
  6
Continuous
 62
     7
370
    25
100
AcDbSpline
210
0.0
220
0.0
230
1.0
 70
     8
 71
     3
 72
    15
 73
    11
 74
     0
 42
0.000000001
 43
0.00000001
 40
0.0
 40
0.0
 40
0.0
 40
0.0
 40
0.1400803533298556
 40
0.2755184539549109
 40
0.4058584866356063
 40
0.5321262056425834
 40
0.6543010307409726
 40
0.7725630977186625
 40
0.8877118459702696
 40
0.9999999999999999
 40
0.9999999999999999
 40
0.9999999999999999
 40
0.9999999999999999
 10
86.86862874943444
 20
80.90213251339794
 30
0.0
 10
86.85950225008554
 20
80.86918880564112
 30
0.0
 10
86.84155170291133
 20
80.80439314220264
 30
0.0
 10
86.81015663237947
 20
80.71041795733855
 30
0.0
 10
86.77563769798775
 20
80.62116889404147
 30
0.0
 10
86.73817752910244
 20
80.53662792526735
 30
0.0
 10
86.6974408640444
 20
80.45690920653183
 30
0.0
 10
86.65396528754735
 20
80.38177898634567
 30
0.0
 10
86.60722667686213
 20
80.31144438722286
 30
0.0
 10
86.57287613399005
 20
80.26783209187843
 30
0.0
 10
86.55591688502764
 20
80.24630021165977
 30
0.0
  0
LINE
  5
3C9
330
1F
100
AcDbEntity
  8
0
  6
Continuous
 62
     7
370
    25
100
AcDbLine
 10
133.8465952896
 20
80.2691784399
 30
0.0
 11
133.684165182
 21
80.2691784399
 31
0.0
  0
LINE
  5
3CA
330
1F
100
AcDbEntity
  8
0
  6
Continuous
 62
     7
370
    25
100
AcDbLine
 10
133.684165182
 20
80.2716214853
 30
0.0
 11
133.684165182
 21
80.2691784399
 31
0.0
  0
LINE
  5
3CB
330
1F
100
AcDbEntity
  8
0
  6
Continuous
 62
     7
370
    25
100
AcDbLine
 10
133.8465952896
 20
80.2716214853
 30
0.0
 11
133.8465952896
 21
80.2691784399
 31
0.0
  0
LINE
  5
3CC
330
1F
100
AcDbEntity
  8
0
  6
Continuous
 62
     7
370
    25
100
AcDbLine
 10
85.7703232788
 20
80.330750783
 30
0.0
 11
85.4194769286
 21
80.330750783
 31
0.0
  0
LINE
  5
3CD
330
1F
100
AcDbEntity
  8
0
  6
Continuous
 62
     7
370
    25
100
AcDbLine
 10
85.7703232788
 20
80.3331938284
 30
0.0
 11
85.7703232788
 21
80.330750783
 31
0.0
  0
LINE
  5
3CE
330
1F
100
AcDbEntity
  8
0
  6
Continuous
 62
     7
370
    25
100
AcDbLine
 10
88.3635440491
 20
81.4688970047
 30
0.0
 11
88.3635440491
 21
81.4664532142
 31
0.0
  0
LINE
  5
3CF
330
1F
100
AcDbEntity
  8
0
  6
Continuous
 62
     7
370
    25
100
AcDbLine
 10
88.3635440491
 20
81.4664532142
 30
0.0
 11
88.3684495114
 21
81.3655440407
 31
0.0
  0
LINE
  5
3D0
330
1F
100
AcDbEntity
  8
0
  6
Continuous
 62
     7
370
    25
100
AcDbLine
 10
133.684165182
 20
80.3536285358
 30
0.0
 11
133.4499844931
 21
80.3536285358
 31
0.0
  0
ELLIPSE
  5
3D1
330
1F
100
AcDbEntity
  8
0
  6
Continuous
 62
     7
370
    25
100
AcDbEllipse
 10
78.6467643427
 20
28.7809065618
 30
0.0
 11
-2.700411160456028
 21
-154.7064517697993
 31
0.0
210
0.0
220
0.0
230
1.0
 40
0.0174497492
 41
4.416824347678831
 42
4.427241852742124
  0
LINE
  5
3D2
330
1F
100
AcDbEntity
  8
0
  6
Continuous
 62
     7
370
    25
100
AcDbLine
 10
76.7316365265
 20
73.7697112086
 30
0.0
 11
76.9529098295
 21
86.4465844529
 31
0.0
  0
LINE
  5
3D3
330
1F
100
AcDbEntity
  8
0
  6
Continuous
 62
     7
370
    25
100
AcDbLine
 10
134.2714542173
 20
80.8340635794
 30
0.0
 11
133.922865393
 21
80.8340635794
 31
0.0
  0
LINE
  5
3D4
330
1F
100
AcDbEntity
  8
0
  6
Continuous
 62
     7
370
    25
100
AcDbLine
 10
134.8610022687
 20
80.8340635794
 30
0.0
 11
134.4338828348
 21
80.8340635794
 31
0.0
  0
SPLINE
  5
3D5
330
1F
100
AcDbEntity
  8
0
  6
Continuous
 62
     7
370
    25
100
AcDbSpline
210
0.0
220
0.0
230
1.0
 70
     8
 71
     3
 72
    11
 73
     7
 74
     0
 42
0.000000001
 43
0.00000001
 40
0.0
 40
0.0
 40
0.0
 40
0.0
 40
0.1562046210782469
 40
0.3132362106789043
 40
0.56001855944185
 40
0.9999999999999999
 40
0.9999999999999999
 40
0.9999999999999999
 40
0.9999999999999999
 10
134.458855690826
 20
81.48017494851912
 30
0.0
 10
134.4585027292508
 20
81.47813111090878
 30
0.0
 10
134.4577949374738
 20
81.47403261533361
 30
0.0
 10
134.4532364296908
 20
81.46809554185307
 30
0.0
 10
134.4458274812517
 20
81.45995945388309
 30
0.0
 10
134.438547085955
 20
81.45462115817784
 30
0.0
 10
134.4338828347813
 20
81.45120113069382
 30
0.0
  0
LINE
  5
3D6
330
1F
100
AcDbEntity
  8
0
  6
Continuous
 62
     7
370
    25
100
AcDbLine
 10
87.7152392291
 20
81.2224228578
 30
0.0
 11
87.5779503606
 21
81.0851555961
 31
0.0
  0
SPLINE
  5
3D7
330
1F
100
AcDbEntity
  8
0
  6
Continuous
 62
     7
370
    25
100
AcDbSpline
210
0.0
220
0.0
230
1.0
 70
     8
 71
     3
 72
    11
 73
     7
 74
     0
 42
0.000000001
 43
0.00000001
 40
0.0
 40
0.0
 40
0.0
 40
0.0
 40
0.2650561949598959
 40
0.5193653351157876
 40
0.7639599284119554
 40
1.0
 40
1.0
 40
1.0
 40
1.0
 10
87.57795078333274
 20
81.08515548132489
 30
0.0
 10
87.55514815774518
 20
81.11342903944896
 30
0.0
 10
87.51046746925344
 20
81.16882976680131
 30
0.0
 10
87.4386243883106
 20
81.24504002878884
 30
0.0
 10
87.36542511462267
 20
81.31433862537236
 30
0.0
 10
87.31358097408963
 20
81.35498190151438
 30
0.0
 10
87.28812027485816
 20
81.3749418472092
 30
0.0
  0
LINE
  5
3D8
330
1F
100
AcDbEntity
  8
0
  6
Continuous
 62
     7
370
    25
100
AcDbLine
 10
87.4689111136
 20
80.6225140291
 30
0.0
 11
87.1889674686
 21
80.6225140291
 31
0.0
  0
LINE
  5
3D9
330
1F
100
AcDbEntity
  8
0
  6
Continuous
 62
     7
370
    25
100
AcDbLine
 10
88.2110023521
 20
81.285972585
 30
0.0
 11
87.8601545118
 21
81.285972585
 31
0.0
  0
LINE
  5
3DA
330
1F
100
AcDbEntity
  8
0
  6
Continuous
 62
     7
370
    25
100
AcDbLine
 10
86.8991369032
 20
80.9478883343
 30
0.0
 11
86.8686282657
 21
80.9021328288
 31
0.0
  0
LINE
  5
3DB
330
1F
100
AcDbEntity
  8
0
  6
Continuous
 62
     7
370
    25
100
AcDbLine
 10
86.6321885608
 20
81.3749422031
 30
0.0
 11
86.556426587
 21
81.0113389688
 31
0.0
  0
LINE
  5
3DC
330
1F
100
AcDbEntity
  8
0
  6
Continuous
 62
     7
370
    25
100
AcDbLine
 10
86.6626971983
 20
81.4206977087
 30
0.0
 11
86.6321885608
 21
81.3749422031
 31
0.0
  0
LINE
  5
3DD
330
1F
100
AcDbEntity
  8
0
  6
Continuous
 62
     7
370
    25
100
AcDbLine
 10
85.9663689159
 20
81.3221250373
 30
0.0
 11
85.8313405536
 21
81.3221250373
 31
0.0
  0
LINE
  5
3DE
330
1F
100
AcDbEntity
  8
0
  6
Continuous
 62
     7
370
    25
100
AcDbLine
 10
135.5016791843
 20
80.6733538109
 30
0.0
 11
135.3392505668
 21
80.6733538109
 31
0.0
  0
LINE
  5
3DF
330
1F
100
AcDbEntity
  8
0
  6
Continuous
 62
     7
370
    25
100
AcDbLine
 10
135.9417939209
 20
80.7578039067
 30
0.0
 11
135.5016791843
 21
80.7578039067
 31
0.0
  0
SPLINE
  5
3E0
330
1F
100
AcDbEntity
  8
0
  6
Continuous
 62
     7
370
    25
100
AcDbSpline
210
0.0
220
0.0
230
1.0
 70
     8
 71
     3
 72
    11
 73
     7
 74
     0
 42
0.000000001
 43
0.00000001
 40
0.0
 40
0.0
 40
0.0
 40
0.0
 40
0.1562263521949825
 40
0.3132390000660206
 40
0.5600246090902326
 40
1.0
 40
1.0
 40
1.0
 40
1.0
 10
135.4503804467808
 20
80.55743469769325
 30
0.0
 10
135.450027432017
 20
80.55539066714601
 30
0.0
 10
135.4493196257471
 20
80.5512923183353
 30
0.0
 10
135.4447630877131
 20
80.54535393905829
 30
0.0
 10
135.4373535445727
 20
80.5372187376655
 30
0.0
 10
135.4300732331218
 20
80.53188070542724
 30
0.0
 10
135.4254090808521
 20
80.52846087986792
 30
0.0
  0
SPLINE
  5
3E1
330
1F
100
AcDbEntity
  8
0
  6
Continuous
 62
     7
370
    25
100
AcDbSpline
210
0.0
220
0.0
230
1.0
 70
     8
 71
     3
 72
    11
 73
     7
 74
     0
 42
0.000000001
 43
0.00000001
 40
0.0
 40
0.0
 40
0.0
 40
0.0
 40
0.156207880438468
 40
0.3132228506658993
 40
0.5600093788043279
 40
1.0
 40
1.0
 40
1.0
 40
1.0
 10
136.7851251386295
 20
80.54980828339424
 30
0.0
 10
136.7847720749067
 20
80.54776450951124
 30
0.0
 10
136.7840641232631
 20
80.54366640204087
 30
0.0
 10
136.7795078311653
 20
80.53772831559498
 30
0.0
 10
136.7720980363352
 20
80.52959298043005
 30
0.0
 10
136.7648178783965
 20
80.52425457084286
 30
0.0
 10
136.7601537727008
 20
80.52083446556891
 30
0.0
  0
LINE
  5
3E2
330
1F
100
AcDbEntity
  8
0
  6
Continuous
 62
     7
370
    25
100
AcDbLine
 10
136.5367078804
 20
80.7578039067
 30
0.0
 11
136.1042225383
 21
80.7578039067
 31
0.0
  0
LINE
  5
3E3
330
1F
100
AcDbEntity
  8
0
  6
Continuous
 62
     7
370
    25
100
AcDbLine
 10
136.6991364978
 20
80.6886058944
 30
0.0
 11
136.5367078804
 21
80.6886058944
 31
0.0
  0
SPLINE
  5
3E4
330
1F
100
AcDbEntity
  8
0
  6
Continuous
 62
     7
370
    25
100
AcDbSpline
210
0.0
220
0.0
230
1.0
 70
     8
 71
     3
 72
    11
 73
     7
 74
     0
 42
0.000000001
 43
0.00000001
 40
0.0
 40
0.0
 40
0.0
 40
0.0
 40
0.1562248524047579
 40
0.3132355720112521
 40
0.5600181502736352
 40
1.0
 40
1.0
 40
1.0
 40
1.0
 10
136.7241108440052
 20
81.33528201753464
 30
0.0
 10
136.7237565751443
 20
81.33323830233513
 30
0.0
 10
136.7230462553225
 20
81.32914059131353
 30
0.0
 10
136.7184908559532
 20
81.32320190750966
 30
0.0
 10
136.7110806051607
 20
81.31506680775148
 30
0.0
 10
136.7038005384844
 20
81.30972833842523
 30
0.0
 10
136.6991364978443
 20
81.3063081997093
 30
0.0
  0
SPLINE
  5
3E5
330
1F
100
AcDbEntity
  8
0
  6
Continuous
 62
     7
370
    25
100
AcDbSpline
210
0.0
220
0.0
230
1.0
 70
     8
 71
     3
 72
    11
 73
     7
 74
     0
 42
0.000000001
 43
0.00000001
 40
0.0
 40
0.0
 40
0.0
 40
0.0
 40
0.156208978886246
 40
0.3132226522566325
 40
0.5600098731158444
 40
1.0
 40
1.0
 40
1.0
 40
1.0
 10
136.1291939042698
 20
81.49542703205908
 30
0.0
 10
136.1288408469139
 20
81.49338326561573
 30
0.0
 10
136.1281329134636
 20
81.48928520447646
 30
0.0
 10
136.1235765601264
 20
81.48334701013073
 30
0.0
 10
136.1161668369886
 20
81.47521177215869
 30
0.0
 10
136.1088866536939
 20
81.46987333337947
 30
0.0
 10
136.1042225383411
 20
81.46645321423378
 30
0.0
  0
SPLINE
  5
3E6
330
1F
100
AcDbEntity
  8
0
  6
Continuous
 62
     7
370
    25
100
AcDbSpline
210
0.0
220
0.0
230
1.0
 70
     8
 71
     3
 72
    11
 73
     7
 74
     0
 42
0.000000001
 43
0.00000001
 40
0.0
 40
0.0
 40
0.0
 40
0.0
 40
0.1562079039449329
 40
0.3132217773417241
 40
0.5600093125936856
 40
1.0
 40
1.0
 40
1.0
 40
1.0
 10
135.5266505502353
 20
81.34290768677559
 30
0.0
 10
135.5262974899609
 20
81.34086391686235
 30
0.0
 10
135.525589547764
 20
81.33676583201176
 30
0.0
 10
135.5210332066594
 20
81.33082767081403
 30
0.0
 10
135.5136234826314
 20
81.32269242348073
 30
0.0
 10
135.5063432995334
 20
81.31735398677046
 30
0.0
 10
135.5016791843067
 20
81.31393386895026
 30
0.0
  0
ELLIPSE
  5
3E7
330
1F
100
AcDbEntity
  8
0
  6
Continuous
 62
     7
370
    25
100
AcDbEllipse
 10
141.7667643427
 20
28.7809065618
 30
0.0
 11
2.700411160456014
 21
-154.7064517697993
 31
0.0
210
0.0
220
0.0
230
1.0
 40
0.0174497492
 41
1.855943454437526
 42
1.866360959500821
  0
LINE
  5
3E8
330
1F
100
AcDbEntity
  8
0
  6
Continuous
 62
     7
370
    25
100
AcDbLine
 10
143.4606188558
 20
86.4465844529
 30
0.0
 11
143.6818921589
 21
73.7697112086
 31
0.0
  0
LINE
  5
3E9
330
1F
100
AcDbEntity
  8
0
  6
Continuous
 62
     7
370
    25
100
AcDbLine
 10
87.1889674686
 20
80.6249570745
 30
0.0
 11
87.1889674686
 21
80.6225140291
 31
0.0
  0
LINE
  5
3EA
330
1F
100
AcDbEntity
  8
0
  6
Continuous
 62
     7
370
    25
100
AcDbLine
 10
135.3392505668
 20
80.6757968562
 30
0.0
 11
135.3392505668
 21
80.6733538109
 31
0.0
  0
LINE
  5
3EB
330
1F
100
AcDbEntity
  8
0
  6
Continuous
 62
     7
370
    25
100
AcDbLine
 10
135.5016791843
 20
80.6757968562
 30
0.0
 11
135.5016791843
 21
80.6733538109
 31
0.0
  0
LINE
  5
3EC
330
1F
100
AcDbEntity
  8
0
  6
Continuous
 62
     7
370
    25
100
AcDbLine
 10
136.5367078804
 20
80.6910489398
 30
0.0
 11
136.5367078804
 21
80.6886058944
 31
0.0
  0
LINE
  5
3ED
330
1F
100
AcDbEntity
  8
0
  6
Continuous
 62
     7
370
    25
100
AcDbLine
 10
136.6991364978
 20
80.6910489398
 30
0.0
 11
136.6991364978
 21
80.6886058944
 31
0.0
  0
LINE
  5
3EE
330
1F
100
AcDbEntity
  8
0
  6
Continuous
 62
     7
370
    25
100
AcDbLine
 10
86.4948996924
 20
80.7673086124
 30
0.0
 11
86.4948996924
 21
80.764865567
 31
0.0
  0
LINE
  5
3EF
330
1F
100
AcDbEntity
  8
0
  6
Continuous
 62
     7
370
    25
100
AcDbLine
 10
86.5254083298
 20
80.8670107918
 30
0.0
 11
86.5254083298
 21
80.8645677465
 31
0.0
  0
LINE
  5
3F0
330
1F
100
AcDbEntity
  8
0
  6
Continuous
 62
     7
370
    25
100
AcDbLine
 10
86.5254083298
 20
80.8645677465
 30
0.0
 11
86.4948996924
 21
80.764865567
 31
0.0
  0
LINE
  5
3F1
330
1F
100
AcDbEntity
  8
0
  6
Continuous
 62
     7
370
    25
100
AcDbLine
 10
86.3423579954
 20
80.813064118
 30
0.0
 11
86.3423579954
 21
80.8106210726
 31
0.0
  0
LINE
  5
3F2
330
1F
100
AcDbEntity
  8
0
  6
Continuous
 62
     7
370
    25
100
AcDbLine
 10
86.4948996924
 20
80.764865567
 30
0.0
 11
86.3423579954
 21
80.8106210726
 31
0.0
  0
LINE
  5
3F3
330
1F
100
AcDbEntity
  8
0
  6
Continuous
 62
     7
370
    25
100
AcDbLine
 10
134.8610022687
 20
80.8365073698
 30
0.0
 11
134.8610022687
 21
80.8340635794
 31
0.0
  0
LINE
  5
3F4
330
1F
100
AcDbEntity
  8
0
  6
Continuous
 62
     7
370
    25
100
AcDbLine
 10
133.922865393
 20
80.8365073698
 30
0.0
 11
133.922865393
 21
80.8340635794
 31
0.0
  0
LINE
  5
3F5
330
1F
100
AcDbEntity
  8
0
  6
Continuous
 62
     7
370
    25
100
AcDbLine
 10
86.6855779313
 20
80.8645677465
 30
0.0
 11
86.5254083298
 21
80.8645677465
 31
0.0
  0
LINE
  5
3F6
330
1F
100
AcDbEntity
  8
0
  6
Continuous
 62
     7
370
    25
100
AcDbLine
 10
86.8991369032
 20
80.9503313797
 30
0.0
 11
86.8991369032
 21
80.9478883343
 31
0.0
  0
LINE
  5
3F7
330
1F
100
AcDbEntity
  8
0
  6
Continuous
 62
     7
370
    25
100
AcDbLine
 10
86.6321885608
 20
81.3773852485
 30
0.0
 11
86.6321885608
 21
81.3749422031
 31
0.0
  0
LINE
  5
3F8
330
1F
100
AcDbEntity
  8
0
  6
Continuous
 62
     7
370
    25
100
AcDbLine
 10
87.5779503606
 20
81.0875986415
 30
0.0
 11
87.5779503606
 21
81.0851555961
 31
0.0
  0
LINE
  5
3F9
330
1F
100
AcDbEntity
  8
0
  6
Continuous
 62
     7
370
    25
100
AcDbLine
 10
87.7152392291
 20
81.2248659032
 30
0.0
 11
87.5779503606
 21
81.0875986415
 31
0.0
  0
LINE
  5
3FA
330
1F
100
AcDbEntity
  8
0
  6
Continuous
 62
     7
370
    25
100
AcDbLine
 10
87.7152392291
 20
81.2248659032
 30
0.0
 11
87.7152392291
 21
81.2224228578
 31
0.0
  0
SPLINE
  5
3FB
330
1F
100
AcDbEntity
  8
0
  6
Continuous
 62
     7
370
    25
100
AcDbSpline
210
0.0
220
0.0
230
1.0
 70
     8
 71
     3
 72
    15
 73
    11
 74
     0
 42
0.000000001
 43
0.00000001
 40
0.0
 40
0.0
 40
0.0
 40
0.0
 40
0.1063405890778697
 40
0.2174580268583999
 40
0.3339091249224205
 40
0.4557615867076004
 40
0.5828359307909725
 40
0.7157832325717092
 40
0.85483268211228
 40
1.0
 40
1.0
 40
1.0
 40
1.0
 10
87.41778129180732
 20
81.50702645305866
 30
0.0
 10
87.43004790268901
 20
81.4990995039428
 30
0.0
 10
87.45513214400933
 20
81.48288952496218
 30
0.0
 10
87.49134311692387
 20
81.4547290902668
 30
0.0
 10
87.52857901896533
 20
81.42447514198021
 30
0.0
 10
87.5653635930915
 20
81.39033763305149
 30
0.0
 10
87.6027594266385
 20
81.35359920151834
 30
0.0
 10
87.64041130228546
 20
81.31378111830732
 30
0.0
 10
87.67782592207669
 20
81.27041171518599
 30
0.0
 10
87.70259023306991
 20
81.24026424622095
 30
0.0
 10
87.71523891892596
 20
81.22486604417129
 30
0.0
  0
SPLINE
  5
3FC
330
1F
100
AcDbEntity
  8
0
  6
Continuous
 62
     7
370
    25
100
AcDbSpline
210
0.0
220
0.0
230
1.0
 70
     8
 71
     3
 72
    11
 73
     7
 74
     0
 42
0.000000001
 43
0.00000001
 40
0.0
 40
0.0
 40
0.0
 40
0.0
 40
0.2650561949598959
 40
0.5193653351157876
 40
0.7639599284119554
 40
1.0
 40
1.0
 40
1.0
 40
1.0
 10
87.57795078333274
 20
81.08759881822611
 30
0.0
 10
87.55514815774518
 20
81.11587237635018
 30
0.0
 10
87.51046746925344
 20
81.17127310370253
 30
0.0
 10
87.4386243883106
 20
81.24748336569006
 30
0.0
 10
87.36542511462267
 20
81.31678196227357
 30
0.0
 10
87.31358097408963
 20
81.3574252384156
 30
0.0
 10
87.28812027485816
 20
81.37738518411042
 30
0.0
  0
LINE
  5
3FD
330
1F
100
AcDbEntity
  8
0
  6
Continuous
 62
     7
370
    25
100
AcDbLine
 10
87.2881197952
 20
81.3773852485
 30
0.0
 11
87.4177807592
 21
81.5070260959
 31
0.0
  0
LINE
  5
3FE
330
1F
100
AcDbEntity
  8
0
  6
Continuous
 62
     7
370
    25
100
AcDbLine
 10
87.2881197952
 20
81.3773852485
 30
0.0
 11
87.2881197952
 21
81.3749422031
 31
0.0
  0
LINE
  5
3FF
330
1F
100
AcDbEntity
  8
0
  6
Continuous
 62
     7
370
    25
100
AcDbLine
 10
85.6078946613
 20
81.1848577755
 30
0.0
 11
85.4194769286
 21
81.1848577755
 31
0.0
  0
LINE
  5
400
330
1F
100
AcDbEntity
  8
0
  6
Continuous
 62
     7
370
    25
100
AcDbLine
 10
133.684165182
 20
81.1848577755
 30
0.0
 11
133.4499844931
 21
81.1848577755
 31
0.0
  0
LINE
  5
401
330
1F
100
AcDbEntity
  8
0
  6
Continuous
 62
     7
370
    25
100
AcDbLine
 10
87.8601545118
 20
81.2884156304
 30
0.0
 11
87.8601545118
 21
81.285972585
 31
0.0
  0
LINE
  5
402
330
1F
100
AcDbEntity
  8
0
  6
Continuous
 62
     7
370
    25
100
AcDbLine
 10
86.4567646407
 20
81.3221250373
 30
0.0
 11
86.1287975334
 21
81.3221250373
 31
0.0
  0
LINE
  5
403
330
1F
100
AcDbEntity
  8
0
  6
Continuous
 62
     7
370
    25
100
AcDbLine
 10
85.8313405536
 20
81.3245680826
 30
0.0
 11
85.8313405536
 21
81.3221250373
 31
0.0
  0
LINE
  5
404
330
1F
100
AcDbEntity
  8
0
  6
Continuous
 62
     7
370
    25
100
AcDbLine
 10
86.6626971983
 20
81.423140754
 30
0.0
 11
86.6626971983
 21
81.4206977087
 31
0.0
  0
ARC
  5
405
330
1F
100
AcDbEntity
  8
0
  6
Continuous
 62
     7
370
    25
100
AcDbCircle
 10
127.1067643427
 20
97.9448399442
 30
0.0
 40
15.00000000000001
100
AcDbArc
 50
229.6045172904
 51
310.3954827096
  0
ARC
  5
406
330
1F
100
AcDbEntity
  8
0
  6
Continuous
 62
     7
370
    25
100
AcDbCircle
 10
95.1067643427
 20
97.9448399442
 30
0.0
 40
15.00000000000001
100
AcDbArc
 50
229.6045172904
 51
310.3954827096
  0
LINE
  5
407
330
1F
100
AcDbEntity
  8
0
  6
Continuous
 62
     7
370
    25
100
AcDbLine
 10
104.8924682312
 20
86.5448397296
 30
0.0
 11
106.3067463808
 21
86.5448397296
 31
0.0
  0
LINE
  5
408
330
1F
100
AcDbEntity
  8
0
  6
Continuous
 62
     7
370
    25
100
AcDbLine
 10
110.5067463707
 20
86.5448397296
 30
0.0
 11
111.7067463346
 21
86.5448397296
 31
0.0
  0
LINE
  5
409
330
1F
100
AcDbEntity
  8
0
  6
Continuous
 62
     7
370
    25
100
AcDbLine
 10
115.9067464642
 20
86.5448397296
 30
0.0
 11
117.3210607492
 21
86.5448397296
 31
0.0
  0
ARC
  5
40A
330
1F
100
AcDbEntity
  8
0
  6
Continuous
 62
     7
370
    25
100
AcDbCircle
 10
85.3210604845
 20
86.4448399442
 30
0.0
 40
0.1000000000000085
100
AcDbArc
 50
49.6045172904
 51
90.0
  0
LINE
  5
40B
330
1F
100
AcDbEntity
  8
0
  6
Continuous
 62
     7
370
    25
100
AcDbLine
 10
83.9067453169
 20
86.5448397296
 30
0.0
 11
85.3210607194
 21
86.5448397296
 31
0.0
  0
ARC
  5
40C
330
1F
100
AcDbEntity
  8
0
  6
Continuous
 62
     7
370
    25
100
AcDbCircle
 10
104.8924682008
 20
86.4448399442
 30
0.0
 40
0.1000000000000085
100
AcDbArc
 50
90.0
 51
130.3954827096
  0
ARC
  5
40D
330
1F
100
AcDbEntity
  8
0
  6
Continuous
 62
     7
370
    25
100
AcDbCircle
 10
117.3210604845
 20
86.4448399442
 30
0.0
 40
0.1000000000000085
100
AcDbArc
 50
49.6045172904
 51
90.0
  0
ARC
  5
40E
330
1F
100
AcDbEntity
  8
0
  6
Continuous
 62
     7
370
    25
100
AcDbCircle
 10
77.0528959909
 20
86.4448399442
 30
0.0
 40
0.1000000000000085
100
AcDbArc
 50
90.0
 51
179.0
  0
ARC
  5
40F
330
1F
100
AcDbEntity
  8
0
  6
Continuous
 62
     7
370
    25
100
AcDbCircle
 10
143.3606326944
 20
86.4448399442
 30
0.0
 40
0.1000000000000184
100
AcDbArc
 50
1.0
 51
90.0
  0
LINE
  5
410
330
1F
100
AcDbEntity
  8
0
  6
Continuous
 62
     7
370
    25
100
AcDbLine
 10
136.8924671434
 20
86.5448397296
 30
0.0
 11
138.306745293
 21
86.5448397296
 31
0.0
  0
ARC
  5
411
330
1F
100
AcDbEntity
  8
0
  6
Continuous
 62
     7
370
    25
100
AcDbCircle
 10
136.8924682008
 20
86.4448399442
 30
0.0
 40
0.1000000000000085
100
AcDbArc
 50
90.0
 51
130.3954827096
  0
ARC
  5
412
330
1F
100
AcDbEntity
  8
0
  6
Continuous
 62
     7
370
    25
100
AcDbCircle
 10
95.1067643427
 20
97.9448399442
 30
0.0
 40
15.00000000000001
100
AcDbArc
 50
310.3954827096
 51
313.8859834266
  0
ARC
  5
413
330
1F
100
AcDbEntity
  8
0
  6
Continuous
 62
     7
370
    25
100
AcDbCircle
 10
127.1067643427
 20
97.9448399442
 30
0.0
 40
15.00000000000001
100
AcDbArc
 50
310.3954827096
 51
313.8859834266
  0
ARC
  5
414
330
1F
100
AcDbEntity
  8
0
  6
Continuous
 62
     7
370
    25
100
AcDbCircle
 10
127.1067643427
 20
97.9448399442
 30
0.0
 40
15.0
100
AcDbArc
 50
226.1140165734
 51
229.6045172904
  0
ARC
  5
415
330
1F
100
AcDbEntity
  8
0
  6
Continuous
 62
     7
370
    25
100
AcDbCircle
 10
95.1067643427
 20
97.9448399442
 30
0.0
 40
15.00000000000001
100
AcDbArc
 50
226.1140165734
 51
229.6045172904
  0
ARC
  5
416
330
1F
100
AcDbEntity
  8
0
  6
Continuous
 62
     7
370
    25
100
AcDbCircle
 10
111.1067643427
 20
89.2448399442
 30
0.0
 40
0.6399999998573401
100
AcDbArc
 50
270.0
 51
339.6312416306
  0
ARC
  5
417
330
1F
100
AcDbEntity
  8
0
  6
Continuous
 62
     7
370
    25
100
AcDbCircle
 10
111.1067643427
 20
89.2448399442
 30
0.0
 40
0.639999999857345
100
AcDbArc
 50
20.3687583694
 51
159.640489831
  0
ARC
  5
418
330
1F
100
AcDbEntity
  8
0
  6
Continuous
 62
     7
370
    25
100
AcDbCircle
 10
111.1067643427
 20
89.2448399442
 30
0.0
 40
0.6399999998573378
100
AcDbArc
 50
200.359510169
 51
270.0
  0
ARC
  5
419
330
1F
100
AcDbEntity
  8
0
  6
Continuous
 62
     7
370
    25
100
AcDbCircle
 10
87.4119609014
 20
89.9448399442
 30
0.0
 40
3.900000000000001
100
AcDbArc
 50
206.0027562528
 51
226.1140165734
  0
ARC
  5
41A
330
1F
100
AcDbEntity
  8
0
  6
Continuous
 62
     7
370
    25
100
AcDbCircle
 10
119.4119609014
 20
89.9448399442
 30
0.0
 40
3.900000000000007
100
AcDbArc
 50
206.0027562528
 51
226.1140165734
  0
ARC
  5
41B
330
1F
100
AcDbEntity
  8
0
  6
Continuous
 62
     7
370
    25
100
AcDbCircle
 10
102.8015677839
 20
89.9448399442
 30
0.0
 40
3.900000000000003
100
AcDbArc
 50
313.8859834266
 51
333.996039157
  0
ARC
  5
41C
330
1F
100
AcDbEntity
  8
0
  6
Continuous
 62
     7
370
    25
100
AcDbCircle
 10
134.8015677839
 20
89.9448399442
 30
0.0
 40
3.899999999999983
100
AcDbArc
 50
313.8859834266
 51
333.996039157
  0
CIRCLE
  5
41D
330
1F
100
AcDbEntity
  8
0
  6
Continuous
 62
     7
370
    25
100
AcDbCircle
 10
111.1067643427
 20
89.2448399442
 30
0.0
 40
0.4399999999999835
  0
LINE
  5
41E
330
1F
100
AcDbEntity
  8
0
  6
Continuous
 62
     7
370
    25
100
AcDbLine
 10
143.5627186321
 20
73.8888871568
 30
0.0
 11
144.1067630075
 21
73.3448399874
 31
0.0
  0
LINE
  5
41F
330
1F
100
AcDbEntity
  8
0
  6
Continuous
 62
     7
370
    25
100
AcDbLine
 10
144.1067630075
 20
73.3448399874
 30
0.0
 11
144.1067630075
 21
71.9448399442
 31
0.0
  0
LINE
  5
420
330
1F
100
AcDbEntity
  8
0
  6
Continuous
 62
     7
370
    25
100
AcDbLine
 10
143.805407884
 20
71.9448399442
 30
0.0
 11
144.1067630075
 21
71.9448399442
 31
0.0
  0
LINE
  5
421
330
1F
100
AcDbEntity
  8
0
  6
Continuous
 62
     7
370
    25
100
AcDbLine
 10
76.3067656778
 20
73.3448399874
 30
0.0
 11
76.3067656778
 21
71.9448399442
 31
0.0
  0
LINE
  5
422
330
1F
100
AcDbEntity
  8
0
  6
Continuous
 62
     7
370
    25
100
AcDbLine
 10
76.8508100532
 20
73.8888871568
 30
0.0
 11
76.3067656778
 21
73.3448399874
 31
0.0
  0
LINE
  5
423
330
1F
100
AcDbEntity
  8
0
  6
Continuous
 62
     7
370
    25
100
AcDbLine
 10
76.6081208013
 20
71.9448399442
 30
0.0
 11
76.3067656778
 21
71.9448399442
 31
0.0
  0
CIRCLE
  5
424
330
1F
100
AcDbEntity
  8
0
  6
Continuous
 62
     7
370
    25
100
AcDbCircle
 10
95.1067643427
 20
89.9448399442
 30
0.0
 40
3.200000000000003
  0
CIRCLE
  5
425
330
1F
100
AcDbEntity
  8
0
  6
Continuous
 62
     7
370
    25
100
AcDbCircle
 10
95.1067643427
 20
89.9448399442
 30
0.0
 40
3.400000000000048
  0
CIRCLE
  5
426
330
1F
100
AcDbEntity
  8
0
  6
Continuous
 62
     7
370
    25
100
AcDbCircle
 10
127.1067643427
 20
89.9448399442
 30
0.0
 40
3.400000000000034
  0
CIRCLE
  5
427
330
1F
100
AcDbEntity
  8
0
  6
Continuous
 62
     7
370
    25
100
AcDbCircle
 10
127.1067643427
 20
89.9448399442
 30
0.0
 40
3.200000000000017
  0
LINE
  5
428
330
1F
100
AcDbEntity
  8
0
  6
Continuous
 62
     7
370
    25
100
AcDbLine
 10
143.7105202697
 20
80.1515442031
 30
0.0
 11
143.5705417417
 21
80.1491011577
 31
0.0
  0
LINE
  5
429
330
1F
100
AcDbEntity
  8
0
  6
Continuous
 62
     7
370
    25
100
AcDbLine
 10
143.6902874731
 20
81.3106898862
 30
0.0
 11
143.550308945
 21
81.3082460957
 31
0.0
  0
LINE
  5
42A
330
1F
100
AcDbEntity
  8
0
  6
Continuous
 62
     7
370
    25
100
AcDbLine
 10
143.7105202697
 20
80.1515442031
 30
0.0
 11
143.6902874731
 21
81.3106898862
 31
0.0
  0
LINE
  5
42B
330
1F
100
AcDbEntity
  8
0
  6
Continuous
 62
     7
370
    25
100
AcDbLine
 10
76.6977304243
 20
79.8490476506
 30
0.0
 11
76.8377089523
 21
79.8466046053
 31
0.0
  0
LINE
  5
42C
330
1F
100
AcDbEntity
  8
0
  6
Continuous
 62
     7
370
    25
100
AcDbLine
 10
76.7008805298
 20
80.0295290249
 30
0.0
 11
76.6977304243
 21
79.8490476506
 31
0.0
  0
LINE
  5
42D
330
1F
100
AcDbEntity
  8
0
  6
Continuous
 62
     7
370
    25
100
AcDbLine
 10
76.7008805298
 20
80.0295290249
 30
0.0
 11
76.8408590578
 21
80.0270859795
 31
0.0
  0
LINE
  5
42E
330
1F
100
AcDbEntity
  8
0
  6
Continuous
 62
     7
370
    25
100
AcDbLine
 10
76.703142526
 20
80.1591698723
 30
0.0
 11
76.843121054
 21
80.156726827
 31
0.0
  0
LINE
  5
42F
330
1F
100
AcDbEntity
  8
0
  6
Continuous
 62
     7
370
    25
100
AcDbLine
 10
76.7060720943
 20
80.3269413012
 30
0.0
 11
76.703142526
 21
80.1591698723
 31
0.0
  0
LINE
  5
430
330
1F
100
AcDbEntity
  8
0
  6
Continuous
 62
     7
370
    25
100
AcDbLine
 10
76.7060720943
 20
80.3269413012
 30
0.0
 11
76.8460506223
 21
80.3244982558
 31
0.0
  0
SPLINE
  5
431
330
1F
100
AcDbEntity
  8
0
  6
Continuous
 62
     7
370
    25
100
AcDbSpline
210
0.0
220
0.0
230
1.0
 70
    24
 71
     3
 72
    23
 73
    19
 74
     0
 42
0.000000001
 43
0.00000001
 40
0.0
 40
0.0
 40
0.0
 40
0.0
 40
0.0735666833915972
 40
0.1445177453506525
 40
0.2132365714237009
 40
0.2795183143298364
 40
0.3438225441282017
 40
0.4063043111681307
 40
0.4673330602149639
 40
0.5271331638973641
 40
0.5860013893732575
 40
0.6442487491502036
 40
0.7023215172384691
 40
0.7604334003523322
 40
0.8189090953434559
 40
0.8780673088932296
 40
0.9383876220348912
 40
1.0
 40
1.0
 40
1.0
 40
1.0
 10
76.72563851546421
 20
81.44795697005239
 30
0.0
 10
76.72508312325616
 20
81.41613857176239
 30
0.0
 10
76.72399208549294
 20
81.3536330601701
 30
0.0
 10
76.72238121195372
 20
81.26134617691794
 30
0.0
 10
76.72082884583659
 20
81.1724111816284
 30
0.0
 10
76.71933519604393
 20
81.08684004231881
 30
0.0
 10
76.71790398296984
 20
81.00484590021793
 30
0.0
 10
76.71652853039012
 20
80.92604627470148
 30
0.0
 10
76.71521476120365
 20
80.85078048841797
 30
0.0
 10
76.71395887432793
 20
80.77883077749372
 30
0.0
 10
76.71276261666041
 20
80.7102972216218
 30
0.0
 10
76.71162371347162
 20
80.64504950163453
 30
0.0
 10
76.71054738614244
 20
80.58338675024329
 30
0.0
 10
76.70952885706318
 20
80.525035258373
 30
0.0
 10
76.70857011198306
 20
80.4701087895195
 30
0.0
 10
76.70767038552212
 20
80.41856349509332
 30
0.0
 10
76.70682844544972
 20
80.37032878065008
 30
0.0
 10
76.7063253349002
 20
80.34150559657222
 30
0.0
 10
76.70607111400952
 20
80.32694129149992
 30
0.0
  0
LINE
  5
432
330
1F
100
AcDbEntity
  8
0
  6
Continuous
 62
     7
370
    25
100
AcDbLine
 10
76.725637319
 20
81.4479571479
 30
0.0
 11
76.865615847
 21
81.4455133575
 31
0.0
  0
LINE
  5
433
330
1F
100
AcDbEntity
  8
0
  6
Continuous
 62
     7
370
    25
100
AcDbLine
 10
143.7149012111
 20
79.9004529315
 30
0.0
 11
143.7123829149
 21
80.0447811084
 31
0.0
  0
LINE
  5
434
330
1F
100
AcDbEntity
  8
0
  6
Continuous
 62
     7
370
    25
100
AcDbLine
 10
143.7123829149
 20
80.0447811084
 30
0.0
 11
143.5724043869
 21
80.042337318
 31
0.0
  0
LINE
  5
435
330
1F
100
AcDbEntity
  8
0
  6
Continuous
 62
     7
370
    25
100
AcDbLine
 10
143.7149012111
 20
79.9004529315
 30
0.0
 11
143.5749226831
 21
79.898009141
 31
0.0
  0
LINE
  5
436
330
1F
100
AcDbEntity
  8
0
  6
Continuous
 62
     7
370
    25
100
AcDbLine
 10
143.9067655824
 20
75.4848398911
 30
0.0
 11
143.9067655824
 21
73.5448400202
 31
0.0
  0
LINE
  5
437
330
1F
100
AcDbEntity
  8
0
  6
Continuous
 62
     7
370
    25
100
AcDbLine
 10
143.6379903577
 20
76.2848400223
 30
0.0
 11
143.9067655824
 21
76.2848400223
 31
0.0
  0
LINE
  5
438
330
1F
100
AcDbEntity
  8
0
  6
Continuous
 62
     7
370
    25
100
AcDbLine
 10
143.9067655824
 20
76.2848400223
 30
0.0
 11
143.9067655824
 21
75.4848398911
 31
0.0
  0
LINE
  5
439
330
1F
100
AcDbEntity
  8
0
  6
Continuous
 62
     7
370
    25
100
AcDbLine
 10
76.5067631029
 20
76.2848400223
 30
0.0
 11
76.7755383276
 21
76.2848400223
 31
0.0
  0
LINE
  5
43A
330
1F
100
AcDbEntity
  8
0
  6
Continuous
 62
     7
370
    25
100
AcDbLine
 10
76.5067631029
 20
75.4848398911
 30
0.0
 11
76.5067631029
 21
76.2848400223
 31
0.0
  0
LINE
  5
43B
330
1F
100
AcDbEntity
  8
0
  6
Continuous
 62
     7
370
    25
100
AcDbLine
 10
76.5067631029
 20
75.4848398911
 30
0.0
 11
76.5067631029
 21
73.5448400202
 31
0.0
  0
LINE
  5
43C
330
1F
100
AcDbEntity
  8
0
  6
Continuous
 62
     7
370
    25
100
AcDbLine
 10
76.7026090644
 20
80.1286664503
 30
0.0
 11
76.8425875925
 21
80.1262234049
 31
0.0
  0
SPLINE
  5
43D
330
1F
100
AcDbEntity
  8
0
  6
Continuous
 62
     7
370
    25
100
AcDbSpline
210
0.0
220
0.0
230
1.0
 70
    24
 71
     3
 72
    15
 73
    11
 74
     0
 42
0.000000001
 43
0.00000001
 40
0.0
 40
0.0
 40
0.0
 40
0.0
 40
0.0927205184294737
 40
0.1900426654195179
 40
0.2960396415772344
 40
0.4118287688157883
 40
0.5390239035058114
 40
0.6789552040343103
 40
0.8323791358377305
 40
1.0
 40
1.0
 40
1.0
 40
1.0
 10
76.702876436221
 20
80.14391832357299
 30
0.0
 10
76.70271457697042
 20
80.13464541331817
 30
0.0
 10
76.70238282555313
 20
80.11563938735031
 30
0.0
 10
76.70197874230453
 20
80.0924894735416
 30
0.0
 10
76.701633816219
 20
80.07272867133656
 30
0.0
 10
76.7013551885743
 20
80.05676610426204
 30
0.0
 10
76.70114248379784
 20
80.04458025577969
 30
0.0
 10
76.70098676379733
 20
80.0356590629265
 30
0.0
 10
76.70089379983963
 20
80.03033316135563
 30
0.0
 10
76.70088457762067
 20
80.02980482078614
 30
0.0
 10
76.70087976260318
 20
80.02952896861866
 30
0.0
  0
LINE
  5
43E
330
1F
100
AcDbEntity
  8
0
  6
Continuous
 62
     7
370
    25
100
AcDbLine
 10
143.7123829149
 20
80.0447811084
 30
0.0
 11
143.7105202697
 21
80.1515442031
 31
0.0
  0
LINE
  5
43F
330
1F
100
AcDbEntity
  8
0
  6
Continuous
 62
     7
370
    25
100
AcDbLine
 10
143.6873579048
 20
81.4784605699
 30
0.0
 11
143.5473793768
 21
81.4760175245
 31
0.0
  0
LINE
  5
440
330
1F
100
AcDbEntity
  8
0
  6
Continuous
 62
     7
370
    25
100
AcDbLine
 10
143.6902874731
 20
81.3106898862
 30
0.0
 11
143.6873579048
 21
81.4784605699
 31
0.0
  0
LINE
  5
441
330
1F
100
AcDbEntity
  8
0
  6
Continuous
 62
     7
370
    25
100
AcDbLine
 10
76.726304891
 20
81.4860869842
 30
0.0
 11
76.866283419
 21
81.4836431938
 31
0.0
  0
LINE
  5
442
330
1F
100
AcDbEntity
  8
0
  6
Continuous
 62
     7
370
    25
100
AcDbLine
 10
76.6971522592
 20
79.8160020905
 30
0.0
 11
76.8371307872
 21
79.8135590451
 31
0.0
  0
LINE
  5
443
330
1F
100
AcDbEntity
  8
0
  6
Continuous
 62
     7
370
    25
100
AcDbLine
 10
76.6975337289
 20
79.8378293114
 30
0.0
 11
76.6971522592
 21
79.8160020905
 31
0.0
  0
LINE
  5
444
330
1F
100
AcDbEntity
  8
0
  6
Continuous
 62
     7
370
    25
100
AcDbLine
 10
143.7161111854
 20
79.8312541741
 30
0.0
 11
143.7149012111
 21
79.9004529315
 31
0.0
  0
LINE
  5
445
330
1F
100
AcDbEntity
  8
0
  6
Continuous
 62
     7
370
    25
100
AcDbLine
 10
143.7161111854
 20
79.8312541741
 30
0.0
 11
143.5761296772
 21
79.8288103836
 31
0.0
  0
LINE
  5
446
330
1F
100
AcDbEntity
  8
0
  6
Continuous
 62
     7
370
    25
100
AcDbLine
 10
76.6964876674
 20
79.7778722542
 30
0.0
 11
76.8364661955
 21
79.7754292088
 31
0.0
  0
LINE
  5
447
330
1F
100
AcDbEntity
  8
0
  6
Continuous
 62
     7
370
    25
100
AcDbLine
 10
143.6870926641
 20
81.4937126535
 30
0.0
 11
143.5471141361
 21
81.4912696081
 31
0.0
  0
LINE
  5
448
330
1F
100
AcDbEntity
  8
0
  6
Continuous
 62
     7
370
    25
100
AcDbLine
 10
143.6873579048
 20
81.4784605699
 30
0.0
 11
143.6870926641
 21
81.4937126535
 31
0.0
  0
LINE
  5
449
330
1F
100
AcDbEntity
  8
0
  6
Continuous
 62
     7
370
    25
100
AcDbLine
 10
76.7940396093
 20
77.3448400843
 30
0.0
 11
76.5067631029
 21
77.3448400843
 31
0.0
  0
LINE
  5
44A
330
1F
100
AcDbEntity
  8
0
  6
Continuous
 62
     7
370
    25
100
AcDbLine
 10
76.5067631029
 20
76.3448399203
 30
0.0
 11
76.5067631029
 21
77.3448400843
 31
0.0
  0
LINE
  5
44B
330
1F
100
AcDbEntity
  8
0
  6
Continuous
 62
     7
370
    25
100
AcDbLine
 10
76.5067631029
 20
76.2848400223
 30
0.0
 11
76.5067631029
 21
76.3448399203
 31
0.0
  0
LINE
  5
44C
330
1F
100
AcDbEntity
  8
0
  6
Continuous
 62
     7
370
    25
100
AcDbLine
 10
143.619489076
 20
77.3448400843
 30
0.0
 11
143.9067655824
 21
77.3448400843
 31
0.0
  0
LINE
  5
44D
330
1F
100
AcDbEntity
  8
0
  6
Continuous
 62
     7
370
    25
100
AcDbLine
 10
143.9067655824
 20
77.3448400843
 30
0.0
 11
143.9067655824
 21
76.3448399203
 31
0.0
  0
LINE
  5
44E
330
1F
100
AcDbEntity
  8
0
  6
Continuous
 62
     7
370
    25
100
AcDbLine
 10
143.9067655824
 20
76.3448399203
 30
0.0
 11
143.9067655824
 21
76.2848400223
 31
0.0
  0
ARC
  5
44F
330
1F
100
AcDbEntity
  8
0
  6
Continuous
 62
     7
370
    25
100
AcDbCircle
 10
86.7067463686
 20
90.1448399442
 30
0.0
 40
3.79999999999999
100
AcDbArc
 50
136.3971810273
 51
180.0
  0
ARC
  5
450
330
1F
100
AcDbEntity
  8
0
  6
Continuous
 62
     7
370
    25
100
AcDbCircle
 10
95.1067463686
 20
82.1448399442
 30
0.0
 40
15.4
100
AcDbArc
 50
43.6028189727
 51
136.3971810273
  0
ARC
  5
451
330
1F
100
AcDbEntity
  8
0
  6
Continuous
 62
     7
370
    25
100
AcDbCircle
 10
103.5067463686
 20
90.1448399442
 30
0.0
 40
3.8
100
AcDbArc
 50
0.0
 51
43.6028189727
  0
LINE
  5
452
330
1F
100
AcDbEntity
  8
0
  6
Continuous
 62
     7
370
    25
100
AcDbLine
 10
106.3067463808
 20
90.1448395746
 30
0.0
 11
106.3067463808
 21
87.5448402661
 31
0.0
  0
ARC
  5
453
330
1F
100
AcDbEntity
  8
0
  6
Continuous
 62
     7
370
    25
100
AcDbCircle
 10
103.5067463686
 20
90.1448399442
 30
0.0
 40
2.799999999999997
100
AcDbArc
 50
0.0
 51
43.6028189727
  0
ARC
  5
454
330
1F
100
AcDbEntity
  8
0
  6
Continuous
 62
     7
370
    25
100
AcDbCircle
 10
95.1067463686
 20
82.1448399442
 30
0.0
 40
14.40000000000001
100
AcDbArc
 50
43.6028189727
 51
136.3971810273
  0
ARC
  5
455
330
1F
100
AcDbEntity
  8
0
  6
Continuous
 62
     7
370
    25
100
AcDbCircle
 10
86.7067463686
 20
90.1448399442
 30
0.0
 40
2.799999999999997
100
AcDbArc
 50
136.3971810273
 51
180.0
  0
LINE
  5
456
330
1F
100
AcDbEntity
  8
0
  6
Continuous
 62
     7
370
    25
100
AcDbLine
 10
83.9067453169
 20
87.5448402661
 30
0.0
 11
83.9067453169
 21
90.1448395746
 31
0.0
  0
LINE
  5
457
330
1F
100
AcDbEntity
  8
0
  6
Continuous
 62
     7
370
    25
100
AcDbLine
 10
107.3067463584
 20
90.1448395746
 30
0.0
 11
107.3067463584
 21
87.5448402661
 31
0.0
  0
LINE
  5
458
330
1F
100
AcDbEntity
  8
0
  6
Continuous
 62
     7
370
    25
100
AcDbLine
 10
82.9067462705
 20
87.5448402661
 30
0.0
 11
82.9067462705
 21
90.1448395746
 31
0.0
  0
LINE
  5
459
330
1F
100
AcDbEntity
  8
0
  6
Continuous
 62
     7
370
    25
100
AcDbLine
 10
112.7067463122
 20
89.8448404568
 30
0.0
 11
112.7067463122
 21
87.5448402661
 31
0.0
  0
ARC
  5
45A
330
1F
100
AcDbEntity
  8
0
  6
Continuous
 62
     7
370
    25
100
AcDbCircle
 10
111.1067463686
 20
89.8448399442
 30
0.0
 40
0.6000000000000085
100
AcDbArc
 50
0.0
 51
180.0
  0
LINE
  5
45B
330
1F
100
AcDbEntity
  8
0
  6
Continuous
 62
     7
370
    25
100
AcDbLine
 10
110.5067463707
 20
87.5448402661
 30
0.0
 11
110.5067463707
 21
89.8448404568
 31
0.0
  0
LINE
  5
45C
330
1F
100
AcDbEntity
  8
0
  6
Continuous
 62
     7
370
    25
100
AcDbLine
 10
109.5067463465
 20
87.5448402661
 30
0.0
 11
109.5067463465
 21
89.8448404568
 31
0.0
  0
ARC
  5
45D
330
1F
100
AcDbEntity
  8
0
  6
Continuous
 62
     7
370
    25
100
AcDbCircle
 10
111.1067463686
 20
89.8448399442
 30
0.0
 40
1.599999999999994
100
AcDbArc
 50
90.0
 51
180.0
  0
ARC
  5
45E
330
1F
100
AcDbEntity
  8
0
  6
Continuous
 62
     7
370
    25
100
AcDbCircle
 10
111.1067463686
 20
89.8448399442
 30
0.0
 40
1.600000000000009
100
AcDbArc
 50
0.0
 51
90.0
  0
LINE
  5
45F
330
1F
100
AcDbEntity
  8
0
  6
Continuous
 62
     7
370
    25
100
AcDbLine
 10
111.7067463346
 20
89.8448404568
 30
0.0
 11
111.7067463346
 21
87.5448402661
 31
0.0
  0
LINE
  5
460
330
1F
100
AcDbEntity
  8
0
  6
Continuous
 62
     7
370
    25
100
AcDbLine
 10
138.306745293
 20
87.5448402661
 30
0.0
 11
138.306745293
 21
90.1448395746
 31
0.0
  0
ARC
  5
461
330
1F
100
AcDbEntity
  8
0
  6
Continuous
 62
     7
370
    25
100
AcDbCircle
 10
135.5067463686
 20
90.1448399442
 30
0.0
 40
2.799999999999983
100
AcDbArc
 50
0.0
 51
43.6028189727
  0
ARC
  5
462
330
1F
100
AcDbEntity
  8
0
  6
Continuous
 62
     7
370
    25
100
AcDbCircle
 10
127.1067463686
 20
82.1448399442
 30
0.0
 40
14.40000000000002
100
AcDbArc
 50
43.6028189727
 51
136.3971810273
  0
ARC
  5
463
330
1F
100
AcDbEntity
  8
0
  6
Continuous
 62
     7
370
    25
100
AcDbCircle
 10
118.7067463686
 20
90.1448399442
 30
0.0
 40
2.800000000000011
100
AcDbArc
 50
136.3971810273
 51
180.0
  0
LINE
  5
464
330
1F
100
AcDbEntity
  8
0
  6
Continuous
 62
     7
370
    25
100
AcDbLine
 10
115.9067464642
 20
90.1448395746
 30
0.0
 11
115.9067464642
 21
87.5448402661
 31
0.0
  0
ARC
  5
465
330
1F
100
AcDbEntity
  8
0
  6
Continuous
 62
     7
370
    25
100
AcDbCircle
 10
118.7067463686
 20
90.1448399442
 30
0.0
 40
3.799999999999997
100
AcDbArc
 50
136.3971810273
 51
180.0
  0
ARC
  5
466
330
1F
100
AcDbEntity
  8
0
  6
Continuous
 62
     7
370
    25
100
AcDbCircle
 10
127.1067463686
 20
82.1448399442
 30
0.0
 40
15.40000000000001
100
AcDbArc
 50
43.6028189727
 51
136.3971810273
  0
ARC
  5
467
330
1F
100
AcDbEntity
  8
0
  6
Continuous
 62
     7
370
    25
100
AcDbCircle
 10
135.5067463686
 20
90.1448399442
 30
0.0
 40
3.8
100
AcDbArc
 50
0.0
 51
43.6028189727
  0
LINE
  5
468
330
1F
100
AcDbEntity
  8
0
  6
Continuous
 62
     7
370
    25
100
AcDbLine
 10
139.3067473196
 20
90.1448395746
 30
0.0
 11
139.3067473196
 21
87.5448402661
 31
0.0
  0
LINE
  5
469
330
1F
100
AcDbEntity
  8
0
  6
Continuous
 62
     7
370
    25
100
AcDbLine
 10
114.9067463003
 20
87.5448402661
 30
0.0
 11
114.9067463003
 21
90.1448395746
 31
0.0
  0
LINE
  5
46A
330
1F
100
AcDbEntity
  8
0
  6
Continuous
 62
     7
370
    25
100
AcDbLine
 10
110.5067463707
 20
86.5448397296
 30
0.0
 11
106.3067463808
 21
86.5448397296
 31
0.0
  0
LINE
  5
46B
330
1F
100
AcDbEntity
  8
0
  6
Continuous
 62
     7
370
    25
100
AcDbLine
 10
106.3067463808
 20
87.5448402661
 30
0.0
 11
106.3067463808
 21
86.5448397296
 31
0.0
  0
LINE
  5
46C
330
1F
100
AcDbEntity
  8
0
  6
Continuous
 62
     7
370
    25
100
AcDbLine
 10
109.5067463465
 20
87.5448402661
 30
0.0
 11
107.3067463584
 21
87.5448402661
 31
0.0
  0
LINE
  5
46D
330
1F
100
AcDbEntity
  8
0
  6
Continuous
 62
     7
370
    25
100
AcDbLine
 10
110.5067463707
 20
87.5448402661
 30
0.0
 11
110.5067463707
 21
86.5448397296
 31
0.0
  0
LINE
  5
46E
330
1F
100
AcDbEntity
  8
0
  6
Continuous
 62
     7
370
    25
100
AcDbLine
 10
115.9067464642
 20
86.5448397296
 30
0.0
 11
111.7067463346
 21
86.5448397296
 31
0.0
  0
LINE
  5
46F
330
1F
100
AcDbEntity
  8
0
  6
Continuous
 62
     7
370
    25
100
AcDbLine
 10
114.9067463003
 20
87.5448402661
 30
0.0
 11
112.7067463122
 21
87.5448402661
 31
0.0
  0
LINE
  5
470
330
1F
100
AcDbEntity
  8
0
  6
Continuous
 62
     7
370
    25
100
AcDbLine
 10
115.9067464642
 20
87.5448402661
 30
0.0
 11
115.9067464642
 21
86.5448397296
 31
0.0
  0
LINE
  5
471
330
1F
100
AcDbEntity
  8
0
  6
Continuous
 62
     7
370
    25
100
AcDbLine
 10
111.7067463346
 20
86.5448397296
 30
0.0
 11
111.7067463346
 21
87.5448402661
 31
0.0
  0
LINE
  5
472
330
1F
100
AcDbEntity
  8
0
  6
Continuous
 62
     7
370
    25
100
AcDbLine
 10
83.9067453169
 20
86.5448397296
 30
0.0
 11
83.9067453169
 21
87.5448402661
 31
0.0
  0
LINE
  5
473
330
1F
100
AcDbEntity
  8
0
  6
Continuous
 62
     7
370
    25
100
AcDbLine
 10
83.9067453169
 20
86.5448397296
 30
0.0
 11
79.6615892671
 21
86.5448397296
 31
0.0
  0
LINE
  5
474
330
1F
100
AcDbEntity
  8
0
  6
Continuous
 62
     7
370
    25
100
AcDbLine
 10
82.9067462705
 20
87.5448402661
 30
0.0
 11
79.6615892671
 21
87.5448402661
 31
0.0
  0
LINE
  5
475
330
1F
100
AcDbEntity
  8
0
  6
Continuous
 62
     7
370
    25
100
AcDbLine
 10
140.7519036554
 20
86.5448397296
 30
0.0
 11
138.306745293
 21
86.5448397296
 31
0.0
  0
LINE
  5
476
330
1F
100
AcDbEntity
  8
0
  6
Continuous
 62
     7
370
    25
100
AcDbLine
 10
138.306745293
 20
86.5448397296
 30
0.0
 11
138.306745293
 21
87.5448402661
 31
0.0
  0
LINE
  5
477
330
1F
100
AcDbEntity
  8
0
  6
Continuous
 62
     7
370
    25
100
AcDbLine
 10
140.7519036554
 20
87.5448402661
 30
0.0
 11
139.3067473196
 21
87.5448402661
 31
0.0
  0
LINE
  5
478
330
1F
100
AcDbEntity
  8
0
  6
Continuous
 62
     7
370
    25
100
AcDbLine
 10
76.8615537904
 20
87.5448402661
 30
0.0
 11
76.8615537904
 21
90.1448395746
 31
0.0
  0
LINE
  5
479
330
1F
100
AcDbEntity
  8
0
  6
Continuous
 62
     7
370
    25
100
AcDbLine
 10
76.7615908407
 20
87.5448402661
 30
0.0
 11
76.7615908407
 21
86.5448397296
 31
0.0
  0
LWPOLYLINE
  5
47A
330
1F
100
AcDbEntity
  8
0
  6
Continuous
 62
     7
370
    25
100
AcDbPolyline
 90
        9
 70
   128
 43
0.0
 10
76.8254125141
 20
91.2012171643
 10
76.8104964517
 20
90.3466713327
 10
76.7975473426
 20
89.6048691767
 10
76.7865771078
 20
88.9763218063
 10
76.7775887273
 20
88.4614628452
 10
76.7705941223
 20
88.0606484311
 10
76.7655932926
 20
87.7741542357
 10
76.7625921987
 20
87.6021784442
 10
76.7615908407
 20
87.5448402661
  0
SPLINE
  5
47B
330
1F
100
AcDbEntity
  8
0
  6
Continuous
 62
     7
370
    25
100
AcDbSpline
210
0.0
220
0.0
230
1.0
 70
     8
 71
     3
 72
     9
 73
     5
 74
     0
 42
0.000000001
 43
0.00000001
 40
0.0
 40
0.0
 40
0.0
 40
0.0
 40
0.4947671148487
 40
1.0
 40
1.0
 40
1.0
 40
1.0
 10
76.86155379043919
 20
90.14483957464066
 30
0.0
 10
76.85966287004265
 20
90.3218051084664
 30
0.0
 10
76.85584103075753
 20
90.67947951429238
 30
0.0
 10
76.83562587536326
 20
91.02609541353141
 30
0.0
 10
76.82541251407963
 20
91.20121716434326
 30
0.0
  0
LINE
  5
47C
330
1F
100
AcDbEntity
  8
0
  6
Continuous
 62
     7
370
    25
100
AcDbLine
 10
79.6615892671
 20
86.5448397296
 30
0.0
 11
76.7615908407
 21
86.5448397296
 31
0.0
  0
LINE
  5
47D
330
1F
100
AcDbEntity
  8
0
  6
Continuous
 62
     7
370
    25
100
AcDbLine
 10
79.6615892671
 20
87.5448402661
 30
0.0
 11
76.8615537904
 21
87.5448402661
 31
0.0
  0
LINE
  5
47E
330
1F
100
AcDbEntity
  8
0
  6
Continuous
 62
     7
370
    25
100
AcDbLine
 10
143.5519391321
 20
90.1448395746
 30
0.0
 11
143.5519391321
 21
87.5448402661
 31
0.0
  0
SPLINE
  5
47F
330
1F
100
AcDbEntity
  8
0
  6
Continuous
 62
     7
370
    25
100
AcDbSpline
210
0.0
220
0.0
230
1.0
 70
     8
 71
     3
 72
     9
 73
     5
 74
     0
 42
0.000000001
 43
0.00000001
 40
0.0
 40
0.0
 40
0.0
 40
0.0
 40
0.4948381101399356
 40
1.0
 40
1.0
 40
1.0
 40
1.0
 10
143.588080408443
 20
91.20121716434326
 30
0.0
 10
143.5780608382825
 20
91.02974540935094
 30
0.0
 10
143.5578126602314
 20
90.68322449376538
 30
0.0
 10
143.5539104034792
 20
90.32553212675045
 30
0.0
 10
143.5519391320835
 20
90.14483957464064
 30
0.0
  0
LWPOLYLINE
  5
480
330
1F
100
AcDbEntity
  8
0
  6
Continuous
 62
     7
370
    25
100
AcDbPolyline
 90
        9
 70
   128
 43
0.0
 10
143.6519020818
 20
87.5448402661
 10
143.6509007238
 20
87.6021784442
 10
143.6478996299
 20
87.7741542357
 10
143.6428988002
 20
88.0606484311
 10
143.6359041952
 20
88.4614628452
 10
143.6269158147
 20
88.9763218063
 10
143.6159455799
 20
89.6048691767
 10
143.6029964708
 20
90.3466713327
 10
143.5880804084
 20
91.2012171643
  0
LINE
  5
481
330
1F
100
AcDbEntity
  8
0
  6
Continuous
 62
     7
370
    25
100
AcDbLine
 10
143.6519020818
 20
87.5448402661
 30
0.0
 11
143.6519020818
 21
86.5448397296
 31
0.0
  0
LINE
  5
482
330
1F
100
AcDbEntity
  8
0
  6
Continuous
 62
     7
370
    25
100
AcDbLine
 10
143.6519020818
 20
86.5448397296
 30
0.0
 11
140.7519036554
 21
86.5448397296
 31
0.0
  0
LINE
  5
483
330
1F
100
AcDbEntity
  8
0
  6
Continuous
 62
     7
370
    25
100
AcDbLine
 10
143.5519391321
 20
87.5448402661
 30
0.0
 11
140.7519036554
 21
87.5448402661
 31
0.0
  0
LINE
  5
484
330
1F
100
AcDbEntity
  8
0
  6
Continuous
 62
     7
370
    25
100
AcDbLine
 10
142.5103837274
 20
140.48445939
 30
0.0
 11
143.3470541261
 21
92.5515320795
 31
0.0
  0
SPLINE
  5
485
330
1F
100
AcDbEntity
  8
0
  6
Continuous
 62
     7
370
    25
100
AcDbSpline
210
0.0
220
0.0
230
1.0
 70
     8
 71
     3
 72
    11
 73
     7
 74
     0
 42
0.000000001
 43
0.00000001
 40
0.0
 40
0.0
 40
0.0
 40
0.0
 40
0.2603313587373986
 40
0.5299649819655594
 40
0.7617526740168178
 40
1.0
 40
1.0
 40
1.0
 40
1.0
 10
143.3470541261325
 20
92.55153207952347
 30
0.0
 10
143.3439163537673
 20
92.36891184586564
 30
0.0
 10
143.3375286888966
 20
91.997145919139
 30
0.0
 10
143.2901366499916
 20
91.385214390624
 30
0.0
 10
143.2579749255353
 20
90.76088460143954
 30
0.0
 10
143.2609178737105
 20
90.35206072247773
 30
0.0
 10
143.262409570087
 20
90.14483957464064
 30
0.0
  0
ELLIPSE
  5
486
330
1F
100
AcDbEntity
  8
0
  6
Continuous
 62
     7
370
    25
100
AcDbEllipse
 10
141.5067463686
 20
43.2762965858
 30
0.0
 11
2.700411160455985
 21
-154.7064517697993
 31
0.0
210
0.0
220
0.0
230
1.0
 40
0.0174497492
 41
1.860693350999435
 42
1.878279847892204
  0
SPLINE
  5
487
330
1F
100
AcDbEntity
  8
0
  6
Continuous
 62
     7
370
    25
100
AcDbSpline
210
0.0
220
0.0
230
1.0
 70
     8
 71
     3
 72
    12
 73
     8
 74
     0
 42
0.000000001
 43
0.00000001
 40
0.0
 40
0.0
 40
0.0
 40
0.0
 40
0.2047564732690466
 40
0.414039924134409
 40
0.64774088107744
 40
0.8877002106347123
 40
1.0
 40
1.0
 40
1.0
 40
1.0
 10
77.15108335243565
 20
90.14483957464064
 30
0.0
 10
77.15282666162283
 20
90.32286062970826
 30
0.0
 10
77.1563518229624
 20
90.68283862189446
 30
0.0
 10
77.13169054693431
 20
91.23455741228368
 30
0.0
 10
77.09430974064979
 20
91.78942696490533
 30
0.0
 10
77.06597993555775
 20
92.23319189425321
 30
0.0
 10
77.06632787402074
 20
92.47457836038349
 30
0.0
 10
77.06643879639012
 20
92.55153207952347
 30
0.0
  0
LINE
  5
488
330
1F
100
AcDbEntity
  8
0
  6
Continuous
 62
     7
370
    25
100
AcDbLine
 10
77.0664387964
 20
92.5515320795
 30
0.0
 11
77.9031091951
 21
140.48445939
 31
0.0
  0
ELLIPSE
  5
489
330
1F
100
AcDbEntity
  8
0
  6
Continuous
 62
     7
370
    25
100
AcDbEllipse
 10
78.9067463686
 20
43.2762965858
 30
0.0
 11
-2.700411160456028
 21
-154.7064517697993
 31
0.0
210
0.0
220
0.0
230
1.0
 40
0.0174497492
 41
4.404905459287459
 42
4.422491956180221
  0
ARC
  5
48A
330
1F
100
AcDbEntity
  8
0
  6
Continuous
 62
     7
370
    25
100
AcDbCircle
 10
134.5116013032
 20
140.3448399442
 30
0.0
 40
8.0
100
AcDbArc
 50
1.0
 51
90.0
  0
LINE
  5
48B
330
1F
100
AcDbEntity
  8
0
  6
Continuous
 62
     7
370
    25
100
AcDbLine
 10
85.9018915914
 20
148.3448398011
 30
0.0
 11
134.5116013311
 21
148.3448398011
 31
0.0
  0
ARC
  5
48C
330
1F
100
AcDbEntity
  8
0
  6
Continuous
 62
     7
370
    25
100
AcDbCircle
 10
85.9018914341
 20
140.3448399442
 30
0.0
 40
8.0
100
AcDbArc
 50
90.0
 51
179.0
  0
LWPOLYLINE
  5
48D
330
1F
100
AcDbEntity
  8
0
  6
Continuous
 62
     7
370
    25
100
AcDbPolyline
 90
        4
 70
   128
 43
0.0
 10
143.5880804084
 20
91.2012171643
 10
143.5781770967
 20
91.7684775489
 10
143.5689979814
 20
92.2943797606
 10
143.5607755207
 20
92.7655291455
  0
LWPOLYLINE
  5
48E
330
1F
100
AcDbEntity
  8
0
  6
Continuous
 62
     7
370
    25
100
AcDbPolyline
 90
        4
 70
   128
 43
0.0
 10
76.8527174019
 20
92.7655291455
 10
76.8444949411
 20
92.2943797606
 10
76.8353128456
 20
91.7684775489
 10
76.8254125141
 20
91.2012171643
  0
LWPOLYLINE
  5
48F
330
1F
100
AcDbEntity
  8
0
  6
Continuous
 62
     7
370
    25
100
AcDbPolyline
 90
       13
 70
   128
 43
0.0
 10
76.9361400627
 20
97.5448411601
 10
76.9355291151
 20
97.5097876685
 10
76.9336962722
 20
97.4047940868
 10
76.9306504749
 20
97.230337252
 10
76.9264066242
 20
96.9872069257
 10
76.9209855817
 20
96.6765147346
 10
76.914405229
 20
96.2996733087
 10
76.9067043089
 20
95.8583977717
 10
76.8979126238
 20
95.3546953099
 10
76.8880689167
 20
94.7908621925
 10
76.8772238516
 20
94.169462909
 10
76.8654221319
 20
93.4933257001
 10
76.8527174019
 20
92.7655291455
  0
LWPOLYLINE
  5
490
330
1F
100
AcDbEntity
  8
0
  6
Continuous
 62
     7
370
    25
100
AcDbPolyline
 90
       13
 70
   128
 43
0.0
 10
143.5607755207
 20
92.7655291455
 10
143.5480707906
 20
93.4933257001
 10
143.536269071
 20
94.169462909
 10
143.5254240059
 20
94.7908621925
 10
143.5155802988
 20
95.3546953099
 10
143.5067886137
 20
95.8583977717
 10
143.4990876936
 20
96.2996733087
 10
143.4925073408
 20
96.6765147346
 10
143.4870862983
 20
96.9872069257
 10
143.4828424476
 20
97.230337252
 10
143.4797966503
 20
97.4047940868
 10
143.4779638075
 20
97.5097876685
 10
143.4773528598
 20
97.5448411601
  0
INSERT
  5
4A3
330
1F
100
AcDbEntity
  8
SLD-0
 62
    70
100
AcDbBlockReference
  2
SW_CENTERMARKSYMBOL_3
 10
95.1067643427
 20
89.9448399442
 30
0.0
  0
ENDSEC
  0
SECTION
  2
OBJECTS
  0
DICTIONARY
  5
C
330
0
100
AcDbDictionary
281
     1
  3
ACAD_GROUP
350
D
  3
ACAD_LAYOUT
350
1A
  3
ACAD_MLINESTYLE
350
17
  3
ACAD_PLOTSETTINGS
350
19
  3
ACAD_PLOTSTYLENAME
350
E
  3
ACAD_SCALELIST
350
47
  0
DICTIONARY
  5
D
102
{ACAD_REACTORS
330
C
102
}
330
C
100
AcDbDictionary
281
     1
  0
DICTIONARY
  5
1A
102
{ACAD_REACTORS
330
C
102
}
330
C
100
AcDbDictionary
281
     1
  3
Layout1
350
1E
  3
Layout2
350
26
  3
Model
350
22
  0
DICTIONARY
  5
17
102
{ACAD_REACTORS
330
C
102
}
330
C
100
AcDbDictionary
281
     1
  3
Standard
350
18
  0
DICTIONARY
  5
19
102
{ACAD_REACTORS
330
C
102
}
330
C
100
AcDbDictionary
281
     1
  0
ACDBDICTIONARYWDFLT
  5
E
102
{ACAD_REACTORS
330
C
102
}
330
C
100
AcDbDictionary
281
     1
  3
Normal
350
F
100
AcDbDictionaryWithDefault
340
F
  0
DICTIONARY
  5
47
102
{ACAD_REACTORS
330
C
102
}
330
C
100
AcDbDictionary
281
     1
  3
A0
350
48
  3
A1
350
49
  3
A2
350
4A
  3
A3
350
4B
  3
A4
350
4C
  3
A5
350
4D
  3
A6
350
4E
  3
A7
350
4F
  3
A8
350
50
  3
A9
350
51
  3
B0
350
52
  3
B1
350
53
  3
B2
350
54
  3
B3
350
55
  3
B4
350
56
  3
B5
350
57
  3
B6
350
58
  3
B7
350
59
  3
B8
350
5A
  3
B9
350
5B
  3
C0
350
5C
  3
C1
350
5D
  3
C2
350
5E
  3
C3
350
5F
  3
C4
350
60
  3
C5
350
61
  3
C6
350
62
  3
C7
350
63
  3
C8
350
64
  3
C9
350
65
  3
D0
350
66
  3
D1
350
67
  3
D2
350
68
  0
LAYOUT
  5
1E
102
{ACAD_REACTORS
330
1A
102
}
330
1A
100
AcDbPlotSettings
  1

  2
none_device
  4

  6

 40
0.0
 41
0.0
 42
0.0
 43
0.0
 44
0.0
 45
0.0
 46
0.0
 47
0.0
 48
0.0
 49
0.0
140
0.0
141
0.0
142
1.0
143
1.0
 70
   688
 72
     1
 73
     0
 74
     5
  7

 75
    16
147
1.0
148
0.0
149
0.0
100
AcDbLayout
  1
Layout1
 70
     1
 71
     1
 10
0.0
 20
0.0
 11
420.0
 21
297.0
 12
0.0
 22
0.0
 32
0.0
 14
1.0000000000E+20
 24
1.0000000000E+20
 34
1.0000000000E+20
 15
-1.0000000000E+20
 25
-1.0000000000E+20
 35
-1.0000000000E+20
146
0.0
 13
0.0
 23
0.0
 33
0.0
 16
1.0
 26
0.0
 36
0.0
 17
0.0
 27
1.0
 37
0.0
 76
     0
330
1B
  0
LAYOUT
  5
26
102
{ACAD_REACTORS
330
1A
102
}
330
1A
100
AcDbPlotSettings
  1

  2
none_device
  4

  6

 40
0.0
 41
0.0
 42
0.0
 43
0.0
 44
0.0
 45
0.0
 46
0.0
 47
0.0
 48
0.0
 49
0.0
140
0.0
141
0.0
142
1.0
143
1.0
 70
   688
 72
     1
 73
     0
 74
     5
  7

 75
    16
147
1.0
148
0.0
149
0.0
100
AcDbLayout
  1
Layout2
 70
     1
 71
     2
 10
0.0
 20
0.0
 11
0.0
 21
0.0
 12
0.0
 22
0.0
 32
0.0
 14
0.0
 24
0.0
 34
0.0
 15
0.0
 25
0.0
 35
0.0
146
0.0
 13
0.0
 23
0.0
 33
0.0
 16
1.0
 26
0.0
 36
0.0
 17
0.0
 27
1.0
 37
0.0
 76
     0
330
23
  0
LAYOUT
  5
22
102
{ACAD_REACTORS
330
1A
102
}
330
1A
100
AcDbPlotSettings
  1

  2
none_device
  4
Letter_(8.50_x_11.00_Inches)
  6

 40
6.35
 41
6.35
 42
6.35000508
 43
6.35000508
 44
215.9
 45
279.4
 46
0.0
 47
0.0
 48
0.0
 49
0.0
140
0.0
141
0.0
142
1.0
143
1.0
 70
  1712
 72
     1
 73
     0
 74
     0
  7

 75
     0
147
1.0
148
0.0
149
0.0
100
AcDbLayout
  1
Model
 70
     1
 71
     0
 10
0.0
 20
0.0
 11
210.0
 21
297.0
 12
0.0
 22
0.0
 32
0.0
 14
0.0
 24
0.0
 34
0.0
 15
210.0
 25
297.0
 35
0.0
146
0.0
 13
0.0
 23
0.0
 33
0.0
 16
1.0
 26
0.0
 36
0.0
 17
0.0
 27
1.0
 37
0.0
 76
     0
330
1F
331
29
  0
MLINESTYLE
  5
18
102
{ACAD_REACTORS
330
17
102
}
330
17
100
AcDbMlineStyle
  2
Standard
 70
     0
  3

 62
   256
 51
90.0
 52
90.0
 71
     2
 49
0.5
 62
   256
  6
BYLAYER
 49
-0.5
 62
   256
  6
BYLAYER
  0
ACDBPLACEHOLDER
  5
F
102
{ACAD_REACTORS
330
E
102
}
330
E
  0
SCALE
  5
48
102
{ACAD_REACTORS
330
47
102
}
330
47
100
AcDbScale
 70
     0
300
1:1
140
1.0
141
1.0
290
     1
  0
SCALE
  5
49
102
{ACAD_REACTORS
330
47
102
}
330
47
100
AcDbScale
 70
     0
300
1:2
140
1.0
141
2.0
290
     0
  0
SCALE
  5
4A
102
{ACAD_REACTORS
330
47
102
}
330
47
100
AcDbScale
 70
     0
300
1:4
140
1.0
141
4.0
290
     0
  0
SCALE
  5
4B
102
{ACAD_REACTORS
330
47
102
}
330
47
100
AcDbScale
 70
     0
300
1:5
140
1.0
141
5.0
290
     0
  0
SCALE
  5
4C
102
{ACAD_REACTORS
330
47
102
}
330
47
100
AcDbScale
 70
     0
300
1:8
140
1.0
141
8.0
290
     0
  0
SCALE
  5
4D
102
{ACAD_REACTORS
330
47
102
}
330
47
100
AcDbScale
 70
     0
300
1:10
140
1.0
141
10.0
290
     0
  0
SCALE
  5
4E
102
{ACAD_REACTORS
330
47
102
}
330
47
100
AcDbScale
 70
     0
300
1:16
140
1.0
141
16.0
290
     0
  0
SCALE
  5
4F
102
{ACAD_REACTORS
330
47
102
}
330
47
100
AcDbScale
 70
     0
300
1:20
140
1.0
141
20.0
290
     0
  0
SCALE
  5
50
102
{ACAD_REACTORS
330
47
102
}
330
47
100
AcDbScale
 70
     0
300
1:30
140
1.0
141
30.0
290
     0
  0
SCALE
  5
51
102
{ACAD_REACTORS
330
47
102
}
330
47
100
AcDbScale
 70
     0
300
1:40
140
1.0
141
40.0
290
     0
  0
SCALE
  5
52
102
{ACAD_REACTORS
330
47
102
}
330
47
100
AcDbScale
 70
     0
300
1:50
140
1.0
141
50.0
290
     0
  0
SCALE
  5
53
102
{ACAD_REACTORS
330
47
102
}
330
47
100
AcDbScale
 70
     0
300
1:100
140
1.0
141
100.0
290
     0
  0
SCALE
  5
54
102
{ACAD_REACTORS
330
47
102
}
330
47
100
AcDbScale
 70
     0
300
2:1
140
2.0
141
1.0
290
     0
  0
SCALE
  5
55
102
{ACAD_REACTORS
330
47
102
}
330
47
100
AcDbScale
 70
     0
300
4:1
140
4.0
141
1.0
290
     0
  0
SCALE
  5
56
102
{ACAD_REACTORS
330
47
102
}
330
47
100
AcDbScale
 70
     0
300
8:1
140
8.0
141
1.0
290
     0
  0
SCALE
  5
57
102
{ACAD_REACTORS
330
47
102
}
330
47
100
AcDbScale
 70
     0
300
10:1
140
10.0
141
1.0
290
     0
  0
SCALE
  5
58
102
{ACAD_REACTORS
330
47
102
}
330
47
100
AcDbScale
 70
     0
300
100:1
140
100.0
141
1.0
290
     0
  0
SCALE
  5
59
102
{ACAD_REACTORS
330
47
102
}
330
47
100
AcDbScale
 70
     0
300
1/128" = 1'-0"
140
0.0078125
141
12.0
290
     0
  0
SCALE
  5
5A
102
{ACAD_REACTORS
330
47
102
}
330
47
100
AcDbScale
 70
     0
300
1/64" = 1'-0"
140
0.015625
141
12.0
290
     0
  0
SCALE
  5
5B
102
{ACAD_REACTORS
330
47
102
}
330
47
100
AcDbScale
 70
     0
300
1/32" = 1'-0"
140
0.03125
141
12.0
290
     0
  0
SCALE
  5
5C
102
{ACAD_REACTORS
330
47
102
}
330
47
100
AcDbScale
 70
     0
300
1/16" = 1'-0"
140
0.0625
141
12.0
290
     0
  0
SCALE
  5
5D
102
{ACAD_REACTORS
330
47
102
}
330
47
100
AcDbScale
 70
     0
300
3/32" = 1'-0"
140
0.09375
141
12.0
290
     0
  0
SCALE
  5
5E
102
{ACAD_REACTORS
330
47
102
}
330
47
100
AcDbScale
 70
     0
300
1/8" = 1'-0"
140
0.125
141
12.0
290
     0
  0
SCALE
  5
5F
102
{ACAD_REACTORS
330
47
102
}
330
47
100
AcDbScale
 70
     0
300
3/16" = 1'-0"
140
0.1875
141
12.0
290
     0
  0
SCALE
  5
60
102
{ACAD_REACTORS
330
47
102
}
330
47
100
AcDbScale
 70
     0
300
1/4" = 1'-0"
140
0.25
141
12.0
290
     0
  0
SCALE
  5
61
102
{ACAD_REACTORS
330
47
102
}
330
47
100
AcDbScale
 70
     0
300
3/8" = 1'-0"
140
0.375
141
12.0
290
     0
  0
SCALE
  5
62
102
{ACAD_REACTORS
330
47
102
}
330
47
100
AcDbScale
 70
     0
300
1/2" = 1'-0"
140
0.5
141
12.0
290
     0
  0
SCALE
  5
63
102
{ACAD_REACTORS
330
47
102
}
330
47
100
AcDbScale
 70
     0
300
3/4" = 1'-0"
140
0.75
141
12.0
290
     0
  0
SCALE
  5
64
102
{ACAD_REACTORS
330
47
102
}
330
47
100
AcDbScale
 70
     0
300
1" = 1'-0"
140
1.0
141
12.0
290
     0
  0
SCALE
  5
65
102
{ACAD_REACTORS
330
47
102
}
330
47
100
AcDbScale
 70
     0
300
1-1/2" = 1'-0"
140
1.5
141
12.0
290
     0
  0
SCALE
  5
66
102
{ACAD_REACTORS
330
47
102
}
330
47
100
AcDbScale
 70
     0
300
3" = 1'-0"
140
3.0
141
12.0
290
     0
  0
SCALE
  5
67
102
{ACAD_REACTORS
330
47
102
}
330
47
100
AcDbScale
 70
     0
300
6" = 1'-0"
140
6.0
141
12.0
290
     0
  0
SCALE
  5
68
102
{ACAD_REACTORS
330
47
102
}
330
47
100
AcDbScale
 70
     0
300
1'-0" = 1'-0"
140
12.0
141
12.0
290
     0
  0
ENDSEC
  0
EOF
