  0
SECTION
  2
HEADER
  9
$ACADVER
  1
AC1015
  9
$ACADMAINTVER
 70
     6
  9
$DWGCODEPAGE
  3
DOS932
  9
$INSBASE
 10
0.0
 20
0.0
 30
0.0
  9
$EXTMIN
 10
0.0
 20
0.0
 30
0.0
  9
$EXTMAX
 10
841.0
 20
594.0
 30
0.0
  9
$LIMMIN
 10
0.0
 20
0.0
  9
$LIMMAX
 10
841.0
 20
594.0
  9
$ORTHOMODE
 70
     0
  9
$REGENMODE
 70
     1
  9
$FILLMODE
 70
     1
  9
$QTEXTMODE
 70
     0
  9
$MIRRTEXT
 70
     1
  9
$LTSCALE
 40
1.0
  9
$ATTMODE
 70
     1
  9
$TEXTSIZE
 40
3.5
  9
$TRACEWID
 40
1.0
  9
$TEXTSTYLE
  7
Standard
  9
$CLAYER
  8
0
  9
$CELTYPE
  6
ByLayer
  9
$CECOLOR
 62
   256
  9
$CELTSCALE
 40
1.0
  9
$DISPSILH
 70
     0
  9
$DIMSCALE
 40
1.0
  9
$DIMASZ
 40
3.8637032976
  9
$DIMEXO
 40
1.0
  9
$DIMDLI
 40
3.75
  9
$DIMRND
 40
0.0
  9
$DIMDLE
 40
0.0
  9
$DIMEXE
 40
1.0
  9
$DIMTP
 40
0.0
  9
$DIMTM
 40
0.0
  9
$DIMTXT
 40
2.7999999523
  9
$DIMCEN
 40
2.5
  9
$DIMTSZ
 40
0.0
  9
$DIMTOL
 70
     0
  9
$DIMLIM
 70
     0
  9
$DIMTIH
 70
     1
  9
$DIMTOH
 70
     1
  9
$DIMSE1
 70
     0
  9
$DIMSE2
 70
     0
  9
$DIMTAD
 70
     1
  9
$DIMZIN
 70
     1
  9
$DIMBLK
  1

  9
$DIMASO
 70
     1
  9
$DIMSHO
 70
     1
  9
$DIMPOST
  1

  9
$DIMAPOST
  1

  9
$DIMALT
 70
     0
  9
$DIMALTD
 70
     3
  9
$DIMALTF
 40
0.0393700787
  9
$DIMLFAC
 40
1.0
  9
$DIMTOFL
 70
     1
  9
$DIMTVP
 40
0.0
  9
$DIMTIX
 70
     0
  9
$DIMSOXD
 70
     0
  9
$DIMSAH
 70
     0
  9
$DIMBLK1
  1

  9
$DIMBLK2
  1

  9
$DIMSTYLE
  2
ISO-25
  9
$DIMCLRD
 70
     0
  9
$DIMCLRE
 70
     0
  9
$DIMCLRT
 70
     0
  9
$DIMTFAC
 40
1.0
  9
$DIMGAP
 40
1.524
  9
$DIMJUST
 70
     0
  9
$DIMSD1
 70
     0
  9
$DIMSD2
 70
     0
  9
$DIMTOLJ
 70
     0
  9
$DIMTZIN
 70
     1
  9
$DIMALTZ
 70
     0
  9
$DIMALTTZ
 70
     0
  9
$DIMUPT
 70
     0
  9
$DIMDEC
 70
     2
  9
$DIMTDEC
 70
     2
  9
$DIMALTU
 70
     2
  9
$DIMALTTD
 70
     3
  9
$DIMTXSTY
  7
Standard
  9
$DIMAUNIT
 70
     0
  9
$DIMADEC
 70
     0
  9
$DIMALTRND
 40
0.0
  9
$DIMAZIN
 70
     0
  9
$DIMDSEP
 70
    44
  9
$DIMATFIT
 70
     3
  9
$DIMFRAC
 70
     0
  9
$DIMLDRBLK
  1

  9
$DIMLUNIT
 70
     2
  9
$DIMLWD
 70
    -2
  9
$DIMLWE
 70
    -2
  9
$DIMTMOVE
 70
     0
  9
$LUNITS
 70
     2
  9
$LUPREC
 70
     3
  9
$SKETCHINC
 40
1.0
  9
$FILLETRAD
 40
10.0
  9
$AUNITS
 70
     0
  9
$AUPREC
 70
     0
  9
$MENU
  1
.
  9
$ELEVATION
 40
0.0
  9
$PELEVATION
 40
0.0
  9
$THICKNESS
 40
0.0
  9
$LIMCHECK
 70
     0
  9
$CHAMFERA
 40
10.0
  9
$CHAMFERB
 40
10.0
  9
$CHAMFERC
 40
20.0
  9
$CHAMFERD
 40
0.0
  9
$SKPOLY
 70
     0
  9
$TDCREATE
 40
2456366.750760995
  9
$TDUCREATE
 40
2456366.375760995
  9
$TDUPDATE
 40
2456366.750761007
  9
$TDUUPDATE
 40
2456366.375761007
  9
$TDINDWG
 40
0.0000000116
  9
$TDUSRTIMER
 40
0.0000000116
  9
$USRTIMER
 70
     1
  9
$ANGBASE
 50
0.0
  9
$ANGDIR
 70
     0
  9
$PDMODE
 70
     0
  9
$PDSIZE
 40
-1.0
  9
$PLINEWID
 40
0.0
  9
$SPLFRAME
 70
     0
  9
$SPLINETYPE
 70
     6
  9
$SPLINESEGS
 70
     8
  9
$HANDSEED
  5
257
  9
$SURFTAB1
 70
     6
  9
$SURFTAB2
 70
     6
  9
$SURFTYPE
 70
     6
  9
$SURFU
 70
     6
  9
$SURFV
 70
     6
  9
$UCSBASE
  2

  9
$UCSNAME
  2

  9
$UCSORG
 10
0.0
 20
0.0
 30
0.0
  9
$UCSXDIR
 10
1.0
 20
0.0
 30
0.0
  9
$UCSYDIR
 10
0.0
 20
1.0
 30
0.0
  9
$UCSORTHOREF
  2

  9
$UCSORTHOVIEW
 70
     0
  9
$UCSORGTOP
 10
0.0
 20
0.0
 30
0.0
  9
$UCSORGBOTTOM
 10
0.0
 20
0.0
 30
0.0
  9
$UCSORGLEFT
 10
0.0
 20
0.0
 30
0.0
  9
$UCSORGRIGHT
 10
0.0
 20
0.0
 30
0.0
  9
$UCSORGFRONT
 10
0.0
 20
0.0
 30
0.0
  9
$UCSORGBACK
 10
0.0
 20
0.0
 30
0.0
  9
$PUCSBASE
  2

  9
$PUCSNAME
  2

  9
$PUCSORG
 10
0.0
 20
0.0
 30
0.0
  9
$PUCSXDIR
 10
1.0
 20
0.0
 30
0.0
  9
$PUCSYDIR
 10
0.0
 20
1.0
 30
0.0
  9
$PUCSORTHOREF
  2

  9
$PUCSORTHOVIEW
 70
     0
  9
$PUCSORGTOP
 10
0.0
 20
0.0
 30
0.0
  9
$PUCSORGBOTTOM
 10
0.0
 20
0.0
 30
0.0
  9
$PUCSORGLEFT
 10
0.0
 20
0.0
 30
0.0
  9
$PUCSORGRIGHT
 10
0.0
 20
0.0
 30
0.0
  9
$PUCSORGFRONT
 10
0.0
 20
0.0
 30
0.0
  9
$PUCSORGBACK
 10
0.0
 20
0.0
 30
0.0
  9
$USERI1
 70
     0
  9
$USERI2
 70
     0
  9
$USERI3
 70
     0
  9
$USERI4
 70
     0
  9
$USERI5
 70
     0
  9
$USERR1
 40
0.0
  9
$USERR2
 40
0.0
  9
$USERR3
 40
0.0
  9
$USERR4
 40
0.0
  9
$USERR5
 40
0.0
  9
$WORLDVIEW
 70
     1
  9
$SHADEDGE
 70
     3
  9
$SHADEDIF
 70
    70
  9
$TILEMODE
 70
     1
  9
$MAXACTVP
 70
    64
  9
$PINSBASE
 10
0.0
 20
0.0
 30
0.0
  9
$PLIMCHECK
 70
     0
  9
$PEXTMIN
 10
1.0000000000E+20
 20
1.0000000000E+20
 30
1.0000000000E+20
  9
$PEXTMAX
 10
-1.0000000000E+20
 20
-1.0000000000E+20
 30
-1.0000000000E+20
  9
$PLIMMIN
 10
0.0
 20
0.0
  9
$PLIMMAX
 10
420.0
 20
297.0
  9
$UNITMODE
 70
     0
  9
$VISRETAIN
 70
     1
  9
$PLINEGEN
 70
     0
  9
$PSLTSCALE
 70
     1
  9
$TREEDEPTH
 70
  3020
  9
$CMLSTYLE
  2
Standard
  9
$CMLJUST
 70
     0
  9
$CMLSCALE
 40
20.0
  9
$PROXYGRAPHICS
 70
     1
  9
$MEASUREMENT
 70
     1
  9
$CELWEIGHT
370
    -1
  9
$ENDCAPS
280
     0
  9
$JOINSTYLE
280
     0
  9
$LWDISPLAY
290
     1
  9
$INSUNITS
 70
     4
  9
$HYPERLINKBASE
  1

  9
$STYLESHEET
  1

  9
$XEDIT
290
     1
  9
$CEPSNTYPE
380
     0
  9
$PSTYLEMODE
290
     1
  9
$FINGERPRINTGUID
  2
{0F78188D-4156-4263-BBD5-2F8F43DE9F85}
  9
$VERSIONGUID
  2
{FAEB1C32-E019-11D5-929B-00C0DF256EC4}
  9
$EXTNAMES
290
     1
  9
$PSVPSCALE
 40
0.0
  9
$OLESTARTUP
290
     0
  0
ENDSEC
  0
SECTION
  2
CLASSES
  0
CLASS
  1
ACDBDICTIONARYWDFLT
  2
AcDbDictionaryWithDefault
  3
ObjectDBX Classes
 90
        0
280
     0
281
     0
  0
CLASS
  1
VISUALSTYLE
  2
AcDbVisualStyle
  3
ObjectDBX Classes
 90
     4095
280
     0
281
     0
  0
CLASS
  1
DICTIONARYVAR
  2
AcDbDictionaryVar
  3
ObjectDBX Classes
 90
        0
280
     0
281
     0
  0
CLASS
  1
ACDBPLACEHOLDER
  2
AcDbPlaceHolder
  3
ObjectDBX Classes
 90
        0
280
     0
281
     0
  0
CLASS
  1
LAYOUT
  2
AcDbLayout
  3
ObjectDBX Classes
 90
        0
280
     0
281
     0
  0
ENDSEC
  0
SECTION
  2
TABLES
  0
TABLE
  2
VPORT
  5
8
330
0
100
AcDbSymbolTable
 70
     1
  0
VPORT
  5
29
330
8
100
AcDbSymbolTableRecord
100
AcDbViewportTableRecord
  2
*Active
 70
     0
 10
0.0
 20
0.0
 11
1.0
 21
1.0
 12
420.5
 22
297.0
 13
0.0
 23
0.0
 14
10.0
 24
10.0
 15
10.0
 25
10.0
 16
0.0
 26
0.0
 36
1.0
 17
0.0
 27
0.0
 37
0.0
 40
594.0
 41
1.4158249158
 42
50.0
 43
0.0
 44
0.0
 50
0.0
 51
0.0
 71
     0
 72
  2000
 73
     1
 74
     3
 75
     0
 76
     0
 77
     0
 78
     0
281
     0
 65
     1
110
0.0
120
0.0
130
0.0
111
1.0
121
0.0
131
0.0
112
0.0
122
1.0
132
0.0
 79
     0
146
0.0
  0
ENDTAB
  0
TABLE
  2
LTYPE
  5
5
330
0
100
AcDbSymbolTable
 70
     6
  0
LTYPE
  5
14
330
5
100
AcDbSymbolTableRecord
100
AcDbLinetypeTableRecord
  2
ByBlock
 70
     0
  3

 72
    65
 73
     0
 40
0.0
  0
LTYPE
  5
15
330
5
100
AcDbSymbolTableRecord
100
AcDbLinetypeTableRecord
  2
ByLayer
 70
     0
  3

 72
    65
 73
     0
 40
0.0
  0
LTYPE
  5
16
330
5
100
AcDbSymbolTableRecord
100
AcDbLinetypeTableRecord
  2
Continuous
 70
     0
  3
Solid line
 72
    65
 73
     0
 40
0.0
  0
LTYPE
  5
3B
330
5
100
AcDbSymbolTableRecord
100
AcDbLinetypeTableRecord
  2
HIDDEN
 70
     0
  3
Hidden __ __ __ __ __ __ __ __ __ __ __ __ __ __
 72
    65
 73
     2
 40
1.905
 49
1.27
 74
     0
 49
-0.635
 74
     0
  0
LTYPE
  5
3C
330
5
100
AcDbSymbolTableRecord
100
AcDbLinetypeTableRecord
  2
PHANTOM
 70
     0
  3
Phantom ______  __  __  ______  __  __  ______
 72
    65
 73
     6
 40
12.7
 49
6.35
 74
     0
 49
-1.27
 74
     0
 49
1.27
 74
     0
 49
-1.27
 74
     0
 49
1.27
 74
     0
 49
-1.27
 74
     0
  0
LTYPE
  5
3D
330
5
100
AcDbSymbolTableRecord
100
AcDbLinetypeTableRecord
  2
CENTER
 70
     0
  3
Center ____ _ ____ _ ____ _ ____ _ ____ _ ____
 72
    65
 73
     4
 40
10.16
 49
6.35
 74
     0
 49
-1.27
 74
     0
 49
1.27
 74
     0
 49
-1.27
 74
     0
  0
LTYPE
  5
3E
330
5
100
AcDbSymbolTableRecord
100
AcDbLinetypeTableRecord
  2
CENTERX2
 70
     0
  3
Center (2x) ________  __  ________  __  _____
 72
    65
 73
     4
 40
20.32
 49
12.7
 74
     0
 49
-2.54
 74
     0
 49
2.54
 74
     0
 49
-2.54
 74
     0
  0
LTYPE
  5
3F
330
5
100
AcDbSymbolTableRecord
100
AcDbLinetypeTableRecord
  2
DOT2
 70
     0
  3
Dot (.5x) ........................................
 72
    65
 73
     2
 40
0.635
 49
0.0
 74
     0
 49
-0.635
 74
     0
  0
ENDTAB
  0
TABLE
  2
LAYER
  5
2
330
0
100
AcDbSymbolTable
 70
     4
  0
LAYER
  5
10
330
2
100
AcDbSymbolTableRecord
100
AcDbLayerTableRecord
  2
0
 70
     0
 62
     7
  6
Continuous
370
    -3
390
F
  0
LAYER
  5
40
330
2
100
AcDbSymbolTableRecord
100
AcDbLayerTableRecord
  2
SLD-0
 70
     0
 62
     3
  6
Continuous
370
    -3
390
F
  0
LAYER
  5
41
330
2
100
AcDbSymbolTableRecord
100
AcDbLayerTableRecord
  2
SLD-DEFPOINTS
 70
     0
 62
   179
  6
Continuous
370
    -3
390
F
  0
LAYER
  5
42
330
2
100
AcDbSymbolTableRecord
100
AcDbLayerTableRecord
  2
AM_REFDIM
 70
     0
 62
     4
  6
Continuous
370
    15
390
F
  0
ENDTAB
  0
TABLE
  2
STYLE
  5
3
330
0
100
AcDbSymbolTable
 70
     1
  0
STYLE
  5
11
330
3
100
AcDbSymbolTableRecord
100
AcDbTextStyleTableRecord
  2
Standard
 70
     0
 40
0.0
 41
1.0
 50
0.0
 71
     0
 42
2.5
  3
txt
  4
bigfont
  0
ENDTAB
  0
TABLE
  2
VIEW
  5
6
330
0
100
AcDbSymbolTable
 70
     0
  0
ENDTAB
  0
TABLE
  2
UCS
  5
7
330
0
100
AcDbSymbolTable
 70
     0
  0
ENDTAB
  0
TABLE
  2
APPID
  5
9
330
0
100
AcDbSymbolTable
 70
     1
  0
APPID
  5
12
330
9
100
AcDbSymbolTableRecord
100
AcDbRegAppTableRecord
  2
ACAD
 70
     0
  0
ENDTAB
  0
TABLE
  2
DIMSTYLE
  5
A
330
0
100
AcDbSymbolTable
 70
     1
100
AcDbDimStyleTable
  0
DIMSTYLE
105
27
330
A
100
AcDbSymbolTableRecord
100
AcDbDimStyleTableRecord
  2
ISO-25
 70
     0
 41
2.5
 42
0.625
 43
3.75
 44
1.25
 73
     0
 74
     0
 77
     1
 78
     8
140
2.5
141
2.5
143
0.0393700787
147
0.625
171
     3
172
     1
271
     2
272
     2
274
     3
278
    44
283
     0
284
     8
340
11
  0
ENDTAB
  0
TABLE
  2
BLOCK_RECORD
  5
1
330
0
100
AcDbSymbolTable
 70
     1
  0
BLOCK_RECORD
  5
1F
330
1
100
AcDbSymbolTableRecord
100
AcDbBlockTableRecord
  2
*Model_Space
340
22
  0
BLOCK_RECORD
  5
1B
330
1
100
AcDbSymbolTableRecord
100
AcDbBlockTableRecord
  2
*Paper_Space
340
1E
  0
BLOCK_RECORD
  5
23
330
1
100
AcDbSymbolTableRecord
100
AcDbBlockTableRecord
  2
*Paper_Space0
340
26
  0
ENDTAB
  0
ENDSEC
  0
SECTION
  2
BLOCKS
  0
BLOCK
  5
20
330
1F
100
AcDbEntity
  8
0
100
AcDbBlockBegin
  2
*Model_Space
 70
     0
 10
0.0
 20
0.0
 30
0.0
  3
*Model_Space
  1

  0
ENDBLK
  5
21
330
1F
100
AcDbEntity
  8
0
100
AcDbBlockEnd
  0
BLOCK
  5
1C
330
1B
100
AcDbEntity
 67
     1
  8
0
100
AcDbBlockBegin
  2
*Paper_Space
 70
     0
 10
0.0
 20
0.0
 30
0.0
  3
*Paper_Space
  1

  0
ENDBLK
  5
1D
330
1B
100
AcDbEntity
 67
     1
  8
0
100
AcDbBlockEnd
  0
BLOCK
  5
24
330
23
100
AcDbEntity
  8
0
100
AcDbBlockBegin
  2
*Paper_Space0
 70
     0
 10
0.0
 20
0.0
 30
0.0
  3
*Paper_Space0
  1

  0
ENDBLK
  5
25
330
23
100
AcDbEntity
  8
0
100
AcDbBlockEnd
  0
ENDSEC
  0
SECTION
  2
ENTITIES
  0
ARC
  5
43
330
1F
100
AcDbEntity
  8
0
  6
Continuous
 62
     7
370
    15
100
AcDbCircle
 10
214.0976545255
 20
318.4290963606
 30
0.0
 40
3.988230463665908
100
AcDbArc
 50
2.6083519449
 51
177.2782002799
  0
LINE
  5
44
330
1F
100
AcDbEntity
  8
0
  6
Continuous
 62
     7
370
    15
100
AcDbLine
 10
218.1139245767
 20
318.0684834767
 30
0.0
 11
218.1139245767
 21
318.6184834737
 31
0.0
  0
LINE
  5
45
330
1F
100
AcDbEntity
  8
0
  6
Continuous
 62
     7
370
    15
100
AcDbLine
 10
210.1139232654
 20
318.6184834737
 30
0.0
 11
210.1139232654
 21
318.0684834767
 31
0.0
  0
LINE
  5
46
330
1F
100
AcDbEntity
  8
0
  6
Continuous
 62
     7
370
    15
100
AcDbLine
 10
156.8139299888
 20
263.7184836019
 30
0.0
 11
157.6139286298
 21
263.7184836019
 31
0.0
  0
LINE
  5
47
330
1F
100
AcDbEntity
  8
0
  6
Continuous
 62
     7
370
    15
100
AcDbLine
 10
157.6139286298
 20
272.7184832144
 30
0.0
 11
156.8139299888
 21
272.7184832144
 31
0.0
  0
ARC
  5
48
330
1F
100
AcDbEntity
  8
0
  6
Continuous
 62
     7
370
    15
100
AcDbCircle
 10
155.7139249343
 20
270.2184841085
 30
0.0
 40
2.000000000000114
100
AcDbArc
 50
90.0
 51
132.3072493592
  0
ARC
  5
49
330
1F
100
AcDbEntity
  8
0
  6
Continuous
 62
     7
370
    15
100
AcDbCircle
 10
155.7139249343
 20
266.2184841085
 30
0.0
 40
2.0
100
AcDbArc
 50
227.7525973771
 51
270.0
  0
LINE
  5
4A
330
1F
100
AcDbEntity
  8
0
  6
Continuous
 62
     7
370
    15
100
AcDbLine
 10
156.8139299888
 20
272.2184840638
 30
0.0
 11
155.7139262695
 21
272.2184840638
 31
0.0
  0
LINE
  5
4B
330
1F
100
AcDbEntity
  8
0
  6
Continuous
 62
     7
370
    15
100
AcDbLine
 10
155.7139262695
 20
264.2184846152
 30
0.0
 11
156.8139299888
 21
264.2184846152
 31
0.0
  0
LINE
  5
4C
330
1F
100
AcDbEntity
  8
0
  6
Continuous
 62
     7
370
    15
100
AcDbLine
 10
191.5139213342
 20
332.7692352284
 30
0.0
 11
191.5139213342
 21
334.4793371905
 31
0.0
  0
LINE
  5
4D
330
1F
100
AcDbEntity
  8
0
  6
Continuous
 62
     7
370
    15
100
AcDbLine
 10
182.7139213819
 20
334.4793371905
 30
0.0
 11
182.7139213819
 21
332.7692352284
 31
0.0
  0
LINE
  5
4E
330
1F
100
AcDbEntity
  8
0
  6
Continuous
 62
     7
370
    15
100
AcDbLine
 10
193.3639302987
 20
334.8213560928
 30
0.0
 11
193.3639302987
 21
335.1633749951
 31
0.0
  0
LINE
  5
4F
330
1F
100
AcDbEntity
  8
0
  6
Continuous
 62
     7
370
    15
100
AcDbLine
 10
180.8639273185
 20
335.1633749951
 30
0.0
 11
180.8639273185
 21
334.8213560928
 31
0.0
  0
LINE
  5
50
330
1F
100
AcDbEntity
  8
0
  6
Continuous
 62
     7
370
    15
100
AcDbLine
 10
197.1139267225
 20
336.1894354273
 30
0.0
 11
197.1139267225
 21
337.2154958595
 31
0.0
  0
LINE
  5
51
330
1F
100
AcDbEntity
  8
0
  6
Continuous
 62
     7
370
    15
100
AcDbLine
 10
177.1139308948
 20
337.2154958595
 30
0.0
 11
177.1139308948
 21
336.1894354273
 31
0.0
  0
LINE
  5
52
330
1F
100
AcDbEntity
  8
0
  6
Continuous
 62
     7
370
    15
100
AcDbLine
 10
165.7412901658
 20
340.9184828449
 30
0.0
 11
164.1139194507
 21
340.9184828449
 31
0.0
  0
LINE
  5
53
330
1F
100
AcDbEntity
  8
0
  6
Continuous
 62
     7
370
    15
100
AcDbLine
 10
242.1139285106
 20
340.9184828449
 30
0.0
 11
240.5116364497
 21
340.9184828449
 31
0.0
  0
ARC
  5
54
330
1F
100
AcDbEntity
  8
0
  6
Continuous
 62
     7
370
    15
100
AcDbCircle
 10
177.7139249343
 20
375.7028074458
 30
0.0
 40
10.60000000000008
100
AcDbArc
 50
90.0
 51
180.0
  0
ARC
  5
55
330
1F
100
AcDbEntity
  8
0
  6
Continuous
 62
     7
370
    15
100
AcDbCircle
 10
228.5139249343
 20
375.7028074458
 30
0.0
 40
10.60000000000008
100
AcDbArc
 50
0.0
 51
90.0
  0
LINE
  5
56
330
1F
100
AcDbEntity
  8
0
  6
Continuous
 62
     7
370
    15
100
AcDbLine
 10
228.513921811
 20
386.302807932
 30
0.0
 11
177.7139261502
 21
386.302807932
 31
0.0
  0
ARC
  5
57
330
1F
100
AcDbEntity
  8
0
  6
Continuous
 62
     7
370
    15
100
AcDbCircle
 10
165.3989717049
 20
342.6040261298
 30
0.0
 40
1.702882203950987
100
AcDbArc
 50
280.1794334436
 51
3.9748407399
  0
LWPOLYLINE
  5
58
330
1F
100
AcDbEntity
  8
0
  6
Continuous
 62
     7
370
    15
100
AcDbPolyline
 90
        7
 70
   128
 43
0.0
 10
240.5662492055
 20
340.918765967
 10
240.5704960365
 20
340.9192912329
 10
240.3955266017
 20
340.959163015
 10
240.0489032406
 20
341.1108493853
 10
239.6067634362
 20
341.4692260373
 10
239.2380714554
 20
342.072778945
 10
239.1288831968
 20
342.8007379223
  0
LINE
  5
59
330
1F
100
AcDbEntity
  8
0
  6
Continuous
 62
     7
370
    15
100
AcDbLine
 10
302.1139234442
 20
291.2184839185
 30
0.0
 11
312.1139250833
 21
291.2184839185
 31
0.0
  0
LINE
  5
5A
330
1F
100
AcDbEntity
  8
0
  6
Continuous
 62
     7
370
    15
100
AcDbLine
 10
312.1139250833
 20
299.2184842985
 30
0.0
 11
302.1139234442
 21
299.2184842985
 31
0.0
  0
LINE
  5
5B
330
1F
100
AcDbEntity
  8
0
  6
Continuous
 62
     7
370
    15
100
AcDbLine
 10
305.1609873909
 20
351.9151374746
 30
0.0
 11
306.1962641913
 21
348.0514340151
 31
0.0
  0
LINE
  5
5C
330
1F
100
AcDbEntity
  8
0
  6
Continuous
 62
     7
370
    15
100
AcDbLine
 10
315.0315873462
 20
350.4188522745
 30
0.0
 11
313.9963105458
 21
354.282555734
 31
0.0
  0
LINE
  5
5D
330
1F
100
AcDbEntity
  8
0
  6
Continuous
 62
     7
370
    15
100
AcDbLine
 10
302.3502968389
 20
364.620605116
 30
0.0
 11
302.8679371018
 21
362.6887589741
 31
0.0
  0
LINE
  5
5E
330
1F
100
AcDbEntity
  8
0
  6
Continuous
 62
     7
370
    15
100
AcDbLine
 10
310.5953421581
 20
364.7593051244
 30
0.0
 11
310.0777037579
 21
366.6911587167
 31
0.0
  0
LINE
  5
5F
330
1F
100
AcDbEntity
  8
0
  6
Continuous
 62
     7
370
    15
100
AcDbLine
 10
157.6139286298
 20
249.2184840191
 30
0.0
 11
164.1139194507
 21
249.2184840191
 31
0.0
  0
LINE
  5
60
330
1F
100
AcDbEntity
  8
0
  6
Continuous
 62
     7
370
    15
100
AcDbLine
 10
164.1139194507
 20
341.2184841979
 30
0.0
 11
157.6139286298
 21
341.2184841979
 31
0.0
  0
ARC
  5
61
330
1F
100
AcDbEntity
  8
0
  6
Continuous
 62
     7
370
    15
100
AcDbCircle
 10
155.6139249343
 20
317.2006041304
 30
0.0
 40
2.000000000000028
100
AcDbArc
 50
274.0960437582
 51
0.0
  0
ARC
  5
62
330
1F
100
AcDbEntity
  8
0
  6
Continuous
 62
     7
370
    15
100
AcDbCircle
 10
155.6139249343
 20
273.2363640866
 30
0.0
 40
2.000000000000048
100
AcDbArc
 50
0.0
 51
85.9039562418
  0
ARC
  5
63
330
1F
100
AcDbEntity
  8
0
  6
Continuous
 62
     7
370
    15
100
AcDbCircle
 10
156.1139249343
 20
310.2184841085
 30
0.0
 40
5.0
100
AcDbArc
 50
94.0960437582
 51
180.0
  0
ARC
  5
64
330
1F
100
AcDbEntity
  8
0
  6
Continuous
 62
     7
370
    15
100
AcDbCircle
 10
156.1139249343
 20
280.2184841085
 30
0.0
 40
5.0
100
AcDbArc
 50
180.0
 51
265.9039562418
  0
LINE
  5
65
330
1F
100
AcDbEntity
  8
0
  6
Continuous
 62
     7
370
    15
100
AcDbLine
 10
290.1139252025
 20
340.3184838641
 30
0.0
 11
242.1139285106
 21
340.3184838641
 31
0.0
  0
LINE
  5
66
330
1F
100
AcDbEntity
  8
0
  6
Continuous
 62
     7
370
    15
100
AcDbLine
 10
164.1139194507
 20
250.1184843529
 30
0.0
 11
290.1139252025
 21
250.1184843529
 31
0.0
  0
LINE
  5
67
330
1F
100
AcDbEntity
  8
0
  6
Continuous
 62
     7
370
    15
100
AcDbLine
 10
296.113926186
 20
341.2184841979
 30
0.0
 11
290.1139252025
 21
341.2184841979
 31
0.0
  0
LINE
  5
68
330
1F
100
AcDbEntity
  8
0
  6
Continuous
 62
     7
370
    15
100
AcDbLine
 10
290.1139252025
 20
249.2184840191
 30
0.0
 11
296.113926186
 21
249.2184840191
 31
0.0
  0
LINE
  5
69
330
1F
100
AcDbEntity
  8
0
  6
Continuous
 62
     7
370
    15
100
AcDbLine
 10
312.1139250833
 20
280.7184845257
 30
0.0
 11
316.113925739
 21
280.7184845257
 31
0.0
  0
LINE
  5
6A
330
1F
100
AcDbEntity
  8
0
  6
Continuous
 62
     7
370
    15
100
AcDbLine
 10
323.6139241744
 20
237.7184830654
 30
0.0
 11
328.6139249939
 21
237.7184830654
 31
0.0
  0
LINE
  5
6B
330
1F
100
AcDbEntity
  8
0
  6
Continuous
 62
     7
370
    15
100
AcDbLine
 10
328.6139249939
 20
352.7184851516
 30
0.0
 11
323.6139241744
 21
352.7184851516
 31
0.0
  0
LINE
  5
6C
330
1F
100
AcDbEntity
  8
0
  6
Continuous
 62
     7
370
    15
100
AcDbLine
 10
354.8924962196
 20
315.7184846748
 30
0.0
 11
348.6139245469
 21
346.9703249682
 31
0.0
  0
LINE
  5
6D
330
1F
100
AcDbEntity
  8
0
  6
Continuous
 62
     7
370
    15
100
AcDbLine
 10
372.1139237422
 20
212.2184872676
 30
0.0
 11
372.1139237422
 21
214.2184838701
 31
0.0
  0
LINE
  5
6E
330
1F
100
AcDbEntity
  8
0
  6
Continuous
 62
     7
370
    15
100
AcDbLine
 10
321.1139246959
 20
214.2184838701
 30
0.0
 11
321.1139246959
 21
212.2184872676
 31
0.0
  0
LINE
  5
6F
330
1F
100
AcDbEntity
  8
0
  6
Continuous
 62
     7
370
    15
100
AcDbLine
 10
321.1139246959
 20
378.2184809495
 30
0.0
 11
321.1139246959
 21
376.2184843469
 31
0.0
  0
LINE
  5
70
330
1F
100
AcDbEntity
  8
0
  6
Continuous
 62
     7
370
    15
100
AcDbLine
 10
372.1139237422
 20
376.2184843469
 30
0.0
 11
372.1139237422
 21
378.2184809495
 31
0.0
  0
ARC
  5
71
330
1F
100
AcDbEntity
  8
0
  6
Continuous
 62
     7
370
    15
100
AcDbCircle
 10
363.9892622842
 20
371.2184887694
 30
0.0
 40
4.999997724511077
100
AcDbArc
 50
90.0530960729
 51
158.4487555293
  0
ARC
  5
72
330
1F
100
AcDbEntity
  8
0
  6
Continuous
 62
     7
370
    15
100
AcDbCircle
 10
323.8542476443
 20
371.2187262263
 30
0.0
 40
4.999754764715952
100
AcDbArc
 50
3.5652875625
 51
89.9266717515
  0
ARC
  5
73
330
1F
100
AcDbEntity
  8
0
  6
Continuous
 62
     7
370
    15
100
AcDbCircle
 10
325.0861001251
 20
219.2184877795
 30
0.0
 40
5.000004286150956
100
AcDbArc
 50
270.0222419519
 51
349.7555379308
  0
ARC
  5
74
330
1F
100
AcDbEntity
  8
0
  6
Continuous
 62
     7
370
    15
100
AcDbCircle
 10
369.3238320724
 20
219.2184872975
 30
0.0
 40
5.000003434112433
100
AcDbArc
 50
168.8004052469
 51
269.9970344048
  0
LINE
  5
75
330
1F
100
AcDbEntity
  8
0
  6
Continuous
 62
     7
370
    15
100
AcDbLine
 10
362.613924979
 20
315.7184846748
 30
0.0
 11
354.8924962196
 21
315.7184846748
 31
0.0
  0
LINE
  5
76
330
1F
100
AcDbEntity
  8
0
  6
Continuous
 62
     7
370
    15
100
AcDbLine
 10
330.351036242
 20
352.8668038595
 30
0.0
 11
330.3907841582
 21
352.4802975405
 31
0.0
  0
LWPOLYLINE
  5
77
330
1F
100
AcDbEntity
  8
0
  6
Continuous
 62
     7
370
    15
100
AcDbPolyline
 90
        7
 70
   128
 43
0.0
 10
328.8435993854
 20
371.5364202905
 10
329.039673521
 20
368.7379151631
 10
329.3816728655
 20
364.122019713
 10
329.7168186072
 20
359.8443210173
 10
329.9576893586
 20
356.9712914575
 10
330.1881106708
 20
354.4510766912
 10
330.351036242
 20
352.8668038595
  0
ARC
  5
78
330
1F
100
AcDbEntity
  8
0
  6
Continuous
 62
     7
370
    15
100
AcDbCircle
 10
149.1038559441
 20
454.3147206332
 30
0.0
 40
225.3913236455736
100
AcDbArc
 50
332.2726841123
 51
338.8713752575
  0
LWPOLYLINE
  5
79
330
1F
100
AcDbEntity
  8
0
  6
Continuous
 62
     7
370
    15
100
AcDbPolyline
 90
       16
 70
   128
 43
0.0
 10
387.1139243383
 20
285.218484332
 10
387.1139243383
 20
286.0162068207
 10
387.1139243383
 20
291.5361983284
 10
387.0236121256
 20
297.0056029551
 10
386.3502659041
 20
300.3434204545
 10
385.3065587718
 20
302.9675247196
 10
384.1579735417
 20
304.9488436479
 10
383.0876268584
 20
306.3813295264
 10
382.3474936325
 20
307.2179906119
 10
381.2043771285
 20
308.3257326905
 10
379.5768946547
 20
309.6037978355
 10
377.3761049051
 20
310.9046030838
 10
374.5185576517
 20
312.0207000572
 10
370.9423348445
 20
312.6687180299
 10
366.6758623112
 20
312.718484183
 10
362.613924979
 20
312.718484183
  0
LWPOLYLINE
  5
7A
330
1F
100
AcDbEntity
  8
0
  6
Continuous
 62
     7
370
    15
100
AcDbPolyline
 90
       16
 70
   128
 43
0.0
 10
364.4696317751
 20
220.178106432
 10
365.0471914697
 20
222.4641457248
 10
366.1918465186
 20
224.9648585964
 10
368.3903843302
 20
227.9681429315
 10
370.4416800428
 20
230.1558792639
 10
372.0874481041
 20
231.9108933259
 10
373.8030225176
 20
233.7403498638
 10
375.6383948166
 20
235.6975540567
 10
378.2230198521
 20
238.4537510622
 10
380.9219926733
 20
241.3379043389
 10
383.0951854724
 20
244.1326282967
 10
384.5995322007
 20
246.7331640471
 10
385.6407173115
 20
249.1484783638
 10
386.9005732376
 20
254.233983909
 10
387.1139243383
 20
259.9047400106
 10
387.1139243383
 20
265.2184847791
  0
ARC
  5
7B
330
1F
100
AcDbEntity
  8
0
  6
Continuous
 62
     7
370
    15
100
AcDbCircle
 10
377.434084089
 20
210.6452875276
 30
0.0
 40
48.02390664021988
100
AcDbArc
 50
148.1090443958
 51
170.802291049
  0
LINE
  5
7C
330
1F
100
AcDbEntity
  8
0
  6
Continuous
 62
     7
370
    15
100
AcDbLine
 10
330.6139253217
 20
236.0048718799
 30
0.0
 11
336.7620147437
 21
236.0048718799
 31
0.0
  0
LINE
  5
7D
330
1F
100
AcDbEntity
  8
0
  6
Continuous
 62
     7
370
    15
100
AcDbLine
 10
328.6139249939
 20
237.7184830654
 30
0.0
 11
330.6139253217
 21
237.7184830654
 31
0.0
  0
LINE
  5
7E
330
1F
100
AcDbEntity
  8
0
  6
Continuous
 62
     7
370
    15
100
AcDbLine
 10
330.4428152878
 20
352.7184851516
 30
0.0
 11
328.6139249939
 21
352.7184851516
 31
0.0
  0
LINE
  5
7F
330
1F
100
AcDbEntity
  8
0
  6
Continuous
 62
     7
370
    15
100
AcDbLine
 10
315.6139247257
 20
242.0688286472
 30
0.0
 11
320.6139255453
 21
242.0688286472
 31
0.0
  0
LINE
  5
80
330
1F
100
AcDbEntity
  8
0
  6
Continuous
 62
     7
370
    15
100
AcDbLine
 10
315.6139247257
 20
244.9555784512
 30
0.0
 11
320.6139255453
 21
244.9555784512
 31
0.0
  0
LINE
  5
81
330
1F
100
AcDbEntity
  8
0
  6
Continuous
 62
     7
370
    15
100
AcDbLine
 10
315.6139247257
 20
242.0688286472
 30
0.0
 11
315.6139247257
 21
244.9555784512
 31
0.0
  0
LINE
  5
82
330
1F
100
AcDbEntity
  8
0
  6
Continuous
 62
     7
370
    15
100
AcDbLine
 10
315.6139247257
 20
250.7290817846
 30
0.0
 11
320.6139255453
 21
250.7290817846
 31
0.0
  0
LINE
  5
83
330
1F
100
AcDbEntity
  8
0
  6
Continuous
 62
     7
370
    15
100
AcDbLine
 10
315.6139247257
 20
253.6158315886
 30
0.0
 11
320.6139255453
 21
253.6158315886
 31
0.0
  0
LINE
  5
84
330
1F
100
AcDbEntity
  8
0
  6
Continuous
 62
     7
370
    15
100
AcDbLine
 10
315.6139247257
 20
250.7290817846
 30
0.0
 11
315.6139247257
 21
253.6158315886
 31
0.0
  0
LINE
  5
85
330
1F
100
AcDbEntity
  8
0
  6
Continuous
 62
     7
370
    15
100
AcDbLine
 10
315.6139247257
 20
244.9555784512
 30
0.0
 11
315.6139247257
 21
250.7290817846
 31
0.0
  0
LINE
  5
86
330
1F
100
AcDbEntity
  8
0
  6
Continuous
 62
     7
370
    15
100
AcDbLine
 10
315.6139247257
 20
339.7078864325
 30
0.0
 11
320.6139255453
 21
339.7078864325
 31
0.0
  0
LINE
  5
87
330
1F
100
AcDbEntity
  8
0
  6
Continuous
 62
     7
370
    15
100
AcDbLine
 10
315.6139247257
 20
339.7078864325
 30
0.0
 11
315.6139247257
 21
345.4813897658
 31
0.0
  0
LINE
  5
88
330
1F
100
AcDbEntity
  8
0
  6
Continuous
 62
     7
370
    15
100
AcDbLine
 10
315.6139247257
 20
345.4813897658
 30
0.0
 11
320.6139255453
 21
345.4813897658
 31
0.0
  0
LINE
  5
89
330
1F
100
AcDbEntity
  8
0
  6
Continuous
 62
     7
370
    15
100
AcDbLine
 10
315.6139247257
 20
336.8211366285
 30
0.0
 11
320.6139255453
 21
336.8211366285
 31
0.0
  0
LINE
  5
8A
330
1F
100
AcDbEntity
  8
0
  6
Continuous
 62
     7
370
    15
100
AcDbLine
 10
315.6139247257
 20
336.8211366285
 30
0.0
 11
315.6139247257
 21
339.7078864325
 31
0.0
  0
LINE
  5
8B
330
1F
100
AcDbEntity
  8
0
  6
Continuous
 62
     7
370
    15
100
AcDbLine
 10
315.6139247257
 20
348.3681395698
 30
0.0
 11
320.6139255453
 21
348.3681395698
 31
0.0
  0
LINE
  5
8C
330
1F
100
AcDbEntity
  8
0
  6
Continuous
 62
     7
370
    15
100
AcDbLine
 10
315.6139247257
 20
345.4813897658
 30
0.0
 11
315.6139247257
 21
348.3681395698
 31
0.0
  0
LINE
  5
8D
330
1F
100
AcDbEntity
  8
0
  6
Continuous
 62
     7
370
    15
100
AcDbLine
 10
210.6558039922
 20
319.7162780959
 30
0.0
 11
210.6558039922
 21
318.8502524096
 31
0.0
  0
ARC
  5
8E
330
1F
100
AcDbEntity
  8
0
  6
Continuous
 62
     7
370
    15
100
AcDbCircle
 10
212.1096055768
 20
315.8722434511
 30
0.0
 40
3.31392160511307
100
AcDbArc
 50
88.8271683149
 51
116.0206609674
  0
LINE
  5
8F
330
1F
100
AcDbEntity
  8
0
  6
Continuous
 62
     7
370
    15
100
AcDbLine
 10
213.6139229078
 20
317.9414324511
 30
0.0
 11
213.6139229078
 21
316.2884503651
 31
0.0
  0
LINE
  5
90
330
1F
100
AcDbEntity
  8
0
  6
Continuous
 62
     7
370
    15
100
AcDbLine
 10
213.6139229078
 20
316.2884503651
 30
0.0
 11
214.6139249343
 21
316.2884503651
 31
0.0
  0
LINE
  5
91
330
1F
100
AcDbEntity
  8
0
  6
Continuous
 62
     7
370
    15
100
AcDbLine
 10
214.6139249343
 20
316.2884503651
 30
0.0
 11
214.6139249343
 21
317.9414324511
 31
0.0
  0
ARC
  5
92
330
1F
100
AcDbEntity
  8
0
  6
Continuous
 62
     7
370
    15
100
AcDbCircle
 10
216.1619155451
 20
316.0704838692
 30
0.0
 40
3.116981709010538
100
AcDbArc
 50
63.1021108386
 51
92.0499419907
  0
LINE
  5
93
330
1F
100
AcDbEntity
  8
0
  6
Continuous
 62
     7
370
    15
100
AcDbLine
 10
217.5720438499
 20
318.8502524096
 30
0.0
 11
217.5720438499
 21
319.7162780959
 31
0.0
  0
ARC
  5
94
330
1F
100
AcDbEntity
  8
0
  6
Continuous
 62
     7
370
    15
100
AcDbCircle
 10
216.1182390234
 20
316.7382529144
 30
0.0
 40
3.313937605756961
100
AcDbArc
 50
63.9794117113
 51
91.172641118
  0
LINE
  5
95
330
1F
100
AcDbEntity
  8
0
  6
Continuous
 62
     7
370
    15
100
AcDbLine
 10
214.6139249343
 20
321.2955348242
 30
0.0
 11
214.6139249343
 21
322.2780820031
 31
0.0
  0
LINE
  5
96
330
1F
100
AcDbEntity
  8
0
  6
Continuous
 62
     7
370
    15
100
AcDbLine
 10
214.6139249343
 20
322.2780820031
 30
0.0
 11
213.6139229078
 21
322.2780820031
 31
0.0
  0
LINE
  5
97
330
1F
100
AcDbEntity
  8
0
  6
Continuous
 62
     7
370
    15
100
AcDbLine
 10
213.6139229078
 20
322.2780820031
 30
0.0
 11
213.6139229078
 21
321.2955348242
 31
0.0
  0
ARC
  5
98
330
1F
100
AcDbEntity
  8
0
  6
Continuous
 62
     7
370
    15
100
AcDbCircle
 10
212.0659556149
 20
316.9364061882
 30
0.0
 40
3.117084442564661
100
AcDbArc
 50
87.9504174487
 51
116.8974118336
  0
LINE
  5
99
330
1F
100
AcDbEntity
  8
0
  6
Continuous
 62
     7
370
    15
100
AcDbLine
 10
212.1774360675
 20
319.1854707945
 30
0.0
 11
213.6139229078
 21
319.1854707945
 31
0.0
  0
LINE
  5
9A
330
1F
100
AcDbEntity
  8
0
  6
Continuous
 62
     7
370
    15
100
AcDbLine
 10
213.6139229078
 20
319.1854707945
 30
0.0
 11
213.6139229078
 21
317.9414324511
 31
0.0
  0
LINE
  5
9B
330
1F
100
AcDbEntity
  8
0
  6
Continuous
 62
     7
370
    15
100
AcDbLine
 10
214.6139249343
 20
319.1854707945
 30
0.0
 11
216.0504192251
 21
319.1854707945
 31
0.0
  0
LINE
  5
9C
330
1F
100
AcDbEntity
  8
0
  6
Continuous
 62
     7
370
    15
100
AcDbLine
 10
214.6139249343
 20
317.9414324511
 30
0.0
 11
214.6139249343
 21
319.1854707945
 31
0.0
  0
LWPOLYLINE
  5
9D
330
1F
100
AcDbEntity
  8
0
  6
Continuous
 62
     7
370
    15
100
AcDbPolyline
 90
       13
 70
   128
 43
0.0
 10
218.1139245767
 20
318.0684834767
 10
218.0692508954
 20
317.552186181
 10
217.7177995581
 20
316.565466677
 10
217.0461297173
 20
315.7122969676
 10
216.1139279741
 20
315.0684848476
 10
215.004007532
 20
314.6912340123
 10
213.8149991769
 20
314.6140683491
 10
212.6525595922
 20
314.843842392
 10
211.6199687261
 20
315.3601396877
 10
210.8089730281
 20
316.1170870114
 10
210.2916345138
 20
317.0474223841
 10
210.1139232654
 20
318.0684834767
 10
210.1139232654
 20
318.0684834767
  0
LINE
  5
9E
330
1F
100
AcDbEntity
  8
0
  6
Continuous
 62
     7
370
    15
100
AcDbLine
 10
213.6139229078
 20
320.0514964808
 30
0.0
 11
213.6139229078
 21
319.1854707945
 31
0.0
  0
LINE
  5
9F
330
1F
100
AcDbEntity
  8
0
  6
Continuous
 62
     7
370
    15
100
AcDbLine
 10
213.6139229078
 20
320.0514964808
 30
0.0
 11
212.1774360675
 21
320.0514964808
 31
0.0
  0
LINE
  5
A0
330
1F
100
AcDbEntity
  8
0
  6
Continuous
 62
     7
370
    15
100
AcDbLine
 10
216.0504192251
 20
320.0514964808
 30
0.0
 11
214.6139249343
 21
320.0514964808
 31
0.0
  0
LINE
  5
A1
330
1F
100
AcDbEntity
  8
0
  6
Continuous
 62
     7
370
    15
100
AcDbLine
 10
214.6139249343
 20
319.1854707945
 30
0.0
 11
214.6139249343
 21
320.0514964808
 31
0.0
  0
LINE
  5
A2
330
1F
100
AcDbEntity
  8
0
  6
Continuous
 62
     7
370
    15
100
AcDbLine
 10
213.6139229078
 20
321.2955348242
 30
0.0
 11
213.6139229078
 21
320.0514964808
 31
0.0
  0
LINE
  5
A3
330
1F
100
AcDbEntity
  8
0
  6
Continuous
 62
     7
370
    15
100
AcDbLine
 10
214.6139249343
 20
320.0514964808
 30
0.0
 11
214.6139249343
 21
321.2955348242
 31
0.0
  0
LINE
  5
A4
330
1F
100
AcDbEntity
  8
0
  6
Continuous
 62
     7
370
    15
100
AcDbLine
 10
214.6139249343
 20
321.3632997174
 30
0.0
 11
213.6139229078
 21
321.3632997174
 31
0.0
  0
LINE
  5
A5
330
1F
100
AcDbEntity
  8
0
  6
Continuous
 62
     7
370
    15
100
AcDbLine
 10
156.8139299888
 20
272.7184832144
 30
0.0
 11
156.8139299888
 21
263.7184836019
 31
0.0
  0
LWPOLYLINE
  5
A6
330
1F
100
AcDbEntity
  8
0
  6
Continuous
 62
     7
370
    15
100
AcDbPolyline
 90
        2
 70
   128
 43
0.0
 10
154.3843552608
 20
264.7603690673
 10
154.3843552608
 20
264.7603690673
  0
ARC
  5
A7
330
1F
100
AcDbEntity
  8
0
  6
Continuous
 62
     7
370
    15
100
AcDbCircle
 10
155.7562155276
 20
266.2733252751
 30
0.0
 40
2.042311699623465
100
AcDbArc
 50
179.756864501
 51
227.80009663
  0
LINE
  5
A8
330
1F
100
AcDbEntity
  8
0
  6
Continuous
 62
     7
370
    15
100
AcDbLine
 10
153.7139222163
 20
266.2819918293
 30
0.0
 11
153.7139222163
 21
267.7184842575
 31
0.0
  0
LINE
  5
A9
330
1F
100
AcDbEntity
  8
0
  6
Continuous
 62
     7
370
    15
100
AcDbLine
 10
153.7139222163
 20
267.7184842575
 30
0.0
 11
154.3843552608
 21
267.7184842575
 31
0.0
  0
LINE
  5
AA
330
1F
100
AcDbEntity
  8
0
  6
Continuous
 62
     7
370
    15
100
AcDbLine
 10
154.3843552608
 20
267.7184842575
 30
0.0
 11
154.3843552608
 21
268.7184844214
 31
0.0
  0
LINE
  5
AB
330
1F
100
AcDbEntity
  8
0
  6
Continuous
 62
     7
370
    15
100
AcDbLine
 10
154.3843552608
 20
268.7184844214
 30
0.0
 11
153.7139222163
 21
268.7184844214
 31
0.0
  0
LINE
  5
AC
330
1F
100
AcDbEntity
  8
0
  6
Continuous
 62
     7
370
    15
100
AcDbLine
 10
153.7139222163
 20
268.7184844214
 30
0.0
 11
153.7139222163
 21
270.154974987
 31
0.0
  0
ARC
  5
AD
330
1F
100
AcDbEntity
  8
0
  6
Continuous
 62
     7
370
    15
100
AcDbCircle
 10
155.7483566005
 20
270.1671060636
 30
0.0
 40
2.034470551868283
100
AcDbArc
 50
132.10144714
 51
180.3416434863
  0
LWPOLYLINE
  5
AE
330
1F
100
AcDbEntity
  8
0
  6
Continuous
 62
     7
370
    15
100
AcDbPolyline
 90
        2
 70
   128
 43
0.0
 10
154.3843552608
 20
271.6765996117
 10
154.3843552608
 20
271.6765996117
  0
ARC
  5
AF
330
1F
100
AcDbEntity
  8
0
  6
Continuous
 62
     7
370
    15
100
AcDbCircle
 10
187.113921358
 20
334.2706261383
 30
0.0
 40
4.404947229366595
100
AcDbArc
 50
2.7157513234
 51
177.2842486766
  0
LWPOLYLINE
  5
B0
330
1F
100
AcDbEntity
  8
0
  6
Continuous
 62
     7
370
    15
100
AcDbPolyline
 90
       23
 70
   128
 43
0.0
 10
191.5139213342
 20
332.7692352284
 10
191.3356885452
 20
333.9340999771
 10
190.8154443044
 20
335.004595672
 10
189.9953141946
 20
335.8939938296
 10
188.9417573947
 20
336.5302436102
 10
187.7401128549
 20
336.8617981721
 10
186.4877447623
 20
336.8617981721
 10
185.2861002225
 20
336.5302436102
 10
184.2325434226
 20
335.8939938296
 10
183.4124133128
 20
335.004595672
 10
182.8921541709
 20
333.9340999771
 10
182.7139213819
 20
332.7692352284
 10
182.8921541709
 20
331.6043704797
 10
183.4124133128
 20
330.5338747848
 10
184.2325434226
 20
329.6444766272
 10
185.2861002225
 20
329.0082268465
 10
186.4877447623
 20
328.6766722847
 10
187.7401128549
 20
328.6766722847
 10
188.9417573947
 20
329.0082268465
 10
189.9953141946
 20
329.6444766272
 10
190.8154443044
 20
330.5338747848
 10
191.3356885452
 20
331.6043704797
 10
191.5139213342
 20
332.7692352284
  0
LWPOLYLINE
  5
B1
330
1F
100
AcDbEntity
  8
0
  6
Continuous
 62
     7
370
    15
100
AcDbPolyline
 90
       19
 70
   128
 43
0.0
 10
180.8639273185
 20
334.8213560928
 10
181.0455426711
 20
336.2268745948
 10
181.5798238057
 20
337.5507123817
 10
182.4357316035
 20
338.7159273077
 10
183.5635259885
 20
339.654804771
 10
184.8976418513
 20
340.3127804447
 10
186.3605633516
 20
340.6516142238
 10
187.8672793645
 20
340.6516142238
 10
189.3302008647
 20
340.3127804447
 10
190.6643316287
 20
339.654804771
 10
191.7921111125
 20
338.7159273077
 10
192.6480189103
 20
337.5507123817
 10
193.1823149461
 20
336.2268745948
 10
193.3639302987
 20
334.8213560928
 10
193.1823149461
 20
333.4158375908
 10
192.6480189103
 20
332.0919998038
 10
191.7921111125
 20
330.9267848778
 10
190.6643316287
 20
329.9879074145
 10
189.8833468694
 20
329.5563288081
  0
ARC
  5
B2
330
1F
100
AcDbEntity
  8
0
  6
Continuous
 62
     7
370
    15
100
AcDbCircle
 10
186.7204129844
 20
334.9099529557
 30
0.0
 40
5.857155773864486
100
AcDbArc
 50
180.8667039293
 51
246.0685418785
  0
LWPOLYLINE
  5
B3
330
1F
100
AcDbEntity
  8
0
  6
Continuous
 62
     7
370
    15
100
AcDbPolyline
 90
       34
 70
   128
 43
0.0
 10
197.1139267225
 20
336.1894354273
 10
196.9332054395
 20
337.9678182352
 10
196.3975981015
 20
339.6819211591
 10
195.526461317
 20
341.2698000718
 10
194.3512663383
 20
342.6740594257
 10
192.914496376
 20
343.8439458657
 10
191.2680819768
 20
344.7371810723
 10
189.4715085763
 20
345.3214779545
 10
187.5897452373
 20
345.5757178415
 10
185.6907710571
 20
345.4907141674
 10
183.8432505864
 20
345.0695402969
 10
182.1139261264
 20
344.3274140406
 10
180.5653229493
 20
343.2911612142
 10
179.2533949155
 20
341.9982321609
 10
178.225572421
 20
340.4953569222
 10
177.5189891595
 20
338.8368576813
 10
177.1592006225
 20
337.0826706339
 10
177.1592006225
 20
335.2962002207
 10
177.5189891595
 20
333.5420168985
 10
178.225572421
 20
331.8835139323
 10
179.2533949155
 20
330.3806424189
 10
180.5653229493
 20
329.0877133656
 10
182.1139261264
 20
328.0514605392
 10
183.8432505864
 20
327.3093342829
 10
185.6907710571
 20
326.8881566871
 10
187.5897452373
 20
326.8031530131
 10
189.4715085763
 20
327.0573966253
 10
191.2680819768
 20
327.6416935075
 10
192.914496376
 20
328.5349249888
 10
194.3512663383
 20
329.7048151541
 10
195.526461317
 20
331.109074508
 10
196.3975981015
 20
332.6969534207
 10
196.9332054395
 20
334.4110563446
 10
197.1139267225
 20
336.1894354273
  0
ARC
  5
B4
330
1F
100
AcDbEntity
  8
0
  6
Continuous
 62
     7
370
    15
100
AcDbCircle
 10
186.0074724283
 20
337.2100110916
 30
0.0
 40
8.893543224821547
100
AcDbArc
 50
159.5420303915
 51
179.964664919
  0
LINE
  5
B5
330
1F
100
AcDbEntity
  8
0
  6
Continuous
 62
     7
370
    15
100
AcDbLine
 10
167.1139255304
 20
334.2001341332
 30
0.0
 11
167.1139255304
 21
367.1523049522
 31
0.0
  0
LINE
  5
B6
330
1F
100
AcDbEntity
  8
0
  6
Continuous
 62
     7
370
    15
100
AcDbLine
 10
182.8639313716
 20
327.6834018577
 30
0.0
 11
182.8639313716
 21
323.7168096054
 31
0.0
  0
LINE
  5
B7
330
1F
100
AcDbEntity
  8
0
  6
Continuous
 62
     7
370
    15
100
AcDbLine
 10
182.8639313716
 20
323.7168096054
 30
0.0
 11
182.6139196891
 21
323.7168096054
 31
0.0
  0
LINE
  5
B8
330
1F
100
AcDbEntity
  8
0
  6
Continuous
 62
     7
370
    15
100
AcDbLine
 10
191.613923027
 20
323.7168096054
 30
0.0
 11
191.3639262456
 21
323.7168096054
 31
0.0
  0
LINE
  5
B9
330
1F
100
AcDbEntity
  8
0
  6
Continuous
 62
     7
370
    15
100
AcDbLine
 10
191.3639262456
 20
323.7168096054
 30
0.0
 11
191.3639262456
 21
327.6834018577
 31
0.0
  0
LINE
  5
BA
330
1F
100
AcDbEntity
  8
0
  6
Continuous
 62
     7
370
    15
100
AcDbLine
 10
239.1139224309
 20
367.1523049522
 30
0.0
 11
239.1139224309
 21
334.2001341332
 31
0.0
  0
LINE
  5
BB
330
1F
100
AcDbEntity
  8
0
  6
Continuous
 62
     7
370
    15
100
AcDbLine
 10
165.3028383989
 20
340.88826329
 30
0.0
 11
165.7412901658
 21
340.9091100145
 31
0.0
  0
LINE
  5
BC
330
1F
100
AcDbEntity
  8
0
  6
Continuous
 62
     7
370
    15
100
AcDbLine
 10
182.6139196891
 20
313.3072514135
 30
0.0
 11
182.6139196891
 21
323.5114343513
 31
0.0
  0
LINE
  5
BD
330
1F
100
AcDbEntity
  8
0
  6
Continuous
 62
     7
370
    15
100
AcDbLine
 10
179.1139200467
 20
313.3072514135
 30
0.0
 11
182.6139196891
 21
313.3072514135
 31
0.0
  0
LWPOLYLINE
  5
BE
330
1F
100
AcDbEntity
  8
0
  6
Continuous
 62
     7
370
    15
100
AcDbPolyline
 90
       10
 70
   128
 43
0.0
 10
164.1139194507
 20
326.0800611276
 10
164.3074259299
 20
324.1829328287
 10
164.8898527164
 20
322.2494270701
 10
165.8696636695
 20
320.3419294257
 10
167.2212585944
 20
318.5381569017
 10
168.8647821683
 20
316.9549308766
 10
170.7831874627
 20
315.5993722428
 10
172.9502931375
 20
314.5178049851
 10
175.2849027652
 20
313.7625414926
 10
179.1139200467
 20
313.3072514135
  0
LINE
  5
BF
330
1F
100
AcDbEntity
  8
0
  6
Continuous
 62
     7
370
    15
100
AcDbLine
 10
242.1139285106
 20
326.0800611276
 30
0.0
 11
242.1139285106
 21
340.9184828449
 31
0.0
  0
LWPOLYLINE
  5
C0
330
1F
100
AcDbEntity
  8
0
  6
Continuous
 62
     7
370
    15
100
AcDbPolyline
 90
       10
 70
   128
 43
0.0
 10
227.1139279145
 20
313.3072514135
 10
229.6295493979
 20
313.5037325371
 10
232.0743680138
 20
314.0791837174
 10
234.3779236216
 20
315.0166343946
 10
236.4761561293
 20
316.2730965812
 10
238.297063126
 20
317.7951496143
 10
239.8027733106
 20
319.5224735934
 10
240.9289211172
 20
321.3523641277
 10
241.6873529691
 20
323.2437238146
 10
242.1139285106
 20
326.0800611276
  0
LINE
  5
C1
330
1F
100
AcDbEntity
  8
0
  6
Continuous
 62
     7
370
    15
100
AcDbLine
 10
216.5139272947
 20
313.3072514135
 30
0.0
 11
227.1139279145
 21
313.3072514135
 31
0.0
  0
LINE
  5
C2
330
1F
100
AcDbEntity
  8
0
  6
Continuous
 62
     7
370
    15
100
AcDbLine
 10
216.5139272947
 20
313.3072514135
 30
0.0
 11
216.5139272947
 21
315.2972027708
 31
0.0
  0
LINE
  5
C3
330
1F
100
AcDbEntity
  8
0
  6
Continuous
 62
     7
370
    15
100
AcDbLine
 10
211.7139205474
 20
315.2972027708
 30
0.0
 11
211.7139205474
 21
313.3072514135
 31
0.0
  0
LINE
  5
C4
330
1F
100
AcDbEntity
  8
0
  6
Continuous
 62
     7
370
    15
100
AcDbLine
 10
191.613923027
 20
313.3072514135
 30
0.0
 11
211.7139205474
 21
313.3072514135
 31
0.0
  0
LINE
  5
C5
330
1F
100
AcDbEntity
  8
0
  6
Continuous
 62
     7
370
    15
100
AcDbLine
 10
191.613923027
 20
323.5114343513
 30
0.0
 11
191.613923027
 21
313.3072514135
 31
0.0
  0
LINE
  5
C6
330
1F
100
AcDbEntity
  8
0
  6
Continuous
 62
     7
370
    15
100
AcDbLine
 10
191.613923027
 20
313.0697622944
 30
0.0
 11
211.7139205474
 21
313.0697622944
 31
0.0
  0
LINE
  5
C7
330
1F
100
AcDbEntity
  8
0
  6
Continuous
 62
     7
370
    15
100
AcDbLine
 10
216.5139272947
 20
313.0697622944
 30
0.0
 11
227.1139279145
 21
313.0697622944
 31
0.0
  0
LWPOLYLINE
  5
C8
330
1F
100
AcDbEntity
  8
0
  6
Continuous
 62
     7
370
    15
100
AcDbPolyline
 90
       10
 70
   128
 43
0.0
 10
242.1139285106
 20
325.8284401197
 10
241.9209808249
 20
323.9384941805
 10
241.3398802418
 20
322.0103118617
 10
240.36162646
 20
320.1061911929
 10
239.0115365524
 20
318.3042459238
 10
237.3705685276
 20
316.7226962794
 10
235.4548826951
 20
315.3676331092
 10
233.290056898
 20
314.2853301067
 10
230.9575706858
 20
313.5285746355
 10
227.1139279145
 20
313.0697622944
  0
LWPOLYLINE
  5
C9
330
1F
100
AcDbEntity
  8
0
  6
Continuous
 62
     7
370
    15
100
AcDbPolyline
 90
       10
 70
   128
 43
0.0
 10
179.1139200467
 20
313.0697622944
 10
176.5983656186
 20
313.2662322421
 10
174.1536066074
 20
313.8416145045
 10
171.850095703
 20
314.7788602907
 10
169.7519078988
 20
316.0348288763
 10
167.9313138265
 20
317.5556972671
 10
166.4258793134
 20
319.2810077269
 10
165.3004393119
 20
321.1068972994
 10
164.5421341199
 20
322.9928460021
 10
164.1139194507
 20
325.8284401197
  0
LINE
  5
CA
330
1F
100
AcDbEntity
  8
0
  6
Continuous
 62
     7
370
    15
100
AcDbLine
 10
179.1139200467
 20
313.0697622944
 30
0.0
 11
182.6139196891
 21
313.0697622944
 31
0.0
  0
LINE
  5
CB
330
1F
100
AcDbEntity
  8
0
  6
Continuous
 62
     7
370
    15
100
AcDbLine
 10
242.1139285106
 20
326.0800611276
 30
0.0
 11
242.1139285106
 21
325.8284401197
 31
0.0
  0
LINE
  5
CC
330
1F
100
AcDbEntity
  8
0
  6
Continuous
 62
     7
370
    15
100
AcDbLine
 10
239.1139224309
 20
375.7028073121
 30
0.0
 11
239.1139224309
 21
367.1523049522
 31
0.0
  0
LINE
  5
CD
330
1F
100
AcDbEntity
  8
0
  6
Continuous
 62
     7
370
    15
100
AcDbLine
 10
167.1139255304
 20
367.1523049522
 30
0.0
 11
167.1139255304
 21
375.7028073121
 31
0.0
  0
LINE
  5
CE
330
1F
100
AcDbEntity
  8
0
  6
Continuous
 62
     7
370
    15
100
AcDbLine
 10
182.6139196891
 20
313.0697622944
 30
0.0
 11
182.6139196891
 21
313.3072514135
 31
0.0
  0
LINE
  5
CF
330
1F
100
AcDbEntity
  8
0
  6
Continuous
 62
     7
370
    15
100
AcDbLine
 10
211.7139205474
 20
313.3072514135
 30
0.0
 11
211.7139205474
 21
313.0697622944
 31
0.0
  0
LINE
  5
D0
330
1F
100
AcDbEntity
  8
0
  6
Continuous
 62
     7
370
    15
100
AcDbLine
 10
191.613923027
 20
313.3072514135
 30
0.0
 11
191.613923027
 21
313.0697622944
 31
0.0
  0
LINE
  5
D1
330
1F
100
AcDbEntity
  8
0
  6
Continuous
 62
     7
370
    15
100
AcDbLine
 10
216.5139272947
 20
313.0697622944
 30
0.0
 11
216.5139272947
 21
313.3072514135
 31
0.0
  0
LINE
  5
D2
330
1F
100
AcDbEntity
  8
0
  6
Continuous
 62
     7
370
    15
100
AcDbLine
 10
191.613923027
 20
323.5114343513
 30
0.0
 11
191.613923027
 21
325.4336785573
 31
0.0
  0
LINE
  5
D3
330
1F
100
AcDbEntity
  8
0
  6
Continuous
 62
     7
370
    15
100
AcDbLine
 10
182.6139196891
 20
325.4336785573
 30
0.0
 11
182.6139196891
 21
323.5114343513
 31
0.0
  0
LINE
  5
D4
330
1F
100
AcDbEntity
  8
0
  6
Continuous
 62
     7
370
    15
100
AcDbLine
 10
311.9108948994
 20
373.3940213967
 30
0.0
 11
308.2859918613
 21
372.4227264572
 31
0.0
  0
LINE
  5
D5
330
1F
100
AcDbEntity
  8
0
  6
Continuous
 62
     7
370
    15
100
AcDbLine
 10
313.4638082374
 20
367.5984606195
 30
0.0
 11
311.9108948994
 21
373.3940213967
 31
0.0
  0
LINE
  5
D6
330
1F
100
AcDbEntity
  8
0
  6
Continuous
 62
     7
370
    15
100
AcDbLine
 10
309.8389051992
 20
366.6271731306
 30
0.0
 11
313.4638082374
 21
367.5984606195
 31
0.0
  0
LINE
  5
D7
330
1F
100
AcDbEntity
  8
0
  6
Continuous
 62
     7
370
    15
100
AcDbLine
 10
309.8389051992
 20
366.6271731306
 30
0.0
 11
308.2859918613
 21
372.4227264572
 31
0.0
  0
LINE
  5
D8
330
1F
100
AcDbEntity
  8
0
  6
Continuous
 62
     7
370
    15
100
AcDbLine
 10
302.5890953976
 20
364.6845907021
 30
0.0
 11
309.8389051992
 21
366.6271731306
 31
0.0
  0
LINE
  5
D9
330
1F
100
AcDbEntity
  8
0
  6
Continuous
 62
     7
370
    15
100
AcDbLine
 10
302.5890953976
 20
364.6845907021
 30
0.0
 11
301.0361820597
 21
370.4801514793
 31
0.0
  0
LINE
  5
DA
330
1F
100
AcDbEntity
  8
0
  6
Continuous
 62
     7
370
    15
100
AcDbLine
 10
308.2859918613
 20
372.4227264572
 30
0.0
 11
301.0361820597
 21
370.4801514793
 31
0.0
  0
LINE
  5
DB
330
1F
100
AcDbEntity
  8
0
  6
Continuous
 62
     7
370
    15
100
AcDbLine
 10
316.8284569073
 20
355.0414271701
 30
0.0
 11
313.2035520065
 21
354.0701396812
 31
0.0
  0
LINE
  5
DC
330
1F
100
AcDbEntity
  8
0
  6
Continuous
 62
     7
370
    15
100
AcDbLine
 10
313.2035520065
 20
354.0701396812
 30
0.0
 11
310.3565435994
 21
364.6953195382
 31
0.0
  0
LINE
  5
DD
330
1F
100
AcDbEntity
  8
0
  6
Continuous
 62
     7
370
    15
100
AcDbLine
 10
316.8284569073
 20
355.0414271701
 30
0.0
 11
313.9814466376
 21
365.6666144777
 31
0.0
  0
LINE
  5
DE
330
1F
100
AcDbEntity
  8
0
  6
Continuous
 62
     7
370
    15
100
AcDbLine
 10
313.9814466376
 20
365.6666144777
 30
0.0
 11
310.3565435994
 21
364.6953195382
 31
0.0
  0
LINE
  5
DF
330
1F
100
AcDbEntity
  8
0
  6
Continuous
 62
     7
370
    15
100
AcDbLine
 10
313.2035520065
 20
354.0701396812
 30
0.0
 11
305.9537440676
 21
352.1275572527
 31
0.0
  0
LINE
  5
E0
330
1F
100
AcDbEntity
  8
0
  6
Continuous
 62
     7
370
    15
100
AcDbLine
 10
305.9537440676
 20
352.1275572527
 30
0.0
 11
303.1067356605
 21
362.7527445603
 31
0.0
  0
LINE
  5
E1
330
1F
100
AcDbEntity
  8
0
  6
Continuous
 62
     7
370
    15
100
AcDbLine
 10
310.3565435994
 20
364.6953195382
 30
0.0
 11
303.1067356605
 21
362.7527445603
 31
0.0
  0
LINE
  5
E2
330
1F
100
AcDbEntity
  8
0
  6
Continuous
 62
     7
370
    15
100
AcDbLine
 10
298.9641942221
 20
363.7133032132
 30
0.0
 11
297.4112771589
 21
369.5088565398
 31
0.0
  0
LINE
  5
E3
330
1F
100
AcDbEntity
  8
0
  6
Continuous
 62
     7
370
    15
100
AcDbLine
 10
298.9641942221
 20
363.7133032132
 30
0.0
 11
302.5890953976
 21
364.6845907021
 31
0.0
  0
LINE
  5
E4
330
1F
100
AcDbEntity
  8
0
  6
Continuous
 62
     7
370
    15
100
AcDbLine
 10
301.0361820597
 20
370.4801514793
 30
0.0
 11
297.4112771589
 21
369.5088565398
 31
0.0
  0
LINE
  5
E5
330
1F
100
AcDbEntity
  8
0
  6
Continuous
 62
     7
370
    15
100
AcDbLine
 10
305.9537440676
 20
352.1275572527
 30
0.0
 11
302.3288391668
 21
351.1562660385
 31
0.0
  0
LINE
  5
E6
330
1F
100
AcDbEntity
  8
0
  6
Continuous
 62
     7
370
    15
100
AcDbLine
 10
302.3288391668
 20
351.1562660385
 30
0.0
 11
299.4818307597
 21
361.7814496208
 31
0.0
  0
LINE
  5
E7
330
1F
100
AcDbEntity
  8
0
  6
Continuous
 62
     7
370
    15
100
AcDbLine
 10
303.1067356605
 20
362.7527445603
 30
0.0
 11
299.4818307597
 21
361.7814496208
 31
0.0
  0
LINE
  5
E8
330
1F
100
AcDbEntity
  8
0
  6
Continuous
 62
     7
370
    15
100
AcDbLine
 10
338.1225468728
 20
415.2184814263
 30
0.0
 11
338.1225468728
 21
398.2184842277
 31
0.0
  0
LINE
  5
E9
330
1F
100
AcDbEntity
  8
0
  6
Continuous
 62
     7
370
    15
100
AcDbLine
 10
355.1053034279
 20
415.2184814263
 30
0.0
 11
355.1053034279
 21
398.2184842277
 31
0.0
  0
LINE
  5
EA
330
1F
100
AcDbEntity
  8
0
  6
Continuous
 62
     7
370
    15
100
AcDbLine
 10
355.1053034279
 20
415.2184814263
 30
0.0
 11
338.1225468728
 21
415.2184814263
 31
0.0
  0
LINE
  5
EB
330
1F
100
AcDbEntity
  8
0
  6
Continuous
 62
     7
370
    15
100
AcDbLine
 10
367.1139247853
 20
415.2184814263
 30
0.0
 11
367.1139247853
 21
398.2184842277
 31
0.0
  0
LINE
  5
EC
330
1F
100
AcDbEntity
  8
0
  6
Continuous
 62
     7
370
    15
100
AcDbLine
 10
367.1139247853
 20
415.2184814263
 30
0.0
 11
355.1053034279
 21
415.2184814263
 31
0.0
  0
LINE
  5
ED
330
1F
100
AcDbEntity
  8
0
  6
Continuous
 62
     7
370
    15
100
AcDbLine
 10
326.1139245841
 20
415.2184814263
 30
0.0
 11
326.1139245841
 21
398.2184842277
 31
0.0
  0
LINE
  5
EE
330
1F
100
AcDbEntity
  8
0
  6
Continuous
 62
     7
370
    15
100
AcDbLine
 10
338.1225468728
 20
415.2184814263
 30
0.0
 11
326.1139245841
 21
415.2184814263
 31
0.0
  0
LINE
  5
EF
330
1F
100
AcDbEntity
  8
0
  6
Continuous
 62
     7
370
    15
100
AcDbLine
 10
355.1053034279
 20
175.2184867907
 30
0.0
 11
355.1053034279
 21
192.2184839893
 31
0.0
  0
LINE
  5
F0
330
1F
100
AcDbEntity
  8
0
  6
Continuous
 62
     7
370
    15
100
AcDbLine
 10
338.1225468728
 20
175.2184867907
 30
0.0
 11
338.1225468728
 21
192.2184839893
 31
0.0
  0
LINE
  5
F1
330
1F
100
AcDbEntity
  8
0
  6
Continuous
 62
     7
370
    15
100
AcDbLine
 10
338.1225468728
 20
175.2184867907
 30
0.0
 11
355.1053034279
 21
175.2184867907
 31
0.0
  0
LINE
  5
F2
330
1F
100
AcDbEntity
  8
0
  6
Continuous
 62
     7
370
    15
100
AcDbLine
 10
367.1139247853
 20
175.2184867907
 30
0.0
 11
367.1139247853
 21
192.2184839893
 31
0.0
  0
LINE
  5
F3
330
1F
100
AcDbEntity
  8
0
  6
Continuous
 62
     7
370
    15
100
AcDbLine
 10
355.1053034279
 20
175.2184867907
 30
0.0
 11
367.1139247853
 21
175.2184867907
 31
0.0
  0
LINE
  5
F4
330
1F
100
AcDbEntity
  8
0
  6
Continuous
 62
     7
370
    15
100
AcDbLine
 10
326.1139245841
 20
175.2184867907
 30
0.0
 11
326.1139245841
 21
192.2184839893
 31
0.0
  0
LINE
  5
F5
330
1F
100
AcDbEntity
  8
0
  6
Continuous
 62
     7
370
    15
100
AcDbLine
 10
326.1139245841
 20
175.2184867907
 30
0.0
 11
338.1225468728
 21
175.2184867907
 31
0.0
  0
LINE
  5
F6
330
1F
100
AcDbEntity
  8
0
  6
Continuous
 62
     7
370
    15
100
AcDbLine
 10
334.3946246568
 20
398.2184842277
 30
0.0
 11
334.3946246568
 21
378.2184809495
 31
0.0
  0
LINE
  5
F7
330
1F
100
AcDbEntity
  8
0
  6
Continuous
 62
     7
370
    15
100
AcDbLine
 10
358.8332247127
 20
398.2184842277
 30
0.0
 11
358.8332247127
 21
378.2184809495
 31
0.0
  0
LINE
  5
F8
330
1F
100
AcDbEntity
  8
0
  6
Continuous
 62
     7
370
    15
100
AcDbLine
 10
334.3946246568
 20
378.2184809495
 30
0.0
 11
358.8332247127
 21
378.2184809495
 31
0.0
  0
LINE
  5
F9
330
1F
100
AcDbEntity
  8
0
  6
Continuous
 62
     7
370
    15
100
AcDbLine
 10
358.8332247127
 20
398.2184842277
 30
0.0
 11
334.3946246568
 21
398.2184842277
 31
0.0
  0
LINE
  5
FA
330
1F
100
AcDbEntity
  8
0
  6
Continuous
 62
     7
370
    15
100
AcDbLine
 10
376.1139243979
 20
398.2184842277
 30
0.0
 11
376.1139243979
 21
378.2184809495
 31
0.0
  0
LINE
  5
FB
330
1F
100
AcDbEntity
  8
0
  6
Continuous
 62
     7
370
    15
100
AcDbLine
 10
358.8332247127
 20
378.2184809495
 30
0.0
 11
376.1139243979
 21
378.2184809495
 31
0.0
  0
LINE
  5
FC
330
1F
100
AcDbEntity
  8
0
  6
Continuous
 62
     7
370
    15
100
AcDbLine
 10
376.1139243979
 20
398.2184842277
 30
0.0
 11
358.8332247127
 21
398.2184842277
 31
0.0
  0
LINE
  5
FD
330
1F
100
AcDbEntity
  8
0
  6
Continuous
 62
     7
370
    15
100
AcDbLine
 10
317.1139240402
 20
398.2184842277
 30
0.0
 11
317.1139240402
 21
378.2184809495
 31
0.0
  0
LINE
  5
FE
330
1F
100
AcDbEntity
  8
0
  6
Continuous
 62
     7
370
    15
100
AcDbLine
 10
317.1139240402
 20
378.2184809495
 30
0.0
 11
334.3946246568
 21
378.2184809495
 31
0.0
  0
LINE
  5
FF
330
1F
100
AcDbEntity
  8
0
  6
Continuous
 62
     7
370
    15
100
AcDbLine
 10
334.3946246568
 20
398.2184842277
 30
0.0
 11
317.1139240402
 21
398.2184842277
 31
0.0
  0
LINE
  5
100
330
1F
100
AcDbEntity
  8
0
  6
Continuous
 62
     7
370
    15
100
AcDbLine
 10
358.8332247127
 20
192.2184839893
 30
0.0
 11
358.8332247127
 21
212.2184872676
 31
0.0
  0
LINE
  5
101
330
1F
100
AcDbEntity
  8
0
  6
Continuous
 62
     7
370
    15
100
AcDbLine
 10
334.3946246568
 20
192.2184839893
 30
0.0
 11
334.3946246568
 21
212.2184872676
 31
0.0
  0
LINE
  5
102
330
1F
100
AcDbEntity
  8
0
  6
Continuous
 62
     7
370
    15
100
AcDbLine
 10
334.3946246568
 20
192.2184839893
 30
0.0
 11
358.8332247127
 21
192.2184839893
 31
0.0
  0
LINE
  5
103
330
1F
100
AcDbEntity
  8
0
  6
Continuous
 62
     7
370
    15
100
AcDbLine
 10
358.8332247127
 20
212.2184872676
 30
0.0
 11
334.3946246568
 21
212.2184872676
 31
0.0
  0
LINE
  5
104
330
1F
100
AcDbEntity
  8
0
  6
Continuous
 62
     7
370
    15
100
AcDbLine
 10
376.1139243979
 20
192.2184839893
 30
0.0
 11
376.1139243979
 21
212.2184872676
 31
0.0
  0
LINE
  5
105
330
1F
100
AcDbEntity
  8
0
  6
Continuous
 62
     7
370
    15
100
AcDbLine
 10
358.8332247127
 20
192.2184839893
 30
0.0
 11
376.1139243979
 21
192.2184839893
 31
0.0
  0
LINE
  5
106
330
1F
100
AcDbEntity
  8
0
  6
Continuous
 62
     7
370
    15
100
AcDbLine
 10
376.1139243979
 20
212.2184872676
 30
0.0
 11
358.8332247127
 21
212.2184872676
 31
0.0
  0
LINE
  5
107
330
1F
100
AcDbEntity
  8
0
  6
Continuous
 62
     7
370
    15
100
AcDbLine
 10
317.1139240402
 20
192.2184839893
 30
0.0
 11
317.1139240402
 21
212.2184872676
 31
0.0
  0
LINE
  5
108
330
1F
100
AcDbEntity
  8
0
  6
Continuous
 62
     7
370
    15
100
AcDbLine
 10
317.1139240402
 20
192.2184839893
 30
0.0
 11
334.3946246568
 21
192.2184839893
 31
0.0
  0
LINE
  5
109
330
1F
100
AcDbEntity
  8
0
  6
Continuous
 62
     7
370
    15
100
AcDbLine
 10
334.3946246568
 20
212.2184872676
 30
0.0
 11
317.1139240402
 21
212.2184872676
 31
0.0
  0
LINE
  5
10A
330
1F
100
AcDbEntity
  8
0
  6
Continuous
 62
     7
370
    15
100
AcDbLine
 10
164.1139194507
 20
295.2184841085
 30
0.0
 11
164.1139194507
 21
341.2184841979
 31
0.0
  0
LINE
  5
10B
330
1F
100
AcDbEntity
  8
0
  6
Continuous
 62
     7
370
    15
100
AcDbLine
 10
164.1139194507
 20
249.2184840191
 30
0.0
 11
164.1139194507
 21
295.2184841085
 31
0.0
  0
LINE
  5
10C
330
1F
100
AcDbEntity
  8
0
  6
Continuous
 62
     7
370
    15
100
AcDbLine
 10
157.6139286298
 20
295.2184841085
 30
0.0
 11
157.6139286298
 21
341.2184841979
 31
0.0
  0
LINE
  5
10D
330
1F
100
AcDbEntity
  8
0
  6
Continuous
 62
     7
370
    15
100
AcDbLine
 10
157.6139286298
 20
249.2184840191
 30
0.0
 11
157.6139286298
 21
295.2184841085
 31
0.0
  0
LINE
  5
10E
330
1F
100
AcDbEntity
  8
0
  6
Continuous
 62
     7
370
    15
100
AcDbLine
 10
151.1139229078
 20
280.2184844438
 30
0.0
 11
151.1139229078
 21
310.2184837732
 31
0.0
  0
LWPOLYLINE
  5
10F
330
1F
100
AcDbEntity
  8
0
  6
Continuous
 62
     7
370
    15
100
AcDbPolyline
 90
        6
 70
   128
 43
0.0
 10
172.113920762
 20
255.4934188772
 10
172.2264990348
 20
255.8111041833
 10
172.5517615813
 20
256.1001457322
 10
173.05285783
 20
256.3242703725
 10
173.673610403
 20
256.4542904545
 10
174.1139248151
 20
256.4793914605
  0
LINE
  5
110
330
1F
100
AcDbEntity
  8
0
  6
Continuous
 62
     7
370
    15
100
AcDbLine
 10
172.113920762
 20
255.1931157757
 30
0.0
 11
172.113920762
 21
255.4934188772
 31
0.0
  0
LWPOLYLINE
  5
111
330
1F
100
AcDbEntity
  8
0
  6
Continuous
 62
     7
370
    15
100
AcDbPolyline
 90
        6
 70
   128
 43
0.0
 10
174.1139248151
 20
254.3107993949
 10
173.4519258279
 20
254.3583937038
 10
172.864551856
 20
254.4972464491
 10
172.4180981654
 20
254.7153398443
 10
172.1628561753
 20
254.9922369469
 10
172.113920762
 20
255.1931157757
  0
LINE
  5
112
330
1F
100
AcDbEntity
  8
0
  6
Continuous
 62
     7
370
    15
100
AcDbLine
 10
183.113928153
 20
254.3107993949
 30
0.0
 11
174.1139248151
 21
254.3107993949
 31
0.0
  0
LWPOLYLINE
  5
113
330
1F
100
AcDbEntity
  8
0
  6
Continuous
 62
     7
370
    15
100
AcDbPolyline
 90
        6
 70
   128
 43
0.0
 10
185.1139322061
 20
255.1931157757
 10
185.0013539333
 20
254.892361914
 10
184.6760913867
 20
254.6327315319
 10
184.1749951381
 20
254.4400110889
 10
183.5542425651
 20
254.3314859319
 10
183.113928153
 20
254.3107993949
  0
LINE
  5
114
330
1F
100
AcDbEntity
  8
0
  6
Continuous
 62
     7
370
    15
100
AcDbLine
 10
185.1139322061
 20
255.1931157757
 30
0.0
 11
185.1139322061
 21
255.4934188772
 31
0.0
  0
LWPOLYLINE
  5
115
330
1F
100
AcDbEntity
  8
0
  6
Continuous
 62
     7
370
    15
100
AcDbPolyline
 90
        6
 70
   128
 43
0.0
 10
183.113928153
 20
256.4793914605
 10
183.7759271402
 20
256.4217872966
 10
184.3632862109
 20
256.2568239916
 10
184.8097548026
 20
256.0066223193
 10
185.0649967927
 20
255.7036370087
 10
185.1139322061
 20
255.4934188772
  0
LINE
  5
116
330
1F
100
AcDbEntity
  8
0
  6
Continuous
 62
     7
370
    15
100
AcDbLine
 10
183.113928153
 20
256.4793914605
 30
0.0
 11
174.1139248151
 21
256.4793914605
 31
0.0
  0
LWPOLYLINE
  5
117
330
1F
100
AcDbEntity
  8
0
  6
Continuous
 62
     7
370
    15
100
AcDbPolyline
 90
        6
 70
   128
 43
0.0
 10
172.113920762
 20
261.9451262105
 10
172.2264990348
 20
262.3955771375
 10
172.5517615813
 20
262.8012500752
 10
173.05285783
 20
263.1132580388
 10
173.673610403
 20
263.2932864178
 10
174.1139248151
 20
263.3279688705
  0
LINE
  5
118
330
1F
100
AcDbEntity
  8
0
  6
Continuous
 62
     7
370
    15
100
AcDbLine
 10
172.113920762
 20
261.5145757843
 30
0.0
 11
172.113920762
 21
261.9451262105
 31
0.0
  0
LWPOLYLINE
  5
119
330
1F
100
AcDbEntity
  8
0
  6
Continuous
 62
     7
370
    15
100
AcDbPolyline
 90
        6
 70
   128
 43
0.0
 10
174.1139248151
 20
260.2187894333
 10
173.4519258279
 20
260.2900020827
 10
172.864551856
 20
260.4968339253
 10
172.4180981654
 20
260.819056635
 10
172.1628561753
 20
261.2237945247
 10
172.113920762
 20
261.5145757843
  0
LINE
  5
11A
330
1F
100
AcDbEntity
  8
0
  6
Continuous
 62
     7
370
    15
100
AcDbLine
 10
183.113928153
 20
260.2187894333
 30
0.0
 11
174.1139248151
 21
260.2187894333
 31
0.0
  0
LWPOLYLINE
  5
11B
330
1F
100
AcDbEntity
  8
0
  6
Continuous
 62
     7
370
    15
100
AcDbPolyline
 90
        6
 70
   128
 43
0.0
 10
185.1139322061
 20
261.5145757843
 10
185.0013539333
 20
261.0783480156
 10
184.6760913867
 20
260.697377478
 10
184.1749951381
 20
260.4117408443
 10
183.5542425651
 20
260.2497614968
 10
183.113928153
 20
260.2187894333
  0
LINE
  5
11C
330
1F
100
AcDbEntity
  8
0
  6
Continuous
 62
     7
370
    15
100
AcDbLine
 10
185.1139322061
 20
261.5145757843
 30
0.0
 11
185.1139322061
 21
261.9451262105
 31
0.0
  0
LWPOLYLINE
  5
11D
330
1F
100
AcDbEntity
  8
0
  6
Continuous
 62
     7
370
    15
100
AcDbPolyline
 90
        6
 70
   128
 43
0.0
 10
183.113928153
 20
263.3279688705
 10
183.7759271402
 20
263.2483482409
 10
184.3632862109
 20
263.0195893396
 10
184.8097548026
 20
262.6704029787
 10
185.0649967927
 20
262.2437529314
 10
185.1139322061
 20
261.9451262105
  0
LINE
  5
11E
330
1F
100
AcDbEntity
  8
0
  6
Continuous
 62
     7
370
    15
100
AcDbLine
 10
183.113928153
 20
263.3279688705
 30
0.0
 11
174.1139248151
 21
263.3279688705
 31
0.0
  0
ARC
  5
11F
330
1F
100
AcDbEntity
  8
0
  6
Continuous
 62
     7
370
    15
100
AcDbCircle
 10
173.9996860691
 20
270.2327248919
 30
0.0
 40
1.896071498745862
100
AcDbArc
 50
86.5458240607
 51
174.0233710058
  0
LINE
  5
120
330
1F
100
AcDbEntity
  8
0
  6
Continuous
 62
     7
370
    15
100
AcDbLine
 10
172.113920762
 20
269.8956556667
 30
0.0
 11
172.113920762
 21
270.4301491428
 31
0.0
  0
ARC
  5
121
330
1F
100
AcDbEntity
  8
0
  6
Continuous
 62
     7
370
    15
100
AcDbCircle
 10
173.9142149671
 20
270.0625385325
 30
0.0
 40
1.808012476685783
100
AcDbArc
 50
185.2960437653
 51
276.3417308678
  0
LINE
  5
122
330
1F
100
AcDbEntity
  8
0
  6
Continuous
 62
     7
370
    15
100
AcDbLine
 10
183.113928153
 20
268.265589704
 30
0.0
 11
174.1139248151
 21
268.265589704
 31
0.0
  0
ARC
  5
123
330
1F
100
AcDbEntity
  8
0
  6
Continuous
 62
     7
370
    15
100
AcDbCircle
 10
183.2617952616
 20
270.1261468105
 30
0.0
 40
1.866423700159691
100
AcDbArc
 50
265.4559894033
 51
352.9062359636
  0
LINE
  5
124
330
1F
100
AcDbEntity
  8
0
  6
Continuous
 62
     7
370
    15
100
AcDbLine
 10
185.1139322061
 20
269.8956556667
 30
0.0
 11
185.1139322061
 21
270.4301491428
 31
0.0
  0
ARC
  5
125
330
1F
100
AcDbEntity
  8
0
  6
Continuous
 62
     7
370
    15
100
AcDbCircle
 10
183.2710328049
 20
270.2832981876
 30
0.0
 40
1.84874103267584
100
AcDbArc
 50
4.5559724742
 51
94.8748324593
  0
LINE
  5
126
330
1F
100
AcDbEntity
  8
0
  6
Continuous
 62
     7
370
    15
100
AcDbLine
 10
183.113928153
 20
272.1253518064
 30
0.0
 11
174.1139248151
 21
272.1253518064
 31
0.0
  0
ARC
  5
127
330
1F
100
AcDbEntity
  8
0
  6
Continuous
 62
     7
370
    15
100
AcDbCircle
 10
173.7351982906
 20
249.3663092168
 30
0.0
 40
2.647823400780442
100
AcDbArc
 50
81.7766001332
 51
127.7564120478
  0
LINE
  5
128
330
1F
100
AcDbEntity
  8
0
  6
Continuous
 62
     7
370
    15
100
AcDbLine
 10
172.113920762
 20
251.3085767675
 30
0.0
 11
172.113920762
 21
251.4597341467
 31
0.0
  0
LWPOLYLINE
  5
129
330
1F
100
AcDbEntity
  8
0
  6
Continuous
 62
     7
370
    15
100
AcDbPolyline
 90
        6
 70
   128
 43
0.0
 10
174.1139248151
 20
250.8953563917
 10
173.4519258279
 20
250.9163297761
 10
172.864551856
 20
250.9784415413
 10
172.4180981654
 20
251.0786518503
 10
172.1628561753
 20
251.2102514554
 10
172.113920762
 20
251.3085767675
  0
LINE
  5
12A
330
1F
100
AcDbEntity
  8
0
  6
Continuous
 62
     7
370
    15
100
AcDbLine
 10
183.113928153
 20
250.8953563917
 30
0.0
 11
174.1139248151
 21
250.8953563917
 31
0.0
  0
ARC
  5
12B
330
1F
100
AcDbEntity
  8
0
  6
Continuous
 62
     7
370
    15
100
AcDbCircle
 10
183.5369502628
 20
253.8945737199
 30
0.0
 40
3.028902819055129
100
AcDbArc
 50
261.9717217278
 51
301.3755009605
  0
LINE
  5
12C
330
1F
100
AcDbEntity
  8
0
  6
Continuous
 62
     7
370
    15
100
AcDbLine
 10
185.1139322061
 20
251.3085767675
 30
0.0
 11
185.1139322061
 21
251.4597341467
 31
0.0
  0
LWPOLYLINE
  5
12D
330
1F
100
AcDbEntity
  8
0
  6
Continuous
 62
     7
370
    15
100
AcDbPolyline
 90
        6
 70
   128
 43
0.0
 10
183.113928153
 20
251.9869074274
 10
183.7759271402
 20
251.9549295355
 10
184.3632862109
 20
251.8641144086
 10
184.8097548026
 20
251.7286106992
 10
185.0649967927
 20
251.5683300842
 10
185.1139322061
 20
251.4597341467
  0
LINE
  5
12E
330
1F
100
AcDbEntity
  8
0
  6
Continuous
 62
     7
370
    15
100
AcDbLine
 10
183.113928153
 20
251.9869074274
 30
0.0
 11
174.1139248151
 21
251.9869074274
 31
0.0
  0
LWPOLYLINE
  5
12F
330
1F
100
AcDbEntity
  8
0
  6
Continuous
 62
     7
370
    15
100
AcDbPolyline
 90
        6
 70
   128
 43
0.0
 10
282.1139238912
 20
255.1931157757
 10
282.0013493437
 20
254.892361914
 10
281.6760905225
 20
254.6327315319
 10
281.1749979991
 20
254.4400110889
 10
280.5542454261
 20
254.3314859319
 10
280.1139235634
 20
254.3107993949
  0
LINE
  5
130
330
1F
100
AcDbEntity
  8
0
  6
Continuous
 62
     7
370
    15
100
AcDbLine
 10
282.1139238912
 20
255.1931157757
 30
0.0
 11
282.1139238912
 21
255.4934188772
 31
0.0
  0
LWPOLYLINE
  5
131
330
1F
100
AcDbEntity
  8
0
  6
Continuous
 62
     7
370
    15
100
AcDbPolyline
 90
        6
 70
   128
 43
0.0
 10
280.1139235634
 20
256.4793914605
 10
280.7759262759
 20
256.4217872966
 10
281.363289072
 20
256.2568239916
 10
281.8097502131
 20
256.0066223193
 10
282.0649959285
 20
255.7036370087
 10
282.1139238912
 20
255.4934188772
  0
LINE
  5
132
330
1F
100
AcDbEntity
  8
0
  6
Continuous
 62
     7
370
    15
100
AcDbLine
 10
271.1139276761
 20
256.4793914605
 30
0.0
 11
280.1139235634
 21
256.4793914605
 31
0.0
  0
LWPOLYLINE
  5
133
330
1F
100
AcDbEntity
  8
0
  6
Continuous
 62
     7
370
    15
100
AcDbPolyline
 90
        6
 70
   128
 43
0.0
 10
269.113923623
 20
255.4934188772
 10
269.2265018958
 20
255.8111041833
 10
269.5517569918
 20
256.1001457322
 10
270.0528532404
 20
256.3242703725
 10
270.6736058134
 20
256.4542904545
 10
271.1139276761
 20
256.4793914605
  0
LINE
  5
134
330
1F
100
AcDbEntity
  8
0
  6
Continuous
 62
     7
370
    15
100
AcDbLine
 10
269.113923623
 20
255.1931157757
 30
0.0
 11
269.113923623
 21
255.4934188772
 31
0.0
  0
LWPOLYLINE
  5
135
330
1F
100
AcDbEntity
  8
0
  6
Continuous
 62
     7
370
    15
100
AcDbPolyline
 90
        6
 70
   128
 43
0.0
 10
271.1139276761
 20
254.3107993949
 10
270.4519286889
 20
254.3583937038
 10
269.8645621676
 20
254.4972464491
 10
269.4181010265
 20
254.7153398443
 10
269.1628515858
 20
254.9922369469
 10
269.113923623
 20
255.1931157757
  0
LINE
  5
136
330
1F
100
AcDbEntity
  8
0
  6
Continuous
 62
     7
370
    15
100
AcDbLine
 10
271.1139276761
 20
254.3107993949
 30
0.0
 11
280.1139235634
 21
254.3107993949
 31
0.0
  0
LWPOLYLINE
  5
137
330
1F
100
AcDbEntity
  8
0
  6
Continuous
 62
     7
370
    15
100
AcDbPolyline
 90
        6
 70
   128
 43
0.0
 10
282.1139238912
 20
261.5145757843
 10
282.0013493437
 20
261.0783480156
 10
281.6760905225
 20
260.697377478
 10
281.1749979991
 20
260.4117408443
 10
280.5542454261
 20
260.2497614968
 10
280.1139235634
 20
260.2187894333
  0
LINE
  5
138
330
1F
100
AcDbEntity
  8
0
  6
Continuous
 62
     7
370
    15
100
AcDbLine
 10
282.1139238912
 20
261.5145757843
 30
0.0
 11
282.1139238912
 21
261.9451262105
 31
0.0
  0
LWPOLYLINE
  5
139
330
1F
100
AcDbEntity
  8
0
  6
Continuous
 62
     7
370
    15
100
AcDbPolyline
 90
        6
 70
   128
 43
0.0
 10
280.1139235634
 20
263.3279688705
 10
280.7759262759
 20
263.2483482409
 10
281.363289072
 20
263.0195893396
 10
281.8097502131
 20
262.6704029787
 10
282.0649959285
 20
262.2437529314
 10
282.1139238912
 20
261.9451262105
  0
LINE
  5
13A
330
1F
100
AcDbEntity
  8
0
  6
Continuous
 62
     7
370
    15
100
AcDbLine
 10
271.1139276761
 20
263.3279688705
 30
0.0
 11
280.1139235634
 21
263.3279688705
 31
0.0
  0
LWPOLYLINE
  5
13B
330
1F
100
AcDbEntity
  8
0
  6
Continuous
 62
     7
370
    15
100
AcDbPolyline
 90
        6
 70
   128
 43
0.0
 10
269.113923623
 20
261.9451262105
 10
269.2265018958
 20
262.3955771375
 10
269.5517569918
 20
262.8012500752
 10
270.0528532404
 20
263.1132580388
 10
270.6736058134
 20
263.2932864178
 10
271.1139276761
 20
263.3279688705
  0
LINE
  5
13C
330
1F
100
AcDbEntity
  8
0
  6
Continuous
 62
     7
370
    15
100
AcDbLine
 10
269.113923623
 20
261.5145757843
 30
0.0
 11
269.113923623
 21
261.9451262105
 31
0.0
  0
LWPOLYLINE
  5
13D
330
1F
100
AcDbEntity
  8
0
  6
Continuous
 62
     7
370
    15
100
AcDbPolyline
 90
        6
 70
   128
 43
0.0
 10
271.1139276761
 20
260.2187894333
 10
270.4519286889
 20
260.2900020827
 10
269.8645621676
 20
260.4968339253
 10
269.4181010265
 20
260.819056635
 10
269.1628515858
 20
261.2237945247
 10
269.113923623
 20
261.5145757843
  0
LINE
  5
13E
330
1F
100
AcDbEntity
  8
0
  6
Continuous
 62
     7
370
    15
100
AcDbLine
 10
271.1139276761
 20
260.2187894333
 30
0.0
 11
280.1139235634
 21
260.2187894333
 31
0.0
  0
ARC
  5
13F
330
1F
100
AcDbEntity
  8
0
  6
Continuous
 62
     7
370
    15
100
AcDbCircle
 10
280.2617994178
 20
270.1261318471
 30
0.0
 40
1.866409476721998
100
AcDbArc
 50
265.4556853738
 51
352.9066445207
  0
LINE
  5
140
330
1F
100
AcDbEntity
  8
0
  6
Continuous
 62
     7
370
    15
100
AcDbLine
 10
282.1139238912
 20
269.8956556667
 30
0.0
 11
282.1139238912
 21
270.4301491428
 31
0.0
  0
ARC
  5
141
330
1F
100
AcDbEntity
  8
0
  6
Continuous
 62
     7
370
    15
100
AcDbCircle
 10
280.2710411959
 20
270.283317552
 30
0.0
 40
1.848722841496905
100
AcDbArc
 50
4.5554153549
 51
94.8752842994
  0
LINE
  5
142
330
1F
100
AcDbEntity
  8
0
  6
Continuous
 62
     7
370
    15
100
AcDbLine
 10
271.1139276761
 20
272.1253518064
 30
0.0
 11
280.1139235634
 21
272.1253518064
 31
0.0
  0
ARC
  5
143
330
1F
100
AcDbEntity
  8
0
  6
Continuous
 62
     7
370
    15
100
AcDbCircle
 10
270.9996831282
 20
270.232731737
 30
0.0
 40
1.896065015625163
100
AcDbArc
 50
86.5456365923
 51
174.0235584742
  0
LINE
  5
144
330
1F
100
AcDbEntity
  8
0
  6
Continuous
 62
     7
370
    15
100
AcDbLine
 10
269.113923623
 20
269.8956556667
 30
0.0
 11
269.113923623
 21
270.4301491428
 31
0.0
  0
ARC
  5
145
330
1F
100
AcDbEntity
  8
0
  6
Continuous
 62
     7
370
    15
100
AcDbCircle
 10
270.9142074786
 20
270.0625258343
 30
0.0
 40
1.808000999358406
100
AcDbArc
 50
185.2956733467
 51
276.3421012864
  0
LINE
  5
146
330
1F
100
AcDbEntity
  8
0
  6
Continuous
 62
     7
370
    15
100
AcDbLine
 10
271.1139276761
 20
268.265589704
 30
0.0
 11
280.1139235634
 21
268.265589704
 31
0.0
  0
ARC
  5
147
330
1F
100
AcDbEntity
  8
0
  6
Continuous
 62
     7
370
    15
100
AcDbCircle
 10
280.5369519964
 20
253.8945288988
 30
0.0
 40
3.028859320356592
100
AcDbArc
 50
261.9714848734
 51
301.375780109
  0
LINE
  5
148
330
1F
100
AcDbEntity
  8
0
  6
Continuous
 62
     7
370
    15
100
AcDbLine
 10
282.1139238912
 20
251.3085767675
 30
0.0
 11
282.1139238912
 21
251.4597341467
 31
0.0
  0
LWPOLYLINE
  5
149
330
1F
100
AcDbEntity
  8
0
  6
Continuous
 62
     7
370
    15
100
AcDbPolyline
 90
        6
 70
   128
 43
0.0
 10
280.1139235634
 20
251.9869074274
 10
280.7759262759
 20
251.9549295355
 10
281.363289072
 20
251.8641144086
 10
281.8097502131
 20
251.7286106992
 10
282.0649959285
 20
251.5683300842
 10
282.1139238912
 20
251.4597341467
  0
LINE
  5
14A
330
1F
100
AcDbEntity
  8
0
  6
Continuous
 62
     7
370
    15
100
AcDbLine
 10
271.1139276761
 20
251.9869074274
 30
0.0
 11
280.1139235634
 21
251.9869074274
 31
0.0
  0
ARC
  5
14B
330
1F
100
AcDbEntity
  8
0
  6
Continuous
 62
     7
370
    15
100
AcDbCircle
 10
270.7351964182
 20
249.3663271746
 30
0.0
 40
2.647806304663059
100
AcDbArc
 50
81.7764431789
 51
127.7565690021
  0
LINE
  5
14C
330
1F
100
AcDbEntity
  8
0
  6
Continuous
 62
     7
370
    15
100
AcDbLine
 10
269.113923623
 20
251.3085767675
 30
0.0
 11
269.113923623
 21
251.4597341467
 31
0.0
  0
LWPOLYLINE
  5
14D
330
1F
100
AcDbEntity
  8
0
  6
Continuous
 62
     7
370
    15
100
AcDbPolyline
 90
        6
 70
   128
 43
0.0
 10
271.1139276761
 20
250.8953563917
 10
270.4519286889
 20
250.9163297761
 10
269.8645621676
 20
250.9784415413
 10
269.4181010265
 20
251.0786518503
 10
269.1628515858
 20
251.2102514554
 10
269.113923623
 20
251.3085767675
  0
LINE
  5
14E
330
1F
100
AcDbEntity
  8
0
  6
Continuous
 62
     7
370
    15
100
AcDbLine
 10
271.1139276761
 20
250.8953563917
 30
0.0
 11
280.1139235634
 21
250.8953563917
 31
0.0
  0
ARC
  5
14F
330
1F
100
AcDbEntity
  8
0
  6
Continuous
 62
     7
370
    15
100
AcDbCircle
 10
174.0206008206
 20
259.2560422059
 30
0.0
 40
3.495220137868666
100
AcDbArc
 50
245.2015213364
 51
271.5300056469
  0
ARC
  5
150
330
1F
100
AcDbEntity
  8
0
  6
Continuous
 62
     7
370
    15
100
AcDbCircle
 10
183.2830272146
 20
258.7473130526
 30
0.0
 40
2.990030334232204
100
AcDbArc
 50
266.7579477125
 51
297.7357689822
  0
LINE
  5
151
330
1F
100
AcDbEntity
  8
0
  6
Continuous
 62
     7
370
    15
100
AcDbLine
 10
183.113928153
 20
255.7620681871
 30
0.0
 11
174.1139248151
 21
255.7620681871
 31
0.0
  0
ARC
  5
152
330
1F
100
AcDbEntity
  8
0
  6
Continuous
 62
     7
370
    15
100
AcDbCircle
 10
173.8447756473
 20
263.3561814925
 30
0.0
 40
1.914726800405033
100
AcDbArc
 50
212.010393813
 51
278.0807107763
  0
ARC
  5
153
330
1F
100
AcDbEntity
  8
0
  6
Continuous
 62
     7
370
    15
100
AcDbCircle
 10
183.3412736151
 20
263.4074046525
 30
0.0
 40
1.960167416001085
100
AcDbArc
 50
263.3396924747
 51
328.1771138391
  0
LINE
  5
154
330
1F
100
AcDbEntity
  8
0
  6
Continuous
 62
     7
370
    15
100
AcDbLine
 10
183.113928153
 20
261.4604659427
 30
0.0
 11
174.1139248151
 21
261.4604659427
 31
0.0
  0
ARC
  5
155
330
1F
100
AcDbEntity
  8
0
  6
Continuous
 62
     7
370
    15
100
AcDbCircle
 10
173.9304523374
 20
271.0352735407
 30
0.0
 40
1.822741217695955
100
AcDbArc
 50
196.6174558159
 51
275.7770304509
  0
ARC
  5
156
330
1F
100
AcDbEntity
  8
0
  6
Continuous
 62
     7
370
    15
100
AcDbCircle
 10
183.3133892287
 20
271.018943882
 30
0.0
 40
1.808189047887902
100
AcDbArc
 50
263.6668222159
 51
354.7290606486
  0
LINE
  5
157
330
1F
100
AcDbEntity
  8
0
  6
Continuous
 62
     7
370
    15
100
AcDbLine
 10
183.113928153
 20
269.2217897672
 30
0.0
 11
174.1139248151
 21
269.2217897672
 31
0.0
  0
ARC
  5
158
330
1F
100
AcDbEntity
  8
0
  6
Continuous
 62
     7
370
    15
100
AcDbCircle
 10
280.2830235613
 20
258.7473393447
 30
0.0
 40
2.990056637241352
100
AcDbArc
 50
266.7579582938
 51
297.7356449966
  0
LINE
  5
159
330
1F
100
AcDbEntity
  8
0
  6
Continuous
 62
     7
370
    15
100
AcDbLine
 10
271.1139276761
 20
255.7620681871
 30
0.0
 11
280.1139235634
 21
255.7620681871
 31
0.0
  0
ARC
  5
15A
330
1F
100
AcDbEntity
  8
0
  6
Continuous
 62
     7
370
    15
100
AcDbCircle
 10
271.0206096608
 20
259.256105267
 30
0.0
 40
3.495283016864409
100
AcDbArc
 50
245.201755062
 51
271.529880069
  0
ARC
  5
15B
330
1F
100
AcDbEntity
  8
0
  6
Continuous
 62
     7
370
    15
100
AcDbCircle
 10
280.3412837936
 20
263.4073740467
 30
0.0
 40
1.960138729683053
100
AcDbArc
 50
263.3391599514
 51
328.1776463624
  0
LINE
  5
15C
330
1F
100
AcDbEntity
  8
0
  6
Continuous
 62
     7
370
    15
100
AcDbLine
 10
271.1139276761
 20
261.4604659427
 30
0.0
 11
280.1139235634
 21
261.4604659427
 31
0.0
  0
ARC
  5
15D
330
1F
100
AcDbEntity
  8
0
  6
Continuous
 62
     7
370
    15
100
AcDbCircle
 10
270.8448613549
 20
263.3563732619
 30
0.0
 40
1.91490502331645
100
AcDbArc
 50
212.0138271581
 51
278.0774499723
  0
ARC
  5
15E
330
1F
100
AcDbEntity
  8
0
  6
Continuous
 62
     7
370
    15
100
AcDbCircle
 10
280.3134078502
 20
271.0189113079
 30
0.0
 40
1.808159233261978
100
AcDbArc
 50
263.6659773474
 51
354.7300100574
  0
LINE
  5
15F
330
1F
100
AcDbEntity
  8
0
  6
Continuous
 62
     7
370
    15
100
AcDbLine
 10
271.1139276761
 20
269.2217897672
 30
0.0
 11
280.1139235634
 21
269.2217897672
 31
0.0
  0
ARC
  5
160
330
1F
100
AcDbEntity
  8
0
  6
Continuous
 62
     7
370
    15
100
AcDbCircle
 10
270.9304688567
 20
271.0353040117
 30
0.0
 40
1.822770159239104
100
AcDbArc
 50
196.6181838659
 51
275.7765068948
  0
LINE
  5
161
330
1F
100
AcDbEntity
  8
0
  6
Continuous
 62
     7
370
    15
100
AcDbLine
 10
323.6139241744
 20
300.4632537302
 30
0.0
 11
323.6139241744
 21
289.9737144869
 31
0.0
  0
LINE
  5
162
330
1F
100
AcDbEntity
  8
0
  6
Continuous
 62
     7
370
    15
100
AcDbLine
 10
328.6139249939
 20
299.7994856957
 30
0.0
 11
328.6139249939
 21
290.6374825213
 31
0.0
  0
LINE
  5
163
330
1F
100
AcDbEntity
  8
0
  6
Continuous
 62
     7
370
    15
100
AcDbLine
 10
320.6139255453
 20
339.0453584541
 30
0.0
 11
323.6139241744
 21
339.0453584541
 31
0.0
  0
LINE
  5
164
330
1F
100
AcDbEntity
  8
0
  6
Continuous
 62
     7
370
    15
100
AcDbLine
 10
320.6139255453
 20
339.0453584541
 30
0.0
 11
320.6139255453
 21
343.1419186342
 31
0.0
  0
LINE
  5
165
330
1F
100
AcDbEntity
  8
0
  6
Continuous
 62
     7
370
    15
100
AcDbLine
 10
323.6139241744
 20
300.4632537302
 30
0.0
 11
323.6139241744
 21
339.0453584541
 31
0.0
  0
LINE
  5
166
330
1F
100
AcDbEntity
  8
0
  6
Continuous
 62
     7
370
    15
100
AcDbLine
 10
320.6139255453
 20
247.2950495828
 30
0.0
 11
320.6139255453
 21
251.391609763
 31
0.0
  0
LINE
  5
167
330
1F
100
AcDbEntity
  8
0
  6
Continuous
 62
     7
370
    15
100
AcDbLine
 10
320.6139255453
 20
251.391609763
 30
0.0
 11
323.6139241744
 21
251.391609763
 31
0.0
  0
LINE
  5
168
330
1F
100
AcDbEntity
  8
0
  6
Continuous
 62
     7
370
    15
100
AcDbLine
 10
323.6139241744
 20
251.391609763
 30
0.0
 11
323.6139241744
 21
289.9737144869
 31
0.0
  0
LINE
  5
169
330
1F
100
AcDbEntity
  8
0
  6
Continuous
 62
     7
370
    15
100
AcDbLine
 10
320.6139255453
 20
251.391609763
 30
0.0
 11
320.6139255453
 21
263.521568482
 31
0.0
  0
LWPOLYLINE
  5
16A
330
1F
100
AcDbEntity
  8
0
  6
Continuous
 62
     7
370
    15
100
AcDbPolyline
 90
        3
 70
   128
 43
0.0
 10
323.6139241744
 20
262.948078667
 10
321.9450704891
 20
263.2670827258
 10
320.6139255453
 20
263.521568482
  0
LWPOLYLINE
  5
16B
330
1F
100
AcDbEntity
  8
0
  6
Continuous
 62
     7
370
    15
100
AcDbPolyline
 90
        3
 70
   128
 43
0.0
 10
320.6139255453
 20
326.915399735
 10
321.2018992889
 20
327.0278103698
 10
323.6139241744
 20
327.48888955
  0
LINE
  5
16C
330
1F
100
AcDbEntity
  8
0
  6
Continuous
 62
     7
370
    15
100
AcDbLine
 10
320.6139255453
 20
326.915399735
 30
0.0
 11
320.6139255453
 21
339.0453584541
 31
0.0
  0
LINE
  5
16D
330
1F
100
AcDbEntity
  8
0
  6
Continuous
 62
     7
370
    15
100
AcDbLine
 10
320.6139255453
 20
241.8673425961
 30
0.0
 11
320.6139255453
 21
247.2950495828
 31
0.0
  0
LINE
  5
16E
330
1F
100
AcDbEntity
  8
0
  6
Continuous
 62
     7
370
    15
100
AcDbLine
 10
320.6139255453
 20
343.1419186342
 30
0.0
 11
320.6139255453
 21
348.5696256209
 31
0.0
  0
LINE
  5
16F
330
1F
100
AcDbEntity
  8
0
  6
Continuous
 62
     7
370
    15
100
AcDbLine
 10
320.6139255453
 20
241.4921164561
 30
0.0
 11
323.6139241744
 21
241.4921164561
 31
0.0
  0
LINE
  5
170
330
1F
100
AcDbEntity
  8
0
  6
Continuous
 62
     7
370
    15
100
AcDbLine
 10
323.6139241744
 20
237.9581794191
 30
0.0
 11
323.6139241744
 21
241.4921164561
 31
0.0
  0
LINE
  5
171
330
1F
100
AcDbEntity
  8
0
  6
Continuous
 62
     7
370
    15
100
AcDbLine
 10
320.6139255453
 20
241.4921164561
 30
0.0
 11
320.6139255453
 21
241.8673425961
 31
0.0
  0
LINE
  5
172
330
1F
100
AcDbEntity
  8
0
  6
Continuous
 62
     7
370
    15
100
AcDbLine
 10
320.6139255453
 20
348.9448517609
 30
0.0
 11
323.6139241744
 21
348.9448517609
 31
0.0
  0
LINE
  5
173
330
1F
100
AcDbEntity
  8
0
  6
Continuous
 62
     7
370
    15
100
AcDbLine
 10
323.6139241744
 20
348.9448517609
 30
0.0
 11
323.6139241744
 21
352.0432315815
 31
0.0
  0
LINE
  5
174
330
1F
100
AcDbEntity
  8
0
  6
Continuous
 62
     7
370
    15
100
AcDbLine
 10
320.6139255453
 20
348.5696256209
 30
0.0
 11
320.6139255453
 21
348.9448517609
 31
0.0
  0
LWPOLYLINE
  5
175
330
1F
100
AcDbEntity
  8
0
  6
Continuous
 62
     7
370
    15
100
AcDbPolyline
 90
        4
 70
   128
 43
0.0
 10
315.6139247257
 20
250.180312996
 10
303.6463998396
 20
252.556478237
 10
299.8150803286
 20
253.322021668
 10
297.1139244873
 20
253.8629002917
  0
LINE
  5
176
330
1F
100
AcDbEntity
  8
0
  6
Continuous
 62
     7
370
    15
100
AcDbLine
 10
297.1139244873
 20
275.0761020977
 30
0.0
 11
297.1139244873
 21
253.8629002917
 31
0.0
  0
LWPOLYLINE
  5
177
330
1F
100
AcDbEntity
  8
0
  6
Continuous
 62
     7
370
    15
100
AcDbPolyline
 90
        4
 70
   128
 43
0.0
 10
323.6139241744
 20
269.8064833928
 10
318.1875098634
 20
270.8795830656
 10
299.6301047641
 20
274.5722323704
 10
297.1139244873
 20
275.0761020977
  0
LINE
  5
178
330
1F
100
AcDbEntity
  8
0
  6
Continuous
 62
     7
370
    15
100
AcDbLine
 10
297.1139244873
 20
275.0761020977
 30
0.0
 11
296.113926186
 21
275.0761020977
 31
0.0
  0
LWPOLYLINE
  5
179
330
1F
100
AcDbEntity
  8
0
  6
Continuous
 62
     7
370
    15
100
AcDbPolyline
 90
        3
 70
   128
 43
0.0
 10
296.113926186
 20
279.1814912159
 10
314.9975083906
 20
275.3638416577
 10
316.113925739
 20
275.1399479855
  0
LINE
  5
17A
330
1F
100
AcDbEntity
  8
0
  6
Continuous
 62
     7
370
    15
100
AcDbLine
 10
316.113925739
 20
275.0761020977
 30
0.0
 11
323.6139241744
 21
275.0761020977
 31
0.0
  0
LWPOLYLINE
  5
17B
330
1F
100
AcDbEntity
  8
0
  6
Continuous
 62
     7
370
    15
100
AcDbPolyline
 90
        5
 70
   128
 43
0.0
 10
323.6139241744
 20
320.6304848242
 10
317.570858835
 20
319.4352682728
 10
299.0139268476
 20
315.7414250124
 10
298.9728517968
 20
315.7332032967
 10
297.1139244873
 20
315.3608661193
  0
LINE
  5
17C
330
1F
100
AcDbEntity
  8
0
  6
Continuous
 62
     7
370
    15
100
AcDbLine
 10
297.1139244873
 20
336.5740679253
 30
0.0
 11
297.1139244873
 21
315.3608661193
 31
0.0
  0
LWPOLYLINE
  5
17D
330
1F
100
AcDbEntity
  8
0
  6
Continuous
 62
     7
370
    15
100
AcDbPolyline
 90
        4
 70
   128
 43
0.0
 10
315.6139247257
 20
340.2589350987
 10
299.0139268476
 20
336.954628681
 10
298.0453327436
 20
336.7606863428
 10
297.1139244873
 20
336.5740679253
  0
LINE
  5
17E
330
1F
100
AcDbEntity
  8
0
  6
Continuous
 62
     7
370
    15
100
AcDbLine
 10
316.113925739
 20
315.3608661193
 30
0.0
 11
323.6139241744
 21
315.3608661193
 31
0.0
  0
LWPOLYLINE
  5
17F
330
1F
100
AcDbEntity
  8
0
  6
Continuous
 62
     7
370
    15
100
AcDbPolyline
 90
        3
 70
   128
 43
0.0
 10
296.113926186
 20
311.2554770011
 10
297.922837748
 20
311.6240255583
 10
316.113925739
 20
315.2970202316
  0
LINE
  5
180
330
1F
100
AcDbEntity
  8
0
  6
Continuous
 62
     7
370
    15
100
AcDbLine
 10
297.1139244873
 20
315.3608661193
 30
0.0
 11
296.113926186
 21
315.3608661193
 31
0.0
  0
LINE
  5
181
330
1F
100
AcDbEntity
  8
0
  6
Continuous
 62
     7
370
    15
100
AcDbLine
 10
316.113925739
 20
315.3608661193
 30
0.0
 11
316.113925739
 21
275.0761020977
 31
0.0
  0
LINE
  5
182
330
1F
100
AcDbEntity
  8
0
  6
Continuous
 62
     7
370
    15
100
AcDbLine
 10
296.113926186
 20
275.0761020977
 30
0.0
 11
296.113926186
 21
315.3608661193
 31
0.0
  0
LINE
  5
183
330
1F
100
AcDbEntity
  8
0
  6
Continuous
 62
     7
370
    15
100
AcDbLine
 10
297.1139244873
 20
253.8629002917
 30
0.0
 11
296.113926186
 21
253.8629002917
 31
0.0
  0
LINE
  5
184
330
1F
100
AcDbEntity
  8
0
  6
Continuous
 62
     7
370
    15
100
AcDbLine
 10
296.113926186
 20
249.2184840191
 30
0.0
 11
296.113926186
 21
253.8629002917
 31
0.0
  0
LINE
  5
185
330
1F
100
AcDbEntity
  8
0
  6
Continuous
 62
     7
370
    15
100
AcDbLine
 10
296.113926186
 20
336.5740679253
 30
0.0
 11
296.113926186
 21
341.2184841979
 31
0.0
  0
LINE
  5
186
330
1F
100
AcDbEntity
  8
0
  6
Continuous
 62
     7
370
    15
100
AcDbLine
 10
297.1139244873
 20
336.5740679253
 30
0.0
 11
296.113926186
 21
336.5740679253
 31
0.0
  0
LINE
  5
187
330
1F
100
AcDbEntity
  8
0
  6
Continuous
 62
     7
370
    15
100
AcDbLine
 10
290.1139252025
 20
341.2184841979
 30
0.0
 11
290.1139252025
 21
249.2184840191
 31
0.0
  0
LINE
  5
188
330
1F
100
AcDbEntity
  8
0
  6
Continuous
 62
     7
370
    15
100
AcDbLine
 10
302.1139234442
 20
312.6051534016
 30
0.0
 11
302.1139234442
 21
277.869253983
 31
0.0
  0
LINE
  5
189
330
1F
100
AcDbEntity
  8
0
  6
Continuous
 62
     7
370
    15
100
AcDbLine
 10
312.1139250833
 20
307.7184842948
 30
0.0
 11
312.1139250833
 21
280.7184845257
 31
0.0
  0
LINE
  5
18A
330
1F
100
AcDbEntity
  8
0
  6
Continuous
 62
     7
370
    15
100
AcDbLine
 10
323.6139241744
 20
352.0432315815
 30
0.0
 11
323.6139241744
 21
352.7184851516
 31
0.0
  0
LINE
  5
18B
330
1F
100
AcDbEntity
  8
0
  6
Continuous
 62
     7
370
    15
100
AcDbLine
 10
323.6139241744
 20
352.7184851516
 30
0.0
 11
302.1342784304
 21
346.9630308498
 31
0.0
  0
LINE
  5
18C
330
1F
100
AcDbEntity
  8
0
  6
Continuous
 62
     7
370
    15
100
AcDbLine
 10
302.1342784304
 20
346.9630308498
 30
0.0
 11
304.5222267646
 21
338.0510821987
 31
0.0
  0
LINE
  5
18D
330
1F
100
AcDbEntity
  8
0
  6
Continuous
 62
     7
370
    15
100
AcDbLine
 10
310.901181041
 20
314.2445065129
 30
0.0
 11
312.1139250833
 21
309.7184836913
 31
0.0
  0
LINE
  5
18E
330
1F
100
AcDbEntity
  8
0
  6
Continuous
 62
     7
370
    15
100
AcDbLine
 10
312.1139250833
 20
307.7184842948
 30
0.0
 11
316.113925739
 21
307.7184842948
 31
0.0
  0
LINE
  5
18F
330
1F
100
AcDbEntity
  8
0
  6
Continuous
 62
     7
370
    15
100
AcDbLine
 10
312.1139250833
 20
309.7184836913
 30
0.0
 11
312.1139250833
 21
307.7184842948
 31
0.0
  0
LINE
  5
190
330
1F
100
AcDbEntity
  8
0
  6
Continuous
 62
     7
370
    15
100
AcDbLine
 10
323.6139241744
 20
237.9581794191
 30
0.0
 11
323.6139241744
 21
237.7184830654
 31
0.0
  0
LINE
  5
191
330
1F
100
AcDbEntity
  8
0
  6
Continuous
 62
     7
370
    15
100
AcDbLine
 10
328.6139249939
 20
237.9012569833
 30
0.0
 11
328.6139249939
 21
237.7184830654
 31
0.0
  0
LINE
  5
192
330
1F
100
AcDbEntity
  8
0
  6
Continuous
 62
     7
370
    15
100
AcDbLine
 10
328.6139249939
 20
352.7184851516
 30
0.0
 11
328.6139249939
 21
352.5357112337
 31
0.0
  0
LINE
  5
193
330
1F
100
AcDbEntity
  8
0
  6
Continuous
 62
     7
370
    15
100
AcDbLine
 10
328.6139249939
 20
299.7994856957
 30
0.0
 11
328.6139249939
 21
290.6374825213
 31
0.0
  0
LINE
  5
194
330
1F
100
AcDbEntity
  8
0
  6
Continuous
 62
     7
370
    15
100
AcDbLine
 10
336.6139249082
 20
299.7994856957
 30
0.0
 11
336.6139249082
 21
290.6374825213
 31
0.0
  0
LINE
  5
195
330
1F
100
AcDbEntity
  8
0
  6
Continuous
 62
     7
370
    15
100
AcDbLine
 10
328.6139249939
 20
290.6374825213
 30
0.0
 11
328.6139249939
 21
247.3244756509
 31
0.0
  0
LINE
  5
196
330
1F
100
AcDbEntity
  8
0
  6
Continuous
 62
     7
370
    15
100
AcDbLine
 10
336.6139249082
 20
290.6374825213
 30
0.0
 11
336.6139249082
 21
247.3244756509
 31
0.0
  0
LINE
  5
197
330
1F
100
AcDbEntity
  8
0
  6
Continuous
 62
     7
370
    15
100
AcDbLine
 10
328.6139249939
 20
343.1124925662
 30
0.0
 11
328.6139249939
 21
299.7994856957
 31
0.0
  0
LINE
  5
198
330
1F
100
AcDbEntity
  8
0
  6
Continuous
 62
     7
370
    15
100
AcDbLine
 10
336.6139249082
 20
343.1124925662
 30
0.0
 11
336.6139249082
 21
299.7994856957
 31
0.0
  0
LINE
  5
199
330
1F
100
AcDbEntity
  8
0
  6
Continuous
 62
     7
370
    15
100
AcDbLine
 10
348.6139245469
 20
336.7952309597
 30
0.0
 11
348.6139245469
 21
333.3288781393
 31
0.0
  0
LWPOLYLINE
  5
19A
330
1F
100
AcDbEntity
  8
0
  6
Continuous
 62
     7
370
    15
100
AcDbPolyline
 90
        8
 70
   128
 43
0.0
 10
347.9136351634
 20
301.4453170869
 10
348.1548756499
 20
308.2723846707
 10
348.3494969222
 20
314.9504210848
 10
348.4459698338
 20
319.0313294578
 10
348.5203489799
 20
322.9295253802
 10
348.5738776762
 20
326.7211370218
 10
348.6047575388
 20
330.2630312789
 10
348.6139245469
 20
333.3288781393
  0
LINE
  5
19B
330
1F
100
AcDbEntity
  8
0
  6
Continuous
 62
     7
370
    15
100
AcDbLine
 10
348.6139245469
 20
333.3288781393
 30
0.0
 11
348.6139245469
 21
293.1761370089
 31
0.0
  0
LWPOLYLINE
  5
19C
330
1F
100
AcDbEntity
  8
0
  6
Continuous
 62
     7
370
    15
100
AcDbPolyline
 90
       12
 70
   128
 43
0.0
 10
348.6139245469
 20
293.1761370089
 10
348.6120488632
 20
285.0748268936
 10
348.6084325377
 20
277.0264070529
 10
348.6067608136
 20
273.0780668605
 10
348.6055119101
 20
269.281509896
 10
348.6048320446
 20
265.561975171
 10
348.6048283193
 20
262.0571568657
 10
348.6059403184
 20
257.6157726396
 10
348.6081345144
 20
253.6431230653
 10
348.6112013597
 20
249.8537913013
 10
348.6136041719
 20
246.851363783
 10
348.6138845
 20
246.1677394856
  0
ARC
  5
19D
330
1F
100
AcDbEntity
  8
0
  6
Continuous
 62
     7
370
    15
100
AcDbCircle
 10
341.3210603641
 20
246.0378576624
 30
0.0
 40
7.293980678114575
100
AcDbArc
 50
287.2031270478
 51
1.0203327143
  0
LINE
  5
19E
330
1F
100
AcDbEntity
  8
0
  6
Continuous
 62
     7
370
    15
100
AcDbLine
 10
348.6139245469
 20
246.1676687051
 30
0.0
 11
348.6139245469
 21
293.1761370089
 31
0.0
  0
LINE
  5
19F
330
1F
100
AcDbEntity
  8
0
  6
Continuous
 62
     7
370
    15
100
AcDbLine
 10
328.6139249939
 20
247.3244756509
 30
0.0
 11
328.6139249939
 21
241.3629904438
 31
0.0
  0
LINE
  5
1A0
330
1F
100
AcDbEntity
  8
0
  6
Continuous
 62
     7
370
    15
100
AcDbLine
 10
336.6139249082
 20
247.3244756509
 30
0.0
 11
336.6139249082
 21
241.3629904438
 31
0.0
  0
LINE
  5
1A1
330
1F
100
AcDbEntity
  8
0
  6
Continuous
 62
     7
370
    15
100
AcDbLine
 10
328.6139249939
 20
349.0739777733
 30
0.0
 11
328.6139249939
 21
343.1124925662
 31
0.0
  0
LINE
  5
1A2
330
1F
100
AcDbEntity
  8
0
  6
Continuous
 62
     7
370
    15
100
AcDbLine
 10
336.6139249082
 20
349.0739777733
 30
0.0
 11
336.6139249082
 21
343.1124925662
 31
0.0
  0
LINE
  5
1A3
330
1F
100
AcDbEntity
  8
0
  6
Continuous
 62
     7
370
    15
100
AcDbLine
 10
354.8924962196
 20
283.053794508
 30
0.0
 11
354.8924962196
 21
315.7184846748
 31
0.0
  0
LWPOLYLINE
  5
1A4
330
1F
100
AcDbEntity
  8
0
  6
Continuous
 62
     7
370
    15
100
AcDbPolyline
 90
        4
 70
   128
 43
0.0
 10
348.6139245469
 20
246.1676649798
 10
352.0163178581
 20
264.5606301773
 10
353.5850050065
 20
273.7878911246
 10
354.8924962196
 20
283.053794508
  0
LINE
  5
1A5
330
1F
100
AcDbEntity
  8
0
  6
Continuous
 62
     7
370
    15
100
AcDbLine
 10
330.6139253217
 20
238.78698573
 30
0.0
 11
336.6139249082
 21
238.78698573
 31
0.0
  0
LINE
  5
1A6
330
1F
100
AcDbEntity
  8
0
  6
Continuous
 62
     7
370
    15
100
AcDbLine
 10
328.6139249939
 20
241.3629904438
 30
0.0
 11
328.6139249939
 21
237.9012569833
 31
0.0
  0
LINE
  5
1A7
330
1F
100
AcDbEntity
  8
0
  6
Continuous
 62
     7
370
    15
100
AcDbLine
 10
336.6139249082
 20
241.3629904438
 30
0.0
 11
336.6139249082
 21
238.78698573
 31
0.0
  0
ARC
  5
1A8
330
1F
100
AcDbEntity
  8
0
  6
Continuous
 62
     7
370
    15
100
AcDbCircle
 10
335.6324327788
 20
374.135394363
 30
0.0
 40
22.1766155683141
100
AcDbArc
 50
256.9021948448
 51
272.5366238299
  0
LINE
  5
1A9
330
1F
100
AcDbEntity
  8
0
  6
Continuous
 62
     7
370
    15
100
AcDbLine
 10
328.6139249939
 20
352.5357112337
 30
0.0
 11
328.6139249939
 21
349.0739777733
 31
0.0
  0
LINE
  5
1AA
330
1F
100
AcDbEntity
  8
0
  6
Continuous
 62
     7
370
    15
100
AcDbLine
 10
336.6139249082
 20
351.9805088688
 30
0.0
 11
336.6139249082
 21
349.0739777733
 31
0.0
  0
LINE
  5
1AB
330
1F
100
AcDbEntity
  8
0
  6
Continuous
 62
     7
370
    15
100
AcDbLine
 10
338.6075615089
 20
236.58709005
 30
0.0
 11
330.6139253217
 21
236.58709005
 31
0.0
  0
LINE
  5
1AC
330
1F
100
AcDbEntity
  8
0
  6
Continuous
 62
     7
370
    15
100
AcDbLine
 10
330.6139253217
 20
238.78698573
 30
0.0
 11
330.6139253217
 21
236.58709005
 31
0.0
  0
LINE
  5
1AD
330
1F
100
AcDbEntity
  8
0
  6
Continuous
 62
     7
370
    15
100
AcDbLine
 10
352.3936022211
 20
239.0701934744
 30
0.0
 11
343.4783294469
 21
239.0701934744
 31
0.0
  0
ARC
  5
1AE
330
1F
100
AcDbEntity
  8
0
  6
Continuous
 62
     7
370
    15
100
AcDbCircle
 10
360.7575470094
 20
153.122889853
 30
0.0
 40
86.3533124564967
100
AcDbArc
 50
95.5582257175
 51
104.8627331068
  0
LINE
  5
1AF
330
1F
100
AcDbEntity
  8
0
  6
Continuous
 62
     7
370
    15
100
AcDbLine
 10
348.6139245469
 20
345.6469826449
 30
0.0
 11
348.6139245469
 21
336.7952309597
 31
0.0
  0
LINE
  5
1B0
330
1F
100
AcDbEntity
  8
0
  6
Continuous
 62
     7
370
    15
100
AcDbLine
 10
321.1139246959
 20
214.2184838701
 30
0.0
 11
372.1139237422
 21
214.2184838701
 31
0.0
  0
LINE
  5
1B1
330
1F
100
AcDbEntity
  8
0
  6
Continuous
 62
     7
370
    15
100
AcDbLine
 10
321.1139246959
 20
376.2184843469
 30
0.0
 11
372.1139237422
 21
376.2184843469
 31
0.0
  0
LINE
  5
1B2
330
1F
100
AcDbEntity
  8
0
  6
Continuous
 62
     7
370
    15
100
AcDbLine
 10
328.923615827
 20
371.546307211
 30
0.0
 11
328.945514946
 21
371.5436920572
 31
0.0
  0
LINE
  5
1B3
330
1F
100
AcDbEntity
  8
0
  6
Continuous
 62
     7
370
    15
100
AcDbLine
 10
362.613924979
 20
315.7184846748
 30
0.0
 11
362.613924979
 21
283.053794508
 31
0.0
  0
LINE
  5
1B4
330
1F
100
AcDbEntity
  8
0
  6
Continuous
 62
     7
370
    15
100
AcDbLine
 10
362.613924979
 20
283.053794508
 30
0.0
 11
354.8924962196
 21
283.053794508
 31
0.0
  0
LWPOLYLINE
  5
1B5
330
1F
100
AcDbEntity
  8
0
  6
Continuous
 62
     7
370
    15
100
AcDbPolyline
 90
        3
 70
   128
 43
0.0
 10
330.4428152878
 20
352.5909945417
 10
330.4899858448
 20
352.6295438457
 10
330.5474586922
 20
352.5734111715
  0
ARC
  5
1B6
330
1F
100
AcDbEntity
  8
0
  6
Continuous
 62
     7
370
    15
100
AcDbCircle
 10
341.5016516626
 20
222.5821818274
 30
0.0
 40
14.30081159033447
100
AcDbArc
 50
101.6757273361
 51
109.8920327713
  0
LWPOLYLINE
  5
1B7
330
1F
100
AcDbEntity
  8
0
  6
Continuous
 62
     7
370
    15
100
AcDbPolyline
 90
        5
 70
   128
 43
0.0
 10
362.613924979
 20
264.5658046056
 10
359.1091774542
 20
256.4991876531
 10
355.6234009701
 20
247.840297972
 10
354.0940072525
 20
243.4208668817
 10
352.3936022211
 20
239.0701934744
  0
LINE
  5
1B8
330
1F
100
AcDbEntity
  8
0
  6
Continuous
 62
     7
370
    15
100
AcDbLine
 10
387.0745144922
 20
275.2184845556
 30
0.0
 11
387.0774351198
 21
283.2184840042
 31
0.0
  0
LINE
  5
1B9
330
1F
100
AcDbEntity
  8
0
  6
Continuous
 62
     7
370
    15
100
AcDbLine
 10
386.9559310514
 20
274.2184843916
 30
0.0
 11
387.0745144922
 21
275.2184845556
 31
0.0
  0
LINE
  5
1BA
330
1F
100
AcDbEntity
  8
0
  6
Continuous
 62
     7
370
    15
100
AcDbLine
 10
386.9434923071
 20
265.2184847791
 30
0.0
 11
386.9559310514
 21
274.2184843916
 31
0.0
  0
LINE
  5
1BB
330
1F
100
AcDbEntity
  8
0
  6
Continuous
 62
     7
370
    15
100
AcDbLine
 10
386.9690366227
 20
283.2184840042
 30
0.0
 11
387.1139243383
 21
285.218484332
 31
0.0
  0
LINE
  5
1BC
330
1F
100
AcDbEntity
  8
0
  6
Continuous
 62
     7
370
    15
100
AcDbLine
 10
362.613924979
 20
283.053794508
 30
0.0
 11
362.613924979
 21
264.5658046056
 31
0.0
  0
LINE
  5
1BD
330
1F
100
AcDbEntity
  8
0
  6
Continuous
 62
     7
370
    15
100
AcDbLine
 10
330.6069012869
 20
352.5357112337
 30
0.0
 11
330.5474586922
 21
352.5734111715
 31
0.0
  0
LINE
  5
1BE
330
1F
100
AcDbEntity
  8
0
  6
Continuous
 62
     7
370
    15
100
AcDbLine
 10
348.6139245469
 20
345.6469826449
 30
0.0
 11
348.6139245469
 21
353.7552148152
 31
0.0
  0
LINE
  5
1BF
330
1F
100
AcDbEntity
  8
0
  6
Continuous
 62
     7
370
    15
100
AcDbLine
 10
330.6139253217
 20
236.58709005
 30
0.0
 11
330.6139253217
 21
236.0048718799
 31
0.0
  0
LINE
  5
1C0
330
1F
100
AcDbEntity
  8
0
  6
Continuous
 62
     7
370
    15
100
AcDbLine
 10
328.6139249939
 20
237.9012569833
 30
0.0
 11
328.6139249939
 21
237.7184830654
 31
0.0
  0
LINE
  5
1C1
330
1F
100
AcDbEntity
  8
0
  6
Continuous
 62
     7
370
    15
100
AcDbLine
 10
328.6139249939
 20
352.7184851516
 30
0.0
 11
328.6139249939
 21
352.5357112337
 31
0.0
  0
LINE
  5
1C2
330
1F
100
AcDbEntity
  8
0
  6
Continuous
 62
     7
370
    15
100
AcDbLine
 10
388.1139263648
 20
285.218484332
 30
0.0
 11
387.1139243383
 21
285.218484332
 31
0.0
  0
LINE
  5
1C3
330
1F
100
AcDbEntity
  8
0
  6
Continuous
 62
     7
370
    15
100
AcDbLine
 10
388.1139263648
 20
283.2184840042
 30
0.0
 11
386.9690366227
 21
283.2184840042
 31
0.0
  0
LINE
  5
1C4
330
1F
100
AcDbEntity
  8
0
  6
Continuous
 62
     7
370
    15
100
AcDbLine
 10
388.1139263648
 20
285.218484332
 30
0.0
 11
388.1139263648
 21
283.2184840042
 31
0.0
  0
LINE
  5
1C5
330
1F
100
AcDbEntity
  8
0
  6
Continuous
 62
     7
370
    15
100
AcDbLine
 10
388.1139263648
 20
274.2184843916
 30
0.0
 11
386.9559310514
 21
274.2184843916
 31
0.0
  0
LINE
  5
1C6
330
1F
100
AcDbEntity
  8
0
  6
Continuous
 62
     7
370
    15
100
AcDbLine
 10
388.1139263648
 20
265.2184847791
 30
0.0
 11
386.9434923071
 21
265.2184847791
 31
0.0
  0
LINE
  5
1C7
330
1F
100
AcDbEntity
  8
0
  6
Continuous
 62
     7
370
    15
100
AcDbLine
 10
388.1139263648
 20
274.2184843916
 30
0.0
 11
388.1139263648
 21
265.2184847791
 31
0.0
  0
LINE
  5
1C8
330
1F
100
AcDbEntity
  8
0
  6
Continuous
 62
     7
370
    15
100
AcDbLine
 10
388.1139263648
 20
275.2184845556
 30
0.0
 11
387.0745144922
 21
275.2184845556
 31
0.0
  0
LINE
  5
1C9
330
1F
100
AcDbEntity
  8
0
  6
Continuous
 62
     7
370
    15
100
AcDbLine
 10
388.1139263648
 20
275.2184845556
 30
0.0
 11
388.1139263648
 21
274.2184843916
 31
0.0
  0
LINE
  5
1CA
330
1F
100
AcDbEntity
  8
0
  6
Continuous
 62
     7
370
    15
100
AcDbLine
 10
388.1139263648
 20
283.2184840042
 30
0.0
 11
388.1139263648
 21
275.2184845556
 31
0.0
  0
LINE
  5
1CB
330
1F
100
AcDbEntity
  8
SLD-0
  6
CENTERX2
370
     0
100
AcDbLine
 10
144.8653843145
 20
295.2184841085
 30
0.0
 11
395.1280596524
 21
295.2184841085
 31
0.0
  0
LINE
  5
1CC
330
1F
100
AcDbEntity
  8
SLD-0
  6
CENTERX2
370
     0
100
AcDbLine
 10
346.6139249343
 20
426.341739922
 30
0.0
 11
346.6139249343
 21
160.8641651516
 31
0.0
  0
LINE
  5
1CD
330
1F
100
AcDbEntity
  8
0
  6
Continuous
 62
     7
370
    15
100
AcDbLine
 10
549.7151089614
 20
292.1873609118
 30
0.0
 11
549.7151089614
 21
219.2284479786
 31
0.0
  0
LINE
  5
1CE
330
1F
100
AcDbEntity
  8
0
  6
Continuous
 62
     7
370
    15
100
AcDbLine
 10
584.7163421815
 20
219.2213401247
 30
0.0
 11
584.7163421815
 21
285.2179730359
 31
0.0
  0
LINE
  5
1CF
330
1F
100
AcDbEntity
  8
0
  6
Continuous
 62
     7
370
    15
100
AcDbLine
 10
592.7157250947
 20
212.2184872676
 30
0.0
 11
592.7157250947
 21
214.2184838701
 31
0.0
  0
LINE
  5
1D0
330
1F
100
AcDbEntity
  8
0
  6
Continuous
 62
     7
370
    15
100
AcDbLine
 10
541.7157260483
 20
214.2184838701
 30
0.0
 11
541.7157260483
 21
212.2184872676
 31
0.0
  0
LINE
  5
1D1
330
1F
100
AcDbEntity
  8
0
  6
Continuous
 62
     7
370
    15
100
AcDbLine
 10
541.7157260483
 20
378.2184809495
 30
0.0
 11
541.7157260483
 21
376.2184843469
 31
0.0
  0
LINE
  5
1D2
330
1F
100
AcDbEntity
  8
0
  6
Continuous
 62
     7
370
    15
100
AcDbLine
 10
592.7157250947
 20
376.2184843469
 30
0.0
 11
592.7157250947
 21
378.2184809495
 31
0.0
  0
ARC
  5
1D3
330
1F
100
AcDbEntity
  8
0
  6
Continuous
 62
     7
370
    15
100
AcDbCircle
 10
544.715121733
 20
219.2184813436
 30
0.0
 40
4.999997581759989
100
AcDbArc
 50
270.0119251606
 51
0.0932918564
  0
ARC
  5
1D4
330
1F
100
AcDbEntity
  8
0
  6
Continuous
 62
     7
370
    15
100
AcDbCircle
 10
589.7163416019
 20
219.2184841085
 30
0.0
 40
5.000000000000009
100
AcDbArc
 50
179.9732864883
 51
269.9633478088
  0
ARC
  5
1D5
330
1F
100
AcDbEntity
  8
0
  6
Continuous
 62
     7
370
    15
100
AcDbCircle
 10
544.0786533464
 20
371.2188519917
 30
0.0
 40
4.999640022398633
100
AcDbArc
 50
1.9982337022
 51
88.9959651706
  0
ARC
  5
1D6
330
1F
100
AcDbEntity
  8
0
  6
Continuous
 62
     7
370
    15
100
AcDbCircle
 10
590.2134930658
 20
371.2185606746
 30
0.0
 40
4.999925156938215
100
AcDbArc
 50
90.3158899558
 51
177.6717329631
  0
ARC
  5
1D7
330
1F
100
AcDbEntity
  8
0
  6
Continuous
 62
     7
370
    15
100
AcDbCircle
 10
577.2895706428
 20
370.0689491739
 30
0.0
 40
28.23668187160303
100
AcDbArc
 50
177.3502223728
 51
216.9019338718
  0
LWPOLYLINE
  5
1D8
330
1F
100
AcDbEntity
  8
0
  6
Continuous
 62
     7
370
    15
100
AcDbPolyline
 90
        9
 70
   128
 43
0.0
 10
591.2856103635
 20
355.0043456305
 10
589.5566472566
 20
355.9601843405
 10
588.181046561
 20
357.073740666
 10
586.3337831354
 20
359.4391211916
 10
585.4003725356
 20
361.6104811478
 10
585.01875566
 20
363.4626731325
 10
585.0087253159
 20
366.5806666065
 10
585.1637383705
 20
370.5268219162
 10
585.2013153738
 20
371.3822528768
  0
ARC
  5
1D9
330
1F
100
AcDbEntity
  8
0
  6
Continuous
 62
     7
370
    15
100
AcDbCircle
 10
550.6817428832
 20
350.0954323168
 30
0.0
 40
4.974352464843152
100
AcDbArc
 50
285.6829483426
 51
37.6146283368
  0
LINE
  5
1DA
330
1F
100
AcDbEntity
  8
0
  6
Continuous
 62
     7
370
    15
100
AcDbLine
 10
591.7157249307
 20
299.9491715852
 30
0.0
 11
588.7157263016
 21
299.8554213952
 31
0.0
  0
LINE
  5
1DB
330
1F
100
AcDbEntity
  8
0
  6
Continuous
 62
     7
370
    15
100
AcDbLine
 10
588.7157263016
 20
290.5815468218
 30
0.0
 11
591.7157249307
 21
290.4877966318
 31
0.0
  0
LINE
  5
1DC
330
1F
100
AcDbEntity
  8
0
  6
Continuous
 62
     7
370
    15
100
AcDbLine
 10
568.215725619
 20
283.2184840042
 30
0.0
 11
569.2157256665
 21
283.2184840042
 31
0.0
  0
LINE
  5
1DD
330
1F
100
AcDbEntity
  8
0
  6
Continuous
 62
     7
370
    15
100
AcDbLine
 10
568.215725619
 20
275.2184845556
 30
0.0
 11
568.215725619
 21
283.2184840042
 31
0.0
  0
LINE
  5
1DE
330
1F
100
AcDbEntity
  8
0
  6
Continuous
 62
     7
370
    15
100
AcDbLine
 10
569.2157256665
 20
274.2184843916
 30
0.0
 11
568.215725619
 21
275.2184845556
 31
0.0
  0
LINE
  5
1DF
330
1F
100
AcDbEntity
  8
0
  6
Continuous
 62
     7
370
    15
100
AcDbLine
 10
566.215725524
 20
283.2184840042
 30
0.0
 11
566.215725524
 21
275.2184845556
 31
0.0
  0
LINE
  5
1E0
330
1F
100
AcDbEntity
  8
0
  6
Continuous
 62
     7
370
    15
100
AcDbLine
 10
565.2157254765
 20
283.2184840042
 30
0.0
 11
566.215725524
 21
283.2184840042
 31
0.0
  0
LINE
  5
1E1
330
1F
100
AcDbEntity
  8
0
  6
Continuous
 62
     7
370
    15
100
AcDbLine
 10
566.215725524
 20
275.2184845556
 30
0.0
 11
565.2157254765
 21
274.2184843916
 31
0.0
  0
LINE
  5
1E2
330
1F
100
AcDbEntity
  8
0
  6
Continuous
 62
     7
370
    15
100
AcDbLine
 10
569.2157256665
 20
283.2184840042
 30
0.0
 11
567.2157255715
 21
285.218484332
 31
0.0
  0
LINE
  5
1E3
330
1F
100
AcDbEntity
  8
0
  6
Continuous
 62
     7
370
    15
100
AcDbLine
 10
565.2157254765
 20
274.2184843916
 30
0.0
 11
565.2157254765
 21
265.2184847791
 31
0.0
  0
LINE
  5
1E4
330
1F
100
AcDbEntity
  8
0
  6
Continuous
 62
     7
370
    15
100
AcDbLine
 10
567.2157255715
 20
267.2184832442
 30
0.0
 11
569.2157256665
 21
265.2184847791
 31
0.0
  0
LINE
  5
1E5
330
1F
100
AcDbEntity
  8
0
  6
Continuous
 62
     7
370
    15
100
AcDbLine
 10
569.2157256665
 20
265.2184847791
 30
0.0
 11
569.2157256665
 21
274.2184843916
 31
0.0
  0
LINE
  5
1E6
330
1F
100
AcDbEntity
  8
0
  6
Continuous
 62
     7
370
    15
100
AcDbLine
 10
565.2157254765
 20
265.2184847791
 30
0.0
 11
567.2157255715
 21
267.2184832442
 31
0.0
  0
LINE
  5
1E7
330
1F
100
AcDbEntity
  8
0
  6
Continuous
 62
     7
370
    15
100
AcDbLine
 10
567.2157255715
 20
285.218484332
 30
0.0
 11
565.2157254765
 21
283.2184840042
 31
0.0
  0
LWPOLYLINE
  5
1E8
330
1F
100
AcDbEntity
  8
0
  6
Continuous
 62
     7
370
    15
100
AcDbPolyline
 90
       17
 70
   128
 43
0.0
 10
581.0275811484
 20
305.218483885
 10
580.9617562002
 20
305.3136976484
 10
578.7421863308
 20
307.936779787
 10
575.9402408978
 20
310.1545792121
 10
573.3304692214
 20
311.5058966029
 10
570.4246205526
 20
312.3908635277
 10
567.7070321065
 20
312.7107951838
 10
564.8901551278
 20
312.5466737945
 10
562.3119410841
 20
311.9469281334
 10
559.799101927
 20
310.9050892342
 10
557.4971966228
 20
309.4731314156
 10
555.3984863466
 20
307.6469261248
 10
553.5682214206
 20
305.4539026741
 10
552.0621424323
 20
302.9431357097
 10
550.8881563103
 20
300.0784400899
 10
550.1239465332
 20
297.0081125202
 10
549.7185176021
 20
292.1870742973
  0
LWPOLYLINE
  5
1E9
330
1F
100
AcDbEntity
  8
0
  6
Continuous
 62
     7
370
    15
100
AcDbPolyline
 90
       12
 70
   128
 43
0.0
 10
584.5307016527
 20
285.218484332
 10
583.7811173653
 20
285.6596369345
 10
582.5761293775
 20
286.8485987235
 10
580.9241568452
 20
288.9898532119
 10
579.98636251
 20
290.5893056702
 10
579.1630407578
 20
292.4040219329
 10
578.241363891
 20
295.5033859868
 10
577.8022965199
 20
298.6799158204
 10
577.7671269855
 20
301.3898312163
 10
578.0777426219
 20
303.5579096574
 10
578.7122005379
 20
304.8515427906
 10
579.4790766915
 20
305.218483885
  0
LINE
  5
1EA
330
1F
100
AcDbEntity
  8
0
  6
Continuous
 62
     7
370
    15
100
AcDbLine
 10
588.7157263016
 20
305.218483885
 30
0.0
 11
579.4790766915
 21
305.218483885
 31
0.0
  0
LINE
  5
1EB
330
1F
100
AcDbEntity
  8
0
  6
Continuous
 62
     7
370
    15
100
AcDbLine
 10
588.7157263016
 20
305.218483885
 30
0.0
 11
588.7157263016
 21
285.218484332
 31
0.0
  0
LINE
  5
1EC
330
1F
100
AcDbEntity
  8
0
  6
Continuous
 62
     7
370
    15
100
AcDbLine
 10
588.7157263016
 20
285.218484332
 30
0.0
 11
584.5307016527
 21
285.218484332
 31
0.0
  0
LINE
  5
1ED
330
1F
100
AcDbEntity
  8
0
  6
Continuous
 62
     7
370
    15
100
AcDbLine
 10
567.2157255715
 20
214.2184838701
 30
0.0
 11
592.7157250947
 21
214.2184838701
 31
0.0
  0
LINE
  5
1EE
330
1F
100
AcDbEntity
  8
0
  6
Continuous
 62
     7
370
    15
100
AcDbLine
 10
541.7157260483
 20
214.2184838701
 30
0.0
 11
567.2157255715
 21
214.2184838701
 31
0.0
  0
LINE
  5
1EF
330
1F
100
AcDbEntity
  8
0
  6
Continuous
 62
     7
370
    15
100
AcDbLine
 10
567.2157255715
 20
376.2184843469
 30
0.0
 11
592.7157250947
 21
376.2184843469
 31
0.0
  0
LINE
  5
1F0
330
1F
100
AcDbEntity
  8
0
  6
Continuous
 62
     7
370
    15
100
AcDbLine
 10
541.7157260483
 20
376.2184843469
 30
0.0
 11
567.2157255715
 21
376.2184843469
 31
0.0
  0
LINE
  5
1F1
330
1F
100
AcDbEntity
  8
0
  6
Continuous
 62
     7
370
    15
100
AcDbLine
 10
585.0592495656
 20
371.3879376698
 30
0.0
 11
585.0738340771
 21
371.4295715142
 31
0.0
  0
LINE
  5
1F2
330
1F
100
AcDbEntity
  8
0
  6
Continuous
 62
     7
370
    15
100
AcDbLine
 10
549.126304478
 20
371.3845476556
 30
0.0
 11
549.1287017023
 21
371.3761583019
 31
0.0
  0
ARC
  5
1F3
330
1F
100
AcDbEntity
  8
0
  6
Continuous
 62
     7
370
    15
100
AcDbCircle
 10
567.2157255715
 20
295.2184841085
 30
0.0
 40
20.50000000000002
100
AcDbArc
 50
328.764577256
 51
330.8035955904
  0
ARC
  5
1F4
330
1F
100
AcDbEntity
  8
0
  6
Continuous
 62
     7
370
    15
100
AcDbCircle
 10
567.2157255715
 20
295.2184841085
 30
0.0
 40
20.50000000000002
100
AcDbArc
 50
29.1964044096
 51
211.2215169124
  0
LWPOLYLINE
  5
1F5
330
1F
100
AcDbEntity
  8
0
  6
Continuous
 62
     7
370
    15
100
AcDbPolyline
 90
        2
 70
   128
 43
0.0
 10
591.2856103635
 20
355.0043456305
 10
591.2856103635
 20
355.0043456305
  0
LWPOLYLINE
  5
1F6
330
1F
100
AcDbEntity
  8
0
  6
Continuous
 62
     7
370
    15
100
AcDbPolyline
 90
        2
 70
   128
 43
0.0
 10
591.2856103635
 20
355.0043456305
 10
591.2856103635
 20
355.0043456305
  0
ARC
  5
1F7
330
1F
100
AcDbEntity
  8
0
  6
Continuous
 62
     7
370
    15
100
AcDbCircle
 10
567.2157255715
 20
295.2184841085
 30
0.0
 40
51.75184174139304
100
AcDbArc
 50
289.7956873884
 51
182.2617216816
  0
ARC
  5
1F8
330
1F
100
AcDbEntity
  8
0
  6
Continuous
 62
     7
370
    15
100
AcDbCircle
 10
567.2157255715
 20
295.2184841085
 30
0.0
 40
51.75184174139225
100
AcDbArc
 50
182.2617216816
 51
250.2002955918
  0
LINE
  5
1F9
330
1F
100
AcDbEntity
  8
0
  6
Continuous
 62
     7
370
    15
100
AcDbLine
 10
600.8598839646
 20
304.865792026
 30
0.0
 11
599.2993859356
 21
302.404500642
 31
0.0
  0
LINE
  5
1FA
330
1F
100
AcDbEntity
  8
0
  6
Continuous
 62
     7
370
    15
100
AcDbLine
 10
603.3211758142
 20
303.305291203
 30
0.0
 11
600.8598839646
 21
304.865792026
 31
0.0
  0
LINE
  5
1FB
330
1F
100
AcDbEntity
  8
0
  6
Continuous
 62
     7
370
    15
100
AcDbLine
 10
602.345354647
 20
303.0867284212
 30
0.0
 11
603.3211758142
 21
303.305291203
 31
0.0
  0
ARC
  5
1FC
330
1F
100
AcDbEntity
  8
0
  6
Continuous
 62
     7
370
    15
100
AcDbCircle
 10
567.2157255715
 20
295.2184841085
 30
0.0
 40
36.00000000000001
100
AcDbArc
 50
1.5678961831
 51
12.6246070069
  0
LINE
  5
1FD
330
1F
100
AcDbEntity
  8
0
  6
Continuous
 62
     7
370
    15
100
AcDbLine
 10
604.2157260483
 20
295.2186077182
 30
0.0
 11
603.2022459215
 21
296.2034994086
 31
0.0
  0
ARC
  5
1FE
330
1F
100
AcDbEntity
  8
0
  6
Continuous
 62
     7
370
    15
100
AcDbCircle
 10
567.2157255715
 20
295.2184841085
 30
0.0
 40
37.00000000000002
100
AcDbArc
 50
344.0
 51
0.0001914139
  0
LINE
  5
1FF
330
1F
100
AcDbEntity
  8
0
  6
Continuous
 62
     7
370
    15
100
AcDbLine
 10
601.3560069507
 20
287.508665682
 30
0.0
 11
602.7824094301
 21
285.0199021447
 31
0.0
  0
LINE
  5
200
330
1F
100
AcDbEntity
  8
0
  6
Continuous
 62
     7
370
    15
100
AcDbLine
 10
598.9373622244
 20
286.1224511687
 30
0.0
 11
601.3560069507
 21
287.508665682
 31
0.0
  0
ARC
  5
201
330
1F
100
AcDbEntity
  8
0
  6
Continuous
 62
     7
370
    15
100
AcDbCircle
 10
567.2157255715
 20
295.2184841085
 30
0.0
 40
33.0
100
AcDbArc
 50
344.0
 51
0.0
  0
LINE
  5
202
330
1F
100
AcDbEntity
  8
0
  6
Continuous
 62
     7
370
    15
100
AcDbLine
 10
601.2006176418
 20
296.2319623727
 30
0.0
 11
600.2157253927
 21
295.2184841085
 31
0.0
  0
ARC
  5
203
330
1F
100
AcDbEntity
  8
0
  6
Continuous
 62
     7
370
    15
100
AcDbCircle
 10
567.2157255715
 20
295.2184841085
 30
0.0
 40
34.00000000000001
100
AcDbArc
 50
1.7081362105
 51
12.6246070069
  0
LINE
  5
204
330
1F
100
AcDbEntity
  8
0
  6
Continuous
 62
     7
370
    15
100
AcDbLine
 10
599.2993859356
 20
302.404500642
 30
0.0
 11
600.3937085873
 21
302.6496042546
 31
0.0
  0
ARC
  5
205
330
1F
100
AcDbEntity
  8
0
  6
Continuous
 62
     7
370
    15
100
AcDbCircle
 10
568.9287086635
 20
292.9420172068
 30
0.0
 40
57.00299604180822
100
AcDbArc
 50
171.4210044304
 51
215.6362414498
  0
ARC
  5
206
330
1F
100
AcDbEntity
  8
0
  6
Continuous
 62
     7
370
    15
100
AcDbCircle
 10
566.8141725699
 20
292.3972189872
 30
0.0
 40
55.00002094035064
100
AcDbArc
 50
131.908565351
 51
170.5311822753
  0
ARC
  5
207
330
1F
100
AcDbEntity
  8
0
  6
Continuous
 62
     7
370
    15
100
AcDbCircle
 10
569.9392118261
 20
294.7203846099
 30
0.0
 40
58.86664009621931
100
AcDbArc
 50
216.4699930569
 51
249.9062067976
  0
ARC
  5
208
330
1F
100
AcDbEntity
  8
0
  6
Continuous
 62
     7
370
    15
100
AcDbCircle
 10
565.102337541
 20
295.4967598646
 30
0.0
 40
65.01320270592475
100
AcDbArc
 50
37.1485013021
 51
66.2505581231
  0
ARC
  5
209
330
1F
100
AcDbEntity
  8
0
  6
Continuous
 62
     7
370
    15
100
AcDbCircle
 10
568.9093177278
 20
296.5142098762
 30
0.0
 40
60.50933934407175
100
AcDbArc
 50
285.1528832814
 51
306.4807835145
  0
ARC
  5
20A
330
1F
100
AcDbEntity
  8
0
  6
Continuous
 62
     7
370
    15
100
AcDbCircle
 10
565.9187038325
 20
296.9104157539
 30
0.0
 40
63.51197896093254
100
AcDbArc
 50
352.1157984904
 51
36.5767270654
  0
ARC
  5
20B
330
1F
100
AcDbEntity
  8
0
  6
Continuous
 62
     7
370
    15
100
AcDbCircle
 10
567.4959871215
 20
297.3321195307
 30
0.0
 40
62.01069280742278
100
AcDbArc
 50
307.0814710294
 51
351.5299237771
  0
ARC
  5
20C
330
1F
100
AcDbEntity
  8
0
  6
Continuous
 62
     7
370
    15
100
AcDbCircle
 10
566.2239259473
 20
293.2044672724
 30
0.0
 40
54.00000000000005
100
AcDbArc
 50
103.7943697569
 51
126.1732143844
  0
ARC
  5
20D
330
1F
100
AcDbEntity
  8
0
  6
Continuous
 62
     7
370
    15
100
AcDbCircle
 10
566.8141542987
 20
292.3972309419
 30
0.0
 40
54.99999999999994
100
AcDbArc
 50
126.1732143844
 51
131.908558069
  0
CIRCLE
  5
20E
330
1F
100
AcDbEntity
  8
0
  6
Continuous
 62
     7
370
    15
100
AcDbCircle
 10
614.591879911
 20
342.594638448
 30
0.0
 40
3.0
  0
LINE
  5
20F
330
1F
100
AcDbEntity
  8
0
  6
Continuous
 62
     7
370
    15
100
AcDbLine
 10
615.1097340292
 20
349.0739777733
 30
0.0
 11
600.1224739259
 21
350.2718150664
 31
0.0
  0
ARC
  5
210
330
1F
100
AcDbEntity
  8
0
  6
Continuous
 62
     7
370
    15
100
AcDbCircle
 10
614.591879911
 20
342.594638448
 30
0.0
 40
6.500000000000082
100
AcDbArc
 50
4.5695742914
 51
85.4304257086
  0
LINE
  5
211
330
1F
100
AcDbEntity
  8
0
  6
Continuous
 62
     7
370
    15
100
AcDbLine
 10
622.4502732759
 20
325.8578345228
 30
0.0
 11
621.0712192362
 21
343.1124925662
 31
0.0
  0
CIRCLE
  5
212
330
1F
100
AcDbEntity
  8
0
  6
Continuous
 62
     7
370
    15
100
AcDbCircle
 10
519.839571232
 20
247.842329769
 30
0.0
 40
3.0
  0
LINE
  5
213
330
1F
100
AcDbEntity
  8
0
  6
Continuous
 62
     7
370
    15
100
AcDbLine
 10
519.3217171138
 20
241.3629904438
 30
0.0
 11
549.7151089614
 21
238.9338403989
 31
0.0
  0
ARC
  5
214
330
1F
100
AcDbEntity
  8
0
  6
Continuous
 62
     7
370
    15
100
AcDbCircle
 10
519.839571232
 20
247.842329769
 30
0.0
 40
6.500000000000002
100
AcDbArc
 50
184.5695742914
 51
265.4304257086
  0
LINE
  5
215
330
1F
100
AcDbEntity
  8
0
  6
Continuous
 62
     7
370
    15
100
AcDbLine
 10
509.8984984463
 20
290.6374825213
 30
0.0
 11
513.3602319067
 21
247.3244756509
 31
0.0
  0
ARC
  5
216
330
1F
100
AcDbEntity
  8
0
  6
Continuous
 62
     7
370
    15
100
AcDbCircle
 10
519.839571232
 20
342.594638448
 30
0.0
 40
6.500000000000021
100
AcDbArc
 50
94.5695742914
 51
175.4304257086
  0
CIRCLE
  5
217
330
1F
100
AcDbEntity
  8
0
  6
Continuous
 62
     7
370
    15
100
AcDbCircle
 10
519.839571232
 20
342.594638448
 30
0.0
 40
3.000000000000114
  0
ARC
  5
218
330
1F
100
AcDbEntity
  8
0
  6
Continuous
 62
     7
370
    15
100
AcDbCircle
 10
567.2157255715
 20
295.2184841085
 30
0.0
 40
57.50000000000004
100
AcDbArc
 50
175.4304257086
 51
184.5695742914
  0
LINE
  5
219
330
1F
100
AcDbEntity
  8
0
  6
Continuous
 62
     7
370
    15
100
AcDbLine
 10
513.3602319067
 20
343.1124925662
 30
0.0
 11
509.8984984463
 21
299.7994856957
 31
0.0
  0
LINE
  5
21A
330
1F
100
AcDbEntity
  8
0
  6
Continuous
 62
     7
370
    15
100
AcDbLine
 10
555.3038304454
 20
351.9497975755
 30
0.0
 11
519.3217171138
 21
349.0739777733
 31
0.0
  0
ARC
  5
21B
330
1F
100
AcDbEntity
  8
0
  6
Continuous
 62
     7
370
    15
100
AcDbCircle
 10
614.591879911
 20
247.842329769
 30
0.0
 40
6.500000000000089
100
AcDbArc
 50
274.5695742914
 51
355.4304257086
  0
LINE
  5
21C
330
1F
100
AcDbEntity
  8
0
  6
Continuous
 62
     7
370
    15
100
AcDbLine
 10
588.3937103456
 20
239.2277509022
 30
0.0
 11
615.1097340292
 21
241.3629904438
 31
0.0
  0
LINE
  5
21D
330
1F
100
AcDbEntity
  8
0
  6
Continuous
 62
     7
370
    15
100
AcDbLine
 10
621.0712192362
 20
247.3244756509
 30
0.0
 11
622.8310724503
 21
269.3436477382
 31
0.0
  0
CIRCLE
  5
21E
330
1F
100
AcDbEntity
  8
0
  6
Continuous
 62
     7
370
    15
100
AcDbCircle
 10
614.591879911
 20
247.842329769
 30
0.0
 40
3.0
  0
CIRCLE
  5
21F
330
1F
100
AcDbEntity
  8
0
  6
Continuous
 62
     7
370
    15
100
AcDbCircle
 10
614.591879911
 20
247.842329769
 30
0.0
 40
3.0
  0
CIRCLE
  5
220
330
1F
100
AcDbEntity
  8
0
  6
Continuous
 62
     7
370
    15
100
AcDbCircle
 10
519.839571232
 20
342.594638448
 30
0.0
 40
3.0
  0
CIRCLE
  5
221
330
1F
100
AcDbEntity
  8
0
  6
Continuous
 62
     7
370
    15
100
AcDbCircle
 10
519.839571232
 20
247.842329769
 30
0.0
 40
3.0
  0
CIRCLE
  5
222
330
1F
100
AcDbEntity
  8
0
  6
Continuous
 62
     7
370
    15
100
AcDbCircle
 10
614.591879911
 20
342.594638448
 30
0.0
 40
3.0
  0
ARC
  5
223
330
1F
100
AcDbEntity
  8
0
  6
Continuous
 62
     7
370
    15
100
AcDbCircle
 10
527.731734188
 20
367.1523038627
 30
0.0
 40
10.60000000000001
100
AcDbArc
 50
110.0
 51
200.0
  0
LINE
  5
224
330
1F
100
AcDbEntity
  8
0
  6
Continuous
 62
     7
370
    15
100
AcDbLine
 10
522.9265576011
 20
349.3620879996
 30
0.0
 11
517.7709942466
 21
363.5268896867
 31
0.0
  0
LINE
  5
225
330
1F
100
AcDbEntity
  8
0
  6
Continuous
 62
     7
370
    15
100
AcDbLine
 10
524.1063197857
 20
377.1130457569
 30
0.0
 11
537.7157253927
 21
382.0664674092
 31
0.0
  0
LINE
  5
226
330
1F
100
AcDbEntity
  8
0
  6
Continuous
 62
     7
370
    15
100
AcDbLine
 10
591.7157249307
 20
298.7184842165
 30
0.0
 11
591.7157249307
 21
299.9491715852
 31
0.0
  0
LINE
  5
227
330
1F
100
AcDbEntity
  8
0
  6
Continuous
 62
     7
370
    15
100
AcDbLine
 10
591.7157249307
 20
292.0358116787
 30
0.0
 11
591.7157249307
 21
298.4011565383
 31
0.0
  0
LINE
  5
228
330
1F
100
AcDbEntity
  8
0
  6
Continuous
 62
     7
370
    15
100
AcDbLine
 10
591.7157249307
 20
290.4877966318
 30
0.0
 11
591.7157249307
 21
291.7184840005
 31
0.0
  0
LINE
  5
229
330
1F
100
AcDbEntity
  8
0
  6
Continuous
 62
     7
370
    15
100
AcDbLine
 10
591.7157249307
 20
291.7184840005
 30
0.0
 11
598.7157260781
 21
291.7184840005
 31
0.0
  0
LINE
  5
22A
330
1F
100
AcDbEntity
  8
0
  6
Continuous
 62
     7
370
    15
100
AcDbLine
 10
598.7157260781
 20
298.7184842165
 30
0.0
 11
598.7157260781
 21
291.7184840005
 31
0.0
  0
LINE
  5
22B
330
1F
100
AcDbEntity
  8
0
  6
Continuous
 62
     7
370
    15
100
AcDbLine
 10
591.7157249307
 20
298.7184842165
 30
0.0
 11
591.7157249307
 21
298.4011565383
 31
0.0
  0
LINE
  5
22C
330
1F
100
AcDbEntity
  8
0
  6
Continuous
 62
     7
370
    15
100
AcDbLine
 10
591.7157249307
 20
292.0358116787
 30
0.0
 11
591.7157249307
 21
291.7184840005
 31
0.0
  0
LINE
  5
22D
330
1F
100
AcDbEntity
  8
0
  6
Continuous
 62
     7
370
    15
100
AcDbLine
 10
591.7157249307
 20
298.7184842165
 30
0.0
 11
598.7157260781
 21
298.7184842165
 31
0.0
  0
LINE
  5
22E
330
1F
100
AcDbEntity
  8
0
  6
Continuous
 62
     7
370
    15
100
AcDbLine
 10
575.707103849
 20
175.2184867907
 30
0.0
 11
575.707103849
 21
192.2184839893
 31
0.0
  0
LINE
  5
22F
330
1F
100
AcDbEntity
  8
0
  6
Continuous
 62
     7
370
    15
100
AcDbLine
 10
558.7243472939
 20
175.2184867907
 30
0.0
 11
558.7243472939
 21
192.2184839893
 31
0.0
  0
LINE
  5
230
330
1F
100
AcDbEntity
  8
0
  6
Continuous
 62
     7
370
    15
100
AcDbLine
 10
558.7243472939
 20
175.2184867907
 30
0.0
 11
575.707103849
 21
175.2184867907
 31
0.0
  0
LINE
  5
231
330
1F
100
AcDbEntity
  8
0
  6
Continuous
 62
     7
370
    15
100
AcDbLine
 10
587.7157261377
 20
175.2184867907
 30
0.0
 11
587.7157261377
 21
192.2184839893
 31
0.0
  0
LINE
  5
232
330
1F
100
AcDbEntity
  8
0
  6
Continuous
 62
     7
370
    15
100
AcDbLine
 10
575.707103849
 20
175.2184867907
 30
0.0
 11
587.7157261377
 21
175.2184867907
 31
0.0
  0
LINE
  5
233
330
1F
100
AcDbEntity
  8
0
  6
Continuous
 62
     7
370
    15
100
AcDbLine
 10
546.7157250052
 20
175.2184867907
 30
0.0
 11
546.7157250052
 21
192.2184839893
 31
0.0
  0
LINE
  5
234
330
1F
100
AcDbEntity
  8
0
  6
Continuous
 62
     7
370
    15
100
AcDbLine
 10
546.7157250052
 20
175.2184867907
 30
0.0
 11
558.7243472939
 21
175.2184867907
 31
0.0
  0
LINE
  5
235
330
1F
100
AcDbEntity
  8
0
  6
Continuous
 62
     7
370
    15
100
AcDbLine
 10
558.7243472939
 20
415.2184814263
 30
0.0
 11
558.7243472939
 21
398.2184842277
 31
0.0
  0
LINE
  5
236
330
1F
100
AcDbEntity
  8
0
  6
Continuous
 62
     7
370
    15
100
AcDbLine
 10
575.707103849
 20
415.2184814263
 30
0.0
 11
575.707103849
 21
398.2184842277
 31
0.0
  0
LINE
  5
237
330
1F
100
AcDbEntity
  8
0
  6
Continuous
 62
     7
370
    15
100
AcDbLine
 10
575.707103849
 20
415.2184814263
 30
0.0
 11
558.7243472939
 21
415.2184814263
 31
0.0
  0
LINE
  5
238
330
1F
100
AcDbEntity
  8
0
  6
Continuous
 62
     7
370
    15
100
AcDbLine
 10
587.7157261377
 20
415.2184814263
 30
0.0
 11
587.7157261377
 21
398.2184842277
 31
0.0
  0
LINE
  5
239
330
1F
100
AcDbEntity
  8
0
  6
Continuous
 62
     7
370
    15
100
AcDbLine
 10
587.7157261377
 20
415.2184814263
 30
0.0
 11
575.707103849
 21
415.2184814263
 31
0.0
  0
LINE
  5
23A
330
1F
100
AcDbEntity
  8
0
  6
Continuous
 62
     7
370
    15
100
AcDbLine
 10
546.7157250052
 20
415.2184814263
 30
0.0
 11
546.7157250052
 21
398.2184842277
 31
0.0
  0
LINE
  5
23B
330
1F
100
AcDbEntity
  8
0
  6
Continuous
 62
     7
370
    15
100
AcDbLine
 10
558.7243472939
 20
415.2184814263
 30
0.0
 11
546.7157250052
 21
415.2184814263
 31
0.0
  0
LINE
  5
23C
330
1F
100
AcDbEntity
  8
0
  6
Continuous
 62
     7
370
    15
100
AcDbLine
 10
579.4350260651
 20
192.2184839893
 30
0.0
 11
579.4350260651
 21
212.2184872676
 31
0.0
  0
LINE
  5
23D
330
1F
100
AcDbEntity
  8
0
  6
Continuous
 62
     7
370
    15
100
AcDbLine
 10
554.9964250779
 20
192.2184839893
 30
0.0
 11
554.9964250779
 21
212.2184872676
 31
0.0
  0
LINE
  5
23E
330
1F
100
AcDbEntity
  8
0
  6
Continuous
 62
     7
370
    15
100
AcDbLine
 10
579.4350260651
 20
212.2184872676
 30
0.0
 11
554.9964250779
 21
212.2184872676
 31
0.0
  0
LINE
  5
23F
330
1F
100
AcDbEntity
  8
0
  6
Continuous
 62
     7
370
    15
100
AcDbLine
 10
554.9964250779
 20
192.2184839893
 30
0.0
 11
579.4350260651
 21
192.2184839893
 31
0.0
  0
LINE
  5
240
330
1F
100
AcDbEntity
  8
0
  6
Continuous
 62
     7
370
    15
100
AcDbLine
 10
596.7157257503
 20
192.2184839893
 30
0.0
 11
596.7157257503
 21
212.2184872676
 31
0.0
  0
LINE
  5
241
330
1F
100
AcDbEntity
  8
0
  6
Continuous
 62
     7
370
    15
100
AcDbLine
 10
596.7157257503
 20
212.2184872676
 30
0.0
 11
579.4350260651
 21
212.2184872676
 31
0.0
  0
LINE
  5
242
330
1F
100
AcDbEntity
  8
0
  6
Continuous
 62
     7
370
    15
100
AcDbLine
 10
579.4350260651
 20
192.2184839893
 30
0.0
 11
596.7157257503
 21
192.2184839893
 31
0.0
  0
LINE
  5
243
330
1F
100
AcDbEntity
  8
0
  6
Continuous
 62
     7
370
    15
100
AcDbLine
 10
537.7157253927
 20
192.2184839893
 30
0.0
 11
537.7157253927
 21
212.2184872676
 31
0.0
  0
LINE
  5
244
330
1F
100
AcDbEntity
  8
0
  6
Continuous
 62
     7
370
    15
100
AcDbLine
 10
554.9964250779
 20
212.2184872676
 30
0.0
 11
537.7157253927
 21
212.2184872676
 31
0.0
  0
LINE
  5
245
330
1F
100
AcDbEntity
  8
0
  6
Continuous
 62
     7
370
    15
100
AcDbLine
 10
537.7157253927
 20
192.2184839893
 30
0.0
 11
554.9964250779
 21
192.2184839893
 31
0.0
  0
LINE
  5
246
330
1F
100
AcDbEntity
  8
0
  6
Continuous
 62
     7
370
    15
100
AcDbLine
 10
554.9964250779
 20
398.2184842277
 30
0.0
 11
554.9964250779
 21
378.2184809495
 31
0.0
  0
LINE
  5
247
330
1F
100
AcDbEntity
  8
0
  6
Continuous
 62
     7
370
    15
100
AcDbLine
 10
579.4350260651
 20
398.2184842277
 30
0.0
 11
579.4350260651
 21
378.2184809495
 31
0.0
  0
LINE
  5
248
330
1F
100
AcDbEntity
  8
0
  6
Continuous
 62
     7
370
    15
100
AcDbLine
 10
554.9964250779
 20
378.2184809495
 30
0.0
 11
579.4350260651
 21
378.2184809495
 31
0.0
  0
LINE
  5
249
330
1F
100
AcDbEntity
  8
0
  6
Continuous
 62
     7
370
    15
100
AcDbLine
 10
579.4350260651
 20
398.2184842277
 30
0.0
 11
554.9964250779
 21
398.2184842277
 31
0.0
  0
LINE
  5
24A
330
1F
100
AcDbEntity
  8
0
  6
Continuous
 62
     7
370
    15
100
AcDbLine
 10
596.7157257503
 20
398.2184842277
 30
0.0
 11
596.7157257503
 21
378.2184809495
 31
0.0
  0
LINE
  5
24B
330
1F
100
AcDbEntity
  8
0
  6
Continuous
 62
     7
370
    15
100
AcDbLine
 10
579.4350260651
 20
378.2184809495
 30
0.0
 11
596.7157257503
 21
378.2184809495
 31
0.0
  0
LINE
  5
24C
330
1F
100
AcDbEntity
  8
0
  6
Continuous
 62
     7
370
    15
100
AcDbLine
 10
596.7157257503
 20
398.2184842277
 30
0.0
 11
579.4350260651
 21
398.2184842277
 31
0.0
  0
LINE
  5
24D
330
1F
100
AcDbEntity
  8
0
  6
Continuous
 62
     7
370
    15
100
AcDbLine
 10
537.7157253927
 20
398.2184842277
 30
0.0
 11
537.7157253927
 21
378.2184809495
 31
0.0
  0
LINE
  5
24E
330
1F
100
AcDbEntity
  8
0
  6
Continuous
 62
     7
370
    15
100
AcDbLine
 10
537.7157253927
 20
378.2184809495
 30
0.0
 11
554.9964250779
 21
378.2184809495
 31
0.0
  0
LINE
  5
24F
330
1F
100
AcDbEntity
  8
0
  6
Continuous
 62
     7
370
    15
100
AcDbLine
 10
554.9964250779
 20
398.2184842277
 30
0.0
 11
537.7157253927
 21
398.2184842277
 31
0.0
  0
LINE
  5
250
330
1F
100
AcDbEntity
  8
SLD-0
  6
CENTERX2
370
     0
100
AcDbLine
 10
567.2157255715
 20
429.7812937869
 30
0.0
 11
567.2157255715
 21
156.3263269931
 31
0.0
  0
LINE
  5
251
330
1F
100
AcDbEntity
  8
SLD-0
  6
CENTERX2
370
     0
100
AcDbLine
 10
498.7675664884
 20
295.2184841085
 30
0.0
 11
641.876955051
 21
295.2184841085
 31
0.0
  0
ENDSEC
  0
SECTION
  2
OBJECTS
  0
DICTIONARY
  5
C
330
0
100
AcDbDictionary
281
     1
  3
ACAD_GROUP
350
D
  3
ACAD_LAYOUT
350
1A
  3
ACAD_MLEADERSTYLE
350
253
  3
ACAD_MLINESTYLE
350
17
  3
ACAD_PLOTSETTINGS
350
19
  3
ACAD_PLOTSTYLENAME
350
E
  3
ACAD_TABLESTYLE
350
252
  3
ACAD_VISUALSTYLE
350
2A
  3
AcDbVariableDictionary
350
254
  0
DICTIONARY
  5
D
102
{ACAD_REACTORS
330
C
102
}
330
C
100
AcDbDictionary
281
     1
  0
DICTIONARY
  5
1A
102
{ACAD_REACTORS
330
C
102
}
330
C
100
AcDbDictionary
281
     1
  3
Layout1
350
1E
  3
Layout2
350
26
  3
Model
350
22
  0
DICTIONARY
  5
253
102
{ACAD_REACTORS
330
C
102
}
330
C
100
AcDbDictionary
281
     1
  0
DICTIONARY
  5
17
102
{ACAD_REACTORS
330
C
102
}
330
C
100
AcDbDictionary
281
     1
  3
Standard
350
18
  0
DICTIONARY
  5
19
102
{ACAD_REACTORS
330
C
102
}
330
C
100
AcDbDictionary
281
     1
  0
ACDBDICTIONARYWDFLT
  5
E
102
{ACAD_REACTORS
330
C
102
}
330
C
100
AcDbDictionary
281
     1
  3
Normal
350
F
100
AcDbDictionaryWithDefault
340
F
  0
DICTIONARY
  5
252
102
{ACAD_REACTORS
330
C
102
}
330
C
100
AcDbDictionary
281
     1
  0
DICTIONARY
  5
2A
102
{ACAD_REACTORS
330
C
102
}
330
C
100
AcDbDictionary
281
     1
  3
2dWireframe
350
2F
  3
3D Hidden
350
31
  3
3dWireframe
350
30
  3
Basic
350
32
  3
Brighten
350
36
  3
ColorChange
350
3A
  3
Conceptual
350
34
  3
Dim
350
35
  3
Facepattern
350
39
  3
Flat
350
2B
  3
FlatWithEdges
350
2C
  3
Gouraud
350
2D
  3
GouraudWithEdges
350
2E
  3
Linepattern
350
38
  3
Realistic
350
33
  3
Thicken
350
37
  0
DICTIONARY
  5
254
102
{ACAD_REACTORS
330
C
102
}
330
C
100
AcDbDictionary
281
     1
  3
PSOLHEIGHT
350
256
  3
PSOLWIDTH
350
255
  0
LAYOUT
  5
1E
102
{ACAD_REACTORS
330
1A
102
}
330
1A
100
AcDbPlotSettings
  1

  2
none_device
  4

  6

 40
0.0
 41
0.0
 42
0.0
 43
0.0
 44
0.0
 45
0.0
 46
0.0
 47
0.0
 48
0.0
 49
0.0
140
0.0
141
0.0
142
1.0
143
1.0
 70
   688
 72
     0
 73
     0
 74
     5
  7

 75
    16
147
1.0
148
0.0
149
0.0
100
AcDbLayout
  1
Layout1
 70
     1
 71
     1
 10
0.0
 20
0.0
 11
420.0
 21
297.0
 12
0.0
 22
0.0
 32
0.0
 14
1.0000000000E+20
 24
1.0000000000E+20
 34
1.0000000000E+20
 15
-1.0000000000E+20
 25
-1.0000000000E+20
 35
-1.0000000000E+20
146
0.0
 13
0.0
 23
0.0
 33
0.0
 16
1.0
 26
0.0
 36
0.0
 17
0.0
 27
1.0
 37
0.0
 76
     0
330
1B
  0
LAYOUT
  5
26
102
{ACAD_REACTORS
330
1A
102
}
330
1A
100
AcDbPlotSettings
  1

  2
none_device
  4

  6

 40
0.0
 41
0.0
 42
0.0
 43
0.0
 44
0.0
 45
0.0
 46
0.0
 47
0.0
 48
0.0
 49
0.0
140
0.0
141
0.0
142
1.0
143
1.0
 70
   688
 72
     0
 73
     0
 74
     5
  7

 75
    16
147
1.0
148
0.0
149
0.0
100
AcDbLayout
  1
Layout2
 70
     1
 71
     2
 10
0.0
 20
0.0
 11
0.0
 21
0.0
 12
0.0
 22
0.0
 32
0.0
 14
0.0
 24
0.0
 34
0.0
 15
0.0
 25
0.0
 35
0.0
146
0.0
 13
0.0
 23
0.0
 33
0.0
 16
1.0
 26
0.0
 36
0.0
 17
0.0
 27
1.0
 37
0.0
 76
     0
330
23
  0
LAYOUT
  5
22
102
{ACAD_REACTORS
330
1A
102
}
330
1A
100
AcDbPlotSettings
  1

  2
none_device
  4

  6

 40
0.0
 41
0.0
 42
0.0
 43
0.0
 44
0.0
 45
0.0
 46
0.0
 47
0.0
 48
0.0
 49
0.0
140
0.0
141
0.0
142
1.0
143
1.0
 70
  1712
 72
     0
 73
     0
 74
     0
  7

 75
     0
147
1.0
148
0.0
149
0.0
100
AcDbLayout
  1
Model
 70
     1
 71
     0
 10
0.0
 20
0.0
 11
841.0
 21
594.0
 12
0.0
 22
0.0
 32
0.0
 14
0.0
 24
0.0
 34
0.0
 15
841.0
 25
594.0
 35
0.0
146
0.0
 13
0.0
 23
0.0
 33
0.0
 16
1.0
 26
0.0
 36
0.0
 17
0.0
 27
1.0
 37
0.0
 76
     0
330
1F
331
29
  0
MLINESTYLE
  5
18
102
{ACAD_REACTORS
330
17
102
}
330
17
100
AcDbMlineStyle
  2
Standard
 70
     0
  3

 62
   256
 51
90.0
 52
90.0
 71
     2
 49
0.5
 62
   256
  6
BYLAYER
 49
-0.5
 62
   256
  6
BYLAYER
  0
ACDBPLACEHOLDER
  5
F
102
{ACAD_REACTORS
330
E
102
}
330
E
  0
VISUALSTYLE
  5
2F
102
{ACAD_REACTORS
330
2A
102
}
330
2A
100
AcDbVisualStyle
  2
2dWireframe
 70
     4
 71
     0
 72
     2
 73
     0
 90
        0
 40
-0.6
 41
-30.0
 62
     5
 63
     7
 74
     1
 91
        4
 64
     7
 65
   257
 75
     1
175
     1
 42
1.0
 92
        0
 66
   257
 43
1.0
 76
     1
 77
     6
 78
     2
 67
     7
 79
     5
170
     0
171
     0
290
     0
174
     0
 93
        1
 44
0.0
173
     0
291
     0
 45
0.0
1001
ACAD
1000
AcDbSavedByObjectVersion
1070
     0
  0
VISUALSTYLE
  5
31
102
{ACAD_REACTORS
330
2A
102
}
330
2A
100
AcDbVisualStyle
  2
3D Hidden
 70
     6
 71
     1
 72
     2
 73
     2
 90
        0
 40
-0.6
 41
-30.0
 62
     5
 63
     7
 74
     2
 91
        2
 64
     7
 65
   257
 75
     2
175
     1
 42
40.0
 92
        0
 66
   257
 43
1.0
 76
     1
 77
     6
 78
     2
 67
     7
 79
     3
170
     0
171
     0
290
     0
174
     0
 93
        1
 44
0.0
173
     0
291
     0
 45
0.0
1001
ACAD
1000
AcDbSavedByObjectVersion
1070
     0
  0
VISUALSTYLE
  5
30
102
{ACAD_REACTORS
330
2A
102
}
330
2A
100
AcDbVisualStyle
  2
3dWireframe
 70
     5
 71
     0
 72
     2
 73
     0
 90
        0
 40
-0.6
 41
-30.0
 62
     5
 63
     7
 74
     1
 91
        4
 64
     7
 65
   257
 75
     1
175
     1
 42
1.0
 92
        0
 66
   257
 43
1.0
 76
     1
 77
     6
 78
     2
 67
     7
 79
     5
170
     0
171
     0
290
     0
174
     0
 93
        1
 44
0.0
173
     0
291
     0
 45
0.0
1001
ACAD
1000
AcDbSavedByObjectVersion
1070
     0
  0
VISUALSTYLE
  5
32
102
{ACAD_REACTORS
330
2A
102
}
330
2A
100
AcDbVisualStyle
  2
Basic
 70
     7
 71
     1
 72
     0
 73
     1
 90
        0
 40
-0.6
 41
-30.0
 62
     5
 63
     7
 74
     0
 91
        4
 64
     7
 65
   257
 75
     1
175
     1
 42
1.0
 92
        8
 66
     7
 43
1.0
 76
     1
 77
     6
 78
     2
 67
     7
 79
     5
170
     0
171
     0
290
     0
174
     0
 93
        1
 44
0.0
173
     0
291
     1
 45
0.0
1001
ACAD
1000
AcDbSavedByObjectVersion
1070
     0
  0
VISUALSTYLE
  5
36
102
{ACAD_REACTORS
330
2A
102
}
330
2A
100
AcDbVisualStyle
  2
Brighten
 70
    12
 71
     2
 72
     2
 73
     0
 90
        0
 40
-0.6
 41
-30.0
 62
     5
 63
     7
 74
     1
 91
        4
 64
     7
 65
   257
 75
     1
175
     1
 42
1.0
 92
        8
 66
     7
 43
1.0
 76
     1
 77
     6
 78
     2
 67
     7
 79
     5
170
     0
171
     0
290
     0
174
     0
 93
        1
 44
50.0
173
     0
291
     1
 45
0.0
1001
ACAD
1000
AcDbSavedByObjectVersion
1070
     0
  0
VISUALSTYLE
  5
3A
102
{ACAD_REACTORS
330
2A
102
}
330
2A
100
AcDbVisualStyle
  2
ColorChange
 70
    16
 71
     2
 72
     2
 73
     3
 90
        0
 40
-0.6
 41
-30.0
 62
     5
 63
     8
 74
     1
 91
        4
 64
     7
 65
   257
 75
     1
175
     1
 42
1.0
 92
        8
 66
     8
 43
1.0
 76
     1
 77
     6
 78
     2
 67
     7
 79
     5
170
     0
171
     0
290
     0
174
     0
 93
        1
 44
0.0
173
     0
291
     1
 45
0.0
1001
ACAD
1000
AcDbSavedByObjectVersion
1070
     0
  0
VISUALSTYLE
  5
34
102
{ACAD_REACTORS
330
2A
102
}
330
2A
100
AcDbVisualStyle
  2
Conceptual
 70
     9
 71
     3
 72
     2
 73
     0
 90
        0
 40
-0.6
 41
-30.0
 62
     5
 63
     7
 74
     2
 91
        2
 64
     7
 65
   257
 75
     1
175
     1
 42
40.0
 92
        8
 66
     7
 43
1.0
 76
     1
 77
     6
 78
     2
 67
     7
 79
     3
170
     0
171
     0
290
     0
174
     0
 93
        1
 44
0.0
173
     0
291
     0
 45
0.0
1001
ACAD
1000
AcDbSavedByObjectVersion
1070
     0
  0
VISUALSTYLE
  5
35
102
{ACAD_REACTORS
330
2A
102
}
330
2A
100
AcDbVisualStyle
  2
Dim
 70
    11
 71
     2
 72
     2
 73
     0
 90
        0
 40
-0.6
 41
-30.0
 62
     5
 63
     7
 74
     1
 91
        4
 64
     7
 65
   257
 75
     1
175
     1
 42
1.0
 92
        8
 66
     7
 43
1.0
 76
     1
 77
     6
 78
     2
 67
     7
 79
     5
170
     0
171
     0
290
     0
174
     0
 93
        1
 44
-50.0
173
     0
291
     1
 45
0.0
1001
ACAD
1000
AcDbSavedByObjectVersion
1070
     0
  0
VISUALSTYLE
  5
39
102
{ACAD_REACTORS
330
2A
102
}
330
2A
100
AcDbVisualStyle
  2
Facepattern
 70
    15
 71
     2
 72
     2
 73
     0
 90
        0
 40
-0.6
 41
-30.0
 62
     5
 63
     7
 74
     1
 91
        4
 64
     7
 65
   257
 75
     1
175
     1
 42
1.0
 92
        8
 66
     7
 43
1.0
 76
     1
 77
     6
 78
     2
 67
     7
 79
     5
170
     0
171
     0
290
     0
174
     0
 93
        1
 44
0.0
173
     0
291
     1
 45
0.0
1001
ACAD
1000
AcDbSavedByObjectVersion
1070
     0
  0
VISUALSTYLE
  5
2B
102
{ACAD_REACTORS
330
2A
102
}
330
2A
100
AcDbVisualStyle
  2
Flat
 70
     0
 71
     2
 72
     1
 73
     1
 90
        2
 40
-0.6
 41
30.0
 62
     5
 63
     7
 74
     0
 91
        4
 64
     7
 65
   257
 75
     1
175
     1
 42
1.0
 92
        8
 66
     7
 43
1.0
 76
     1
 77
     6
 78
     2
 67
     7
 79
     5
170
     0
171
     0
290
     0
174
     0
 93
       13
 44
0.0
173
     0
291
     1
 45
0.0
1001
ACAD
1000
AcDbSavedByObjectVersion
1070
     0
  0
VISUALSTYLE
  5
2C
102
{ACAD_REACTORS
330
2A
102
}
330
2A
100
AcDbVisualStyle
  2
FlatWithEdges
 70
     1
 71
     2
 72
     1
 73
     1
 90
        2
 40
-0.6
 41
30.0
 62
     5
 63
     7
 74
     1
 91
        4
 64
     7
 65
   257
 75
     1
175
     1
 42
1.0
 92
        0
 66
   257
 43
1.0
 76
     1
 77
     6
 78
     2
 67
     7
 79
     5
170
     0
171
     0
290
     0
174
     0
 93
       13
 44
0.0
173
     0
291
     1
 45
0.0
1001
ACAD
1000
AcDbSavedByObjectVersion
1070
     0
  0
VISUALSTYLE
  5
2D
102
{ACAD_REACTORS
330
2A
102
}
330
2A
100
AcDbVisualStyle
  2
Gouraud
 70
     2
 71
     2
 72
     2
 73
     1
 90
        2
 40
-0.6
 41
30.0
 62
     5
 63
     7
 74
     0
 91
        4
 64
     7
 65
   257
 75
     1
175
     1
 42
1.0
 92
        0
 66
     7
 43
1.0
 76
     1
 77
     6
 78
     2
 67
     7
 79
     5
170
     0
171
     0
290
     0
174
     0
 93
       13
 44
0.0
173
     0
291
     1
 45
0.0
1001
ACAD
1000
AcDbSavedByObjectVersion
1070
     0
  0
VISUALSTYLE
  5
2E
102
{ACAD_REACTORS
330
2A
102
}
330
2A
100
AcDbVisualStyle
  2
GouraudWithEdges
 70
     3
 71
     2
 72
     2
 73
     1
 90
        2
 40
-0.6
 41
30.0
 62
     5
 63
     7
 74
     1
 91
        4
 64
     7
 65
   257
 75
     1
175
     1
 42
1.0
 92
        0
 66
   257
 43
1.0
 76
     1
 77
     6
 78
     2
 67
     7
 79
     5
170
     0
171
     0
290
     0
174
     0
 93
       13
 44
0.0
173
     0
291
     1
 45
0.0
1001
ACAD
1000
AcDbSavedByObjectVersion
1070
     0
  0
VISUALSTYLE
  5
38
102
{ACAD_REACTORS
330
2A
102
}
330
2A
100
AcDbVisualStyle
  2
Linepattern
 70
    14
 71
     2
 72
     2
 73
     0
 90
        0
 40
-0.6
 41
-30.0
 62
     5
 63
     7
 74
     1
 91
        4
 64
     7
 65
   257
 75
     7
175
     7
 42
1.0
 92
        8
 66
     7
 43
1.0
 76
     1
 77
     6
 78
     2
 67
     7
 79
     5
170
     0
171
     0
290
     0
174
     0
 93
        1
 44
0.0
173
     0
291
     1
 45
0.0
1001
ACAD
1000
AcDbSavedByObjectVersion
1070
     0
  0
VISUALSTYLE
  5
33
102
{ACAD_REACTORS
330
2A
102
}
330
2A
100
AcDbVisualStyle
  2
Realistic
 70
     8
 71
     2
 72
     2
 73
     0
 90
        0
 40
-0.6
 41
-30.0
 62
     5
 63
     7
 74
     1
 91
        0
 64
     7
 65
   257
 75
     1
175
     1
 42
1.0
 92
        8
 66
     8
 43
1.0
 76
     1
 77
     6
 78
     2
 67
     7
 79
     5
170
     0
171
     0
290
     0
174
     0
 93
       13
 44
0.0
173
     0
291
     0
 45
0.0
1001
ACAD
1000
AcDbSavedByObjectVersion
1070
     0
  0
VISUALSTYLE
  5
37
102
{ACAD_REACTORS
330
2A
102
}
330
2A
100
AcDbVisualStyle
  2
Thicken
 70
    13
 71
     2
 72
     2
 73
     0
 90
        0
 40
-0.6
 41
-30.0
 62
     5
 63
     7
 74
     1
 91
        4
 64
     7
 65
   257
 75
     1
175
     1
 42
1.0
 92
       12
 66
     7
 43
1.0
 76
     1
 77
     6
 78
     2
 67
     7
 79
     5
170
     0
171
     0
290
     0
174
     0
 93
        1
 44
0.0
173
     0
291
     1
 45
0.0
1001
ACAD
1000
AcDbSavedByObjectVersion
1070
     0
  0
DICTIONARYVAR
  5
256
102
{ACAD_REACTORS
330
254
102
}
330
254
100
DictionaryVariables
280
     0
  1
80.000000
  0
DICTIONARYVAR
  5
255
102
{ACAD_REACTORS
330
254
102
}
330
254
100
DictionaryVariables
280
     0
  1
5.000000
  0
ENDSEC
  0
EOF
