  0
SECTION
  2
HEADER
  9
$ACADVER
  1
AC1015
  9
$ACADMAINTVER
 70
     6
  9
$DWGCODEPAGE
  3
DOS932
  9
$INSBASE
 10
0.0
 20
0.0
 30
0.0
  9
$EXTMIN
 10
0.0
 20
0.0
 30
0.0
  9
$EXTMAX
 10
210.0
 20
297.0
 30
0.0
  9
$LIMMIN
 10
0.0
 20
0.0
  9
$LIMMAX
 10
210.0
 20
297.0
  9
$ORTHOMODE
 70
     0
  9
$REGENMODE
 70
     1
  9
$FILLMODE
 70
     1
  9
$QTEXTMODE
 70
     0
  9
$MIRRTEXT
 70
     1
  9
$LTSCALE
 40
1.0
  9
$ATTMODE
 70
     1
  9
$TEXTSIZE
 40
3.5
  9
$TRACEWID
 40
1.0
  9
$TEXTSTYLE
  7
Standard
  9
$CLAYER
  8
0
  9
$CELTYPE
  6
ByLayer
  9
$CECOLOR
 62
   256
  9
$CELTSCALE
 40
1.0
  9
$DISPSILH
 70
     0
  9
$DIMSCALE
 40
1.0
  9
$DIMASZ
 40
3.302
  9
$DIMEXO
 40
1.0
  9
$DIMDLI
 40
3.75
  9
$DIMRND
 40
0.0
  9
$DIMDLE
 40
0.0
  9
$DIMEXE
 40
1.0
  9
$DIMTP
 40
0.0
  9
$DIMTM
 40
0.0
  9
$DIMTXT
 40
3.5
  9
$DIMCEN
 40
2.5
  9
$DIMTSZ
 40
0.0
  9
$DIMTOL
 70
     0
  9
$DIMLIM
 70
     0
  9
$DIMTIH
 70
     1
  9
$DIMTOH
 70
     1
  9
$DIMSE1
 70
     0
  9
$DIMSE2
 70
     0
  9
$DIMTAD
 70
     1
  9
$DIMZIN
 70
     1
  9
$DIMBLK
  1

  9
$DIMASO
 70
     1
  9
$DIMSHO
 70
     1
  9
$DIMPOST
  1

  9
$DIMAPOST
  1

  9
$DIMALT
 70
     0
  9
$DIMALTD
 70
     3
  9
$DIMALTF
 40
0.0393700787
  9
$DIMLFAC
 40
1.0
  9
$DIMTOFL
 70
     1
  9
$DIMTVP
 40
0.0
  9
$DIMTIX
 70
     0
  9
$DIMSOXD
 70
     0
  9
$DIMSAH
 70
     0
  9
$DIMBLK1
  1

  9
$DIMBLK2
  1

  9
$DIMSTYLE
  2
ISO-25
  9
$DIMCLRD
 70
     0
  9
$DIMCLRE
 70
     0
  9
$DIMCLRT
 70
     0
  9
$DIMTFAC
 40
1.0
  9
$DIMGAP
 40
1.524
  9
$DIMJUST
 70
     0
  9
$DIMSD1
 70
     0
  9
$DIMSD2
 70
     0
  9
$DIMTOLJ
 70
     0
  9
$DIMTZIN
 70
     1
  9
$DIMALTZ
 70
     0
  9
$DIMALTTZ
 70
     0
  9
$DIMUPT
 70
     0
  9
$DIMDEC
 70
     3
  9
$DIMTDEC
 70
     3
  9
$DIMALTU
 70
     2
  9
$DIMALTTD
 70
     3
  9
$DIMTXSTY
  7
Standard
  9
$DIMAUNIT
 70
     0
  9
$DIMADEC
 70
     0
  9
$DIMALTRND
 40
0.0
  9
$DIMAZIN
 70
     0
  9
$DIMDSEP
 70
    44
  9
$DIMATFIT
 70
     3
  9
$DIMFRAC
 70
     0
  9
$DIMLDRBLK
  1

  9
$DIMLUNIT
 70
     2
  9
$DIMLWD
 70
    -2
  9
$DIMLWE
 70
    -2
  9
$DIMTMOVE
 70
     0
  9
$LUNITS
 70
     2
  9
$LUPREC
 70
     3
  9
$SKETCHINC
 40
1.0
  9
$FILLETRAD
 40
10.0
  9
$AUNITS
 70
     0
  9
$AUPREC
 70
     0
  9
$MENU
  1
.
  9
$ELEVATION
 40
0.0
  9
$PELEVATION
 40
0.0
  9
$THICKNESS
 40
0.0
  9
$LIMCHECK
 70
     0
  9
$CHAMFERA
 40
0.0
  9
$CHAMFERB
 40
0.0
  9
$CHAMFERC
 40
0.0
  9
$CHAMFERD
 40
0.0
  9
$SKPOLY
 70
     0
  9
$TDCREATE
 40
2459004.446909919
  9
$TDUCREATE
 40
2459004.071909919
  9
$TDUPDATE
 40
2459004.446910278
  9
$TDUUPDATE
 40
2459004.071910278
  9
$TDINDWG
 40
0.0000000116
  9
$TDUSRTIMER
 40
0.0000000116
  9
$USRTIMER
 70
     1
  9
$ANGBASE
 50
0.0
  9
$ANGDIR
 70
     0
  9
$PDMODE
 70
     0
  9
$PDSIZE
 40
-1.0
  9
$PLINEWID
 40
0.0
  9
$SPLFRAME
 70
     0
  9
$SPLINETYPE
 70
     6
  9
$SPLINESEGS
 70
     8
  9
$HANDSEED
  5
1AA
  9
$SURFTAB1
 70
     6
  9
$SURFTAB2
 70
     6
  9
$SURFTYPE
 70
     6
  9
$SURFU
 70
     6
  9
$SURFV
 70
     6
  9
$UCSBASE
  2

  9
$UCSNAME
  2

  9
$UCSORG
 10
0.0
 20
0.0
 30
0.0
  9
$UCSXDIR
 10
1.0
 20
0.0
 30
0.0
  9
$UCSYDIR
 10
0.0
 20
1.0
 30
0.0
  9
$UCSORTHOREF
  2

  9
$UCSORTHOVIEW
 70
     0
  9
$UCSORGTOP
 10
0.0
 20
0.0
 30
0.0
  9
$UCSORGBOTTOM
 10
0.0
 20
0.0
 30
0.0
  9
$UCSORGLEFT
 10
0.0
 20
0.0
 30
0.0
  9
$UCSORGRIGHT
 10
0.0
 20
0.0
 30
0.0
  9
$UCSORGFRONT
 10
0.0
 20
0.0
 30
0.0
  9
$UCSORGBACK
 10
0.0
 20
0.0
 30
0.0
  9
$PUCSBASE
  2

  9
$PUCSNAME
  2

  9
$PUCSORG
 10
0.0
 20
0.0
 30
0.0
  9
$PUCSXDIR
 10
1.0
 20
0.0
 30
0.0
  9
$PUCSYDIR
 10
0.0
 20
1.0
 30
0.0
  9
$PUCSORTHOREF
  2

  9
$PUCSORTHOVIEW
 70
     0
  9
$PUCSORGTOP
 10
0.0
 20
0.0
 30
0.0
  9
$PUCSORGBOTTOM
 10
0.0
 20
0.0
 30
0.0
  9
$PUCSORGLEFT
 10
0.0
 20
0.0
 30
0.0
  9
$PUCSORGRIGHT
 10
0.0
 20
0.0
 30
0.0
  9
$PUCSORGFRONT
 10
0.0
 20
0.0
 30
0.0
  9
$PUCSORGBACK
 10
0.0
 20
0.0
 30
0.0
  9
$USERI1
 70
     0
  9
$USERI2
 70
     0
  9
$USERI3
 70
     0
  9
$USERI4
 70
     0
  9
$USERI5
 70
     0
  9
$USERR1
 40
0.0
  9
$USERR2
 40
0.0
  9
$USERR3
 40
0.0
  9
$USERR4
 40
0.0
  9
$USERR5
 40
0.0
  9
$WORLDVIEW
 70
     1
  9
$SHADEDGE
 70
     3
  9
$SHADEDIF
 70
    70
  9
$TILEMODE
 70
     1
  9
$MAXACTVP
 70
    64
  9
$PINSBASE
 10
0.0
 20
0.0
 30
0.0
  9
$PLIMCHECK
 70
     0
  9
$PEXTMIN
 10
1.0000000000E+20
 20
1.0000000000E+20
 30
1.0000000000E+20
  9
$PEXTMAX
 10
-1.0000000000E+20
 20
-1.0000000000E+20
 30
-1.0000000000E+20
  9
$PLIMMIN
 10
0.0
 20
0.0
  9
$PLIMMAX
 10
420.0
 20
297.0
  9
$UNITMODE
 70
     0
  9
$VISRETAIN
 70
     1
  9
$PLINEGEN
 70
     0
  9
$PSLTSCALE
 70
     1
  9
$TREEDEPTH
 70
  3020
  9
$CMLSTYLE
  2
Standard
  9
$CMLJUST
 70
     0
  9
$CMLSCALE
 40
20.0
  9
$PROXYGRAPHICS
 70
     1
  9
$MEASUREMENT
 70
     1
  9
$CELWEIGHT
370
    -1
  9
$ENDCAPS
280
     0
  9
$JOINSTYLE
280
     0
  9
$LWDISPLAY
290
     1
  9
$INSUNITS
 70
     4
  9
$HYPERLINKBASE
  1

  9
$STYLESHEET
  1

  9
$XEDIT
290
     1
  9
$CEPSNTYPE
380
     0
  9
$PSTYLEMODE
290
     1
  9
$FINGERPRINTGUID
  2
{296d794f-8453-4d11-a26a-4fc158baaf0b}
  9
$VERSIONGUID
  2
{FAEB1C32-E019-11D5-929B-00C0DF256EC4}
  9
$EXTNAMES
290
     1
  9
$PSVPSCALE
 40
0.0
  9
$OLESTARTUP
290
     0
  0
ENDSEC
  0
SECTION
  2
CLASSES
  0
CLASS
  1
ACDBDICTIONARYWDFLT
  2
AcDbDictionaryWithDefault
  3
ObjectDBX Classes
 90
        0
280
     0
281
     0
  0
CLASS
  1
VISUALSTYLE
  2
AcDbVisualStyle
  3
ObjectDBX Classes
 90
     4095
280
     0
281
     0
  0
CLASS
  1
MATERIAL
  2
AcDbMaterial
  3
ObjectDBX Classes
 90
     1153
280
     0
281
     0
  0
CLASS
  1
SCALE
  2
AcDbScale
  3
ObjectDBX Classes
 90
     1153
280
     0
281
     0
  0
CLASS
  1
TABLESTYLE
  2
AcDbTableStyle
  3
ObjectDBX Classes
 90
     4095
280
     0
281
     0
  0
CLASS
  1
MLEADERSTYLE
  2
AcDbMLeaderStyle
  3
ACDB_MLEADERSTYLE_CLASS
 90
     4095
280
     0
281
     0
  0
CLASS
  1
SUN
  2
AcDbSun
  3
SCENEOE
 90
     1153
280
     0
281
     0
  0
CLASS
  1
ACDBPLACEHOLDER
  2
AcDbPlaceHolder
  3
ObjectDBX Classes
 90
        0
280
     0
281
     0
  0
CLASS
  1
LAYOUT
  2
AcDbLayout
  3
ObjectDBX Classes
 90
        0
280
     0
281
     0
  0
ENDSEC
  0
SECTION
  2
TABLES
  0
TABLE
  2
VPORT
  5
8
330
0
100
AcDbSymbolTable
 70
     1
  0
VPORT
  5
29
330
8
100
AcDbSymbolTableRecord
100
AcDbViewportTableRecord
  2
*Active
 70
     0
 10
0.0
 20
0.0
 11
1.0
 21
1.0
 12
105.0
 22
148.5
 13
0.0
 23
0.0
 14
10.0
 24
10.0
 15
10.0
 25
10.0
 16
0.0
 26
0.0
 36
1.0
 17
0.0
 27
0.0
 37
0.0
 40
297.0
 41
0.7070707071
 42
50.0
 43
0.0
 44
0.0
 50
0.0
 51
0.0
 71
     0
 72
  2000
 73
     1
 74
     3
 75
     0
 76
     0
 77
     0
 78
     0
281
     0
 65
     1
110
0.0
120
0.0
130
0.0
111
1.0
121
0.0
131
0.0
112
0.0
122
1.0
132
0.0
 79
     0
146
0.0
  0
ENDTAB
  0
TABLE
  2
LTYPE
  5
5
330
0
100
AcDbSymbolTable
 70
     6
  0
LTYPE
  5
14
330
5
100
AcDbSymbolTableRecord
100
AcDbLinetypeTableRecord
  2
ByBlock
 70
     0
  3

 72
    65
 73
     0
 40
0.0
  0
LTYPE
  5
15
330
5
100
AcDbSymbolTableRecord
100
AcDbLinetypeTableRecord
  2
ByLayer
 70
     0
  3

 72
    65
 73
     0
 40
0.0
  0
LTYPE
  5
16
330
5
100
AcDbSymbolTableRecord
100
AcDbLinetypeTableRecord
  2
Continuous
 70
     0
  3
Solid line
 72
    65
 73
     0
 40
0.0
  0
LTYPE
  5
6E
330
5
100
AcDbSymbolTableRecord
100
AcDbLinetypeTableRecord
  2
HIDDEN
 70
     0
  3
Hidden __ __ __ __ __ __ __ __ __ __ __ __ __ __
 72
    65
 73
     2
 40
1.905
 49
1.27
 74
     0
 49
-0.635
 74
     0
  0
LTYPE
  5
6F
330
5
100
AcDbSymbolTableRecord
100
AcDbLinetypeTableRecord
  2
PHANTOM
 70
     0
  3
Phantom ______  __  __  ______  __  __  ______
 72
    65
 73
     6
 40
12.7
 49
6.35
 74
     0
 49
-1.27
 74
     0
 49
1.27
 74
     0
 49
-1.27
 74
     0
 49
1.27
 74
     0
 49
-1.27
 74
     0
  0
LTYPE
  5
70
330
5
100
AcDbSymbolTableRecord
100
AcDbLinetypeTableRecord
  2
CENTER
 70
     0
  3
Center ____ _ ____ _ ____ _ ____ _ ____ _ ____
 72
    65
 73
     4
 40
10.16
 49
6.35
 74
     0
 49
-1.27
 74
     0
 49
1.27
 74
     0
 49
-1.27
 74
     0
  0
LTYPE
  5
71
330
5
100
AcDbSymbolTableRecord
100
AcDbLinetypeTableRecord
  2
CENTERX2
 70
     0
  3
Center (2x) ________  __  ________  __  _____
 72
    65
 73
     4
 40
20.32
 49
12.7
 74
     0
 49
-2.54
 74
     0
 49
2.54
 74
     0
 49
-2.54
 74
     0
  0
LTYPE
  5
72
330
5
100
AcDbSymbolTableRecord
100
AcDbLinetypeTableRecord
  2
DOT2
 70
     0
  3
Dot (.5x) ........................................
 72
    65
 73
     2
 40
0.635
 49
0.0
 74
     0
 49
-0.635
 74
     0
  0
ENDTAB
  0
TABLE
  2
LAYER
  5
2
330
0
100
AcDbSymbolTable
 70
     1
  0
LAYER
  5
10
330
2
100
AcDbSymbolTableRecord
100
AcDbLayerTableRecord
  2
0
 70
     0
 62
     7
  6
Continuous
370
    -3
390
F
  0
ENDTAB
  0
TABLE
  2
STYLE
  5
3
330
0
100
AcDbSymbolTable
 70
     1
  0
STYLE
  5
11
330
3
100
AcDbSymbolTableRecord
100
AcDbTextStyleTableRecord
  2
Standard
 70
     0
 40
0.0
 41
1.0
 50
0.0
 71
     0
 42
3.5
  3
txt
  4
bigfont
  0
ENDTAB
  0
TABLE
  2
VIEW
  5
6
330
0
100
AcDbSymbolTable
 70
     0
  0
ENDTAB
  0
TABLE
  2
UCS
  5
7
330
0
100
AcDbSymbolTable
 70
     0
  0
ENDTAB
  0
TABLE
  2
APPID
  5
9
330
0
100
AcDbSymbolTable
 70
     1
  0
APPID
  5
12
330
9
100
AcDbSymbolTableRecord
100
AcDbRegAppTableRecord
  2
ACAD
 70
     0
  0
ENDTAB
  0
TABLE
  2
DIMSTYLE
  5
A
330
0
100
AcDbSymbolTable
 70
     1
100
AcDbDimStyleTable
  0
DIMSTYLE
105
27
330
A
100
AcDbSymbolTableRecord
100
AcDbDimStyleTableRecord
  2
ISO-25
 70
     0
 41
2.5
 42
0.625
 43
3.75
 44
1.25
 73
     0
 74
     0
 77
     1
 78
     8
140
2.5
141
2.5
143
0.0393700787
147
0.625
171
     3
172
     1
178
     0
271
     2
272
     2
274
     3
278
    44
283
     0
284
     8
340
11
  0
ENDTAB
  0
TABLE
  2
BLOCK_RECORD
  5
1
330
0
100
AcDbSymbolTable
 70
     1
  0
BLOCK_RECORD
  5
1F
330
1
100
AcDbSymbolTableRecord
100
AcDbBlockTableRecord
  2
*Model_Space
340
22
  0
BLOCK_RECORD
  5
1B
330
1
100
AcDbSymbolTableRecord
100
AcDbBlockTableRecord
  2
*Paper_Space
340
1E
  0
BLOCK_RECORD
  5
23
330
1
100
AcDbSymbolTableRecord
100
AcDbBlockTableRecord
  2
*Paper_Space0
340
26
  0
ENDTAB
  0
ENDSEC
  0
SECTION
  2
BLOCKS
  0
BLOCK
  5
20
330
1F
100
AcDbEntity
  8
0
100
AcDbBlockBegin
  2
*Model_Space
 70
     0
 10
0.0
 20
0.0
 30
0.0
  3
*Model_Space
  1

  0
ENDBLK
  5
21
330
1F
100
AcDbEntity
  8
0
100
AcDbBlockEnd
  0
BLOCK
  5
1C
330
1B
100
AcDbEntity
 67
     1
  8
0
100
AcDbBlockBegin
  2
*Paper_Space
 70
     0
 10
0.0
 20
0.0
 30
0.0
  3
*Paper_Space
  1

  0
ENDBLK
  5
1D
330
1B
100
AcDbEntity
 67
     1
  8
0
100
AcDbBlockEnd
  0
BLOCK
  5
24
330
23
100
AcDbEntity
  8
0
100
AcDbBlockBegin
  2
*Paper_Space0
 70
     0
 10
0.0
 20
0.0
 30
0.0
  3
*Paper_Space0
  1

  0
ENDBLK
  5
25
330
23
100
AcDbEntity
  8
0
100
AcDbBlockEnd
  0
ENDSEC
  0
SECTION
  2
ENTITIES
  0
LINE
  5
73
330
1F
100
AcDbEntity
  8
0
  6
CENTERX2
 62
     4
370
    18
100
AcDbLine
 10
101.648074379
 20
-198.0956475223
 30
0.0
 11
101.648074379
 21
-3.4307304822
 31
0.0
  0
LINE
  5
74
330
1F
100
AcDbEntity
  8
0
  6
CENTERX2
 62
     4
370
    18
100
AcDbLine
 10
83.9353526246
 20
-36.7041970837
 30
0.0
 11
119.8392387939
 21
-36.7041970837
 31
0.0
  0
LINE
  5
75
330
1F
100
AcDbEntity
  8
0
  6
Continuous
 62
     3
370
    18
100
AcDbLine
 10
106.048074379
 20
-19.7041970837
 30
0.0
 11
124.948074379
 21
-19.7041970837
 31
0.0
  0
LINE
  5
76
330
1F
100
AcDbEntity
  8
0
  6
Continuous
 62
     3
370
    18
100
AcDbLine
 10
107.4575493983
 20
-17.5041970837
 30
0.0
 11
126.648074379
 21
-17.5041970837
 31
0.0
  0
LINE
  5
77
330
1F
100
AcDbEntity
  8
0
  6
Continuous
 62
     3
370
    18
100
AcDbLine
 10
78.348074379
 20
-19.7041970837
 30
0.0
 11
97.248074379
 21
-19.7041970837
 31
0.0
  0
LINE
  5
78
330
1F
100
AcDbEntity
  8
0
  6
Continuous
 62
     3
370
    18
100
AcDbLine
 10
76.648074379
 20
-17.2041970837
 30
0.0
 11
96.1380834534
 21
-17.2041970837
 31
0.0
  0
LINE
  5
79
330
1F
100
AcDbEntity
  8
0
  6
Continuous
 62
     3
370
    18
100
AcDbLine
 10
129.648074379
 20
-46.7041970837
 30
0.0
 11
129.648074379
 21
-20.2041970837
 31
0.0
  0
LINE
  5
7A
330
1F
100
AcDbEntity
  8
0
  6
Continuous
 62
     3
370
    18
100
AcDbLine
 10
73.648074379
 20
-46.7041970837
 30
0.0
 11
73.648074379
 21
-20.2041970837
 31
0.0
  0
LINE
  5
7B
330
1F
100
AcDbEntity
  8
0
  6
Continuous
 62
     3
370
    18
100
AcDbLine
 10
76.348074379
 20
-46.7041970837
 30
0.0
 11
76.348074379
 21
-21.7041970837
 31
0.0
  0
LINE
  5
7C
330
1F
100
AcDbEntity
  8
0
  6
Continuous
 62
     3
370
    18
100
AcDbLine
 10
126.948074379
 20
-46.7041970837
 30
0.0
 11
126.948074379
 21
-21.7041970837
 31
0.0
  0
LINE
  5
7D
330
1F
100
AcDbEntity
  8
0
  6
Continuous
 62
     3
370
    18
100
AcDbLine
 10
154.9971383233
 20
459.3668540887
 30
0.0
 11
151.9550937946
 21
462.1434534561
 31
0.0
  0
LINE
  5
7E
330
1F
100
AcDbEntity
  8
0
  6
Continuous
 62
     3
370
    18
100
AcDbLine
 10
156.8859454698
 20
462.1405914657
 30
0.0
 11
160.3959805192
 21
459.3697160791
 31
0.0
  0
LINE
  5
7F
330
1F
100
AcDbEntity
  8
0
  6
Continuous
 62
     3
370
    18
100
AcDbLine
 10
153.9184194697
 20
471.4961879175
 30
0.0
 11
154.5055615293
 21
471.4961879175
 31
0.0
  0
LINE
  5
80
330
1F
100
AcDbEntity
  8
0
  6
Continuous
 62
     3
370
    18
100
AcDbLine
 10
156.5055615293
 20
462.9254965165
 30
0.0
 11
156.5055615293
 21
469.4961879175
 31
0.0
  0
LINE
  5
81
330
1F
100
AcDbEntity
  8
0
  6
Continuous
 62
     3
370
    18
100
AcDbLine
 10
153.9184194697
 20
471.4961879175
 30
0.0
 11
153.9184194697
 21
460.3514452275
 31
0.0
  0
LINE
  5
82
330
1F
100
AcDbEntity
  8
0
  6
Continuous
 62
     3
370
    18
100
AcDbLine
 10
160.7763644597
 20
371.5149406824
 30
0.0
 11
160.7763644597
 21
458.5848110283
 31
0.0
  0
LINE
  5
83
330
1F
100
AcDbEntity
  8
0
  6
Continuous
 62
     3
370
    18
100
AcDbLine
 10
77.1807684619
 20
398.8784372474
 30
0.0
 11
77.1807684619
 21
371.5149406824
 31
0.0
  0
LINE
  5
84
330
1F
100
AcDbEntity
  8
0
  6
Continuous
 62
     3
370
    18
100
AcDbLine
 10
80.7623553973
 20
397.5641229958
 30
0.0
 11
80.7623553973
 21
371.5149406824
 31
0.0
  0
LINE
  5
85
330
1F
100
AcDbEntity
  8
0
  6
Continuous
 62
     3
370
    18
100
AcDbLine
 10
71.4470978542
 20
371.5149406824
 30
0.0
 11
71.4470978542
 21
471.4961879175
 31
0.0
  0
LINE
  5
86
330
1F
100
AcDbEntity
  8
0
  6
Continuous
 62
     3
370
    18
100
AcDbLine
 10
70.7395921455
 20
471.4961879175
 30
0.0
 11
71.4470978542
 21
471.4961879175
 31
0.0
  0
LINE
  5
87
330
1F
100
AcDbEntity
  8
0
  6
Continuous
 62
     3
370
    18
100
AcDbLine
 10
62.7820198191
 20
482.8581959002
 30
0.0
 11
62.7820198191
 21
371.5149406824
 31
0.0
  0
LINE
  5
88
330
1F
100
AcDbEntity
  8
0
  6
Continuous
 62
     3
370
    18
100
AcDbLine
 10
56.0623202051
 20
482.3604403733
 30
0.0
 11
56.0623202051
 21
371.5149406824
 31
0.0
  0
LINE
  5
89
330
1F
100
AcDbEntity
  8
0
  6
Continuous
 62
     3
370
    18
100
AcDbLine
 10
58.8907473298
 20
482.5699534936
 30
0.0
 11
58.8907473298
 21
371.5149406824
 31
0.0
  0
LINE
  5
8A
330
1F
100
AcDbEntity
  8
0
  6
Continuous
 62
     3
370
    18
100
AcDbLine
 10
66.8133574566
 20
371.5149406824
 30
0.0
 11
66.8133574566
 21
458.8423677764
 31
0.0
  0
LINE
  5
8B
330
1F
100
AcDbEntity
  8
0
  6
Continuous
 62
     3
370
    18
100
AcDbLine
 10
68.7395921455
 20
463.3193583502
 30
0.0
 11
68.7395921455
 21
469.4961879175
 31
0.0
  0
LINE
  5
8C
330
1F
100
AcDbEntity
  8
0
  6
Continuous
 62
     3
370
    18
100
AcDbLine
 10
68.6415290336
 20
462.8874904887
 30
0.0
 11
66.9114205684
 21
459.2742356379
 31
0.0
  0
LINE
  5
8D
330
1F
100
AcDbEntity
  8
0
  6
Continuous
 62
     3
370
    18
100
AcDbLine
 10
134.6546197244
 20
462.8874904887
 30
0.0
 11
136.3847281896
 21
459.2742356379
 31
0.0
  0
LINE
  5
8E
330
1F
100
AcDbEntity
  8
0
  6
Continuous
 62
     3
370
    18
100
AcDbLine
 10
151.6292413905
 20
462.8820501112
 30
0.0
 11
151.6292413905
 21
469.4961879175
 31
0.0
  0
LINE
  5
8F
330
1F
100
AcDbEntity
  8
0
  6
Continuous
 62
     3
370
    18
100
AcDbLine
 10
149.6292413905
 20
471.4961879175
 30
0.0
 11
148.9003003913
 21
471.4961879175
 31
0.0
  0
LINE
  5
90
330
1F
100
AcDbEntity
  8
0
  6
Continuous
 62
     3
370
    18
100
AcDbLine
 10
148.9003003913
 20
471.4961879175
 30
0.0
 11
148.9003003913
 21
371.5149406824
 31
0.0
  0
LINE
  5
91
330
1F
100
AcDbEntity
  8
0
  6
Continuous
 62
     3
370
    18
100
AcDbLine
 10
155.3229907274
 20
458.6282574336
 30
0.0
 11
155.3229907274
 21
371.5149406824
 31
0.0
  0
LINE
  5
92
330
1F
100
AcDbEntity
  8
0
  6
Continuous
 62
     3
370
    18
100
AcDbLine
 10
140.5141289389
 20
482.8581959002
 30
0.0
 11
140.5141289389
 21
371.5149406824
 31
0.0
  0
LINE
  5
93
330
1F
100
AcDbEntity
  8
0
  6
Continuous
 62
     3
370
    18
100
AcDbLine
 10
144.4054014282
 20
482.5699534936
 30
0.0
 11
144.4054014282
 21
371.5149406824
 31
0.0
  0
LINE
  5
94
330
1F
100
AcDbEntity
  8
0
  6
Continuous
 62
     3
370
    18
100
AcDbLine
 10
147.233828553
 20
482.3604403733
 30
0.0
 11
147.233828553
 21
371.5149406824
 31
0.0
  0
LINE
  5
95
330
1F
100
AcDbEntity
  8
0
  6
Continuous
 62
     3
370
    18
100
AcDbLine
 10
134.5565566126
 20
463.3193583502
 30
0.0
 11
134.5565566126
 21
469.4961879175
 31
0.0
  0
LINE
  5
96
330
1F
100
AcDbEntity
  8
0
  6
Continuous
 62
     3
370
    18
100
AcDbLine
 10
132.5565566126
 20
471.4961879175
 30
0.0
 11
131.8490509039
 21
471.4961879175
 31
0.0
  0
LINE
  5
97
330
1F
100
AcDbEntity
  8
0
  6
Continuous
 62
     3
370
    18
100
AcDbLine
 10
122.5337933608
 20
397.5641229958
 30
0.0
 11
122.5337933608
 21
371.5149406824
 31
0.0
  0
LINE
  5
98
330
1F
100
AcDbEntity
  8
0
  6
Continuous
 62
     3
370
    18
100
AcDbLine
 10
126.1153802961
 20
398.8784372474
 30
0.0
 11
126.1153802961
 21
371.5149406824
 31
0.0
  0
LINE
  5
99
330
1F
100
AcDbEntity
  8
0
  6
Continuous
 62
     3
370
    18
100
AcDbLine
 10
136.4827913015
 20
371.5149406824
 30
0.0
 11
136.4827913015
 21
458.8423677764
 31
0.0
  0
LINE
  5
9A
330
1F
100
AcDbEntity
  8
0
  6
Continuous
 62
     3
370
    18
100
AcDbLine
 10
131.8490509039
 20
371.5149406824
 30
0.0
 11
131.8490509039
 21
471.4961879175
 31
0.0
  0
LINE
  5
9B
330
1F
100
AcDbEntity
  8
0
  6
Continuous
 62
     3
370
    18
100
AcDbLine
 10
109.0642728661
 20
397.5149406824
 30
0.0
 11
121.648074379
 21
397.5149406824
 31
0.0
  0
LINE
  5
9C
330
1F
100
AcDbEntity
  8
0
  6
Continuous
 62
     3
370
    18
100
AcDbLine
 10
76.648074379
 20
403.5149406824
 30
0.0
 11
76.648074379
 21
469.5149406824
 31
0.0
  0
LINE
  5
9D
330
1F
100
AcDbEntity
  8
0
  6
Continuous
 62
     3
370
    18
100
AcDbLine
 10
81.648074379
 20
474.5149406824
 30
0.0
 11
121.648074379
 21
474.5149406824
 31
0.0
  0
LINE
  5
9E
330
1F
100
AcDbEntity
  8
0
  6
Continuous
 62
     3
370
    18
100
AcDbLine
 10
126.648074379
 20
403.5149406824
 30
0.0
 11
126.648074379
 21
469.5149406824
 31
0.0
  0
LINE
  5
9F
330
1F
100
AcDbEntity
  8
0
  6
Continuous
 62
     3
370
    18
100
AcDbLine
 10
81.648074379
 20
477.5149406824
 30
0.0
 11
121.648074379
 21
477.5149406824
 31
0.0
  0
LINE
  5
A0
330
1F
100
AcDbEntity
  8
0
  6
Continuous
 62
     3
370
    18
100
AcDbLine
 10
73.648074379
 20
405.5149406824
 30
0.0
 11
73.648074379
 21
469.5149406824
 31
0.0
  0
LINE
  5
A1
330
1F
100
AcDbEntity
  8
0
  6
Continuous
 62
     3
370
    18
100
AcDbLine
 10
129.648074379
 20
405.5149406824
 30
0.0
 11
129.648074379
 21
469.5149406824
 31
0.0
  0
LINE
  5
A2
330
1F
100
AcDbEntity
  8
0
  6
Continuous
 62
     3
370
    18
100
AcDbLine
 10
81.648074379
 20
397.5149406824
 30
0.0
 11
94.2318758919
 21
397.5149406824
 31
0.0
  0
LINE
  5
A3
330
1F
100
AcDbEntity
  8
0
  6
Continuous
 62
     3
370
    18
100
AcDbLine
 10
161.148074379
 20
462.2262655478
 30
0.0
 11
165.1639921706
 21
459.9076743298
 31
0.0
  0
LINE
  5
A4
330
1F
100
AcDbEntity
  8
0
  6
Continuous
 62
     3
370
    18
100
AcDbLine
 10
160.648074379
 20
463.0922909516
 30
0.0
 11
160.648074379
 21
469.5149406824
 31
0.0
  0
LINE
  5
A5
330
1F
100
AcDbEntity
  8
0
  6
Continuous
 62
     3
370
    18
100
AcDbLine
 10
42.648074379
 20
463.0922909516
 30
0.0
 11
42.648074379
 21
469.5149406824
 31
0.0
  0
LINE
  5
A6
330
1F
100
AcDbEntity
  8
0
  6
Continuous
 62
     3
370
    18
100
AcDbLine
 10
44.5988059049
 20
479.7084299663
 30
0.0
 11
42.0443565486
 21
386.045286902
 31
0.0
  0
LINE
  5
A7
330
1F
100
AcDbEntity
  8
0
  6
Continuous
 62
     3
370
    18
100
AcDbLine
 10
101.6480743789
 20
485.5149406825
 30
0.0
 11
72.6480743789
 21
485.5149406825
 31
0.0
  0
LINE
  5
A8
330
1F
100
AcDbEntity
  8
0
  6
Continuous
 62
     3
370
    18
100
AcDbLine
 10
71.6480743789
 20
484.4436063396
 30
0.0
 11
71.6480743789
 21
484.5149406825
 31
0.0
  0
LINE
  5
A9
330
1F
100
AcDbEntity
  8
0
  6
Continuous
 62
     3
370
    18
100
AcDbLine
 10
101.648074379
 20
483.5149406824
 30
0.0
 11
71.0189922909
 21
483.5149406824
 31
0.0
  0
LINE
  5
AA
330
1F
100
AcDbEntity
  8
0
  6
Continuous
 62
     3
370
    18
100
AcDbLine
 10
46.4503191468
 20
481.648440295
 30
0.0
 11
70.7219460644
 21
483.4463385852
 31
0.0
  0
LINE
  5
AB
330
1F
100
AcDbEntity
  8
0
  6
Continuous
 62
     3
370
    18
100
AcDbLine
 10
156.8458296109
 20
481.648440295
 30
0.0
 11
132.5742026933
 21
483.4463385852
 31
0.0
  0
LINE
  5
AC
330
1F
100
AcDbEntity
  8
0
  6
Continuous
 62
     3
370
    18
100
AcDbLine
 10
131.6480743789
 20
484.4436063396
 30
0.0
 11
131.6480743789
 21
484.5149406825
 31
0.0
  0
LINE
  5
AD
330
1F
100
AcDbEntity
  8
0
  6
Continuous
 62
     3
370
    18
100
AcDbLine
 10
101.648074379
 20
483.5149406824
 30
0.0
 11
132.2771564671
 21
483.5149406824
 31
0.0
  0
LINE
  5
AE
330
1F
100
AcDbEntity
  8
0
  6
Continuous
 62
     3
370
    18
100
AcDbLine
 10
101.6480743789
 20
485.5149406825
 30
0.0
 11
130.6480743789
 21
485.5149406825
 31
0.0
  0
LINE
  5
AF
330
1F
100
AcDbEntity
  8
0
  6
CENTERX2
 62
     4
370
    18
100
AcDbLine
 10
28.0341220906
 20
-190.3181493722
 30
0.0
 11
50.6929576376
 21
-167.6593138252
 31
0.0
  0
LINE
  5
B0
330
1F
100
AcDbEntity
  8
0
  6
HIDDEN
 62
     3
370
    18
100
AcDbLine
 10
30.5724807638
 20
330.5149406824
 30
0.0
 11
16.648074379
 21
330.5149406824
 31
0.0
  0
LINE
  5
B1
330
1F
100
AcDbEntity
  8
0
  6
HIDDEN
 62
     3
370
    18
100
AcDbLine
 10
30.5724807638
 20
348.5149406824
 30
0.0
 11
16.648074379
 21
348.5149406824
 31
0.0
  0
LINE
  5
B2
330
1F
100
AcDbEntity
  8
0
  6
CENTERX2
 62
     4
370
    18
100
AcDbLine
 10
8.8083230486
 20
-116.7041970837
 30
0.0
 11
203.0680585475
 21
-116.7041970837
 31
0.0
  0
LINE
  5
B3
330
1F
100
AcDbEntity
  8
0
  6
HIDDEN
 62
     3
370
    18
100
AcDbLine
 10
16.648074379
 20
-107.7041970837
 30
0.0
 11
31.648074379
 21
-107.7041970837
 31
0.0
  0
LINE
  5
B4
330
1F
100
AcDbEntity
  8
0
  6
HIDDEN
 62
     3
370
    18
100
AcDbLine
 10
16.648074379
 20
-125.7041970837
 30
0.0
 11
31.648074379
 21
-125.7041970837
 31
0.0
  0
LINE
  5
B5
330
1F
100
AcDbEntity
  8
0
  6
HIDDEN
 62
     3
370
    18
100
AcDbLine
 10
16.648074379
 20
-126.7041970837
 30
0.0
 11
31.648074379
 21
-126.7041970837
 31
0.0
  0
LINE
  5
B6
330
1F
100
AcDbEntity
  8
0
  6
HIDDEN
 62
     3
370
    18
100
AcDbLine
 10
16.648074379
 20
-106.7041970837
 30
0.0
 11
31.648074379
 21
-106.7041970837
 31
0.0
  0
LINE
  5
B7
330
1F
100
AcDbEntity
  8
0
  6
Continuous
 62
     3
370
    18
100
AcDbLine
 10
49.6823985332
 20
24.8149406824
 30
0.0
 11
49.6823985332
 21
29.3149406824
 31
0.0
  0
LINE
  5
B8
330
1F
100
AcDbEntity
  8
0
  6
Continuous
 62
     3
370
    18
100
AcDbLine
 10
42.6823985332
 20
24.8149406824
 30
0.0
 11
49.6823985332
 21
24.8149406824
 31
0.0
  0
LINE
  5
B9
330
1F
100
AcDbEntity
  8
0
  6
Continuous
 62
     3
370
    18
100
AcDbLine
 10
42.6823985332
 20
24.8149406824
 30
0.0
 11
42.6823985332
 21
29.3149406824
 31
0.0
  0
LINE
  5
BA
330
1F
100
AcDbEntity
  8
0
  6
CENTERX2
 62
     4
370
    18
100
AcDbLine
 10
46.1823985332
 20
22.6492663313
 30
0.0
 11
46.1823985332
 21
33.7198943573
 31
0.0
  0
LINE
  5
BB
330
1F
100
AcDbEntity
  8
0
  6
CENTERX2
 62
     4
370
    18
100
AcDbLine
 10
157.1137502249
 20
22.6492663313
 30
0.0
 11
157.1137502249
 21
33.7198943573
 31
0.0
  0
LINE
  5
BC
330
1F
100
AcDbEntity
  8
0
  6
Continuous
 62
     3
370
    18
100
AcDbLine
 10
153.6137502249
 20
24.8149406824
 30
0.0
 11
153.6137502249
 21
29.3149406824
 31
0.0
  0
LINE
  5
BD
330
1F
100
AcDbEntity
  8
0
  6
Continuous
 62
     3
370
    18
100
AcDbLine
 10
160.6137502249
 20
24.8149406824
 30
0.0
 11
160.6137502249
 21
29.3149406824
 31
0.0
  0
LINE
  5
BE
330
1F
100
AcDbEntity
  8
0
  6
Continuous
 62
     3
370
    18
100
AcDbLine
 10
153.6137502249
 20
24.8149406824
 30
0.0
 11
160.6137502249
 21
24.8149406824
 31
0.0
  0
LINE
  5
BF
330
1F
100
AcDbEntity
  8
0
  6
CENTERX2
 62
     4
370
    18
100
AcDbLine
 10
93.1803682948
 20
330.5149406824
 30
0.0
 11
111.0729630797
 21
330.5149406824
 31
0.0
  0
LINE
  5
C0
330
1F
100
AcDbEntity
  8
0
  6
Continuous
 62
     3
370
    18
100
AcDbLine
 10
162.648074379
 20
349.5149406824
 30
0.0
 11
169.555389389
 21
349.5149406824
 31
0.0
  0
LINE
  5
C1
330
1F
100
AcDbEntity
  8
0
  6
Continuous
 62
     3
370
    18
100
AcDbLine
 10
49.3523441997
 20
349.5149406824
 30
0.0
 11
33.740759369
 21
349.5149406824
 31
0.0
  0
LINE
  5
C2
330
1F
100
AcDbEntity
  8
0
  6
Continuous
 62
     3
370
    18
100
AcDbLine
 10
83.648074379
 20
362.5149406824
 30
0.0
 11
83.648074379
 21
397.5149406824
 31
0.0
  0
LINE
  5
C3
330
1F
100
AcDbEntity
  8
0
  6
Continuous
 62
     3
370
    18
100
AcDbLine
 10
119.648074379
 20
362.5149406824
 30
0.0
 11
119.648074379
 21
397.5149406824
 31
0.0
  0
LINE
  5
C4
330
1F
100
AcDbEntity
  8
0
  6
Continuous
 62
     3
370
    18
100
AcDbLine
 10
171.555389389
 20
374.5149406824
 30
0.0
 11
167.8956337002
 21
378.7719531159
 31
0.0
  0
LINE
  5
C5
330
1F
100
AcDbEntity
  8
0
  6
Continuous
 62
     3
370
    18
100
AcDbLine
 10
171.555389389
 20
374.5149406824
 30
0.0
 11
171.555389389
 21
351.5149406824
 31
0.0
  0
LINE
  5
C6
330
1F
100
AcDbEntity
  8
0
  6
Continuous
 62
     3
370
    18
100
AcDbLine
 10
42.0443565486
 20
386.045286902
 30
0.0
 11
32.2494396836
 21
375.0841846115
 31
0.0
  0
LINE
  5
C7
330
1F
100
AcDbEntity
  8
0
  6
Continuous
 62
     3
370
    18
100
AcDbLine
 10
49.3523441997
 20
386.5149406824
 30
0.0
 11
39.1377414662
 21
375.0841846115
 31
0.0
  0
LINE
  5
C8
330
1F
100
AcDbEntity
  8
0
  6
Continuous
 62
     3
370
    18
100
AcDbLine
 10
31.740759369
 20
373.7515310197
 30
0.0
 11
31.740759369
 21
351.5149406824
 31
0.0
  0
LINE
  5
C9
330
1F
100
AcDbEntity
  8
0
  6
Continuous
 62
     3
370
    18
100
AcDbLine
 10
38.6290611516
 20
373.7515310197
 30
0.0
 11
38.6290611516
 21
349.5149406824
 31
0.0
  0
LINE
  5
CA
330
1F
100
AcDbEntity
  8
0
  6
Continuous
 62
     3
370
    18
100
AcDbLine
 10
49.3523441997
 20
394.9643962056
 30
0.0
 11
49.3523441997
 21
349.5149406824
 31
0.0
  0
LINE
  5
CB
330
1F
100
AcDbEntity
  8
0
  6
Continuous
 62
     3
370
    18
100
AcDbLine
 10
38.7804926009
 20
374.5149406824
 30
0.0
 11
31.8921908183
 21
374.5149406824
 31
0.0
  0
LINE
  5
CC
330
1F
100
AcDbEntity
  8
0
  6
CENTERX2
 62
     4
370
    18
100
AcDbLine
 10
40.5510338969
 20
-135.3834369054
 30
0.0
 11
51.1095698532
 21
-132.1553685123
 31
0.0
  0
LINE
  5
CD
330
1F
100
AcDbEntity
  8
0
  6
CENTERX2
 62
     4
370
    18
100
AcDbLine
 10
120.4526340813
 20
-178.2111404253
 30
0.0
 11
116.4313196609
 21
-165.0580136235
 31
0.0
  0
LINE
  5
CE
330
1F
100
AcDbEntity
  8
0
  6
CENTERX2
 62
     4
370
    18
100
AcDbLine
 10
153.225746891
 20
-100.9353201186
 30
0.0
 11
162.6110993518
 21
-98.065929915
 31
0.0
  0
LINE
  5
CF
330
1F
100
AcDbEntity
  8
0
  6
CENTERX2
 62
     4
370
    18
100
AcDbLine
 10
85.8687731193
 20
-65.0924282406
 30
0.0
 11
83.1285733044
 21
-56.1296385008
 31
0.0
  0
LINE
  5
D0
330
1F
100
AcDbEntity
  8
0
  6
CENTERX2
 62
     4
370
    18
100
AcDbLine
 10
153.2824476404
 20
-65.0698238223
 30
0.0
 11
173.3628329323
 21
-44.9894385303
 31
0.0
  0
LINE
  5
D1
330
1F
100
AcDbEntity
  8
0
  6
CENTERX2
 62
     4
370
    18
100
AcDbLine
 10
53.4425860446
 20
-68.4987087493
 30
0.0
 11
31.3251015853
 21
-46.38122429
 31
0.0
  0
LINE
  5
D2
330
1F
100
AcDbEntity
  8
0
  6
CENTERX2
 62
     4
370
    18
100
AcDbLine
 10
172.08454534
 20
-187.1406680448
 30
0.0
 11
150.3226028407
 21
-165.3787255454
 31
0.0
  0
LINE
  5
D3
330
1F
100
AcDbEntity
  8
0
  6
Continuous
 62
     3
370
    18
100
AcDbLine
 10
18.648074379
 20
-136.7041970837
 30
0.0
 11
31.648074379
 21
-136.7041970837
 31
0.0
  0
LINE
  5
D4
330
1F
100
AcDbEntity
  8
0
  6
Continuous
 62
     3
370
    18
100
AcDbLine
 10
18.648074379
 20
-96.7041970837
 30
0.0
 11
31.648074379
 21
-96.7041970837
 31
0.0
  0
LINE
  5
D5
330
1F
100
AcDbEntity
  8
0
  6
Continuous
 62
     3
370
    18
100
AcDbLine
 10
16.648074379
 20
-134.7041970837
 30
0.0
 11
16.648074379
 21
-98.7041970837
 31
0.0
  0
LINE
  5
D6
330
1F
100
AcDbEntity
  8
0
  6
Continuous
 62
     3
370
    18
100
AcDbLine
 10
165.8742372723
 20
-186.7041970837
 30
0.0
 11
37.4219114857
 21
-186.7041970837
 31
0.0
  0
LINE
  5
D7
330
1F
100
AcDbEntity
  8
0
  6
Continuous
 62
     3
370
    18
100
AcDbLine
 10
37.4219114857
 20
-46.7041970837
 30
0.0
 11
165.8742372723
 21
-46.7041970837
 31
0.0
  0
LINE
  5
D8
330
1F
100
AcDbEntity
  8
0
  6
Continuous
 62
     3
370
    18
100
AcDbLine
 10
31.648074379
 20
-180.930359977
 30
0.0
 11
31.648074379
 21
-52.4780341904
 31
0.0
  0
LINE
  5
D9
330
1F
100
AcDbEntity
  8
0
  6
Continuous
 62
     3
370
    18
100
AcDbLine
 10
171.648074379
 20
-180.930359977
 30
0.0
 11
171.648074379
 21
-52.4780341904
 31
0.0
  0
LINE
  5
DA
330
1F
100
AcDbEntity
  8
0
  6
CENTERX2
 62
     4
370
    18
100
AcDbLine
 10
101.648074379
 20
8.2633080169
 30
0.0
 11
101.648074379
 21
497.1937895948
 31
0.0
  0
LINE
  5
DB
330
1F
100
AcDbEntity
  8
0
  6
Continuous
 62
     3
370
    18
100
AcDbLine
 10
39.148074379
 20
29.3149406824
 30
0.0
 11
39.148074379
 21
37.6149406824
 31
0.0
  0
LINE
  5
DC
330
1F
100
AcDbEntity
  8
0
  6
Continuous
 62
     3
370
    18
100
AcDbLine
 10
89.8953831856
 20
25.3149406824
 30
0.0
 11
101.648074379
 21
25.3149406824
 31
0.0
  0
LINE
  5
DD
330
1F
100
AcDbEntity
  8
0
  6
Continuous
 62
     3
370
    18
100
AcDbLine
 10
89.8953831856
 20
25.3149406824
 30
0.0
 11
85.8953831856
 21
29.3149406824
 31
0.0
  0
LINE
  5
DE
330
1F
100
AcDbEntity
  8
0
  6
Continuous
 62
     3
370
    18
100
AcDbLine
 10
101.648074379
 20
29.3149406824
 30
0.0
 11
39.148074379
 21
29.3149406824
 31
0.0
  0
LINE
  5
DF
330
1F
100
AcDbEntity
  8
0
  6
Continuous
 62
     3
370
    18
100
AcDbLine
 10
101.648074379
 20
31.6149406824
 30
0.0
 11
39.148074379
 21
31.6149406824
 31
0.0
  0
LINE
  5
E0
330
1F
100
AcDbEntity
  8
0
  6
Continuous
 62
     3
370
    18
100
AcDbLine
 10
101.648074379
 20
39.6149406824
 30
0.0
 11
41.148074379
 21
39.6149406824
 31
0.0
  0
LINE
  5
E1
330
1F
100
AcDbEntity
  8
0
  6
Continuous
 62
     3
370
    18
100
AcDbLine
 10
83.148074379
 20
51.6149406824
 30
0.0
 11
83.148074379
 21
54.6149406824
 31
0.0
  0
LINE
  5
E2
330
1F
100
AcDbEntity
  8
0
  6
Continuous
 62
     3
370
    18
100
AcDbLine
 10
83.148074379
 20
54.6149406824
 30
0.0
 11
78.148074379
 21
54.6149406824
 31
0.0
  0
LINE
  5
E3
330
1F
100
AcDbEntity
  8
0
  6
Continuous
 62
     3
370
    18
100
AcDbLine
 10
78.148074379
 20
52.6149406824
 30
0.0
 11
78.148074379
 21
54.6149406824
 31
0.0
  0
LINE
  5
E4
330
1F
100
AcDbEntity
  8
0
  6
Continuous
 62
     3
370
    18
100
AcDbLine
 10
101.648074379
 20
51.6149406824
 30
0.0
 11
47.148074379
 21
51.6149406824
 31
0.0
  0
LINE
  5
E5
330
1F
100
AcDbEntity
  8
0
  6
Continuous
 62
     3
370
    18
100
AcDbLine
 10
71.648074379
 20
52.6149406824
 30
0.0
 11
71.648074379
 21
63.6149406824
 31
0.0
  0
LINE
  5
E6
330
1F
100
AcDbEntity
  8
0
  6
Continuous
 62
     3
370
    18
100
AcDbLine
 10
84.648074379
 20
69.6149406824
 30
0.0
 11
84.648074379
 21
72.6149406824
 31
0.0
  0
LINE
  5
E7
330
1F
100
AcDbEntity
  8
0
  6
Continuous
 62
     3
370
    18
100
AcDbLine
 10
83.648074379
 20
68.6149406824
 30
0.0
 11
76.648074379
 21
68.6149406824
 31
0.0
  0
LINE
  5
E8
330
1F
100
AcDbEntity
  8
0
  6
Continuous
 62
     3
370
    18
100
AcDbLine
 10
84.648074379
 20
72.6149406824
 30
0.0
 11
76.648074379
 21
80.6149406824
 31
0.0
  0
LINE
  5
E9
330
1F
100
AcDbEntity
  8
0
  6
Continuous
 62
     3
370
    18
100
AcDbLine
 10
76.648074379
 20
80.6149406824
 30
0.0
 11
66.148074379
 21
80.6149406824
 31
0.0
  0
LINE
  5
EA
330
1F
100
AcDbEntity
  8
0
  6
Continuous
 62
     3
370
    18
100
AcDbLine
 10
39.148074379
 20
31.6149406824
 30
0.0
 11
39.148074379
 21
310.5149406824
 31
0.0
  0
LINE
  5
EB
330
1F
100
AcDbEntity
  8
0
  6
Continuous
 62
     3
370
    18
100
AcDbLine
 10
58.148074379
 20
56.6149406824
 30
0.0
 11
58.148074379
 21
306.5149406824
 31
0.0
  0
LINE
  5
EC
330
1F
100
AcDbEntity
  8
0
  6
Continuous
 62
     3
370
    18
100
AcDbLine
 10
66.148074379
 20
56.6149406824
 30
0.0
 11
66.148074379
 21
306.5149406824
 31
0.0
  0
LINE
  5
ED
330
1F
100
AcDbEntity
  8
0
  6
Continuous
 62
     3
370
    18
100
AcDbLine
 10
156.148074379
 20
42.6149406824
 30
0.0
 11
156.148074379
 21
43.6149406824
 31
0.0
  0
LINE
  5
EE
330
1F
100
AcDbEntity
  8
0
  6
Continuous
 62
     3
370
    18
100
AcDbLine
 10
164.148074379
 20
29.3149406824
 30
0.0
 11
164.148074379
 21
37.6149406824
 31
0.0
  0
LINE
  5
EF
330
1F
100
AcDbEntity
  8
0
  6
Continuous
 62
     3
370
    18
100
AcDbLine
 10
159.148074379
 20
44.3231446149
 30
0.0
 11
159.148074379
 21
306.5149406824
 31
0.0
  0
LINE
  5
F0
330
1F
100
AcDbEntity
  8
0
  6
Continuous
 62
     3
370
    18
100
AcDbLine
 10
145.148074379
 20
56.6149406824
 30
0.0
 11
145.148074379
 21
306.5149406824
 31
0.0
  0
LINE
  5
F1
330
1F
100
AcDbEntity
  8
0
  6
Continuous
 62
     3
370
    18
100
AcDbLine
 10
137.148074379
 20
56.6149406824
 30
0.0
 11
137.148074379
 21
306.5149406824
 31
0.0
  0
LINE
  5
F2
330
1F
100
AcDbEntity
  8
0
  6
Continuous
 62
     3
370
    18
100
AcDbLine
 10
101.648074379
 20
31.6149406824
 30
0.0
 11
164.148074379
 21
31.6149406824
 31
0.0
  0
LINE
  5
F3
330
1F
100
AcDbEntity
  8
0
  6
HIDDEN
 62
     3
370
    18
100
AcDbLine
 10
30.5724807638
 20
329.5149406824
 30
0.0
 11
16.648074379
 21
329.5149406824
 31
0.0
  0
LINE
  5
F4
330
1F
100
AcDbEntity
  8
0
  6
HIDDEN
 62
     3
370
    18
100
AcDbLine
 10
30.5724807638
 20
349.5149406824
 30
0.0
 11
16.648074379
 21
349.5149406824
 31
0.0
  0
LINE
  5
F5
330
1F
100
AcDbEntity
  8
0
  6
Continuous
 62
     3
370
    18
100
AcDbLine
 10
165.648074379
 20
311.5149406824
 30
0.0
 11
165.648074379
 21
314.5149406824
 31
0.0
  0
LINE
  5
F6
330
1F
100
AcDbEntity
  8
0
  6
Continuous
 62
     3
370
    18
100
AcDbLine
 10
171.648074379
 20
314.5149406824
 30
0.0
 11
171.648074379
 21
322.5149406824
 31
0.0
  0
LINE
  5
F7
330
1F
100
AcDbEntity
  8
0
  6
Continuous
 62
     3
370
    18
100
AcDbLine
 10
101.648074379
 20
314.5149406824
 30
0.0
 11
171.648074379
 21
314.5149406824
 31
0.0
  0
LINE
  5
F8
330
1F
100
AcDbEntity
  8
0
  6
Continuous
 62
     3
370
    18
100
AcDbLine
 10
101.648074379
 20
322.5149406824
 30
0.0
 11
171.648074379
 21
322.5149406824
 31
0.0
  0
LINE
  5
F9
330
1F
100
AcDbEntity
  8
0
  6
Continuous
 62
     3
370
    18
100
AcDbLine
 10
101.648074379
 20
311.5149406824
 30
0.0
 11
165.648074379
 21
311.5149406824
 31
0.0
  0
LINE
  5
FA
330
1F
100
AcDbEntity
  8
0
  6
Continuous
 62
     3
370
    18
100
AcDbLine
 10
40.648074379
 20
322.5149406824
 30
0.0
 11
40.648074379
 21
349.5149406824
 31
0.0
  0
LINE
  5
FB
330
1F
100
AcDbEntity
  8
0
  6
Continuous
 62
     3
370
    18
100
AcDbLine
 10
37.648074379
 20
311.5149406824
 30
0.0
 11
37.648074379
 21
314.5149406824
 31
0.0
  0
LINE
  5
FC
330
1F
100
AcDbEntity
  8
0
  6
Continuous
 62
     3
370
    18
100
AcDbLine
 10
101.648074379
 20
322.5149406824
 30
0.0
 11
31.648074379
 21
322.5149406824
 31
0.0
  0
LINE
  5
FD
330
1F
100
AcDbEntity
  8
0
  6
Continuous
 62
     3
370
    18
100
AcDbLine
 10
101.648074379
 20
311.5149406824
 30
0.0
 11
37.648074379
 21
311.5149406824
 31
0.0
  0
LINE
  5
FE
330
1F
100
AcDbEntity
  8
0
  6
Continuous
 62
     3
370
    18
100
AcDbLine
 10
31.648074379
 20
314.5149406824
 30
0.0
 11
31.648074379
 21
322.5149406824
 31
0.0
  0
LINE
  5
FF
330
1F
100
AcDbEntity
  8
0
  6
CENTERX2
 62
     4
370
    18
100
AcDbLine
 10
30.5724807638
 20
339.5149406824
 30
0.0
 11
6.9250135767
 21
339.5149406824
 31
0.0
  0
LINE
  5
100
330
1F
100
AcDbEntity
  8
0
  6
Continuous
 62
     3
370
    18
100
AcDbLine
 10
16.648074379
 20
321.5149406824
 30
0.0
 11
16.648074379
 21
357.5149406824
 31
0.0
  0
LINE
  5
101
330
1F
100
AcDbEntity
  8
0
  6
Continuous
 62
     3
370
    18
100
AcDbLine
 10
31.740759369
 20
359.5149406824
 30
0.0
 11
18.648074379
 21
359.5149406824
 31
0.0
  0
LINE
  5
102
330
1F
100
AcDbEntity
  8
0
  6
Continuous
 62
     3
370
    18
100
AcDbLine
 10
31.648074379
 20
319.5149406824
 30
0.0
 11
18.648074379
 21
319.5149406824
 31
0.0
  0
LINE
  5
103
330
1F
100
AcDbEntity
  8
0
  6
Continuous
 62
     3
370
    18
100
AcDbLine
 10
101.648074379
 20
314.5149406824
 30
0.0
 11
31.648074379
 21
314.5149406824
 31
0.0
  0
LINE
  5
104
330
1F
100
AcDbEntity
  8
0
  6
Continuous
 62
     3
370
    18
100
AcDbLine
 10
93.398074379
 20
303.5149406824
 30
0.0
 11
93.398074379
 21
304.5149406824
 31
0.0
  0
LINE
  5
105
330
1F
100
AcDbEntity
  8
0
  6
Continuous
 62
     3
370
    18
100
AcDbLine
 10
93.148074379
 20
309.5149406824
 30
0.0
 11
93.148074379
 21
311.5149406824
 31
0.0
  0
LINE
  5
106
330
1F
100
AcDbEntity
  8
0
  6
Continuous
 62
     3
370
    18
100
AcDbLine
 10
93.148074379
 20
309.5149406824
 30
0.0
 11
101.648074379
 21
309.5149406824
 31
0.0
  0
LINE
  5
107
330
1F
100
AcDbEntity
  8
0
  6
Continuous
 62
     3
370
    18
100
AcDbLine
 10
90.148074379
 20
304.5149406824
 30
0.0
 11
90.148074379
 21
307.0149406824
 31
0.0
  0
LINE
  5
108
330
1F
100
AcDbEntity
  8
0
  6
Continuous
 62
     3
370
    18
100
AcDbLine
 10
90.148074379
 20
304.5149406824
 30
0.0
 11
101.648074379
 21
304.5149406824
 31
0.0
  0
LINE
  5
109
330
1F
100
AcDbEntity
  8
0
  6
Continuous
 62
     3
370
    18
100
AcDbLine
 10
86.648074379
 20
307.0149406824
 30
0.0
 11
86.648074379
 21
308.5149406824
 31
0.0
  0
LINE
  5
10A
330
1F
100
AcDbEntity
  8
0
  6
Continuous
 62
     3
370
    18
100
AcDbLine
 10
86.648074379
 20
307.0149406824
 30
0.0
 11
101.648074379
 21
307.0149406824
 31
0.0
  0
LINE
  5
10B
330
1F
100
AcDbEntity
  8
0
  6
Continuous
 62
     3
370
    18
100
AcDbLine
 10
86.648074379
 20
308.5149406824
 30
0.0
 11
101.648074379
 21
308.5149406824
 31
0.0
  0
LINE
  5
10C
330
1F
100
AcDbEntity
  8
0
  6
Continuous
 62
     3
370
    18
100
AcDbLine
 10
93.398074379
 20
308.5149406824
 30
0.0
 11
93.398074379
 21
309.5149406824
 31
0.0
  0
LINE
  5
10D
330
1F
100
AcDbEntity
  8
0
  6
Continuous
 62
     3
370
    18
100
AcDbLine
 10
101.648074379
 20
362.5149406824
 30
0.0
 11
31.740759369
 21
362.5149406824
 31
0.0
  0
LINE
  5
10E
330
1F
100
AcDbEntity
  8
0
  6
Continuous
 62
     3
370
    18
100
AcDbLine
 10
83.648074379
 20
371.5149406824
 30
0.0
 11
49.3523441997
 21
371.5149406824
 31
0.0
  0
LINE
  5
10F
330
1F
100
AcDbEntity
  8
0
  6
Continuous
 62
     3
370
    18
100
AcDbLine
 10
37.6325426998
 20
459.069435175
 30
0.0
 11
35.3958809939
 21
378.6052420669
 31
0.0
  0
LINE
  5
110
330
1F
100
AcDbEntity
  8
0
  6
Continuous
 62
     3
370
    18
100
AcDbLine
 10
42.148074379
 20
462.2262655478
 30
0.0
 11
38.1321565874
 21
459.9076743298
 31
0.0
  0
LINE
  5
111
330
1F
100
AcDbEntity
  8
0
  6
Continuous
 62
     3
370
    18
100
AcDbLine
 10
113.4007655725
 20
25.3149406824
 30
0.0
 11
117.4007655725
 21
29.3149406824
 31
0.0
  0
LINE
  5
112
330
1F
100
AcDbEntity
  8
0
  6
Continuous
 62
     3
370
    18
100
AcDbLine
 10
113.4007655725
 20
25.3149406824
 30
0.0
 11
101.648074379
 21
25.3149406824
 31
0.0
  0
LINE
  5
113
330
1F
100
AcDbEntity
  8
0
  6
Continuous
 62
     3
370
    18
100
AcDbLine
 10
101.648074379
 20
29.3149406824
 30
0.0
 11
164.148074379
 21
29.3149406824
 31
0.0
  0
LINE
  5
114
330
1F
100
AcDbEntity
  8
0
  6
Continuous
 62
     3
370
    18
100
AcDbLine
 10
109.898074379
 20
308.5149406824
 30
0.0
 11
109.898074379
 21
309.5149406824
 31
0.0
  0
LINE
  5
115
330
1F
100
AcDbEntity
  8
0
  6
Continuous
 62
     3
370
    18
100
AcDbLine
 10
116.648074379
 20
308.5149406824
 30
0.0
 11
101.648074379
 21
308.5149406824
 31
0.0
  0
LINE
  5
116
330
1F
100
AcDbEntity
  8
0
  6
Continuous
 62
     3
370
    18
100
AcDbLine
 10
116.648074379
 20
307.0149406824
 30
0.0
 11
101.648074379
 21
307.0149406824
 31
0.0
  0
LINE
  5
117
330
1F
100
AcDbEntity
  8
0
  6
Continuous
 62
     3
370
    18
100
AcDbLine
 10
116.648074379
 20
307.0149406824
 30
0.0
 11
116.648074379
 21
308.5149406824
 31
0.0
  0
LINE
  5
118
330
1F
100
AcDbEntity
  8
0
  6
Continuous
 62
     3
370
    18
100
AcDbLine
 10
113.148074379
 20
304.5149406824
 30
0.0
 11
101.648074379
 21
304.5149406824
 31
0.0
  0
LINE
  5
119
330
1F
100
AcDbEntity
  8
0
  6
Continuous
 62
     3
370
    18
100
AcDbLine
 10
113.148074379
 20
304.5149406824
 30
0.0
 11
113.148074379
 21
307.0149406824
 31
0.0
  0
LINE
  5
11A
330
1F
100
AcDbEntity
  8
0
  6
Continuous
 62
     3
370
    18
100
AcDbLine
 10
165.6636060582
 20
459.069435175
 30
0.0
 11
168.1315130006
 21
370.2861648869
 31
0.0
  0
LINE
  5
11B
330
1F
100
AcDbEntity
  8
0
  6
Continuous
 62
     3
370
    18
100
AcDbLine
 10
160.648074379
 20
462.5149406824
 30
0.0
 11
165.1639921706
 21
459.9076743298
 31
0.0
  0
LINE
  5
11C
330
1F
100
AcDbEntity
  8
0
  6
Continuous
 62
     3
370
    18
100
AcDbLine
 10
160.648074379
 20
462.5149406824
 30
0.0
 11
160.648074379
 21
463.5149406824
 31
0.0
  0
LINE
  5
11D
330
1F
100
AcDbEntity
  8
0
  6
Continuous
 62
     3
370
    18
100
AcDbLine
 10
162.6480743791
 20
366.5149406824
 30
0.0
 11
167.631899113
 21
369.3923532342
 31
0.0
  0
LINE
  5
11E
330
1F
100
AcDbEntity
  8
0
  6
Continuous
 62
     3
370
    18
100
AcDbLine
 10
125.148074379
 20
52.6149406824
 30
0.0
 11
125.148074379
 21
54.6149406824
 31
0.0
  0
LINE
  5
11F
330
1F
100
AcDbEntity
  8
0
  6
Continuous
 62
     3
370
    18
100
AcDbLine
 10
120.148074379
 20
54.6149406824
 30
0.0
 11
125.148074379
 21
54.6149406824
 31
0.0
  0
LINE
  5
120
330
1F
100
AcDbEntity
  8
0
  6
Continuous
 62
     3
370
    18
100
AcDbLine
 10
120.148074379
 20
51.6149406824
 30
0.0
 11
120.148074379
 21
54.6149406824
 31
0.0
  0
LINE
  5
121
330
1F
100
AcDbEntity
  8
0
  6
Continuous
 62
     3
370
    18
100
AcDbLine
 10
118.648074379
 20
72.6149406824
 30
0.0
 11
126.648074379
 21
80.6149406824
 31
0.0
  0
LINE
  5
122
330
1F
100
AcDbEntity
  8
0
  6
Continuous
 62
     3
370
    18
100
AcDbLine
 10
126.648074379
 20
80.6149406824
 30
0.0
 11
137.148074379
 21
80.6149406824
 31
0.0
  0
LINE
  5
123
330
1F
100
AcDbEntity
  8
0
  6
Continuous
 62
     3
370
    18
100
AcDbLine
 10
131.648074379
 20
52.6149406824
 30
0.0
 11
131.648074379
 21
63.6149406824
 31
0.0
  0
LINE
  5
124
330
1F
100
AcDbEntity
  8
0
  6
Continuous
 62
     3
370
    18
100
AcDbLine
 10
119.648074379
 20
68.6149406824
 30
0.0
 11
126.648074379
 21
68.6149406824
 31
0.0
  0
LINE
  5
125
330
1F
100
AcDbEntity
  8
0
  6
Continuous
 62
     3
370
    18
100
AcDbLine
 10
118.648074379
 20
69.6149406824
 30
0.0
 11
118.648074379
 21
72.6149406824
 31
0.0
  0
LINE
  5
126
330
1F
100
AcDbEntity
  8
0
  6
Continuous
 62
     3
370
    18
100
AcDbLine
 10
110.148074379
 20
303.5149406824
 30
0.0
 11
101.648074379
 21
303.5149406824
 31
0.0
  0
LINE
  5
127
330
1F
100
AcDbEntity
  8
0
  6
Continuous
 62
     3
370
    18
100
AcDbLine
 10
110.148074379
 20
309.5149406824
 30
0.0
 11
101.648074379
 21
309.5149406824
 31
0.0
  0
LINE
  5
128
330
1F
100
AcDbEntity
  8
0
  6
Continuous
 62
     3
370
    18
100
AcDbLine
 10
110.148074379
 20
309.5149406824
 30
0.0
 11
110.148074379
 21
311.5149406824
 31
0.0
  0
LINE
  5
129
330
1F
100
AcDbEntity
  8
0
  6
Continuous
 62
     3
370
    18
100
AcDbLine
 10
109.898074379
 20
303.5149406824
 30
0.0
 11
109.898074379
 21
304.5149406824
 31
0.0
  0
LINE
  5
12A
330
1F
100
AcDbEntity
  8
0
  6
Continuous
 62
     3
370
    18
100
AcDbLine
 10
110.148074379
 20
51.6149406824
 30
0.0
 11
110.148074379
 21
303.5149406824
 31
0.0
  0
LINE
  5
12B
330
1F
100
AcDbEntity
  8
0
  6
Continuous
 62
     3
370
    18
100
AcDbLine
 10
101.648074379
 20
51.6149406824
 30
0.0
 11
148.148074379
 21
51.6149406824
 31
0.0
  0
LINE
  5
12C
330
1F
100
AcDbEntity
  8
0
  6
Continuous
 62
     3
370
    18
100
AcDbLine
 10
93.148074379
 20
51.6149406824
 30
0.0
 11
93.148074379
 21
303.5149406824
 31
0.0
  0
LINE
  5
12D
330
1F
100
AcDbEntity
  8
0
  6
Continuous
 62
     3
370
    18
100
AcDbLine
 10
93.148074379
 20
303.5149406824
 30
0.0
 11
101.648074379
 21
303.5149406824
 31
0.0
  0
LINE
  5
12E
330
1F
100
AcDbEntity
  8
0
  6
Continuous
 62
     3
370
    18
100
AcDbLine
 10
101.648074379
 20
39.6149406824
 30
0.0
 11
162.148074379
 21
39.6149406824
 31
0.0
  0
LINE
  5
12F
330
1F
100
AcDbEntity
  8
0
  6
Continuous
 62
     3
370
    18
100
AcDbLine
 10
43.648074379
 20
362.5149406824
 30
0.0
 11
40.648074379
 21
362.5149406824
 31
0.0
  0
LINE
  5
130
330
1F
100
AcDbEntity
  8
0
  6
Continuous
 62
     3
370
    18
100
AcDbLine
 10
42.4030938566
 20
399.1989881954
 30
0.0
 11
42.0443565486
 21
386.045286902
 31
0.0
  0
LINE
  5
131
330
1F
100
AcDbEntity
  8
0
  6
Continuous
 62
     3
370
    18
100
AcDbLine
 10
158.697342853
 20
479.7084299664
 30
0.0
 11
159.2268645581
 21
460.2926341113
 31
0.0
  0
LINE
  5
132
330
1F
100
AcDbEntity
  8
0
  6
Continuous
 62
     3
370
    18
100
AcDbLine
 10
119.648074379
 20
371.5149406824
 30
0.0
 11
162.648074379
 21
371.5149406824
 31
0.0
  0
LINE
  5
133
330
1F
100
AcDbEntity
  8
0
  6
Continuous
 62
     3
370
    18
100
AcDbLine
 10
101.648074379
 20
362.5149406824
 30
0.0
 11
171.555389389
 21
362.5149406824
 31
0.0
  0
LINE
  5
134
330
1F
100
AcDbEntity
  8
0
  6
Continuous
 62
     3
370
    18
100
AcDbLine
 10
162.648074379
 20
371.5149406824
 30
0.0
 11
162.648074379
 21
322.5149406824
 31
0.0
  0
ARC
  5
135
330
1F
100
AcDbEntity
  8
0
  6
Continuous
 62
     3
370
    18
100
AcDbCircle
 10
97.248074379
 20
-16.7041970837
 30
0.0
 40
3.000000000000004
100
AcDbArc
 50
270.0
 51
323.1301023542
  0
ARC
  5
136
330
1F
100
AcDbEntity
  8
0
  6
Continuous
 62
     3
370
    18
100
AcDbCircle
 10
106.048074379
 20
-16.7041970837
 30
0.0
 40
2.999999999999975
100
AcDbArc
 50
216.8698976458
 51
270.0
  0
ARC
  5
137
330
1F
100
AcDbEntity
  8
0
  6
Continuous
 62
     3
370
    18
100
AcDbCircle
 10
101.648074379
 20
-20.0041970837
 30
0.0
 40
2.500000000000031
100
AcDbArc
 50
36.8698976459
 51
143.1301023541
  0
ARC
  5
138
330
1F
100
AcDbEntity
  8
0
  6
Continuous
 62
     3
370
    18
100
AcDbCircle
 10
96.1380834534
 20
-14.2041970837
 30
0.0
 40
3.0
100
AcDbArc
 50
270.0
 51
313.5311521674
  0
ARC
  5
139
330
1F
100
AcDbEntity
  8
0
  6
Continuous
 62
     3
370
    18
100
AcDbCircle
 10
107.4575493983
 20
-14.5041970837
 30
0.0
 40
2.999999999999957
100
AcDbArc
 50
223.4325365578
 51
270.0
  0
ARC
  5
13A
330
1F
100
AcDbEntity
  8
0
  6
Continuous
 62
     3
370
    18
100
AcDbCircle
 10
101.648074379
 20
-20.0041970837
 30
0.0
 40
5.000000000002079
100
AcDbArc
 50
43.4325365579
 51
133.5311521675
  0
ARC
  5
13B
330
1F
100
AcDbEntity
  8
0
  6
Continuous
 62
     3
370
    18
100
AcDbCircle
 10
76.648074379
 20
-20.2041970837
 30
0.0
 40
3.0
100
AcDbArc
 50
90.0
 51
180.0
  0
ARC
  5
13C
330
1F
100
AcDbEntity
  8
0
  6
Continuous
 62
     3
370
    18
100
AcDbCircle
 10
126.648074379
 20
-20.2041970837
 30
0.0
 40
3.000000000000014
100
AcDbArc
 50
0.0
 51
90.0
  0
ARC
  5
13D
330
1F
100
AcDbEntity
  8
0
  6
Continuous
 62
     3
370
    18
100
AcDbCircle
 10
78.348074379
 20
-21.7041970837
 30
0.0
 40
2.000000000000004
100
AcDbArc
 50
90.0
 51
180.0
  0
ARC
  5
13E
330
1F
100
AcDbEntity
  8
0
  6
Continuous
 62
     3
370
    18
100
AcDbCircle
 10
124.948074379
 20
-21.7041970837
 30
0.0
 40
2.000000000000014
100
AcDbArc
 50
0.0
 51
90.0
  0
ARC
  5
13F
330
1F
100
AcDbEntity
  8
0
  6
Continuous
 62
     3
370
    18
100
AcDbCircle
 10
101.648074379
 20
-36.7041970837
 30
0.0
 40
11.00000000000004
100
AcDbArc
 50
294.6199773287
 51
245.3800226713
  0
ARC
  5
140
330
1F
100
AcDbEntity
  8
0
  6
Continuous
 62
     3
370
    18
100
AcDbCircle
 10
159.7763644597
 20
458.5848110283
 30
0.0
 40
0.9999999999903935
100
AcDbArc
 50
0.0
 51
51.7118974766
  0
ARC
  5
141
330
1F
100
AcDbEntity
  8
0
  6
Continuous
 62
     3
370
    18
100
AcDbCircle
 10
157.5055615293
 20
462.9254965165
 30
0.0
 40
0.9999999999904285
100
AcDbArc
 50
180.0
 51
231.7118974766
  0
ARC
  5
142
330
1F
100
AcDbEntity
  8
0
  6
Continuous
 62
     3
370
    18
100
AcDbCircle
 10
154.3229907275
 20
458.6282574336
 30
0.0
 40
0.9999999999619804
100
AcDbArc
 50
0.0
 51
47.612008938
  0
ARC
  5
143
330
1F
100
AcDbEntity
  8
0
  6
Continuous
 62
     3
370
    18
100
AcDbCircle
 10
152.6292413905
 20
462.8820501112
 30
0.0
 40
1.0
100
AcDbArc
 50
180.0
 51
227.6120089338
  0
ARC
  5
144
330
1F
100
AcDbEntity
  8
0
  6
Continuous
 62
     3
370
    18
100
AcDbCircle
 10
154.5055615293
 20
469.4961879175
 30
0.0
 40
2.0
100
AcDbArc
 50
0.0
 51
90.0
  0
ARC
  5
145
330
1F
100
AcDbEntity
  8
0
  6
Continuous
 62
     3
370
    18
100
AcDbCircle
 10
70.7395921455
 20
469.4961879175
 30
0.0
 40
2.0
100
AcDbArc
 50
90.0
 51
180.0
  0
ARC
  5
146
330
1F
100
AcDbEntity
  8
0
  6
Continuous
 62
     3
370
    18
100
AcDbCircle
 10
67.8133574566
 20
458.8423677764
 30
0.0
 40
1.000000000023138
100
AcDbArc
 50
154.4138421505
 51
180.0
  0
ARC
  5
147
330
1F
100
AcDbEntity
  8
0
  6
Continuous
 62
     3
370
    18
100
AcDbCircle
 10
67.7395921455
 20
463.3193583502
 30
0.0
 40
0.9999999999780091
100
AcDbArc
 50
334.4138421481
 51
0.0
  0
ARC
  5
148
330
1F
100
AcDbEntity
  8
0
  6
Continuous
 62
     3
370
    18
100
AcDbCircle
 10
135.5565566126
 20
463.3193583502
 30
0.0
 40
1.000000000023135
100
AcDbArc
 50
180.0
 51
205.5861578495
  0
ARC
  5
149
330
1F
100
AcDbEntity
  8
0
  6
Continuous
 62
     3
370
    18
100
AcDbCircle
 10
135.4827913015
 20
458.8423677764
 30
0.0
 40
0.9999999999780476
100
AcDbArc
 50
360.0
 51
25.5861578519
  0
ARC
  5
14A
330
1F
100
AcDbEntity
  8
0
  6
Continuous
 62
     3
370
    18
100
AcDbCircle
 10
149.6292413905
 20
469.4961879175
 30
0.0
 40
2.0
100
AcDbArc
 50
0.0
 51
90.0
  0
ARC
  5
14B
330
1F
100
AcDbEntity
  8
0
  6
Continuous
 62
     3
370
    18
100
AcDbCircle
 10
132.5565566126
 20
469.4961879175
 30
0.0
 40
2.0
100
AcDbArc
 50
0.0
 51
90.0
  0
ARC
  5
14C
330
1F
100
AcDbEntity
  8
0
  6
Continuous
 62
     3
370
    18
100
AcDbCircle
 10
81.648074379
 20
403.5149406824
 30
0.0
 40
5.0
100
AcDbArc
 50
180.0
 51
270.0
  0
ARC
  5
14D
330
1F
100
AcDbEntity
  8
0
  6
Continuous
 62
     3
370
    18
100
AcDbCircle
 10
121.648074379
 20
403.5149406824
 30
0.0
 40
5.0
100
AcDbArc
 50
270.0
 51
0.0
  0
ARC
  5
14E
330
1F
100
AcDbEntity
  8
0
  6
Continuous
 62
     3
370
    18
100
AcDbCircle
 10
101.648074379
 20
397.5149406824
 30
0.0
 40
4.999999999999993
100
AcDbArc
 50
202.024312837
 51
337.975687163
  0
ARC
  5
14F
330
1F
100
AcDbEntity
  8
0
  6
Continuous
 62
     3
370
    18
100
AcDbCircle
 10
94.2318758919
 20
394.5149406824
 30
0.0
 40
3.000000000004018
100
AcDbArc
 50
22.0243128371
 51
90.0
  0
ARC
  5
150
330
1F
100
AcDbEntity
  8
0
  6
Continuous
 62
     3
370
    18
100
AcDbCircle
 10
109.0642728661
 20
394.5149406824
 30
0.0
 40
3.000000000004031
100
AcDbArc
 50
90.0
 51
157.9756871629
  0
ARC
  5
151
330
1F
100
AcDbEntity
  8
0
  6
Continuous
 62
     3
370
    18
100
AcDbCircle
 10
101.648074379
 20
397.5149406824
 30
0.0
 40
5.0
100
AcDbArc
 50
0.0
 51
180.0
  0
ARC
  5
152
330
1F
100
AcDbEntity
  8
0
  6
Continuous
 62
     3
370
    18
100
AcDbCircle
 10
81.648074379
 20
469.5149406824
 30
0.0
 40
5.0
100
AcDbArc
 50
90.0
 51
180.0
  0
ARC
  5
153
330
1F
100
AcDbEntity
  8
0
  6
Continuous
 62
     3
370
    18
100
AcDbCircle
 10
121.648074379
 20
469.5149406824
 30
0.0
 40
5.0
100
AcDbArc
 50
0.0
 51
90.0
  0
ARC
  5
154
330
1F
100
AcDbEntity
  8
0
  6
Continuous
 62
     3
370
    18
100
AcDbCircle
 10
121.648074379
 20
405.5149406824
 30
0.0
 40
8.000000000000057
100
AcDbArc
 50
270.0
 51
0.0
  0
ARC
  5
155
330
1F
100
AcDbEntity
  8
0
  6
Continuous
 62
     3
370
    18
100
AcDbCircle
 10
81.648074379
 20
405.5149406824
 30
0.0
 40
8.000000000000057
100
AcDbArc
 50
180.0
 51
270.0
  0
ARC
  5
156
330
1F
100
AcDbEntity
  8
0
  6
Continuous
 62
     3
370
    18
100
AcDbCircle
 10
81.648074379
 20
469.5149406824
 30
0.0
 40
8.0
100
AcDbArc
 50
90.0
 51
180.0
  0
ARC
  5
157
330
1F
100
AcDbEntity
  8
0
  6
Continuous
 62
     3
370
    18
100
AcDbCircle
 10
121.648074379
 20
469.5149406824
 30
0.0
 40
8.000000000000014
100
AcDbArc
 50
0.0
 51
90.0
  0
ARC
  5
158
330
1F
100
AcDbEntity
  8
0
  6
Continuous
 62
     3
370
    18
100
AcDbCircle
 10
161.648074379
 20
463.0922909516
 30
0.0
 40
1.000000000013472
100
AcDbArc
 50
180.0
 51
240.0000000004
  0
ARC
  5
159
330
1F
100
AcDbEntity
  8
0
  6
Continuous
 62
     3
370
    18
100
AcDbCircle
 10
158.648074379
 20
469.5149406824
 30
0.0
 40
2.000000000000028
100
AcDbArc
 50
0.0
 51
82.1477301709
  0
ARC
  5
15A
330
1F
100
AcDbEntity
  8
0
  6
Continuous
 62
     3
370
    18
100
AcDbCircle
 10
44.648074379
 20
469.5149406824
 30
0.0
 40
2.00000000000003
100
AcDbArc
 50
97.8522698291
 51
180.0
  0
ARC
  5
15B
330
1F
100
AcDbEntity
  8
0
  6
Continuous
 62
     3
370
    18
100
AcDbCircle
 10
41.648074379
 20
463.0922909516
 30
0.0
 40
1.000000000006729
100
AcDbArc
 50
299.9999999996
 51
0.0
  0
ARC
  5
15C
330
1F
100
AcDbEntity
  8
0
  6
Continuous
 62
     3
370
    18
100
AcDbCircle
 10
72.6480743789
 20
484.5149406825
 30
0.0
 40
1.0
100
AcDbArc
 50
90.0
 51
180.0
  0
ARC
  5
15D
330
1F
100
AcDbEntity
  8
0
  6
Continuous
 62
     3
370
    18
100
AcDbCircle
 10
70.6480743789
 20
484.4436063396
 30
0.0
 40
0.9999999999711378
100
AcDbArc
 50
274.2363947984
 51
0.0
  0
ARC
  5
15E
330
1F
100
AcDbEntity
  8
0
  6
Continuous
 62
     3
370
    18
100
AcDbCircle
 10
46.5980625179
 20
479.653904786
 30
0.0
 40
2.000000000034712
100
AcDbArc
 50
94.2363948011
 51
178.4377750848
  0
ARC
  5
15F
330
1F
100
AcDbEntity
  8
0
  6
Continuous
 62
     3
370
    18
100
AcDbCircle
 10
156.6980862399
 20
479.6539047861
 30
0.0
 40
1.999999999981063
100
AcDbArc
 50
1.5622249153
 51
85.7636052018
  0
ARC
  5
160
330
1F
100
AcDbEntity
  8
0
  6
Continuous
 62
     3
370
    18
100
AcDbCircle
 10
132.6480743789
 20
484.4436063396
 30
0.0
 40
0.9999999999711235
100
AcDbArc
 50
180.0
 51
265.7636052016
  0
ARC
  5
161
330
1F
100
AcDbEntity
  8
0
  6
Continuous
 62
     3
370
    18
100
AcDbCircle
 10
130.6480743789
 20
484.5149406825
 30
0.0
 40
1.0
100
AcDbArc
 50
0.0
 51
90.0
  0
ARC
  5
162
330
1F
100
AcDbEntity
  8
0
  6
Continuous
 62
     3
370
    18
100
AcDbCircle
 10
101.648074379
 20
-117.8892113848
 30
0.0
 40
29.50000000000001
100
AcDbArc
 50
90.0413940092
 51
90.0
  0
ARC
  5
163
330
1F
100
AcDbEntity
  8
0
  6
Continuous
 62
     3
370
    18
100
AcDbCircle
 10
101.648074379
 20
-116.7041970837
 30
0.0
 40
42.50000000000001
100
AcDbArc
 50
90.0195639341
 51
90.0
  0
CIRCLE
  5
164
330
1F
100
AcDbEntity
  8
0
  6
HIDDEN
 62
     3
370
    18
100
AcDbCircle
 10
101.648074379
 20
330.5149406824
 30
0.0
 40
4.0
  0
ARC
  5
165
330
1F
100
AcDbEntity
  8
0
  6
Continuous
 62
     3
370
    18
100
AcDbCircle
 10
169.555389389
 20
351.5149406824
 30
0.0
 40
2.0
100
AcDbArc
 50
270.0
 51
0.0
  0
ARC
  5
166
330
1F
100
AcDbEntity
  8
0
  6
Continuous
 62
     3
370
    18
100
AcDbCircle
 10
40.6290611516
 20
373.7515310197
 30
0.0
 40
1.999999999974875
100
AcDbArc
 50
138.2158057647
 51
180.0
  0
ARC
  5
167
330
1F
100
AcDbEntity
  8
0
  6
Continuous
 62
     3
370
    18
100
AcDbCircle
 10
33.740759369
 20
373.7515310197
 30
0.0
 40
1.999999999974896
100
AcDbArc
 50
138.2158057647
 51
180.0
  0
ARC
  5
168
330
1F
100
AcDbEntity
  8
0
  6
Continuous
 62
     3
370
    18
100
AcDbCircle
 10
33.740759369
 20
351.5149406824
 30
0.0
 40
2.000000000000004
100
AcDbArc
 50
180.0
 51
270.0
  0
CIRCLE
  5
169
330
1F
100
AcDbEntity
  8
0
  6
Continuous
 62
     3
370
    18
100
AcDbCircle
 10
101.648074379
 20
-116.7041970837
 30
0.0
 40
12.49999999999999
  0
CIRCLE
  5
16A
330
1F
100
AcDbEntity
  8
0
  6
Continuous
 62
     3
370
    18
100
AcDbCircle
 10
84.6905155051
 20
-61.2385212379
 30
0.0
 40
2.75
  0
CIRCLE
  5
16B
330
1F
100
AcDbEntity
  8
0
  6
Continuous
 62
     3
370
    18
100
AcDbCircle
 10
46.1823985332
 20
-133.6617559576
 30
0.0
 40
2.75
  0
CIRCLE
  5
16C
330
1F
100
AcDbEntity
  8
0
  6
Continuous
 62
     3
370
    18
100
AcDbCircle
 10
118.6056332529
 20
-172.1698729296
 30
0.0
 40
2.750000000000014
  0
CIRCLE
  5
16D
330
1F
100
AcDbEntity
  8
0
  6
Continuous
 62
     3
370
    18
100
AcDbCircle
 10
157.1137502249
 20
-99.7466382098
 30
0.0
 40
2.75
  0
ARC
  5
16E
330
1F
100
AcDbEntity
  8
0
  6
CENTERX2
 62
     4
370
    18
100
AcDbCircle
 10
101.648074379
 20
-116.7041970837
 30
0.0
 40
58.00000000000004
100
AcDbArc
 50
191.1935359483
 51
201.0973829751
  0
ARC
  5
16F
330
1F
100
AcDbEntity
  8
0
  6
CENTERX2
 62
     4
370
    18
100
AcDbCircle
 10
101.648074379
 20
-116.7041970837
 30
0.0
 40
57.99999999999996
100
AcDbArc
 50
282.9641755178
 51
292.076148432
  0
ARC
  5
170
330
1F
100
AcDbEntity
  8
0
  6
CENTERX2
 62
     4
370
    18
100
AcDbCircle
 10
101.648074379
 20
-116.7041970837
 30
0.0
 40
57.99999999999995
100
AcDbArc
 50
12.4733024156
 51
23.0242593706
  0
ARC
  5
171
330
1F
100
AcDbEntity
  8
0
  6
CENTERX2
 62
     4
370
    18
100
AcDbCircle
 10
101.648074379
 20
-116.7041970837
 30
0.0
 40
58.00000000000001
100
AcDbArc
 50
103.8042412808
 51
110.2550416872
  0
ARC
  5
172
330
1F
100
AcDbEntity
  8
0
  6
CENTERX2
 62
     4
370
    18
100
AcDbCircle
 10
101.648074379
 20
-116.7041970837
 30
0.0
 40
85.00000000000014
100
AcDbArc
 50
38.5904817376
 51
51.3618306492
  0
ARC
  5
173
330
1F
100
AcDbEntity
  8
0
  6
CENTERX2
 62
     4
370
    18
100
AcDbCircle
 10
101.648074379
 20
-116.7041970837
 30
0.0
 40
85.00000000000003
100
AcDbArc
 50
217.6918211929
 51
232.0617505959
  0
ARC
  5
174
330
1F
100
AcDbEntity
  8
0
  6
CENTERX2
 62
     4
370
    18
100
AcDbCircle
 10
101.648074379
 20
-116.7041970837
 30
0.0
 40
80.0000000000001
100
AcDbArc
 50
307.2099990364
 51
325.1195260255
  0
CIRCLE
  5
175
330
1F
100
AcDbEntity
  8
0
  6
Continuous
 62
     3
370
    18
100
AcDbCircle
 10
101.648074379
 20
-116.7041970837
 30
0.0
 40
62.49999999999999
  0
CIRCLE
  5
176
330
1F
100
AcDbEntity
  8
0
  6
Continuous
 62
     3
370
    18
100
AcDbCircle
 10
161.7521507799
 20
-56.6001206829
 30
0.0
 40
5.000000000000028
  0
CIRCLE
  5
177
330
1F
100
AcDbEntity
  8
0
  6
Continuous
 62
     3
370
    18
100
AcDbCircle
 10
41.5439979782
 20
-176.8082734846
 30
0.0
 40
4.999999999999993
  0
CIRCLE
  5
178
330
1F
100
AcDbEntity
  8
0
  6
Continuous
 62
     3
370
    18
100
AcDbCircle
 10
158.2166168739
 20
-173.2727395786
 30
0.0
 40
5.0
  0
CIRCLE
  5
179
330
1F
100
AcDbEntity
  8
0
  6
Continuous
 62
     3
370
    18
100
AcDbCircle
 10
45.0795318841
 20
-60.1356545888
 30
0.0
 40
5.0
  0
ARC
  5
17A
330
1F
100
AcDbEntity
  8
0
  6
CENTERX2
 62
     4
370
    18
100
AcDbCircle
 10
101.648074379
 20
-116.7041970837
 30
0.0
 40
80.00000000000003
100
AcDbArc
 50
125.5620864298
 51
141.9086983994
  0
ARC
  5
17B
330
1F
100
AcDbEntity
  8
0
  6
Continuous
 62
     3
370
    18
100
AcDbCircle
 10
101.648074379
 20
-116.7041970837
 30
0.0
 40
94.99999999998269
100
AcDbArc
 50
312.536898363
 51
317.463101637
  0
ARC
  5
17C
330
1F
100
AcDbEntity
  8
0
  6
Continuous
 62
     3
370
    18
100
AcDbCircle
 10
101.648074379
 20
-116.7041970837
 30
0.0
 40
94.99999999998266
100
AcDbArc
 50
222.536898363
 51
227.463101637
  0
ARC
  5
17D
330
1F
100
AcDbEntity
  8
0
  6
Continuous
 62
     3
370
    18
100
AcDbCircle
 10
101.648074379
 20
-116.7041970837
 30
0.0
 40
94.99999999998266
100
AcDbArc
 50
132.536898363
 51
137.463101637
  0
ARC
  5
17E
330
1F
100
AcDbEntity
  8
0
  6
Continuous
 62
     3
370
    18
100
AcDbCircle
 10
101.648074379
 20
-116.7041970837
 30
0.0
 40
94.99999999998269
100
AcDbArc
 50
42.536898363
 51
47.463101637
  0
ARC
  5
17F
330
1F
100
AcDbEntity
  8
0
  6
Continuous
 62
     3
370
    18
100
AcDbCircle
 10
18.648074379
 20
-134.7041970837
 30
0.0
 40
2.0
100
AcDbArc
 50
180.0
 51
270.0
  0
ARC
  5
180
330
1F
100
AcDbEntity
  8
0
  6
Continuous
 62
     3
370
    18
100
AcDbCircle
 10
18.648074379
 20
-98.7041970837
 30
0.0
 40
2.0
100
AcDbArc
 50
90.0
 51
180.0
  0
ARC
  5
181
330
1F
100
AcDbEntity
  8
0
  6
Continuous
 62
     3
370
    18
100
AcDbCircle
 10
47.148074379
 20
43.6149406824
 30
0.0
 40
8.000000000000014
100
AcDbArc
 50
90.0
 51
180.0
  0
ARC
  5
182
330
1F
100
AcDbEntity
  8
0
  6
Continuous
 62
     3
370
    18
100
AcDbCircle
 10
41.148074379
 20
37.6149406824
 30
0.0
 40
2.000000000000007
100
AcDbArc
 50
90.0
 51
180.0
  0
ARC
  5
183
330
1F
100
AcDbEntity
  8
0
  6
Continuous
 62
     3
370
    18
100
AcDbCircle
 10
53.148074379
 20
56.6149406824
 30
0.0
 40
5.000000000000007
100
AcDbArc
 50
270.0
 51
0.0
  0
ARC
  5
184
330
1F
100
AcDbEntity
  8
0
  6
Continuous
 62
     3
370
    18
100
AcDbCircle
 10
72.648074379
 20
52.6149406824
 30
0.0
 40
1.0
100
AcDbArc
 50
180.0
 51
270.0
  0
ARC
  5
185
330
1F
100
AcDbEntity
  8
0
  6
Continuous
 62
     3
370
    18
100
AcDbCircle
 10
71.148074379
 20
56.6149406824
 30
0.0
 40
5.000000000000007
100
AcDbArc
 50
180.0
 51
270.0
  0
ARC
  5
186
330
1F
100
AcDbEntity
  8
0
  6
Continuous
 62
     3
370
    18
100
AcDbCircle
 10
77.148074379
 20
52.6149406824
 30
0.0
 40
1.000000000000014
100
AcDbArc
 50
270.0
 51
0.0
  0
ARC
  5
187
330
1F
100
AcDbEntity
  8
0
  6
Continuous
 62
     3
370
    18
100
AcDbCircle
 10
83.648074379
 20
69.6149406824
 30
0.0
 40
1.000000000000014
100
AcDbArc
 50
270.0
 51
0.0
  0
ARC
  5
188
330
1F
100
AcDbEntity
  8
0
  6
Continuous
 62
     3
370
    18
100
AcDbCircle
 10
76.648074379
 20
63.6149406824
 30
0.0
 40
5.000000000000014
100
AcDbArc
 50
90.0
 51
180.0
  0
ARC
  5
189
330
1F
100
AcDbEntity
  8
0
  6
Continuous
 62
     3
370
    18
100
AcDbCircle
 10
38.148074379
 20
310.5149406824
 30
0.0
 40
1.000000000000227
100
AcDbArc
 50
0.0
 51
90.0
  0
ARC
  5
18A
330
1F
100
AcDbEntity
  8
0
  6
Continuous
 62
     3
370
    18
100
AcDbCircle
 10
53.148074379
 20
306.5149406824
 30
0.0
 40
5.0
100
AcDbArc
 50
0.0
 51
90.0
  0
ARC
  5
18B
330
1F
100
AcDbEntity
  8
0
  6
Continuous
 62
     3
370
    18
100
AcDbCircle
 10
71.148074379
 20
306.5149406824
 30
0.0
 40
5.0
100
AcDbArc
 50
90.0
 51
180.0
  0
ARC
  5
18C
330
1F
100
AcDbEntity
  8
0
  6
Continuous
 62
     3
370
    18
100
AcDbCircle
 10
159.148074379
 20
42.6149406824
 30
0.0
 40
3.0
100
AcDbArc
 50
180.0
 51
270.0
  0
ARC
  5
18D
330
1F
100
AcDbEntity
  8
0
  6
Continuous
 62
     3
370
    18
100
AcDbCircle
 10
148.148074379
 20
43.6149406824
 30
0.0
 40
8.000000000000028
100
AcDbArc
 50
0.0
 51
90.0
  0
ARC
  5
18E
330
1F
100
AcDbEntity
  8
0
  6
Continuous
 62
     3
370
    18
100
AcDbCircle
 10
164.148074379
 20
44.3231446149
 30
0.0
 40
5.000000000000004
100
AcDbArc
 50
180.0
 51
253.398450401
  0
ARC
  5
18F
330
1F
100
AcDbEntity
  8
0
  6
Continuous
 62
     3
370
    18
100
AcDbCircle
 10
162.148074379
 20
37.6149406824
 30
0.0
 40
2.000000000000605
100
AcDbArc
 50
0.0
 51
73.3984504009
  0
ARC
  5
190
330
1F
100
AcDbEntity
  8
0
  6
Continuous
 62
     3
370
    18
100
AcDbCircle
 10
150.148074379
 20
56.6149406824
 30
0.0
 40
5.000000000000007
100
AcDbArc
 50
180.0
 51
270.0
  0
ARC
  5
191
330
1F
100
AcDbEntity
  8
0
  6
Continuous
 62
     3
370
    18
100
AcDbCircle
 10
132.148074379
 20
56.6149406824
 30
0.0
 40
5.000000000000007
100
AcDbArc
 50
270.0
 51
0.0
  0
ARC
  5
192
330
1F
100
AcDbEntity
  8
0
  6
Continuous
 62
     3
370
    18
100
AcDbCircle
 10
164.148074379
 20
306.5149406824
 30
0.0
 40
5.0
100
AcDbArc
 50
90.0
 51
180.0
  0
ARC
  5
193
330
1F
100
AcDbEntity
  8
0
  6
Continuous
 62
     3
370
    18
100
AcDbCircle
 10
150.148074379
 20
306.5149406824
 30
0.0
 40
5.0
100
AcDbArc
 50
90.0
 51
180.0
  0
ARC
  5
194
330
1F
100
AcDbEntity
  8
0
  6
Continuous
 62
     3
370
    18
100
AcDbCircle
 10
132.148074379
 20
306.5149406824
 30
0.0
 40
5.0
100
AcDbArc
 50
0.0
 51
90.0
  0
ARC
  5
195
330
1F
100
AcDbEntity
  8
0
  6
Continuous
 62
     3
370
    18
100
AcDbCircle
 10
18.648074379
 20
321.5149406824
 30
0.0
 40
2.0
100
AcDbArc
 50
180.0
 51
270.0
  0
ARC
  5
196
330
1F
100
AcDbEntity
  8
0
  6
Continuous
 62
     3
370
    18
100
AcDbCircle
 10
18.648074379
 20
357.5149406824
 30
0.0
 40
2.0
100
AcDbArc
 50
90.0
 51
180.0
  0
ARC
  5
197
330
1F
100
AcDbEntity
  8
0
  6
Continuous
 62
     3
370
    18
100
AcDbCircle
 10
38.6321565874
 20
459.041648926
 30
0.0
 40
0.99999999998583
100
AcDbArc
 50
119.9999999996
 51
178.4077602706
  0
ARC
  5
198
330
1F
100
AcDbEntity
  8
0
  6
Continuous
 62
     3
370
    18
100
AcDbCircle
 10
167.131899113
 20
370.2583786379
 30
0.0
 40
0.9999999999924868
100
AcDbArc
 50
300.0000000024
 51
1.5922397292
  0
ARC
  5
199
330
1F
100
AcDbEntity
  8
0
  6
Continuous
 62
     3
370
    18
100
AcDbCircle
 10
164.6639921706
 20
459.041648926
 30
0.0
 40
0.9999999999857961
100
AcDbArc
 50
1.5922397294
 51
60.0000000004
  0
ARC
  5
19A
330
1F
100
AcDbEntity
  8
0
  6
Continuous
 62
     3
370
    18
100
AcDbCircle
 10
126.148074379
 20
52.6149406824
 30
0.0
 40
1.0
100
AcDbArc
 50
180.0
 51
270.0
  0
ARC
  5
19B
330
1F
100
AcDbEntity
  8
0
  6
Continuous
 62
     3
370
    18
100
AcDbCircle
 10
119.648074379
 20
69.6149406824
 30
0.0
 40
1.000000000000014
100
AcDbArc
 50
180.0
 51
270.0
  0
ARC
  5
19C
330
1F
100
AcDbEntity
  8
0
  6
Continuous
 62
     3
370
    18
100
AcDbCircle
 10
126.648074379
 20
63.6149406824
 30
0.0
 40
5.000000000000014
100
AcDbArc
 50
0.0
 51
90.0
  0
ARC
  5
19D
330
1F
100
AcDbEntity
  8
0
  6
Continuous
 62
     3
370
    18
100
AcDbCircle
 10
130.648074379
 20
52.6149406824
 30
0.0
 40
1.0
100
AcDbArc
 50
270.0
 51
0.0
  0
POINT
  5
19E
330
1F
100
AcDbEntity
  8
0
  6
Continuous
 62
   179
370
    18
100
AcDbPoint
 10
160.648074379
 20
471.5149406824
 30
0.0
  0
POINT
  5
19F
330
1F
100
AcDbEntity
  8
0
  6
Continuous
 62
   179
370
    18
100
AcDbPoint
 10
160.648074379
 20
462.5149406824
 30
0.0
  0
POINT
  5
1A0
330
1F
100
AcDbEntity
  8
0
  6
Continuous
 62
   179
370
    18
100
AcDbPoint
 10
42.648074379
 20
462.5149406824
 30
0.0
  0
POINT
  5
1A1
330
1F
100
AcDbEntity
  8
0
  6
Continuous
 62
   179
370
    18
100
AcDbPoint
 10
42.648074379
 20
471.5149406824
 30
0.0
  0
POINT
  5
1A2
330
1F
100
AcDbEntity
  8
0
  6
Continuous
 62
   179
370
    18
100
AcDbPoint
 10
71.648074379
 20
483.5149406824
 30
0.0
  0
POINT
  5
1A3
330
1F
100
AcDbEntity
  8
0
  6
Continuous
 62
   179
370
    18
100
AcDbPoint
 10
71.648074379
 20
485.5149406824
 30
0.0
  0
POINT
  5
1A4
330
1F
100
AcDbEntity
  8
0
  6
Continuous
 62
   179
370
    18
100
AcDbPoint
 10
44.648074379
 20
481.5149406824
 30
0.0
  0
POINT
  5
1A5
330
1F
100
AcDbEntity
  8
0
  6
Continuous
 62
   179
370
    18
100
AcDbPoint
 10
131.648074379
 20
485.5149406824
 30
0.0
  0
POINT
  5
1A6
330
1F
100
AcDbEntity
  8
0
  6
Continuous
 62
   179
370
    18
100
AcDbPoint
 10
131.648074379
 20
483.5149406824
 30
0.0
  0
POINT
  5
1A7
330
1F
100
AcDbEntity
  8
0
  6
Continuous
 62
   179
370
    18
100
AcDbPoint
 10
158.648074379
 20
481.5149406824
 30
0.0
  0
POINT
  5
1A8
330
1F
100
AcDbEntity
  8
0
  6
Continuous
 62
   179
370
    18
100
AcDbPoint
 10
66.648074379
 20
284.5149406824
 30
0.0
  0
POINT
  5
1A9
330
1F
100
AcDbEntity
  8
0
  6
Continuous
 62
   179
370
    18
100
AcDbPoint
 10
66.148074379
 20
84.5149406824
 30
0.0
  0
ENDSEC
  0
SECTION
  2
OBJECTS
  0
DICTIONARY
  5
C
330
0
100
AcDbDictionary
281
     1
  3
ACAD_GROUP
350
D
  3
ACAD_LAYOUT
350
1A
  3
ACAD_MLINESTYLE
350
17
  3
ACAD_PLOTSETTINGS
350
19
  3
ACAD_PLOTSTYLENAME
350
E
  3
ACAD_SCALELIST
350
47
  0
DICTIONARY
  5
D
102
{ACAD_REACTORS
330
C
102
}
330
C
100
AcDbDictionary
281
     1
  0
DICTIONARY
  5
1A
102
{ACAD_REACTORS
330
C
102
}
330
C
100
AcDbDictionary
281
     1
  3
Layout1
350
1E
  3
Layout2
350
26
  3
Model
350
22
  0
DICTIONARY
  5
17
102
{ACAD_REACTORS
330
C
102
}
330
C
100
AcDbDictionary
281
     1
  3
Standard
350
18
  0
DICTIONARY
  5
19
102
{ACAD_REACTORS
330
C
102
}
330
C
100
AcDbDictionary
281
     1
  0
ACDBDICTIONARYWDFLT
  5
E
102
{ACAD_REACTORS
330
C
102
}
330
C
100
AcDbDictionary
281
     1
  3
Normal
350
F
100
AcDbDictionaryWithDefault
340
F
  0
DICTIONARY
  5
47
102
{ACAD_REACTORS
330
C
102
}
330
C
100
AcDbDictionary
281
     1
  3
A0
350
48
  3
A1
350
49
  3
A2
350
4A
  3
A3
350
4B
  3
A4
350
4C
  3
A5
350
4D
  3
A6
350
4E
  3
A7
350
4F
  3
A8
350
50
  3
A9
350
51
  3
B0
350
52
  3
B1
350
53
  3
B2
350
54
  3
B3
350
55
  3
B4
350
56
  3
B5
350
57
  3
B6
350
58
  3
B7
350
59
  3
B8
350
5A
  3
B9
350
5B
  3
C0
350
5C
  3
C1
350
5D
  3
C2
350
5E
  3
C3
350
5F
  3
C4
350
60
  3
C5
350
61
  3
C6
350
62
  3
C7
350
63
  3
C8
350
64
  3
C9
350
65
  3
D0
350
66
  3
D1
350
67
  3
D2
350
68
  0
LAYOUT
  5
1E
102
{ACAD_REACTORS
330
1A
102
}
330
1A
100
AcDbPlotSettings
  1

  2
none_device
  4

  6

 40
0.0
 41
0.0
 42
0.0
 43
0.0
 44
0.0
 45
0.0
 46
0.0
 47
0.0
 48
0.0
 49
0.0
140
0.0
141
0.0
142
1.0
143
1.0
 70
   688
 72
     1
 73
     0
 74
     5
  7

 75
    16
147
1.0
148
0.0
149
0.0
100
AcDbLayout
  1
Layout1
 70
     1
 71
     1
 10
0.0
 20
0.0
 11
420.0
 21
297.0
 12
0.0
 22
0.0
 32
0.0
 14
1.0000000000E+20
 24
1.0000000000E+20
 34
1.0000000000E+20
 15
-1.0000000000E+20
 25
-1.0000000000E+20
 35
-1.0000000000E+20
146
0.0
 13
0.0
 23
0.0
 33
0.0
 16
1.0
 26
0.0
 36
0.0
 17
0.0
 27
1.0
 37
0.0
 76
     0
330
1B
  0
LAYOUT
  5
26
102
{ACAD_REACTORS
330
1A
102
}
330
1A
100
AcDbPlotSettings
  1

  2
none_device
  4

  6

 40
0.0
 41
0.0
 42
0.0
 43
0.0
 44
0.0
 45
0.0
 46
0.0
 47
0.0
 48
0.0
 49
0.0
140
0.0
141
0.0
142
1.0
143
1.0
 70
   688
 72
     1
 73
     0
 74
     5
  7

 75
    16
147
1.0
148
0.0
149
0.0
100
AcDbLayout
  1
Layout2
 70
     1
 71
     2
 10
0.0
 20
0.0
 11
0.0
 21
0.0
 12
0.0
 22
0.0
 32
0.0
 14
0.0
 24
0.0
 34
0.0
 15
0.0
 25
0.0
 35
0.0
146
0.0
 13
0.0
 23
0.0
 33
0.0
 16
1.0
 26
0.0
 36
0.0
 17
0.0
 27
1.0
 37
0.0
 76
     0
330
23
  0
LAYOUT
  5
22
102
{ACAD_REACTORS
330
1A
102
}
330
1A
100
AcDbPlotSettings
  1

  2
none_device
  4
Letter_(8.50_x_11.00_Inches)
  6

 40
6.35
 41
6.35
 42
6.35000508
 43
6.35000508
 44
215.9
 45
279.4
 46
0.0
 47
0.0
 48
0.0
 49
0.0
140
0.0
141
0.0
142
1.0
143
1.0
 70
  1712
 72
     1
 73
     0
 74
     0
  7

 75
     0
147
1.0
148
0.0
149
0.0
100
AcDbLayout
  1
Model
 70
     1
 71
     0
 10
0.0
 20
0.0
 11
210.0
 21
297.0
 12
0.0
 22
0.0
 32
0.0
 14
0.0
 24
0.0
 34
0.0
 15
210.0
 25
297.0
 35
0.0
146
0.0
 13
0.0
 23
0.0
 33
0.0
 16
1.0
 26
0.0
 36
0.0
 17
0.0
 27
1.0
 37
0.0
 76
     0
330
1F
331
29
  0
MLINESTYLE
  5
18
102
{ACAD_REACTORS
330
17
102
}
330
17
100
AcDbMlineStyle
  2
Standard
 70
     0
  3

 62
   256
 51
90.0
 52
90.0
 71
     2
 49
0.5
 62
   256
  6
BYLAYER
 49
-0.5
 62
   256
  6
BYLAYER
  0
ACDBPLACEHOLDER
  5
F
102
{ACAD_REACTORS
330
E
102
}
330
E
  0
SCALE
  5
48
102
{ACAD_REACTORS
330
47
102
}
330
47
100
AcDbScale
 70
     0
300
1:1
140
1.0
141
1.0
290
     1
  0
SCALE
  5
49
102
{ACAD_REACTORS
330
47
102
}
330
47
100
AcDbScale
 70
     0
300
1:2
140
1.0
141
2.0
290
     0
  0
SCALE
  5
4A
102
{ACAD_REACTORS
330
47
102
}
330
47
100
AcDbScale
 70
     0
300
1:4
140
1.0
141
4.0
290
     0
  0
SCALE
  5
4B
102
{ACAD_REACTORS
330
47
102
}
330
47
100
AcDbScale
 70
     0
300
1:5
140
1.0
141
5.0
290
     0
  0
SCALE
  5
4C
102
{ACAD_REACTORS
330
47
102
}
330
47
100
AcDbScale
 70
     0
300
1:8
140
1.0
141
8.0
290
     0
  0
SCALE
  5
4D
102
{ACAD_REACTORS
330
47
102
}
330
47
100
AcDbScale
 70
     0
300
1:10
140
1.0
141
10.0
290
     0
  0
SCALE
  5
4E
102
{ACAD_REACTORS
330
47
102
}
330
47
100
AcDbScale
 70
     0
300
1:16
140
1.0
141
16.0
290
     0
  0
SCALE
  5
4F
102
{ACAD_REACTORS
330
47
102
}
330
47
100
AcDbScale
 70
     0
300
1:20
140
1.0
141
20.0
290
     0
  0
SCALE
  5
50
102
{ACAD_REACTORS
330
47
102
}
330
47
100
AcDbScale
 70
     0
300
1:30
140
1.0
141
30.0
290
     0
  0
SCALE
  5
51
102
{ACAD_REACTORS
330
47
102
}
330
47
100
AcDbScale
 70
     0
300
1:40
140
1.0
141
40.0
290
     0
  0
SCALE
  5
52
102
{ACAD_REACTORS
330
47
102
}
330
47
100
AcDbScale
 70
     0
300
1:50
140
1.0
141
50.0
290
     0
  0
SCALE
  5
53
102
{ACAD_REACTORS
330
47
102
}
330
47
100
AcDbScale
 70
     0
300
1:100
140
1.0
141
100.0
290
     0
  0
SCALE
  5
54
102
{ACAD_REACTORS
330
47
102
}
330
47
100
AcDbScale
 70
     0
300
2:1
140
2.0
141
1.0
290
     0
  0
SCALE
  5
55
102
{ACAD_REACTORS
330
47
102
}
330
47
100
AcDbScale
 70
     0
300
4:1
140
4.0
141
1.0
290
     0
  0
SCALE
  5
56
102
{ACAD_REACTORS
330
47
102
}
330
47
100
AcDbScale
 70
     0
300
8:1
140
8.0
141
1.0
290
     0
  0
SCALE
  5
57
102
{ACAD_REACTORS
330
47
102
}
330
47
100
AcDbScale
 70
     0
300
10:1
140
10.0
141
1.0
290
     0
  0
SCALE
  5
58
102
{ACAD_REACTORS
330
47
102
}
330
47
100
AcDbScale
 70
     0
300
100:1
140
100.0
141
1.0
290
     0
  0
SCALE
  5
59
102
{ACAD_REACTORS
330
47
102
}
330
47
100
AcDbScale
 70
     0
300
1/128" = 1'-0"
140
0.0078125
141
12.0
290
     0
  0
SCALE
  5
5A
102
{ACAD_REACTORS
330
47
102
}
330
47
100
AcDbScale
 70
     0
300
1/64" = 1'-0"
140
0.015625
141
12.0
290
     0
  0
SCALE
  5
5B
102
{ACAD_REACTORS
330
47
102
}
330
47
100
AcDbScale
 70
     0
300
1/32" = 1'-0"
140
0.03125
141
12.0
290
     0
  0
SCALE
  5
5C
102
{ACAD_REACTORS
330
47
102
}
330
47
100
AcDbScale
 70
     0
300
1/16" = 1'-0"
140
0.0625
141
12.0
290
     0
  0
SCALE
  5
5D
102
{ACAD_REACTORS
330
47
102
}
330
47
100
AcDbScale
 70
     0
300
3/32" = 1'-0"
140
0.09375
141
12.0
290
     0
  0
SCALE
  5
5E
102
{ACAD_REACTORS
330
47
102
}
330
47
100
AcDbScale
 70
     0
300
1/8" = 1'-0"
140
0.125
141
12.0
290
     0
  0
SCALE
  5
5F
102
{ACAD_REACTORS
330
47
102
}
330
47
100
AcDbScale
 70
     0
300
3/16" = 1'-0"
140
0.1875
141
12.0
290
     0
  0
SCALE
  5
60
102
{ACAD_REACTORS
330
47
102
}
330
47
100
AcDbScale
 70
     0
300
1/4" = 1'-0"
140
0.25
141
12.0
290
     0
  0
SCALE
  5
61
102
{ACAD_REACTORS
330
47
102
}
330
47
100
AcDbScale
 70
     0
300
3/8" = 1'-0"
140
0.375
141
12.0
290
     0
  0
SCALE
  5
62
102
{ACAD_REACTORS
330
47
102
}
330
47
100
AcDbScale
 70
     0
300
1/2" = 1'-0"
140
0.5
141
12.0
290
     0
  0
SCALE
  5
63
102
{ACAD_REACTORS
330
47
102
}
330
47
100
AcDbScale
 70
     0
300
3/4" = 1'-0"
140
0.75
141
12.0
290
     0
  0
SCALE
  5
64
102
{ACAD_REACTORS
330
47
102
}
330
47
100
AcDbScale
 70
     0
300
1" = 1'-0"
140
1.0
141
12.0
290
     0
  0
SCALE
  5
65
102
{ACAD_REACTORS
330
47
102
}
330
47
100
AcDbScale
 70
     0
300
1-1/2" = 1'-0"
140
1.5
141
12.0
290
     0
  0
SCALE
  5
66
102
{ACAD_REACTORS
330
47
102
}
330
47
100
AcDbScale
 70
     0
300
3" = 1'-0"
140
3.0
141
12.0
290
     0
  0
SCALE
  5
67
102
{ACAD_REACTORS
330
47
102
}
330
47
100
AcDbScale
 70
     0
300
6" = 1'-0"
140
6.0
141
12.0
290
     0
  0
SCALE
  5
68
102
{ACAD_REACTORS
330
47
102
}
330
47
100
AcDbScale
 70
     0
300
1'-0" = 1'-0"
140
12.0
141
12.0
290
     0
  0
ENDSEC
  0
EOF
