  0
SECTION
  2
HEADER
  9
$ACADVER
  1
AC1015
  9
$ACADMAINTVER
 70
     6
  9
$DWGCODEPAGE
  3
DOS932
  9
$INSBASE
 10
0.0
 20
0.0
 30
0.0
  9
$EXTMIN
 10
0.0
 20
0.0
 30
0.0
  9
$EXTMAX
 10
210.0
 20
297.0
 30
0.0
  9
$LIMMIN
 10
0.0
 20
0.0
  9
$LIMMAX
 10
210.0
 20
297.0
  9
$ORTHOMODE
 70
     0
  9
$REGENMODE
 70
     1
  9
$FILLMODE
 70
     1
  9
$QTEXTMODE
 70
     0
  9
$MIRRTEXT
 70
     1
  9
$LTSCALE
 40
1.0
  9
$ATTMODE
 70
     1
  9
$TEXTSIZE
 40
3.5
  9
$TRACEWID
 40
1.0
  9
$TEXTSTYLE
  7
Standard
  9
$CLAYER
  8
0
  9
$CELTYPE
  6
ByLayer
  9
$CECOLOR
 62
   256
  9
$CELTSCALE
 40
1.0
  9
$DISPSILH
 70
     0
  9
$DIMSCALE
 40
1.0
  9
$DIMASZ
 40
3.302
  9
$DIMEXO
 40
1.0
  9
$DIMDLI
 40
3.75
  9
$DIMRND
 40
0.0
  9
$DIMDLE
 40
0.0
  9
$DIMEXE
 40
1.0
  9
$DIMTP
 40
0.0
  9
$DIMTM
 40
0.0
  9
$DIMTXT
 40
3.5
  9
$DIMCEN
 40
2.5
  9
$DIMTSZ
 40
0.0
  9
$DIMTOL
 70
     0
  9
$DIMLIM
 70
     0
  9
$DIMTIH
 70
     1
  9
$DIMTOH
 70
     1
  9
$DIMSE1
 70
     0
  9
$DIMSE2
 70
     0
  9
$DIMTAD
 70
     1
  9
$DIMZIN
 70
     1
  9
$DIMBLK
  1

  9
$DIMASO
 70
     1
  9
$DIMSHO
 70
     1
  9
$DIMPOST
  1

  9
$DIMAPOST
  1

  9
$DIMALT
 70
     0
  9
$DIMALTD
 70
     3
  9
$DIMALTF
 40
0.0393700787
  9
$DIMLFAC
 40
1.0
  9
$DIMTOFL
 70
     1
  9
$DIMTVP
 40
0.0
  9
$DIMTIX
 70
     0
  9
$DIMSOXD
 70
     0
  9
$DIMSAH
 70
     0
  9
$DIMBLK1
  1

  9
$DIMBLK2
  1

  9
$DIMSTYLE
  2
ISO-25
  9
$DIMCLRD
 70
     0
  9
$DIMCLRE
 70
     0
  9
$DIMCLRT
 70
     0
  9
$DIMTFAC
 40
1.0
  9
$DIMGAP
 40
1.524
  9
$DIMJUST
 70
     0
  9
$DIMSD1
 70
     0
  9
$DIMSD2
 70
     0
  9
$DIMTOLJ
 70
     0
  9
$DIMTZIN
 70
     1
  9
$DIMALTZ
 70
     0
  9
$DIMALTTZ
 70
     0
  9
$DIMUPT
 70
     0
  9
$DIMDEC
 70
     3
  9
$DIMTDEC
 70
     3
  9
$DIMALTU
 70
     2
  9
$DIMALTTD
 70
     3
  9
$DIMTXSTY
  7
Standard
  9
$DIMAUNIT
 70
     0
  9
$DIMADEC
 70
     0
  9
$DIMALTRND
 40
0.0
  9
$DIMAZIN
 70
     0
  9
$DIMDSEP
 70
    44
  9
$DIMATFIT
 70
     3
  9
$DIMFRAC
 70
     0
  9
$DIMLDRBLK
  1

  9
$DIMLUNIT
 70
     2
  9
$DIMLWD
 70
    -2
  9
$DIMLWE
 70
    -2
  9
$DIMTMOVE
 70
     0
  9
$LUNITS
 70
     2
  9
$LUPREC
 70
     3
  9
$SKETCHINC
 40
1.0
  9
$FILLETRAD
 40
10.0
  9
$AUNITS
 70
     0
  9
$AUPREC
 70
     0
  9
$MENU
  1
.
  9
$ELEVATION
 40
0.0
  9
$PELEVATION
 40
0.0
  9
$THICKNESS
 40
0.0
  9
$LIMCHECK
 70
     0
  9
$CHAMFERA
 40
0.0
  9
$CHAMFERB
 40
0.0
  9
$CHAMFERC
 40
0.0
  9
$CHAMFERD
 40
0.0
  9
$SKPOLY
 70
     0
  9
$TDCREATE
 40
2459002.70110831
  9
$TDUCREATE
 40
2459002.32610831
  9
$TDUPDATE
 40
2459002.701108484
  9
$TDUUPDATE
 40
2459002.326108484
  9
$TDINDWG
 40
0.0000000116
  9
$TDUSRTIMER
 40
0.0000000116
  9
$USRTIMER
 70
     1
  9
$ANGBASE
 50
0.0
  9
$ANGDIR
 70
     0
  9
$PDMODE
 70
     0
  9
$PDSIZE
 40
-1.0
  9
$PLINEWID
 40
0.0
  9
$SPLFRAME
 70
     0
  9
$SPLINETYPE
 70
     6
  9
$SPLINESEGS
 70
     8
  9
$HANDSEED
  5
15D
  9
$SURFTAB1
 70
     6
  9
$SURFTAB2
 70
     6
  9
$SURFTYPE
 70
     6
  9
$SURFU
 70
     6
  9
$SURFV
 70
     6
  9
$UCSBASE
  2

  9
$UCSNAME
  2

  9
$UCSORG
 10
0.0
 20
0.0
 30
0.0
  9
$UCSXDIR
 10
1.0
 20
0.0
 30
0.0
  9
$UCSYDIR
 10
0.0
 20
1.0
 30
0.0
  9
$UCSORTHOREF
  2

  9
$UCSORTHOVIEW
 70
     0
  9
$UCSORGTOP
 10
0.0
 20
0.0
 30
0.0
  9
$UCSORGBOTTOM
 10
0.0
 20
0.0
 30
0.0
  9
$UCSORGLEFT
 10
0.0
 20
0.0
 30
0.0
  9
$UCSORGRIGHT
 10
0.0
 20
0.0
 30
0.0
  9
$UCSORGFRONT
 10
0.0
 20
0.0
 30
0.0
  9
$UCSORGBACK
 10
0.0
 20
0.0
 30
0.0
  9
$PUCSBASE
  2

  9
$PUCSNAME
  2

  9
$PUCSORG
 10
0.0
 20
0.0
 30
0.0
  9
$PUCSXDIR
 10
1.0
 20
0.0
 30
0.0
  9
$PUCSYDIR
 10
0.0
 20
1.0
 30
0.0
  9
$PUCSORTHOREF
  2

  9
$PUCSORTHOVIEW
 70
     0
  9
$PUCSORGTOP
 10
0.0
 20
0.0
 30
0.0
  9
$PUCSORGBOTTOM
 10
0.0
 20
0.0
 30
0.0
  9
$PUCSORGLEFT
 10
0.0
 20
0.0
 30
0.0
  9
$PUCSORGRIGHT
 10
0.0
 20
0.0
 30
0.0
  9
$PUCSORGFRONT
 10
0.0
 20
0.0
 30
0.0
  9
$PUCSORGBACK
 10
0.0
 20
0.0
 30
0.0
  9
$USERI1
 70
     0
  9
$USERI2
 70
     0
  9
$USERI3
 70
     0
  9
$USERI4
 70
     0
  9
$USERI5
 70
     0
  9
$USERR1
 40
0.0
  9
$USERR2
 40
0.0
  9
$USERR3
 40
0.0
  9
$USERR4
 40
0.0
  9
$USERR5
 40
0.0
  9
$WORLDVIEW
 70
     1
  9
$SHADEDGE
 70
     3
  9
$SHADEDIF
 70
    70
  9
$TILEMODE
 70
     1
  9
$MAXACTVP
 70
    64
  9
$PINSBASE
 10
0.0
 20
0.0
 30
0.0
  9
$PLIMCHECK
 70
     0
  9
$PEXTMIN
 10
1.0000000000E+20
 20
1.0000000000E+20
 30
1.0000000000E+20
  9
$PEXTMAX
 10
-1.0000000000E+20
 20
-1.0000000000E+20
 30
-1.0000000000E+20
  9
$PLIMMIN
 10
0.0
 20
0.0
  9
$PLIMMAX
 10
420.0
 20
297.0
  9
$UNITMODE
 70
     0
  9
$VISRETAIN
 70
     1
  9
$PLINEGEN
 70
     0
  9
$PSLTSCALE
 70
     1
  9
$TREEDEPTH
 70
  3020
  9
$CMLSTYLE
  2
Standard
  9
$CMLJUST
 70
     0
  9
$CMLSCALE
 40
20.0
  9
$PROXYGRAPHICS
 70
     1
  9
$MEASUREMENT
 70
     1
  9
$CELWEIGHT
370
    -1
  9
$ENDCAPS
280
     0
  9
$JOINSTYLE
280
     0
  9
$LWDISPLAY
290
     1
  9
$INSUNITS
 70
     4
  9
$HYPERLINKBASE
  1

  9
$STYLESHEET
  1

  9
$XEDIT
290
     1
  9
$CEPSNTYPE
380
     0
  9
$PSTYLEMODE
290
     1
  9
$FINGERPRINTGUID
  2
{28a40e6d-6ba6-4165-9466-5595367cbd85}
  9
$VERSIONGUID
  2
{FAEB1C32-E019-11D5-929B-00C0DF256EC4}
  9
$EXTNAMES
290
     1
  9
$PSVPSCALE
 40
0.0
  9
$OLESTARTUP
290
     0
  0
ENDSEC
  0
SECTION
  2
CLASSES
  0
CLASS
  1
ACDBDICTIONARYWDFLT
  2
AcDbDictionaryWithDefault
  3
ObjectDBX Classes
 90
        0
280
     0
281
     0
  0
CLASS
  1
VISUALSTYLE
  2
AcDbVisualStyle
  3
ObjectDBX Classes
 90
     4095
280
     0
281
     0
  0
CLASS
  1
MATERIAL
  2
AcDbMaterial
  3
ObjectDBX Classes
 90
     1153
280
     0
281
     0
  0
CLASS
  1
SCALE
  2
AcDbScale
  3
ObjectDBX Classes
 90
     1153
280
     0
281
     0
  0
CLASS
  1
TABLESTYLE
  2
AcDbTableStyle
  3
ObjectDBX Classes
 90
     4095
280
     0
281
     0
  0
CLASS
  1
MLEADERSTYLE
  2
AcDbMLeaderStyle
  3
ACDB_MLEADERSTYLE_CLASS
 90
     4095
280
     0
281
     0
  0
CLASS
  1
SUN
  2
AcDbSun
  3
SCENEOE
 90
     1153
280
     0
281
     0
  0
CLASS
  1
ACDBPLACEHOLDER
  2
AcDbPlaceHolder
  3
ObjectDBX Classes
 90
        0
280
     0
281
     0
  0
CLASS
  1
LAYOUT
  2
AcDbLayout
  3
ObjectDBX Classes
 90
        0
280
     0
281
     0
  0
ENDSEC
  0
SECTION
  2
TABLES
  0
TABLE
  2
VPORT
  5
8
330
0
100
AcDbSymbolTable
 70
     1
  0
VPORT
  5
29
330
8
100
AcDbSymbolTableRecord
100
AcDbViewportTableRecord
  2
*Active
 70
     0
 10
0.0
 20
0.0
 11
1.0
 21
1.0
 12
105.0
 22
148.5
 13
0.0
 23
0.0
 14
10.0
 24
10.0
 15
10.0
 25
10.0
 16
0.0
 26
0.0
 36
1.0
 17
0.0
 27
0.0
 37
0.0
 40
297.0
 41
0.7070707071
 42
50.0
 43
0.0
 44
0.0
 50
0.0
 51
0.0
 71
     0
 72
  2000
 73
     1
 74
     3
 75
     0
 76
     0
 77
     0
 78
     0
281
     0
 65
     1
110
0.0
120
0.0
130
0.0
111
1.0
121
0.0
131
0.0
112
0.0
122
1.0
132
0.0
 79
     0
146
0.0
  0
ENDTAB
  0
TABLE
  2
LTYPE
  5
5
330
0
100
AcDbSymbolTable
 70
     6
  0
LTYPE
  5
14
330
5
100
AcDbSymbolTableRecord
100
AcDbLinetypeTableRecord
  2
ByBlock
 70
     0
  3

 72
    65
 73
     0
 40
0.0
  0
LTYPE
  5
15
330
5
100
AcDbSymbolTableRecord
100
AcDbLinetypeTableRecord
  2
ByLayer
 70
     0
  3

 72
    65
 73
     0
 40
0.0
  0
LTYPE
  5
16
330
5
100
AcDbSymbolTableRecord
100
AcDbLinetypeTableRecord
  2
Continuous
 70
     0
  3
Solid line
 72
    65
 73
     0
 40
0.0
  0
LTYPE
  5
6E
330
5
100
AcDbSymbolTableRecord
100
AcDbLinetypeTableRecord
  2
HIDDEN
 70
     0
  3
Hidden __ __ __ __ __ __ __ __ __ __ __ __ __ __
 72
    65
 73
     2
 40
1.905
 49
1.27
 74
     0
 49
-0.635
 74
     0
  0
LTYPE
  5
6F
330
5
100
AcDbSymbolTableRecord
100
AcDbLinetypeTableRecord
  2
PHANTOM
 70
     0
  3
Phantom ______  __  __  ______  __  __  ______
 72
    65
 73
     6
 40
12.7
 49
6.35
 74
     0
 49
-1.27
 74
     0
 49
1.27
 74
     0
 49
-1.27
 74
     0
 49
1.27
 74
     0
 49
-1.27
 74
     0
  0
LTYPE
  5
70
330
5
100
AcDbSymbolTableRecord
100
AcDbLinetypeTableRecord
  2
CENTER
 70
     0
  3
Center ____ _ ____ _ ____ _ ____ _ ____ _ ____
 72
    65
 73
     4
 40
10.16
 49
6.35
 74
     0
 49
-1.27
 74
     0
 49
1.27
 74
     0
 49
-1.27
 74
     0
  0
LTYPE
  5
71
330
5
100
AcDbSymbolTableRecord
100
AcDbLinetypeTableRecord
  2
CENTERX2
 70
     0
  3
Center (2x) ________  __  ________  __  _____
 72
    65
 73
     4
 40
20.32
 49
12.7
 74
     0
 49
-2.54
 74
     0
 49
2.54
 74
     0
 49
-2.54
 74
     0
  0
LTYPE
  5
72
330
5
100
AcDbSymbolTableRecord
100
AcDbLinetypeTableRecord
  2
DOT2
 70
     0
  3
Dot (.5x) ........................................
 72
    65
 73
     2
 40
0.635
 49
0.0
 74
     0
 49
-0.635
 74
     0
  0
ENDTAB
  0
TABLE
  2
LAYER
  5
2
330
0
100
AcDbSymbolTable
 70
     1
  0
LAYER
  5
10
330
2
100
AcDbSymbolTableRecord
100
AcDbLayerTableRecord
  2
0
 70
     0
 62
     7
  6
Continuous
370
    -3
390
F
  0
ENDTAB
  0
TABLE
  2
STYLE
  5
3
330
0
100
AcDbSymbolTable
 70
     1
  0
STYLE
  5
11
330
3
100
AcDbSymbolTableRecord
100
AcDbTextStyleTableRecord
  2
Standard
 70
     0
 40
0.0
 41
1.0
 50
0.0
 71
     0
 42
3.5
  3
txt
  4
bigfont
  0
ENDTAB
  0
TABLE
  2
VIEW
  5
6
330
0
100
AcDbSymbolTable
 70
     0
  0
ENDTAB
  0
TABLE
  2
UCS
  5
7
330
0
100
AcDbSymbolTable
 70
     0
  0
ENDTAB
  0
TABLE
  2
APPID
  5
9
330
0
100
AcDbSymbolTable
 70
     1
  0
APPID
  5
12
330
9
100
AcDbSymbolTableRecord
100
AcDbRegAppTableRecord
  2
ACAD
 70
     0
  0
ENDTAB
  0
TABLE
  2
DIMSTYLE
  5
A
330
0
100
AcDbSymbolTable
 70
     1
100
AcDbDimStyleTable
  0
DIMSTYLE
105
27
330
A
100
AcDbSymbolTableRecord
100
AcDbDimStyleTableRecord
  2
ISO-25
 70
     0
 41
2.5
 42
0.625
 43
3.75
 44
1.25
 73
     0
 74
     0
 77
     1
 78
     8
140
2.5
141
2.5
143
0.0393700787
147
0.625
171
     3
172
     1
178
     0
271
     2
272
     2
274
     3
278
    44
283
     0
284
     8
340
11
  0
ENDTAB
  0
TABLE
  2
BLOCK_RECORD
  5
1
330
0
100
AcDbSymbolTable
 70
     1
  0
BLOCK_RECORD
  5
1F
330
1
100
AcDbSymbolTableRecord
100
AcDbBlockTableRecord
  2
*Model_Space
340
22
  0
BLOCK_RECORD
  5
1B
330
1
100
AcDbSymbolTableRecord
100
AcDbBlockTableRecord
  2
*Paper_Space
340
1E
  0
BLOCK_RECORD
  5
23
330
1
100
AcDbSymbolTableRecord
100
AcDbBlockTableRecord
  2
*Paper_Space0
340
26
  0
ENDTAB
  0
ENDSEC
  0
SECTION
  2
BLOCKS
  0
BLOCK
  5
20
330
1F
100
AcDbEntity
  8
0
100
AcDbBlockBegin
  2
*Model_Space
 70
     0
 10
0.0
 20
0.0
 30
0.0
  3
*Model_Space
  1

  0
ENDBLK
  5
21
330
1F
100
AcDbEntity
  8
0
100
AcDbBlockEnd
  0
BLOCK
  5
1C
330
1B
100
AcDbEntity
 67
     1
  8
0
100
AcDbBlockBegin
  2
*Paper_Space
 70
     0
 10
0.0
 20
0.0
 30
0.0
  3
*Paper_Space
  1

  0
ENDBLK
  5
1D
330
1B
100
AcDbEntity
 67
     1
  8
0
100
AcDbBlockEnd
  0
BLOCK
  5
24
330
23
100
AcDbEntity
  8
0
100
AcDbBlockBegin
  2
*Paper_Space0
 70
     0
 10
0.0
 20
0.0
 30
0.0
  3
*Paper_Space0
  1

  0
ENDBLK
  5
25
330
23
100
AcDbEntity
  8
0
100
AcDbBlockEnd
  0
ENDSEC
  0
SECTION
  2
ENTITIES
  0
LINE
  5
73
330
1F
100
AcDbEntity
  8
0
  6
CENTERX2
 62
     4
370
    18
100
AcDbLine
 10
190.7229559894
 20
24.1659277399
 30
0.0
 11
19.3112697387
 21
24.1659277399
 31
0.0
  0
LINE
  5
74
330
1F
100
AcDbEntity
  8
0
  6
Continuous
 62
     3
100
AcDbLine
 10
66.0253377473
 20
75.5270026569
 30
0.0
 11
50.2773219992
 21
59.7789869088
 31
0.0
  0
LINE
  5
75
330
1F
100
AcDbEntity
  8
0
  6
Continuous
 62
     3
100
AcDbLine
 10
152.9994718331
 20
-11.447131429
 30
0.0
 11
137.2514560851
 21
-27.1951471771
 31
0.0
  0
LINE
  5
76
330
1F
100
AcDbEntity
  8
0
  6
Continuous
 62
     3
100
AcDbLine
 10
50.2773219993
 20
-11.447131429
 30
0.0
 11
66.0253377473
 21
-27.195147177
 31
0.0
  0
LINE
  5
77
330
1F
100
AcDbEntity
  8
0
  6
Continuous
 62
     3
100
AcDbLine
 10
137.2514560851
 20
75.5270026569
 30
0.0
 11
152.9994718331
 21
59.7789869089
 31
0.0
  0
LINE
  5
78
330
1F
100
AcDbEntity
  8
0
  6
Continuous
 62
     3
100
AcDbLine
 10
35.6383969162
 20
76.1274519669
 30
0.0
 11
35.6383969162
 21
-27.7955964872
 31
0.0
  0
LINE
  5
79
330
1F
100
AcDbEntity
  8
0
  6
Continuous
 62
     3
100
AcDbLine
 10
167.6383969162
 20
76.1274519669
 30
0.0
 11
167.6383969162
 21
-27.7955964871
 31
0.0
  0
LINE
  5
7A
330
1F
100
AcDbEntity
  8
0
  6
Continuous
 62
     3
100
AcDbLine
 10
49.6768726892
 20
90.1659277399
 30
0.0
 11
153.5999211433
 21
90.1659277399
 31
0.0
  0
LINE
  5
7B
330
1F
100
AcDbEntity
  8
0
  6
Continuous
 62
     3
100
AcDbLine
 10
49.6768726891
 20
-41.8340722601
 30
0.0
 11
153.5999211432
 21
-41.8340722601
 31
0.0
  0
LINE
  5
7C
330
1F
100
AcDbEntity
  8
0
  6
Continuous
 62
     3
100
AcDbLine
 10
49.8793397377
 20
85.1659277399
 30
0.0
 11
76.6383969162
 21
85.1659277399
 31
0.0
  0
LINE
  5
7D
330
1F
100
AcDbEntity
  8
0
  6
Continuous
 62
     3
100
AcDbLine
 10
40.6383969162
 20
75.9249849184
 30
0.0
 11
40.6383969162
 21
49.16592774
 31
0.0
  0
LINE
  5
7E
330
1F
100
AcDbEntity
  8
0
  6
Continuous
 62
     3
100
AcDbLine
 10
162.6383969162
 20
75.9249849183
 30
0.0
 11
162.6383969162
 21
49.1659277399
 31
0.0
  0
LINE
  5
7F
330
1F
100
AcDbEntity
  8
0
  6
Continuous
 62
     3
100
AcDbLine
 10
76.6383969162
 20
90.1659277399
 30
0.0
 11
76.6383969162
 21
85.1659277399
 31
0.0
  0
LINE
  5
80
330
1F
100
AcDbEntity
  8
0
  6
Continuous
 62
     3
100
AcDbLine
 10
126.6383969162
 20
90.1659277399
 30
0.0
 11
126.6383969162
 21
85.1659277399
 31
0.0
  0
LINE
  5
81
330
1F
100
AcDbEntity
  8
0
  6
Continuous
 62
     3
100
AcDbLine
 10
126.6383969162
 20
85.1659277399
 30
0.0
 11
153.3974540946
 21
85.1659277399
 31
0.0
  0
LINE
  5
82
330
1F
100
AcDbEntity
  8
0
  6
Continuous
 62
     3
100
AcDbLine
 10
167.6383969162
 20
49.1659277399
 30
0.0
 11
162.6383969162
 21
49.1659277399
 31
0.0
  0
LINE
  5
83
330
1F
100
AcDbEntity
  8
0
  6
Continuous
 62
     3
100
AcDbLine
 10
40.6383969162
 20
49.16592774
 30
0.0
 11
35.6383969162
 21
49.16592774
 31
0.0
  0
LINE
  5
84
330
1F
100
AcDbEntity
  8
0
  6
Continuous
 62
     3
100
AcDbLine
 10
40.6383969162
 20
-27.5931294386
 30
0.0
 11
40.6383969162
 21
-0.8340722601
 31
0.0
  0
LINE
  5
85
330
1F
100
AcDbEntity
  8
0
  6
Continuous
 62
     3
100
AcDbLine
 10
40.6383969162
 20
-0.8340722601
 30
0.0
 11
35.6383969162
 21
-0.8340722601
 31
0.0
  0
LINE
  5
86
330
1F
100
AcDbEntity
  8
0
  6
Continuous
 62
     3
100
AcDbLine
 10
49.8793397377
 20
-36.8340722601
 30
0.0
 11
76.6383969162
 21
-36.8340722601
 31
0.0
  0
LINE
  5
87
330
1F
100
AcDbEntity
  8
0
  6
Continuous
 62
     3
100
AcDbLine
 10
76.6383969162
 20
-41.8340722601
 30
0.0
 11
76.6383969162
 21
-36.8340722601
 31
0.0
  0
LINE
  5
88
330
1F
100
AcDbEntity
  8
0
  6
Continuous
 62
     3
100
AcDbLine
 10
126.6383969162
 20
-41.8340722601
 30
0.0
 11
126.6383969162
 21
-36.8340722601
 31
0.0
  0
LINE
  5
89
330
1F
100
AcDbEntity
  8
0
  6
Continuous
 62
     3
100
AcDbLine
 10
126.6383969162
 20
-36.8340722601
 30
0.0
 11
153.3974540946
 21
-36.8340722601
 31
0.0
  0
LINE
  5
8A
330
1F
100
AcDbEntity
  8
0
  6
Continuous
 62
     3
100
AcDbLine
 10
162.6383969162
 20
-27.5931294385
 30
0.0
 11
162.6383969162
 21
-0.83407226
 31
0.0
  0
LINE
  5
8B
330
1F
100
AcDbEntity
  8
0
  6
Continuous
 62
     3
100
AcDbLine
 10
167.6383969162
 20
-0.83407226
 30
0.0
 11
162.6383969162
 21
-0.83407226
 31
0.0
  0
LINE
  5
8C
330
1F
100
AcDbEntity
  8
0
  6
HIDDEN
 62
     3
100
AcDbLine
 10
56.1383969162
 20
32.5159277399
 30
0.0
 11
35.6383969162
 21
32.5159277399
 31
0.0
  0
LINE
  5
8D
330
1F
100
AcDbEntity
  8
0
  6
HIDDEN
 62
     3
100
AcDbLine
 10
56.1383969162
 20
15.8159277399
 30
0.0
 11
35.6383969162
 21
15.8159277399
 31
0.0
  0
LINE
  5
8E
330
1F
100
AcDbEntity
  8
0
  6
HIDDEN
 62
     4
370
    18
100
AcDbLine
 10
52.6703282894
 20
31.6659277399
 30
0.0
 11
35.6383969162
 21
31.6659277399
 31
0.0
  0
LINE
  5
8F
330
1F
100
AcDbEntity
  8
0
  6
HIDDEN
 62
     4
370
    18
100
AcDbLine
 10
52.6703282894
 20
16.6659277399
 30
0.0
 11
35.6383969162
 21
16.6659277399
 31
0.0
  0
LINE
  5
90
330
1F
100
AcDbEntity
  8
0
  6
HIDDEN
 62
     4
370
    18
100
AcDbLine
 10
154.6383969162
 20
31.6659277399
 30
0.0
 11
167.6383969162
 21
31.6659277399
 31
0.0
  0
LINE
  5
91
330
1F
100
AcDbEntity
  8
0
  6
HIDDEN
 62
     3
100
AcDbLine
 10
154.6383969162
 20
32.5159277399
 30
0.0
 11
167.6383969162
 21
32.5159277399
 31
0.0
  0
LINE
  5
92
330
1F
100
AcDbEntity
  8
0
  6
HIDDEN
 62
     3
100
AcDbLine
 10
154.6383969162
 20
15.8159277399
 30
0.0
 11
167.6383969162
 21
15.8159277399
 31
0.0
  0
LINE
  5
93
330
1F
100
AcDbEntity
  8
0
  6
HIDDEN
 62
     4
370
    18
100
AcDbLine
 10
154.6383969162
 20
16.6659277399
 30
0.0
 11
167.6383969162
 21
16.6659277399
 31
0.0
  0
LINE
  5
94
330
1F
100
AcDbEntity
  8
0
  6
CENTERX2
 62
     4
370
    18
100
AcDbLine
 10
101.6383969162
 20
134.8982646546
 30
0.0
 11
101.6383969162
 21
-48.1004618239
 31
0.0
  0
LINE
  5
95
330
1F
100
AcDbEntity
  8
0
  6
CENTERX2
 62
     4
370
    18
100
AcDbLine
 10
83.9256751617
 20
105.4659277399
 30
0.0
 11
119.829561331
 21
105.4659277399
 31
0.0
  0
LINE
  5
96
330
1F
100
AcDbEntity
  8
0
  6
Continuous
 62
     3
100
AcDbLine
 10
78.3383969162
 20
122.4659277399
 30
0.0
 11
97.2383969162
 21
122.4659277399
 31
0.0
  0
LINE
  5
97
330
1F
100
AcDbEntity
  8
0
  6
Continuous
 62
     3
100
AcDbLine
 10
76.6383969162
 20
124.9659277399
 30
0.0
 11
96.1284059906
 21
124.9659277399
 31
0.0
  0
LINE
  5
98
330
1F
100
AcDbEntity
  8
0
  6
Continuous
 62
     3
100
AcDbLine
 10
73.6383969162
 20
90.1659277399
 30
0.0
 11
73.6383969162
 21
121.9659277399
 31
0.0
  0
LINE
  5
99
330
1F
100
AcDbEntity
  8
0
  6
Continuous
 62
     3
100
AcDbLine
 10
76.3383969162
 20
90.1659277399
 30
0.0
 11
76.3383969162
 21
120.4659277399
 31
0.0
  0
LINE
  5
9A
330
1F
100
AcDbEntity
  8
0
  6
Continuous
 62
     3
100
AcDbLine
 10
106.0383969162
 20
122.4659277399
 30
0.0
 11
124.9383969162
 21
122.4659277399
 31
0.0
  0
LINE
  5
9B
330
1F
100
AcDbEntity
  8
0
  6
Continuous
 62
     3
100
AcDbLine
 10
107.4478719355
 20
124.6659277399
 30
0.0
 11
126.6383969162
 21
124.6659277399
 31
0.0
  0
LINE
  5
9C
330
1F
100
AcDbEntity
  8
0
  6
Continuous
 62
     3
100
AcDbLine
 10
129.6383969162
 20
90.1659277399
 30
0.0
 11
129.6383969162
 21
121.9659277399
 31
0.0
  0
LINE
  5
9D
330
1F
100
AcDbEntity
  8
0
  6
Continuous
 62
     3
100
AcDbLine
 10
126.9383969162
 20
90.1659277399
 30
0.0
 11
126.9383969162
 21
120.4659277399
 31
0.0
  0
LINE
  5
9E
330
1F
100
AcDbEntity
  8
0
  6
Continuous
 62
     3
100
AcDbLine
 10
35.6383969162
 20
170.6783792091
 30
0.0
 11
126.6383969162
 21
170.6783792091
 31
0.0
  0
LINE
  5
9F
330
1F
100
AcDbEntity
  8
0
  6
Continuous
 62
     3
100
AcDbLine
 10
35.6383969162
 20
249.6783792091
 30
0.0
 11
35.6383969162
 21
170.6783792091
 31
0.0
  0
LINE
  5
A0
330
1F
100
AcDbEntity
  8
0
  6
Continuous
 62
     3
100
AcDbLine
 10
167.6383969162
 20
249.6783792091
 30
0.0
 11
167.6383969162
 21
170.6783792091
 31
0.0
  0
LINE
  5
A1
330
1F
100
AcDbEntity
  8
0
  6
Continuous
 62
     3
100
AcDbLine
 10
35.6383969162
 20
183.6783792091
 30
0.0
 11
167.6383969162
 21
183.6783792091
 31
0.0
  0
LINE
  5
A2
330
1F
100
AcDbEntity
  8
0
  6
Continuous
 62
     3
100
AcDbLine
 10
162.8727719162
 20
245.4440042091
 30
0.0
 11
167.6383969162
 21
240.6783792091
 31
0.0
  0
LINE
  5
A3
330
1F
100
AcDbEntity
  8
0
  6
Continuous
 62
     3
100
AcDbLine
 10
162.6383969162
 20
250.6783792091
 30
0.0
 11
165.6383969162
 21
183.6783792091
 31
0.0
  0
LINE
  5
A4
330
1F
100
AcDbEntity
  8
0
  6
Continuous
 62
     3
100
AcDbLine
 10
139.4383969162
 20
250.6783792091
 30
0.0
 11
138.4383969162
 21
183.6783792091
 31
0.0
  0
LINE
  5
A5
330
1F
100
AcDbEntity
  8
0
  6
Continuous
 62
     3
100
AcDbLine
 10
149.5383969162
 20
250.6783792091
 30
0.0
 11
153.9983969162
 21
183.6783792091
 31
0.0
  0
LINE
  5
A6
330
1F
100
AcDbEntity
  8
0
  6
Continuous
 62
     3
100
AcDbLine
 10
63.8383969162
 20
250.6783792091
 30
0.0
 11
64.8383969162
 21
183.6783792091
 31
0.0
  0
LINE
  5
A7
330
1F
100
AcDbEntity
  8
0
  6
Continuous
 62
     3
100
AcDbLine
 10
53.7383969162
 20
250.6783792091
 30
0.0
 11
49.2783969162
 21
183.6783792091
 31
0.0
  0
LINE
  5
A8
330
1F
100
AcDbEntity
  8
0
  6
Continuous
 62
     3
100
AcDbLine
 10
49.3383969162
 20
250.6783792091
 30
0.0
 11
46.6383969162
 21
183.6783792091
 31
0.0
  0
LINE
  5
A9
330
1F
100
AcDbEntity
  8
0
  6
CENTERX2
 62
     4
370
    18
100
AcDbLine
 10
91.6383969162
 20
228.6783792091
 30
0.0
 11
111.6383969162
 21
228.6783792091
 31
0.0
  0
LINE
  5
AA
330
1F
100
AcDbEntity
  8
0
  6
Continuous
 62
     3
100
AcDbLine
 10
162.6831730356
 20
249.6783792091
 30
0.0
 11
167.6383969162
 21
249.6783792091
 31
0.0
  0
LINE
  5
AB
330
1F
100
AcDbEntity
  8
0
  6
Continuous
 62
     3
100
AcDbLine
 10
35.6383969162
 20
249.6783792091
 30
0.0
 11
49.2980984087
 21
249.6783792091
 31
0.0
  0
LINE
  5
AC
330
1F
100
AcDbEntity
  8
0
  6
Continuous
 62
     3
100
AcDbLine
 10
40.6383969162
 20
250.6783792091
 30
0.0
 11
40.5936207967
 21
249.6783792091
 31
0.0
  0
LINE
  5
AD
330
1F
100
AcDbEntity
  8
0
  6
HIDDEN
 62
     3
100
AcDbLine
 10
48.6383969162
 20
218.3283792091
 30
0.0
 11
35.6383969162
 21
218.3283792091
 31
0.0
  0
LINE
  5
AE
330
1F
100
AcDbEntity
  8
0
  6
HIDDEN
 62
     4
370
    18
100
AcDbLine
 10
48.6383969162
 20
219.1783792091
 30
0.0
 11
35.6383969162
 21
219.1783792091
 31
0.0
  0
LINE
  5
AF
330
1F
100
AcDbEntity
  8
0
  6
HIDDEN
 62
     4
370
    18
100
AcDbLine
 10
48.6383969162
 20
234.1783792091
 30
0.0
 11
35.6383969162
 21
234.1783792091
 31
0.0
  0
LINE
  5
B0
330
1F
100
AcDbEntity
  8
0
  6
HIDDEN
 62
     3
100
AcDbLine
 10
48.6383969162
 20
235.0283792091
 30
0.0
 11
35.6383969162
 21
235.0283792091
 31
0.0
  0
LINE
  5
B1
330
1F
100
AcDbEntity
  8
0
  6
HIDDEN
 62
     4
370
    18
100
AcDbLine
 10
154.6383969162
 20
234.1783792091
 30
0.0
 11
167.6383969162
 21
234.1783792091
 31
0.0
  0
LINE
  5
B2
330
1F
100
AcDbEntity
  8
0
  6
HIDDEN
 62
     3
100
AcDbLine
 10
154.6383969162
 20
235.0283792091
 30
0.0
 11
167.6383969162
 21
235.0283792091
 31
0.0
  0
LINE
  5
B3
330
1F
100
AcDbEntity
  8
0
  6
HIDDEN
 62
     3
100
AcDbLine
 10
154.6383969162
 20
218.3283792091
 30
0.0
 11
167.6383969162
 21
218.3283792091
 31
0.0
  0
LINE
  5
B4
330
1F
100
AcDbEntity
  8
0
  6
HIDDEN
 62
     4
370
    18
100
AcDbLine
 10
154.6383969162
 20
219.1783792091
 30
0.0
 11
167.6383969162
 21
219.1783792091
 31
0.0
  0
LINE
  5
B5
330
1F
100
AcDbEntity
  8
0
  6
Continuous
 62
     3
100
AcDbLine
 10
97.6383969162
 20
250.6783792091
 30
0.0
 11
31.7310819062
 21
250.6783792091
 31
0.0
  0
LINE
  5
B6
330
1F
100
AcDbEntity
  8
0
  6
Continuous
 62
     3
100
AcDbLine
 10
31.7310819062
 20
261.9149695464
 30
0.0
 11
31.7310819062
 21
250.6783792091
 31
0.0
  0
LINE
  5
B7
330
1F
100
AcDbEntity
  8
0
  6
Continuous
 62
     3
100
AcDbLine
 10
38.6193836887
 20
261.9149695464
 30
0.0
 11
38.6193836887
 21
250.6783792091
 31
0.0
  0
LINE
  5
B8
330
1F
100
AcDbEntity
  8
0
  6
Continuous
 62
     3
100
AcDbLine
 10
40.6383969162
 20
250.6783792091
 30
0.0
 11
40.6383969162
 21
259.6783792091
 31
0.0
  0
LINE
  5
B9
330
1F
100
AcDbEntity
  8
0
  6
Continuous
 62
     3
100
AcDbLine
 10
162.6383969162
 20
250.6783792091
 30
0.0
 11
162.6383969162
 21
259.6783792091
 31
0.0
  0
LINE
  5
BA
330
1F
100
AcDbEntity
  8
0
  6
Continuous
 62
     3
100
AcDbLine
 10
171.5457119261
 20
262.6783792091
 30
0.0
 11
171.5457119261
 21
250.6783792091
 31
0.0
  0
LINE
  5
BB
330
1F
100
AcDbEntity
  8
0
  6
Continuous
 62
     3
100
AcDbLine
 10
129.3843636086
 20
259.6783792091
 30
0.0
 11
162.6383969162
 21
259.6783792091
 31
0.0
  0
LINE
  5
BC
330
1F
100
AcDbEntity
  8
0
  6
Continuous
 62
     3
100
AcDbLine
 10
95.3138415958
 20
254.6783792091
 30
0.0
 11
81.6383969162
 21
254.6783792091
 31
0.0
  0
LINE
  5
BD
330
1F
100
AcDbEntity
  8
0
  6
Continuous
 62
     3
100
AcDbLine
 10
107.9629522365
 20
254.6783792091
 30
0.0
 11
121.6383969162
 21
254.6783792091
 31
0.0
  0
LINE
  5
BE
330
1F
100
AcDbEntity
  8
0
  6
Continuous
 62
     3
100
AcDbLine
 10
154.9874608604
 20
315.5302926155
 30
0.0
 11
151.9454163317
 21
318.3068919828
 31
0.0
  0
LINE
  5
BF
330
1F
100
AcDbEntity
  8
0
  6
Continuous
 62
     3
100
AcDbLine
 10
156.8762680069
 20
318.3040299924
 30
0.0
 11
160.3863030564
 21
315.5331546058
 31
0.0
  0
LINE
  5
C0
330
1F
100
AcDbEntity
  8
0
  6
Continuous
 62
     3
100
AcDbLine
 10
153.9087420068
 20
327.6596264442
 30
0.0
 11
154.4958840665
 21
327.6596264442
 31
0.0
  0
LINE
  5
C1
330
1F
100
AcDbEntity
  8
0
  6
Continuous
 62
     3
100
AcDbLine
 10
156.4958840665
 20
319.0889350432
 30
0.0
 11
156.4958840665
 21
325.6596264442
 31
0.0
  0
LINE
  5
C2
330
1F
100
AcDbEntity
  8
0
  6
Continuous
 62
     3
100
AcDbLine
 10
153.9087420068
 20
327.6596264442
 30
0.0
 11
153.9087420068
 21
316.5148837542
 31
0.0
  0
LINE
  5
C3
330
1F
100
AcDbEntity
  8
0
  6
Continuous
 62
     3
100
AcDbLine
 10
160.7666869969
 20
259.6783792091
 30
0.0
 11
160.7666869969
 21
314.748249555
 31
0.0
  0
LINE
  5
C4
330
1F
100
AcDbEntity
  8
0
  6
Continuous
 62
     3
100
AcDbLine
 10
71.4374203914
 20
259.6783792091
 30
0.0
 11
71.4374203914
 21
327.6596264442
 31
0.0
  0
LINE
  5
C5
330
1F
100
AcDbEntity
  8
0
  6
Continuous
 62
     3
100
AcDbLine
 10
70.7299146827
 20
327.6596264442
 30
0.0
 11
71.4374203914
 21
327.6596264442
 31
0.0
  0
LINE
  5
C6
330
1F
100
AcDbEntity
  8
0
  6
Continuous
 62
     3
100
AcDbLine
 10
62.7723423563
 20
339.0216344269
 30
0.0
 11
62.7723423563
 21
259.6783792091
 31
0.0
  0
LINE
  5
C7
330
1F
100
AcDbEntity
  8
0
  6
Continuous
 62
     3
100
AcDbLine
 10
56.0526427422
 20
338.5238789
 30
0.0
 11
56.0526427422
 21
259.6783792091
 31
0.0
  0
LINE
  5
C8
330
1F
100
AcDbEntity
  8
0
  6
Continuous
 62
     3
100
AcDbLine
 10
58.8810698669
 20
338.7333920203
 30
0.0
 11
58.8810698669
 21
259.6783792091
 31
0.0
  0
LINE
  5
C9
330
1F
100
AcDbEntity
  8
0
  6
Continuous
 62
     3
100
AcDbLine
 10
66.8036799937
 20
259.6783792091
 30
0.0
 11
66.8036799937
 21
315.0058063031
 31
0.0
  0
LINE
  5
CA
330
1F
100
AcDbEntity
  8
0
  6
Continuous
 62
     3
100
AcDbLine
 10
68.7299146827
 20
319.4827968769
 30
0.0
 11
68.7299146827
 21
325.6596264442
 31
0.0
  0
LINE
  5
CB
330
1F
100
AcDbEntity
  8
0
  6
Continuous
 62
     3
100
AcDbLine
 10
68.6318515708
 20
319.0509290154
 30
0.0
 11
66.9017431055
 21
315.4376741646
 31
0.0
  0
LINE
  5
CC
330
1F
100
AcDbEntity
  8
0
  6
Continuous
 62
     3
100
AcDbLine
 10
134.6449422615
 20
319.0509290154
 30
0.0
 11
136.3750507268
 21
315.4376741646
 31
0.0
  0
LINE
  5
CD
330
1F
100
AcDbEntity
  8
0
  6
Continuous
 62
     3
100
AcDbLine
 10
151.6195639276
 20
319.0454886379
 30
0.0
 11
151.6195639276
 21
325.6596264442
 31
0.0
  0
LINE
  5
CE
330
1F
100
AcDbEntity
  8
0
  6
Continuous
 62
     3
100
AcDbLine
 10
149.6195639276
 20
327.6596264442
 30
0.0
 11
148.8906229285
 21
327.6596264442
 31
0.0
  0
LINE
  5
CF
330
1F
100
AcDbEntity
  8
0
  6
Continuous
 62
     3
100
AcDbLine
 10
148.8906229285
 20
327.6596264442
 30
0.0
 11
148.8906229285
 21
259.6783792091
 31
0.0
  0
LINE
  5
D0
330
1F
100
AcDbEntity
  8
0
  6
Continuous
 62
     3
100
AcDbLine
 10
155.3133132646
 20
314.7916959603
 30
0.0
 11
155.3133132646
 21
259.6783792091
 31
0.0
  0
LINE
  5
D1
330
1F
100
AcDbEntity
  8
0
  6
Continuous
 62
     3
100
AcDbLine
 10
140.504451476
 20
339.0216344269
 30
0.0
 11
140.504451476
 21
259.6783792091
 31
0.0
  0
LINE
  5
D2
330
1F
100
AcDbEntity
  8
0
  6
Continuous
 62
     3
100
AcDbLine
 10
144.3957239654
 20
338.7333920203
 30
0.0
 11
144.3957239654
 21
259.6783792091
 31
0.0
  0
LINE
  5
D3
330
1F
100
AcDbEntity
  8
0
  6
Continuous
 62
     3
100
AcDbLine
 10
147.2241510901
 20
338.5238789
 30
0.0
 11
147.2241510901
 21
259.6783792091
 31
0.0
  0
LINE
  5
D4
330
1F
100
AcDbEntity
  8
0
  6
Continuous
 62
     3
100
AcDbLine
 10
134.5468791497
 20
319.4827968769
 30
0.0
 11
134.5468791497
 21
325.6596264442
 31
0.0
  0
LINE
  5
D5
330
1F
100
AcDbEntity
  8
0
  6
Continuous
 62
     3
100
AcDbLine
 10
132.5468791497
 20
327.6596264442
 30
0.0
 11
131.839373441
 21
327.6596264442
 31
0.0
  0
LINE
  5
D6
330
1F
100
AcDbEntity
  8
0
  6
Continuous
 62
     3
100
AcDbLine
 10
136.4731138387
 20
259.6783792091
 30
0.0
 11
136.4731138387
 21
315.0058063031
 31
0.0
  0
LINE
  5
D7
330
1F
100
AcDbEntity
  8
0
  6
Continuous
 62
     3
100
AcDbLine
 10
131.839373441
 20
259.6783792091
 30
0.0
 11
131.839373441
 21
327.6596264442
 31
0.0
  0
LINE
  5
D8
330
1F
100
AcDbEntity
  8
0
  6
Continuous
 62
     3
100
AcDbLine
 10
109.0545954032
 20
253.6783792091
 30
0.0
 11
121.6383969162
 21
253.6783792091
 31
0.0
  0
LINE
  5
D9
330
1F
100
AcDbEntity
  8
0
  6
Continuous
 62
     3
100
AcDbLine
 10
76.6383969162
 20
259.6783792091
 30
0.0
 11
76.6383969162
 21
325.6783792091
 31
0.0
  0
LINE
  5
DA
330
1F
100
AcDbEntity
  8
0
  6
Continuous
 62
     3
100
AcDbLine
 10
81.6383969162
 20
330.6783792091
 30
0.0
 11
121.6383969162
 21
330.6783792091
 31
0.0
  0
LINE
  5
DB
330
1F
100
AcDbEntity
  8
0
  6
Continuous
 62
     3
100
AcDbLine
 10
126.6383969162
 20
259.6783792091
 30
0.0
 11
126.6383969162
 21
325.6783792091
 31
0.0
  0
LINE
  5
DC
330
1F
100
AcDbEntity
  8
0
  6
Continuous
 62
     3
100
AcDbLine
 10
81.6383969162
 20
333.6783792091
 30
0.0
 11
121.6383969162
 21
333.6783792091
 31
0.0
  0
LINE
  5
DD
330
1F
100
AcDbEntity
  8
0
  6
Continuous
 62
     3
100
AcDbLine
 10
73.6383969162
 20
261.6783792091
 30
0.0
 11
73.6383969162
 21
325.6783792091
 31
0.0
  0
LINE
  5
DE
330
1F
100
AcDbEntity
  8
0
  6
Continuous
 62
     3
100
AcDbLine
 10
129.6383969162
 20
261.6783792091
 30
0.0
 11
129.6383969162
 21
325.6783792091
 31
0.0
  0
LINE
  5
DF
330
1F
100
AcDbEntity
  8
0
  6
Continuous
 62
     3
100
AcDbLine
 10
81.6383969162
 20
253.6783792091
 30
0.0
 11
94.2221984291
 21
253.6783792091
 31
0.0
  0
LINE
  5
E0
330
1F
100
AcDbEntity
  8
0
  6
Continuous
 62
     3
100
AcDbLine
 10
161.1383969162
 20
318.3897040745
 30
0.0
 11
165.1543147077
 21
316.0711128565
 31
0.0
  0
LINE
  5
E1
330
1F
100
AcDbEntity
  8
0
  6
Continuous
 62
     3
100
AcDbLine
 10
160.6383969162
 20
319.2557294783
 30
0.0
 11
160.6383969162
 21
325.6783792091
 31
0.0
  0
LINE
  5
E2
330
1F
100
AcDbEntity
  8
0
  6
Continuous
 62
     3
100
AcDbLine
 10
42.6383969162
 20
319.2557294783
 30
0.0
 11
42.6383969162
 21
325.6783792091
 31
0.0
  0
LINE
  5
E3
330
1F
100
AcDbEntity
  8
0
  6
Continuous
 62
     3
100
AcDbLine
 10
44.5891284421
 20
335.871868493
 30
0.0
 11
42.0346790858
 21
274.2087254287
 31
0.0
  0
LINE
  5
E4
330
1F
100
AcDbEntity
  8
0
  6
Continuous
 62
     3
100
AcDbLine
 10
101.6383969162
 20
341.6783792091
 30
0.0
 11
72.6383969162
 21
341.6783792091
 31
0.0
  0
LINE
  5
E5
330
1F
100
AcDbEntity
  8
0
  6
Continuous
 62
     3
100
AcDbLine
 10
71.6383969162
 20
340.6070448662
 30
0.0
 11
71.6383969162
 21
340.6783792091
 31
0.0
  0
LINE
  5
E6
330
1F
100
AcDbEntity
  8
0
  6
Continuous
 62
     3
100
AcDbLine
 10
101.6383969162
 20
339.6783792091
 30
0.0
 11
71.009314828
 21
339.6783792091
 31
0.0
  0
LINE
  5
E7
330
1F
100
AcDbEntity
  8
0
  6
Continuous
 62
     3
100
AcDbLine
 10
46.4406416841
 20
337.8118788216
 30
0.0
 11
70.7122686017
 21
339.6097771118
 31
0.0
  0
LINE
  5
E8
330
1F
100
AcDbEntity
  8
0
  6
Continuous
 62
     3
100
AcDbLine
 10
156.8361521482
 20
337.8118788216
 30
0.0
 11
132.5645252306
 21
339.6097771118
 31
0.0
  0
LINE
  5
E9
330
1F
100
AcDbEntity
  8
0
  6
Continuous
 62
     3
100
AcDbLine
 10
131.6383969162
 20
340.6070448662
 30
0.0
 11
131.6383969162
 21
340.6783792091
 31
0.0
  0
LINE
  5
EA
330
1F
100
AcDbEntity
  8
0
  6
Continuous
 62
     3
100
AcDbLine
 10
101.6383969162
 20
339.6783792091
 30
0.0
 11
132.2674790043
 21
339.6783792091
 31
0.0
  0
LINE
  5
EB
330
1F
100
AcDbEntity
  8
0
  6
Continuous
 62
     3
100
AcDbLine
 10
101.6383969162
 20
341.6783792091
 30
0.0
 11
130.6383969162
 21
341.6783792091
 31
0.0
  0
LINE
  5
EC
330
1F
100
AcDbEntity
  8
0
  6
Continuous
 62
     3
100
AcDbLine
 10
171.5457119261
 20
262.6783792091
 30
0.0
 11
167.8859562373
 21
266.9353916426
 31
0.0
  0
LINE
  5
ED
330
1F
100
AcDbEntity
  8
0
  6
Continuous
 62
     3
100
AcDbLine
 10
42.0346790858
 20
274.2087254287
 30
0.0
 11
32.2397622207
 21
263.2476231382
 31
0.0
  0
LINE
  5
EE
330
1F
100
AcDbEntity
  8
0
  6
Continuous
 62
     3
100
AcDbLine
 10
49.3426667369
 20
274.6783792091
 30
0.0
 11
39.1280640033
 21
263.2476231382
 31
0.0
  0
LINE
  5
EF
330
1F
100
AcDbEntity
  8
0
  6
Continuous
 62
     3
100
AcDbLine
 10
38.770815138
 20
262.6783792091
 30
0.0
 11
31.8825133554
 21
262.6783792091
 31
0.0
  0
LINE
  5
F0
330
1F
100
AcDbEntity
  8
0
  6
Continuous
 62
     3
100
AcDbLine
 10
73.8924302237
 20
259.6783792091
 30
0.0
 11
40.6383969162
 21
259.6783792091
 31
0.0
  0
LINE
  5
F1
330
1F
100
AcDbEntity
  8
0
  6
Continuous
 62
     3
100
AcDbLine
 10
37.6228652369
 20
315.2328737017
 30
0.0
 11
35.386203531
 21
266.7686805936
 31
0.0
  0
LINE
  5
F2
330
1F
100
AcDbEntity
  8
0
  6
Continuous
 62
     3
100
AcDbLine
 10
42.1383969162
 20
318.3897040745
 30
0.0
 11
38.1224791246
 21
316.0711128565
 31
0.0
  0
LINE
  5
F3
330
1F
100
AcDbEntity
  8
0
  6
Continuous
 62
     3
100
AcDbLine
 10
165.6539285954
 20
315.2328737017
 30
0.0
 11
168.1218355377
 21
258.4496034136
 31
0.0
  0
LINE
  5
F4
330
1F
100
AcDbEntity
  8
0
  6
Continuous
 62
     3
100
AcDbLine
 10
160.6383969162
 20
318.6783792091
 30
0.0
 11
165.1543147077
 21
316.0711128565
 31
0.0
  0
LINE
  5
F5
330
1F
100
AcDbEntity
  8
0
  6
Continuous
 62
     3
100
AcDbLine
 10
160.6383969162
 20
318.6783792091
 30
0.0
 11
160.6383969162
 21
319.6783792091
 31
0.0
  0
LINE
  5
F6
330
1F
100
AcDbEntity
  8
0
  6
Continuous
 62
     3
100
AcDbLine
 10
162.6383969162
 20
254.6783792092
 30
0.0
 11
167.6222216501
 21
257.5557917609
 31
0.0
  0
LINE
  5
F7
330
1F
100
AcDbEntity
  8
0
  6
Continuous
 62
     3
100
AcDbLine
 10
43.6383969162
 20
250.6783792091
 30
0.0
 11
40.6383969162
 21
250.6783792091
 31
0.0
  0
LINE
  5
F8
330
1F
100
AcDbEntity
  8
0
  6
Continuous
 62
     3
100
AcDbLine
 10
158.6876653902
 20
335.871868493
 30
0.0
 11
159.2171870954
 21
316.4560726379
 31
0.0
  0
LINE
  5
F9
330
1F
100
AcDbEntity
  8
0
  6
Continuous
 62
     3
100
AcDbLine
 10
129.3843636086
 20
259.6783792091
 30
0.0
 11
162.6383969162
 21
259.6783792091
 31
0.0
  0
LINE
  5
FA
330
1F
100
AcDbEntity
  8
0
  6
Continuous
 62
     3
100
AcDbLine
 10
105.6383969162
 20
250.6783792091
 30
0.0
 11
171.5457119261
 21
250.6783792091
 31
0.0
  0
LINE
  5
FB
330
1F
100
AcDbEntity
  8
0
  6
Continuous
 62
     3
100
AcDbLine
 10
49.6768726891
 20
170.6783792091
 30
0.0
 11
49.6768726891
 21
183.6783792091
 31
0.0
  0
LINE
  5
FC
330
1F
100
AcDbEntity
  8
0
  6
Continuous
 62
     3
100
AcDbLine
 10
153.5999211432
 20
170.6783792091
 30
0.0
 11
153.5999211432
 21
183.6783792091
 31
0.0
  0
LINE
  5
FD
330
1F
100
AcDbEntity
  8
0
  6
Continuous
 62
     3
100
AcDbLine
 10
126.6383969162
 20
170.6783792091
 30
0.0
 11
167.6383969162
 21
170.6783792091
 31
0.0
  0
LINE
  5
FE
330
1F
100
AcDbEntity
  8
0
  6
CENTERX2
 62
     4
370
    18
100
AcDbLine
 10
29.0551553973
 20
226.6783792091
 30
0.0
 11
49.92550521
 21
226.6783792091
 31
0.0
  0
LINE
  5
FF
330
1F
100
AcDbEntity
  8
0
  6
CENTERX2
 62
     4
370
    18
100
AcDbLine
 10
148.8373789869
 20
226.6783792091
 30
0.0
 11
173.5770983818
 21
226.6783792091
 31
0.0
  0
LINE
  5
100
330
1F
100
AcDbEntity
  8
0
  6
CENTERX2
 62
     4
370
    18
100
AcDbLine
 10
101.6383969162
 20
347.1836532919
 30
0.0
 11
101.6383969162
 21
163.0828757763
 31
0.0
  0
LINE
  5
101
330
1F
100
AcDbEntity
  8
0
  6
CENTERX2
 62
     4
370
    18
100
AcDbLine
 10
59.8479733767
 20
65.9563512793
 30
0.0
 11
49.4441370176
 21
76.3601876384
 31
0.0
  0
LINE
  5
102
330
1F
100
AcDbEntity
  8
0
  6
CENTERX2
 62
     4
370
    18
100
AcDbLine
 10
60.1095453197
 20
-17.3629238566
 30
0.0
 11
50.5167267081
 21
-26.9557424682
 31
0.0
  0
LINE
  5
103
330
1F
100
AcDbEntity
  8
0
  6
CENTERX2
 62
     4
370
    18
100
AcDbLine
 10
152.4844667563
 20
75.01199758
 30
0.0
 11
142.6483428204
 21
65.1758736441
 31
0.0
  0
LINE
  5
104
330
1F
100
AcDbEntity
  8
0
  6
CENTERX2
 62
     4
370
    18
100
AcDbLine
 10
153.0339125608
 20
-27.2295879048
 30
0.0
 11
143.1166868501
 21
-17.3123621941
 31
0.0
  0
LINE
  5
105
330
1F
100
AcDbEntity
  8
0
  6
Continuous
 62
     3
100
AcDbLine
 10
38.6193836887
 20
249.6783792091
 30
0.0
 11
38.6193836887
 21
183.6783792091
 31
0.0
  0
ARC
  5
106
330
1F
100
AcDbEntity
  8
0
  6
Continuous
 62
     3
100
AcDbCircle
 10
101.6383969162
 20
24.1659277399
 30
0.0
 40
29.50000000000001
100
AcDbArc
 50
90.3527062526
 51
90.0
  0
ARC
  5
107
330
1F
100
AcDbEntity
  8
0
  6
Continuous
 62
     3
100
AcDbCircle
 10
101.6383969162
 20
24.1659277399
 30
0.0
 40
42.5
100
AcDbArc
 50
90.3537035863
 51
90.0
  0
ARC
  5
108
330
1F
100
AcDbEntity
  8
0
  6
Continuous
 62
     3
100
AcDbCircle
 10
101.6383969162
 20
24.1659277399
 30
0.0
 40
62.49999999993521
100
AcDbArc
 50
55.2630958987
 51
124.7369041014
  0
CIRCLE
  5
109
330
1F
100
AcDbEntity
  8
0
  6
Continuous
 62
     3
100
AcDbCircle
 10
101.6383969162
 20
24.1659277399
 30
0.0
 40
12.49999999997341
  0
ARC
  5
10A
330
1F
100
AcDbEntity
  8
0
  6
CENTERX2
 62
     4
370
    18
100
AcDbCircle
 10
101.6383969162
 20
24.1659277399
 30
0.0
 40
57.99999999999999
100
AcDbArc
 50
265.0545702821
 51
274.9454297179
  0
CIRCLE
  5
10B
330
1F
100
AcDbEntity
  8
0
  6
Continuous
 62
     3
100
AcDbCircle
 10
43.6383969162
 20
24.1659277399
 30
0.0
 40
2.75
  0
CIRCLE
  5
10C
330
1F
100
AcDbEntity
  8
0
  6
Continuous
 62
     3
100
AcDbCircle
 10
101.6383969162
 20
-33.8340722601
 30
0.0
 40
2.75
  0
CIRCLE
  5
10D
330
1F
100
AcDbEntity
  8
0
  6
Continuous
 62
     3
100
AcDbCircle
 10
159.6383969162
 20
24.1659277399
 30
0.0
 40
2.750000000000028
  0
CIRCLE
  5
10E
330
1F
100
AcDbEntity
  8
0
  6
Continuous
 62
     3
100
AcDbCircle
 10
101.6383969162
 20
82.1659277399
 30
0.0
 40
2.75
  0
ARC
  5
10F
330
1F
100
AcDbEntity
  8
0
  6
CENTERX2
 62
     4
370
    18
100
AcDbCircle
 10
101.6383969162
 20
24.1659277399
 30
0.0
 40
58.00000000000001
100
AcDbArc
 50
355.0545702821
 51
4.9454297179
  0
ARC
  5
110
330
1F
100
AcDbEntity
  8
0
  6
CENTERX2
 62
     4
370
    18
100
AcDbCircle
 10
101.6383969162
 20
24.1659277399
 30
0.0
 40
58.00000000000001
100
AcDbArc
 50
85.0545702821
 51
94.9454297179
  0
ARC
  5
111
330
1F
100
AcDbEntity
  8
0
  6
CENTERX2
 62
     4
370
    18
100
AcDbCircle
 10
101.6383969162
 20
24.1659277399
 30
0.0
 40
58.00000000000001
100
AcDbArc
 50
175.0545702821
 51
184.9454297179
  0
ARC
  5
112
330
1F
100
AcDbEntity
  8
0
  6
Continuous
 62
     3
100
AcDbCircle
 10
101.6383969162
 20
24.1659277399
 30
0.0
 40
62.49999999995412
100
AcDbArc
 50
145.2630958987
 51
214.7369041014
  0
ARC
  5
113
330
1F
100
AcDbEntity
  8
0
  6
Continuous
 62
     3
100
AcDbCircle
 10
101.6383969162
 20
24.1659277399
 30
0.0
 40
62.49999999995925
100
AcDbArc
 50
235.2630958986
 51
304.7369041013
  0
ARC
  5
114
330
1F
100
AcDbEntity
  8
0
  6
Continuous
 62
     3
100
AcDbCircle
 10
101.6383969162
 20
24.1659277399
 30
0.0
 40
62.49999999992438
100
AcDbArc
 50
325.2630958985
 51
34.7369041014
  0
ARC
  5
115
330
1F
100
AcDbEntity
  8
0
  6
Continuous
 62
     3
100
AcDbCircle
 10
101.6383969162
 20
24.1659277399
 30
0.0
 40
84.0000000000281
100
AcDbArc
 50
218.2132107018
 51
231.7867892983
  0
ARC
  5
116
330
1F
100
AcDbEntity
  8
0
  6
Continuous
 62
     3
100
AcDbCircle
 10
101.6383969162
 20
24.1659277399
 30
0.0
 40
83.99999999996069
100
AcDbArc
 50
128.2132107018
 51
141.7867892983
  0
ARC
  5
117
330
1F
100
AcDbEntity
  8
0
  6
Continuous
 62
     3
100
AcDbCircle
 10
101.6383969162
 20
24.1659277399
 30
0.0
 40
83.99999999994488
100
AcDbArc
 50
38.2132107017
 51
51.7867892983
  0
ARC
  5
118
330
1F
100
AcDbEntity
  8
0
  6
Continuous
 62
     3
100
AcDbCircle
 10
101.6383969162
 20
24.1659277399
 30
0.0
 40
83.99999999998995
100
AcDbArc
 50
308.2132107017
 51
321.7867892982
  0
ARC
  5
119
330
1F
100
AcDbEntity
  8
0
  6
Continuous
 62
     3
100
AcDbCircle
 10
101.6383969162
 20
24.1659277399
 30
0.0
 40
79.99999999998053
100
AcDbArc
 50
40.3149091747
 51
49.6850908253
  0
ARC
  5
11A
330
1F
100
AcDbEntity
  8
0
  6
Continuous
 62
     3
100
AcDbCircle
 10
101.6383969162
 20
24.1659277399
 30
0.0
 40
80.00000000001286
100
AcDbArc
 50
130.3149091747
 51
139.6850908253
  0
ARC
  5
11B
330
1F
100
AcDbEntity
  8
0
  6
Continuous
 62
     3
100
AcDbCircle
 10
101.6383969162
 20
24.1659277399
 30
0.0
 40
80.0000000000452
100
AcDbArc
 50
220.3149091747
 51
229.6850908253
  0
ARC
  5
11C
330
1F
100
AcDbEntity
  8
0
  6
Continuous
 62
     3
100
AcDbCircle
 10
101.6383969162
 20
24.1659277399
 30
0.0
 40
80.00000000001288
100
AcDbArc
 50
310.3149091747
 51
319.6850908253
  0
ARC
  5
11D
330
1F
100
AcDbEntity
  8
0
  6
CENTERX2
 62
     4
370
    18
100
AcDbCircle
 10
101.6383969162
 20
24.1659277399
 30
0.0
 40
65.00000000000007
100
AcDbArc
 50
216.1501169016
 51
233.8498830984
  0
CIRCLE
  5
11E
330
1F
100
AcDbEntity
  8
0
  6
Continuous
 62
     3
100
AcDbCircle
 10
55.676456139
 20
-21.7960130372
 30
0.0
 40
3.500000000000007
  0
CIRCLE
  5
11F
330
1F
100
AcDbEntity
  8
0
  6
Continuous
 62
     3
100
AcDbCircle
 10
147.6003376933
 20
70.127868517
 30
0.0
 40
3.5
  0
ARC
  5
120
330
1F
100
AcDbEntity
  8
0
  6
CENTERX2
 62
     4
370
    18
100
AcDbCircle
 10
101.6383969162
 20
24.1659277399
 30
0.0
 40
66.00000000000003
100
AcDbArc
 50
126.2852579814
 51
143.7147420186
  0
CIRCLE
  5
121
330
1F
100
AcDbEntity
  8
0
  6
Continuous
 62
     3
100
AcDbCircle
 10
54.9693493578
 20
70.8349752982
 30
0.0
 40
3.5
  0
CIRCLE
  5
122
330
1F
100
AcDbEntity
  8
0
  6
Continuous
 62
     3
100
AcDbCircle
 10
148.3074444745
 20
-22.5031198184
 30
0.0
 40
3.500000000000028
  0
ARC
  5
123
330
1F
100
AcDbEntity
  8
0
  6
CENTERX2
 62
     4
370
    18
100
AcDbCircle
 10
101.6383969162
 20
24.1659277399
 30
0.0
 40
66.00000000000001
100
AcDbArc
 50
306.2852579814
 51
323.7147420186
  0
ARC
  5
124
330
1F
100
AcDbEntity
  8
0
  6
CENTERX2
 62
     4
370
    18
100
AcDbCircle
 10
101.6383969162
 20
24.1659277399
 30
0.0
 40
65.00000000000009
100
AcDbArc
 50
36.1501169016
 51
53.8498830984
  0
ARC
  5
125
330
1F
100
AcDbEntity
  8
0
  6
Continuous
 62
     3
100
AcDbCircle
 10
97.2383969162
 20
125.4659277399
 30
0.0
 40
3.000000000000014
100
AcDbArc
 50
270.0
 51
323.1301023542
  0
ARC
  5
126
330
1F
100
AcDbEntity
  8
0
  6
Continuous
 62
     3
100
AcDbCircle
 10
101.6383969162
 20
122.1659277399
 30
0.0
 40
2.50000000000004
100
AcDbArc
 50
36.8698976458
 51
143.1301023541
  0
ARC
  5
127
330
1F
100
AcDbEntity
  8
0
  6
Continuous
 62
     3
100
AcDbCircle
 10
96.1284059906
 20
127.9659277399
 30
0.0
 40
3.000000000000139
100
AcDbArc
 50
270.0
 51
313.5311521674
  0
ARC
  5
128
330
1F
100
AcDbEntity
  8
0
  6
Continuous
 62
     3
100
AcDbCircle
 10
101.6383969162
 20
122.1659277399
 30
0.0
 40
5.000000000006053
100
AcDbArc
 50
43.4325365578
 51
133.5311521675
  0
ARC
  5
129
330
1F
100
AcDbEntity
  8
0
  6
Continuous
 62
     3
100
AcDbCircle
 10
76.6383969162
 20
121.9659277399
 30
0.0
 40
3.000000000000014
100
AcDbArc
 50
90.0
 51
180.0
  0
ARC
  5
12A
330
1F
100
AcDbEntity
  8
0
  6
Continuous
 62
     3
100
AcDbCircle
 10
78.3383969162
 20
120.4659277399
 30
0.0
 40
2.0
100
AcDbArc
 50
90.0
 51
180.0
  0
ARC
  5
12B
330
1F
100
AcDbEntity
  8
0
  6
Continuous
 62
     3
100
AcDbCircle
 10
106.0383969162
 20
125.4659277399
 30
0.0
 40
2.999999999999963
100
AcDbArc
 50
216.8698976459
 51
270.0
  0
ARC
  5
12C
330
1F
100
AcDbEntity
  8
0
  6
Continuous
 62
     3
100
AcDbCircle
 10
107.4478719355
 20
127.6659277399
 30
0.0
 40
2.999999999995927
100
AcDbArc
 50
223.4325365579
 51
270.0
  0
ARC
  5
12D
330
1F
100
AcDbEntity
  8
0
  6
Continuous
 62
     3
100
AcDbCircle
 10
126.6383969162
 20
121.9659277399
 30
0.0
 40
3.000000000000014
100
AcDbArc
 50
0.0
 51
90.0
  0
ARC
  5
12E
330
1F
100
AcDbEntity
  8
0
  6
Continuous
 62
     3
100
AcDbCircle
 10
124.9383969162
 20
120.4659277399
 30
0.0
 40
2.000000000000028
100
AcDbArc
 50
0.0
 51
90.0
  0
CIRCLE
  5
12F
330
1F
100
AcDbEntity
  8
0
  6
Continuous
 62
     3
100
AcDbCircle
 10
101.6383969162
 20
105.4659277399
 30
0.0
 40
10.99999999999999
  0
CIRCLE
  5
130
330
1F
100
AcDbEntity
  8
0
  6
HIDDEN
 62
     3
100
AcDbCircle
 10
101.6383969162
 20
228.6783792091
 30
0.0
 40
4.0
  0
ARC
  5
131
330
1F
100
AcDbEntity
  8
0
  6
Continuous
 62
     3
100
AcDbCircle
 10
95.3138415958
 20
256.6783792091
 30
0.0
 40
2.000000000000023
100
AcDbArc
 50
270.0
 51
334.6230664748
  0
ARC
  5
132
330
1F
100
AcDbEntity
  8
0
  6
Continuous
 62
     3
100
AcDbCircle
 10
107.9629522365
 20
256.6783792091
 30
0.0
 40
1.99999999999996
100
AcDbArc
 50
205.3769335252
 51
270.0
  0
ARC
  5
133
330
1F
100
AcDbEntity
  8
0
  6
Continuous
 62
     3
100
AcDbCircle
 10
159.7666869969
 20
314.748249555
 30
0.0
 40
0.9999999999904907
100
AcDbArc
 50
0.0
 51
51.7118974766
  0
ARC
  5
134
330
1F
100
AcDbEntity
  8
0
  6
Continuous
 62
     3
100
AcDbCircle
 10
157.4958840665
 20
319.0889350432
 30
0.0
 40
1.000000000021402
100
AcDbArc
 50
180.0
 51
231.7118974721
  0
ARC
  5
135
330
1F
100
AcDbEntity
  8
0
  6
Continuous
 62
     3
100
AcDbCircle
 10
154.3133132646
 20
314.7916959603
 30
0.0
 40
0.9999999999988975
100
AcDbArc
 50
0.0
 51
47.6120089419
  0
ARC
  5
136
330
1F
100
AcDbEntity
  8
0
  6
Continuous
 62
     3
100
AcDbCircle
 10
152.6195639276
 20
319.0454886379
 30
0.0
 40
0.9999999999619718
100
AcDbArc
 50
180.0
 51
227.612008938
  0
ARC
  5
137
330
1F
100
AcDbEntity
  8
0
  6
Continuous
 62
     3
100
AcDbCircle
 10
154.4958840665
 20
325.6596264442
 30
0.0
 40
2.0
100
AcDbArc
 50
0.0
 51
90.0
  0
ARC
  5
138
330
1F
100
AcDbEntity
  8
0
  6
Continuous
 62
     3
100
AcDbCircle
 10
70.7299146827
 20
325.6596264442
 30
0.0
 40
2.0
100
AcDbArc
 50
90.0
 51
180.0
  0
ARC
  5
139
330
1F
100
AcDbEntity
  8
0
  6
Continuous
 62
     3
100
AcDbCircle
 10
67.8036799937
 20
315.0058063031
 30
0.0
 40
1.00000000002315
100
AcDbArc
 50
154.4138421505
 51
180.0
  0
ARC
  5
13A
330
1F
100
AcDbEntity
  8
0
  6
Continuous
 62
     3
100
AcDbCircle
 10
67.7299146827
 20
319.4827968769
 30
0.0
 40
1.000000000023121
100
AcDbArc
 50
334.4138421506
 51
0.0
  0
ARC
  5
13B
330
1F
100
AcDbEntity
  8
0
  6
Continuous
 62
     3
100
AcDbCircle
 10
135.5468791497
 20
319.4827968769
 30
0.0
 40
1.000000000023135
100
AcDbArc
 50
180.0
 51
205.5861578495
  0
ARC
  5
13C
330
1F
100
AcDbEntity
  8
0
  6
Continuous
 62
     3
100
AcDbCircle
 10
135.4731138387
 20
315.0058063031
 30
0.0
 40
1.000000000023135
100
AcDbArc
 50
0.0
 51
25.5861578495
  0
ARC
  5
13D
330
1F
100
AcDbEntity
  8
0
  6
Continuous
 62
     3
100
AcDbCircle
 10
149.6195639276
 20
325.6596264442
 30
0.0
 40
2.0
100
AcDbArc
 50
0.0
 51
90.0
  0
ARC
  5
13E
330
1F
100
AcDbEntity
  8
0
  6
Continuous
 62
     3
100
AcDbCircle
 10
132.5468791497
 20
325.6596264442
 30
0.0
 40
2.0
100
AcDbArc
 50
0.0
 51
90.0
  0
ARC
  5
13F
330
1F
100
AcDbEntity
  8
0
  6
Continuous
 62
     3
100
AcDbCircle
 10
81.6383969162
 20
259.6783792091
 30
0.0
 40
5.000000000000028
100
AcDbArc
 50
180.0
 51
270.0
  0
ARC
  5
140
330
1F
100
AcDbEntity
  8
0
  6
Continuous
 62
     3
100
AcDbCircle
 10
121.6383969162
 20
259.6783792091
 30
0.0
 40
5.0
100
AcDbArc
 50
270.0
 51
0.0
  0
ARC
  5
141
330
1F
100
AcDbEntity
  8
0
  6
Continuous
 62
     3
100
AcDbCircle
 10
101.6383969162
 20
253.6783792091
 30
0.0
 40
4.999999999972259
100
AcDbArc
 50
202.0243128374
 51
337.975687163
  0
ARC
  5
142
330
1F
100
AcDbEntity
  8
0
  6
Continuous
 62
     3
100
AcDbCircle
 10
94.2221984291
 20
250.6783792091
 30
0.0
 40
3.000000000001199
100
AcDbArc
 50
22.024312837
 51
90.0
  0
ARC
  5
143
330
1F
100
AcDbEntity
  8
0
  6
Continuous
 62
     3
100
AcDbCircle
 10
109.0545954032
 20
250.6783792091
 30
0.0
 40
2.999999999955576
100
AcDbArc
 50
90.0
 51
157.9756871622
  0
ARC
  5
144
330
1F
100
AcDbEntity
  8
0
  6
Continuous
 62
     3
100
AcDbCircle
 10
101.6383969162
 20
253.6783792091
 30
0.0
 40
5.000000000011993
100
AcDbArc
 50
25.3769335253
 51
154.6230664752
  0
ARC
  5
145
330
1F
100
AcDbEntity
  8
0
  6
Continuous
 62
     3
100
AcDbCircle
 10
81.6383969162
 20
325.6783792091
 30
0.0
 40
4.999999999999986
100
AcDbArc
 50
90.0
 51
180.0
  0
ARC
  5
146
330
1F
100
AcDbEntity
  8
0
  6
Continuous
 62
     3
100
AcDbCircle
 10
121.6383969162
 20
325.6783792091
 30
0.0
 40
5.000000000000028
100
AcDbArc
 50
0.0000000004
 51
90.0
  0
ARC
  5
147
330
1F
100
AcDbEntity
  8
0
  6
Continuous
 62
     3
100
AcDbCircle
 10
121.6383969162
 20
261.6783792091
 30
0.0
 40
8.000000000000028
100
AcDbArc
 50
269.9999999998
 51
0.0000000002
  0
ARC
  5
148
330
1F
100
AcDbEntity
  8
0
  6
Continuous
 62
     3
100
AcDbCircle
 10
81.6383969162
 20
261.6783792091
 30
0.0
 40
8.000000000000028
100
AcDbArc
 50
180.0
 51
270.0
  0
ARC
  5
149
330
1F
100
AcDbEntity
  8
0
  6
Continuous
 62
     3
100
AcDbCircle
 10
81.6383969162
 20
325.6783792091
 30
0.0
 40
8.0
100
AcDbArc
 50
90.0
 51
180.0
  0
ARC
  5
14A
330
1F
100
AcDbEntity
  8
0
  6
Continuous
 62
     3
100
AcDbCircle
 10
121.6383969162
 20
325.6783792091
 30
0.0
 40
8.000000000000014
100
AcDbArc
 50
0.0
 51
90.0
  0
ARC
  5
14B
330
1F
100
AcDbEntity
  8
0
  6
Continuous
 62
     3
100
AcDbCircle
 10
161.6383969162
 20
319.2557294783
 30
0.0
 40
1.000000000008938
100
AcDbArc
 50
180.0000000002
 51
240.0000000004
  0
ARC
  5
14C
330
1F
100
AcDbEntity
  8
0
  6
Continuous
 62
     3
100
AcDbCircle
 10
158.6383969162
 20
325.6783792091
 30
0.0
 40
2.000000000000033
100
AcDbArc
 50
0.0
 51
82.1477301709
  0
ARC
  5
14D
330
1F
100
AcDbEntity
  8
0
  6
Continuous
 62
     3
100
AcDbCircle
 10
44.6383969162
 20
325.6783792091
 30
0.0
 40
1.999999999999993
100
AcDbArc
 50
101.2530107603
 51
180.0
  0
ARC
  5
14E
330
1F
100
AcDbEntity
  8
0
  6
Continuous
 62
     3
100
AcDbCircle
 10
41.6383969162
 20
319.2557294783
 30
0.0
 40
1.000000000006767
100
AcDbArc
 50
299.9999999996
 51
0.0
  0
ARC
  5
14F
330
1F
100
AcDbEntity
  8
0
  6
Continuous
 62
     3
100
AcDbCircle
 10
72.6383969162
 20
340.6783792091
 30
0.0
 40
1.0
100
AcDbArc
 50
90.0
 51
180.0
  0
ARC
  5
150
330
1F
100
AcDbEntity
  8
0
  6
Continuous
 62
     3
100
AcDbCircle
 10
70.6383969162
 20
340.6070448662
 30
0.0
 40
0.9999999999711695
100
AcDbArc
 50
274.2363947984
 51
0.0
  0
ARC
  5
151
330
1F
100
AcDbEntity
  8
0
  6
Continuous
 62
     3
100
AcDbCircle
 10
46.5883850551
 20
335.8173433127
 30
0.0
 40
1.999999999981064
100
AcDbArc
 50
94.2363947982
 51
178.4377750847
  0
ARC
  5
152
330
1F
100
AcDbEntity
  8
0
  6
Continuous
 62
     3
100
AcDbCircle
 10
156.6884087772
 20
335.8173433127
 30
0.0
 40
1.999999999981014
100
AcDbArc
 50
1.5622249153
 51
85.7636052018
  0
ARC
  5
153
330
1F
100
AcDbEntity
  8
0
  6
Continuous
 62
     3
100
AcDbCircle
 10
132.6383969162
 20
340.6070448662
 30
0.0
 40
0.9999999999748542
100
AcDbArc
 50
180.0
 51
265.7636051959
  0
ARC
  5
154
330
1F
100
AcDbEntity
  8
0
  6
Continuous
 62
     3
100
AcDbCircle
 10
130.6383969162
 20
340.6783792091
 30
0.0
 40
1.0
100
AcDbArc
 50
0.0
 51
90.0
  0
ARC
  5
155
330
1F
100
AcDbEntity
  8
0
  6
Continuous
 62
     3
100
AcDbCircle
 10
40.6193836887
 20
261.9149695464
 30
0.0
 40
1.999999999974896
100
AcDbArc
 50
138.2158057647
 51
180.0
  0
ARC
  5
156
330
1F
100
AcDbEntity
  8
0
  6
Continuous
 62
     3
100
AcDbCircle
 10
33.7310819062
 20
261.9149695464
 30
0.0
 40
2.000000000012174
100
AcDbArc
 50
138.2158057666
 51
180.0
  0
ARC
  5
157
330
1F
100
AcDbEntity
  8
0
  6
Continuous
 62
     3
100
AcDbCircle
 10
38.6224791246
 20
315.2050874527
 30
0.0
 40
1.000000000035787
100
AcDbArc
 50
119.9999999996
 51
178.4077602708
  0
ARC
  5
158
330
1F
100
AcDbEntity
  8
0
  6
Continuous
 62
     3
100
AcDbCircle
 10
167.1222216501
 20
258.4218171646
 30
0.0
 40
0.9999999999425202
100
AcDbArc
 50
300.0000000024
 51
1.5922397294
  0
ARC
  5
159
330
1F
100
AcDbEntity
  8
0
  6
Continuous
 62
     3
100
AcDbCircle
 10
164.6543147077
 20
315.2050874527
 30
0.0
 40
1.000000000035858
100
AcDbArc
 50
1.5922397292
 51
60.0000000004
  0
POINT
  5
15A
330
1F
100
AcDbEntity
  8
0
100
AcDbPoint
 10
160.6383969162
 20
318.6783792091
 30
0.0
  0
POINT
  5
15B
330
1F
100
AcDbEntity
  8
0
100
AcDbPoint
 10
71.6383969162
 20
339.6783792091
 30
0.0
  0
POINT
  5
15C
330
1F
100
AcDbEntity
  8
0
100
AcDbPoint
 10
131.6383969162
 20
339.6783792091
 30
0.0
  0
ENDSEC
  0
SECTION
  2
OBJECTS
  0
DICTIONARY
  5
C
330
0
100
AcDbDictionary
281
     1
  3
ACAD_GROUP
350
D
  3
ACAD_LAYOUT
350
1A
  3
ACAD_MLINESTYLE
350
17
  3
ACAD_PLOTSETTINGS
350
19
  3
ACAD_PLOTSTYLENAME
350
E
  3
ACAD_SCALELIST
350
47
  0
DICTIONARY
  5
D
102
{ACAD_REACTORS
330
C
102
}
330
C
100
AcDbDictionary
281
     1
  0
DICTIONARY
  5
1A
102
{ACAD_REACTORS
330
C
102
}
330
C
100
AcDbDictionary
281
     1
  3
Layout1
350
1E
  3
Layout2
350
26
  3
Model
350
22
  0
DICTIONARY
  5
17
102
{ACAD_REACTORS
330
C
102
}
330
C
100
AcDbDictionary
281
     1
  3
Standard
350
18
  0
DICTIONARY
  5
19
102
{ACAD_REACTORS
330
C
102
}
330
C
100
AcDbDictionary
281
     1
  0
ACDBDICTIONARYWDFLT
  5
E
102
{ACAD_REACTORS
330
C
102
}
330
C
100
AcDbDictionary
281
     1
  3
Normal
350
F
100
AcDbDictionaryWithDefault
340
F
  0
DICTIONARY
  5
47
102
{ACAD_REACTORS
330
C
102
}
330
C
100
AcDbDictionary
281
     1
  3
A0
350
48
  3
A1
350
49
  3
A2
350
4A
  3
A3
350
4B
  3
A4
350
4C
  3
A5
350
4D
  3
A6
350
4E
  3
A7
350
4F
  3
A8
350
50
  3
A9
350
51
  3
B0
350
52
  3
B1
350
53
  3
B2
350
54
  3
B3
350
55
  3
B4
350
56
  3
B5
350
57
  3
B6
350
58
  3
B7
350
59
  3
B8
350
5A
  3
B9
350
5B
  3
C0
350
5C
  3
C1
350
5D
  3
C2
350
5E
  3
C3
350
5F
  3
C4
350
60
  3
C5
350
61
  3
C6
350
62
  3
C7
350
63
  3
C8
350
64
  3
C9
350
65
  3
D0
350
66
  3
D1
350
67
  3
D2
350
68
  0
LAYOUT
  5
1E
102
{ACAD_REACTORS
330
1A
102
}
330
1A
100
AcDbPlotSettings
  1

  2
none_device
  4

  6

 40
0.0
 41
0.0
 42
0.0
 43
0.0
 44
0.0
 45
0.0
 46
0.0
 47
0.0
 48
0.0
 49
0.0
140
0.0
141
0.0
142
1.0
143
1.0
 70
   688
 72
     1
 73
     0
 74
     5
  7

 75
    16
147
1.0
148
0.0
149
0.0
100
AcDbLayout
  1
Layout1
 70
     1
 71
     1
 10
0.0
 20
0.0
 11
420.0
 21
297.0
 12
0.0
 22
0.0
 32
0.0
 14
1.0000000000E+20
 24
1.0000000000E+20
 34
1.0000000000E+20
 15
-1.0000000000E+20
 25
-1.0000000000E+20
 35
-1.0000000000E+20
146
0.0
 13
0.0
 23
0.0
 33
0.0
 16
1.0
 26
0.0
 36
0.0
 17
0.0
 27
1.0
 37
0.0
 76
     0
330
1B
  0
LAYOUT
  5
26
102
{ACAD_REACTORS
330
1A
102
}
330
1A
100
AcDbPlotSettings
  1

  2
none_device
  4

  6

 40
0.0
 41
0.0
 42
0.0
 43
0.0
 44
0.0
 45
0.0
 46
0.0
 47
0.0
 48
0.0
 49
0.0
140
0.0
141
0.0
142
1.0
143
1.0
 70
   688
 72
     1
 73
     0
 74
     5
  7

 75
    16
147
1.0
148
0.0
149
0.0
100
AcDbLayout
  1
Layout2
 70
     1
 71
     2
 10
0.0
 20
0.0
 11
0.0
 21
0.0
 12
0.0
 22
0.0
 32
0.0
 14
0.0
 24
0.0
 34
0.0
 15
0.0
 25
0.0
 35
0.0
146
0.0
 13
0.0
 23
0.0
 33
0.0
 16
1.0
 26
0.0
 36
0.0
 17
0.0
 27
1.0
 37
0.0
 76
     0
330
23
  0
LAYOUT
  5
22
102
{ACAD_REACTORS
330
1A
102
}
330
1A
100
AcDbPlotSettings
  1

  2
none_device
  4
Letter_(8.50_x_11.00_Inches)
  6

 40
6.35
 41
6.35
 42
6.35000508
 43
6.35000508
 44
215.9
 45
279.4
 46
0.0
 47
0.0
 48
0.0
 49
0.0
140
0.0
141
0.0
142
1.0
143
1.0
 70
  1712
 72
     1
 73
     0
 74
     0
  7

 75
     0
147
1.0
148
0.0
149
0.0
100
AcDbLayout
  1
Model
 70
     1
 71
     0
 10
0.0
 20
0.0
 11
210.0
 21
297.0
 12
0.0
 22
0.0
 32
0.0
 14
0.0
 24
0.0
 34
0.0
 15
210.0
 25
297.0
 35
0.0
146
0.0
 13
0.0
 23
0.0
 33
0.0
 16
1.0
 26
0.0
 36
0.0
 17
0.0
 27
1.0
 37
0.0
 76
     0
330
1F
331
29
  0
MLINESTYLE
  5
18
102
{ACAD_REACTORS
330
17
102
}
330
17
100
AcDbMlineStyle
  2
Standard
 70
     0
  3

 62
   256
 51
90.0
 52
90.0
 71
     2
 49
0.5
 62
   256
  6
BYLAYER
 49
-0.5
 62
   256
  6
BYLAYER
  0
ACDBPLACEHOLDER
  5
F
102
{ACAD_REACTORS
330
E
102
}
330
E
  0
SCALE
  5
48
102
{ACAD_REACTORS
330
47
102
}
330
47
100
AcDbScale
 70
     0
300
1:1
140
1.0
141
1.0
290
     1
  0
SCALE
  5
49
102
{ACAD_REACTORS
330
47
102
}
330
47
100
AcDbScale
 70
     0
300
1:2
140
1.0
141
2.0
290
     0
  0
SCALE
  5
4A
102
{ACAD_REACTORS
330
47
102
}
330
47
100
AcDbScale
 70
     0
300
1:4
140
1.0
141
4.0
290
     0
  0
SCALE
  5
4B
102
{ACAD_REACTORS
330
47
102
}
330
47
100
AcDbScale
 70
     0
300
1:5
140
1.0
141
5.0
290
     0
  0
SCALE
  5
4C
102
{ACAD_REACTORS
330
47
102
}
330
47
100
AcDbScale
 70
     0
300
1:8
140
1.0
141
8.0
290
     0
  0
SCALE
  5
4D
102
{ACAD_REACTORS
330
47
102
}
330
47
100
AcDbScale
 70
     0
300
1:10
140
1.0
141
10.0
290
     0
  0
SCALE
  5
4E
102
{ACAD_REACTORS
330
47
102
}
330
47
100
AcDbScale
 70
     0
300
1:16
140
1.0
141
16.0
290
     0
  0
SCALE
  5
4F
102
{ACAD_REACTORS
330
47
102
}
330
47
100
AcDbScale
 70
     0
300
1:20
140
1.0
141
20.0
290
     0
  0
SCALE
  5
50
102
{ACAD_REACTORS
330
47
102
}
330
47
100
AcDbScale
 70
     0
300
1:30
140
1.0
141
30.0
290
     0
  0
SCALE
  5
51
102
{ACAD_REACTORS
330
47
102
}
330
47
100
AcDbScale
 70
     0
300
1:40
140
1.0
141
40.0
290
     0
  0
SCALE
  5
52
102
{ACAD_REACTORS
330
47
102
}
330
47
100
AcDbScale
 70
     0
300
1:50
140
1.0
141
50.0
290
     0
  0
SCALE
  5
53
102
{ACAD_REACTORS
330
47
102
}
330
47
100
AcDbScale
 70
     0
300
1:100
140
1.0
141
100.0
290
     0
  0
SCALE
  5
54
102
{ACAD_REACTORS
330
47
102
}
330
47
100
AcDbScale
 70
     0
300
2:1
140
2.0
141
1.0
290
     0
  0
SCALE
  5
55
102
{ACAD_REACTORS
330
47
102
}
330
47
100
AcDbScale
 70
     0
300
4:1
140
4.0
141
1.0
290
     0
  0
SCALE
  5
56
102
{ACAD_REACTORS
330
47
102
}
330
47
100
AcDbScale
 70
     0
300
8:1
140
8.0
141
1.0
290
     0
  0
SCALE
  5
57
102
{ACAD_REACTORS
330
47
102
}
330
47
100
AcDbScale
 70
     0
300
10:1
140
10.0
141
1.0
290
     0
  0
SCALE
  5
58
102
{ACAD_REACTORS
330
47
102
}
330
47
100
AcDbScale
 70
     0
300
100:1
140
100.0
141
1.0
290
     0
  0
SCALE
  5
59
102
{ACAD_REACTORS
330
47
102
}
330
47
100
AcDbScale
 70
     0
300
1/128" = 1'-0"
140
0.0078125
141
12.0
290
     0
  0
SCALE
  5
5A
102
{ACAD_REACTORS
330
47
102
}
330
47
100
AcDbScale
 70
     0
300
1/64" = 1'-0"
140
0.015625
141
12.0
290
     0
  0
SCALE
  5
5B
102
{ACAD_REACTORS
330
47
102
}
330
47
100
AcDbScale
 70
     0
300
1/32" = 1'-0"
140
0.03125
141
12.0
290
     0
  0
SCALE
  5
5C
102
{ACAD_REACTORS
330
47
102
}
330
47
100
AcDbScale
 70
     0
300
1/16" = 1'-0"
140
0.0625
141
12.0
290
     0
  0
SCALE
  5
5D
102
{ACAD_REACTORS
330
47
102
}
330
47
100
AcDbScale
 70
     0
300
3/32" = 1'-0"
140
0.09375
141
12.0
290
     0
  0
SCALE
  5
5E
102
{ACAD_REACTORS
330
47
102
}
330
47
100
AcDbScale
 70
     0
300
1/8" = 1'-0"
140
0.125
141
12.0
290
     0
  0
SCALE
  5
5F
102
{ACAD_REACTORS
330
47
102
}
330
47
100
AcDbScale
 70
     0
300
3/16" = 1'-0"
140
0.1875
141
12.0
290
     0
  0
SCALE
  5
60
102
{ACAD_REACTORS
330
47
102
}
330
47
100
AcDbScale
 70
     0
300
1/4" = 1'-0"
140
0.25
141
12.0
290
     0
  0
SCALE
  5
61
102
{ACAD_REACTORS
330
47
102
}
330
47
100
AcDbScale
 70
     0
300
3/8" = 1'-0"
140
0.375
141
12.0
290
     0
  0
SCALE
  5
62
102
{ACAD_REACTORS
330
47
102
}
330
47
100
AcDbScale
 70
     0
300
1/2" = 1'-0"
140
0.5
141
12.0
290
     0
  0
SCALE
  5
63
102
{ACAD_REACTORS
330
47
102
}
330
47
100
AcDbScale
 70
     0
300
3/4" = 1'-0"
140
0.75
141
12.0
290
     0
  0
SCALE
  5
64
102
{ACAD_REACTORS
330
47
102
}
330
47
100
AcDbScale
 70
     0
300
1" = 1'-0"
140
1.0
141
12.0
290
     0
  0
SCALE
  5
65
102
{ACAD_REACTORS
330
47
102
}
330
47
100
AcDbScale
 70
     0
300
1-1/2" = 1'-0"
140
1.5
141
12.0
290
     0
  0
SCALE
  5
66
102
{ACAD_REACTORS
330
47
102
}
330
47
100
AcDbScale
 70
     0
300
3" = 1'-0"
140
3.0
141
12.0
290
     0
  0
SCALE
  5
67
102
{ACAD_REACTORS
330
47
102
}
330
47
100
AcDbScale
 70
     0
300
6" = 1'-0"
140
6.0
141
12.0
290
     0
  0
SCALE
  5
68
102
{ACAD_REACTORS
330
47
102
}
330
47
100
AcDbScale
 70
     0
300
1'-0" = 1'-0"
140
12.0
141
12.0
290
     0
  0
ENDSEC
  0
EOF
