  0
SECTION
  2
HEADER
  9
$ACADVER
  1
AC1015
  9
$ACADMAINTVER
 70
     6
  9
$DWGCODEPAGE
  3
DOS932
  9
$INSBASE
 10
0.0
 20
0.0
 30
0.0
  9
$EXTMIN
 10
0.0
 20
0.0
 30
0.0
  9
$EXTMAX
 10
210.0
 20
297.0
 30
0.0
  9
$LIMMIN
 10
0.0
 20
0.0
  9
$LIMMAX
 10
210.0
 20
297.0
  9
$ORTHOMODE
 70
     0
  9
$REGENMODE
 70
     1
  9
$FILLMODE
 70
     1
  9
$QTEXTMODE
 70
     0
  9
$MIRRTEXT
 70
     1
  9
$LTSCALE
 40
1.0
  9
$ATTMODE
 70
     1
  9
$TEXTSIZE
 40
3.5
  9
$TRACEWID
 40
1.0
  9
$TEXTSTYLE
  7
Standard
  9
$CLAYER
  8
0
  9
$CELTYPE
  6
ByLayer
  9
$CECOLOR
 62
   256
  9
$CELTSCALE
 40
1.0
  9
$DISPSILH
 70
     0
  9
$DIMSCALE
 40
1.0
  9
$DIMASZ
 40
2.5
  9
$DIMEXO
 40
1.0
  9
$DIMDLI
 40
3.75
  9
$DIMRND
 40
0.0
  9
$DIMDLE
 40
0.0
  9
$DIMEXE
 40
1.0
  9
$DIMTP
 40
0.0
  9
$DIMTM
 40
0.0
  9
$DIMTXT
 40
3.5
  9
$DIMCEN
 40
2.5
  9
$DIMTSZ
 40
0.0
  9
$DIMTOL
 70
     0
  9
$DIMLIM
 70
     0
  9
$DIMTIH
 70
     1
  9
$DIMTOH
 70
     1
  9
$DIMSE1
 70
     0
  9
$DIMSE2
 70
     0
  9
$DIMTAD
 70
     1
  9
$DIMZIN
 70
     1
  9
$DIMBLK
  1

  9
$DIMASO
 70
     1
  9
$DIMSHO
 70
     1
  9
$DIMPOST
  1

  9
$DIMAPOST
  1

  9
$DIMALT
 70
     0
  9
$DIMALTD
 70
     3
  9
$DIMALTF
 40
0.0393700787
  9
$DIMLFAC
 40
1.0
  9
$DIMTOFL
 70
     1
  9
$DIMTVP
 40
0.0
  9
$DIMTIX
 70
     0
  9
$DIMSOXD
 70
     0
  9
$DIMSAH
 70
     0
  9
$DIMBLK1
  1

  9
$DIMBLK2
  1

  9
$DIMSTYLE
  2
ISO-25
  9
$DIMCLRD
 70
     0
  9
$DIMCLRE
 70
     0
  9
$DIMCLRT
 70
     0
  9
$DIMTFAC
 40
1.0
  9
$DIMGAP
 40
1.524
  9
$DIMJUST
 70
     0
  9
$DIMSD1
 70
     0
  9
$DIMSD2
 70
     0
  9
$DIMTOLJ
 70
     0
  9
$DIMTZIN
 70
     1
  9
$DIMALTZ
 70
     0
  9
$DIMALTTZ
 70
     0
  9
$DIMUPT
 70
     0
  9
$DIMDEC
 70
     0
  9
$DIMTDEC
 70
     0
  9
$DIMALTU
 70
     2
  9
$DIMALTTD
 70
     3
  9
$DIMTXSTY
  7
Standard
  9
$DIMAUNIT
 70
     0
  9
$DIMADEC
 70
     0
  9
$DIMALTRND
 40
0.0
  9
$DIMAZIN
 70
     0
  9
$DIMDSEP
 70
    44
  9
$DIMATFIT
 70
     3
  9
$DIMFRAC
 70
     0
  9
$DIMLDRBLK
  1

  9
$DIMLUNIT
 70
     2
  9
$DIMLWD
 70
    -2
  9
$DIMLWE
 70
    -2
  9
$DIMTMOVE
 70
     0
  9
$LUNITS
 70
     2
  9
$LUPREC
 70
     0
  9
$SKETCHINC
 40
1.0
  9
$FILLETRAD
 40
10.0
  9
$AUNITS
 70
     0
  9
$AUPREC
 70
     0
  9
$MENU
  1
.
  9
$ELEVATION
 40
0.0
  9
$PELEVATION
 40
0.0
  9
$THICKNESS
 40
0.0
  9
$LIMCHECK
 70
     0
  9
$CHAMFERA
 40
0.0
  9
$CHAMFERB
 40
0.0
  9
$CHAMFERC
 40
0.0
  9
$CHAMFERD
 40
0.0
  9
$SKPOLY
 70
     0
  9
$TDCREATE
 40
2459003.676901725
  9
$TDUCREATE
 40
2459003.301901725
  9
$TDUPDATE
 40
2459003.676902627
  9
$TDUUPDATE
 40
2459003.301902627
  9
$TDINDWG
 40
0.0000000116
  9
$TDUSRTIMER
 40
0.0000000116
  9
$USRTIMER
 70
     1
  9
$ANGBASE
 50
0.0
  9
$ANGDIR
 70
     0
  9
$PDMODE
 70
     0
  9
$PDSIZE
 40
-1.0
  9
$PLINEWID
 40
0.0
  9
$SPLFRAME
 70
     0
  9
$SPLINETYPE
 70
     6
  9
$SPLINESEGS
 70
     8
  9
$HANDSEED
  5
43E
  9
$SURFTAB1
 70
     6
  9
$SURFTAB2
 70
     6
  9
$SURFTYPE
 70
     6
  9
$SURFU
 70
     6
  9
$SURFV
 70
     6
  9
$UCSBASE
  2

  9
$UCSNAME
  2

  9
$UCSORG
 10
0.0
 20
0.0
 30
0.0
  9
$UCSXDIR
 10
1.0
 20
0.0
 30
0.0
  9
$UCSYDIR
 10
0.0
 20
1.0
 30
0.0
  9
$UCSORTHOREF
  2

  9
$UCSORTHOVIEW
 70
     0
  9
$UCSORGTOP
 10
0.0
 20
0.0
 30
0.0
  9
$UCSORGBOTTOM
 10
0.0
 20
0.0
 30
0.0
  9
$UCSORGLEFT
 10
0.0
 20
0.0
 30
0.0
  9
$UCSORGRIGHT
 10
0.0
 20
0.0
 30
0.0
  9
$UCSORGFRONT
 10
0.0
 20
0.0
 30
0.0
  9
$UCSORGBACK
 10
0.0
 20
0.0
 30
0.0
  9
$PUCSBASE
  2

  9
$PUCSNAME
  2

  9
$PUCSORG
 10
0.0
 20
0.0
 30
0.0
  9
$PUCSXDIR
 10
1.0
 20
0.0
 30
0.0
  9
$PUCSYDIR
 10
0.0
 20
1.0
 30
0.0
  9
$PUCSORTHOREF
  2

  9
$PUCSORTHOVIEW
 70
     0
  9
$PUCSORGTOP
 10
0.0
 20
0.0
 30
0.0
  9
$PUCSORGBOTTOM
 10
0.0
 20
0.0
 30
0.0
  9
$PUCSORGLEFT
 10
0.0
 20
0.0
 30
0.0
  9
$PUCSORGRIGHT
 10
0.0
 20
0.0
 30
0.0
  9
$PUCSORGFRONT
 10
0.0
 20
0.0
 30
0.0
  9
$PUCSORGBACK
 10
0.0
 20
0.0
 30
0.0
  9
$USERI1
 70
     0
  9
$USERI2
 70
     0
  9
$USERI3
 70
     0
  9
$USERI4
 70
     0
  9
$USERI5
 70
     0
  9
$USERR1
 40
0.0
  9
$USERR2
 40
0.0
  9
$USERR3
 40
0.0
  9
$USERR4
 40
0.0
  9
$USERR5
 40
0.0
  9
$WORLDVIEW
 70
     1
  9
$SHADEDGE
 70
     3
  9
$SHADEDIF
 70
    70
  9
$TILEMODE
 70
     1
  9
$MAXACTVP
 70
    64
  9
$PINSBASE
 10
0.0
 20
0.0
 30
0.0
  9
$PLIMCHECK
 70
     0
  9
$PEXTMIN
 10
1.0000000000E+20
 20
1.0000000000E+20
 30
1.0000000000E+20
  9
$PEXTMAX
 10
-1.0000000000E+20
 20
-1.0000000000E+20
 30
-1.0000000000E+20
  9
$PLIMMIN
 10
0.0
 20
0.0
  9
$PLIMMAX
 10
420.0
 20
297.0
  9
$UNITMODE
 70
     0
  9
$VISRETAIN
 70
     1
  9
$PLINEGEN
 70
     0
  9
$PSLTSCALE
 70
     1
  9
$TREEDEPTH
 70
  3020
  9
$CMLSTYLE
  2
Standard
  9
$CMLJUST
 70
     0
  9
$CMLSCALE
 40
20.0
  9
$PROXYGRAPHICS
 70
     1
  9
$MEASUREMENT
 70
     1
  9
$CELWEIGHT
370
    -1
  9
$ENDCAPS
280
     0
  9
$JOINSTYLE
280
     0
  9
$LWDISPLAY
290
     1
  9
$INSUNITS
 70
     4
  9
$HYPERLINKBASE
  1

  9
$STYLESHEET
  1

  9
$XEDIT
290
     1
  9
$CEPSNTYPE
380
     0
  9
$PSTYLEMODE
290
     1
  9
$FINGERPRINTGUID
  2
{e43abd43-1eef-4362-93d7-8526e15dad82}
  9
$VERSIONGUID
  2
{FAEB1C32-E019-11D5-929B-00C0DF256EC4}
  9
$EXTNAMES
290
     1
  9
$PSVPSCALE
 40
0.0
  9
$OLESTARTUP
290
     0
  0
ENDSEC
  0
SECTION
  2
CLASSES
  0
CLASS
  1
ACDBDICTIONARYWDFLT
  2
AcDbDictionaryWithDefault
  3
ObjectDBX Classes
 90
        0
280
     0
281
     0
  0
CLASS
  1
VISUALSTYLE
  2
AcDbVisualStyle
  3
ObjectDBX Classes
 90
     4095
280
     0
281
     0
  0
CLASS
  1
MATERIAL
  2
AcDbMaterial
  3
ObjectDBX Classes
 90
     1153
280
     0
281
     0
  0
CLASS
  1
SCALE
  2
AcDbScale
  3
ObjectDBX Classes
 90
     1153
280
     0
281
     0
  0
CLASS
  1
TABLESTYLE
  2
AcDbTableStyle
  3
ObjectDBX Classes
 90
     4095
280
     0
281
     0
  0
CLASS
  1
MLEADERSTYLE
  2
AcDbMLeaderStyle
  3
ACDB_MLEADERSTYLE_CLASS
 90
     4095
280
     0
281
     0
  0
CLASS
  1
SUN
  2
AcDbSun
  3
SCENEOE
 90
     1153
280
     0
281
     0
  0
CLASS
  1
ACDBPLACEHOLDER
  2
AcDbPlaceHolder
  3
ObjectDBX Classes
 90
        0
280
     0
281
     0
  0
CLASS
  1
LAYOUT
  2
AcDbLayout
  3
ObjectDBX Classes
 90
        0
280
     0
281
     0
  0
ENDSEC
  0
SECTION
  2
TABLES
  0
TABLE
  2
VPORT
  5
8
330
0
100
AcDbSymbolTable
 70
     1
  0
VPORT
  5
29
330
8
100
AcDbSymbolTableRecord
100
AcDbViewportTableRecord
  2
*Active
 70
     0
 10
0.0
 20
0.0
 11
1.0
 21
1.0
 12
105.0
 22
148.5
 13
0.0
 23
0.0
 14
10.0
 24
10.0
 15
10.0
 25
10.0
 16
0.0
 26
0.0
 36
1.0
 17
0.0
 27
0.0
 37
0.0
 40
297.0
 41
0.7070707071
 42
50.0
 43
0.0
 44
0.0
 50
0.0
 51
0.0
 71
     0
 72
  2000
 73
     1
 74
     3
 75
     0
 76
     0
 77
     0
 78
     0
281
     0
 65
     1
110
0.0
120
0.0
130
0.0
111
1.0
121
0.0
131
0.0
112
0.0
122
1.0
132
0.0
 79
     0
146
0.0
  0
ENDTAB
  0
TABLE
  2
LTYPE
  5
5
330
0
100
AcDbSymbolTable
 70
     6
  0
LTYPE
  5
14
330
5
100
AcDbSymbolTableRecord
100
AcDbLinetypeTableRecord
  2
ByBlock
 70
     0
  3

 72
    65
 73
     0
 40
0.0
  0
LTYPE
  5
15
330
5
100
AcDbSymbolTableRecord
100
AcDbLinetypeTableRecord
  2
ByLayer
 70
     0
  3

 72
    65
 73
     0
 40
0.0
  0
LTYPE
  5
16
330
5
100
AcDbSymbolTableRecord
100
AcDbLinetypeTableRecord
  2
Continuous
 70
     0
  3
Solid line
 72
    65
 73
     0
 40
0.0
  0
LTYPE
  5
6E
330
5
100
AcDbSymbolTableRecord
100
AcDbLinetypeTableRecord
  2
HIDDEN
 70
     0
  3
Hidden __ __ __ __ __ __ __ __ __ __ __ __ __ __
 72
    65
 73
     2
 40
1.905
 49
1.27
 74
     0
 49
-0.635
 74
     0
  0
LTYPE
  5
6F
330
5
100
AcDbSymbolTableRecord
100
AcDbLinetypeTableRecord
  2
PHANTOM
 70
     0
  3
Phantom ______  __  __  ______  __  __  ______
 72
    65
 73
     6
 40
12.7
 49
6.35
 74
     0
 49
-1.27
 74
     0
 49
1.27
 74
     0
 49
-1.27
 74
     0
 49
1.27
 74
     0
 49
-1.27
 74
     0
  0
LTYPE
  5
70
330
5
100
AcDbSymbolTableRecord
100
AcDbLinetypeTableRecord
  2
CENTER
 70
     0
  3
Center ____ _ ____ _ ____ _ ____ _ ____ _ ____
 72
    65
 73
     4
 40
10.16
 49
6.35
 74
     0
 49
-1.27
 74
     0
 49
1.27
 74
     0
 49
-1.27
 74
     0
  0
LTYPE
  5
71
330
5
100
AcDbSymbolTableRecord
100
AcDbLinetypeTableRecord
  2
CENTERX2
 70
     0
  3
Center (2x) ________  __  ________  __  _____
 72
    65
 73
     4
 40
20.32
 49
12.7
 74
     0
 49
-2.54
 74
     0
 49
2.54
 74
     0
 49
-2.54
 74
     0
  0
LTYPE
  5
72
330
5
100
AcDbSymbolTableRecord
100
AcDbLinetypeTableRecord
  2
DOT2
 70
     0
  3
Dot (.5x) ........................................
 72
    65
 73
     2
 40
0.635
 49
0.0
 74
     0
 49
-0.635
 74
     0
  0
ENDTAB
  0
TABLE
  2
LAYER
  5
2
330
0
100
AcDbSymbolTable
 70
     1
  0
LAYER
  5
10
330
2
100
AcDbSymbolTableRecord
100
AcDbLayerTableRecord
  2
0
 70
     0
 62
     7
  6
Continuous
370
    -3
390
F
  0
ENDTAB
  0
TABLE
  2
STYLE
  5
3
330
0
100
AcDbSymbolTable
 70
     1
  0
STYLE
  5
11
330
3
100
AcDbSymbolTableRecord
100
AcDbTextStyleTableRecord
  2
Standard
 70
     0
 40
0.0
 41
1.0
 50
0.0
 71
     0
 42
3.5
  3
txt
  4
bigfont
  0
ENDTAB
  0
TABLE
  2
VIEW
  5
6
330
0
100
AcDbSymbolTable
 70
     0
  0
ENDTAB
  0
TABLE
  2
UCS
  5
7
330
0
100
AcDbSymbolTable
 70
     0
  0
ENDTAB
  0
TABLE
  2
APPID
  5
9
330
0
100
AcDbSymbolTable
 70
     1
  0
APPID
  5
12
330
9
100
AcDbSymbolTableRecord
100
AcDbRegAppTableRecord
  2
ACAD
 70
     0
  0
ENDTAB
  0
TABLE
  2
DIMSTYLE
  5
A
330
0
100
AcDbSymbolTable
 70
     1
100
AcDbDimStyleTable
  0
DIMSTYLE
105
27
330
A
100
AcDbSymbolTableRecord
100
AcDbDimStyleTableRecord
  2
ISO-25
 70
     0
 41
2.5
 42
0.625
 43
3.75
 44
1.25
 73
     0
 74
     0
 77
     1
 78
     8
140
2.5
141
2.5
143
0.0393700787
147
0.625
171
     3
172
     1
178
     0
271
     2
272
     2
274
     3
278
    44
283
     0
284
     8
340
11
  0
ENDTAB
  0
TABLE
  2
BLOCK_RECORD
  5
1
330
0
100
AcDbSymbolTable
 70
     2
  0
BLOCK_RECORD
  5
1F
330
1
100
AcDbSymbolTableRecord
100
AcDbBlockTableRecord
  2
*Model_Space
340
22
  0
BLOCK_RECORD
  5
1B
330
1
100
AcDbSymbolTableRecord
100
AcDbBlockTableRecord
  2
*Paper_Space
340
1E
  0
BLOCK_RECORD
  5
23
330
1
100
AcDbSymbolTableRecord
100
AcDbBlockTableRecord
  2
*Paper_Space0
340
26
  0
BLOCK_RECORD
  5
3F2
330
1
100
AcDbSymbolTableRecord
100
AcDbBlockTableRecord
  2
SW_CENTERMARKSYMBOL_0
340
0
102
{BLKREFS
331
43D
102
}
  0
ENDTAB
  0
ENDSEC
  0
SECTION
  2
BLOCKS
  0
BLOCK
  5
20
330
1F
100
AcDbEntity
  8
0
100
AcDbBlockBegin
  2
*Model_Space
 70
     0
 10
0.0
 20
0.0
 30
0.0
  3
*Model_Space
  1

  0
ENDBLK
  5
21
330
1F
100
AcDbEntity
  8
0
100
AcDbBlockEnd
  0
BLOCK
  5
1C
330
1B
100
AcDbEntity
 67
     1
  8
0
100
AcDbBlockBegin
  2
*Paper_Space
 70
     0
 10
0.0
 20
0.0
 30
0.0
  3
*Paper_Space
  1

  0
ENDBLK
  5
1D
330
1B
100
AcDbEntity
 67
     1
  8
0
100
AcDbBlockEnd
  0
BLOCK
  5
24
330
23
100
AcDbEntity
  8
0
100
AcDbBlockBegin
  2
*Paper_Space0
 70
     0
 10
0.0
 20
0.0
 30
0.0
  3
*Paper_Space0
  1

  0
ENDBLK
  5
25
330
23
100
AcDbEntity
  8
0
100
AcDbBlockEnd
  0
BLOCK
  5
3F3
330
3F2
100
AcDbEntity
  8
0
100
AcDbBlockBegin
  2
SW_CENTERMARKSYMBOL_0
 70
     0
 10
0.0
 20
0.0
 30
0.0
  3
SW_CENTERMARKSYMBOL_0
  1

  0
ARC
  5
3F5
330
3F2
100
AcDbEntity
  8
0
  6
Continuous
 62
     0
370
    18
100
AcDbCircle
 10
55.8221726119
 20
-40.5571824082
 30
0.0
 40
69.0
100
AcDbArc
 50
144.0
 51
146.0759340403
  0
ARC
  5
3F6
330
3F2
100
AcDbEntity
  8
0
  6
Continuous
 62
     0
370
    18
100
AcDbCircle
 10
55.8221726119
 20
-40.5571824082
 30
0.0
 40
69.0
100
AcDbArc
 50
141.9240659597
 51
144.0
  0
ARC
  5
3F7
330
3F2
100
AcDbEntity
  8
0
  6
Continuous
 62
     0
370
    18
100
AcDbCircle
 10
55.8221726119
 20
-40.5571824082
 30
0.0
 40
69.0
100
AcDbArc
 50
148.1518680807
 51
148.3594614847
  0
ARC
  5
3F8
330
3F2
100
AcDbEntity
  8
0
  6
Continuous
 62
     0
370
    18
100
AcDbCircle
 10
55.8221726119
 20
-40.5571824082
 30
0.0
 40
69.0
100
AcDbArc
 50
139.6405385153
 51
139.8481319193
  0
ARC
  5
3F9
330
3F2
100
AcDbEntity
  8
0
  6
Continuous
 62
     0
370
    18
100
AcDbCircle
 10
55.8221726119
 20
-40.5571824082
 30
0.0
 40
69.0
100
AcDbArc
 50
72.0
 51
74.0759340403
  0
ARC
  5
3FA
330
3F2
100
AcDbEntity
  8
0
  6
Continuous
 62
     0
370
    18
100
AcDbCircle
 10
55.8221726119
 20
-40.5571824082
 30
0.0
 40
69.0
100
AcDbArc
 50
69.9240659597
 51
72.0
  0
ARC
  5
3FB
330
3F2
100
AcDbEntity
  8
0
  6
Continuous
 62
     0
370
    18
100
AcDbCircle
 10
55.8221726119
 20
-40.5571824082
 30
0.0
 40
69.0
100
AcDbArc
 50
76.1518680807
 51
76.3594614847
  0
ARC
  5
3FC
330
3F2
100
AcDbEntity
  8
0
  6
Continuous
 62
     0
370
    18
100
AcDbCircle
 10
55.8221726119
 20
-40.5571824082
 30
0.0
 40
69.0
100
AcDbArc
 50
67.6405385153
 51
67.8481319193
  0
ARC
  5
3FD
330
3F2
100
AcDbEntity
  8
0
  6
Continuous
 62
     0
370
    18
100
AcDbCircle
 10
55.8221726119
 20
-40.5571824082
 30
0.0
 40
69.0
100
AcDbArc
 50
0.0
 51
2.0759340403
  0
ARC
  5
3FE
330
3F2
100
AcDbEntity
  8
0
  6
Continuous
 62
     0
370
    18
100
AcDbCircle
 10
55.8221726119
 20
-40.5571824082
 30
0.0
 40
69.0
100
AcDbArc
 50
357.9240659597
 51
0.0
  0
ARC
  5
3FF
330
3F2
100
AcDbEntity
  8
0
  6
Continuous
 62
     0
370
    18
100
AcDbCircle
 10
55.8221726119
 20
-40.5571824082
 30
0.0
 40
69.0
100
AcDbArc
 50
4.1518680807
 51
4.3594614847
  0
ARC
  5
400
330
3F2
100
AcDbEntity
  8
0
  6
Continuous
 62
     0
370
    18
100
AcDbCircle
 10
55.8221726119
 20
-40.5571824082
 30
0.0
 40
69.0
100
AcDbArc
 50
355.6405385153
 51
355.8481319193
  0
ARC
  5
401
330
3F2
100
AcDbEntity
  8
0
  6
Continuous
 62
     0
370
    18
100
AcDbCircle
 10
55.8221726119
 20
-40.5571824082
 30
0.0
 40
69.00000000000004
100
AcDbArc
 50
288.0
 51
290.0759340403
  0
ARC
  5
402
330
3F2
100
AcDbEntity
  8
0
  6
Continuous
 62
     0
370
    18
100
AcDbCircle
 10
55.8221726119
 20
-40.5571824082
 30
0.0
 40
69.00000000000003
100
AcDbArc
 50
285.9240659597
 51
288.0
  0
ARC
  5
403
330
3F2
100
AcDbEntity
  8
0
  6
Continuous
 62
     0
370
    18
100
AcDbCircle
 10
55.8221726119
 20
-40.5571824082
 30
0.0
 40
69.00000000000003
100
AcDbArc
 50
292.1518680807
 51
292.3594614847
  0
ARC
  5
404
330
3F2
100
AcDbEntity
  8
0
  6
Continuous
 62
     0
370
    18
100
AcDbCircle
 10
55.8221726119
 20
-40.5571824082
 30
0.0
 40
69.00000000000004
100
AcDbArc
 50
283.6405385153
 51
283.8481319193
  0
ARC
  5
405
330
3F2
100
AcDbEntity
  8
0
  6
Continuous
 62
     0
370
    18
100
AcDbCircle
 10
55.8221726119
 20
-40.5571824082
 30
0.0
 40
69.00000000000004
100
AcDbArc
 50
216.0
 51
218.0759340403
  0
ARC
  5
406
330
3F2
100
AcDbEntity
  8
0
  6
Continuous
 62
     0
370
    18
100
AcDbCircle
 10
55.8221726119
 20
-40.5571824082
 30
0.0
 40
69.00000000000006
100
AcDbArc
 50
213.9240659597
 51
216.0
  0
ARC
  5
407
330
3F2
100
AcDbEntity
  8
0
  6
Continuous
 62
     0
370
    18
100
AcDbCircle
 10
55.8221726119
 20
-40.5571824082
 30
0.0
 40
69.00000000000004
100
AcDbArc
 50
220.1518680807
 51
220.3594614847
  0
ARC
  5
408
330
3F2
100
AcDbEntity
  8
0
  6
Continuous
 62
     0
370
    18
100
AcDbCircle
 10
55.8221726119
 20
-40.5571824082
 30
0.0
 40
69.00000000000006
100
AcDbArc
 50
211.6405385153
 51
211.8481319193
  0
ARC
  5
409
330
3F2
100
AcDbEntity
  8
0
  6
Continuous
 62
     0
370
    18
100
AcDbCircle
 10
55.8221726119
 20
-40.5571824082
 30
0.0
 40
90.00000000000001
100
AcDbArc
 50
135.0
 51
136.5915494309
  0
ARC
  5
40A
330
3F2
100
AcDbEntity
  8
0
  6
Continuous
 62
     0
370
    18
100
AcDbCircle
 10
55.8221726119
 20
-40.5571824082
 30
0.0
 40
90.00000000000001
100
AcDbArc
 50
133.4084505691
 51
135.0
  0
ARC
  5
40B
330
3F2
100
AcDbEntity
  8
0
  6
Continuous
 62
     0
370
    18
100
AcDbCircle
 10
55.8221726119
 20
-40.5571824082
 30
0.0
 40
90.00000000000001
100
AcDbArc
 50
138.1830988618
 51
139.7746482928
  0
ARC
  5
40C
330
3F2
100
AcDbEntity
  8
0
  6
Continuous
 62
     0
370
    18
100
AcDbCircle
 10
55.8221726119
 20
-40.5571824082
 30
0.0
 40
90.00000000000001
100
AcDbArc
 50
130.2253517072
 51
131.8169011382
  0
ARC
  5
40D
330
3F2
100
AcDbEntity
  8
0
  6
Continuous
 62
     0
370
    18
100
AcDbCircle
 10
55.8221726119
 20
-40.5571824082
 30
0.0
 40
90.0
100
AcDbArc
 50
315.0
 51
316.5915494309
  0
ARC
  5
40E
330
3F2
100
AcDbEntity
  8
0
  6
Continuous
 62
     0
370
    18
100
AcDbCircle
 10
55.8221726119
 20
-40.5571824082
 30
0.0
 40
90.0
100
AcDbArc
 50
313.4084505691
 51
315.0
  0
ARC
  5
40F
330
3F2
100
AcDbEntity
  8
0
  6
Continuous
 62
     0
370
    18
100
AcDbCircle
 10
55.8221726119
 20
-40.5571824082
 30
0.0
 40
89.99999999999999
100
AcDbArc
 50
318.1830988618
 51
319.7746482928
  0
ARC
  5
410
330
3F2
100
AcDbEntity
  8
0
  6
Continuous
 62
     0
370
    18
100
AcDbCircle
 10
55.8221726119
 20
-40.5571824082
 30
0.0
 40
89.99999999999999
100
AcDbArc
 50
310.2253517072
 51
311.8169011382
  0
ARC
  5
411
330
3F2
100
AcDbEntity
  8
0
  6
Continuous
 62
     0
370
    18
100
AcDbCircle
 10
55.8221726119
 20
-40.5571824082
 30
0.0
 40
99.00000000000047
100
AcDbArc
 50
90.0
 51
91.446863119
  0
ARC
  5
412
330
3F2
100
AcDbEntity
  8
0
  6
Continuous
 62
     0
370
    18
100
AcDbCircle
 10
55.8221726119
 20
-40.5571824082
 30
0.0
 40
99.00000000000045
100
AcDbArc
 50
88.553136881
 51
90.0
  0
ARC
  5
413
330
3F2
100
AcDbEntity
  8
0
  6
Continuous
 62
     0
370
    18
100
AcDbCircle
 10
55.8221726119
 20
-40.5571824082
 30
0.0
 40
99.00000000000045
100
AcDbArc
 50
92.893726238
 51
97.8130608427
  0
ARC
  5
414
330
3F2
100
AcDbEntity
  8
0
  6
Continuous
 62
     0
370
    18
100
AcDbCircle
 10
55.8221726119
 20
-40.5571824082
 30
0.0
 40
99.00000000000045
100
AcDbArc
 50
82.1869391573
 51
87.106273762
  0
LINE
  5
415
330
3F2
100
AcDbEntity
  8
0
  6
Continuous
 62
     0
370
    18
100
AcDbLine
 10
0.0
 20
0.0
 30
0.0
 11
-2.0225424859
 21
1.4694631307
 31
0.0
  0
LINE
  5
416
330
3F2
100
AcDbEntity
  8
0
  6
Continuous
 62
     0
370
    18
100
AcDbLine
 10
0.0
 20
0.0
 30
0.0
 11
2.0225424859
 21
-1.4694631307
 31
0.0
  0
LINE
  5
417
330
3F2
100
AcDbEntity
  8
0
  6
Continuous
 62
     0
370
    18
100
AcDbLine
 10
-4.0450849719
 20
2.9389262615
 30
0.0
 11
-4.2473392205
 21
3.0858725745
 31
0.0
  0
LINE
  5
418
330
3F2
100
AcDbEntity
  8
0
  6
Continuous
 62
     0
370
    18
100
AcDbLine
 10
4.0450849719
 20
-2.9389262615
 30
0.0
 11
4.2473392205
 21
-3.0858725745
 31
0.0
  0
LINE
  5
419
330
3F2
100
AcDbEntity
  8
0
  6
Continuous
 62
     0
370
    18
100
AcDbLine
 10
77.1443452237
 20
25.0657172162
 30
0.0
 11
77.9168877097
 21
27.4433585069
 31
0.0
  0
LINE
  5
41A
330
3F2
100
AcDbEntity
  8
0
  6
Continuous
 62
     0
370
    18
100
AcDbLine
 10
77.1443452237
 20
25.0657172162
 30
0.0
 11
76.3718027378
 21
22.6880759254
 31
0.0
  0
LINE
  5
41B
330
3F2
100
AcDbEntity
  8
0
  6
Continuous
 62
     0
370
    18
100
AcDbLine
 10
78.6894301956
 20
29.8209997977
 30
0.0
 11
78.7666844442
 21
30.0587639267
 31
0.0
  0
LINE
  5
41C
330
3F2
100
AcDbEntity
  8
0
  6
Continuous
 62
     0
370
    18
100
AcDbLine
 10
75.5992602519
 20
20.3104346347
 30
0.0
 11
75.5220060033
 21
20.0726705056
 31
0.0
  0
LINE
  5
41D
330
3F2
100
AcDbEntity
  8
0
  6
Continuous
 62
     0
370
    18
100
AcDbLine
 10
124.8221726119
 20
-40.5571824082
 30
0.0
 11
127.3221726119
 21
-40.5571824082
 31
0.0
  0
LINE
  5
41E
330
3F2
100
AcDbEntity
  8
0
  6
Continuous
 62
     0
370
    18
100
AcDbLine
 10
124.8221726119
 20
-40.5571824082
 30
0.0
 11
122.3221726119
 21
-40.5571824082
 31
0.0
  0
LINE
  5
41F
330
3F2
100
AcDbEntity
  8
0
  6
Continuous
 62
     0
370
    18
100
AcDbLine
 10
129.8221726119
 20
-40.5571824082
 30
0.0
 11
130.0721726119
 21
-40.5571824082
 31
0.0
  0
LINE
  5
420
330
3F2
100
AcDbEntity
  8
0
  6
Continuous
 62
     0
370
    18
100
AcDbLine
 10
119.8221726119
 20
-40.5571824082
 30
0.0
 11
119.5721726119
 21
-40.5571824082
 31
0.0
  0
LINE
  5
421
330
3F2
100
AcDbEntity
  8
0
  6
Continuous
 62
     0
370
    18
100
AcDbLine
 10
55.8221726119
 20
-40.5571824082
 30
0.0
 11
55.8221726119
 21
-38.0571824082
 31
0.0
  0
LINE
  5
422
330
3F2
100
AcDbEntity
  8
0
  6
Continuous
 62
     0
370
    18
100
AcDbLine
 10
55.8221726119
 20
-40.5571824082
 30
0.0
 11
53.3221726119
 21
-40.5571824082
 31
0.0
  0
LINE
  5
423
330
3F2
100
AcDbEntity
  8
0
  6
Continuous
 62
     0
370
    18
100
AcDbLine
 10
55.8221726119
 20
-40.5571824082
 30
0.0
 11
55.8221726119
 21
-43.0571824082
 31
0.0
  0
LINE
  5
424
330
3F2
100
AcDbEntity
  8
0
  6
Continuous
 62
     0
370
    18
100
AcDbLine
 10
55.8221726119
 20
-40.5571824082
 30
0.0
 11
58.3221726119
 21
-40.5571824082
 31
0.0
  0
LINE
  5
425
330
3F2
100
AcDbEntity
  8
0
  6
Continuous
 62
     0
370
    18
100
AcDbLine
 10
55.8221726119
 20
-35.5571824082
 30
0.0
 11
55.8221726119
 21
91.305426123
 31
0.0
  0
LINE
  5
426
330
3F2
100
AcDbEntity
  8
0
  6
Continuous
 62
     0
370
    18
100
AcDbLine
 10
50.8221726119
 20
-40.5571824082
 30
0.0
 11
-49.7396236464
 21
-40.5571824082
 31
0.0
  0
LINE
  5
427
330
3F2
100
AcDbEntity
  8
0
  6
Continuous
 62
     0
370
    18
100
AcDbLine
 10
55.8221726119
 20
-45.5571824082
 30
0.0
 11
55.8221726119
 21
-139.6969079059
 31
0.0
  0
LINE
  5
428
330
3F2
100
AcDbEntity
  8
0
  6
Continuous
 62
     0
370
    18
100
AcDbLine
 10
60.8221726119
 20
-40.5571824082
 30
0.0
 11
160.9993477484
 21
-40.5571824082
 31
0.0
  0
LINE
  5
429
330
3F2
100
AcDbEntity
  8
0
  6
Continuous
 62
     0
370
    18
100
AcDbLine
 10
77.1443452237
 20
-106.1800820325
 30
0.0
 11
77.9168877097
 21
-108.5577233233
 31
0.0
  0
LINE
  5
42A
330
3F2
100
AcDbEntity
  8
0
  6
Continuous
 62
     0
370
    18
100
AcDbLine
 10
77.1443452237
 20
-106.1800820325
 30
0.0
 11
76.3718027378
 21
-103.8024407418
 31
0.0
  0
LINE
  5
42B
330
3F2
100
AcDbEntity
  8
0
  6
Continuous
 62
     0
370
    18
100
AcDbLine
 10
78.6894301956
 20
-110.935364614
 30
0.0
 11
78.7666844442
 21
-111.1731287431
 31
0.0
  0
LINE
  5
42C
330
3F2
100
AcDbEntity
  8
0
  6
Continuous
 62
     0
370
    18
100
AcDbLine
 10
75.5992602519
 20
-101.4247994511
 30
0.0
 11
75.5220060033
 21
-101.187035322
 31
0.0
  0
LINE
  5
42D
330
3F2
100
AcDbEntity
  8
0
  6
Continuous
 62
     0
370
    18
100
AcDbLine
 10
0.0
 20
-81.1143648164
 30
0.0
 11
-2.0225424859
 21
-82.5838279471
 31
0.0
  0
LINE
  5
42E
330
3F2
100
AcDbEntity
  8
0
  6
Continuous
 62
     0
370
    18
100
AcDbLine
 10
0.0
 20
-81.1143648164
 30
0.0
 11
2.0225424859
 21
-79.6449016856
 31
0.0
  0
LINE
  5
42F
330
3F2
100
AcDbEntity
  8
0
  6
Continuous
 62
     0
370
    18
100
AcDbLine
 10
-4.0450849719
 20
-84.0532910778
 30
0.0
 11
-4.2473392205
 21
-84.2002373909
 31
0.0
  0
LINE
  5
430
330
3F2
100
AcDbEntity
  8
0
  6
Continuous
 62
     0
370
    18
100
AcDbLine
 10
4.0450849719
 20
-78.1754385549
 30
0.0
 11
4.2473392205
 21
-78.0284922418
 31
0.0
  0
LINE
  5
431
330
3F2
100
AcDbEntity
  8
0
  6
Continuous
 62
     0
370
    18
100
AcDbLine
 10
-7.8174376949
 20
23.0824278986
 30
0.0
 11
-9.5852046479
 21
24.8501948516
 31
0.0
  0
LINE
  5
432
330
3F2
100
AcDbEntity
  8
0
  6
Continuous
 62
     0
370
    18
100
AcDbLine
 10
-7.8174376949
 20
23.0824278986
 30
0.0
 11
-6.049670742
 21
21.3146609456
 31
0.0
  0
LINE
  5
433
330
3F2
100
AcDbEntity
  8
0
  6
Continuous
 62
     0
370
    18
100
AcDbLine
 10
-11.3529716009
 20
26.6179618045
 30
0.0
 11
-13.1207385538
 21
28.3857287575
 31
0.0
  0
LINE
  5
434
330
3F2
100
AcDbEntity
  8
0
  6
Continuous
 62
     0
370
    18
100
AcDbLine
 10
-4.281903789
 20
19.5468939927
 30
0.0
 11
-2.514136836
 21
17.7791270397
 31
0.0
  0
LINE
  5
435
330
3F2
100
AcDbEntity
  8
0
  6
Continuous
 62
     0
370
    18
100
AcDbLine
 10
119.4617829187
 20
-104.196792715
 30
0.0
 11
121.2295498716
 21
-105.9645596679
 31
0.0
  0
LINE
  5
436
330
3F2
100
AcDbEntity
  8
0
  6
Continuous
 62
     0
370
    18
100
AcDbLine
 10
119.4617829187
 20
-104.196792715
 30
0.0
 11
117.6940159657
 21
-102.429025762
 31
0.0
  0
LINE
  5
437
330
3F2
100
AcDbEntity
  8
0
  6
Continuous
 62
     0
370
    18
100
AcDbLine
 10
122.9973168246
 20
-107.7323266209
 30
0.0
 11
124.7650837776
 21
-109.5000935739
 31
0.0
  0
LINE
  5
438
330
3F2
100
AcDbEntity
  8
0
  6
Continuous
 62
     0
370
    18
100
AcDbLine
 10
115.9262490127
 20
-100.661258809
 30
0.0
 11
114.1584820598
 21
-98.8934918561
 31
0.0
  0
LINE
  5
439
330
3F2
100
AcDbEntity
  8
0
  6
Continuous
 62
     0
370
    18
100
AcDbLine
 10
55.8221726119
 20
58.4428175918
 30
0.0
 11
55.8221726119
 21
60.9428175918
 31
0.0
  0
LINE
  5
43A
330
3F2
100
AcDbEntity
  8
0
  6
Continuous
 62
     0
370
    18
100
AcDbLine
 10
55.8221726119
 20
58.4428175918
 30
0.0
 11
55.8221726119
 21
55.9428175918
 31
0.0
  0
LINE
  5
43B
330
3F2
100
AcDbEntity
  8
0
  6
Continuous
 62
     0
370
    18
100
AcDbLine
 10
55.8221726119
 20
63.4428175918
 30
0.0
 11
55.8221726119
 21
71.9428175918
 31
0.0
  0
LINE
  5
43C
330
3F2
100
AcDbEntity
  8
0
  6
Continuous
 62
     0
370
    18
100
AcDbLine
 10
55.8221726119
 20
53.4428175918
 30
0.0
 11
55.8221726119
 21
44.9428175918
 31
0.0
  0
ENDBLK
  5
3F4
330
3F2
100
AcDbEntity
  8
0
100
AcDbBlockEnd
  0
ENDSEC
  0
SECTION
  2
ENTITIES
  0
LINE
  5
73
330
1F
100
AcDbEntity
  8
0
  6
Continuous
 62
     7
370
    25
100
AcDbLine
 10
35.414776981
 20
311.0920958457
 30
0.0
 11
35.414776981
 21
299.5920948921
 31
0.0
  0
LINE
  5
74
330
1F
100
AcDbEntity
  8
0
  6
Continuous
 62
     7
370
    25
100
AcDbLine
 10
181.4147748353
 20
299.5920948921
 30
0.0
 11
181.4147748353
 21
311.0920958457
 31
0.0
  0
LINE
  5
75
330
1F
100
AcDbEntity
  8
0
  6
Continuous
 62
     7
370
    25
100
AcDbLine
 10
64.6190114619
 20
445.092091733
 30
0.0
 11
62.2839138211
 21
311.0920958457
 31
0.0
  0
LINE
  5
76
330
1F
100
AcDbEntity
  8
0
  6
Continuous
 62
     7
370
    25
100
AcDbLine
 10
142.9772183598
 20
299.5920948921
 30
0.0
 11
142.9772183598
 21
312.0920978723
 31
0.0
  0
LINE
  5
77
330
1F
100
AcDbEntity
  8
0
  6
Continuous
 62
     7
370
    25
100
AcDbLine
 10
61.7401071192
 20
323.0555974183
 30
0.0
 11
53.9610788526
 21
312.0950930057
 31
0.0
  0
LINE
  5
78
330
1F
100
AcDbEntity
  8
0
  6
Continuous
 62
     7
370
    25
100
AcDbLine
 10
162.870235026
 20
312.0958082614
 30
0.0
 11
155.0891913773
 21
323.0460904775
 31
0.0
  0
LINE
  5
79
330
1F
100
AcDbEntity
  8
0
  6
Continuous
 62
     7
370
    25
100
AcDbLine
 10
40.4147722126
 20
445.092091733
 30
0.0
 11
40.4147722126
 21
440.5920900641
 31
0.0
  0
LINE
  5
7A
330
1F
100
AcDbEntity
  8
0
  6
Continuous
 62
     7
370
    25
100
AcDbLine
 10
51.295145631
 20
323.1722809611
 30
0.0
 11
43.3652691843
 21
312.0121903954
 31
0.0
  0
LINE
  5
7B
330
1F
100
AcDbEntity
  8
0
  6
Continuous
 62
     7
370
    25
100
AcDbLine
 10
173.4660260679
 20
312.0141200958
 30
0.0
 11
165.5290194155
 21
323.1628410754
 31
0.0
  0
LINE
  5
7C
330
1F
100
AcDbEntity
  8
0
  6
Continuous
 62
     7
370
    25
100
AcDbLine
 10
43.3413155676
 20
311.9698710976
 30
0.0
 11
43.3413155676
 21
300.0920959053
 31
0.0
  0
LINE
  5
7D
330
1F
100
AcDbEntity
  8
0
  6
Continuous
 62
     7
370
    25
100
AcDbLine
 10
173.4882362486
 20
300.0920959053
 30
0.0
 11
173.4882362486
 21
311.9698710976
 31
0.0
  0
SPLINE
  5
7E
330
1F
100
AcDbEntity
  8
0
  6
Continuous
 62
     7
370
    25
100
AcDbSpline
210
0.0
220
0.0
230
1.0
 70
     8
 71
     3
 72
    11
 73
     7
 74
     0
 42
0.000000001
 43
0.00000001
 40
0.0
 40
0.0
 40
0.0
 40
0.0
 40
0.2400449057505068
 40
0.5341762806160159
 40
0.8555083592464254
 40
1.0
 40
1.0
 40
1.0
 40
1.0
 10
177.7350969912026
 20
315.0970883903779
 30
0.0
 10
177.7220785724604
 20
315.1213031879241
 30
0.0
 10
177.6931084492183
 20
315.1751888159014
 30
0.0
 10
177.6487150478868
 20
315.3206875857379
 30
0.0
 10
177.6211444285998
 20
315.4714826777669
 30
0.0
 10
177.6216644968837
 20
315.5678127380997
 30
0.0
 10
177.6218258143876
 20
315.5976929006852
 30
0.0
  0
LWPOLYLINE
  5
7F
330
1F
100
AcDbEntity
  8
0
  6
Continuous
 62
     7
370
    25
100
AcDbPolyline
 90
        3
 70
   128
 43
0.0
 10
177.6179813148
 20
315.5978046594
 10
176.8559508325
 20
345.4859726367
 10
174.4434677364
 20
440.0922753153
  0
SPLINE
  5
80
330
1F
100
AcDbEntity
  8
0
  6
Continuous
 62
     7
370
    25
100
AcDbSpline
210
0.0
220
0.0
230
1.0
 70
     8
 71
     3
 72
    11
 73
     7
 74
     0
 42
0.000000001
 43
0.00000001
 40
0.0
 40
0.0
 40
0.0
 40
0.0
 40
0.0669534970371341
 40
0.4064174053688594
 40
0.7860235678262782
 40
1.0
 40
1.0
 40
1.0
 40
1.0
 10
182.9145990611527
 20
315.0949724254884
 30
0.0
 10
182.9119929263523
 20
315.1017610514999
 30
0.0
 10
182.8961733113884
 20
315.1429689927085
 30
0.0
 10
182.8663042853809
 20
315.2723302159313
 30
0.0
 10
182.8401434703054
 20
315.4414240002853
 30
0.0
 10
182.8393234320172
 20
315.5568180237037
 30
0.0
 10
182.8390278221581
 20
315.5984156070031
 30
0.0
  0
LWPOLYLINE
  5
81
330
1F
100
AcDbEntity
  8
0
  6
Continuous
 62
     7
370
    25
100
AcDbPolyline
 90
        3
 70
   128
 43
0.0
 10
182.8352205755
 20
315.5984379587
 10
182.0353336932
 20
345.4866059361
 10
179.5031495692
 20
440.092156106
  0
SPLINE
  5
82
330
1F
100
AcDbEntity
  8
0
  6
Continuous
 62
     7
370
    25
100
AcDbSpline
210
0.0
220
0.0
230
1.0
 70
     8
 71
     3
 72
     9
 73
     5
 74
     0
 42
0.000000001
 43
0.00000001
 40
0.0
 40
0.0
 40
0.0
 40
0.0
 40
0.345904333982014
 40
1.0
 40
1.0
 40
1.0
 40
1.0
 10
186.2460367681
 20
315.3762392936029
 30
0.0
 10
186.2434074967901
 20
315.4005110151901
 30
0.0
 10
186.2358063451085
 20
315.4706799006381
 30
0.0
 10
186.2352843127164
 20
315.5481290095541
 30
0.0
 10
186.2349428535912
 20
315.598788136033
 30
0.0
  0
SPLINE
  5
83
330
1F
100
AcDbEntity
  8
0
  6
Continuous
 62
     7
370
    25
100
AcDbSpline
210
0.0
220
0.0
230
1.0
 70
     8
 71
     3
 72
     9
 73
     5
 74
     0
 42
0.000000001
 43
0.00000001
 40
0.0
 40
0.0
 40
0.0
 40
0.0
 40
0.4394801569919475
 40
1.0
 40
1.0
 40
1.0
 40
1.0
 10
186.281009793422
 20
315.0936238704003
 30
0.0
 10
186.2743961714321
 20
315.1289151422291
 30
0.0
 10
186.2593474328608
 20
315.2092174522818
 30
0.0
 10
186.2508177978033
 20
315.3162470694119
 30
0.0
 10
186.2460367681
 20
315.3762392936029
 30
0.0
  0
LWPOLYLINE
  5
84
330
1F
100
AcDbEntity
  8
0
  6
Continuous
 62
     7
370
    25
100
AcDbPolyline
 90
        3
 70
   128
 43
0.0
 10
186.2322904469
 20
315.598735982
 10
185.4142390491
 20
345.4869114099
 10
182.8247078063
 20
440.0922753153
  0
LINE
  5
85
330
1F
100
AcDbEntity
  8
0
  6
Continuous
 62
     7
370
    25
100
AcDbLine
 10
168.0691048802
 20
312.0920978723
 30
0.0
 11
168.0691048802
 21
314.0920944748
 31
0.0
  0
ARC
  5
86
330
1F
100
AcDbEntity
  8
0
  6
Continuous
 62
     7
370
    25
100
AcDbCircle
 10
163.2927126788
 20
305.9968911953
 30
0.0
 40
9.399268270000112
100
AcDbArc
 50
59.4582295447
 51
79.6214353151
  0
ARC
  5
87
330
1F
100
AcDbEntity
  8
0
  6
Continuous
 62
     7
370
    25
100
AcDbCircle
 10
163.8454970025
 20
305.9968911953
 30
0.0
 40
9.399268270000002
100
AcDbArc
 50
100.3724728515
 51
108.166433196
  0
LINE
  5
88
330
1F
100
AcDbEntity
  8
0
  6
Continuous
 62
     7
370
    25
100
AcDbLine
 10
161.0691055955
 20
300.0920959053
 30
0.0
 11
161.0691055955
 21
298.5920965908
 31
0.0
  0
LINE
  5
89
330
1F
100
AcDbEntity
  8
0
  6
Continuous
 62
     7
370
    25
100
AcDbLine
 10
166.0691045524
 20
298.5920965908
 30
0.0
 11
166.0691045524
 21
300.0920959053
 31
0.0
  0
LINE
  5
8A
330
1F
100
AcDbEntity
  8
0
  6
Continuous
 62
     7
370
    25
100
AcDbLine
 10
48.760446936
 20
314.0920944748
 30
0.0
 11
48.760446936
 21
312.0920978723
 31
0.0
  0
ARC
  5
8B
330
1F
100
AcDbEntity
  8
0
  6
Continuous
 62
     7
370
    25
100
AcDbCircle
 10
52.9840548137
 20
305.9968911953
 30
0.0
 40
9.399268270000036
100
AcDbArc
 50
71.8069556168
 51
79.6214353151
  0
ARC
  5
8C
330
1F
100
AcDbEntity
  8
0
  6
Continuous
 62
     7
370
    25
100
AcDbCircle
 10
53.5368391374
 20
305.9968911953
 30
0.0
 40
9.399268270000139
100
AcDbArc
 50
100.3724728515
 51
120.5417704553
  0
LINE
  5
8D
330
1F
100
AcDbEntity
  8
0
  6
Continuous
 62
     7
370
    25
100
AcDbLine
 10
50.7604472639
 20
300.0920959053
 30
0.0
 11
50.7604472639
 21
298.5920965908
 31
0.0
  0
LINE
  5
8E
330
1F
100
AcDbEntity
  8
0
  6
Continuous
 62
     7
370
    25
100
AcDbLine
 10
55.7604462208
 20
298.5920965908
 30
0.0
 11
55.7604462208
 21
300.0920959053
 31
0.0
  0
ARC
  5
8F
330
1F
100
AcDbEntity
  8
0
  6
Continuous
 62
     7
370
    25
100
AcDbCircle
 10
94.1336575899
 20
175.3920948324
 30
0.0
 40
2.0
100
AcDbArc
 50
45.0
 51
90.0
  0
ARC
  5
90
330
1F
100
AcDbEntity
  8
0
  6
Continuous
 62
     7
370
    25
100
AcDbCircle
 10
122.6958942263
 20
175.3920948324
 30
0.0
 40
2.000000000000006
100
AcDbArc
 50
90.0
 51
135.0
  0
LINE
  5
91
330
1F
100
AcDbEntity
  8
0
  6
Continuous
 62
     7
370
    25
100
AcDbLine
 10
95.5478709491
 20
176.8063105879
 30
0.0
 11
97.8620846124
 21
174.4920931993
 31
0.0
  0
LINE
  5
92
330
1F
100
AcDbEntity
  8
0
  6
Continuous
 62
     7
370
    25
100
AcDbLine
 10
118.9674672039
 20
174.4920931993
 30
0.0
 11
121.2816808672
 21
176.8063105879
 31
0.0
  0
LINE
  5
93
330
1F
100
AcDbEntity
  8
0
  6
Continuous
 62
     7
370
    25
100
AcDbLine
 10
191.9594697954
 20
463.0920984087
 30
0.0
 11
190.4147781731
 21
463.0920984087
 31
0.0
  0
LINE
  5
94
330
1F
100
AcDbEntity
  8
0
  6
Continuous
 62
     7
370
    25
100
AcDbLine
 10
190.4147781731
 20
455.0920970974
 30
0.0
 11
191.9594697954
 21
455.0920970974
 31
0.0
  0
ARC
  5
95
330
1F
100
AcDbEntity
  8
0
  6
Continuous
 62
     7
370
    25
100
AcDbCircle
 10
191.9594700342
 20
462.7320948324
 30
0.0
 40
0.3599999999999933
100
AcDbArc
 50
36.3583676093
 51
90.0
  0
ARC
  5
96
330
1F
100
AcDbEntity
  8
0
  6
Continuous
 62
     7
370
    25
100
AcDbCircle
 10
191.9594700342
 20
455.4520948324
 30
0.0
 40
0.3600000000000269
100
AcDbArc
 50
270.0
 51
323.6416323907
  0
ARC
  5
97
330
1F
100
AcDbEntity
  8
0
  6
Continuous
 62
     7
370
    25
100
AcDbCircle
 10
187.0147759081
 20
459.0920948324
 30
0.0
 40
6.50000000000002
100
AcDbArc
 50
323.6416323907
 51
342.1374193426
  0
ARC
  5
98
330
1F
100
AcDbEntity
  8
0
  6
Continuous
 62
     7
370
    25
100
AcDbCircle
 10
187.0147759081
 20
459.0920948324
 30
0.0
 40
6.500000000000015
100
AcDbArc
 50
17.8625806574
 51
36.3583676093
  0
LINE
  5
99
330
1F
100
AcDbEntity
  8
0
  6
Continuous
 62
     7
370
    25
100
AcDbLine
 10
75.4147760869
 20
360.0129582224
 30
0.0
 11
75.4147760869
 21
359.4846450029
 31
0.0
  0
LINE
  5
9A
330
1F
100
AcDbEntity
  8
0
  6
Continuous
 62
     7
370
    25
100
AcDbLine
 10
83.4147755356
 20
359.4846450029
 30
0.0
 11
83.4147755356
 21
360.0129582224
 31
0.0
  0
LINE
  5
9B
330
1F
100
AcDbEntity
  8
0
  6
Continuous
 62
     7
370
    25
100
AcDbLine
 10
75.4147760869
 20
445.5249853668
 30
0.0
 11
75.4147760869
 21
444.9966646967
 31
0.0
  0
LINE
  5
9C
330
1F
100
AcDbEntity
  8
0
  6
Continuous
 62
     7
370
    25
100
AcDbLine
 10
83.4147755356
 20
444.9966646967
 30
0.0
 11
83.4147755356
 21
445.5249853668
 31
0.0
  0
LINE
  5
9D
330
1F
100
AcDbEntity
  8
0
  6
Continuous
 62
     7
370
    25
100
AcDbLine
 10
66.6424289645
 20
455.0920970974
 30
0.0
 11
67.4147747756
 21
455.0920970974
 31
0.0
  0
LINE
  5
9E
330
1F
100
AcDbEntity
  8
0
  6
Continuous
 62
     7
370
    25
100
AcDbLine
 10
67.4147747756
 20
463.0920984087
 30
0.0
 11
66.6424289645
 21
463.0920984087
 31
0.0
  0
LINE
  5
9F
330
1F
100
AcDbEntity
  8
0
  6
Continuous
 62
     7
370
    25
100
AcDbLine
 10
133.4147762807
 20
445.5249853668
 30
0.0
 11
133.4147762807
 21
444.9966646967
 31
0.0
  0
LINE
  5
A0
330
1F
100
AcDbEntity
  8
0
  6
Continuous
 62
     7
370
    25
100
AcDbLine
 10
141.4147757293
 20
444.9966646967
 30
0.0
 11
141.4147757293
 21
445.5249853668
 31
0.0
  0
LINE
  5
A1
330
1F
100
AcDbEntity
  8
0
  6
Continuous
 62
     7
370
    25
100
AcDbLine
 10
133.4147762807
 20
360.0129582224
 30
0.0
 11
133.4147762807
 21
359.4846450029
 31
0.0
  0
LINE
  5
A2
330
1F
100
AcDbEntity
  8
0
  6
Continuous
 62
     7
370
    25
100
AcDbLine
 10
141.4147757293
 20
359.4846450029
 30
0.0
 11
141.4147757293
 21
360.0129582224
 31
0.0
  0
SPLINE
  5
A3
330
1F
100
AcDbEntity
  8
0
  6
Continuous
 62
     7
370
    25
100
AcDbSpline
210
0.0
220
0.0
230
1.0
 70
     8
 71
     3
 72
    13
 73
     9
 74
     0
 42
0.000000001
 43
0.00000001
 40
0.0
 40
0.0
 40
0.0
 40
0.0
 40
0.1094075039788817
 40
0.2898197106467714
 40
0.4706860884972534
 40
0.6513336112944934
 40
0.8313278297855884
 40
1.0
 40
1.0
 40
1.0
 40
1.0
 10
79.41477674259876
 20
450.8137054977693
 30
0.0
 10
79.14187631838567
 20
450.8024993310332
 30
0.0
 10
78.41896500879133
 20
450.7728142739503
 30
0.0
 10
77.2740104635849
 20
450.4671757319159
 30
0.0
 10
76.07290301870499
 20
449.8436367564332
 30
0.0
 10
75.06526044185505
 20
448.9578842646574
 30
0.0
 10
74.29377156008366
 20
447.896283778634
 30
0.0
 10
74.02767811168566
 20
447.0888402345818
 30
0.0
 10
73.8989517392132
 20
446.6982282934465
 30
0.0
  0
SPLINE
  5
A4
330
1F
100
AcDbEntity
  8
0
  6
Continuous
 62
     7
370
    25
100
AcDbSpline
210
0.0
220
0.0
230
1.0
 70
     8
 71
     3
 72
    14
 73
    10
 74
     0
 42
0.000000001
 43
0.00000001
 40
0.0
 40
0.0
 40
0.0
 40
0.0
 40
0.0943755110194009
 40
0.2430650387458461
 40
0.3918026576669405
 40
0.5408574235240154
 40
0.6905733438388729
 40
0.8410954629164004
 40
1.0
 40
1.0
 40
1.0
 40
1.0
 10
144.1147767306778
 20
445.3549333153047
 30
0.0
 10
144.1021943704936
 20
445.6262852268314
 30
0.0
 10
144.0697883805005
 20
446.3251546917656
 30
0.0
 10
143.7450483570045
 20
447.4208730789678
 30
0.0
 10
143.1012059069333
 20
448.5512866121243
 30
0.0
 10
142.1969326513044
 20
449.5073100456607
 30
0.0
 10
141.0861156495498
 20
450.2308575349739
 30
0.0
 10
139.803996730691
 20
450.718377732717
 30
0.0
 10
138.8861373878148
 20
450.781360835284
 30
0.0
 10
138.4147752375815
 20
450.8137054977693
 30
0.0
  0
LINE
  5
A5
330
1F
100
AcDbEntity
  8
0
  6
Continuous
 62
     7
370
    25
100
AcDbLine
 10
138.4147752376
 20
450.8137054978
 30
0.0
 11
79.4147767426
 21
450.8137054978
 31
0.0
  0
LINE
  5
A6
330
1F
100
AcDbEntity
  8
0
  6
Continuous
 62
     7
370
    25
100
AcDbLine
 10
188.41477412
 20
466.0920895872
 30
0.0
 11
188.41477412
 21
479.0509589253
 31
0.0
  0
ARC
  5
A7
330
1F
100
AcDbEntity
  8
0
  6
Continuous
 62
     7
370
    25
100
AcDbCircle
 10
186.4147759081
 20
479.0509607313
 30
0.0
 40
2.000000000000018
100
AcDbArc
 50
0.0
 51
55.0
  0
LINE
  5
A8
330
1F
100
AcDbEntity
  8
0
  6
Continuous
 62
     7
370
    25
100
AcDbLine
 10
187.5619285108
 20
480.6892670927
 30
0.0
 11
172.7676235439
 21
491.0483457384
 31
0.0
  0
LINE
  5
A9
330
1F
100
AcDbEntity
  8
0
  6
Continuous
 62
     7
370
    25
100
AcDbLine
 10
44.0619282724
 20
491.0483457384
 30
0.0
 11
34.5467619897
 21
484.3857534466
 31
0.0
  0
ARC
  5
AA
330
1F
100
AcDbEntity
  8
0
  6
Continuous
 62
     7
370
    25
100
AcDbCircle
 10
63.4994326139
 20
462.5194337772
 30
0.0
 40
2.000000000000002
100
AcDbArc
 50
161.7911627567
 51
180.0
  0
LINE
  5
AB
330
1F
100
AcDbEntity
  8
0
  6
Continuous
 62
     7
370
    25
100
AcDbLine
 10
61.4994310142
 20
462.5194318829
 30
0.0
 11
61.4994310142
 21
445.092091733
 31
0.0
  0
ARC
  5
AC
330
1F
100
AcDbEntity
  8
0
  6
Continuous
 62
     7
370
    25
100
AcDbCircle
 10
42.9147759081
 20
492.686653314
 30
0.0
 40
2.000000000000007
100
AcDbArc
 50
305.0
 51
0.0
  0
ARC
  5
AD
330
1F
100
AcDbEntity
  8
0
  6
Continuous
 62
     7
370
    25
100
AcDbCircle
 10
173.9147759081
 20
492.686653314
 30
0.0
 40
2.0
100
AcDbArc
 50
180.0
 51
235.0
  0
LINE
  5
AE
330
1F
100
AcDbEntity
  8
0
  6
Continuous
 62
     7
370
    25
100
AcDbLine
 10
44.9147738816
 20
493.0920996008
 30
0.0
 11
44.9147738816
 21
492.6866539059
 31
0.0
  0
LINE
  5
AF
330
1F
100
AcDbEntity
  8
0
  6
Continuous
 62
     7
370
    25
100
AcDbLine
 10
171.9147779347
 20
492.6866539059
 30
0.0
 11
171.9147779347
 21
493.0920996008
 31
0.0
  0
ARC
  5
B0
330
1F
100
AcDbEntity
  8
0
  6
Continuous
 62
     7
370
    25
100
AcDbCircle
 10
169.9147759081
 20
493.0920948324
 30
0.0
 40
2.000000000000028
100
AcDbArc
 50
0.0
 51
90.0
  0
ARC
  5
B1
330
1F
100
AcDbEntity
  8
0
  6
Continuous
 62
     7
370
    25
100
AcDbCircle
 10
46.9147759081
 20
493.0920948324
 30
0.0
 40
2.0
100
AcDbArc
 50
90.0
 51
180.0
  0
ARC
  5
B2
330
1F
100
AcDbEntity
  8
0
  6
Continuous
 62
     7
370
    25
100
AcDbCircle
 10
37.4147393758
 20
480.2899724573
 30
0.0
 40
4.999961031715214
100
AcDbArc
 50
125.0480397727
 51
180.0032086112
  0
ARC
  5
B3
330
1F
100
AcDbEntity
  8
0
  6
Continuous
 62
     7
370
    25
100
AcDbCircle
 10
190.4147759081
 20
466.0920948324
 30
0.0
 40
2.000000000000056
100
AcDbArc
 50
180.0
 51
239.8373963227
  0
ARC
  5
B4
330
1F
100
AcDbEntity
  8
0
  6
Continuous
 62
     7
370
    25
100
AcDbCircle
 10
188.4147633669
 20
462.6279555881
 30
0.0
 40
2.000014807082893
100
AcDbArc
 50
359.9983340541
 51
60.2083566967
  0
LINE
  5
B5
330
1F
100
AcDbEntity
  8
0
  6
Continuous
 62
     7
370
    25
100
AcDbLine
 10
50.9412877561
 20
440.1063122092
 30
0.0
 11
50.9280033709
 21
439.9555422602
 31
0.0
  0
LINE
  5
B6
330
1F
100
AcDbEntity
  8
0
  6
Continuous
 62
     7
370
    25
100
AcDbLine
 10
183.4147788884
 20
289.5501353083
 30
0.0
 11
183.4147788884
 21
299.5920948921
 31
0.0
  0
LINE
  5
B7
330
1F
100
AcDbEntity
  8
0
  6
Continuous
 62
     7
370
    25
100
AcDbLine
 10
33.4147729279
 20
299.5920948921
 30
0.0
 11
33.4147729279
 21
289.5501353083
 31
0.0
  0
ARC
  5
B8
330
1F
100
AcDbEntity
  8
0
  6
Continuous
 62
     7
370
    25
100
AcDbCircle
 10
182.9147759081
 20
286.5920948324
 30
0.0
 40
2.00000000000004
100
AcDbArc
 50
99.5940682269
 51
180.0
  0
ARC
  5
B9
330
1F
100
AcDbEntity
  8
0
  6
Continuous
 62
     7
370
    25
100
AcDbCircle
 10
33.9147759081
 20
286.5920948324
 30
0.0
 40
2.000000000000042
100
AcDbArc
 50
0.0
 51
80.4059317731
  0
LINE
  5
BA
330
1F
100
AcDbEntity
  8
0
  6
Continuous
 62
     7
370
    25
100
AcDbLine
 10
180.914773822
 20
286.0920936106
 30
0.0
 11
180.914773822
 21
286.5920946238
 31
0.0
  0
LINE
  5
BB
330
1F
100
AcDbEntity
  8
0
  6
Continuous
 62
     7
370
    25
100
AcDbLine
 10
35.9147779943
 20
286.5920946238
 30
0.0
 11
35.9147779943
 21
286.0920936106
 31
0.0
  0
ARC
  5
BC
330
1F
100
AcDbEntity
  8
0
  6
Continuous
 62
     7
370
    25
100
AcDbCircle
 10
171.7757148892
 20
289.5920948324
 30
0.0
 40
1.0
100
AcDbArc
 50
270.0
 51
0.0
  0
LINE
  5
BD
330
1F
100
AcDbEntity
  8
0
  6
Continuous
 62
     7
370
    25
100
AcDbLine
 10
172.7757148744
 20
289.5920932529
 30
0.0
 11
172.7757148744
 21
298.5920965908
 31
0.0
  0
LINE
  5
BE
330
1F
100
AcDbEntity
  8
0
  6
Continuous
 62
     7
370
    25
100
AcDbLine
 10
44.0538369419
 20
298.5920965908
 30
0.0
 11
44.0538369419
 21
289.5920932529
 31
0.0
  0
ARC
  5
BF
330
1F
100
AcDbEntity
  8
0
  6
Continuous
 62
     7
370
    25
100
AcDbCircle
 10
45.053836927
 20
289.5920948324
 30
0.0
 40
1.0
100
AcDbArc
 50
180.0
 51
270.0
  0
ARC
  5
C0
330
1F
100
AcDbEntity
  8
0
  6
Continuous
 62
     7
370
    25
100
AcDbCircle
 10
182.4147759081
 20
289.550134724
 30
0.0
 40
1.0
100
AcDbArc
 50
279.5940682269
 51
0.0
  0
ARC
  5
C1
330
1F
100
AcDbEntity
  8
0
  6
Continuous
 62
     7
370
    25
100
AcDbCircle
 10
34.4147759081
 20
289.550134724
 30
0.0
 40
1.0
100
AcDbArc
 50
180.0
 51
260.4059317731
  0
LINE
  5
C2
330
1F
100
AcDbEntity
  8
0
  6
Continuous
 62
     7
370
    25
100
AcDbLine
 10
169.6147762538
 20
284.0920932827
 30
0.0
 11
169.5147745611
 21
286.0920936106
 31
0.0
  0
LINE
  5
C3
330
1F
100
AcDbEntity
  8
0
  6
Continuous
 62
     7
370
    25
100
AcDbLine
 10
47.3147772552
 20
286.0920936106
 30
0.0
 11
47.2647764088
 21
285.0920953093
 31
0.0
  0
LINE
  5
C4
330
1F
100
AcDbEntity
  8
0
  6
Continuous
 62
     7
370
    25
100
AcDbLine
 10
69.0458260776
 20
311.0920958457
 30
0.0
 11
63.2837258579
 21
311.0920958457
 31
0.0
  0
LINE
  5
C5
330
1F
100
AcDbEntity
  8
0
  6
Continuous
 62
     7
370
    25
100
AcDbLine
 10
71.7776671351
 20
311.0920958457
 30
0.0
 11
69.0458260776
 21
311.0920958457
 31
0.0
  0
LINE
  5
C6
330
1F
100
AcDbEntity
  8
0
  6
Continuous
 62
     7
370
    25
100
AcDbLine
 10
76.6170613767
 20
312.0920978723
 30
0.0
 11
76.8313587011
 21
352.7325637875
 31
0.0
  0
ELLIPSE
  5
C7
330
1F
100
AcDbEntity
  8
0
  6
Continuous
 62
     7
370
    25
100
AcDbEllipse
 10
108.4147759081
 20
921.4466953497
 30
0.0
 11
-63.22105807397696
 21
8364.971454891416
 31
0.0
210
0.0
220
0.0
230
1.0
 40
0.0043631847
 41
1.643673918371994
 42
1.643793783487133
  0
LINE
  5
C8
330
1F
100
AcDbEntity
  8
0
  6
Continuous
 62
     7
370
    25
100
AcDbLine
 10
76.6249366404
 20
311.0920958457
 30
0.0
 11
71.7776671351
 21
311.0920958457
 31
0.0
  0
LINE
  5
C9
330
1F
100
AcDbEntity
  8
0
  6
Continuous
 62
     7
370
    25
100
AcDbLine
 10
97.6647755431
 20
320.5267362533
 30
0.0
 11
119.1647762732
 21
320.5267362533
 31
0.0
  0
ELLIPSE
  5
CA
330
1F
100
AcDbEntity
  8
0
  6
Continuous
 62
     7
370
    25
100
AcDbEllipse
 10
108.4147759081
 20
319.1003766312
 30
0.0
 11
72.81647126890404
 21
0.0
 31
0.0
210
0.0
220
0.0
230
1.0
 40
0.0204236035
 41
1.718969360863674
 42
1.820584328963882
  0
LINE
  5
CB
330
1F
100
AcDbEntity
  8
0
  6
Continuous
 62
     7
370
    25
100
AcDbLine
 10
90.4146500231
 20
320.5413989959
 30
0.0
 11
90.4146500231
 21
320.5920927463
 31
0.0
  0
LINE
  5
CC
330
1F
100
AcDbEntity
  8
0
  6
Continuous
 62
     7
370
    25
100
AcDbLine
 10
126.4149017931
 20
320.5920927463
 30
0.0
 11
90.4146500231
 21
320.5920927463
 31
0.0
  0
LINE
  5
CD
330
1F
100
AcDbEntity
  8
0
  6
Continuous
 62
     7
370
    25
100
AcDbLine
 10
126.4149017931
 20
320.5413989959
 30
0.0
 11
126.4149017931
 21
320.5920927463
 31
0.0
  0
ELLIPSE
  5
CE
330
1F
100
AcDbEntity
  8
0
  6
Continuous
 62
     7
370
    25
100
AcDbEllipse
 10
108.4147759081
 20
319.1003766312
 30
0.0
 11
72.81647126890404
 21
0.0
 31
0.0
210
0.0
220
0.0
230
1.0
 40
0.0204236035
 41
1.321008324625892
 42
1.422623292726098
  0
LINE
  5
CF
330
1F
100
AcDbEntity
  8
0
  6
Continuous
 62
     7
370
    25
100
AcDbLine
 10
89.4147765191
 20
320.5920927463
 30
0.0
 11
89.6529324652
 21
352.076271945
 31
0.0
  0
LINE
  5
D0
330
1F
100
AcDbEntity
  8
0
  6
Continuous
 62
     7
370
    25
100
AcDbLine
 10
90.4146500231
 20
320.5920927463
 30
0.0
 11
89.4147765191
 21
320.5920927463
 31
0.0
  0
LINE
  5
D1
330
1F
100
AcDbEntity
  8
0
  6
Continuous
 62
     7
370
    25
100
AcDbLine
 10
127.1766193511
 20
352.076271945
 30
0.0
 11
127.4147752972
 21
320.5920927463
 31
0.0
  0
LINE
  5
D2
330
1F
100
AcDbEntity
  8
0
  6
Continuous
 62
     7
370
    25
100
AcDbLine
 10
127.4147752972
 20
320.5920927463
 30
0.0
 11
126.4149017931
 21
320.5920927463
 31
0.0
  0
LINE
  5
D3
330
1F
100
AcDbEntity
  8
0
  6
Continuous
 62
     7
370
    25
100
AcDbLine
 10
153.275809467
 20
300.0920959053
 30
0.0
 11
153.275809467
 21
312.0920978723
 31
0.0
  0
LINE
  5
D4
330
1F
100
AcDbEntity
  8
0
  6
Continuous
 62
     7
370
    25
100
AcDbLine
 10
63.5537423493
 20
311.0920958457
 30
0.0
 11
63.5537423493
 21
300.0920959053
 31
0.0
  0
LINE
  5
D5
330
1F
100
AcDbEntity
  8
0
  6
Continuous
 62
     7
370
    25
100
AcDbLine
 10
76.6170613767
 20
312.0920978723
 30
0.0
 11
97.6647755431
 21
312.0920978723
 31
0.0
  0
LINE
  5
D6
330
1F
100
AcDbEntity
  8
0
  6
Continuous
 62
     7
370
    25
100
AcDbLine
 10
97.6647755431
 20
312.0920978723
 30
0.0
 11
97.6647755431
 21
299.5920948921
 31
0.0
  0
LINE
  5
D7
330
1F
100
AcDbEntity
  8
0
  6
Continuous
 62
     7
370
    25
100
AcDbLine
 10
142.9772183598
 20
312.0920978723
 30
0.0
 11
153.275809467
 21
312.0920978723
 31
0.0
  0
LINE
  5
D8
330
1F
100
AcDbEntity
  8
0
  6
Continuous
 62
     7
370
    25
100
AcDbLine
 10
97.6647755431
 20
320.5712534724
 30
0.0
 11
97.6647755431
 21
312.0920978723
 31
0.0
  0
LINE
  5
D9
330
1F
100
AcDbEntity
  8
0
  6
Continuous
 62
     7
370
    25
100
AcDbLine
 10
119.1647762732
 20
299.5920948921
 30
0.0
 11
119.1647762732
 21
312.0920978723
 31
0.0
  0
LINE
  5
DA
330
1F
100
AcDbEntity
  8
0
  6
Continuous
 62
     7
370
    25
100
AcDbLine
 10
119.1647762732
 20
312.0920978723
 30
0.0
 11
136.103439361
 21
312.0920978723
 31
0.0
  0
LINE
  5
DB
330
1F
100
AcDbEntity
  8
0
  6
Continuous
 62
     7
370
    25
100
AcDbLine
 10
136.103439361
 20
299.5920948921
 30
0.0
 11
136.103439361
 21
312.0920978723
 31
0.0
  0
LINE
  5
DC
330
1F
100
AcDbEntity
  8
0
  6
Continuous
 62
     7
370
    25
100
AcDbLine
 10
144.1147767307
 20
440.0920965014
 30
0.0
 11
167.863535911
 21
440.0920965014
 31
0.0
  0
LINE
  5
DD
330
1F
100
AcDbEntity
  8
0
  6
Continuous
 62
     7
370
    25
100
AcDbLine
 10
170.272103727
 20
318.013566011
 30
0.0
 11
167.863535911
 21
440.0920965014
 31
0.0
  0
SPLINE
  5
DE
330
1F
100
AcDbEntity
  8
0
  6
Continuous
 62
     7
370
    25
100
AcDbSpline
210
0.0
220
0.0
230
1.0
 70
     8
 71
     3
 72
    10
 73
     6
 74
     0
 42
0.000000001
 43
0.00000001
 40
0.0
 40
0.0
 40
0.0
 40
0.0
 40
0.4452470221264208
 40
0.88912907889827
 40
1.0
 40
1.0
 40
1.0
 40
1.0
 10
165.2184717656586
 20
323.387885862378
 30
0.0
 10
165.270773469136
 20
323.3778305979017
 30
0.0
 10
165.3752165380992
 20
323.3577508947308
 30
0.0
 10
165.4864529447543
 20
323.2655882626426
 30
0.0
 10
165.5294645511809
 20
323.1847367191779
 30
0.0
 10
165.5380606950734
 20
323.1685780225076
 30
0.0
  0
LINE
  5
DF
330
1F
100
AcDbEntity
  8
0
  6
Continuous
 62
     7
370
    25
100
AcDbLine
 10
165.2184717657
 20
323.3878858624
 30
0.0
 11
164.5792119504
 21
323.3878858624
 31
0.0
  0
SPLINE
  5
E0
330
1F
100
AcDbEntity
  8
0
  6
Continuous
 62
     7
370
    25
100
AcDbSpline
210
0.0
220
0.0
230
1.0
 70
     8
 71
     3
 72
    12
 73
     8
 74
     0
 42
0.000000001
 43
0.00000001
 40
0.0
 40
0.0
 40
0.0
 40
0.0
 40
0.3411458966524897
 40
0.5905344850664482
 40
0.7669996893980673
 40
0.9032401778695517
 40
1.0
 40
1.0
 40
1.0
 40
1.0
 10
163.9203794599984
 20
321.8439467487611
 30
0.0
 10
163.9301642494719
 20
322.0792369582467
 30
0.0
 10
163.9471020337744
 20
322.4865318548384
 30
0.0
 10
164.1017942079068
 20
322.9622004316285
 30
0.0
 10
164.2737840381901
 20
323.2363974039334
 30
0.0
 10
164.4353415922312
 20
323.3683681005762
 30
0.0
 10
164.5369968101373
 20
323.3821588657739
 30
0.0
 10
164.5792119504426
 20
323.387885862378
 30
0.0
  0
LINE
  5
E1
330
1F
100
AcDbEntity
  8
0
  6
Continuous
 62
     7
370
    25
100
AcDbLine
 10
163.92037946
 20
321.8439467488
 30
0.0
 11
163.7812361421
 21
329.3328307805
 31
0.0
  0
SPLINE
  5
E2
330
1F
100
AcDbEntity
  8
0
  6
Continuous
 62
     7
370
    25
100
AcDbSpline
210
0.0
220
0.0
230
1.0
 70
     8
 71
     3
 72
    18
 73
    14
 74
     0
 42
0.000000001
 43
0.00000001
 40
0.0
 40
0.0
 40
0.0
 40
0.0
 40
0.1743883227477395
 40
0.347657497154664
 40
0.4347197198089334
 40
0.4675665502835845
 40
0.5007314419245702
 40
0.5299615738540132
 40
0.5691111813360202
 40
0.6420212038608778
 40
0.7988318422161381
 40
0.9566908963448201
 40
1.0
 40
1.0
 40
1.0
 40
1.0
 10
155.2959561647389
 20
329.3328307805337
 30
0.0
 10
155.591374457741
 20
330.6295896511826
 30
0.0
 10
156.1803151777418
 20
333.2147853585527
 30
0.0
 10
157.2393517956223
 20
336.2727947430956
 30
0.0
 10
158.2692284657315
 20
338.096003987865
 30
0.0
 10
159.0015864682374
 20
338.7192270833936
 30
0.0
 10
159.5305843117563
 20
338.8737622880778
 30
0.0
 10
160.0916729907677
 20
338.7146626402675
 30
0.0
 10
160.7673003747281
 20
338.1261199200137
 30
0.0
 10
161.7304709453605
 20
336.4958343703458
 30
0.0
 10
162.7141399103265
 20
333.7880567163621
 30
0.0
 10
163.3663355846636
 20
331.1483254005747
 30
0.0
 10
163.7077365816469
 20
329.6544453316047
 30
0.0
 10
163.7812361420605
 20
329.3328307805337
 30
0.0
  0
LINE
  5
E3
330
1F
100
AcDbEntity
  8
0
  6
Continuous
 62
     7
370
    25
100
AcDbLine
 10
155.2959561647
 20
329.3328307805
 30
0.0
 11
155.421450019
 21
322.5784994898
 31
0.0
  0
SPLINE
  5
E4
330
1F
100
AcDbEntity
  8
0
  6
Continuous
 62
     7
370
    25
100
AcDbSpline
210
0.0
220
0.0
230
1.0
 70
     8
 71
     3
 72
    10
 73
     6
 74
     0
 42
0.000000001
 43
0.00000001
 40
0.0
 40
0.0
 40
0.0
 40
0.0
 40
0.3633439120160526
 40
0.724381862643108
 40
1.0
 40
1.0
 40
1.0
 40
1.0
 10
154.5824922920678
 20
323.387885862378
 30
0.0
 10
154.6533332956524
 20
323.3765322858848
 30
0.0
 10
154.7945657105383
 20
323.3538971883482
 30
0.0
 10
154.9712877909788
 20
323.2233723191786
 30
0.0
 10
155.0508689167443
 20
323.0977377753406
 30
0.0
 10
155.0853208006833
 20
323.0433486638345
 30
0.0
  0
LINE
  5
E5
330
1F
100
AcDbEntity
  8
0
  6
Continuous
 62
     7
370
    25
100
AcDbLine
 10
154.5824922921
 20
323.3878858624
 30
0.0
 11
153.7936471702
 21
323.3878858624
 31
0.0
  0
SPLINE
  5
E6
330
1F
100
AcDbEntity
  8
0
  6
Continuous
 62
     7
370
    25
100
AcDbSpline
210
0.0
220
0.0
230
1.0
 70
     8
 71
     3
 72
    12
 73
     8
 74
     0
 42
0.000000001
 43
0.00000001
 40
0.0
 40
0.0
 40
0.0
 40
0.0
 40
0.3606839975026761
 40
0.5827498498162951
 40
0.7549707387139841
 40
0.895066188942055
 40
1.0
 40
1.0
 40
1.0
 40
1.0
 10
153.0898951293442
 20
322.0557369528092
 30
0.0
 10
153.1003007124874
 20
322.2721015452915
 30
0.0
 10
153.1171128030041
 20
322.6216774473211
 30
0.0
 10
153.2783249385344
 20
323.0287334063787
 30
0.0
 10
153.4533264391962
 20
323.256674650291
 30
0.0
 10
153.6305448486831
 20
323.3711039583504
 30
0.0
 10
153.7447421583861
 20
323.3828539339102
 30
0.0
 10
153.7936471702073
 20
323.387885862378
 30
0.0
  0
LINE
  5
E7
330
1F
100
AcDbEntity
  8
0
  6
Continuous
 62
     7
370
    25
100
AcDbLine
 10
153.275809467
 20
312.0920978723
 30
0.0
 11
153.0898951293
 21
322.0557369528
 31
0.0
  0
LINE
  5
E8
330
1F
100
AcDbEntity
  8
0
  6
Continuous
 62
     7
370
    25
100
AcDbLine
 10
119.1647762732
 20
312.0920978723
 30
0.0
 11
119.1647762732
 21
320.5712534724
 31
0.0
  0
LINE
  5
E9
330
1F
100
AcDbEntity
  8
0
  6
Continuous
 62
     7
370
    25
100
AcDbLine
 10
63.2837258579
 20
311.0920958457
 30
0.0
 11
62.2839138211
 21
311.0920958457
 31
0.0
  0
SPLINE
  5
EA
330
1F
100
AcDbEntity
  8
0
  6
Continuous
 62
     7
370
    25
100
AcDbSpline
210
0.0
220
0.0
230
1.0
 70
    24
 71
     3
 72
    11
 73
     7
 74
     0
 42
0.000000001
 43
0.00000001
 40
0.0
 40
0.0
 40
0.0
 40
0.0
 40
0.2592415547496624
 40
0.5184890984507449
 40
0.7776723772910119
 40
0.9999999999999999
 40
0.9999999999999999
 40
0.9999999999999999
 40
0.9999999999999999
 10
89.41477651908134
 20
320.5920927462853
 30
0.0
 10
89.40925990819825
 20
320.5920927462853
 30
0.0
 10
89.39822655898833
 20
320.5920927462853
 30
0.0
 10
89.31182274280523
 20
320.5920927462853
 30
0.0
 10
89.19155335879694
 20
320.5920927462853
 30
0.0
 10
89.09325707514007
 20
320.5920927462853
 30
0.0
 10
89.04787081494068
 20
320.5920927462853
 30
0.0
  0
SPLINE
  5
EB
330
1F
100
AcDbEntity
  8
0
  6
Continuous
 62
     7
370
    25
100
AcDbSpline
210
0.0
220
0.0
230
1.0
 70
    24
 71
     3
 72
    11
 73
     7
 74
     0
 42
0.000000001
 43
0.00000001
 40
0.0
 40
0.0
 40
0.0
 40
0.0
 40
0.2590763273078309
 40
0.5181479786236166
 40
0.7772528486462701
 40
1.0
 40
1.0
 40
1.0
 40
1.0
 10
127.7816810013268
 20
320.5920927462853
 30
0.0
 10
127.7289170941067
 20
320.5920927462853
 30
0.0
 10
127.6233902319867
 20
320.5920927462853
 30
0.0
 10
127.5028825579702
 20
320.5920927462853
 30
0.0
 10
127.4276963585874
 20
320.5920927462853
 30
0.0
 10
127.4188600729438
 20
320.5920927462853
 30
0.0
 10
127.4147752971861
 20
320.5920927462853
 30
0.0
  0
LINE
  5
EC
330
1F
100
AcDbEntity
  8
0
  6
Continuous
 62
     7
370
    25
100
AcDbLine
 10
142.9772183598
 20
312.0920978723
 30
0.0
 11
136.103439361
 21
312.0920978723
 31
0.0
  0
LINE
  5
ED
330
1F
100
AcDbEntity
  8
0
  6
Continuous
 62
     7
370
    25
100
AcDbLine
 10
142.9772183598
 20
299.5920948921
 30
0.0
 11
137.1879589112
 21
299.5920948921
 31
0.0
  0
LINE
  5
EE
330
1F
100
AcDbEntity
  8
0
  6
Continuous
 62
     7
370
    25
100
AcDbLine
 10
176.2875534893
 20
445.092091733
 30
0.0
 11
176.2851693036
 21
440.5920900641
 31
0.0
  0
SPLINE
  5
EF
330
1F
100
AcDbEntity
  8
0
  6
Continuous
 62
     7
370
    25
100
AcDbSpline
210
0.0
220
0.0
230
1.0
 70
     8
 71
     3
 72
    12
 73
     8
 74
     0
 42
0.000000001
 43
0.00000001
 40
0.0
 40
0.0
 40
0.0
 40
0.0
 40
0.2141508138267478
 40
0.4283019882082752
 40
0.6425534131851006
 40
0.8571838588827188
 40
0.9999999999999999
 40
0.9999999999999999
 40
0.9999999999999999
 40
0.9999999999999999
 10
176.2851693035576
 20
440.5920900640763
 30
0.0
 10
176.2906575873184
 20
440.5359745956856
 30
0.0
 10
176.3016341640804
 20
440.4237435644254
 30
0.0
 10
176.3876320957063
 20
440.2741076401634
 30
0.0
 10
176.5143077311667
 20
440.1610471199946
 30
0.0
 10
176.6551696080095
 20
440.1007499384235
 30
0.0
 10
176.7485418639155
 20
440.0945669042628
 30
0.0
 10
176.7858483196709
 20
440.092096501378
 30
0.0
  0
LINE
  5
F0
330
1F
100
AcDbEntity
  8
0
  6
Continuous
 62
     7
370
    25
100
AcDbLine
 10
55.0193630458
 20
300.0920959053
 30
0.0
 11
55.0193630458
 21
312.0915241776
 31
0.0
  0
SPLINE
  5
F1
330
1F
100
AcDbEntity
  8
0
  6
Continuous
 62
     7
370
    25
100
AcDbSpline
210
0.0
220
0.0
230
1.0
 70
     8
 71
     3
 72
    13
 73
     9
 74
     0
 42
0.000000001
 43
0.00000001
 40
0.0
 40
0.0
 40
0.0
 40
0.0
 40
0.0048967246694433
 40
0.1302518539808659
 40
0.3642690584172082
 40
0.5817373544834117
 40
0.7907078246636637
 40
1.0
 40
1.0
 40
1.0
 40
1.0
 10
56.36212903275227
 20
311.6778828439988
 30
0.0
 10
56.36049059402614
 20
311.6788439758313
 30
0.0
 10
56.31690846594678
 20
311.7044098819327
 30
0.0
 10
56.18356280873509
 20
311.7758676434295
 30
0.0
 10
55.92978838322275
 20
311.8852589935827
 30
0.0
 10
55.60636643245044
 20
311.9903134590692
 30
0.0
 10
55.28697000309291
 20
312.066059062859
 30
0.0
 10
55.10861109295004
 20
312.0830314545883
 30
0.0
 10
55.01936304583287
 20
312.0915241775788
 30
0.0
  0
LINE
  5
F2
330
1F
100
AcDbEntity
  8
0
  6
Continuous
 62
     7
370
    25
100
AcDbLine
 10
56.3621290328
 20
311.677882844
 30
0.0
 11
56.3621290328
 21
300.0920959053
 31
0.0
  0
LINE
  5
F3
330
1F
100
AcDbEntity
  8
0
  6
Continuous
 62
     7
370
    25
100
AcDbLine
 10
56.3621290328
 20
300.0920959053
 30
0.0
 11
55.0193630458
 21
300.0920959053
 31
0.0
  0
LINE
  5
F4
330
1F
100
AcDbEntity
  8
0
  6
Continuous
 62
     7
370
    25
100
AcDbLine
 10
55.0193630458
 20
312.0915241776
 30
0.0
 11
54.9972869755
 21
312.0920978723
 31
0.0
  0
SPLINE
  5
F5
330
1F
100
AcDbEntity
  8
0
  6
Continuous
 62
     7
370
    25
100
AcDbSpline
210
0.0
220
0.0
230
1.0
 70
     8
 71
     3
 72
     9
 73
     5
 74
     0
 42
0.000000001
 43
0.00000001
 40
0.0
 40
0.0
 40
0.0
 40
0.0
 40
0.4557738998276693
 40
1.0
 40
1.0
 40
1.0
 40
1.0
 10
153.7936471702073
 20
323.387885862378
 30
0.0
 10
155.0154208643976
 20
321.6723183748575
 30
0.0
 10
157.6960783014563
 20
317.9082426167477
 30
0.0
 10
160.3745633619182
 20
314.1418610332387
 30
0.0
 10
161.8322648407433
 20
312.0920978722848
 30
0.0
  0
LINE
  5
F6
330
1F
100
AcDbEntity
  8
0
  6
Continuous
 62
     7
370
    25
100
AcDbLine
 10
161.8322648407
 20
312.0920978723
 30
0.0
 11
161.8101887704
 21
312.0915241776
 31
0.0
  0
SPLINE
  5
F7
330
1F
100
AcDbEntity
  8
0
  6
Continuous
 62
     7
370
    25
100
AcDbSpline
210
0.0
220
0.0
230
1.0
 70
     8
 71
     3
 72
    13
 73
     9
 74
     0
 42
0.000000001
 43
0.00000001
 40
0.0
 40
0.0
 40
0.0
 40
0.0
 40
0.2092921753363362
 40
0.4182626455165884
 40
0.6357309415827919
 40
0.8697481460191342
 40
0.9951032753305568
 40
1.0
 40
1.0
 40
1.0
 40
1.0
 10
161.8101887704346
 20
312.0915241775788
 30
0.0
 10
161.7209407233175
 20
312.0830314545883
 30
0.0
 10
161.5425818131745
 20
312.066059062859
 30
0.0
 10
161.2231853838171
 20
311.9903134590692
 30
0.0
 10
160.8997634330447
 20
311.8852589935827
 30
0.0
 10
160.6459890075325
 20
311.7758676434294
 30
0.0
 10
160.5126433503206
 20
311.7044098819327
 30
0.0
 10
160.4690612222414
 20
311.6788439758313
 30
0.0
 10
160.4674227835152
 20
311.6778828439988
 30
0.0
  0
SPLINE
  5
F8
330
1F
100
AcDbEntity
  8
0
  6
Continuous
 62
     7
370
    25
100
AcDbSpline
210
0.0
220
0.0
230
1.0
 70
     8
 71
     3
 72
     9
 73
     5
 74
     0
 42
0.000000001
 43
0.00000001
 40
0.0
 40
0.0
 40
0.0
 40
0.0
 40
0.5641613912301885
 40
1.0
 40
1.0
 40
1.0
 40
1.0
 10
160.4674227835152
 20
311.6778828439988
 30
0.0
 10
159.0804077847604
 20
313.6299854421047
 30
0.0
 10
156.6218648565916
 20
317.0901701134614
 30
0.0
 10
154.1619994471543
 20
320.5484744166186
 30
0.0
 10
153.0898951293442
 20
322.0557369528092
 30
0.0
  0
LINE
  5
F9
330
1F
100
AcDbEntity
  8
0
  6
Continuous
 62
     7
370
    25
100
AcDbLine
 10
160.4674227835
 20
300.0920959053
 30
0.0
 11
160.4674227835
 21
311.677882844
 31
0.0
  0
LINE
  5
FA
330
1F
100
AcDbEntity
  8
0
  6
Continuous
 62
     7
370
    25
100
AcDbLine
 10
161.8101887704
 20
312.0915241776
 30
0.0
 11
161.8101887704
 21
300.0920959053
 31
0.0
  0
LINE
  5
FB
330
1F
100
AcDbEntity
  8
0
  6
Continuous
 62
     7
370
    25
100
AcDbLine
 10
161.8101887704
 20
300.0920959053
 30
0.0
 11
160.4674227835
 21
300.0920959053
 31
0.0
  0
LINE
  5
FC
330
1F
100
AcDbEntity
  8
0
  6
Continuous
 62
     7
370
    25
100
AcDbLine
 10
43.5693480374
 20
312.0915241776
 30
0.0
 11
43.5693480374
 21
300.0920959053
 31
0.0
  0
LINE
  5
FD
330
1F
100
AcDbEntity
  8
0
  6
Continuous
 62
     7
370
    25
100
AcDbLine
 10
43.587527454
 20
312.0920978723
 30
0.0
 11
43.5693480374
 21
312.0915241776
 31
0.0
  0
LINE
  5
FE
330
1F
100
AcDbEntity
  8
0
  6
Continuous
 62
     7
370
    25
100
AcDbLine
 10
44.2361675502
 20
312.0920978723
 30
0.0
 11
43.587527454
 21
312.0920978723
 31
0.0
  0
LINE
  5
FF
330
1F
100
AcDbEntity
  8
0
  6
Continuous
 62
     7
370
    25
100
AcDbLine
 10
54.2197034062
 20
312.0920978723
 30
0.0
 11
44.2361675502
 21
312.0920978723
 31
0.0
  0
LINE
  5
100
330
1F
100
AcDbEntity
  8
0
  6
Continuous
 62
     7
370
    25
100
AcDbLine
 10
54.9972869755
 20
312.0920978723
 30
0.0
 11
54.2197034062
 21
312.0920978723
 31
0.0
  0
LINE
  5
101
330
1F
100
AcDbEntity
  8
0
  6
Continuous
 62
     7
370
    25
100
AcDbLine
 10
55.0193630458
 20
300.0920959053
 30
0.0
 11
43.5693480374
 21
300.0920959053
 31
0.0
  0
LINE
  5
102
330
1F
100
AcDbEntity
  8
0
  6
Continuous
 62
     7
370
    25
100
AcDbLine
 10
162.60984841
 20
312.0920978723
 30
0.0
 11
161.8322648407
 21
312.0920978723
 31
0.0
  0
LINE
  5
103
330
1F
100
AcDbEntity
  8
0
  6
Continuous
 62
     7
370
    25
100
AcDbLine
 10
172.593384266
 20
312.0920978723
 30
0.0
 11
162.60984841
 21
312.0920978723
 31
0.0
  0
LINE
  5
104
330
1F
100
AcDbEntity
  8
0
  6
Continuous
 62
     7
370
    25
100
AcDbLine
 10
173.2420243622
 20
312.0920978723
 30
0.0
 11
172.593384266
 21
312.0920978723
 31
0.0
  0
LINE
  5
105
330
1F
100
AcDbEntity
  8
0
  6
Continuous
 62
     7
370
    25
100
AcDbLine
 10
173.2602037789
 20
312.0915241776
 30
0.0
 11
173.2420243622
 21
312.0920978723
 31
0.0
  0
LINE
  5
106
330
1F
100
AcDbEntity
  8
0
  6
Continuous
 62
     7
370
    25
100
AcDbLine
 10
173.2602037789
 20
300.0920959053
 30
0.0
 11
173.2602037789
 21
312.0915241776
 31
0.0
  0
LINE
  5
107
330
1F
100
AcDbEntity
  8
0
  6
Continuous
 62
     7
370
    25
100
AcDbLine
 10
173.2602037789
 20
300.0920959053
 30
0.0
 11
161.8101887704
 21
300.0920959053
 31
0.0
  0
SPLINE
  5
108
330
1F
100
AcDbEntity
  8
0
  6
Continuous
 62
     7
370
    25
100
AcDbSpline
210
0.0
220
0.0
230
1.0
 70
     8
 71
     3
 72
     9
 73
     5
 74
     0
 42
0.000000001
 43
0.00000001
 40
0.0
 40
0.0
 40
0.0
 40
0.0
 40
0.503928960855395
 40
1.0
 40
1.0
 40
1.0
 40
1.0
 10
62.24705952419972
 20
323.387885862378
 30
0.0
 10
60.89822448011797
 20
321.4908997876859
 30
0.0
 10
58.22158719816426
 20
317.7265079347706
 30
0.0
 10
55.54665820935338
 20
313.9603698871366
 30
0.0
 10
54.21970340623593
 20
312.0920978722848
 30
0.0
  0
LINE
  5
109
330
1F
100
AcDbEntity
  8
0
  6
Continuous
 62
     7
370
    25
100
AcDbLine
 10
62.4981813432
 20
323.3878858624
 30
0.0
 11
62.2470595242
 21
323.3878858624
 31
0.0
  0
SPLINE
  5
10A
330
1F
100
AcDbEntity
  8
0
  6
Continuous
 62
     7
370
    25
100
AcDbSpline
210
0.0
220
0.0
230
1.0
 70
     8
 71
     3
 72
    10
 73
     6
 74
     0
 42
0.000000001
 43
0.00000001
 40
0.0
 40
0.0
 40
0.0
 40
0.0
 40
0.1249363086815382
 40
0.6246824552912471
 40
1.0
 40
1.0
 40
1.0
 40
1.0
 10
162.6098484100316
 20
312.0920978722848
 30
0.0
 10
162.275668652505
 20
312.5626417609221
 30
0.0
 10
160.6047674257651
 20
314.9153646385083
 30
0.0
 10
157.9293830613356
 20
318.6810399254805
 30
0.0
 10
155.5871033576665
 20
321.9750672679696
 30
0.0
 10
154.5824922920678
 20
323.387885862378
 30
0.0
  0
LINE
  5
10B
330
1F
100
AcDbEntity
  8
0
  6
Continuous
 62
     7
370
    25
100
AcDbLine
 10
63.5537423493
 20
300.0920959053
 30
0.0
 11
56.3621290328
 21
300.0920959053
 31
0.0
  0
LINE
  5
10C
330
1F
100
AcDbEntity
  8
0
  6
Continuous
 62
     7
370
    25
100
AcDbLine
 10
160.4674227835
 20
300.0920959053
 30
0.0
 11
153.275809467
 21
300.0920959053
 31
0.0
  0
SPLINE
  5
10D
330
1F
100
AcDbEntity
  8
0
  6
Continuous
 62
     7
370
    25
100
AcDbSpline
210
0.0
220
0.0
230
1.0
 70
     8
 71
     3
 72
    10
 73
     6
 74
     0
 42
0.000000001
 43
0.00000001
 40
0.0
 40
0.0
 40
0.0
 40
0.0
 40
0.360481642423087
 40
0.7344223174276521
 40
0.9999999999999999
 40
0.9999999999999999
 40
0.9999999999999999
 40
0.9999999999999999
 10
61.7442831696484
 20
323.0523936686791
 30
0.0
 10
61.79246932312989
 20
323.1190097856041
 30
0.0
 10
61.89064072034704
 20
323.2547292154235
 30
0.0
 10
62.07202930775917
 20
323.3677237006284
 30
0.0
 10
62.1957013067284
 20
323.3819697828068
 30
0.0
 10
62.24705952419972
 20
323.387885862378
 30
0.0
  0
LINE
  5
10E
330
1F
100
AcDbEntity
  8
0
  6
Continuous
 62
     7
370
    25
100
AcDbLine
 10
61.5335956515
 20
329.3328307805
 30
0.0
 11
62.4860480727
 21
380.5920876799
 31
0.0
  0
LINE
  5
10F
330
1F
100
AcDbEntity
  8
0
  6
Continuous
 62
     7
370
    25
100
AcDbLine
 10
53.0483156742
 20
329.3328307805
 30
0.0
 11
52.9091723563
 21
321.8439467488
 31
0.0
  0
SPLINE
  5
110
330
1F
100
AcDbEntity
  8
0
  6
Continuous
 62
     7
370
    25
100
AcDbSpline
210
0.0
220
0.0
230
1.0
 70
     8
 71
     3
 72
    12
 73
     8
 74
     0
 42
0.000000001
 43
0.00000001
 40
0.0
 40
0.0
 40
0.0
 40
0.0
 40
0.1335158319554074
 40
0.2661843059583981
 40
0.4652418922487573
 40
0.7456233737711845
 40
1.0
 40
1.0
 40
1.0
 40
1.0
 10
52.25033986582493
 20
323.387885862378
 30
0.0
 10
52.30867445007473
 20
323.3770090283551
 30
0.0
 10
52.4249733982556
 20
323.3553243901139
 30
0.0
 10
52.5993299777754
 20
323.1817938800228
 30
0.0
 10
52.7716300357588
 20
322.8610529861984
 30
0.0
 10
52.89398076851407
 20
322.3864270993905
 30
0.0
 10
52.90427536634613
 20
322.0188146330989
 30
0.0
 10
52.90917235626912
 20
321.8439467487611
 30
0.0
  0
LINE
  5
111
330
1F
100
AcDbEntity
  8
0
  6
Continuous
 62
     7
370
    25
100
AcDbLine
 10
52.2503398658
 20
323.3878858624
 30
0.0
 11
51.6110800506
 21
323.3878858624
 31
0.0
  0
SPLINE
  5
112
330
1F
100
AcDbEntity
  8
0
  6
Continuous
 62
     7
370
    25
100
AcDbSpline
210
0.0
220
0.0
230
1.0
 70
     8
 71
     3
 72
    10
 73
     6
 74
     0
 42
0.000000001
 43
0.00000001
 40
0.0
 40
0.0
 40
0.0
 40
0.0
 40
0.217057728688609
 40
0.6647048767323829
 40
1.0
 40
1.0
 40
1.0
 40
1.0
 10
51.29650163664555
 20
323.1713496384896
 30
0.0
 10
51.3143029660854
 20
323.200905152533
 30
0.0
 10
51.36881671485844
 20
323.2914142278729
 30
0.0
 10
51.481232192573
 20
323.3696994117582
 30
0.0
 10
51.57214614106763
 20
323.3824327911144
 30
0.0
 10
51.61108005060887
 20
323.387885862378
 30
0.0
  0
LINE
  5
113
330
1F
100
AcDbEntity
  8
0
  6
Continuous
 62
     7
370
    25
100
AcDbLine
 10
52.3429245056
 20
440.0920965014
 30
0.0
 11
64.5318806471
 21
440.0920965014
 31
0.0
  0
LINE
  5
114
330
1F
100
AcDbEntity
  8
0
  6
Continuous
 62
     7
370
    25
100
AcDbLine
 10
61.4082806112
 20
322.5880585847
 30
0.0
 11
61.5335956515
 21
329.3328307805
 31
0.0
  0
LINE
  5
115
330
1F
100
AcDbEntity
  8
0
  6
Continuous
 62
     7
370
    25
100
AcDbLine
 10
163.7812361421
 20
329.3328307805
 30
0.0
 11
163.7812361421
 21
315.1897140084
 31
0.0
  0
LINE
  5
116
330
1F
100
AcDbEntity
  8
0
  6
Continuous
 62
     7
370
    25
100
AcDbLine
 10
53.0483156742
 20
380.5920876799
 30
0.0
 11
53.0483156742
 21
329.3328307805
 31
0.0
  0
LINE
  5
117
330
1F
100
AcDbEntity
  8
0
  6
Continuous
 62
     7
370
    25
100
AcDbLine
 10
61.5335956515
 20
380.5920876799
 30
0.0
 11
53.0483156742
 21
380.5920876799
 31
0.0
  0
LINE
  5
118
330
1F
100
AcDbEntity
  8
0
  6
Continuous
 62
     7
370
    25
100
AcDbLine
 10
61.5335956515
 20
329.3328307805
 30
0.0
 11
61.5335956515
 21
380.5920876799
 31
0.0
  0
LINE
  5
119
330
1F
100
AcDbEntity
  8
0
  6
Continuous
 62
     7
370
    25
100
AcDbLine
 10
53.0483156742
 20
315.1897140084
 30
0.0
 11
53.0483156742
 21
329.3328307805
 31
0.0
  0
LINE
  5
11A
330
1F
100
AcDbEntity
  8
0
  6
Continuous
 62
     7
370
    25
100
AcDbLine
 10
62.4860480727
 20
380.5920876799
 30
0.0
 11
61.5335956515
 21
380.5920876799
 31
0.0
  0
SPLINE
  5
11B
330
1F
100
AcDbEntity
  8
0
  6
Continuous
 62
     7
370
    25
100
AcDbSpline
210
0.0
220
0.0
230
1.0
 70
     8
 71
     3
 72
     9
 73
     5
 74
     0
 42
0.000000001
 43
0.00000001
 40
0.0
 40
0.0
 40
0.0
 40
0.0
 40
0.497875141849257
 40
1.0
 40
1.0
 40
1.0
 40
1.0
 10
52.90917235626912
 20
321.8439467487611
 30
0.0
 10
51.75987946058186
 20
320.2258589864435
 30
0.0
 10
49.45148364186628
 20
316.9758719388729
 30
0.0
 10
47.14397282269352
 20
313.7246281823449
 30
0.0
 10
45.98531427993512
 20
312.0920978722848
 30
0.0
  0
SPLINE
  5
11C
330
1F
100
AcDbEntity
  8
0
  6
Continuous
 62
     7
370
    25
100
AcDbSpline
210
0.0
220
0.0
230
1.0
 70
     8
 71
     3
 72
    10
 73
     6
 74
     0
 42
0.000000001
 43
0.00000001
 40
0.0
 40
0.0
 40
0.0
 40
0.0
 40
0.1249363086815382
 40
0.6246824552912471
 40
1.0
 40
1.0
 40
1.0
 40
1.0
 10
44.23616755022739
 20
312.0920978722848
 30
0.0
 10
44.56986699952409
 20
312.5626417609221
 30
0.0
 10
46.23836668160884
 20
314.9153646385083
 30
0.0
 10
48.90957792392938
 20
318.6810399254805
 30
0.0
 10
51.24756844430834
 20
321.9750672679696
 30
0.0
 10
52.25033986582493
 20
323.387885862378
 30
0.0
  0
SPLINE
  5
11D
330
1F
100
AcDbEntity
  8
0
  6
Continuous
 62
     7
370
    25
100
AcDbSpline
210
0.0
220
0.0
230
1.0
 70
     8
 71
     3
 72
     9
 73
     5
 74
     0
 42
0.000000001
 43
0.00000001
 40
0.0
 40
0.0
 40
0.0
 40
0.0
 40
0.5021248581507429
 40
1.0
 40
1.0
 40
1.0
 40
1.0
 10
170.8442375363324
 20
312.0920978722848
 30
0.0
 10
169.685578993574
 20
313.7246281823449
 30
0.0
 10
167.3780681744012
 20
316.9758719388729
 30
0.0
 10
165.0696723556856
 20
320.2258589864436
 30
0.0
 10
163.9203794599984
 20
321.8439467487611
 30
0.0
  0
SPLINE
  5
11E
330
1F
100
AcDbEntity
  8
0
  6
Continuous
 62
     7
370
    25
100
AcDbSpline
210
0.0
220
0.0
230
1.0
 70
     8
 71
     3
 72
     9
 73
     5
 74
     0
 42
0.000000001
 43
0.00000001
 40
0.0
 40
0.0
 40
0.0
 40
0.0
 40
0.503928960855395
 40
1.0
 40
1.0
 40
1.0
 40
1.0
 10
164.5792119504426
 20
323.387885862378
 30
0.0
 10
165.9255916355724
 20
321.4908997876859
 30
0.0
 10
168.5973564868015
 20
317.7265079347706
 30
0.0
 10
171.2683712145001
 20
313.9603698871366
 30
0.0
 10
172.5933842660401
 20
312.0920978722848
 30
0.0
  0
SPLINE
  5
11F
330
1F
100
AcDbEntity
  8
0
  6
Continuous
 62
     7
370
    25
100
AcDbSpline
210
0.0
220
0.0
230
1.0
 70
     8
 71
     3
 72
     9
 73
     5
 74
     0
 42
0.000000001
 43
0.00000001
 40
0.0
 40
0.0
 40
0.0
 40
0.0
 40
0.4557738998276693
 40
1.0
 40
1.0
 40
1.0
 40
1.0
 10
51.61108005060887
 20
323.387885862378
 30
0.0
 10
50.39185382354353
 20
321.6723183748575
 30
0.0
 10
47.71678570857176
 20
317.9082426167477
 30
0.0
 10
45.04278722216414
 20
314.1418610332387
 30
0.0
 10
43.58752745403981
 20
312.0920978722848
 30
0.0
  0
SPLINE
  5
120
330
1F
100
AcDbEntity
  8
0
  6
Continuous
 62
     7
370
    25
100
AcDbSpline
210
0.0
220
0.0
230
1.0
 70
     8
 71
     3
 72
     9
 73
     5
 74
     0
 42
0.000000001
 43
0.00000001
 40
0.0
 40
0.0
 40
0.0
 40
0.0
 40
0.5442261001723308
 40
1.0
 40
1.0
 40
1.0
 40
1.0
 10
173.2420243622277
 20
312.0920978722848
 30
0.0
 10
171.7867645941033
 20
314.1418610332387
 30
0.0
 10
169.1127661076957
 20
317.9082426167477
 30
0.0
 10
166.4376979927239
 20
321.6723183748575
 30
0.0
 10
165.2184717656586
 20
323.387885862378
 30
0.0
  0
SPLINE
  5
121
330
1F
100
AcDbEntity
  8
0
  6
Continuous
 62
     7
370
    25
100
AcDbSpline
210
0.0
220
0.0
230
1.0
 70
     8
 71
     3
 72
    10
 73
     6
 74
     0
 42
0.000000001
 43
0.00000001
 40
0.0
 40
0.0
 40
0.0
 40
0.0
 40
0.4598800783327611
 40
0.9190532702654827
 40
1.0
 40
1.0
 40
1.0
 40
1.0
 10
43.56934803738331
 20
312.0915241775788
 30
0.0
 10
43.5106632987341
 20
312.0826295475496
 30
0.0
 10
43.39338402635126
 20
312.0648539595185
 30
0.0
 10
43.33119685854322
 20
312.0149955078003
 30
0.0
 10
43.34618467673215
 20
311.975752388158
 30
0.0
 10
43.34843087210393
 20
311.9698710975923
 30
0.0
  0
SPLINE
  5
122
330
1F
100
AcDbEntity
  8
0
  6
Continuous
 62
     7
370
    25
100
AcDbSpline
210
0.0
220
0.0
230
1.0
 70
     8
 71
     3
 72
    10
 73
     6
 74
     0
 42
0.000000001
 43
0.00000001
 40
0.0
 40
0.0
 40
0.0
 40
0.0
 40
0.0809467297345175
 40
0.5401199216672391
 40
1.0
 40
1.0
 40
1.0
 40
1.0
 10
173.4811209441636
 20
311.9698710975923
 30
0.0
 10
173.4833671395353
 20
311.975752388158
 30
0.0
 10
173.4983549577242
 20
312.0149955078002
 30
0.0
 10
173.4361677899162
 20
312.0648539595186
 30
0.0
 10
173.3188885175334
 20
312.0826295475496
 30
0.0
 10
173.2602037788842
 20
312.0915241775788
 30
0.0
  0
LINE
  5
123
330
1F
100
AcDbEntity
  8
0
  6
Continuous
 62
     7
370
    25
100
AcDbLine
 10
43.5693480374
 20
300.0920959053
 30
0.0
 11
43.3413155676
 21
300.0920959053
 31
0.0
  0
LINE
  5
124
330
1F
100
AcDbEntity
  8
0
  6
Continuous
 62
     7
370
    25
100
AcDbLine
 10
173.4882362486
 20
300.0920959053
 30
0.0
 11
173.2602037789
 21
300.0920959053
 31
0.0
  0
SPLINE
  5
125
330
1F
100
AcDbEntity
  8
0
  6
Continuous
 62
     7
370
    25
100
AcDbSpline
210
0.0
220
0.0
230
1.0
 70
     8
 71
     3
 72
    13
 73
     9
 74
     0
 42
0.000000001
 43
0.00000001
 40
0.0
 40
0.0
 40
0.0
 40
0.0
 40
0.1452322773836474
 40
0.2898522055662148
 40
0.4891109601363916
 40
0.7580612531561863
 40
0.9966120409315374
 40
1.0
 40
1.0
 40
1.0
 40
1.0
 10
187.9872896076653
 20
312.0920978722848
 30
0.0
 10
187.9803826966174
 20
312.0012153681985
 30
0.0
 10
187.9665979964326
 20
311.8198335519016
 30
0.0
 10
187.8547533487942
 20
311.5534292419755
 30
0.0
 10
187.6551438200003
 20
311.2996316014279
 30
0.0
 10
187.3703029376383
 20
311.1307048524565
 30
0.0
 10
187.1513419257984
 20
311.0921897900669
 30
0.0
 10
187.0477689030834
 20
311.0920971430971
 30
0.0
 10
187.0463185311768
 20
311.0920958457269
 30
0.0
  0
LINE
  5
126
330
1F
100
AcDbEntity
  8
0
  6
Continuous
 62
     7
370
    25
100
AcDbLine
 10
187.0463185312
 20
311.0920958457
 30
0.0
 11
173.4882362486
 21
311.0920958457
 31
0.0
  0
LINE
  5
127
330
1F
100
AcDbEntity
  8
0
  6
Continuous
 62
     7
370
    25
100
AcDbLine
 10
187.9890255929
 20
315.0920965014
 30
0.0
 11
171.2957017423
 21
315.0920965014
 31
0.0
  0
LINE
  5
128
330
1F
100
AcDbEntity
  8
0
  6
Continuous
 62
     7
370
    25
100
AcDbLine
 10
187.9890255929
 20
315.0920965014
 30
0.0
 11
187.9872896077
 21
312.1008225022
 31
0.0
  0
LINE
  5
129
330
1F
100
AcDbEntity
  8
0
  6
Continuous
 62
     7
370
    25
100
AcDbLine
 10
187.9872896077
 20
312.0920978723
 30
0.0
 11
187.9872896077
 21
312.1008225022
 31
0.0
  0
SPLINE
  5
12A
330
1F
100
AcDbEntity
  8
0
  6
Continuous
 62
     7
370
    25
100
AcDbSpline
210
0.0
220
0.0
230
1.0
 70
     8
 71
     3
 72
    12
 73
     8
 74
     0
 42
0.000000001
 43
0.00000001
 40
0.0
 40
0.0
 40
0.0
 40
0.0
 40
0.1340691319985529
 40
0.3523321533193778
 40
0.5686533902679389
 40
0.784243544782699
 40
1.0
 40
1.0
 40
1.0
 40
1.0
 10
173.0009012223694
 20
315.092096501378
 30
0.0
 10
172.813023181591
 20
315.10472030059
 30
0.0
 10
172.3192818282898
 20
315.1378955012727
 30
0.0
 10
171.5623190379613
 20
315.4752153345446
 30
0.0
 10
170.8637117425004
 20
316.134393409837
 30
0.0
 10
170.3816130635216
 20
317.0133588683923
 30
0.0
 10
170.3086162202067
 20
317.6800779481707
 30
0.0
 10
170.2721037270043
 20
318.0135660109796
 30
0.0
  0
SPLINE
  5
12B
330
1F
100
AcDbEntity
  8
0
  6
Continuous
 62
     7
370
    25
100
AcDbSpline
210
0.0
220
0.0
230
1.0
 70
    24
 71
     3
 72
    10
 73
     6
 74
     0
 42
0.000000001
 43
0.00000001
 40
0.0
 40
0.0
 40
0.0
 40
0.0
 40
0.3604117436164317
 40
0.7208289647325568
 40
1.0
 40
1.0
 40
1.0
 40
1.0
 10
50.73242190494275
 20
440.092096501378
 30
0.0
 10
50.95679744033798
 20
440.092096501378
 30
0.0
 10
51.40555192116421
 20
440.092096501378
 30
0.0
 10
51.96800911871874
 20
440.092096501378
 30
0.0
 10
52.22900400690531
 20
440.092096501378
 30
0.0
 10
52.34292450561261
 20
440.092096501378
 30
0.0
  0
LWPOLYLINE
  5
12C
330
1F
100
AcDbEntity
  8
0
  6
Continuous
 62
     7
370
    25
100
AcDbPolyline
 90
        6
 70
   128
 43
0.0
 10
34.289009154
 20
311.0920958457
 10
34.3239151241
 20
315.0917910276
 10
34.4635315539
 20
331.090571755
 10
35.0220121743
 20
395.0857021151
 10
35.2458574177
 20
420.7362182675
 10
35.414776981
 20
440.0920965014
  0
LWPOLYLINE
  5
12D
330
1F
100
AcDbEntity
  8
0
  6
Continuous
 62
     7
370
    25
100
AcDbPolyline
 90
        6
 70
   128
 43
0.0
 10
37.4146990777
 20
440.0920965014
 10
37.3797931077
 20
436.0924013195
 10
37.2401766778
 20
420.0936205921
 10
36.6816960575
 20
356.098490232
 10
36.3388575913
 20
316.8126292763
 10
36.2889312507
 20
311.0920958457
  0
SPLINE
  5
12E
330
1F
100
AcDbEntity
  8
0
  6
Continuous
 62
     7
370
    25
100
AcDbSpline
210
0.0
220
0.0
230
1.0
 70
    24
 71
     3
 72
    12
 73
     8
 74
     0
 42
0.000000001
 43
0.00000001
 40
0.0
 40
0.0
 40
0.0
 40
0.0
 40
0.2146971189508962
 40
0.4293956197269613
 40
0.6440850146260303
 40
0.8587703021939848
 40
0.9999999999999999
 40
0.9999999999999999
 40
0.9999999999999999
 40
0.9999999999999999
 10
36.28893125071263
 20
311.0920958457269
 30
0.0
 10
36.06408768551307
 20
311.0920958457269
 30
0.0
 10
35.61439910798462
 20
311.0920958457269
 30
0.0
 10
35.01506480633073
 20
311.0920958457269
 30
0.0
 10
34.56278975403026
 20
311.0920958457269
 30
0.0
 10
34.32314267706411
 20
311.0920958457269
 30
0.0
 10
34.29870586263348
 20
311.0920958457269
 30
0.0
 10
34.28900915398335
 20
311.0920958457269
 30
0.0
  0
SPLINE
  5
12F
330
1F
100
AcDbEntity
  8
0
  6
Continuous
 62
     7
370
    25
100
AcDbSpline
210
0.0
220
0.0
230
1.0
 70
    24
 71
     3
 72
    12
 73
     8
 74
     0
 42
0.000000001
 43
0.00000001
 40
0.0
 40
0.0
 40
0.0
 40
0.0
 40
0.2146981946563306
 40
0.4293971743423586
 40
0.6440855812132621
 40
0.8587714191502084
 40
0.9999999999999999
 40
0.9999999999999999
 40
0.9999999999999999
 40
0.9999999999999999
 10
35.41477698101733
 20
440.092096501378
 30
0.0
 10
35.43688297447245
 20
440.092096501378
 30
0.0
 10
35.48109504221175
 20
440.092096501378
 30
0.0
 10
35.82590923994985
 20
440.092096501378
 30
0.0
 10
36.33338292059211
 20
440.092096501378
 30
0.0
 10
36.89570312372339
 20
440.092096501378
 30
0.0
 10
37.26726250093255
 20
440.092096501378
 30
0.0
 10
37.41469907774663
 20
440.092096501378
 30
0.0
  0
SPLINE
  5
130
330
1F
100
AcDbEntity
  8
0
  6
Continuous
 62
     7
370
    25
100
AcDbSpline
210
0.0
220
0.0
230
1.0
 70
    11
 71
     3
 72
    26
 73
    22
 74
     0
 42
0.000000001
 43
0.00000001
 40
0.0
 40
0.0
 40
0.0
 40
0.0
 40
0.0536862544028968
 40
0.107372102261736
 40
0.1610592115582992
 40
0.2147484592181903
 40
0.2684392060640204
 40
0.3221314651600034
 40
0.3758224406321816
 40
0.4295118504457466
 40
0.4832000093794858
 40
0.536885965220257
 40
0.5905719346048176
 40
0.6442585511175661
 40
0.6979467920941612
 40
0.7516375312131537
 40
0.8053285835055499
 40
0.8590203621581165
 40
0.9127106184173275
 40
0.9663990132165382
 40
1.0
 40
1.0
 40
1.0
 40
1.0
 10
43.41477829231953
 20
414.5920969782151
 30
0.0
 10
43.13366577134916
 20
414.6197370634566
 30
0.0
 10
42.57144285815865
 20
414.6750170246322
 30
0.0
 10
41.82318052924132
 20
415.1059373164189
 30
0.0
 10
41.25434463107222
 20
415.740541644866
 30
0.0
 10
40.92907122524958
 20
416.5329548853398
 30
0.0
 10
40.88402514165698
 20
417.3869729164103
 30
0.0
 10
41.12432270426609
 20
418.2081501742467
 30
0.0
 10
41.62288240224042
 20
418.9033812166226
 30
0.0
 10
42.32346036110734
 20
419.3944117852804
 30
0.0
 10
43.14705703798105
 20
419.6258760715248
 30
0.0
 10
44.00082859522472
 20
419.5716572346062
 30
0.0
 10
44.78850516734725
 20
419.2378949972177
 30
0.0
 10
45.42133294320695
 20
418.6622479570837
 30
0.0
 10
45.8279527067182
 20
417.9095850108089
 30
0.0
 10
45.96250562033919
 20
417.0646606480446
 30
0.0
 10
45.80983216964241
 20
416.2231108233397
 30
0.0
 10
45.38702404875968
 20
415.4784150373432
 30
0.0
 10
44.742199188837
 20
414.9198394123708
 30
0.0
 10
44.04565799254743
 20
414.6316575219274
 30
0.0
 10
43.59012874211807
 20
414.6030926706296
 30
0.0
 10
43.41477829231953
 20
414.5920969782151
 30
0.0
  0
LINE
  5
131
330
1F
100
AcDbEntity
  8
0
  6
Continuous
 62
     7
370
    25
100
AcDbLine
 10
43.3413155676
 20
311.0920958457
 30
0.0
 11
36.2889312507
 21
311.0920958457
 31
0.0
  0
LINE
  5
132
330
1F
100
AcDbEntity
  8
0
  6
Continuous
 62
     7
370
    25
100
AcDbLine
 10
37.4146990777
 20
440.0920965014
 30
0.0
 11
50.7324219049
 21
440.0920965014
 31
0.0
  0
SPLINE
  5
133
330
1F
100
AcDbEntity
  8
0
  6
Continuous
 62
     7
370
    25
100
AcDbSpline
210
0.0
220
0.0
230
1.0
 70
     8
 71
     3
 72
     9
 73
     5
 74
     0
 42
0.000000001
 43
0.00000001
 40
0.0
 40
0.0
 40
0.0
 40
0.0
 40
0.6289829763380729
 40
1.0
 40
1.0
 40
1.0
 40
1.0
 10
176.7648004294846
 20
315.5986167726792
 30
0.0
 10
176.7623395759064
 20
315.4862739704315
 30
0.0
 10
176.7584271431845
 20
315.3076637274297
 30
0.0
 10
176.7202367781914
 20
315.1504321086158
 30
0.0
 10
176.7060675026391
 20
315.092096501378
 30
0.0
  0
SPLINE
  5
134
330
1F
100
AcDbEntity
  8
0
  6
Continuous
 62
     7
370
    25
100
AcDbSpline
210
0.0
220
0.0
230
1.0
 70
     8
 71
     3
 72
    12
 73
     8
 74
     0
 42
0.000000001
 43
0.00000001
 40
0.0
 40
0.0
 40
0.0
 40
0.0
 40
0.1448817421466593
 40
0.3612639649098421
 40
0.5751610369924622
 40
0.7877284913075243
 40
0.9999999999999999
 40
0.9999999999999999
 40
0.9999999999999999
 40
0.9999999999999999
 10
175.8536018730614
 20
315.092096501378
 30
0.0
 10
175.876008339202
 20
315.0945426199515
 30
0.0
 10
175.9318790698932
 20
315.1006420392534
 30
0.0
 10
176.0138944140227
 20
315.1601403707822
 30
0.0
 10
176.0851090702833
 20
315.2722317958587
 30
0.0
 10
176.1301781061649
 20
315.4210249770279
 30
0.0
 10
176.1316962232734
 20
315.5327498617962
 30
0.0
 10
176.1324547530625
 20
315.5885733900346
 30
0.0
  0
ARC
  5
135
330
1F
100
AcDbEntity
  8
0
  6
Continuous
 62
     7
370
    25
100
AcDbCircle
 10
176.7836693815
 20
294.4988867587
 30
0.0
 40
21.09973845101846
100
AcDbArc
 50
90.051238145
 51
91.7686368979
  0
LWPOLYLINE
  5
136
330
1F
100
AcDbEntity
  8
0
  6
Continuous
 62
     7
370
    25
100
AcDbPolyline
 90
        9
 70
   128
 43
0.0
 10
173.2003905179
 20
315.5881412564
 10
173.1962852479
 20
315.4911570487
 10
173.1847517492
 20
315.3980173407
 10
173.1662221552
 20
315.312261158
 10
173.1414042713
 20
315.2371444044
 10
173.111244321
 20
315.1755355535
 10
173.0768822433
 20
315.129781538
 10
173.0396293403
 20
315.1016034422
 10
173.0009012224
 20
315.0920965014
  0
LWPOLYLINE
  5
137
330
1F
100
AcDbEntity
  8
0
  6
Continuous
 62
     7
370
    25
100
AcDbPolyline
 90
        3
 70
   128
 43
0.0
 10
173.2003905179
 20
315.5881412564
 10
174.1173409225
 20
315.5882753668
 10
176.1324547531
 20
315.58857339
  0
LWPOLYLINE
  5
138
330
1F
100
AcDbEntity
  8
0
  6
Continuous
 62
     7
370
    25
100
AcDbPolyline
 90
        5
 70
   128
 43
0.0
 10
174.0888051988
 20
440.0920965014
 10
174.2232285739
 20
433.8375427065
 10
175.3527365924
 20
381.2869139252
 10
176.4823787214
 20
328.7362776933
 10
176.7648004295
 20
315.5986167727
  0
LWPOLYLINE
  5
139
330
1F
100
AcDbEntity
  8
0
  6
Continuous
 62
     7
370
    25
100
AcDbPolyline
 90
        7
 70
   128
 43
0.0
 10
176.1324547531
 20
315.58857339
 10
176.1108406188
 20
316.588195437
 10
176.0243840815
 20
320.5866761742
 10
175.6785579325
 20
336.5806065736
 10
174.2952607872
 20
400.5563207207
 10
173.5758774282
 20
433.827052289
 10
173.4404184224
 20
440.0920965014
  0
SPLINE
  5
13A
330
1F
100
AcDbEntity
  8
0
  6
Continuous
 62
     7
370
    25
100
AcDbSpline
210
0.0
220
0.0
230
1.0
 70
    24
 71
     3
 72
    12
 73
     8
 74
     0
 42
0.000000001
 43
0.00000001
 40
0.0
 40
0.0
 40
0.0
 40
0.0
 40
0.2260787617724729
 40
0.4521606425667546
 40
0.6781809065352792
 40
0.9041206566657741
 40
1.0
 40
1.0
 40
1.0
 40
1.0
 10
173.4404184223626
 20
440.092096501378
 30
0.0
 10
173.4935602340929
 20
440.092096501378
 30
0.0
 10
173.5998445907071
 20
440.092096501378
 30
0.0
 10
173.7722325793535
 20
440.0920965013779
 30
0.0
 10
173.9291047207304
 20
440.0920965013779
 30
0.0
 10
174.0331798304245
 20
440.092096501378
 30
0.0
 10
174.0760368393341
 20
440.092096501378
 30
0.0
 10
174.0888051988099
 20
440.092096501378
 30
0.0
  0
SPLINE
  5
13B
330
1F
100
AcDbEntity
  8
0
  6
Continuous
 62
     7
370
    25
100
AcDbSpline
210
0.0
220
0.0
230
1.0
 70
     8
 71
     3
 72
    12
 73
     8
 74
     0
 42
0.000000001
 43
0.00000001
 40
0.0
 40
0.0
 40
0.0
 40
0.0
 40
0.2154547060180209
 40
0.4308624672893607
 40
0.6472164457634848
 40
0.8657198456707149
 40
1.0
 40
1.0
 40
1.0
 40
1.0
 10
170.8963319958661
 20
318.0223725972451
 30
0.0
 10
170.9269760574117
 20
317.7444436345207
 30
0.0
 10
170.9882575035651
 20
317.1886462661373
 30
0.0
 10
171.3954296620903
 20
316.4561196180645
 30
0.0
 10
171.9855524953181
 20
315.9070148260369
 30
0.0
 10
172.6247857682309
 20
315.6262167477303
 30
0.0
 10
173.0417002002355
 20
315.5986384105668
 30
0.0
 10
173.2003905178521
 20
315.58814125636
 30
0.0
  0
LWPOLYLINE
  5
13C
330
1F
100
AcDbEntity
  8
0
  6
Continuous
 62
     7
370
    25
100
AcDbPolyline
 90
        5
 70
   128
 43
0.0
 10
168.5056530239
 20
440.0920965014
 10
168.7631078364
 20
426.9560225544
 10
169.7924614252
 20
374.4116969643
 10
170.6392161848
 20
331.1603613434
 10
170.8963319959
 20
318.0223725972
  0
LINE
  5
13D
330
1F
100
AcDbEntity
  8
0
  6
Continuous
 62
     7
370
    25
100
AcDbLine
 10
168.5056530239
 20
440.0920965014
 30
0.0
 11
173.4404184224
 21
440.0920965014
 31
0.0
  0
LWPOLYLINE
  5
13E
330
1F
100
AcDbEntity
  8
0
  6
Continuous
 62
     7
370
    25
100
AcDbPolyline
 90
        5
 70
   128
 43
0.0
 10
177.5510080458
 20
315.5986167727
 10
177.2160522939
 20
328.7362776933
 10
175.8761398794
 20
381.2869139252
 10
174.5361082555
 20
433.8375427065
 10
174.3766136767
 20
440.0920965014
  0
SPLINE
  5
13F
330
1F
100
AcDbEntity
  8
0
  6
Continuous
 62
     7
370
    25
100
AcDbSpline
210
0.0
220
0.0
230
1.0
 70
     8
 71
     3
 72
     9
 73
     5
 74
     0
 42
0.000000001
 43
0.00000001
 40
0.0
 40
0.0
 40
0.0
 40
0.0
 40
0.3710161159981052
 40
1.0
 40
1.0
 40
1.0
 40
1.0
 10
177.6335455776665
 20
315.092096501378
 30
0.0
 10
177.6166362221189
 20
315.1504321576297
 30
0.0
 10
177.5710604241456
 20
315.3076642932063
 30
0.0
 10
177.5587506778499
 20
315.4862740893684
 30
0.0
 10
177.5510080458138
 20
315.5986167726792
 30
0.0
  0
LINE
  5
140
330
1F
100
AcDbEntity
  8
0
  6
Continuous
 62
     7
370
    25
100
AcDbLine
 10
174.0888051988
 20
440.0920965014
 30
0.0
 11
174.3766136767
 21
440.0920965014
 31
0.0
  0
ARC
  5
141
330
1F
100
AcDbEntity
  8
0
  6
Continuous
 62
     7
370
    25
100
AcDbCircle
 10
170.2940820904
 20
338.583367135
 30
0.0
 40
20.56981286571151
100
AcDbArc
 50
269.9387807895
 51
271.6777648807
  0
SPLINE
  5
142
330
1F
100
AcDbEntity
  8
0
  6
Continuous
 62
     7
370
    25
100
AcDbSpline
210
0.0
220
0.0
230
1.0
 70
    24
 71
     3
 72
    12
 73
     8
 74
     0
 42
0.000000001
 43
0.00000001
 40
0.0
 40
0.0
 40
0.0
 40
0.0
 40
0.2296617875512941
 40
0.4593318094282546
 40
0.6890165612528735
 40
0.9187679071736125
 40
1.0
 40
1.0
 40
1.0
 40
1.0
 10
167.8635359109852
 20
440.092096501378
 30
0.0
 10
167.8975303923554
 20
440.092096501378
 30
0.0
 10
167.9655205739387
 20
440.092096501378
 30
0.0
 10
168.1170885516905
 20
440.092096501378
 30
0.0
 10
168.2843776920753
 20
440.092096501378
 30
0.0
 10
168.417938017819
 20
440.092096501378
 30
0.0
 10
168.4874862942449
 20
440.092096501378
 30
0.0
 10
168.5056530238602
 20
440.092096501378
 30
0.0
  0
ARC
  5
143
330
1F
100
AcDbEntity
  8
0
  6
Continuous
 62
     7
370
    25
100
AcDbCircle
 10
177.9633121358
 20
315.4727681689
 30
0.0
 40
0.5989374646835588
100
AcDbArc
 50
320.5371094221
 51
11.1062848932
  0
LWPOLYLINE
  5
144
330
1F
100
AcDbEntity
  8
0
  6
Continuous
 62
     7
370
    25
100
AcDbPolyline
 90
        3
 70
   128
 43
0.0
 10
178.5510324241
 20
315.5881412564
 10
179.5191161634
 20
315.5882753668
 10
181.6465847494
 20
315.58857339
  0
SPLINE
  5
145
330
1F
100
AcDbEntity
  8
0
  6
Continuous
 62
     7
370
    25
100
AcDbSpline
210
0.0
220
0.0
230
1.0
 70
     8
 71
     3
 72
    12
 73
     8
 74
     0
 42
0.000000001
 43
0.00000001
 40
0.0
 40
0.0
 40
0.0
 40
0.0
 40
0.1448781336212767
 40
0.3612613126994964
 40
0.575157735573745
 40
0.787726755728202
 40
1.0
 40
1.0
 40
1.0
 40
1.0
 10
181.4374842049096
 20
315.092096501378
 30
0.0
 10
181.454813140248
 20
315.0945427401234
 30
0.0
 10
181.4980237599017
 20
315.1006425662205
 30
0.0
 10
181.5607300542582
 20
315.1601398209696
 30
0.0
 10
181.6143472981643
 20
315.272232666081
 30
0.0
 10
181.6471708716524
 20
315.4210249640512
 30
0.0
 10
181.6467800327581
 20
315.5327498423881
 30
0.0
 10
181.6465847493622
 20
315.5885733900346
 30
0.0
  0
SPLINE
  5
146
330
1F
100
AcDbEntity
  8
0
  6
Continuous
 62
     7
370
    25
100
AcDbSpline
210
0.0
220
0.0
230
1.0
 70
     8
 71
     3
 72
     9
 73
     5
 74
     0
 42
0.000000001
 43
0.00000001
 40
0.0
 40
0.0
 40
0.0
 40
0.0
 40
0.6289833589108444
 40
1.0
 40
1.0
 40
1.0
 40
1.0
 10
182.2385184766266
 20
315.5986167726792
 30
0.0
 10
182.2377056510129
 20
315.4862740205623
 30
0.0
 10
182.2364133662455
 20
315.3076639658997
 30
0.0
 10
182.2103803598491
 20
315.1504321292749
 30
0.0
 10
182.2007216812584
 20
315.092096501378
 30
0.0
  0
ARC
  5
147
330
1F
100
AcDbEntity
  8
0
  6
Continuous
 62
     7
370
    25
100
AcDbCircle
 10
182.3067230833
 20
294.1301715092
 30
0.0
 40
21.46855360521976
100
AcDbArc
 50
90.1820263607
 51
91.7620704217
  0
LWPOLYLINE
  5
148
330
1F
100
AcDbEntity
  8
0
  6
Continuous
 62
     7
370
    25
100
AcDbPolyline
 90
        5
 70
   128
 43
0.0
 10
179.2637475134
 20
440.0920965014
 10
179.413191259
 20
433.8375427065
 10
180.668837607
 20
381.2869139252
 10
181.924573362
 20
328.7362776933
 10
182.2385184766
 20
315.5986167727
  0
LWPOLYLINE
  5
149
330
1F
100
AcDbEntity
  8
0
  6
Continuous
 62
     7
370
    25
100
AcDbPolyline
 90
        7
 70
   128
 43
0.0
 10
181.6465847494
 20
315.58857339
 10
181.6225640775
 20
316.588195437
 10
181.5264888407
 20
320.5866761742
 10
181.1421729924
 20
336.5806065736
 10
179.6048723461
 20
400.5563207207
 10
178.8053654434
 20
433.827052289
 10
178.6548115612
 20
440.0920965014
  0
SPLINE
  5
14A
330
1F
100
AcDbEntity
  8
0
  6
Continuous
 62
     7
370
    25
100
AcDbSpline
210
0.0
220
0.0
230
1.0
 70
    24
 71
     3
 72
    12
 73
     8
 74
     0
 42
0.000000001
 43
0.00000001
 40
0.0
 40
0.0
 40
0.0
 40
0.0
 40
0.2260793886981693
 40
0.4521566313814037
 40
0.6781814420581123
 40
0.9041234436373169
 40
1.0
 40
1.0
 40
1.0
 40
1.0
 10
178.6548115612481
 20
440.092096501378
 30
0.0
 10
178.7103077510957
 20
440.092096501378
 30
0.0
 10
178.821299604004
 20
440.0920965013779
 30
0.0
 10
178.9894854573587
 20
440.092096501378
 30
0.0
 10
179.1341362299238
 20
440.092096501378
 30
0.0
 10
179.2224741804395
 20
440.0920965013779
 30
0.0
 10
179.2542737491945
 20
440.092096501378
 30
0.0
 10
179.2637475134347
 20
440.092096501378
 30
0.0
  0
LINE
  5
14B
330
1F
100
AcDbEntity
  8
0
  6
Continuous
 62
     7
370
    25
100
AcDbLine
 10
174.6397309305
 20
440.0920965014
 30
0.0
 11
178.6548115612
 21
440.0920965014
 31
0.0
  0
LWPOLYLINE
  5
14C
330
1F
100
AcDbEntity
  8
0
  6
Continuous
 62
     7
370
    25
100
AcDbPolyline
 90
        5
 70
   128
 43
0.0
 10
182.8020207883
 20
315.5986167727
 10
182.4504204394
 20
328.7362776933
 10
181.0439743401
 20
381.2869139252
 10
179.6374388339
 20
433.8375427065
 10
179.4700317384
 20
440.0920965014
  0
SPLINE
  5
14D
330
1F
100
AcDbEntity
  8
0
  6
Continuous
 62
     7
370
    25
100
AcDbSpline
210
0.0
220
0.0
230
1.0
 70
     8
 71
     3
 72
     9
 73
     5
 74
     0
 42
0.000000001
 43
0.00000001
 40
0.0
 40
0.0
 40
0.0
 40
0.0
 40
0.3710171565059478
 40
1.0
 40
1.0
 40
1.0
 40
1.0
 10
182.8654773832772
 20
315.092096501378
 30
0.0
 10
182.852863286147
 20
315.1504321014422
 30
0.0
 10
182.8188645965743
 20
315.3076636446237
 30
0.0
 10
182.8085245194467
 20
315.4862739530242
 30
0.0
 10
182.8020207883332
 20
315.5986167726792
 30
0.0
  0
LINE
  5
14E
330
1F
100
AcDbEntity
  8
0
  6
Continuous
 62
     7
370
    25
100
AcDbLine
 10
179.2637475134
 20
440.0920965014
 30
0.0
 11
179.4700317384
 21
440.0920965014
 31
0.0
  0
LINE
  5
14F
330
1F
100
AcDbEntity
  8
0
  6
Continuous
 62
     7
370
    25
100
AcDbLine
 10
182.8350939156
 20
315.5983634529
 30
0.0
 11
182.8352280261
 21
315.5984379587
 31
0.0
  0
SPLINE
  5
150
330
1F
100
AcDbEntity
  8
0
  6
Continuous
 62
     7
370
    25
100
AcDbSpline
210
0.0
220
0.0
230
1.0
 70
    24
 71
     3
 72
     9
 73
     5
 74
     0
 42
0.000000001
 43
0.00000001
 40
0.0
 40
0.0
 40
0.0
 40
0.0
 40
0.9219203032230463
 40
1.0
 40
1.0
 40
1.0
 40
1.0
 10
179.4700317384217
 20
440.092096501378
 30
0.0
 10
179.4896764364262
 20
440.092096501378
 30
0.0
 10
179.510984892196
 20
440.0920965013779
 30
0.0
 10
179.5017612352069
 20
440.092096501378
 30
0.0
 10
179.5010410548661
 20
440.092096501378
 30
0.0
  0
SPLINE
  5
151
330
1F
100
AcDbEntity
  8
0
  6
Continuous
 62
     7
370
    25
100
AcDbSpline
210
0.0
220
0.0
230
1.0
 70
     8
 71
     3
 72
    12
 73
     8
 74
     0
 42
0.000000001
 43
0.00000001
 40
0.0
 40
0.0
 40
0.0
 40
0.0
 40
0.1448780471941196
 40
0.3612611729210891
 40
0.5751555245247415
 40
0.7877271261422018
 40
0.9999999999999999
 40
0.9999999999999999
 40
0.9999999999999999
 40
0.9999999999999999
 10
185.2233030201409
 20
315.092096501378
 30
0.0
 10
185.2351261367329
 20
315.0945427697363
 30
0.0
 10
185.2646077114113
 20
315.1006426709536
 30
0.0
 10
185.3064839018975
 20
315.1601389810364
 30
0.0
 10
185.3411551455019
 20
315.2722346500658
 30
0.0
 10
185.3609470321072
 20
315.4210234608872
 30
0.0
 10
185.3586503909794
 20
315.5327496002539
 30
0.0
 10
185.3575028778527
 20
315.5885733900346
 30
0.0
  0
SPLINE
  5
152
330
1F
100
AcDbEntity
  8
0
  6
Continuous
 62
     7
370
    25
100
AcDbSpline
210
0.0
220
0.0
230
1.0
 70
     8
 71
     3
 72
     9
 73
     5
 74
     0
 42
0.000000001
 43
0.00000001
 40
0.0
 40
0.0
 40
0.0
 40
0.0
 40
0.6289826165810063
 40
1.0
 40
1.0
 40
1.0
 40
1.0
 10
185.8944513203118
 20
315.5986167726792
 30
0.0
 10
185.8953091218588
 20
315.4862739232905
 30
0.0
 10
185.8966729139962
 20
315.3076635031816
 30
0.0
 10
185.8834338878393
 20
315.1504320891889
 30
0.0
 10
185.8785219789956
 20
315.092096501378
 30
0.0
  0
ARC
  5
153
330
1F
100
AcDbEntity
  8
0
  6
Continuous
 62
     7
370
    25
100
AcDbCircle
 10
186.0332264637
 20
293.8208597646
 30
0.0
 40
21.77819916441627
100
AcDbArc
 50
90.3651029071
 51
91.778031509
  0
LWPOLYLINE
  5
154
330
1F
100
AcDbEntity
  8
0
  6
Continuous
 62
     7
370
    25
100
AcDbPolyline
 90
        5
 70
   128
 43
0.0
 10
182.6941512825
 20
440.0920965014
 10
182.8549273612
 20
433.8375427065
 10
184.2057995798
 20
381.2869139252
 10
185.5567165019
 20
328.7362776933
 10
185.8944513203
 20
315.5986167727
  0
LWPOLYLINE
  5
155
330
1F
100
AcDbEntity
  8
0
  6
Continuous
 62
     7
370
    25
100
AcDbPolyline
 90
        7
 70
   128
 43
0.0
 10
185.3575028779
 20
315.58857339
 10
185.3316717149
 20
316.588195437
 10
185.2283396126
 20
320.5866761742
 10
184.8149963023
 20
336.5806065736
 10
183.161548555
 20
400.5563207207
 10
182.3016025425
 20
433.827052289
 10
182.1396716238
 20
440.0920965014
  0
SPLINE
  5
156
330
1F
100
AcDbEntity
  8
0
  6
Continuous
 62
     7
370
    25
100
AcDbSpline
210
0.0
220
0.0
230
1.0
 70
    24
 71
     3
 72
    12
 73
     8
 74
     0
 42
0.000000001
 43
0.00000001
 40
0.0
 40
0.0
 40
0.0
 40
0.0
 40
0.2260748066617764
 40
0.4521594973464532
 40
0.6781781996780832
 40
0.904122623015784
 40
1.0
 40
1.0
 40
1.0
 40
1.0
 10
182.1396716238472
 20
440.092096501378
 30
0.0
 10
182.1961533848486
 20
440.092096501378
 30
0.0
 10
182.3091193762421
 20
440.092096501378
 30
0.0
 10
182.468961935822
 20
440.0920965013779
 30
0.0
 10
182.5978222654723
 20
440.092096501378
 30
0.0
 10
182.6682502047342
 20
440.092096501378
 30
0.0
 10
182.6882060291982
 20
440.092096501378
 30
0.0
 10
182.6941512824509
 20
440.092096501378
 30
0.0
  0
LINE
  5
157
330
1F
100
AcDbEntity
  8
0
  6
Continuous
 62
     7
370
    25
100
AcDbLine
 10
179.7061927916
 20
440.0920965014
 30
0.0
 11
182.1396716238
 21
440.0920965014
 31
0.0
  0
LWPOLYLINE
  5
158
330
1F
100
AcDbEntity
  8
0
  6
Continuous
 62
     7
370
    25
100
AcDbPolyline
 90
        5
 70
   128
 43
0.0
 10
186.2213753463
 20
315.5986167727
 10
185.8617954256
 20
328.7362776933
 10
184.4234384896
 20
381.2869139252
 10
182.9850368501
 20
433.8375427065
 10
182.8138299586
 20
440.0920965014
  0
LINE
  5
159
330
1F
100
AcDbEntity
  8
0
  6
Continuous
 62
     7
370
    25
100
AcDbLine
 10
186.2320892812
 20
315.5987061796
 30
0.0
 11
186.2322904469
 21
315.598735982
 31
0.0
  0
LINE
  5
15A
330
1F
100
AcDbEntity
  8
0
  6
Continuous
 62
     7
370
    25
100
AcDbLine
 10
182.8138299586
 20
440.0920965014
 30
0.0
 11
182.8180693389
 21
440.0920965014
 31
0.0
  0
LINE
  5
15B
330
1F
100
AcDbEntity
  8
0
  6
Continuous
 62
     7
370
    25
100
AcDbLine
 10
187.9872896077
 20
312.1008225022
 30
0.0
 11
190.894819081
 21
312.1008225022
 31
0.0
  0
LWPOLYLINE
  5
15C
330
1F
100
AcDbEntity
  8
0
  6
Continuous
 62
     7
370
    25
100
AcDbPolyline
 90
        5
 70
   128
 43
0.0
 10
190.2700357439
 20
445.092091733
 10
190.3094195129
 20
443.0967517433
 10
191.5722854735
 20
379.1116424141
 10
192.1988047959
 20
347.3679967461
 10
192.8946517707
 20
312.1118270097
  0
SPLINE
  5
15D
330
1F
100
AcDbEntity
  8
0
  6
Continuous
 62
     7
370
    25
100
AcDbSpline
210
0.0
220
0.0
230
1.0
 70
     8
 71
     3
 72
    12
 73
     8
 74
     0
 42
0.000000001
 43
0.00000001
 40
0.0
 40
0.0
 40
0.0
 40
0.0
 40
0.1413314708312131
 40
0.3560013688272745
 40
0.5706611317861024
 40
0.7853319847397249
 40
1.0
 40
1.0
 40
1.0
 40
1.0
 10
190.8948190809701
 20
312.1008225021638
 30
0.0
 10
191.0423476372554
 20
312.1022351083052
 30
0.0
 10
191.4139589115866
 20
312.1057933371766
 30
0.0
 10
191.9762361927028
 20
312.1103005277884
 30
0.0
 10
192.4835680388418
 20
312.1133248817542
 30
0.0
 10
192.8282981485976
 20
312.1141124081319
 30
0.0
 10
192.8725339941455
 20
312.1125888058242
 30
0.0
 10
192.8946517707322
 20
312.1118270097055
 30
0.0
  0
LINE
  5
15E
330
1F
100
AcDbEntity
  8
0
  6
Continuous
 62
     7
370
    25
100
AcDbLine
 10
190.894819081
 20
311.0920958457
 30
0.0
 11
190.894819081
 21
312.1008225022
 31
0.0
  0
ARC
  5
15F
330
1F
100
AcDbEntity
  8
0
  6
Continuous
 62
     7
370
    25
100
AcDbCircle
 10
191.8948443135
 20
312.0920948324
 30
0.0
 40
1.0
100
AcDbArc
 50
270.0
 51
1.1306909512
  0
SPLINE
  5
160
330
1F
100
AcDbEntity
  8
0
  6
Continuous
 62
     7
370
    25
100
AcDbSpline
210
0.0
220
0.0
230
1.0
 70
    24
 71
     3
 72
    12
 73
     8
 74
     0
 42
0.000000001
 43
0.00000001
 40
0.0
 40
0.0
 40
0.0
 40
0.0
 40
0.2146602189983377
 40
0.4293219007429752
 40
0.6439765214361549
 40
0.8586539896114015
 40
1.0
 40
1.0
 40
1.0
 40
1.0
 10
191.8948434592698
 20
311.0920958457269
 30
0.0
 10
191.8837929125826
 20
311.0920958457269
 30
0.0
 10
191.8616917439073
 20
311.0920958457269
 30
0.0
 10
191.6893134270374
 20
311.0920958457269
 30
0.0
 10
191.4356163278073
 20
311.0920958457269
 30
0.0
 10
191.1544333120925
 20
311.0920958457269
 30
0.0
 10
190.9685981056677
 20
311.0920958457269
 30
0.0
 10
190.8948190809701
 20
311.0920958457269
 30
0.0
  0
LINE
  5
161
330
1F
100
AcDbEntity
  8
0
  6
Continuous
 62
     7
370
    25
100
AcDbLine
 10
190.894819081
 20
311.0920958457
 30
0.0
 11
187.0463185312
 21
311.0920958457
 31
0.0
  0
LINE
  5
162
330
1F
100
AcDbEntity
  8
0
  6
Continuous
 62
     7
370
    25
100
AcDbLine
 10
161.412808329
 20
314.0920944748
 30
0.0
 11
168.0691048802
 21
314.0920944748
 31
0.0
  0
SPLINE
  5
163
330
1F
100
AcDbEntity
  8
0
  6
Continuous
 62
     7
370
    25
100
AcDbSpline
210
0.0
220
0.0
230
1.0
 70
     8
 71
     3
 72
     9
 73
     5
 74
     0
 42
0.000000001
 43
0.00000001
 40
0.0
 40
0.0
 40
0.0
 40
0.0
 40
0.5509772650462338
 40
1.0
 40
1.0
 40
1.0
 40
1.0
 10
162.1548898817513
 20
315.2428664503373
 30
0.0
 10
161.964111720916
 20
315.2013393620313
 30
0.0
 10
161.6178575777087
 20
315.1259694857398
 30
0.0
 10
161.2808912331206
 20
314.9908875142094
 30
0.0
 10
161.1295856834862
 20
314.9302326379098
 30
0.0
  0
SPLINE
  5
164
330
1F
100
AcDbEntity
  8
0
  6
Continuous
 62
     7
370
    25
100
AcDbSpline
210
0.0
220
0.0
230
1.0
 70
     8
 71
     3
 72
     9
 73
     5
 74
     0
 42
0.000000001
 43
0.00000001
 40
0.0
 40
0.0
 40
0.0
 40
0.0
 40
0.5
 40
1.0
 40
1.0
 40
1.0
 40
1.0
 10
161.1295856834862
 20
314.9302326379098
 30
0.0
 10
161.365288836401
 20
314.9611450968064
 30
0.0
 10
161.8366951422308
 20
315.0229700145997
 30
0.0
 10
162.3080977227701
 20
314.9611450968064
 30
0.0
 10
162.5437990130398
 20
314.9302326379098
 30
0.0
  0
SPLINE
  5
165
330
1F
100
AcDbEntity
  8
0
  6
Continuous
 62
     7
370
    25
100
AcDbSpline
210
0.0
220
0.0
230
1.0
 70
     8
 71
     3
 72
     9
 73
     5
 74
     0
 42
0.000000001
 43
0.00000001
 40
0.0
 40
0.0
 40
0.0
 40
0.0
 40
0.4490227349537662
 40
1.0
 40
1.0
 40
1.0
 40
1.0
 10
162.5437990130398
 20
314.9302326379098
 30
0.0
 10
162.6951045626742
 20
314.9908875142094
 30
0.0
 10
163.0320709072623
 20
315.1259694857398
 30
0.0
 10
163.3783250504696
 20
315.2013393620313
 30
0.0
 10
163.5691032113049
 20
315.2428664503373
 30
0.0
  0
SPLINE
  5
166
330
1F
100
AcDbEntity
  8
0
  6
Continuous
 62
     7
370
    25
100
AcDbSpline
210
0.0
220
0.0
230
1.0
 70
     8
 71
     3
 72
     9
 73
     5
 74
     0
 42
0.000000001
 43
0.00000001
 40
0.0
 40
0.0
 40
0.0
 40
0.0
 40
0.5509780495576441
 40
0.9999999999999999
 40
0.9999999999999999
 40
0.9999999999999999
 40
0.9999999999999999
 10
163.5691032113049
 20
315.2428664503373
 30
0.0
 10
163.7598827944755
 20
315.201339431351
 30
0.0
 10
164.1061390261416
 20
315.1259697881871
 30
0.0
 10
164.4431057011941
 20
314.9908875347971
 30
0.0
 10
164.5944111348603
 20
314.9302326379098
 30
0.0
  0
SPLINE
  5
167
330
1F
100
AcDbEntity
  8
0
  6
Continuous
 62
     7
370
    25
100
AcDbSpline
210
0.0
220
0.0
230
1.0
 70
     8
 71
     3
 72
     9
 73
     5
 74
     0
 42
0.000000001
 43
0.00000001
 40
0.0
 40
0.0
 40
0.0
 40
0.0
 40
0.5
 40
1.0
 40
1.0
 40
1.0
 40
1.0
 10
164.5944111348603
 20
314.9302326379098
 30
0.0
 10
164.83011242513
 20
314.9611450968064
 30
0.0
 10
165.3015150056693
 20
315.0229700145997
 30
0.0
 10
165.772921311499
 20
314.9611450968064
 30
0.0
 10
166.0086244644139
 20
314.9302326379098
 30
0.0
  0
SPLINE
  5
168
330
1F
100
AcDbEntity
  8
0
  6
Continuous
 62
     7
370
    25
100
AcDbSpline
210
0.0
220
0.0
230
1.0
 70
     8
 71
     3
 72
     9
 73
     5
 74
     0
 42
0.000000001
 43
0.00000001
 40
0.0
 40
0.0
 40
0.0
 40
0.0
 40
0.4490219504423558
 40
0.9999999999999999
 40
0.9999999999999999
 40
0.9999999999999999
 40
0.9999999999999999
 10
166.0086244644139
 20
314.9302326379098
 30
0.0
 10
165.8573190307477
 20
314.9908875347971
 30
0.0
 10
165.5203523556953
 20
315.1259697881871
 30
0.0
 10
165.1740961240291
 20
315.201339431351
 30
0.0
 10
164.9833165408585
 20
315.2428664503373
 30
0.0
  0
LINE
  5
169
330
1F
100
AcDbEntity
  8
0
  6
Continuous
 62
     7
370
    25
100
AcDbLine
 10
162.1548898818
 20
314.9642370878
 30
0.0
 11
162.1548898818
 21
315.2428664503
 31
0.0
  0
LINE
  5
16A
330
1F
100
AcDbEntity
  8
0
  6
Continuous
 62
     7
370
    25
100
AcDbLine
 10
164.9833165409
 20
314.9642370878
 30
0.0
 11
164.9833165409
 21
315.2428664503
 31
0.0
  0
LINE
  5
16B
330
1F
100
AcDbEntity
  8
0
  6
Continuous
 62
     7
370
    25
100
AcDbLine
 10
50.0784658195
 20
314.0920944748
 30
0.0
 11
55.4102242292
 21
314.0920944748
 31
0.0
  0
LINE
  5
16C
330
1F
100
AcDbEntity
  8
0
  6
Continuous
 62
     7
370
    25
100
AcDbLine
 10
48.760446936
 20
314.0920944748
 30
0.0
 11
50.0784658195
 21
314.0920944748
 31
0.0
  0
SPLINE
  5
16D
330
1F
100
AcDbEntity
  8
0
  6
Continuous
 62
     7
370
    25
100
AcDbSpline
210
0.0
220
0.0
230
1.0
 70
     8
 71
     3
 72
     9
 73
     5
 74
     0
 42
0.000000001
 43
0.00000001
 40
0.0
 40
0.0
 40
0.0
 40
0.0
 40
0.5509780495576441
 40
0.9999999999999999
 40
0.9999999999999999
 40
0.9999999999999999
 40
0.9999999999999999
 10
51.84623527540898
 20
315.2428664503373
 30
0.0
 10
51.65545569223838
 20
315.201339431351
 30
0.0
 10
51.30919946057221
 20
315.1259697881871
 30
0.0
 10
50.97223278551973
 20
314.9908875347971
 30
0.0
 10
50.82092735185361
 20
314.9302326379098
 30
0.0
  0
SPLINE
  5
16E
330
1F
100
AcDbEntity
  8
0
  6
Continuous
 62
     7
370
    25
100
AcDbSpline
210
0.0
220
0.0
230
1.0
 70
     8
 71
     3
 72
     9
 73
     5
 74
     0
 42
0.000000001
 43
0.00000001
 40
0.0
 40
0.0
 40
0.0
 40
0.0
 40
0.5
 40
1.0
 40
1.0
 40
1.0
 40
1.0
 10
50.82092735185361
 20
314.9302326379098
 30
0.0
 10
51.05663050476845
 20
314.9611450968064
 30
0.0
 10
51.52803681059814
 20
315.0229700145997
 30
0.0
 10
51.99943939113751
 20
314.9611450968064
 30
0.0
 10
52.23514068140721
 20
314.9302326379098
 30
0.0
  0
SPLINE
  5
16F
330
1F
100
AcDbEntity
  8
0
  6
Continuous
 62
     7
370
    25
100
AcDbSpline
210
0.0
220
0.0
230
1.0
 70
     8
 71
     3
 72
     9
 73
     5
 74
     0
 42
0.000000001
 43
0.00000001
 40
0.0
 40
0.0
 40
0.0
 40
0.0
 40
0.4490219504423558
 40
0.9999999999999999
 40
0.9999999999999999
 40
0.9999999999999999
 40
0.9999999999999999
 10
52.23514068140721
 20
314.9302326379098
 30
0.0
 10
52.38644611507333
 20
314.9908875347971
 30
0.0
 10
52.7234127901258
 20
315.1259697881871
 30
0.0
 10
53.06966902179199
 20
315.201339431351
 30
0.0
 10
53.26044860496258
 20
315.2428664503373
 30
0.0
  0
SPLINE
  5
170
330
1F
100
AcDbEntity
  8
0
  6
Continuous
 62
     7
370
    25
100
AcDbSpline
210
0.0
220
0.0
230
1.0
 70
     8
 71
     3
 72
     9
 73
     5
 74
     0
 42
0.000000001
 43
0.00000001
 40
0.0
 40
0.0
 40
0.0
 40
0.0
 40
0.5509772650462338
 40
1.0
 40
1.0
 40
1.0
 40
1.0
 10
53.26044860496258
 20
315.2428664503373
 30
0.0
 10
53.45122676579788
 20
315.2013393620313
 30
0.0
 10
53.79748090900521
 20
315.1259694857398
 30
0.0
 10
54.13444725359331
 20
314.9908875142094
 30
0.0
 10
54.28575280322766
 20
314.9302326379098
 30
0.0
  0
SPLINE
  5
171
330
1F
100
AcDbEntity
  8
0
  6
Continuous
 62
     7
370
    25
100
AcDbSpline
210
0.0
220
0.0
230
1.0
 70
     8
 71
     3
 72
     9
 73
     5
 74
     0
 42
0.000000001
 43
0.00000001
 40
0.0
 40
0.0
 40
0.0
 40
0.0
 40
0.5
 40
1.0
 40
1.0
 40
1.0
 40
1.0
 10
54.28575280322766
 20
314.9302326379098
 30
0.0
 10
54.52145409349735
 20
314.9611450968064
 30
0.0
 10
54.99285667403674
 20
315.0229700145997
 30
0.0
 10
55.46426297986642
 20
314.9611450968064
 30
0.0
 10
55.69996613278126
 20
314.9302326379098
 30
0.0
  0
SPLINE
  5
172
330
1F
100
AcDbEntity
  8
0
  6
Continuous
 62
     7
370
    25
100
AcDbSpline
210
0.0
220
0.0
230
1.0
 70
     8
 71
     3
 72
     9
 73
     5
 74
     0
 42
0.000000001
 43
0.00000001
 40
0.0
 40
0.0
 40
0.0
 40
0.0
 40
0.4490227349537662
 40
1.0
 40
1.0
 40
1.0
 40
1.0
 10
55.69996613278126
 20
314.9302326379098
 30
0.0
 10
55.54866058314692
 20
314.9908875142094
 30
0.0
 10
55.21169423855881
 20
315.1259694857398
 30
0.0
 10
54.86544009535149
 20
315.2013393620313
 30
0.0
 10
54.67466193451619
 20
315.2428664503373
 30
0.0
  0
LINE
  5
173
330
1F
100
AcDbEntity
  8
0
  6
Continuous
 62
     7
370
    25
100
AcDbLine
 10
51.8462352754
 20
314.9642370878
 30
0.0
 11
51.8462352754
 21
315.2428664503
 31
0.0
  0
LINE
  5
174
330
1F
100
AcDbEntity
  8
0
  6
Continuous
 62
     7
370
    25
100
AcDbLine
 10
54.6746619345
 20
314.9642370878
 30
0.0
 11
54.6746619345
 21
315.2428664503
 31
0.0
  0
LINE
  5
175
330
1F
100
AcDbEntity
  8
0
  6
Continuous
 62
     7
370
    25
100
AcDbLine
 10
108.4147759081
 20
178.4920938549
 30
0.0
 11
140.914774716
 21
178.4920938549
 31
0.0
  0
LINE
  5
176
330
1F
100
AcDbEntity
  8
0
  6
Continuous
 62
     7
370
    25
100
AcDbLine
 10
75.9147771002
 20
178.4920938549
 30
0.0
 11
108.4147759081
 21
178.4920938549
 31
0.0
  0
LINE
  5
177
330
1F
100
AcDbEntity
  8
0
  6
Continuous
 62
     7
370
    25
100
AcDbLine
 10
108.4147759081
 20
177.3920975862
 30
0.0
 11
140.914774716
 21
177.3920975862
 31
0.0
  0
LINE
  5
178
330
1F
100
AcDbEntity
  8
0
  6
Continuous
 62
     7
370
    25
100
AcDbLine
 10
75.9147771002
 20
177.3920975862
 30
0.0
 11
108.4147759081
 21
177.3920975862
 31
0.0
  0
LINE
  5
179
330
1F
100
AcDbEntity
  8
0
  6
Continuous
 62
     7
370
    25
100
AcDbLine
 10
108.4147759081
 20
174.4920931993
 30
0.0
 11
118.9674672039
 21
174.4920931993
 31
0.0
  0
LINE
  5
17A
330
1F
100
AcDbEntity
  8
0
  6
Continuous
 62
     7
370
    25
100
AcDbLine
 10
97.8620846124
 20
174.4920931993
 30
0.0
 11
108.4147759081
 21
174.4920931993
 31
0.0
  0
LINE
  5
17B
330
1F
100
AcDbEntity
  8
0
  6
Continuous
 62
     7
370
    25
100
AcDbLine
 10
190.4147781731
 20
463.0920984087
 30
0.0
 11
190.4147781731
 21
462.9054315625
 31
0.0
  0
LINE
  5
17C
330
1F
100
AcDbEntity
  8
0
  6
Continuous
 62
     7
370
    25
100
AcDbLine
 10
190.4147781731
 20
462.6279570399
 30
0.0
 11
190.4147781731
 21
462.5194318829
 31
0.0
  0
ARC
  5
17D
330
1F
100
AcDbEntity
  8
0
  6
Continuous
 62
     7
370
    25
100
AcDbCircle
 10
187.0147759081
 20
459.0920948324
 30
0.0
 40
6.479565957685733
100
AcDbArc
 50
342.1648676446
 51
352.3032352969
  0
ARC
  5
17E
330
1F
100
AcDbEntity
  8
0
  6
Continuous
 62
     7
370
    25
100
AcDbCircle
 10
192.6310643196
 20
455.9774938316
 30
0.0
 40
1.257606178127399
100
AcDbArc
 50
63.028694403
 51
63.970497339
  0
ARC
  5
17F
330
1F
100
AcDbEntity
  8
0
  6
Continuous
 62
     7
370
    25
100
AcDbCircle
 10
192.2564911868
 20
462.9609951582
 30
0.0
 40
2.099773091441036
100
AcDbArc
 50
296.1814883874
 51
296.7453721371
  0
ARC
  5
180
330
1F
100
AcDbEntity
  8
0
  6
Continuous
 62
     7
370
    25
100
AcDbCircle
 10
187.0147759081
 20
459.0920948324
 30
0.0
 40
6.479565957685814
100
AcDbArc
 50
7.6967647031
 51
17.8351323554
  0
LINE
  5
181
330
1F
100
AcDbEntity
  8
0
  6
Continuous
 62
     7
370
    25
100
AcDbLine
 10
193.4359662534
 20
459.9599041281
 30
0.0
 11
193.4359662534
 21
459.6070893345
 31
0.0
  0
LINE
  5
182
330
1F
100
AcDbEntity
  8
0
  6
Continuous
 62
     7
370
    25
100
AcDbLine
 10
193.4359662534
 20
459.6070893345
 30
0.0
 11
193.1829445363
 21
459.6070893345
 31
0.0
  0
ARC
  5
183
330
1F
100
AcDbEntity
  8
0
  6
Continuous
 62
     7
370
    25
100
AcDbCircle
 10
186.0242959891
 20
459.0920903025
 30
0.0
 40
7.177149366322433
100
AcDbArc
 50
355.8851837034
 51
4.1148162966
  0
LINE
  5
184
330
1F
100
AcDbEntity
  8
0
  6
Continuous
 62
     7
370
    25
100
AcDbLine
 10
193.1829445363
 20
458.5770912705
 30
0.0
 11
193.4359662534
 21
458.5770912705
 31
0.0
  0
LINE
  5
185
330
1F
100
AcDbEntity
  8
0
  6
Continuous
 62
     7
370
    25
100
AcDbLine
 10
193.4359662534
 20
458.5770912705
 30
0.0
 11
193.4359662534
 21
458.224291378
 31
0.0
  0
LINE
  5
186
330
1F
100
AcDbEntity
  8
0
  6
Continuous
 62
     7
370
    25
100
AcDbLine
 10
78.8997758479
 20
359.7024776278
 30
0.0
 11
78.8997758479
 21
358.5665397582
 31
0.0
  0
ARC
  5
187
330
1F
100
AcDbEntity
  8
0
  6
Continuous
 62
     7
370
    25
100
AcDbCircle
 10
79.4147758113
 20
415.3101858625
 30
0.0
 40
56.74598310157477
100
AcDbArc
 50
269.4800032035
 51
270.5199967965
  0
LINE
  5
188
330
1F
100
AcDbEntity
  8
0
  6
Continuous
 62
     7
370
    25
100
AcDbLine
 10
79.9297757746
 20
358.5665397582
 30
0.0
 11
79.9297757746
 21
359.7024776278
 31
0.0
  0
ARC
  5
189
330
1F
100
AcDbEntity
  8
0
  6
Continuous
 62
     7
370
    25
100
AcDbCircle
 10
79.4551896232
 20
360.5610195391
 30
0.0
 40
0.9809822773558063
100
AcDbArc
 50
298.9330090139
 51
327.5047067249
  0
ARC
  5
18A
330
1F
100
AcDbEntity
  8
0
  6
Continuous
 62
     7
370
    25
100
AcDbCircle
 10
79.4743143345
 20
342.353188027
 30
0.0
 40
17.69928330790901
100
AcDbArc
 50
83.7560179749
 51
87.382571515
  0
ARC
  5
18B
330
1F
100
AcDbEntity
  8
0
  6
Continuous
 62
     7
370
    25
100
AcDbCircle
 10
68.7110625386
 20
360.4314163564
 30
0.0
 40
12.69749508846903
100
AcDbArc
 50
357.8157494519
 51
2.1842505481
  0
ARC
  5
18C
330
1F
100
AcDbEntity
  8
0
  6
Continuous
 62
     7
370
    25
100
AcDbCircle
 10
79.4740123612
 20
343.3186959884
 30
0.0
 40
17.70167667672566
100
AcDbArc
 50
83.7558823126
 51
87.381947222
  0
ARC
  5
18D
330
1F
100
AcDbEntity
  8
0
  6
Continuous
 62
     7
370
    25
100
AcDbCircle
 10
79.4552493089
 20
360.4749462272
 30
0.0
 40
0.9808978134063517
100
AcDbArc
 50
32.4940369921
 51
61.0682472692
  0
LINE
  5
18E
330
1F
100
AcDbEntity
  8
0
  6
Continuous
 62
     7
370
    25
100
AcDbLine
 10
79.9297757746
 20
361.3334246216
 30
0.0
 11
79.9297757746
 21
362.2962855039
 31
0.0
  0
ARC
  5
18F
330
1F
100
AcDbEntity
  8
0
  6
Continuous
 62
     7
370
    25
100
AcDbCircle
 10
79.4147758113
 20
353.4593022562
 30
0.0
 40
8.851977060657472
100
AcDbArc
 50
86.6647003659
 51
93.3352996341
  0
LINE
  5
190
330
1F
100
AcDbEntity
  8
0
  6
Continuous
 62
     7
370
    25
100
AcDbLine
 10
78.8997758479
 20
362.2962855039
 30
0.0
 11
78.8997758479
 21
361.3334246216
 31
0.0
  0
ARC
  5
191
330
1F
100
AcDbEntity
  8
0
  6
Continuous
 62
     7
370
    25
100
AcDbCircle
 10
79.3743023137
 20
360.4749462272
 30
0.0
 40
0.9808978134063517
100
AcDbArc
 50
118.9317527308
 51
147.5059630079
  0
ARC
  5
192
330
1F
100
AcDbEntity
  8
0
  6
Continuous
 62
     7
370
    25
100
AcDbCircle
 10
79.3555392613
 20
343.3186959884
 30
0.0
 40
17.70167667672566
100
AcDbArc
 50
92.618052778
 51
96.2441176874
  0
ARC
  5
193
330
1F
100
AcDbEntity
  8
0
  6
Continuous
 62
     7
370
    25
100
AcDbCircle
 10
90.118489084
 20
360.4314163564
 30
0.0
 40
12.69749508846903
100
AcDbArc
 50
177.8157494519
 51
182.1842505481
  0
ARC
  5
194
330
1F
100
AcDbEntity
  8
0
  6
Continuous
 62
     7
370
    25
100
AcDbCircle
 10
79.3552372881
 20
342.353188027
 30
0.0
 40
17.69928330790901
100
AcDbArc
 50
92.617428485
 51
96.2439820251
  0
ARC
  5
195
330
1F
100
AcDbEntity
  8
0
  6
Continuous
 62
     7
370
    25
100
AcDbCircle
 10
79.3743619993
 20
360.5610195391
 30
0.0
 40
0.9809822773557944
100
AcDbArc
 50
212.4952932751
 51
241.0669909861
  0
LWPOLYLINE
  5
196
330
1F
100
AcDbEntity
  8
0
  6
Continuous
 62
     7
370
    25
100
AcDbPolyline
 90
       21
 70
   128
 43
0.0
 10
83.2681965382
 20
360.1121179996
 10
83.0795962663
 20
361.2310759959
 10
82.5322579892
 20
362.240503007
 10
81.679758832
 20
363.0415894327
 10
80.6055490227
 20
363.5559253631
 10
79.4147767426
 20
363.7331448732
 10
78.2240044625
 20
363.5559253631
 10
77.1497927906
 20
363.0415894327
 10
76.2972936334
 20
362.240503007
 10
75.7499553563
 20
361.2310759959
 10
75.5613550843
 20
360.1121179996
 10
75.7499553563
 20
358.9931600032
 10
76.2972936334
 20
357.9837255416
 10
77.1497927906
 20
357.1826391158
 10
78.2240044625
 20
356.6683106361
 10
79.4147767426
 20
356.4910836754
 10
80.6055490227
 20
356.6683106361
 10
81.679758832
 20
357.1826391158
 10
82.5322579892
 20
357.9837255416
 10
83.0795962663
 20
358.9931600032
 10
83.2681965382
 20
360.1121179996
  0
LINE
  5
197
330
1F
100
AcDbEntity
  8
0
  6
Continuous
 62
     7
370
    25
100
AcDbLine
 10
78.8997758479
 20
358.8205598531
 30
0.0
 11
79.9297757746
 21
358.8205598531
 31
0.0
  0
LWPOLYLINE
  5
198
330
1F
100
AcDbEntity
  8
0
  6
Continuous
 62
     7
370
    25
100
AcDbPolyline
 90
       22
 70
   128
 43
0.0
 10
83.4147755356
 20
360.0129582224
 10
83.2370680125
 20
361.1208744583
 10
82.7197313608
 20
362.1303536234
 10
81.9087356628
 20
362.9516832767
 10
80.8761392088
 20
363.5118998823
 10
79.7136958988
 20
363.7612186609
 10
78.5246912689
 20
363.6774890361
 10
77.4147764148
 20
363.2681541381
 10
76.4825672211
 20
362.5695728002
 10
75.8109011055
 20
361.6438307104
 10
75.4594534935
 20
360.5731748281
 10
75.4594534935
 20
359.4527416168
 10
75.8109011055
 20
358.382093185
 10
76.4825672211
 20
357.4563436446
 10
77.4147764148
 20
356.7577697573
 10
78.5246912689
 20
356.3484274087
 10
79.7136958988
 20
356.264697784
 10
80.8761392088
 20
356.5140165625
 10
81.9087356628
 20
357.0742331682
 10
82.7197313608
 20
357.895570272
 10
83.2370680125
 20
358.9050419865
 10
83.4147755356
 20
360.0129582224
  0
ARC
  5
199
330
1F
100
AcDbEntity
  8
0
  6
Continuous
 62
     7
370
    25
100
AcDbCircle
 10
79.4147758113
 20
359.6705973708
 30
0.0
 40
4.004319677269829
100
AcDbArc
 50
182.6616553497
 51
357.3383446503
  0
LINE
  5
19A
330
1F
100
AcDbEntity
  8
0
  6
Continuous
 62
     7
370
    25
100
AcDbLine
 10
80.3980950566
 20
360.0283064184
 30
0.0
 11
80.3980950566
 21
360.2285184202
 31
0.0
  0
LINE
  5
19B
330
1F
100
AcDbEntity
  8
0
  6
Continuous
 62
     7
370
    25
100
AcDbLine
 10
81.3993320168
 20
360.9153576432
 30
0.0
 11
80.3980950566
 21
360.2285184202
 31
0.0
  0
LINE
  5
19C
330
1F
100
AcDbEntity
  8
0
  6
Continuous
 62
     7
370
    25
100
AcDbLine
 10
77.4302196057
 20
360.9153576432
 30
0.0
 11
78.431456566
 21
360.2285184202
 31
0.0
  0
LINE
  5
19D
330
1F
100
AcDbEntity
  8
0
  6
Continuous
 62
     7
370
    25
100
AcDbLine
 10
78.431456566
 20
360.2285184202
 30
0.0
 11
78.431456566
 21
360.0283064184
 31
0.0
  0
SPLINE
  5
19E
330
1F
100
AcDbEntity
  8
0
  6
Continuous
 62
     7
370
    25
100
AcDbSpline
210
0.0
220
0.0
230
1.0
 70
     8
 71
     3
 72
    10
 73
     6
 74
     0
 42
0.000000001
 43
0.00000001
 40
0.0
 40
0.0
 40
0.0
 40
0.0
 40
0.0699804710662317
 40
0.8866214997453883
 40
1.0
 40
1.0
 40
1.0
 40
1.0
 10
78.73729731156563
 20
360.228518420247
 30
0.0
 10
78.7326775211291
 20
360.2465536653553
 30
0.0
 10
78.67414682730926
 20
360.4750522139151
 30
0.0
 10
78.61106297239415
 20
360.7328394444694
 30
0.0
 10
78.55393152584169
 20
360.9726596964221
 30
0.0
 10
78.54696664228176
 20
361.0018961367883
 30
0.0
  0
LINE
  5
19F
330
1F
100
AcDbEntity
  8
0
  6
Continuous
 62
     7
370
    25
100
AcDbLine
 10
78.431456566
 20
360.2285184202
 30
0.0
 11
78.7372973116
 21
360.2285184202
 31
0.0
  0
SPLINE
  5
1A0
330
1F
100
AcDbEntity
  8
0
  6
Continuous
 62
     7
370
    25
100
AcDbSpline
210
0.0
220
0.0
230
1.0
 70
    24
 71
     3
 72
    10
 73
     6
 74
     0
 42
0.000000001
 43
0.00000001
 40
0.0
 40
0.0
 40
0.0
 40
0.0
 40
0.1133778503849098
 40
0.9300179666557326
 40
1.0
 40
1.0
 40
1.0
 40
1.0
 10
78.89977584793304
 20
361.3334246216096
 30
0.0
 10
78.89977584793304
 20
361.2976465141722
 30
0.0
 10
78.89977584793306
 20
361.0041651805893
 30
0.0
 10
78.89977584793304
 20
360.6870738479594
 30
0.0
 10
78.89977584793304
 20
360.4035796669506
 30
0.0
 10
78.89977584793304
 20
360.3812031684197
 30
0.0
  0
ARC
  5
1A1
330
1F
100
AcDbEntity
  8
0
  6
Continuous
 62
     7
370
    25
100
AcDbCircle
 10
79.3801381789
 20
359.7072359042
 30
0.0
 40
0.8276350899705625
100
AcDbArc
 50
125.4789300641
 51
140.9612504121
  0
SPLINE
  5
1A2
330
1F
100
AcDbEntity
  8
0
  6
Continuous
 62
     7
370
    25
100
AcDbSpline
210
0.0
220
0.0
230
1.0
 70
    24
 71
     3
 72
    10
 73
     6
 74
     0
 42
0.000000001
 43
0.00000001
 40
0.0
 40
0.0
 40
0.0
 40
0.0
 40
0.0699820333442674
 40
0.8866221496150902
 40
1.0
 40
1.0
 40
1.0
 40
1.0
 10
79.92977577461933
 20
360.3812031684197
 30
0.0
 10
79.92977577461933
 20
360.4035796669506
 30
0.0
 10
79.92977577461932
 20
360.6870738479593
 30
0.0
 10
79.92977577461932
 20
361.0041651805893
 30
0.0
 10
79.92977577461933
 20
361.2976465141722
 30
0.0
 10
79.92977577461933
 20
361.3334246216096
 30
0.0
  0
SPLINE
  5
1A3
330
1F
100
AcDbEntity
  8
0
  6
Continuous
 62
     7
370
    25
100
AcDbSpline
210
0.0
220
0.0
230
1.0
 70
     8
 71
     3
 72
    10
 73
     6
 74
     0
 42
0.000000001
 43
0.00000001
 40
0.0
 40
0.0
 40
0.0
 40
0.0
 40
0.1133785002546117
 40
0.9300195289337684
 40
1.0
 40
1.0
 40
1.0
 40
1.0
 10
80.28258498027061
 20
361.0018961367883
 30
0.0
 10
80.27562009671068
 20
360.9726596964221
 30
0.0
 10
80.21848865015824
 20
360.7328394444694
 30
0.0
 10
80.1554047952432
 20
360.4750522139153
 30
0.0
 10
80.09687410142328
 20
360.2465536653553
 30
0.0
 10
80.09225431098675
 20
360.228518420247
 30
0.0
  0
ARC
  5
1A4
330
1F
100
AcDbEntity
  8
0
  6
Continuous
 62
     7
370
    25
100
AcDbCircle
 10
79.4494134437
 20
359.7072359042
 30
0.0
 40
0.8276350899704933
100
AcDbArc
 50
39.0387495879
 51
54.5210699359
  0
LINE
  5
1A5
330
1F
100
AcDbEntity
  8
0
  6
Continuous
 62
     7
370
    25
100
AcDbLine
 10
80.092254311
 20
360.2285184202
 30
0.0
 11
80.3980950566
 21
360.2285184202
 31
0.0
  0
LINE
  5
1A6
330
1F
100
AcDbEntity
  8
0
  6
Continuous
 62
     7
370
    25
100
AcDbLine
 10
79.9297757746
 20
360.6685944138
 30
0.0
 11
78.8997758479
 21
360.6685944138
 31
0.0
  0
ARC
  5
1A7
330
1F
100
AcDbEntity
  8
0
  6
Continuous
 62
     7
370
    25
100
AcDbCircle
 10
79.4147758113
 20
359.8378657911
 30
0.0
 40
0.893302605056677
100
AcDbArc
 50
234.7943897006
 51
305.2056102994
  0
ARC
  5
1A8
330
1F
100
AcDbEntity
  8
0
  6
Continuous
 62
     7
370
    25
100
AcDbCircle
 10
79.4870734676
 20
359.7364879806
 30
0.0
 40
0.779960131455376
100
AcDbArc
 50
16.9104114826
 51
39.1121603886
  0
ARC
  5
1A9
330
1F
100
AcDbEntity
  8
0
  6
Continuous
 62
     7
370
    25
100
AcDbCircle
 10
79.3424781549
 20
359.7364879806
 30
0.0
 40
0.779960131455376
100
AcDbArc
 50
140.8878396114
 51
163.0895885174
  0
ARC
  5
1AA
330
1F
100
AcDbEntity
  8
0
  6
Continuous
 62
     7
370
    25
100
AcDbCircle
 10
79.4147758113
 20
359.6512610818
 30
0.0
 40
0.8933310763750656
100
AcDbArc
 50
54.7956781099
 51
125.2043218901
  0
LINE
  5
1AB
330
1F
100
AcDbEntity
  8
0
  6
Continuous
 62
     7
370
    25
100
AcDbLine
 10
78.8997758479
 20
445.2145047722
 30
0.0
 11
78.8997758479
 21
444.0785743532
 31
0.0
  0
ARC
  5
1AC
330
1F
100
AcDbEntity
  8
0
  6
Continuous
 62
     7
370
    25
100
AcDbCircle
 10
79.4147758113
 20
500.6618375816
 30
0.0
 40
56.58560684953282
100
AcDbArc
 50
269.4785293758
 51
270.5214706242
  0
LINE
  5
1AD
330
1F
100
AcDbEntity
  8
0
  6
Continuous
 62
     7
370
    25
100
AcDbLine
 10
79.9297757746
 20
444.0785743532
 30
0.0
 11
79.9297757746
 21
445.2145047722
 31
0.0
  0
ARC
  5
1AE
330
1F
100
AcDbEntity
  8
0
  6
Continuous
 62
     7
370
    25
100
AcDbCircle
 10
79.4552577389
 20
446.0729623537
 30
0.0
 40
0.9808755198461854
100
AcDbArc
 50
298.9319099034
 51
327.5070909663
  0
ARC
  5
1AF
330
1F
100
AcDbEntity
  8
0
  6
Continuous
 62
     7
370
    25
100
AcDbCircle
 10
79.474214888
 20
427.8669687306
 30
0.0
 40
17.69754356329505
100
AcDbArc
 50
83.755077843
 51
87.3819917371
  0
ARC
  5
1B0
330
1F
100
AcDbEntity
  8
0
  6
Continuous
 62
     7
370
    25
100
AcDbCircle
 10
68.7108278505
 20
445.9434397755
 30
0.0
 40
12.69772974800544
100
AcDbArc
 50
357.8157730156
 51
2.1842269844
  0
ARC
  5
1B1
330
1F
100
AcDbEntity
  8
0
  6
Continuous
 62
     7
370
    25
100
AcDbCircle
 10
79.4748185231
 20
428.8396046719
 30
0.0
 40
17.69276014604509
100
AcDbArc
 50
83.7553492126
 51
87.3832402773
  0
ARC
  5
1B2
330
1F
100
AcDbEntity
  8
0
  6
Continuous
 62
     7
370
    25
100
AcDbCircle
 10
79.4553377338
 20
445.9870793124
 30
0.0
 40
0.9807623175986889
100
AcDbArc
 50
32.4912248604
 51
61.0697742699
  0
LINE
  5
1B3
330
1F
100
AcDbEntity
  8
0
  6
Continuous
 62
     7
370
    25
100
AcDbLine
 10
79.9297757746
 20
446.845451766
 30
0.0
 11
79.9297757746
 21
447.8083200989
 31
0.0
  0
ARC
  5
1B4
330
1F
100
AcDbEntity
  8
0
  6
Continuous
 62
     7
370
    25
100
AcDbCircle
 10
79.4147758113
 20
438.9674255937
 30
0.0
 40
8.85588169602467
100
AcDbArc
 50
86.6661725907
 51
93.3338274093
  0
LINE
  5
1B5
330
1F
100
AcDbEntity
  8
0
  6
Continuous
 62
     7
370
    25
100
AcDbLine
 10
78.8997758479
 20
447.8083200989
 30
0.0
 11
78.8997758479
 21
446.845451766
 31
0.0
  0
ARC
  5
1B6
330
1F
100
AcDbEntity
  8
0
  6
Continuous
 62
     7
370
    25
100
AcDbCircle
 10
79.3742138887
 20
445.9870793124
 30
0.0
 40
0.9807623175986958
100
AcDbArc
 50
118.9302257301
 51
147.5087751396
  0
ARC
  5
1B7
330
1F
100
AcDbEntity
  8
0
  6
Continuous
 62
     7
370
    25
100
AcDbCircle
 10
79.3547330994
 20
428.8396046719
 30
0.0
 40
17.69276014604508
100
AcDbArc
 50
92.6167597227
 51
96.2446507874
  0
ARC
  5
1B8
330
1F
100
AcDbEntity
  8
0
  6
Continuous
 62
     7
370
    25
100
AcDbCircle
 10
90.118723772
 20
445.9434397755
 30
0.0
 40
12.69772974800545
100
AcDbArc
 50
177.8157730156
 51
182.1842269844
  0
ARC
  5
1B9
330
1F
100
AcDbEntity
  8
0
  6
Continuous
 62
     7
370
    25
100
AcDbCircle
 10
79.3553367345
 20
427.8669687306
 30
0.0
 40
17.69754356329505
100
AcDbArc
 50
92.6180082629
 51
96.244922157
  0
ARC
  5
1BA
330
1F
100
AcDbEntity
  8
0
  6
Continuous
 62
     7
370
    25
100
AcDbCircle
 10
79.3742938837
 20
446.0729623537
 30
0.0
 40
0.9808755198461973
100
AcDbArc
 50
212.4929090337
 51
241.0680900966
  0
LWPOLYLINE
  5
1BB
330
1F
100
AcDbEntity
  8
0
  6
Continuous
 62
     7
370
    25
100
AcDbPolyline
 90
       21
 70
   128
 43
0.0
 10
83.2681965382
 20
445.6241525946
 10
83.0795962663
 20
446.743110591
 10
82.5322579892
 20
447.7525301514
 10
81.679758832
 20
448.5536165772
 10
80.6055490227
 20
449.0679450569
 10
79.4147767426
 20
449.2451794682
 10
78.2240044625
 20
449.0679450569
 10
77.1497927906
 20
448.5536165772
 10
76.2972936334
 20
447.7525301514
 10
75.7499553563
 20
446.743110591
 10
75.5613550843
 20
445.6241525946
 10
75.7499553563
 20
444.5051796971
 10
76.2972936334
 20
443.4957601366
 10
77.1497927906
 20
442.6946737109
 10
78.2240044625
 20
442.1803452311
 10
79.4147767426
 20
442.0031108198
 10
80.6055490227
 20
442.1803452311
 10
81.679758832
 20
442.6946737109
 10
82.5322579892
 20
443.4957601366
 10
83.0795962663
 20
444.5051796971
 10
83.2681965382
 20
445.6241525946
  0
LINE
  5
1BC
330
1F
100
AcDbEntity
  8
0
  6
Continuous
 62
     7
370
    25
100
AcDbLine
 10
78.8997758479
 20
444.3325944481
 30
0.0
 11
79.9297757746
 21
444.3325944481
 31
0.0
  0
LWPOLYLINE
  5
1BD
330
1F
100
AcDbEntity
  8
0
  6
Continuous
 62
     7
370
    25
100
AcDbPolyline
 90
       22
 70
   128
 43
0.0
 10
83.4147755356
 20
445.5249853668
 10
83.2370680125
 20
446.6329016028
 10
82.7197313608
 20
447.6423807678
 10
81.9087356628
 20
448.4637178717
 10
80.8761392088
 20
449.0239270268
 10
79.7136958988
 20
449.2732532559
 10
78.5246912689
 20
449.1895236311
 10
77.4147764148
 20
448.780173832
 10
76.4825672211
 20
448.0816073952
 10
75.8109011055
 20
447.1558578549
 10
75.4594534935
 20
446.0852094231
 10
75.4594534935
 20
444.9647762118
 10
75.8109011055
 20
443.8941128788
 10
76.4825672211
 20
442.9683782397
 10
77.4147764148
 20
442.2697969017
 10
78.5246912689
 20
441.8604620037
 10
79.7136958988
 20
441.776732379
 10
80.8761392088
 20
442.0260437069
 10
81.9087356628
 20
442.5862677632
 10
82.7197313608
 20
443.407604867
 10
83.2370680125
 20
444.4170691309
 10
83.4147755356
 20
445.5249853668
  0
ARC
  5
1BE
330
1F
100
AcDbEntity
  8
0
  6
Continuous
 62
     7
370
    25
100
AcDbCircle
 10
79.4147758113
 20
445.1826276568
 30
0.0
 40
4.004320169160195
100
AcDbArc
 50
182.6618067435
 51
357.3381932565
  0
LINE
  5
1BF
330
1F
100
AcDbEntity
  8
0
  6
Continuous
 62
     7
370
    25
100
AcDbLine
 10
80.3980950566
 20
445.5403335629
 30
0.0
 11
80.3980950566
 21
445.7405455647
 31
0.0
  0
LINE
  5
1C0
330
1F
100
AcDbEntity
  8
0
  6
Continuous
 62
     7
370
    25
100
AcDbLine
 10
81.3993320168
 20
446.4273847876
 30
0.0
 11
80.3980950566
 21
445.7405455647
 31
0.0
  0
LINE
  5
1C1
330
1F
100
AcDbEntity
  8
0
  6
Continuous
 62
     7
370
    25
100
AcDbLine
 10
77.4302196057
 20
446.4273847876
 30
0.0
 11
78.431456566
 21
445.7405455647
 31
0.0
  0
LINE
  5
1C2
330
1F
100
AcDbEntity
  8
0
  6
Continuous
 62
     7
370
    25
100
AcDbLine
 10
78.431456566
 20
445.7405455647
 30
0.0
 11
78.431456566
 21
445.5403335629
 31
0.0
  0
SPLINE
  5
1C3
330
1F
100
AcDbEntity
  8
0
  6
Continuous
 62
     7
370
    25
100
AcDbSpline
210
0.0
220
0.0
230
1.0
 70
     8
 71
     3
 72
    10
 73
     6
 74
     0
 42
0.000000001
 43
0.00000001
 40
0.0
 40
0.0
 40
0.0
 40
0.0
 40
0.0699805494077399
 40
0.8866236113152569
 40
0.9999999999999999
 40
0.9999999999999999
 40
0.9999999999999999
 40
0.9999999999999999
 10
78.73729731156563
 20
445.7405455646791
 30
0.0
 10
78.73267751886122
 20
445.7585807375508
 30
0.0
 10
78.67414672243599
 20
445.9870786592949
 30
0.0
 10
78.61106414119169
 20
446.2449038031622
 30
0.0
 10
78.55393153774767
 20
446.4846847267384
 30
0.0
 10
78.54696664228176
 20
446.5139158306398
 30
0.0
  0
LINE
  5
1C4
330
1F
100
AcDbEntity
  8
0
  6
Continuous
 62
     7
370
    25
100
AcDbLine
 10
78.431456566
 20
445.7405455647
 30
0.0
 11
78.7372973116
 21
445.7405455647
 31
0.0
  0
SPLINE
  5
1C5
330
1F
100
AcDbEntity
  8
0
  6
Continuous
 62
     7
370
    25
100
AcDbSpline
210
0.0
220
0.0
230
1.0
 70
    24
 71
     3
 72
    10
 73
     6
 74
     0
 42
0.000000001
 43
0.00000001
 40
0.0
 40
0.0
 40
0.0
 40
0.0
 40
0.113376323202013
 40
0.9300180636540321
 40
1.0
 40
1.0
 40
1.0
 40
1.0
 10
78.89977584793304
 20
446.8454517660417
 30
0.0
 10
78.89977584793304
 20
446.8096763620557
 30
0.0
 10
78.89977584793303
 20
446.5162132208831
 30
0.0
 10
78.89977584793303
 20
446.1990937057265
 30
0.0
 10
78.89977584793304
 20
445.9155993083245
 30
0.0
 10
78.89977584793304
 20
445.8932228622712
 30
0.0
  0
ARC
  5
1C6
330
1F
100
AcDbEntity
  8
0
  6
Continuous
 62
     7
370
    25
100
AcDbCircle
 10
79.3797080844
 20
445.2196878643
 30
0.0
 40
0.8270334606871202
100
AcDbArc
 50
125.4720472575
 51
140.9653426787
  0
SPLINE
  5
1C7
330
1F
100
AcDbEntity
  8
0
  6
Continuous
 62
     7
370
    25
100
AcDbSpline
210
0.0
220
0.0
230
1.0
 70
    24
 71
     3
 72
    10
 73
     6
 74
     0
 42
0.000000001
 43
0.00000001
 40
0.0
 40
0.0
 40
0.0
 40
0.0
 40
0.0699819363459679
 40
0.8866236767979869
 40
1.0
 40
1.0
 40
1.0
 40
1.0
 10
79.92977577461933
 20
445.8932228622712
 30
0.0
 10
79.92977577461933
 20
445.9155993083245
 30
0.0
 10
79.92977577461932
 20
446.1990937057265
 30
0.0
 10
79.92977577461934
 20
446.516213220883
 30
0.0
 10
79.92977577461933
 20
446.8096763620557
 30
0.0
 10
79.92977577461933
 20
446.8454517660417
 30
0.0
  0
SPLINE
  5
1C8
330
1F
100
AcDbEntity
  8
0
  6
Continuous
 62
     7
370
    25
100
AcDbSpline
210
0.0
220
0.0
230
1.0
 70
     8
 71
     3
 72
    10
 73
     6
 74
     0
 42
0.000000001
 43
0.00000001
 40
0.0
 40
0.0
 40
0.0
 40
0.0
 40
0.113376388684743
 40
0.93001945059226
 40
0.9999999999999999
 40
0.9999999999999999
 40
0.9999999999999999
 40
0.9999999999999999
 10
80.28258498027061
 20
446.5139158306398
 30
0.0
 10
80.2756200848047
 20
446.4846847267384
 30
0.0
 10
80.21848748136071
 20
446.2449038031623
 30
0.0
 10
80.1554049001164
 20
445.9870786592953
 30
0.0
 10
80.09687410369116
 20
445.7585807375507
 30
0.0
 10
80.09225431098675
 20
445.7405455646791
 30
0.0
  0
ARC
  5
1C9
330
1F
100
AcDbEntity
  8
0
  6
Continuous
 62
     7
370
    25
100
AcDbCircle
 10
79.4498435382
 20
445.2196878643
 30
0.0
 40
0.8270334606871508
100
AcDbArc
 50
39.0346573213
 51
54.5279527425
  0
LINE
  5
1CA
330
1F
100
AcDbEntity
  8
0
  6
Continuous
 62
     7
370
    25
100
AcDbLine
 10
80.092254311
 20
445.7405455647
 30
0.0
 11
80.3980950566
 21
445.7405455647
 31
0.0
  0
LINE
  5
1CB
330
1F
100
AcDbEntity
  8
0
  6
Continuous
 62
     7
370
    25
100
AcDbLine
 10
79.9297757746
 20
446.1806215582
 30
0.0
 11
78.8997758479
 21
446.1806215582
 31
0.0
  0
ARC
  5
1CC
330
1F
100
AcDbEntity
  8
0
  6
Continuous
 62
     7
370
    25
100
AcDbCircle
 10
79.4147758113
 20
445.3498519169
 30
0.0
 40
0.8932630018879566
100
AcDbArc
 50
234.7925973724
 51
305.2074026276
  0
ARC
  5
1CD
330
1F
100
AcDbEntity
  8
0
  6
Continuous
 62
     7
370
    25
100
AcDbCircle
 10
79.4874139032
 20
445.2487025933
 30
0.0
 40
0.7795777237231585
100
AcDbArc
 50
16.9039830803
 51
39.1172537736
  0
ARC
  5
1CE
330
1F
100
AcDbEntity
  8
0
  6
Continuous
 62
     7
370
    25
100
AcDbCircle
 10
79.3421377193
 20
445.2487025933
 30
0.0
 40
0.7795777237231585
100
AcDbArc
 50
140.8827462264
 51
163.0960169197
  0
ARC
  5
1CF
330
1F
100
AcDbEntity
  8
0
  6
Continuous
 62
     7
370
    25
100
AcDbCircle
 10
79.4147758113
 20
445.1633640894
 30
0.0
 40
0.8932630018879102
100
AcDbArc
 50
54.7925973724
 51
125.2074026276
  0
LINE
  5
1D0
330
1F
100
AcDbEntity
  8
0
  6
Continuous
 62
     7
370
    25
100
AcDbLine
 10
66.6557245256
 20
458.5770912705
 30
0.0
 11
67.7493654491
 21
458.5770912705
 31
0.0
  0
ARC
  5
1D1
330
1F
100
AcDbEntity
  8
0
  6
Continuous
 62
     7
370
    25
100
AcDbCircle
 10
172.8915891663
 20
459.0920903025
 30
0.0
 40
105.1434849726676
100
AcDbArc
 50
179.719360748
 51
180.280639252
  0
LINE
  5
1D2
330
1F
100
AcDbEntity
  8
0
  6
Continuous
 62
     7
370
    25
100
AcDbLine
 10
67.7493654491
 20
459.6070893345
 30
0.0
 11
66.6557245256
 21
459.6070893345
 31
0.0
  0
ARC
  5
1D3
330
1F
100
AcDbEntity
  8
0
  6
Continuous
 62
     7
370
    25
100
AcDbCircle
 10
65.8044329088
 20
459.1785709519
 30
0.0
 40
0.9530610794015073
100
AcDbArc
 50
26.7195121153
 51
55.0662166108
  0
ARC
  5
1D4
330
1F
100
AcDbEntity
  8
0
  6
Continuous
 62
     7
370
    25
100
AcDbCircle
 10
78.5572074613
 20
459.1425786707
 30
0.0
 40
12.23435535060673
100
AcDbArc
 50
170.9041922774
 51
176.169458768
  0
ARC
  5
1D5
330
1F
100
AcDbEntity
  8
0
  6
Continuous
 62
     7
370
    25
100
AcDbCircle
 10
66.030691594
 20
450.2956843524
 30
0.0
 40
10.79019390500242
100
AcDbArc
 50
87.631055758
 51
92.368944242
  0
ARC
  5
1D6
330
1F
100
AcDbEntity
  8
0
  6
Continuous
 62
     7
370
    25
100
AcDbCircle
 10
77.6640397614
 20
459.1427102891
 30
0.0
 40
12.23318731435688
100
AcDbArc
 50
170.903940734
 51
176.1697103114
  0
ARC
  5
1D7
330
1F
100
AcDbEntity
  8
0
  6
Continuous
 62
     7
370
    25
100
AcDbCircle
 10
66.0039285622
 20
459.1785709519
 30
0.0
 40
0.9530610794014817
100
AcDbArc
 50
124.9337833892
 51
153.2804878847
  0
LINE
  5
1D8
330
1F
100
AcDbEntity
  8
0
  6
Continuous
 62
     7
370
    25
100
AcDbLine
 10
65.1526369454
 20
459.6070893345
 30
0.0
 11
64.3120140137
 21
459.6070893345
 31
0.0
  0
ARC
  5
1D9
330
1F
100
AcDbEntity
  8
0
  6
Continuous
 62
     7
370
    25
100
AcDbCircle
 10
71.9979510528
 20
459.0920903025
 30
0.0
 40
7.703171565805621
100
AcDbArc
 50
176.166605369
 51
183.833394631
  0
LINE
  5
1DA
330
1F
100
AcDbEntity
  8
0
  6
Continuous
 62
     7
370
    25
100
AcDbLine
 10
64.3120140137
 20
458.5770912705
 30
0.0
 11
65.1526369454
 21
458.5770912705
 31
0.0
  0
ARC
  5
1DB
330
1F
100
AcDbEntity
  8
0
  6
Continuous
 62
     7
370
    25
100
AcDbCircle
 10
66.0039269148
 20
459.0056412271
 30
0.0
 40
0.9530738047474432
100
AcDbArc
 50
206.7212520889
 51
235.0668717604
  0
ARC
  5
1DC
330
1F
100
AcDbEntity
  8
0
  6
Continuous
 62
     7
370
    25
100
AcDbCircle
 10
77.663473704
 20
459.0414210915
 30
0.0
 40
12.23261823771244
100
AcDbArc
 50
183.8301671172
 51
189.0961818374
  0
ARC
  5
1DD
330
1F
100
AcDbEntity
  8
0
  6
Continuous
 62
     7
370
    25
100
AcDbCircle
 10
66.030691594
 20
467.8826951646
 30
0.0
 40
10.78438288901812
100
AcDbArc
 50
267.6297785566
 51
272.3702214434
  0
ARC
  5
1DE
330
1F
100
AcDbEntity
  8
0
  6
Continuous
 62
     7
370
    25
100
AcDbCircle
 10
78.5566414039
 20
459.0415527099
 30
0.0
 40
12.23378627384742
100
AcDbArc
 50
183.830418684
 51
189.0959302706
  0
ARC
  5
1DF
330
1F
100
AcDbEntity
  8
0
  6
Continuous
 62
     7
370
    25
100
AcDbCircle
 10
65.8044345562
 20
459.0056412271
 30
0.0
 40
0.9530738047474432
100
AcDbArc
 50
304.9331282396
 51
333.2787479111
  0
LWPOLYLINE
  5
1E0
330
1F
100
AcDbEntity
  8
0
  6
Continuous
 62
     7
370
    25
100
AcDbPolyline
 90
       21
 70
   128
 43
0.0
 10
66.4974704684
 20
462.9455156861
 10
65.4662318827
 20
462.7569116888
 10
64.5359374882
 20
462.209577137
 10
63.7976520063
 20
461.3570817051
 10
63.3236423434
 20
460.2828718958
 10
63.1603107156
 20
459.0920903025
 10
63.3236423434
 20
457.9013236103
 10
63.7976520063
 20
456.827113801
 10
64.5359374882
 20
455.9746183691
 10
65.4662318827
 20
455.4272689162
 10
66.4974704684
 20
455.2386798201
 10
67.5287090541
 20
455.4272689162
 10
68.4590034486
 20
455.9746183691
 10
69.1972889306
 20
456.827113801
 10
69.6712985934
 20
457.9013236103
 10
69.8346302213
 20
459.0920903025
 10
69.6712985934
 20
460.2828718958
 10
69.1972889306
 20
461.3570817051
 10
68.4590034486
 20
462.209577137
 10
67.5287090541
 20
462.7569116888
 10
66.4974704684
 20
462.9455156861
  0
LWPOLYLINE
  5
1E1
330
1F
100
AcDbEntity
  8
0
  6
Continuous
 62
     7
370
    25
100
AcDbPolyline
 90
       22
 70
   128
 43
0.0
 10
66.6424289645
 20
463.0920984087
 10
65.6213678719
 20
462.9143871603
 10
64.6910324992
 20
462.397048646
 10
63.9340833129
 20
461.586052948
 10
63.4177878798
 20
460.5534620819
 10
63.1880119742
 20
459.3910224972
 10
63.2651776375
 20
458.2020141421
 10
63.6424303354
 20
457.0921011505
 10
64.2862424554
 20
456.1598845063
 10
65.1394121648
 20
455.4882146654
 10
66.1261298062
 20
455.1367707787
 10
67.1587281229
 20
455.1367707787
 10
68.1454457642
 20
455.4882146654
 10
68.9986154736
 20
456.1598845063
 10
69.6424275936
 20
457.0921011505
 10
70.0196765663
 20
458.2020141421
 10
70.0968459548
 20
459.3910224972
 10
69.8670700492
 20
460.5534620819
 10
69.3507708909
 20
461.586052948
 10
68.5938254298
 20
462.397048646
 10
67.6634900571
 20
462.9143871603
 10
66.6424289645
 20
463.0920984087
  0
LWPOLYLINE
  5
1E2
330
1F
100
AcDbEntity
  8
0
  6
Continuous
 62
     7
370
    25
100
AcDbPolyline
 90
       12
 70
   128
 43
0.0
 10
67.4147747756
 20
455.0920970974
 10
67.931073934
 20
455.1367707787
 10
68.9177915753
 20
455.4882146654
 10
69.7709650101
 20
456.1598845063
 10
70.41477713
 20
457.0921011505
 10
70.7920261027
 20
458.2020141421
 10
70.8691917659
 20
459.3910224972
 10
70.6394158603
 20
460.5534620819
 10
70.1231204273
 20
461.586052948
 10
69.3661749662
 20
462.397048646
 10
68.4358395936
 20
462.9143871603
 10
67.4147747756
 20
463.0920984087
  0
LINE
  5
1E3
330
1F
100
AcDbEntity
  8
0
  6
Continuous
 62
     7
370
    25
100
AcDbLine
 10
65.5846886636
 20
461.0766567526
 30
0.0
 11
66.3765624465
 21
460.2870144186
 31
0.0
  0
LINE
  5
1E4
330
1F
100
AcDbEntity
  8
0
  6
Continuous
 62
     7
370
    25
100
AcDbLine
 10
65.5846886636
 20
457.1075387535
 30
0.0
 11
66.3765624465
 21
457.8971661864
 31
0.0
  0
SPLINE
  5
1E5
330
1F
100
AcDbEntity
  8
0
  6
Continuous
 62
     7
370
    25
100
AcDbSpline
210
0.0
220
0.0
230
1.0
 70
    24
 71
     3
 72
    10
 73
     6
 74
     0
 42
0.000000001
 43
0.00000001
 40
0.0
 40
0.0
 40
0.0
 40
0.0
 40
0.1133776486013277
 40
0.930018855694881
 40
1.0
 40
1.0
 40
1.0
 40
1.0
 10
65.15263694538805
 20
458.5770912704744
 30
0.0
 10
65.20140586277773
 20
458.5770912704744
 30
0.0
 10
65.60144955131547
 20
458.5770912704743
 30
0.0
 10
66.03296458600701
 20
458.5770912704743
 30
0.0
 10
66.41769514212764
 20
458.5770912704743
 30
0.0
 10
66.44806194319462
 20
458.5770912704743
 30
0.0
  0
ARC
  5
1E6
330
1F
100
AcDbEntity
  8
0
  6
Continuous
 62
     7
370
    25
100
AcDbCircle
 10
67.1240481784
 20
459.0199972952
 30
0.0
 40
0.8081603411235967
100
AcDbArc
 50
213.2328076403
 51
226.4301262718
  0
SPLINE
  5
1E7
330
1F
100
AcDbEntity
  8
0
  6
Continuous
 62
     7
370
    25
100
AcDbSpline
210
0.0
220
0.0
230
1.0
 70
     8
 71
     3
 72
    10
 73
     6
 74
     0
 42
0.000000001
 43
0.00000001
 40
0.0
 40
0.0
 40
0.0
 40
0.0
 40
0.0699817452919498
 40
0.8866223202267919
 40
1.0
 40
1.0
 40
1.0
 40
1.0
 10
66.58877360834812
 20
458.4146239099778
 30
0.0
 10
66.56240748822759
 20
458.4099989563996
 30
0.0
 10
66.22836622505065
 20
458.3514038605597
 30
0.0
 10
65.85147722063084
 20
458.2883538231404
 30
0.0
 10
65.50091457807719
 20
458.2312525431684
 30
0.0
 10
65.45817780508732
 20
458.2242913780488
 30
0.0
  0
SPLINE
  5
1E8
330
1F
100
AcDbEntity
  8
0
  6
Continuous
 62
     7
370
    25
100
AcDbSpline
210
0.0
220
0.0
230
1.0
 70
     8
 71
     3
 72
    10
 73
     6
 74
     0
 42
0.000000001
 43
0.00000001
 40
0.0
 40
0.0
 40
0.0
 40
0.0
 40
0.1133782179928102
 40
0.9300188247317865
 40
1.0
 40
1.0
 40
1.0
 40
1.0
 10
65.45817780508732
 20
459.9599041281022
 30
0.0
 10
65.5009145750072
 20
459.9529378999958
 30
0.0
 10
65.85147574308118
 20
459.8957953254255
 30
0.0
 10
66.22836359784056
 20
459.8327217603905
 30
0.0
 10
66.56240748024666
 20
459.7741914049212
 30
0.0
 10
66.58877360834812
 20
459.7695715961732
 30
0.0
  0
SPLINE
  5
1E9
330
1F
100
AcDbEntity
  8
0
  6
Continuous
 62
     7
370
    25
100
AcDbSpline
210
0.0
220
0.0
230
1.0
 70
    24
 71
     3
 72
    10
 73
     6
 74
     0
 42
0.000000001
 43
0.00000001
 40
0.0
 40
0.0
 40
0.0
 40
0.0
 40
0.069981144305119
 40
0.8866223513986724
 40
1.0
 40
1.0
 40
1.0
 40
1.0
 10
66.44806194319462
 20
459.6070893345155
 30
0.0
 10
66.41769514212764
 20
459.6070893345155
 30
0.0
 10
66.03296458600703
 20
459.6070893345156
 30
0.0
 10
65.60144955131541
 20
459.6070893345155
 30
0.0
 10
65.20140586277773
 20
459.6070893345154
 30
0.0
 10
65.15263694538807
 20
459.6070893345155
 30
0.0
  0
ARC
  5
1EA
330
1F
100
AcDbEntity
  8
0
  6
Continuous
 62
     7
370
    25
100
AcDbCircle
 10
67.1273935498
 20
459.1614543955
 30
0.0
 40
0.8124542636905387
100
AcDbArc
 50
133.6074402068
 51
146.7355141332
  0
LINE
  5
1EB
330
1F
100
AcDbEntity
  8
0
  6
Continuous
 62
     7
370
    25
100
AcDbLine
 10
66.1831975283
 20
459.6070893345
 30
0.0
 11
66.1831975283
 21
458.5770912705
 31
0.0
  0
ARC
  5
1EC
330
1F
100
AcDbEntity
  8
0
  6
Continuous
 62
     7
370
    25
100
AcDbCircle
 10
66.854599424
 20
459.0767447277
 30
0.0
 40
0.9152981803260389
100
AcDbArc
 50
326.9143962435
 51
347.5339588619
  0
ARC
  5
1ED
330
1F
100
AcDbEntity
  8
0
  6
Continuous
 62
     7
370
    25
100
AcDbCircle
 10
66.8546197634
 20
459.1074346703
 30
0.0
 40
0.9152817977915954
100
AcDbArc
 50
12.4673005572
 51
33.0863621027
  0
ARC
  5
1EE
330
1F
100
AcDbEntity
  8
0
  6
Continuous
 62
     7
370
    25
100
AcDbCircle
 10
67.2511083968
 20
459.0920903025
 30
0.0
 40
0.9539956025180322
100
AcDbArc
 50
147.3276771922
 51
212.6723228078
  0
ARC
  5
1EF
330
1F
100
AcDbEntity
  8
0
  6
Continuous
 62
     7
370
    25
100
AcDbCircle
 10
137.4742150817
 20
427.8669687306
 30
0.0
 40
17.69754356329505
100
AcDbArc
 50
83.755077843
 51
87.3819917371
  0
ARC
  5
1F0
330
1F
100
AcDbEntity
  8
0
  6
Continuous
 62
     7
370
    25
100
AcDbCircle
 10
126.7108280442
 20
445.9434397755
 30
0.0
 40
12.69772974800544
100
AcDbArc
 50
357.8157730156
 51
2.1842269844
  0
ARC
  5
1F1
330
1F
100
AcDbEntity
  8
0
  6
Continuous
 62
     7
370
    25
100
AcDbCircle
 10
137.4748187169
 20
428.8396046719
 30
0.0
 40
17.69276014604508
100
AcDbArc
 50
83.7553492126
 51
87.3832402773
  0
ARC
  5
1F2
330
1F
100
AcDbEntity
  8
0
  6
Continuous
 62
     7
370
    25
100
AcDbCircle
 10
137.4553379276
 20
445.9870793124
 30
0.0
 40
0.9807623175987027
100
AcDbArc
 50
32.4912248604
 51
61.0697742699
  0
LINE
  5
1F3
330
1F
100
AcDbEntity
  8
0
  6
Continuous
 62
     7
370
    25
100
AcDbLine
 10
137.9297759683
 20
446.845451766
 30
0.0
 11
137.9297759683
 21
447.8083200989
 31
0.0
  0
ARC
  5
1F4
330
1F
100
AcDbEntity
  8
0
  6
Continuous
 62
     7
370
    25
100
AcDbCircle
 10
137.414776005
 20
438.9674255937
 30
0.0
 40
8.85588169602467
100
AcDbArc
 50
86.6661725907
 51
93.3338274093
  0
LINE
  5
1F5
330
1F
100
AcDbEntity
  8
0
  6
Continuous
 62
     7
370
    25
100
AcDbLine
 10
136.8997760416
 20
447.8083200989
 30
0.0
 11
136.8997760416
 21
446.845451766
 31
0.0
  0
ARC
  5
1F6
330
1F
100
AcDbEntity
  8
0
  6
Continuous
 62
     7
370
    25
100
AcDbCircle
 10
137.3742140824
 20
445.9870793124
 30
0.0
 40
0.9807623175986889
100
AcDbArc
 50
118.9302257301
 51
147.5087751396
  0
ARC
  5
1F7
330
1F
100
AcDbEntity
  8
0
  6
Continuous
 62
     7
370
    25
100
AcDbCircle
 10
137.3547332931
 20
428.8396046719
 30
0.0
 40
17.69276014604508
100
AcDbArc
 50
92.6167597227
 51
96.2446507874
  0
ARC
  5
1F8
330
1F
100
AcDbEntity
  8
0
  6
Continuous
 62
     7
370
    25
100
AcDbCircle
 10
148.1187239657
 20
445.9434397755
 30
0.0
 40
12.69772974800547
100
AcDbArc
 50
177.8157730156
 51
182.1842269844
  0
ARC
  5
1F9
330
1F
100
AcDbEntity
  8
0
  6
Continuous
 62
     7
370
    25
100
AcDbCircle
 10
137.3553369283
 20
427.8669687306
 30
0.0
 40
17.69754356329505
100
AcDbArc
 50
92.6180082629
 51
96.244922157
  0
ARC
  5
1FA
330
1F
100
AcDbEntity
  8
0
  6
Continuous
 62
     7
370
    25
100
AcDbCircle
 10
137.3742940774
 20
446.0729623537
 30
0.0
 40
0.9808755198461973
100
AcDbArc
 50
212.4929090337
 51
241.0680900966
  0
LINE
  5
1FB
330
1F
100
AcDbEntity
  8
0
  6
Continuous
 62
     7
370
    25
100
AcDbLine
 10
136.8997760416
 20
445.2145047722
 30
0.0
 11
136.8997760416
 21
444.0785743532
 31
0.0
  0
ARC
  5
1FC
330
1F
100
AcDbEntity
  8
0
  6
Continuous
 62
     7
370
    25
100
AcDbCircle
 10
137.414776005
 20
500.6618375816
 30
0.0
 40
56.58560684953282
100
AcDbArc
 50
269.4785293758
 51
270.5214706242
  0
LINE
  5
1FD
330
1F
100
AcDbEntity
  8
0
  6
Continuous
 62
     7
370
    25
100
AcDbLine
 10
137.9297759683
 20
444.0785743532
 30
0.0
 11
137.9297759683
 21
445.2145047722
 31
0.0
  0
ARC
  5
1FE
330
1F
100
AcDbEntity
  8
0
  6
Continuous
 62
     7
370
    25
100
AcDbCircle
 10
137.4552579326
 20
446.0729623537
 30
0.0
 40
0.9808755198461973
100
AcDbArc
 50
298.9319099034
 51
327.5070909663
  0
LWPOLYLINE
  5
1FF
330
1F
100
AcDbEntity
  8
0
  6
Continuous
 62
     7
370
    25
100
AcDbPolyline
 90
       21
 70
   128
 43
0.0
 10
137.4147750737
 20
449.2451794682
 10
136.2240027936
 20
449.0679450569
 10
135.1497929843
 20
448.5536165772
 10
134.2972938271
 20
447.7525301514
 10
133.74995555
 20
446.743110591
 10
133.561355278
 20
445.6241525946
 10
133.74995555
 20
444.5051796971
 10
134.2972938271
 20
443.4957601366
 10
135.1497929843
 20
442.6946737109
 10
136.2240027936
 20
442.1803452311
 10
137.4147750737
 20
442.0031108198
 10
138.6055473538
 20
442.1803452311
 10
139.6797590257
 20
442.6946737109
 10
140.5322581829
 20
443.4957601366
 10
141.07959646
 20
444.5051796971
 10
141.2681967319
 20
445.6241525946
 10
141.07959646
 20
446.743110591
 10
140.5322581829
 20
447.7525301514
 10
139.6797590257
 20
448.5536165772
 10
138.6055473538
 20
449.0679450569
 10
137.4147750737
 20
449.2451794682
  0
LINE
  5
200
330
1F
100
AcDbEntity
  8
0
  6
Continuous
 62
     7
370
    25
100
AcDbLine
 10
136.8997760416
 20
444.3325944481
 30
0.0
 11
137.9297759683
 21
444.3325944481
 31
0.0
  0
LWPOLYLINE
  5
201
330
1F
100
AcDbEntity
  8
0
  6
Continuous
 62
     7
370
    25
100
AcDbPolyline
 90
       22
 70
   128
 43
0.0
 10
137.4147750737
 20
449.2837585745
 10
136.2357560845
 20
449.116761261
 10
135.1614959837
 20
448.6306257782
 10
134.2874497475
 20
447.8685505925
 10
133.6912803651
 20
446.8982167778
 10
133.4259614648
 20
445.8058871565
 10
133.5150648208
 20
444.688583189
 10
133.9506741913
 20
443.6456062136
 10
134.6940856726
 20
442.7696116505
 10
135.6792405547
 20
442.138458067
 10
136.818607554
 20
441.8082036314
 10
138.010944456
 20
441.8082036314
 10
139.1503114553
 20
442.138458067
 10
140.1354663373
 20
442.7696116505
 10
140.8788778187
 20
443.6456062136
 10
141.3144871892
 20
444.688583189
 10
141.4035924078
 20
445.8058871565
 10
141.1382697822
 20
446.8982167778
 10
140.5421003999
 20
447.8685505925
 10
139.6680578889
 20
448.6306257782
 10
138.5937959255
 20
449.116761261
 10
137.4147750737
 20
449.2837585745
  0
ARC
  5
202
330
1F
100
AcDbEntity
  8
0
  6
Continuous
 62
     7
370
    25
100
AcDbCircle
 10
137.414776005
 20
445.1810630948
 30
0.0
 40
4.004247814990864
100
AcDbArc
 50
182.6394439722
 51
357.3605560278
  0
LINE
  5
203
330
1F
100
AcDbEntity
  8
0
  6
Continuous
 62
     7
370
    25
100
AcDbLine
 10
138.3980952503
 20
445.5403335629
 30
0.0
 11
138.3980952503
 21
445.7405455647
 31
0.0
  0
LINE
  5
204
330
1F
100
AcDbEntity
  8
0
  6
Continuous
 62
     7
370
    25
100
AcDbLine
 10
139.3993322106
 20
446.4273847876
 30
0.0
 11
138.3980952503
 21
445.7405455647
 31
0.0
  0
LINE
  5
205
330
1F
100
AcDbEntity
  8
0
  6
Continuous
 62
     7
370
    25
100
AcDbLine
 10
135.4302197994
 20
446.4273847876
 30
0.0
 11
136.4314567597
 21
445.7405455647
 31
0.0
  0
LINE
  5
206
330
1F
100
AcDbEntity
  8
0
  6
Continuous
 62
     7
370
    25
100
AcDbLine
 10
136.4314567597
 20
445.7405455647
 30
0.0
 11
136.4314567597
 21
445.5403335629
 31
0.0
  0
SPLINE
  5
207
330
1F
100
AcDbEntity
  8
0
  6
Continuous
 62
     7
370
    25
100
AcDbSpline
210
0.0
220
0.0
230
1.0
 70
     8
 71
     3
 72
    10
 73
     6
 74
     0
 42
0.000000001
 43
0.00000001
 40
0.0
 40
0.0
 40
0.0
 40
0.0
 40
0.0699805494077399
 40
0.8866236113152569
 40
0.9999999999999999
 40
0.9999999999999999
 40
0.9999999999999999
 40
0.9999999999999999
 10
136.7372975052807
 20
445.7405455646791
 30
0.0
 10
136.7326777125763
 20
445.7585807375508
 30
0.0
 10
136.674146916151
 20
445.9870786592949
 30
0.0
 10
136.6110643349068
 20
446.2449038031622
 30
0.0
 10
136.5539317314628
 20
446.4846847267384
 30
0.0
 10
136.5469668359969
 20
446.5139158306398
 30
0.0
  0
SPLINE
  5
208
330
1F
100
AcDbEntity
  8
0
  6
Continuous
 62
     7
370
    25
100
AcDbSpline
210
0.0
220
0.0
230
1.0
 70
    24
 71
     3
 72
    10
 73
     6
 74
     0
 42
0.000000001
 43
0.00000001
 40
0.0
 40
0.0
 40
0.0
 40
0.0
 40
0.113376323202013
 40
0.9300180636540321
 40
1.0
 40
1.0
 40
1.0
 40
1.0
 10
136.8997760416482
 20
446.8454517660417
 30
0.0
 10
136.8997760416482
 20
446.8096763620557
 30
0.0
 10
136.8997760416482
 20
446.5162132208831
 30
0.0
 10
136.8997760416482
 20
446.1990937057265
 30
0.0
 10
136.8997760416482
 20
445.9155993083245
 30
0.0
 10
136.8997760416482
 20
445.8932228622712
 30
0.0
  0
ARC
  5
209
330
1F
100
AcDbEntity
  8
0
  6
Continuous
 62
     7
370
    25
100
AcDbCircle
 10
137.3797082781
 20
445.2196878643
 30
0.0
 40
0.8270334606871202
100
AcDbArc
 50
125.4720472575
 51
140.9653426787
  0
LINE
  5
20A
330
1F
100
AcDbEntity
  8
0
  6
Continuous
 62
     7
370
    25
100
AcDbLine
 10
136.4314567597
 20
445.7405455647
 30
0.0
 11
136.7372975053
 21
445.7405455647
 31
0.0
  0
LINE
  5
20B
330
1F
100
AcDbEntity
  8
0
  6
Continuous
 62
     7
370
    25
100
AcDbLine
 10
138.0922545047
 20
445.7405455647
 30
0.0
 11
138.3980952503
 21
445.7405455647
 31
0.0
  0
SPLINE
  5
20C
330
1F
100
AcDbEntity
  8
0
  6
Continuous
 62
     7
370
    25
100
AcDbSpline
210
0.0
220
0.0
230
1.0
 70
     8
 71
     3
 72
    10
 73
     6
 74
     0
 42
0.000000001
 43
0.00000001
 40
0.0
 40
0.0
 40
0.0
 40
0.0
 40
0.113376388684743
 40
0.93001945059226
 40
0.9999999999999999
 40
0.9999999999999999
 40
0.9999999999999999
 40
0.9999999999999999
 10
138.2825851739857
 20
446.5139158306398
 30
0.0
 10
138.2756202785198
 20
446.4846847267384
 30
0.0
 10
138.2184876750758
 20
446.2449038031623
 30
0.0
 10
138.1554050938316
 20
445.9870786592953
 30
0.0
 10
138.0968742974063
 20
445.7585807375507
 30
0.0
 10
138.0922545047019
 20
445.7405455646791
 30
0.0
  0
ARC
  5
20D
330
1F
100
AcDbEntity
  8
0
  6
Continuous
 62
     7
370
    25
100
AcDbCircle
 10
137.4498437319
 20
445.2196878643
 30
0.0
 40
0.8270334606871591
100
AcDbArc
 50
39.0346573213
 51
54.5279527425
  0
SPLINE
  5
20E
330
1F
100
AcDbEntity
  8
0
  6
Continuous
 62
     7
370
    25
100
AcDbSpline
210
0.0
220
0.0
230
1.0
 70
    24
 71
     3
 72
    10
 73
     6
 74
     0
 42
0.000000001
 43
0.00000001
 40
0.0
 40
0.0
 40
0.0
 40
0.0
 40
0.0699819363459679
 40
0.8866236767979869
 40
1.0
 40
1.0
 40
1.0
 40
1.0
 10
137.9297759683344
 20
445.8932228622712
 30
0.0
 10
137.9297759683344
 20
445.9155993083245
 30
0.0
 10
137.9297759683344
 20
446.1990937057265
 30
0.0
 10
137.9297759683344
 20
446.516213220883
 30
0.0
 10
137.9297759683344
 20
446.8096763620557
 30
0.0
 10
137.9297759683344
 20
446.8454517660417
 30
0.0
  0
LINE
  5
20F
330
1F
100
AcDbEntity
  8
0
  6
Continuous
 62
     7
370
    25
100
AcDbLine
 10
137.9297759683
 20
446.1806215582
 30
0.0
 11
136.8997760416
 21
446.1806215582
 31
0.0
  0
ARC
  5
210
330
1F
100
AcDbEntity
  8
0
  6
Continuous
 62
     7
370
    25
100
AcDbCircle
 10
137.414776005
 20
445.3498519169
 30
0.0
 40
0.8932630018879566
100
AcDbArc
 50
234.7925973724
 51
305.2074026276
  0
ARC
  5
211
330
1F
100
AcDbEntity
  8
0
  6
Continuous
 62
     7
370
    25
100
AcDbCircle
 10
137.414776005
 20
445.1633640894
 30
0.0
 40
0.8932630018879102
100
AcDbArc
 50
54.7925973724
 51
125.2074026276
  0
ARC
  5
212
330
1F
100
AcDbEntity
  8
0
  6
Continuous
 62
     7
370
    25
100
AcDbCircle
 10
137.487414097
 20
445.2487025933
 30
0.0
 40
0.7795777237231475
100
AcDbArc
 50
16.9039830803
 51
39.1172537736
  0
ARC
  5
213
330
1F
100
AcDbEntity
  8
0
  6
Continuous
 62
     7
370
    25
100
AcDbCircle
 10
137.342137913
 20
445.2487025933
 30
0.0
 40
0.7795777237231475
100
AcDbArc
 50
140.8827462264
 51
163.0960169197
  0
LINE
  5
214
330
1F
100
AcDbEntity
  8
0
  6
Continuous
 62
     7
370
    25
100
AcDbLine
 10
136.8997760416
 20
359.7024776278
 30
0.0
 11
136.8997760416
 21
358.5665397582
 31
0.0
  0
ARC
  5
215
330
1F
100
AcDbEntity
  8
0
  6
Continuous
 62
     7
370
    25
100
AcDbCircle
 10
137.414776005
 20
415.3101858625
 30
0.0
 40
56.74598310157477
100
AcDbArc
 50
269.4800032035
 51
270.5199967965
  0
LINE
  5
216
330
1F
100
AcDbEntity
  8
0
  6
Continuous
 62
     7
370
    25
100
AcDbLine
 10
137.9297759683
 20
358.5665397582
 30
0.0
 11
137.9297759683
 21
359.7024776278
 31
0.0
  0
ARC
  5
217
330
1F
100
AcDbEntity
  8
0
  6
Continuous
 62
     7
370
    25
100
AcDbCircle
 10
137.455189817
 20
360.5610195391
 30
0.0
 40
0.9809822773557944
100
AcDbArc
 50
298.9330090139
 51
327.5047067249
  0
ARC
  5
218
330
1F
100
AcDbEntity
  8
0
  6
Continuous
 62
     7
370
    25
100
AcDbCircle
 10
137.4743145282
 20
342.353188027
 30
0.0
 40
17.69928330790901
100
AcDbArc
 50
83.7560179749
 51
87.382571515
  0
ARC
  5
219
330
1F
100
AcDbEntity
  8
0
  6
Continuous
 62
     7
370
    25
100
AcDbCircle
 10
126.7110627323
 20
360.4314163564
 30
0.0
 40
12.69749508846903
100
AcDbArc
 50
357.8157494519
 51
2.1842505481
  0
ARC
  5
21A
330
1F
100
AcDbEntity
  8
0
  6
Continuous
 62
     7
370
    25
100
AcDbCircle
 10
137.474012555
 20
343.3186959884
 30
0.0
 40
17.70167667672566
100
AcDbArc
 50
83.7558823126
 51
87.381947222
  0
ARC
  5
21B
330
1F
100
AcDbEntity
  8
0
  6
Continuous
 62
     7
370
    25
100
AcDbCircle
 10
137.4552495026
 20
360.4749462272
 30
0.0
 40
0.9808978134063517
100
AcDbArc
 50
32.4940369921
 51
61.0682472692
  0
LINE
  5
21C
330
1F
100
AcDbEntity
  8
0
  6
Continuous
 62
     7
370
    25
100
AcDbLine
 10
137.9297759683
 20
361.3334246216
 30
0.0
 11
137.9297759683
 21
362.2962855039
 31
0.0
  0
ARC
  5
21D
330
1F
100
AcDbEntity
  8
0
  6
Continuous
 62
     7
370
    25
100
AcDbCircle
 10
137.414776005
 20
353.4593022562
 30
0.0
 40
8.851977060657472
100
AcDbArc
 50
86.6647003659
 51
93.3352996341
  0
LINE
  5
21E
330
1F
100
AcDbEntity
  8
0
  6
Continuous
 62
     7
370
    25
100
AcDbLine
 10
136.8997760416
 20
362.2962855039
 30
0.0
 11
136.8997760416
 21
361.3334246216
 31
0.0
  0
ARC
  5
21F
330
1F
100
AcDbEntity
  8
0
  6
Continuous
 62
     7
370
    25
100
AcDbCircle
 10
137.3743025074
 20
360.4749462272
 30
0.0
 40
0.9808978134063517
100
AcDbArc
 50
118.9317527308
 51
147.5059630079
  0
ARC
  5
220
330
1F
100
AcDbEntity
  8
0
  6
Continuous
 62
     7
370
    25
100
AcDbCircle
 10
137.355539455
 20
343.3186959884
 30
0.0
 40
17.70167667672566
100
AcDbArc
 50
92.618052778
 51
96.2441176874
  0
ARC
  5
221
330
1F
100
AcDbEntity
  8
0
  6
Continuous
 62
     7
370
    25
100
AcDbCircle
 10
148.1184892777
 20
360.4314163564
 30
0.0
 40
12.69749508846909
100
AcDbArc
 50
177.8157494519
 51
182.1842505481
  0
ARC
  5
222
330
1F
100
AcDbEntity
  8
0
  6
Continuous
 62
     7
370
    25
100
AcDbCircle
 10
137.3552374818
 20
342.353188027
 30
0.0
 40
17.69928330790901
100
AcDbArc
 50
92.617428485
 51
96.2439820251
  0
ARC
  5
223
330
1F
100
AcDbEntity
  8
0
  6
Continuous
 62
     7
370
    25
100
AcDbCircle
 10
137.374362193
 20
360.5610195391
 30
0.0
 40
0.9809822773558183
100
AcDbArc
 50
212.4952932751
 51
241.0669909861
  0
LWPOLYLINE
  5
224
330
1F
100
AcDbEntity
  8
0
  6
Continuous
 62
     7
370
    25
100
AcDbPolyline
 90
       21
 70
   128
 43
0.0
 10
141.2681967319
 20
360.1121179996
 10
141.07959646
 20
361.2310759959
 10
140.5322581829
 20
362.240503007
 10
139.6797590257
 20
363.0415894327
 10
138.6055473538
 20
363.5559253631
 10
137.4147750737
 20
363.7331448732
 10
136.2240027936
 20
363.5559253631
 10
135.1497929843
 20
363.0415894327
 10
134.2972938271
 20
362.240503007
 10
133.74995555
 20
361.2310759959
 10
133.561355278
 20
360.1121179996
 10
133.74995555
 20
358.9931600032
 10
134.2972938271
 20
357.9837255416
 10
135.1497929843
 20
357.1826391158
 10
136.2240027936
 20
356.6683106361
 10
137.4147750737
 20
356.4910836754
 10
138.6055473538
 20
356.6683106361
 10
139.6797590257
 20
357.1826391158
 10
140.5322581829
 20
357.9837255416
 10
141.07959646
 20
358.9931600032
 10
141.2681967319
 20
360.1121179996
  0
LINE
  5
225
330
1F
100
AcDbEntity
  8
0
  6
Continuous
 62
     7
370
    25
100
AcDbLine
 10
136.8997760416
 20
358.8205598531
 30
0.0
 11
137.9297759683
 21
358.8205598531
 31
0.0
  0
LWPOLYLINE
  5
226
330
1F
100
AcDbEntity
  8
0
  6
Continuous
 62
     7
370
    25
100
AcDbPolyline
 90
       22
 70
   128
 43
0.0
 10
141.4147757293
 20
360.0129582224
 10
141.2370682062
 20
361.1208744583
 10
140.7197296919
 20
362.1303536234
 10
139.9087339939
 20
362.9516832767
 10
138.8761394025
 20
363.5118998823
 10
137.7136960925
 20
363.7612186609
 10
136.5246914627
 20
363.6774890361
 10
135.4147766085
 20
363.2681541381
 10
134.4825692774
 20
362.5695728002
 10
133.8109012993
 20
361.6438307104
 10
133.4594518246
 20
360.5731748281
 10
133.4594518246
 20
359.4527416168
 10
133.8109012993
 20
358.382093185
 10
134.4825692774
 20
357.4563436446
 10
135.4147766085
 20
356.7577697573
 10
136.5246914627
 20
356.3484274087
 10
137.7136960925
 20
356.264697784
 10
138.8761394025
 20
356.5140165625
 10
139.9087339939
 20
357.0742331682
 10
140.7197296919
 20
357.895570272
 10
141.2370682062
 20
358.9050419865
 10
141.4147757293
 20
360.0129582224
  0
ARC
  5
227
330
1F
100
AcDbEntity
  8
0
  6
Continuous
 62
     7
370
    25
100
AcDbCircle
 10
137.414776005
 20
359.670599052
 30
0.0
 40
4.004319755341846
100
AcDbArc
 50
182.6616793793
 51
357.3383206207
  0
LINE
  5
228
330
1F
100
AcDbEntity
  8
0
  6
Continuous
 62
     7
370
    25
100
AcDbLine
 10
138.3980952503
 20
360.0283064184
 30
0.0
 11
138.3980952503
 21
360.2285184202
 31
0.0
  0
LINE
  5
229
330
1F
100
AcDbEntity
  8
0
  6
Continuous
 62
     7
370
    25
100
AcDbLine
 10
139.3993322106
 20
360.9153576432
 30
0.0
 11
138.3980952503
 21
360.2285184202
 31
0.0
  0
LINE
  5
22A
330
1F
100
AcDbEntity
  8
0
  6
Continuous
 62
     7
370
    25
100
AcDbLine
 10
135.4302197994
 20
360.9153576432
 30
0.0
 11
136.4314567597
 21
360.2285184202
 31
0.0
  0
LINE
  5
22B
330
1F
100
AcDbEntity
  8
0
  6
Continuous
 62
     7
370
    25
100
AcDbLine
 10
136.4314567597
 20
360.2285184202
 30
0.0
 11
136.4314567597
 21
360.0283064184
 31
0.0
  0
SPLINE
  5
22C
330
1F
100
AcDbEntity
  8
0
  6
Continuous
 62
     7
370
    25
100
AcDbSpline
210
0.0
220
0.0
230
1.0
 70
    24
 71
     3
 72
    10
 73
     6
 74
     0
 42
0.000000001
 43
0.00000001
 40
0.0
 40
0.0
 40
0.0
 40
0.0
 40
0.1133778503849098
 40
0.9300179666557326
 40
1.0
 40
1.0
 40
1.0
 40
1.0
 10
136.8997760416482
 20
361.3334246216096
 30
0.0
 10
136.8997760416482
 20
361.2976465141722
 30
0.0
 10
136.8997760416481
 20
361.0041651805893
 30
0.0
 10
136.8997760416481
 20
360.6870738479594
 30
0.0
 10
136.8997760416482
 20
360.4035796669506
 30
0.0
 10
136.8997760416482
 20
360.3812031684197
 30
0.0
  0
ARC
  5
22D
330
1F
100
AcDbEntity
  8
0
  6
Continuous
 62
     7
370
    25
100
AcDbCircle
 10
137.3801383726
 20
359.7072359042
 30
0.0
 40
0.8276350899705708
100
AcDbArc
 50
125.4789300641
 51
140.9612504121
  0
SPLINE
  5
22E
330
1F
100
AcDbEntity
  8
0
  6
Continuous
 62
     7
370
    25
100
AcDbSpline
210
0.0
220
0.0
230
1.0
 70
     8
 71
     3
 72
    10
 73
     6
 74
     0
 42
0.000000001
 43
0.00000001
 40
0.0
 40
0.0
 40
0.0
 40
0.0
 40
0.0699804710662317
 40
0.8866214997453883
 40
1.0
 40
1.0
 40
1.0
 40
1.0
 10
136.7372975052807
 20
360.228518420247
 30
0.0
 10
136.7326777148442
 20
360.2465536653553
 30
0.0
 10
136.6741470210243
 20
360.4750522139151
 30
0.0
 10
136.6110631661092
 20
360.7328394444694
 30
0.0
 10
136.5539317195568
 20
360.9726596964221
 30
0.0
 10
136.5469668359969
 20
361.0018961367883
 30
0.0
  0
LINE
  5
22F
330
1F
100
AcDbEntity
  8
0
  6
Continuous
 62
     7
370
    25
100
AcDbLine
 10
136.4314567597
 20
360.2285184202
 30
0.0
 11
136.7372975053
 21
360.2285184202
 31
0.0
  0
SPLINE
  5
230
330
1F
100
AcDbEntity
  8
0
  6
Continuous
 62
     7
370
    25
100
AcDbSpline
210
0.0
220
0.0
230
1.0
 70
    24
 71
     3
 72
    10
 73
     6
 74
     0
 42
0.000000001
 43
0.00000001
 40
0.0
 40
0.0
 40
0.0
 40
0.0
 40
0.0699820333442674
 40
0.8866221496150902
 40
1.0
 40
1.0
 40
1.0
 40
1.0
 10
137.9297759683344
 20
360.3812031684197
 30
0.0
 10
137.9297759683344
 20
360.4035796669506
 30
0.0
 10
137.9297759683344
 20
360.6870738479593
 30
0.0
 10
137.9297759683344
 20
361.0041651805893
 30
0.0
 10
137.9297759683344
 20
361.2976465141722
 30
0.0
 10
137.9297759683344
 20
361.3334246216096
 30
0.0
  0
SPLINE
  5
231
330
1F
100
AcDbEntity
  8
0
  6
Continuous
 62
     7
370
    25
100
AcDbSpline
210
0.0
220
0.0
230
1.0
 70
     8
 71
     3
 72
    10
 73
     6
 74
     0
 42
0.000000001
 43
0.00000001
 40
0.0
 40
0.0
 40
0.0
 40
0.0
 40
0.1133785002546117
 40
0.9300195289337684
 40
1.0
 40
1.0
 40
1.0
 40
1.0
 10
138.2825851739857
 20
361.0018961367883
 30
0.0
 10
138.2756202904258
 20
360.9726596964221
 30
0.0
 10
138.2184888438733
 20
360.7328394444694
 30
0.0
 10
138.1554049889583
 20
360.4750522139153
 30
0.0
 10
138.0968742951384
 20
360.2465536653553
 30
0.0
 10
138.0922545047019
 20
360.228518420247
 30
0.0
  0
ARC
  5
232
330
1F
100
AcDbEntity
  8
0
  6
Continuous
 62
     7
370
    25
100
AcDbCircle
 10
137.4494136374
 20
359.7072359042
 30
0.0
 40
0.8276350899704933
100
AcDbArc
 50
39.0387495879
 51
54.5210699359
  0
LINE
  5
233
330
1F
100
AcDbEntity
  8
0
  6
Continuous
 62
     7
370
    25
100
AcDbLine
 10
138.0922545047
 20
360.2285184202
 30
0.0
 11
138.3980952503
 21
360.2285184202
 31
0.0
  0
LINE
  5
234
330
1F
100
AcDbEntity
  8
0
  6
Continuous
 62
     7
370
    25
100
AcDbLine
 10
137.9297759683
 20
360.6685944138
 30
0.0
 11
136.8997760416
 21
360.6685944138
 31
0.0
  0
ARC
  5
235
330
1F
100
AcDbEntity
  8
0
  6
Continuous
 62
     7
370
    25
100
AcDbCircle
 10
137.414776005
 20
359.8378657911
 30
0.0
 40
0.893302605056677
100
AcDbArc
 50
234.7943897006
 51
305.2056102994
  0
ARC
  5
236
330
1F
100
AcDbEntity
  8
0
  6
Continuous
 62
     7
370
    25
100
AcDbCircle
 10
137.4870736614
 20
359.7364879806
 30
0.0
 40
0.7799601314553649
100
AcDbArc
 50
16.9104114826
 51
39.1121603886
  0
ARC
  5
237
330
1F
100
AcDbEntity
  8
0
  6
Continuous
 62
     7
370
    25
100
AcDbCircle
 10
137.3424783486
 20
359.7364879806
 30
0.0
 40
0.7799601314553649
100
AcDbArc
 50
140.8878396114
 51
163.0895885174
  0
ARC
  5
238
330
1F
100
AcDbEntity
  8
0
  6
Continuous
 62
     7
370
    25
100
AcDbCircle
 10
137.414776005
 20
359.6512610818
 30
0.0
 40
0.8933310763750656
100
AcDbArc
 50
54.7956781099
 51
125.2043218901
  0
ELLIPSE
  5
239
330
1F
100
AcDbEntity
  8
0
  6
Continuous
 62
     7
370
    25
100
AcDbEllipse
 10
88.2147759081
 20
369.2670943332
 30
0.0
 11
-2.842170943040401E-13
 21
5.071918558999585
 31
0.0
210
0.0
220
0.0
230
1.0
 40
0.9858202457
 41
1.570796326794841
 42
3.141592653589742
  0
LINE
  5
23A
330
1F
100
AcDbEntity
  8
0
  6
Continuous
 62
     7
370
    25
100
AcDbLine
 10
83.2147758754
 20
369.2670934139
 30
0.0
 11
85.2147762032
 21
369.2670934139
 31
0.0
  0
ELLIPSE
  5
23B
330
1F
100
AcDbEntity
  8
0
  6
Continuous
 62
     7
370
    25
100
AcDbEllipse
 10
88.2147759081
 20
369.2670943332
 30
0.0
 11
-1.421085471520200E-14
 21
3.192533317427717
 31
0.0
210
9.473903143468002E-15
220
4.217098077654364E-29
230
1.0
 40
0.9396926208
 41
1.570796326794892
 42
3.141592653589788
  0
LINE
  5
23C
330
1F
100
AcDbEntity
  8
0
  6
Continuous
 62
     7
370
    25
100
AcDbLine
 10
88.2147766949
 20
364.1951777277
 30
0.0
 11
88.2147766949
 21
366.0745643316
 31
0.0
  0
LINE
  5
23D
330
1F
100
AcDbEntity
  8
0
  6
Continuous
 62
     7
370
    25
100
AcDbLine
 10
83.2147758754
 20
369.2670934139
 30
0.0
 11
83.2147758754
 21
437.0251842079
 31
0.0
  0
LINE
  5
23E
330
1F
100
AcDbEntity
  8
0
  6
Continuous
 62
     7
370
    25
100
AcDbLine
 10
83.2147758754
 20
437.0251842079
 30
0.0
 11
85.2147762032
 21
437.0251842079
 31
0.0
  0
LINE
  5
23F
330
1F
100
AcDbEntity
  8
0
  6
Continuous
 62
     7
370
    25
100
AcDbLine
 10
85.2147762032
 20
437.0251842079
 30
0.0
 11
85.2147762032
 21
369.2670934139
 31
0.0
  0
ARC
  5
240
330
1F
100
AcDbEntity
  8
0
  6
Continuous
 62
     7
370
    25
100
AcDbCircle
 10
88.2147759081
 20
437.0251885584
 30
0.0
 40
3.0
100
AcDbArc
 50
90.0
 51
180.0
  0
ARC
  5
241
330
1F
100
AcDbEntity
  8
0
  6
Continuous
 62
     7
370
    25
100
AcDbCircle
 10
88.2147759081
 20
437.0251885584
 30
0.0
 40
5.0
100
AcDbArc
 50
90.0
 51
180.0
  0
LINE
  5
242
330
1F
100
AcDbEntity
  8
0
  6
Continuous
 62
     7
370
    25
100
AcDbLine
 10
88.2147766949
 20
440.0251902876
 30
0.0
 11
88.2147766949
 21
442.0251943407
 31
0.0
  0
ARC
  5
243
330
1F
100
AcDbEntity
  8
0
  6
Continuous
 62
     7
370
    25
100
AcDbCircle
 10
129.6147759081
 20
437.0251885584
 30
0.0
 40
3.0
100
AcDbArc
 50
0.0
 51
90.0
  0
LINE
  5
244
330
1F
100
AcDbEntity
  8
0
  6
Continuous
 62
     7
370
    25
100
AcDbLine
 10
132.614775777
 20
369.2670934139
 30
0.0
 11
132.614775777
 21
437.0251842079
 31
0.0
  0
ELLIPSE
  5
245
330
1F
100
AcDbEntity
  8
0
  6
Continuous
 62
     7
370
    25
100
AcDbEllipse
 10
129.6147759081
 20
369.2670943332
 30
0.0
 11
0.0
 21
-3.192533317427717
 31
0.0
210
9.473903143468093E-15
220
0.0
230
1.0
 40
0.9396926208
 41
0.0
 42
1.570796326794915
  0
LINE
  5
246
330
1F
100
AcDbEntity
  8
0
  6
Continuous
 62
     7
370
    25
100
AcDbLine
 10
88.2147766949
 20
366.0745643316
 30
0.0
 11
129.6147752853
 21
366.0745643316
 31
0.0
  0
LINE
  5
247
330
1F
100
AcDbEntity
  8
0
  6
Continuous
 62
     7
370
    25
100
AcDbLine
 10
129.6147752853
 20
440.0251902876
 30
0.0
 11
88.2147766949
 21
440.0251902876
 31
0.0
  0
LINE
  5
248
330
1F
100
AcDbEntity
  8
0
  6
Continuous
 62
     7
370
    25
100
AcDbLine
 10
129.6147752853
 20
364.1951777277
 30
0.0
 11
88.2147766949
 21
364.1951777277
 31
0.0
  0
LINE
  5
249
330
1F
100
AcDbEntity
  8
0
  6
Continuous
 62
     7
370
    25
100
AcDbLine
 10
129.6147752853
 20
364.1951777277
 30
0.0
 11
129.6147752853
 21
366.0745643316
 31
0.0
  0
LINE
  5
24A
330
1F
100
AcDbEntity
  8
0
  6
Continuous
 62
     7
370
    25
100
AcDbLine
 10
88.2147766949
 20
442.0251943407
 30
0.0
 11
129.6147752853
 21
442.0251943407
 31
0.0
  0
LINE
  5
24B
330
1F
100
AcDbEntity
  8
0
  6
Continuous
 62
     7
370
    25
100
AcDbLine
 10
129.6147752853
 20
440.0251902876
 30
0.0
 11
129.6147752853
 21
442.0251943407
 31
0.0
  0
LINE
  5
24C
330
1F
100
AcDbEntity
  8
0
  6
Continuous
 62
     7
370
    25
100
AcDbLine
 10
132.614775777
 20
369.2670934139
 30
0.0
 11
134.6147761048
 21
369.2670934139
 31
0.0
  0
ELLIPSE
  5
24D
330
1F
100
AcDbEntity
  8
0
  6
Continuous
 62
     7
370
    25
100
AcDbEllipse
 10
129.6147759081
 20
369.2670943332
 30
0.0
 11
-2.842170943040401E-13
 21
5.071918558999585
 31
0.0
210
0.0
220
0.0
230
1.0
 40
0.9858202457
 41
3.141592653589742
 42
4.712388980384659
  0
ARC
  5
24E
330
1F
100
AcDbEntity
  8
0
  6
Continuous
 62
     7
370
    25
100
AcDbCircle
 10
129.6147759081
 20
437.0251885584
 30
0.0
 40
5.0
100
AcDbArc
 50
0.0
 51
90.0
  0
LINE
  5
24F
330
1F
100
AcDbEntity
  8
0
  6
Continuous
 62
     7
370
    25
100
AcDbLine
 10
132.614775777
 20
437.0251842079
 30
0.0
 11
134.6147761048
 21
437.0251842079
 31
0.0
  0
LINE
  5
250
330
1F
100
AcDbEntity
  8
0
  6
Continuous
 62
     7
370
    25
100
AcDbLine
 10
134.6147761048
 20
437.0251842079
 30
0.0
 11
134.6147761048
 21
369.2670934139
 31
0.0
  0
LWPOLYLINE
  5
251
330
1F
100
AcDbEntity
  8
0
  6
Continuous
 62
     7
370
    25
100
AcDbPolyline
 90
        3
 70
   128
 43
0.0
 10
83.2147758754
 20
368.0959590016
 10
83.3108492495
 20
367.1793364225
 10
83.4133375735
 20
366.7850293455
  0
LINE
  5
252
330
1F
100
AcDbEntity
  8
0
  6
Continuous
 62
     7
370
    25
100
AcDbLine
 10
83.2147758754
 20
368.0959590016
 30
0.0
 11
83.2147758754
 21
369.2670934139
 31
0.0
  0
LINE
  5
253
330
1F
100
AcDbEntity
  8
0
  6
Continuous
 62
     7
370
    25
100
AcDbLine
 10
88.2147766949
 20
364.1951777277
 30
0.0
 11
88.2147766949
 21
363.3974962173
 31
0.0
  0
LINE
  5
254
330
1F
100
AcDbEntity
  8
0
  6
Continuous
 62
     7
370
    25
100
AcDbLine
 10
88.2147766949
 20
363.3974962173
 30
0.0
 11
129.6147752853
 21
363.3974962173
 31
0.0
  0
LINE
  5
255
330
1F
100
AcDbEntity
  8
0
  6
Continuous
 62
     7
370
    25
100
AcDbLine
 10
129.6147752853
 20
363.3974962173
 30
0.0
 11
129.6147752853
 21
364.1951777277
 31
0.0
  0
LINE
  5
256
330
1F
100
AcDbEntity
  8
0
  6
Continuous
 62
     7
370
    25
100
AcDbLine
 10
134.5582001211
 20
367.3911564288
 30
0.0
 11
134.6147761048
 21
368.0959590016
 31
0.0
  0
LINE
  5
257
330
1F
100
AcDbEntity
  8
0
  6
Continuous
 62
     7
370
    25
100
AcDbLine
 10
134.6147761048
 20
369.2670934139
 30
0.0
 11
134.6147761048
 21
368.0959590016
 31
0.0
  0
ARC
  5
258
330
1F
100
AcDbEntity
  8
0
  6
Continuous
 62
     7
370
    25
100
AcDbCircle
 10
79.2977976587
 20
359.6091266279
 30
0.0
 40
3.885016370839083
100
AcDbArc
 50
181.8361551206
 51
271.7254550151
  0
LINE
  5
259
330
1F
100
AcDbEntity
  8
0
  6
Continuous
 62
     7
370
    25
100
AcDbLine
 10
79.4147767426
 20
355.7258717952
 30
0.0
 11
79.4147767426
 21
353.5469644008
 31
0.0
  0
ARC
  5
25A
330
1F
100
AcDbEntity
  8
0
  6
Continuous
 62
     7
370
    25
100
AcDbCircle
 10
79.2480779547
 20
359.0805976008
 30
0.0
 40
5.536143502329773
100
AcDbArc
 50
181.8361788964
 51
271.7254937261
  0
LWPOLYLINE
  5
25B
330
1F
100
AcDbEntity
  8
0
  6
Continuous
 62
     7
370
    25
100
AcDbPolyline
 90
        9
 70
   128
 43
0.0
 10
73.7147771121
 20
358.9032091437
 10
73.7474404575
 20
359.0166442333
 10
73.8441825212
 20
359.1257132826
 10
74.0012780131
 20
359.226236516
 10
74.2126956881
 20
359.3143470822
 10
74.4703069629
 20
359.3866549669
 10
74.764213741
 20
359.4403811035
 10
75.0831209423
 20
359.473469132
 10
75.4147760869
 20
359.4846450029
  0
LINE
  5
25C
330
1F
100
AcDbEntity
  8
0
  6
Continuous
 62
     7
370
    25
100
AcDbLine
 10
79.4147767426
 20
355.7258717952
 30
0.0
 11
138.4147752376
 21
355.7258717952
 31
0.0
  0
LINE
  5
25D
330
1F
100
AcDbEntity
  8
0
  6
Continuous
 62
     7
370
    25
100
AcDbLine
 10
138.4147752376
 20
355.7258717952
 30
0.0
 11
138.4147752376
 21
353.5469644008
 31
0.0
  0
LINE
  5
25E
330
1F
100
AcDbEntity
  8
0
  6
Continuous
 62
     7
370
    25
100
AcDbLine
 10
138.4147752376
 20
353.5469644008
 30
0.0
 11
79.4147767426
 21
353.5469644008
 31
0.0
  0
ARC
  5
25F
330
1F
100
AcDbEntity
  8
0
  6
Continuous
 62
     7
370
    25
100
AcDbCircle
 10
138.5317553452
 20
359.6091274627
 30
0.0
 40
3.885017236062311
100
AcDbArc
 50
268.2745302645
 51
358.163832971
  0
LWPOLYLINE
  5
260
330
1F
100
AcDbEntity
  8
0
  6
Continuous
 62
     7
370
    25
100
AcDbPolyline
 90
        9
 70
   128
 43
0.0
 10
142.4147777559
 20
359.4846450029
 10
142.7464291753
 20
359.473469132
 10
143.0653363766
 20
359.4403811035
 10
143.35924688
 20
359.3866549669
 10
143.6168581547
 20
359.3143470822
 10
143.8282758297
 20
359.226236516
 10
143.9853713216
 20
359.1257132826
 10
144.0821096601
 20
359.0166442333
 10
144.1147767307
 20
358.9032091437
  0
LWPOLYLINE
  5
261
330
1F
100
AcDbEntity
  8
0
  6
Continuous
 62
     7
370
    25
100
AcDbPolyline
 90
        3
 70
   128
 43
0.0
 10
144.1147767307
 20
358.9032091437
 10
144.0052531959
 20
357.8582577644
 10
143.9452164175
 20
357.6064951954
  0
LINE
  5
262
330
1F
100
AcDbEntity
  8
0
  6
Continuous
 62
     7
370
    25
100
AcDbLine
 10
82.2147757114
 20
367.7539400993
 30
0.0
 11
82.2147757114
 21
436.6831727562
 31
0.0
  0
ARC
  5
263
330
1F
100
AcDbEntity
  8
0
  6
Continuous
 62
     7
370
    25
100
AcDbCircle
 10
88.0393140124
 20
367.9406688616
 30
0.0
 40
5.827530699220492
100
AcDbArc
 50
181.8362154011
 51
271.7253947346
  0
LINE
  5
264
330
1F
100
AcDbEntity
  8
0
  6
Continuous
 62
     7
370
    25
100
AcDbLine
 10
129.6147752853
 20
362.1157802878
 30
0.0
 11
88.2147766949
 21
362.1157802878
 31
0.0
  0
ARC
  5
265
330
1F
100
AcDbEntity
  8
0
  6
Continuous
 62
     7
370
    25
100
AcDbCircle
 10
129.7902379678
 20
367.9406688616
 30
0.0
 40
5.827530699220492
100
AcDbArc
 50
268.2746052654
 51
358.1637845989
  0
LINE
  5
266
330
1F
100
AcDbEntity
  8
0
  6
Continuous
 62
     7
370
    25
100
AcDbLine
 10
135.6147762687
 20
436.6831727562
 30
0.0
 11
135.6147762687
 21
367.7539400993
 31
0.0
  0
ARC
  5
267
330
1F
100
AcDbEntity
  8
0
  6
Continuous
 62
     7
370
    25
100
AcDbCircle
 10
129.6147759081
 20
436.6831684151
 30
0.0
 40
6.0
100
AcDbArc
 50
0.0
 51
90.0
  0
LINE
  5
268
330
1F
100
AcDbEntity
  8
0
  6
Continuous
 62
     7
370
    25
100
AcDbLine
 10
88.2147766949
 20
442.6831700144
 30
0.0
 11
129.6147752853
 21
442.6831700144
 31
0.0
  0
ARC
  5
269
330
1F
100
AcDbEntity
  8
0
  6
Continuous
 62
     7
370
    25
100
AcDbCircle
 10
88.2147759081
 20
436.6831684151
 30
0.0
 40
6.000000000000057
100
AcDbArc
 50
90.0
 51
180.0
  0
ARC
  5
26A
330
1F
100
AcDbEntity
  8
0
  6
Continuous
 62
     7
370
    25
100
AcDbCircle
 10
79.2977934881
 20
445.8118845371
 30
0.0
 40
3.885012060221979
100
AcDbArc
 50
88.274481535
 51
178.1639083293
  0
LINE
  5
26B
330
1F
100
AcDbEntity
  8
0
  6
Continuous
 62
     7
370
    25
100
AcDbLine
 10
138.4147752376
 20
449.6951349316
 30
0.0
 11
79.4147767426
 21
449.6951349316
 31
0.0
  0
ARC
  5
26C
330
1F
100
AcDbEntity
  8
0
  6
Continuous
 62
     7
370
    25
100
AcDbCircle
 10
138.5317595158
 20
445.8118837023
 30
0.0
 40
3.885012925447602
100
AcDbArc
 50
1.8361035792
 51
91.7255331854
  0
LINE
  5
26D
330
1F
100
AcDbEntity
  8
0
  6
Continuous
 62
     7
370
    25
100
AcDbLine
 10
142.4147777559
 20
359.4846450029
 30
0.0
 11
142.4147777559
 21
445.9363617239
 31
0.0
  0
ARC
  5
26E
330
1F
100
AcDbEntity
  8
0
  6
Continuous
 62
     7
370
    25
100
AcDbCircle
 10
79.2480852207
 20
357.6099126307
 30
0.0
 40
5.536150765818333
100
AcDbArc
 50
181.8361768498
 51
271.7254162278
  0
LINE
  5
26F
330
1F
100
AcDbEntity
  8
0
  6
Continuous
 62
     7
370
    25
100
AcDbLine
 10
73.7147771121
 20
357.4325241385
 30
0.0
 11
73.7147771121
 21
358.9032091437
 31
0.0
  0
LINE
  5
270
330
1F
100
AcDbEntity
  8
0
  6
Continuous
 62
     7
370
    25
100
AcDbLine
 10
79.4147767426
 20
353.5469644008
 30
0.0
 11
79.4147767426
 21
352.076271945
 31
0.0
  0
LINE
  5
271
330
1F
100
AcDbEntity
  8
0
  6
Continuous
 62
     7
370
    25
100
AcDbLine
 10
138.4147752376
 20
352.076271945
 30
0.0
 11
79.4147767426
 21
352.076271945
 31
0.0
  0
LINE
  5
272
330
1F
100
AcDbEntity
  8
0
  6
Continuous
 62
     7
370
    25
100
AcDbLine
 10
138.4147752376
 20
352.076271945
 30
0.0
 11
138.4147752376
 21
353.5469644008
 31
0.0
  0
ARC
  5
273
330
1F
100
AcDbEntity
  8
0
  6
Continuous
 62
     7
370
    25
100
AcDbCircle
 10
138.5814621913
 20
357.6099194162
 30
0.0
 40
5.536157410693536
100
AcDbArc
 50
268.2746331423
 51
358.1637550931
  0
LINE
  5
274
330
1F
100
AcDbEntity
  8
0
  6
Continuous
 62
     7
370
    25
100
AcDbLine
 10
144.1147767307
 20
358.9032091437
 30
0.0
 11
144.1147767307
 21
357.4325241385
 31
0.0
  0
LINE
  5
275
330
1F
100
AcDbEntity
  8
0
  6
Continuous
 62
     7
370
    25
100
AcDbLine
 10
73.7147771121
 20
358.9032091437
 30
0.0
 11
73.7147771121
 21
445.3549333153
 31
0.0
  0
LWPOLYLINE
  5
276
330
1F
100
AcDbEntity
  8
0
  6
Continuous
 62
     7
370
    25
100
AcDbPolyline
 90
        9
 70
   128
 43
0.0
 10
73.7147771121
 20
445.3549333153
 10
73.7474404575
 20
445.4683609543
 10
73.8441825212
 20
445.5774374543
 10
74.0012780131
 20
445.6779606877
 10
74.2126956881
 20
445.7660712538
 10
74.4703069629
 20
445.8383716879
 10
74.764213741
 20
445.8921052752
 10
75.0831209423
 20
445.925185853
 10
75.4147760869
 20
445.9363617239
  0
LWPOLYLINE
  5
277
330
1F
100
AcDbEntity
  8
0
  6
Continuous
 62
     7
370
    25
100
AcDbPolyline
 90
        9
 70
   128
 43
0.0
 10
142.4147777559
 20
445.9363617239
 10
142.7464291753
 20
445.925185853
 10
143.0653363766
 20
445.8921052752
 10
143.35924688
 20
445.8383716879
 10
143.6168581547
 20
445.7660712538
 10
143.8282758297
 20
445.6779606877
 10
143.9853713216
 20
445.5774374543
 10
144.0821096601
 20
445.4683609543
 10
144.1147767307
 20
445.3549333153
  0
LINE
  5
278
330
1F
100
AcDbEntity
  8
0
  6
Continuous
 62
     7
370
    25
100
AcDbLine
 10
144.1147767307
 20
445.3549333153
 30
0.0
 11
144.1147767307
 21
358.9032091437
 31
0.0
  0
LINE
  5
279
330
1F
100
AcDbEntity
  8
0
  6
Continuous
 62
     7
370
    25
100
AcDbLine
 10
88.2147766949
 20
363.3974962173
 30
0.0
 11
88.2147766949
 21
362.1157802878
 31
0.0
  0
LWPOLYLINE
  5
27A
330
1F
100
AcDbEntity
  8
0
  6
Continuous
 62
     7
370
    25
100
AcDbPolyline
 90
        9
 70
   128
 43
0.0
 10
83.2147758754
 20
368.0959590016
 10
83.195560828
 20
368.0292316017
 10
83.138655156
 20
367.9650746522
 10
83.0462456049
 20
367.905939394
 10
82.9218823762
 20
367.8541131554
 10
82.7703468801
 20
367.8115777908
 10
82.5974598826
 20
367.7799724279
 10
82.4098654391
 20
367.7605115114
 10
82.2147757114
 20
367.7539400993
  0
LINE
  5
27B
330
1F
100
AcDbEntity
  8
0
  6
Continuous
 62
     7
370
    25
100
AcDbLine
 10
129.6147752853
 20
363.3974962173
 30
0.0
 11
129.6147752853
 21
362.1157802878
 31
0.0
  0
LWPOLYLINE
  5
27C
330
1F
100
AcDbEntity
  8
0
  6
Continuous
 62
     7
370
    25
100
AcDbPolyline
 90
        9
 70
   128
 43
0.0
 10
135.6147762687
 20
367.7539400993
 10
135.4196846785
 20
367.7605115114
 10
135.2320920975
 20
367.7799724279
 10
135.0592051001
 20
367.8115777908
 10
134.907669604
 20
367.8541131554
 10
134.7833063753
 20
367.905939394
 10
134.6908968241
 20
367.9650746522
 10
134.6339911522
 20
368.0292316017
 10
134.6147761048
 20
368.0959590016
  0
LWPOLYLINE
  5
27D
330
1F
100
AcDbEntity
  8
0
  6
Continuous
 62
     7
370
    25
100
AcDbPolyline
 90
        9
 70
   128
 43
0.0
 10
83.2147758754
 20
437.0251842079
 10
83.195560828
 20
436.9584568081
 10
83.138655156
 20
436.8943073092
 10
83.0462456049
 20
436.8351795016
 10
82.9218823762
 20
436.7833383618
 10
82.7703468801
 20
436.7408104477
 10
82.5974598826
 20
436.7092050848
 10
82.4098654391
 20
436.6897441683
 10
82.2147757114
 20
436.6831727562
  0
LWPOLYLINE
  5
27E
330
1F
100
AcDbEntity
  8
0
  6
Continuous
 62
     7
370
    25
100
AcDbPolyline
 90
        9
 70
   128
 43
0.0
 10
135.6147762687
 20
436.6831727562
 10
135.4196846785
 20
436.6897441683
 10
135.2320920975
 20
436.7092050848
 10
135.0592051001
 20
436.7408104477
 10
134.907669604
 20
436.7833383618
 10
134.7833063753
 20
436.8351795016
 10
134.6908968241
 20
436.8943073092
 10
134.6339911522
 20
436.9584568081
 10
134.6147761048
 20
437.0251842079
  0
LINE
  5
27F
330
1F
100
AcDbEntity
  8
0
  6
Continuous
 62
     7
370
    25
100
AcDbLine
 10
88.2147766949
 20
442.6831700144
 30
0.0
 11
88.2147766949
 21
442.0251943407
 31
0.0
  0
LINE
  5
280
330
1F
100
AcDbEntity
  8
0
  6
Continuous
 62
     7
370
    25
100
AcDbLine
 10
129.6147752853
 20
442.6831700144
 30
0.0
 11
129.6147752853
 21
442.0251943407
 31
0.0
  0
LWPOLYLINE
  5
281
330
1F
100
AcDbEntity
  8
0
  6
Continuous
 62
     7
370
    25
100
AcDbPolyline
 90
        3
 70
   128
 43
0.0
 10
73.7147771121
 20
445.3549333153
 10
73.8243006469
 20
446.399877244
 10
73.8843337001
 20
446.6516472636
  0
LINE
  5
282
330
1F
100
AcDbEntity
  8
0
  6
Continuous
 62
     7
370
    25
100
AcDbLine
 10
187.8873996736
 20
445.092091733
 30
0.0
 11
187.8873996736
 21
466.0920895872
 31
0.0
  0
LINE
  5
283
330
1F
100
AcDbEntity
  8
0
  6
Continuous
 62
     7
370
    25
100
AcDbLine
 10
144.0777808727
 20
445.092091733
 30
0.0
 11
187.8873996736
 21
445.092091733
 31
0.0
  0
LINE
  5
284
330
1F
100
AcDbEntity
  8
0
  6
Continuous
 62
     7
370
    25
100
AcDbLine
 10
60.7363798024
 20
466.0920895872
 30
0.0
 11
76.6205519737
 21
466.0920895872
 31
0.0
  0
LINE
  5
285
330
1F
100
AcDbEntity
  8
0
  6
Continuous
 62
     7
370
    25
100
AcDbLine
 10
60.7363798024
 20
445.092091733
 30
0.0
 11
60.7363798024
 21
466.0920895872
 31
0.0
  0
LINE
  5
286
330
1F
100
AcDbEntity
  8
0
  6
Continuous
 62
     7
370
    25
100
AcDbLine
 10
32.6814420821
 20
445.092091733
 30
0.0
 11
60.7363798024
 21
445.092091733
 31
0.0
  0
LINE
  5
287
330
1F
100
AcDbEntity
  8
0
  6
Continuous
 62
     7
370
    25
100
AcDbLine
 10
32.6814420821
 20
478.2597519694
 30
0.0
 11
32.6814420821
 21
445.092091733
 31
0.0
  0
SPLINE
  5
288
330
1F
100
AcDbEntity
  8
0
  6
Continuous
 62
     7
370
    25
100
AcDbSpline
210
0.0
220
0.0
230
1.0
 70
     8
 71
     3
 72
    11
 73
     7
 74
     0
 42
0.000000001
 43
0.00000001
 40
0.0
 40
0.0
 40
0.0
 40
0.0
 40
0.403205147368377
 40
0.8172674236842575
 40
0.9734836327863435
 40
1.0
 40
1.0
 40
1.0
 40
1.0
 10
33.95155745758748
 20
479.0509589252748
 30
0.0
 10
33.76641695187806
 20
479.0352105400016
 30
0.0
 10
33.39115065106746
 20
479.0032897117496
 30
0.0
 10
32.97742194740876
 20
478.7439894492123
 30
0.0
 10
32.75164066417845
 20
478.4138878394827
 30
0.0
 10
32.69033776082195
 20
478.2792843180781
 30
0.0
 10
32.68144208206868
 20
478.259751969365
 30
0.0
  0
ARC
  5
289
330
1F
100
AcDbEntity
  8
0
  6
Continuous
 62
     7
370
    25
100
AcDbCircle
 10
35.9977418317
 20
479.0709778696
 30
0.0
 40
2.046282299889289
100
AcDbArc
 50
127.7355844697
 51
180.5605381618
  0
ARC
  5
28A
330
1F
100
AcDbEntity
  8
0
  6
Continuous
 62
     7
370
    25
100
AcDbCircle
 10
71.8962314779
 20
461.7026936134
 30
0.0
 40
2.803293009891436
100
AcDbArc
 50
16.9387713005
 51
68.2141346198
  0
LINE
  5
28B
330
1F
100
AcDbEntity
  8
0
  6
Continuous
 62
     7
370
    25
100
AcDbLine
 10
74.5779082478
 20
462.5194318829
 30
0.0
 11
72.3301202358
 21
462.5194318829
 31
0.0
  0
ARC
  5
28C
330
1F
100
AcDbEntity
  8
0
  6
Continuous
 62
     7
370
    25
100
AcDbCircle
 10
75.0474157741
 20
462.5929531525
 30
0.0
 40
2.71828998071364
100
AcDbArc
 50
140.9419423581
 51
181.5498612157
  0
LINE
  5
28D
330
1F
100
AcDbEntity
  8
0
  6
Continuous
 62
     7
370
    25
100
AcDbLine
 10
72.3301202358
 20
445.092091733
 30
0.0
 11
72.3301202358
 21
462.5194318829
 31
0.0
  0
LINE
  5
28E
330
1F
100
AcDbEntity
  8
0
  6
Continuous
 62
     7
370
    25
100
AcDbLine
 10
73.7147771121
 20
445.092091733
 30
0.0
 11
72.3301202358
 21
445.092091733
 31
0.0
  0
SPLINE
  5
28F
330
1F
100
AcDbEntity
  8
0
  6
Continuous
 62
     7
370
    25
100
AcDbSpline
210
0.0
220
0.0
230
1.0
 70
     8
 71
     3
 72
    11
 73
     7
 74
     0
 42
0.000000001
 43
0.00000001
 40
0.0
 40
0.0
 40
0.0
 40
0.0
 40
0.2482587530093587
 40
0.6187739269269955
 40
0.9969438677856598
 40
0.9999999999999999
 40
0.9999999999999999
 40
0.9999999999999999
 40
0.9999999999999999
 10
72.93664219989513
 20
464.3057681856431
 30
0.0
 10
73.25211757030833
 20
464.437292744922
 30
0.0
 10
74.03842593379211
 20
464.7651118733349
 30
0.0
 10
75.29107626981384
 20
465.3858427259756
 30
0.0
 10
76.1802724346314
 20
465.8528803085409
 30
0.0
 10
76.61705050406162
 20
466.0901871957869
 30
0.0
 10
76.62055197372172
 20
466.0920895872392
 30
0.0
  0
SPLINE
  5
290
330
1F
100
AcDbEntity
  8
0
  6
Continuous
 62
     7
370
    25
100
AcDbSpline
210
0.0
220
0.0
230
1.0
 70
     8
 71
     3
 72
    11
 73
     7
 74
     0
 42
0.000000001
 43
0.00000001
 40
0.0
 40
0.0
 40
0.0
 40
0.0
 40
0.0030482028309918
 40
0.3791474998250874
 40
0.7495713687781201
 40
1.0
 40
1.0
 40
1.0
 40
1.0
 10
76.62055197372173
 20
466.0920895872392
 30
0.0
 10
76.61883869710185
 20
466.0882649083058
 30
0.0
 10
76.40573458856538
 20
465.6125362459904
 30
0.0
 10
75.95167874573025
 20
464.676388895183
 30
0.0
 10
75.26990036799272
 20
463.4327548334715
 30
0.0
 10
74.77680460083961
 20
462.7819444154504
 30
0.0
 10
74.57790824784969
 20
462.5194318828858
 30
0.0
  0
SPLINE
  5
291
330
1F
100
AcDbEntity
  8
0
  6
Continuous
 62
     7
370
    25
100
AcDbSpline
210
0.0
220
0.0
230
1.0
 70
     8
 71
     3
 72
    10
 73
     6
 74
     0
 42
0.000000001
 43
0.00000001
 40
0.0
 40
0.0
 40
0.0
 40
0.0
 40
0.3484162057857749
 40
0.7050879280356906
 40
1.0
 40
1.0
 40
1.0
 40
1.0
 10
62.99570503844952
 20
464.3057681856431
 30
0.0
 10
64.1310761368015
 20
464.3256309359272
 30
0.0
 10
66.42872028192149
 20
464.3658270726463
 30
0.0
 10
69.7479993381753
 20
464.3612208827421
 30
0.0
 10
71.94311512100705
 20
464.3230463063215
 30
0.0
 10
72.93664219989513
 20
464.3057681856431
 30
0.0
  0
ARC
  5
292
330
1F
100
AcDbEntity
  8
0
  6
Continuous
 62
     7
370
    25
100
AcDbCircle
 10
65.0701161593
 20
462.767360335
 30
0.0
 40
2.582611123142299
100
AcDbArc
 50
143.4389307196
 51
185.5088292865
  0
LINE
  5
293
330
1F
100
AcDbEntity
  8
0
  6
Continuous
 62
     7
370
    25
100
AcDbLine
 10
62.4994330408
 20
462.5194318829
 30
0.0
 11
62.4994330408
 21
445.092091733
 31
0.0
  0
LINE
  5
294
330
1F
100
AcDbEntity
  8
0
  6
Continuous
 62
     7
370
    25
100
AcDbLine
 10
72.3301202358
 20
445.092091733
 30
0.0
 11
62.4994330408
 21
445.092091733
 31
0.0
  0
SPLINE
  5
295
330
1F
100
AcDbEntity
  8
0
  6
Continuous
 62
     7
370
    25
100
AcDbSpline
210
0.0
220
0.0
230
1.0
 70
     8
 71
     3
 72
    11
 73
     7
 74
     0
 42
0.000000001
 43
0.00000001
 40
0.0
 40
0.0
 40
0.0
 40
0.0
 40
0.0030556846825465
 40
0.3812272589585564
 40
0.7517427545109436
 40
1.0
 40
1.0
 40
1.0
 40
1.0
 10
60.73637980236744
 20
466.0920895872392
 30
0.0
 10
60.73944133686108
 20
466.0901871944566
 30
0.0
 10
61.12139841832447
 20
465.8528446472542
 30
0.0
 10
61.82047216917488
 20
465.3858600360612
 30
0.0
 10
62.64809983099012
 20
464.7651114498732
 30
0.0
 10
62.89617501911669
 20
464.4372922335806
 30
0.0
 10
62.99570503844952
 20
464.3057681856431
 30
0.0
  0
LINE
  5
296
330
1F
100
AcDbEntity
  8
0
  6
Continuous
 62
     7
370
    25
100
AcDbLine
 10
61.6150752009
 20
463.1892539797
 30
0.0
 11
61.5995854439
 21
463.1444014845
 31
0.0
  0
LINE
  5
297
330
1F
100
AcDbEntity
  8
0
  6
Continuous
 62
     7
370
    25
100
AcDbLine
 10
62.4994330408
 20
445.092091733
 30
0.0
 11
61.4994310142
 21
445.092091733
 31
0.0
  0
LINE
  5
298
330
1F
100
AcDbEntity
  8
0
  6
Continuous
 62
     7
370
    25
100
AcDbLine
 10
61.4994310142
 20
445.092091733
 30
0.0
 11
60.7363798024
 21
445.092091733
 31
0.0
  0
LINE
  5
299
330
1F
100
AcDbEntity
  8
0
  6
Continuous
 62
     7
370
    25
100
AcDbLine
 10
46.9147742094
 20
495.0920887528
 30
0.0
 11
169.9147776069
 21
495.0920887528
 31
0.0
  0
ARC
  5
29A
330
1F
100
AcDbEntity
  8
0
  6
Continuous
 62
     7
370
    25
100
AcDbCircle
 10
33.9182647006
 20
478.5736449299
 30
0.0
 40
1.276032515417539
100
AcDbArc
 50
165.7595730341
 51
194.2404269659
  0
SPLINE
  5
29B
330
1F
100
AcDbEntity
  8
0
  6
Continuous
 62
     7
370
    25
100
AcDbSpline
210
0.0
220
0.0
230
1.0
 70
     8
 71
     3
 72
    11
 73
     7
 74
     0
 42
0.000000001
 43
0.00000001
 40
0.0
 40
0.0
 40
0.0
 40
0.0
 40
0.5420637843819703
 40
0.795902501936523
 40
0.9689335479722339
 40
1.0
 40
1.0
 40
1.0
 40
1.0
 10
34.74537956728673
 20
480.6892670927323
 30
0.0
 10
34.31452678210938
 20
480.5364299987116
 30
0.0
 10
33.68191338942543
 20
480.3120220433664
 30
0.0
 10
33.04491869814755
 20
479.6049231404449
 30
0.0
 10
32.79043149277978
 20
479.1562063795433
 30
0.0
 10
32.69584018304496
 20
478.9230304764819
 30
0.0
 10
32.68144208206868
 20
478.8875378904618
 30
0.0
  0
SPLINE
  5
29C
330
1F
100
AcDbEntity
  8
0
  6
Continuous
 62
     7
370
    25
100
AcDbSpline
210
0.0
220
0.0
230
1.0
 70
     8
 71
     3
 72
    14
 73
    10
 74
     0
 42
0.000000001
 43
0.00000001
 40
0.0
 40
0.0
 40
0.0
 40
0.0
 40
0.5347481728958942
 40
0.7778350727228467
 40
0.8933698078973905
 40
0.9487729917544261
 40
0.9753816227998583
 40
0.9920756155004583
 40
0.9999999999999999
 40
0.9999999999999999
 40
0.9999999999999999
 40
0.9999999999999999
 10
32.68144208206868
 20
478.8875378904618
 30
0.0
 10
32.60026341077614
 20
478.6426591616737
 30
0.0
 10
32.48218237583509
 20
478.2864629678958
 30
0.0
 10
32.43073204303693
 20
477.8649609865203
 30
0.0
 10
32.41835784085912
 20
477.669230857149
 30
0.0
 10
32.41561608930144
 20
477.575686840228
 30
0.0
 10
32.41493778521508
 20
477.528941544692
 30
0.0
 10
32.41478991078448
 20
477.5046794866415
 30
0.0
 10
32.41478116658551
 20
477.493012955429
 30
0.0
 10
32.41477835192418
 20
477.4892576275147
 30
0.0
  0
SPLINE
  5
29D
330
1F
100
AcDbEntity
  8
0
  6
Continuous
 62
     7
370
    25
100
AcDbSpline
210
0.0
220
0.0
230
1.0
 70
    24
 71
     3
 72
    11
 73
     7
 74
     0
 42
0.000000001
 43
0.00000001
 40
0.0
 40
0.0
 40
0.0
 40
0.0
 40
0.1254970768365683
 40
0.5571944331823111
 40
0.9930117179928284
 40
1.0
 40
1.0
 40
1.0
 40
1.0
 10
32.41477835192418
 20
477.4892576275147
 30
0.0
 10
32.41477835192419
 20
477.7081902336291
 30
0.0
 10
32.41477835192418
 20
478.6802290447635
 30
0.0
 10
32.41477835192441
 20
479.8571545768392
 30
0.0
 10
32.41477835192367
 20
480.3966880928778
 30
0.0
 10
32.41477835192418
 20
480.2867191987322
 30
0.0
 10
32.41477835192418
 20
480.2849836883821
 30
0.0
  0
LINE
  5
29E
330
1F
100
AcDbEntity
  8
0
  6
Continuous
 62
     7
370
    25
100
AcDbLine
 10
32.4147783519
 20
445.092091733
 30
0.0
 11
32.4147783519
 21
477.4892576275
 31
0.0
  0
SPLINE
  5
29F
330
1F
100
AcDbEntity
  8
0
  6
Continuous
 62
     7
370
    25
100
AcDbSpline
210
0.0
220
0.0
230
1.0
 70
     8
 71
     3
 72
    14
 73
    10
 74
     0
 42
0.000000001
 43
0.00000001
 40
0.0
 40
0.0
 40
0.0
 40
0.0
 40
0.5376752333915996
 40
0.7797451074125104
 40
0.8943979819198625
 40
0.9492864692056275
 40
0.9756361647181542
 40
0.9920744710133981
 40
0.9999999999999999
 40
0.9999999999999999
 40
0.9999999999999999
 40
0.9999999999999999
 10
32.68144208206868
 20
478.259751969365
 30
0.0
 10
32.59987237436832
 20
478.1240910693177
 30
0.0
 10
32.4815786971773
 20
477.9273534914833
 30
0.0
 10
32.43046216950019
 20
477.6948272155039
 30
0.0
 10
32.418295122446
 20
477.587536345198
 30
0.0
 10
32.41559362640965
 20
477.5364400076406
 30
0.0
 10
32.41494126639596
 20
477.5109309116002
 30
0.0
 10
32.41478928011097
 20
477.4976977170722
 30
0.0
 10
32.41478103428301
 20
477.4913292748188
 30
0.0
 10
32.41477835192418
 20
477.4892576275147
 30
0.0
  0
LINE
  5
2A0
330
1F
100
AcDbEntity
  8
0
  6
Continuous
 62
     7
370
    25
100
AcDbLine
 10
32.6814420821
 20
445.092091733
 30
0.0
 11
32.4147783519
 21
445.092091733
 31
0.0
  0
LWPOLYLINE
  5
2A1
330
1F
100
AcDbEntity
  8
0
  6
Continuous
 62
     7
370
    25
100
AcDbPolyline
 90
        9
 70
   128
 43
0.0
 10
189.3119804861
 20
464.3057681856
 10
189.3957920672
 20
464.2191477356
 10
189.4506432415
 20
464.0823550759
 10
189.4749172331
 20
463.8994135199
 10
189.4678913356
 20
463.6757321892
 10
189.4297741653
 20
463.4179122982
 10
189.3616907598
 20
463.1335832415
 10
189.2656527759
 20
462.8311045704
 10
189.1444914342
 20
462.5194318829
  0
SPLINE
  5
2A2
330
1F
100
AcDbEntity
  8
0
  6
Continuous
 62
     7
370
    25
100
AcDbSpline
210
0.0
220
0.0
230
1.0
 70
     8
 71
     3
 72
    11
 73
     7
 74
     0
 42
0.000000001
 43
0.00000001
 40
0.0
 40
0.0
 40
0.0
 40
0.0
 40
0.2504279815117926
 40
0.62085226256493
 40
0.9969520260921756
 40
1.0
 40
1.0
 40
1.0
 40
1.0
 10
189.1444914342377
 20
462.5194318828858
 30
0.0
 10
188.9381552690847
 20
462.7819439283488
 30
0.0
 10
188.4266138901587
 20
463.4327545781504
 30
0.0
 10
188.054402652119
 20
464.6764050743587
 30
0.0
 10
187.914373979485
 20
465.6125000486975
 30
0.0
 10
187.8876147910881
 20
466.0882649069601
 30
0.0
 10
187.8873996736023
 20
466.0920895872392
 30
0.0
  0
SPLINE
  5
2A3
330
1F
100
AcDbEntity
  8
0
  6
Continuous
 62
     7
370
    25
100
AcDbSpline
210
0.0
220
0.0
230
1.0
 70
     8
 71
     3
 72
    11
 73
     7
 74
     0
 42
0.000000001
 43
0.00000001
 40
0.0
 40
0.0
 40
0.0
 40
0.0
 40
0.0030560700146429
 40
0.3812265147181882
 40
0.7517415004807501
 40
1.0
 40
1.0
 40
1.0
 40
1.0
 10
187.8873996736023
 20
466.0920895872392
 30
0.0
 10
187.8878383633059
 20
466.090187195592
 30
0.0
 10
187.9425622884472
 20
465.85287517924
 30
0.0
 10
188.1328202802789
 20
465.3858458479203
 30
0.0
 10
188.5577930566248
 20
464.7651116142445
 30
0.0
 10
189.0960329283319
 20
464.4372926418888
 30
0.0
 10
189.3119804860566
 20
464.3057681856431
 30
0.0
  0
LINE
  5
2A4
330
1F
100
AcDbEntity
  8
0
  6
Continuous
 62
     7
370
    25
100
AcDbLine
 10
189.1444914342
 20
445.092091733
 30
0.0
 11
189.1444914342
 21
462.5194318829
 31
0.0
  0
LINE
  5
2A5
330
1F
100
AcDbEntity
  8
0
  6
Continuous
 62
     7
370
    25
100
AcDbLine
 10
189.1444914342
 20
445.092091733
 30
0.0
 11
187.8873996736
 21
445.092091733
 31
0.0
  0
LINE
  5
2A6
330
1F
100
AcDbEntity
  8
0
  6
Continuous
 62
     7
370
    25
100
AcDbLine
 10
189.4019760491
 20
464.3529005585
 30
0.0
 11
189.4017972352
 21
464.3527962504
 31
0.0
  0
ARC
  5
2A7
330
1F
100
AcDbEntity
  8
0
  6
Continuous
 62
     7
370
    25
100
AcDbCircle
 10
188.4161429012
 20
462.5191462185
 30
0.0
 40
1.998635292346181
100
AcDbArc
 50
0.0081892687
 51
63.3701643565
  0
LINE
  5
2A8
330
1F
100
AcDbEntity
  8
0
  6
Continuous
 62
     7
370
    25
100
AcDbLine
 10
190.4147781731
 20
462.5194318829
 30
0.0
 11
189.1444914342
 21
462.5194318829
 31
0.0
  0
LINE
  5
2A9
330
1F
100
AcDbEntity
  8
0
  6
Continuous
 62
     7
370
    25
100
AcDbLine
 10
190.4147781731
 20
462.5194318829
 30
0.0
 11
190.4147781731
 21
445.092091733
 31
0.0
  0
LINE
  5
2AA
330
1F
100
AcDbEntity
  8
0
  6
Continuous
 62
     7
370
    25
100
AcDbLine
 10
190.4147781731
 20
445.092091733
 30
0.0
 11
189.1444914342
 21
445.092091733
 31
0.0
  0
LINE
  5
2AB
330
1F
100
AcDbEntity
  8
0
  6
Continuous
 62
     7
370
    25
100
AcDbLine
 10
65.4809244276
 20
289.5501353083
 30
0.0
 11
151.3486273886
 21
289.5501353083
 31
0.0
  0
ARC
  5
2AC
330
1F
100
AcDbEntity
  8
0
  6
Continuous
 62
     7
370
    25
100
AcDbCircle
 10
150.3619183743
 20
289.4191103951
 30
0.0
 40
0.9953703867687959
100
AcDbArc
 50
300.7993925499
 51
7.5640441636
  0
LINE
  5
2AD
330
1F
100
AcDbEntity
  8
0
  6
Continuous
 62
     7
370
    25
100
AcDbLine
 10
150.8715816142
 20
288.5641217468
 30
0.0
 11
65.9579702021
 21
288.5641217468
 31
0.0
  0
ARC
  5
2AE
330
1F
100
AcDbEntity
  8
0
  6
Continuous
 62
     7
370
    25
100
AcDbCircle
 10
66.467633442
 20
289.4191103951
 30
0.0
 40
0.9953703867688098
100
AcDbArc
 50
172.4359558364
 51
239.2006074501
  0
LINE
  5
2AF
330
1F
100
AcDbEntity
  8
0
  6
Continuous
 62
     7
370
    25
100
AcDbLine
 10
151.3486273886
 20
289.5501353083
 30
0.0
 11
151.3486273886
 21
298.5920965908
 31
0.0
  0
LINE
  5
2B0
330
1F
100
AcDbEntity
  8
0
  6
Continuous
 62
     7
370
    25
100
AcDbLine
 10
65.4809244276
 20
298.5920965908
 30
0.0
 11
65.4809244276
 21
289.5501353083
 31
0.0
  0
LINE
  5
2B1
330
1F
100
AcDbEntity
  8
0
  6
Continuous
 62
     7
370
    25
100
AcDbLine
 10
183.4147788884
 20
299.5920948921
 30
0.0
 11
166.0691045524
 21
299.5920948921
 31
0.0
  0
LINE
  5
2B2
330
1F
100
AcDbEntity
  8
0
  6
Continuous
 62
     7
370
    25
100
AcDbLine
 10
161.0691055955
 20
299.5920948921
 30
0.0
 11
142.9772183598
 21
299.5920948921
 31
0.0
  0
LINE
  5
2B3
330
1F
100
AcDbEntity
  8
0
  6
Continuous
 62
     7
370
    25
100
AcDbLine
 10
137.1879589112
 20
299.5920948921
 30
0.0
 11
55.7604462208
 21
299.5920948921
 31
0.0
  0
LINE
  5
2B4
330
1F
100
AcDbEntity
  8
0
  6
Continuous
 62
     7
370
    25
100
AcDbLine
 10
50.7604472639
 20
299.5920948921
 30
0.0
 11
33.4147729279
 21
299.5920948921
 31
0.0
  0
SPLINE
  5
2B5
330
1F
100
AcDbEntity
  8
0
  6
Continuous
 62
     7
370
    25
100
AcDbSpline
210
0.0
220
0.0
230
1.0
 70
     8
 71
     3
 72
     9
 73
     5
 74
     0
 42
0.000000001
 43
0.00000001
 40
0.0
 40
0.0
 40
0.0
 40
0.0
 40
0.8508375806590182
 40
1.0
 40
1.0
 40
1.0
 40
1.0
 10
65.95797020210956
 20
288.5641217468061
 30
0.0
 10
65.39309760285647
 20
288.5746290226638
 30
0.0
 10
64.72919580527062
 20
288.5869783547769
 30
0.0
 10
63.9994488244085
 20
288.5914308123183
 30
0.0
 10
63.89059799923634
 20
288.5920949516572
 30
0.0
  0
SPLINE
  5
2B6
330
1F
100
AcDbEntity
  8
0
  6
Continuous
 62
     7
370
    25
100
AcDbSpline
210
0.0
220
0.0
230
1.0
 70
     8
 71
     3
 72
     9
 73
     5
 74
     0
 42
0.000000001
 43
0.00000001
 40
0.0
 40
0.0
 40
0.0
 40
0.0
 40
0.8435800008212795
 40
1.0
 40
1.0
 40
1.0
 40
1.0
 10
152.9389538170311
 20
288.5920949516572
 30
0.0
 10
152.3331741014544
 20
288.5804809044611
 30
0.0
 10
151.61506827274
 20
288.5667133338872
 30
0.0
 10
150.9721473105376
 20
288.5644722907688
 30
0.0
 10
150.8715816141579
 20
288.5641217468061
 30
0.0
  0
LINE
  5
2B7
330
1F
100
AcDbEntity
  8
0
  6
Continuous
 62
     7
370
    25
100
AcDbLine
 10
180.914773822
 20
286.0920936106
 30
0.0
 11
35.9147779943
 21
286.0920936106
 31
0.0
  0
LINE
  5
2B8
330
1F
100
AcDbEntity
  8
0
  6
Continuous
 62
     7
370
    25
100
AcDbLine
 10
53.5807602407
 20
298.5920965908
 30
0.0
 11
57.6604374052
 21
298.5920965908
 31
0.0
  0
LINE
  5
2B9
330
1F
100
AcDbEntity
  8
0
  6
Continuous
 62
     7
370
    25
100
AcDbLine
 10
57.6604374052
 20
298.5920965908
 30
0.0
 11
57.6604374052
 21
289.5920932529
 31
0.0
  0
LINE
  5
2BA
330
1F
100
AcDbEntity
  8
0
  6
Continuous
 62
     7
370
    25
100
AcDbLine
 10
53.5807602407
 20
289.5920932529
 30
0.0
 11
57.6604374052
 21
289.5920932529
 31
0.0
  0
LINE
  5
2BB
330
1F
100
AcDbEntity
  8
0
  6
Continuous
 62
     7
370
    25
100
AcDbLine
 10
53.5807602407
 20
289.5920932529
 30
0.0
 11
53.5807602407
 21
298.5920965908
 31
0.0
  0
ARC
  5
2BC
330
1F
100
AcDbEntity
  8
0
  6
Continuous
 62
     7
370
    25
100
AcDbCircle
 10
56.7765607168
 20
289.4670895896
 30
0.0
 40
0.8926723454143896
100
AcDbArc
 50
281.4215192649
 51
8.0497607946
  0
LINE
  5
2BD
330
1F
100
AcDbEntity
  8
0
  6
Continuous
 62
     7
370
    25
100
AcDbLine
 10
56.9533326031
 20
288.5920949517
 30
0.0
 11
54.233546585
 21
288.5920949517
 31
0.0
  0
LWPOLYLINE
  5
2BE
330
1F
100
AcDbEntity
  8
0
  6
Continuous
 62
     7
370
    25
100
AcDbPolyline
 90
        9
 70
   128
 43
0.0
 10
53.5807602407
 20
289.5920932529
 10
53.5933032931
 20
289.3970035253
 10
53.630451888
 20
289.209412807
 10
53.6907755138
 20
289.0365258096
 10
53.77195704
 20
288.8849884508
 10
53.8708783986
 20
288.7606233595
 10
53.9837360682
 20
288.6682138083
 10
54.1061938108
 20
288.611309999
 10
54.233546585
 20
288.5920949517
  0
LINE
  5
2BF
330
1F
100
AcDbEntity
  8
0
  6
Continuous
 62
     7
370
    25
100
AcDbLine
 10
159.169114411
 20
289.5920932529
 30
0.0
 11
163.2487915756
 21
289.5920932529
 31
0.0
  0
LWPOLYLINE
  5
2C0
330
1F
100
AcDbEntity
  8
0
  6
Continuous
 62
     7
370
    25
100
AcDbPolyline
 90
        9
 70
   128
 43
0.0
 10
163.2487915756
 20
289.5920932529
 10
163.2362485231
 20
289.3970035253
 10
163.1990999283
 20
289.209412807
 10
163.1387763025
 20
289.0365258096
 10
163.0575947763
 20
288.8849884508
 10
162.9586734177
 20
288.7606233595
 10
162.8458157481
 20
288.6682138083
 10
162.7233580054
 20
288.611309999
 10
162.5960052313
 20
288.5920949517
  0
LINE
  5
2C1
330
1F
100
AcDbEntity
  8
0
  6
Continuous
 62
     7
370
    25
100
AcDbLine
 10
162.5960052313
 20
288.5920949517
 30
0.0
 11
159.8762192131
 21
288.5920949517
 31
0.0
  0
ARC
  5
2C2
330
1F
100
AcDbEntity
  8
0
  6
Continuous
 62
     7
370
    25
100
AcDbCircle
 10
160.0529910995
 20
289.4670895896
 30
0.0
 40
0.8926723454143756
100
AcDbArc
 50
171.9502392054
 51
258.5784807351
  0
LINE
  5
2C3
330
1F
100
AcDbEntity
  8
0
  6
Continuous
 62
     7
370
    25
100
AcDbLine
 10
159.169114411
 20
298.5920965908
 30
0.0
 11
163.2487915756
 21
298.5920965908
 31
0.0
  0
LINE
  5
2C4
330
1F
100
AcDbEntity
  8
0
  6
Continuous
 62
     7
370
    25
100
AcDbLine
 10
163.2487915756
 20
298.5920965908
 30
0.0
 11
163.2487915756
 21
289.5920932529
 31
0.0
  0
LINE
  5
2C5
330
1F
100
AcDbEntity
  8
0
  6
Continuous
 62
     7
370
    25
100
AcDbLine
 10
159.169114411
 20
289.5920932529
 30
0.0
 11
159.169114411
 21
298.5920965908
 31
0.0
  0
LINE
  5
2C6
330
1F
100
AcDbEntity
  8
0
  6
Continuous
 62
     7
370
    25
100
AcDbLine
 10
44.7812073232
 20
289.5920932529
 30
0.0
 11
53.5807602407
 21
289.5920932529
 31
0.0
  0
LINE
  5
2C7
330
1F
100
AcDbEntity
  8
0
  6
Continuous
 62
     7
370
    25
100
AcDbLine
 10
44.7812073232
 20
298.5920965908
 30
0.0
 11
44.7812073232
 21
289.5920932529
 31
0.0
  0
LINE
  5
2C8
330
1F
100
AcDbEntity
  8
0
  6
Continuous
 62
     7
370
    25
100
AcDbLine
 10
44.7812073232
 20
298.5920965908
 30
0.0
 11
53.5807602407
 21
298.5920965908
 31
0.0
  0
LINE
  5
2C9
330
1F
100
AcDbEntity
  8
0
  6
Continuous
 62
     7
370
    25
100
AcDbLine
 10
54.233546585
 20
288.5920949517
 30
0.0
 11
45.538752556
 21
288.5920949517
 31
0.0
  0
ARC
  5
2CA
330
1F
100
AcDbEntity
  8
0
  6
Continuous
 62
     7
370
    25
100
AcDbCircle
 10
45.6793799157
 20
289.4855637465
 30
0.0
 40
0.9044680986968718
100
AcDbArc
 50
173.2359226918
 51
261.0553219649
  0
LINE
  5
2CB
330
1F
100
AcDbEntity
  8
0
  6
Continuous
 62
     7
370
    25
100
AcDbLine
 10
172.0483444931
 20
289.5920932529
 30
0.0
 11
172.0483444931
 21
298.5920965908
 31
0.0
  0
LINE
  5
2CC
330
1F
100
AcDbEntity
  8
0
  6
Continuous
 62
     7
370
    25
100
AcDbLine
 10
163.2487915756
 20
289.5920932529
 30
0.0
 11
172.0483444931
 21
289.5920932529
 31
0.0
  0
LINE
  5
2CD
330
1F
100
AcDbEntity
  8
0
  6
Continuous
 62
     7
370
    25
100
AcDbLine
 10
163.2487915756
 20
298.5920965908
 30
0.0
 11
172.0483444931
 21
298.5920965908
 31
0.0
  0
ARC
  5
2CE
330
1F
100
AcDbEntity
  8
0
  6
Continuous
 62
     7
370
    25
100
AcDbCircle
 10
171.1501719006
 20
289.4855637465
 30
0.0
 40
0.9044680986968696
100
AcDbArc
 50
278.9446780351
 51
6.7640773082
  0
LINE
  5
2CF
330
1F
100
AcDbEntity
  8
0
  6
Continuous
 62
     7
370
    25
100
AcDbLine
 10
171.2907992603
 20
288.5920949517
 30
0.0
 11
162.5960052313
 21
288.5920949517
 31
0.0
  0
LINE
  5
2D0
330
1F
100
AcDbEntity
  8
0
  6
Continuous
 62
     7
370
    25
100
AcDbLine
 10
59.0831369461
 20
289.5920932529
 30
0.0
 11
59.0831369461
 21
298.5920965908
 31
0.0
  0
LINE
  5
2D1
330
1F
100
AcDbEntity
  8
0
  6
Continuous
 62
     7
370
    25
100
AcDbLine
 10
57.6604374052
 20
289.5920932529
 30
0.0
 11
59.0831369461
 21
289.5920932529
 31
0.0
  0
LINE
  5
2D2
330
1F
100
AcDbEntity
  8
0
  6
Continuous
 62
     7
370
    25
100
AcDbLine
 10
57.6604374052
 20
298.5920965908
 30
0.0
 11
59.0831369461
 21
298.5920965908
 31
0.0
  0
ARC
  5
2D3
330
1F
100
AcDbEntity
  8
0
  6
Continuous
 62
     7
370
    25
100
AcDbCircle
 10
58.1992516271
 20
289.4670963509
 30
0.0
 40
0.8926799441398006
100
AcDbArc
 50
281.4217419319
 51
8.0492535361
  0
LINE
  5
2D4
330
1F
100
AcDbEntity
  8
0
  6
Continuous
 62
     7
370
    25
100
AcDbLine
 10
58.3760284187
 20
288.5920949517
 30
0.0
 11
56.9533326031
 21
288.5920949517
 31
0.0
  0
LINE
  5
2D5
330
1F
100
AcDbEntity
  8
0
  6
Continuous
 62
     7
370
    25
100
AcDbLine
 10
157.7464148702
 20
289.5920932529
 30
0.0
 11
159.169114411
 21
289.5920932529
 31
0.0
  0
LINE
  5
2D6
330
1F
100
AcDbEntity
  8
0
  6
Continuous
 62
     7
370
    25
100
AcDbLine
 10
157.7464148702
 20
298.5920965908
 30
0.0
 11
157.7464148702
 21
289.5920932529
 31
0.0
  0
LINE
  5
2D7
330
1F
100
AcDbEntity
  8
0
  6
Continuous
 62
     7
370
    25
100
AcDbLine
 10
157.7464148702
 20
298.5920965908
 30
0.0
 11
159.169114411
 21
298.5920965908
 31
0.0
  0
LINE
  5
2D8
330
1F
100
AcDbEntity
  8
0
  6
Continuous
 62
     7
370
    25
100
AcDbLine
 10
159.8762192131
 20
288.5920949517
 30
0.0
 11
158.4535233976
 21
288.5920949517
 31
0.0
  0
ARC
  5
2D9
330
1F
100
AcDbEntity
  8
0
  6
Continuous
 62
     7
370
    25
100
AcDbCircle
 10
158.6303001892
 20
289.4670963509
 30
0.0
 40
0.8926799441398076
100
AcDbArc
 50
171.9507464639
 51
258.5782580681
  0
LINE
  5
2DA
330
1F
100
AcDbEntity
  8
0
  6
Continuous
 62
     7
370
    25
100
AcDbLine
 10
59.0831369461
 20
289.5920932529
 30
0.0
 11
63.6786103548
 21
289.5920932529
 31
0.0
  0
ARC
  5
2DB
330
1F
100
AcDbEntity
  8
0
  6
Continuous
 62
     7
370
    25
100
AcDbCircle
 10
65.0169302568
 20
289.3533324489
 30
0.0
 40
1.359450948597146
100
AcDbArc
 50
169.8846591327
 51
214.0529981542
  0
LINE
  5
2DC
330
1F
100
AcDbEntity
  8
0
  6
Continuous
 62
     7
370
    25
100
AcDbLine
 10
63.8905979992
 20
288.5920949517
 30
0.0
 11
58.3760284187
 21
288.5920949517
 31
0.0
  0
SPLINE
  5
2DD
330
1F
100
AcDbEntity
  8
0
  6
Continuous
 62
     7
370
    25
100
AcDbSpline
210
0.0
220
0.0
230
1.0
 70
     8
 71
     3
 72
     9
 73
     5
 74
     0
 42
0.000000001
 43
0.00000001
 40
0.0
 40
0.0
 40
0.0
 40
0.0
 40
0.1536203998641094
 40
1.0
 40
1.0
 40
1.0
 40
1.0
 10
63.67861035480237
 20
289.5920932529248
 30
0.0
 10
63.77711219287657
 20
289.5911057959102
 30
0.0
 10
64.41831504198616
 20
289.584677893004
 30
0.0
 10
64.99382475059937
 20
289.5659696139978
 30
0.0
 10
65.48092442764973
 20
289.5501353082932
 30
0.0
  0
LINE
  5
2DE
330
1F
100
AcDbEntity
  8
0
  6
Continuous
 62
     7
370
    25
100
AcDbLine
 10
59.0831369461
 20
298.5920965908
 30
0.0
 11
65.4809244276
 21
298.5920965908
 31
0.0
  0
LINE
  5
2DF
330
1F
100
AcDbEntity
  8
0
  6
Continuous
 62
     7
370
    25
100
AcDbLine
 10
153.1509414615
 20
289.5920932529
 30
0.0
 11
157.7464148702
 21
289.5920932529
 31
0.0
  0
ARC
  5
2E0
330
1F
100
AcDbEntity
  8
0
  6
Continuous
 62
     7
370
    25
100
AcDbCircle
 10
151.8126215595
 20
289.3533324489
 30
0.0
 40
1.359450948597124
100
AcDbArc
 50
325.9470018458
 51
10.1153408673
  0
LINE
  5
2E1
330
1F
100
AcDbEntity
  8
0
  6
Continuous
 62
     7
370
    25
100
AcDbLine
 10
158.4535233976
 20
288.5920949517
 30
0.0
 11
152.938953817
 21
288.5920949517
 31
0.0
  0
SPLINE
  5
2E2
330
1F
100
AcDbEntity
  8
0
  6
Continuous
 62
     7
370
    25
100
AcDbSpline
210
0.0
220
0.0
230
1.0
 70
     8
 71
     3
 72
     9
 73
     5
 74
     0
 42
0.000000001
 43
0.00000001
 40
0.0
 40
0.0
 40
0.0
 40
0.0
 40
0.1540804374234777
 40
1.0
 40
1.0
 40
1.0
 40
1.0
 10
151.3486273886178
 20
289.5501353082932
 30
0.0
 10
151.4326848171228
 20
289.550666606332
 30
0.0
 10
151.9782273266761
 20
289.5541147925364
 30
0.0
 10
152.6135281049788
 20
289.5746890695301
 30
0.0
 10
153.1509414614651
 20
289.5920932529248
 30
0.0
  0
LINE
  5
2E3
330
1F
100
AcDbEntity
  8
0
  6
Continuous
 62
     7
370
    25
100
AcDbLine
 10
151.3486273886
 20
298.5920965908
 30
0.0
 11
157.7464148702
 21
298.5920965908
 31
0.0
  0
LINE
  5
2E4
330
1F
100
AcDbEntity
  8
0
  6
Continuous
 62
     7
370
    25
100
AcDbLine
 10
171.7757128479
 20
288.5920949517
 30
0.0
 11
171.2907992603
 21
288.5920949517
 31
0.0
  0
LINE
  5
2E5
330
1F
100
AcDbEntity
  8
0
  6
Continuous
 62
     7
370
    25
100
AcDbLine
 10
172.0483444931
 20
298.5920965908
 30
0.0
 11
172.7757148744
 21
298.5920965908
 31
0.0
  0
LINE
  5
2E6
330
1F
100
AcDbEntity
  8
0
  6
Continuous
 62
     7
370
    25
100
AcDbLine
 10
44.0538369419
 20
298.5920965908
 30
0.0
 11
44.7812073232
 21
298.5920965908
 31
0.0
  0
LINE
  5
2E7
330
1F
100
AcDbEntity
  8
0
  6
Continuous
 62
     7
370
    25
100
AcDbLine
 10
45.538752556
 20
288.5920949517
 30
0.0
 11
45.0538389684
 21
288.5920949517
 31
0.0
  0
LINE
  5
2E8
330
1F
100
AcDbEntity
  8
0
  6
Continuous
 62
     7
370
    25
100
AcDbLine
 10
55.3111054303
 20
186.0920958457
 30
0.0
 11
55.3111054303
 21
173.0920918522
 31
0.0
  0
LINE
  5
2E9
330
1F
100
AcDbEntity
  8
0
  6
Continuous
 62
     7
370
    25
100
AcDbLine
 10
55.3111054303
 20
173.0920918522
 30
0.0
 11
21.9147794248
 21
173.0920918522
 31
0.0
  0
LINE
  5
2EA
330
1F
100
AcDbEntity
  8
0
  6
Continuous
 62
     7
370
    25
100
AcDbLine
 10
21.9147794248
 20
173.0920918522
 30
0.0
 11
21.9147794248
 21
186.0920958457
 31
0.0
  0
LINE
  5
2EB
330
1F
100
AcDbEntity
  8
0
  6
Continuous
 62
     7
370
    25
100
AcDbLine
 10
21.9147794248
 20
186.0920958457
 30
0.0
 11
55.3111054303
 21
186.0920958457
 31
0.0
  0
LINE
  5
2EC
330
1F
100
AcDbEntity
  8
0
  6
Continuous
 62
     7
370
    25
100
AcDbLine
 10
194.9147723915
 20
186.0920958457
 30
0.0
 11
194.9147723915
 21
173.0920918522
 31
0.0
  0
LINE
  5
2ED
330
1F
100
AcDbEntity
  8
0
  6
Continuous
 62
     7
370
    25
100
AcDbLine
 10
161.518446386
 20
173.0920918522
 30
0.0
 11
161.518446386
 21
186.0920958457
 31
0.0
  0
LINE
  5
2EE
330
1F
100
AcDbEntity
  8
0
  6
Continuous
 62
     7
370
    25
100
AcDbLine
 10
161.518446386
 20
186.0920958457
 30
0.0
 11
194.9147723915
 21
186.0920958457
 31
0.0
  0
LINE
  5
2EF
330
1F
100
AcDbEntity
  8
0
  6
Continuous
 62
     7
370
    25
100
AcDbLine
 10
194.9147723915
 20
173.0920918522
 30
0.0
 11
161.518446386
 21
173.0920918522
 31
0.0
  0
LINE
  5
2F0
330
1F
100
AcDbEntity
  8
0
  6
Continuous
 62
     7
370
    25
100
AcDbLine
 10
75.9147771002
 20
173.0920918522
 30
0.0
 11
55.3111054303
 21
173.0920918522
 31
0.0
  0
LINE
  5
2F1
330
1F
100
AcDbEntity
  8
0
  6
Continuous
 62
     7
370
    25
100
AcDbLine
 10
140.914774716
 20
178.7920914827
 30
0.0
 11
75.9147771002
 21
178.7920914827
 31
0.0
  0
LINE
  5
2F2
330
1F
100
AcDbEntity
  8
0
  6
Continuous
 62
     7
370
    25
100
AcDbLine
 10
161.518446386
 20
186.0920958457
 30
0.0
 11
55.3111054303
 21
186.0920958457
 31
0.0
  0
LINE
  5
2F3
330
1F
100
AcDbEntity
  8
0
  6
Continuous
 62
     7
370
    25
100
AcDbLine
 10
75.9147771002
 20
178.7920914827
 30
0.0
 11
75.9147771002
 21
173.0920918522
 31
0.0
  0
LINE
  5
2F4
330
1F
100
AcDbEntity
  8
0
  6
Continuous
 62
     7
370
    25
100
AcDbLine
 10
140.914774716
 20
178.7920914827
 30
0.0
 11
140.914774716
 21
173.0920918522
 31
0.0
  0
LINE
  5
2F5
330
1F
100
AcDbEntity
  8
0
  6
Continuous
 62
     7
370
    25
100
AcDbLine
 10
161.518446386
 20
173.0920918522
 30
0.0
 11
140.914774716
 21
173.0920918522
 31
0.0
  0
SPLINE
  5
2F6
330
1F
100
AcDbEntity
  8
0
  6
Continuous
 62
     7
370
    25
100
AcDbSpline
210
0.0
220
0.0
230
1.0
 70
     8
 71
     3
 72
    54
 73
    50
 74
     0
 42
0.000000001
 43
0.00000001
 40
0.0
 40
0.0
 40
0.0
 40
0.0
 40
0.1249999999999996
 40
0.1249999999999996
 40
0.2499999999999993
 40
0.2499999999999993
 40
0.3124999999999991
 40
0.3124999999999991
 40
0.3749999999999988
 40
0.3749999999999988
 40
0.4062499999999987
 40
0.4062499999999987
 40
0.4374999999999986
 40
0.4374999999999986
 40
0.4531249999999985
 40
0.4531249999999985
 40
0.4687499999999984
 40
0.4687499999999984
 40
0.4765624999999984
 40
0.4765624999999984
 40
0.4843749999999985
 40
0.4843749999999985
 40
0.4921874999999985
 40
0.4921874999999985
 40
0.4999999999999986
 40
0.4999999999999986
 40
0.5078124999999987
 40
0.5078124999999987
 40
0.5156249999999988
 40
0.5156249999999988
 40
0.5312499999999989
 40
0.5312499999999989
 40
0.5468749999999991
 40
0.5468749999999991
 40
0.5624999999999992
 40
0.5624999999999992
 40
0.5781249999999994
 40
0.5781249999999994
 40
0.5937499999999997
 40
0.5937499999999997
 40
0.6249999999999996
 40
0.6249999999999996
 40
0.6874999999999998
 40
0.6874999999999998
 40
0.75
 40
0.75
 40
0.875
 40
0.875
 40
1.0
 40
1.0
 40
1.0
 40
1.0
 10
57.65355797560281
 20
186.0920948324479
 30
0.0
 10
57.65002420816494
 20
188.746724853728
 30
0.0
 10
57.61450137165428
 20
191.3941126791266
 30
0.0
 10
57.45256779194512
 20
196.6673737475854
 30
0.0
 10
57.32769346141776
 20
199.2952975276368
 30
0.0
 10
57.02471723981
 20
203.2032704506007
 30
0.0
 10
56.90429362218797
 20
204.4987083430251
 30
0.0
 10
56.60417713394492
 20
207.0671939323224
 30
0.0
 10
56.42498439358743
 20
208.3438804299323
 30
0.0
 10
56.07960193700327
 20
210.2078986368469
 30
0.0
 10
55.95150532454359
 20
210.8210277567601
 30
0.0
 10
55.65537232915648
 20
212.0218660636355
 30
0.0
 10
55.48814988804735
 20
212.6100979050335
 30
0.0
 10
55.18310263998691
 20
213.4577952201529
 30
0.0
 10
55.07225300720887
 20
213.7345013685909
 30
0.0
 10
54.82162392434081
 20
214.2693894844576
 30
0.0
 10
54.68449598820551
 20
214.5221868488131
 30
0.0
 10
54.45117917272724
 20
214.8651399803358
 30
0.0
 10
54.36871980074834
 20
214.9733873973056
 30
0.0
 10
54.19114981061188
 20
215.173488457416
 30
0.0
 10
54.09539515181669
 20
215.2656676406502
 30
0.0
 10
53.89347652063557
 20
215.4214761135034
 30
0.0
 10
53.78678756026899
 20
215.4859229230897
 30
0.0
 10
53.55851425701493
 20
215.5798182569235
 30
0.0
 10
53.44102165349467
 20
215.6073736826668
 30
0.0
 10
53.19956085152565
 20
215.6210540839712
 30
0.0
 10
53.0737530018538
 20
215.606459014632
 30
0.0
 10
52.827103558703
 20
215.5376601451036
 30
0.0
 10
52.70560399707797
 20
215.4841690764833
 30
0.0
 10
52.34569903373111
 20
215.2755898755512
 30
0.0
 10
52.12562272161507
 20
215.0826310386511
 30
0.0
 10
51.70813946481718
 20
214.6367849754351
 30
0.0
 10
51.51543182398171
 20
214.3878290456414
 30
0.0
 10
51.15290052366614
 20
213.8653576438045
 30
0.0
 10
50.98233371315686
 20
213.5903115797575
 30
0.0
 10
50.65544664011904
 20
213.0218012634836
 30
0.0
 10
50.49978324590776
 20
212.7291276152178
 30
0.0
 10
50.20242901458344
 20
212.1379389397226
 30
0.0
 10
50.06018934951771
 20
211.8383387093811
 30
0.0
 10
49.64776163173636
 20
210.9306333403928
 30
0.0
 10
49.3916189156261
 20
210.3137760134348
 30
0.0
 10
48.65858009994665
 20
208.4410840228073
 30
0.0
 10
48.21640841499438
 20
207.1635414456559
 30
0.0
 10
47.38091490120129
 20
204.5776791243338
 30
0.0
 10
46.99057590232041
 20
203.2747283395186
 30
0.0
 10
45.87299529016325
 20
199.3519436202639
 30
0.0
 10
45.19728195461845
 20
196.7155496535793
 30
0.0
 10
43.92023365262551
 20
191.4198130219899
 30
0.0
 10
43.32049598232274
 20
188.7599868531476
 30
0.0
 10
42.74668050400292
 20
186.0920948324479
 30
0.0
  0
SPLINE
  5
2F7
330
1F
100
AcDbEntity
  8
0
  6
Continuous
 62
     7
370
    25
100
AcDbSpline
210
0.0
220
0.0
230
1.0
 70
     8
 71
     3
 72
     8
 73
     4
 74
     0
 42
0.000000001
 43
0.00000001
 40
0.0
 40
0.0
 40
0.0
 40
0.0
 40
1.0
 40
1.0
 40
1.0
 40
1.0
 10
41.09086082551914
 20
248.0920948324479
 30
0.0
 10
37.34313917017123
 20
227.4310881923357
 30
0.0
 10
33.63093348046247
 20
206.7636442459388
 30
0.0
 10
29.94167321545756
 20
186.0920948324479
 30
0.0
  0
LINE
  5
2F8
330
1F
100
AcDbEntity
  8
0
  6
Continuous
 62
     7
370
    25
100
AcDbLine
 10
41.0908602478
 20
248.0920948324
 30
0.0
 11
45.3957610132
 21
248.0920948324
 31
0.0
  0
LINE
  5
2F9
330
1F
100
AcDbEntity
  8
0
  6
Continuous
 62
     7
370
    25
100
AcDbLine
 10
45.0017221571
 20
245.5930264437
 30
0.0
 11
45.3957610132
 21
248.0920948324
 31
0.0
  0
LINE
  5
2FA
330
1F
100
AcDbEntity
  8
0
  6
Continuous
 62
     7
370
    25
100
AcDbLine
 10
176.1918209793
 20
245.5930264437
 30
0.0
 11
45.0017221571
 21
245.5930264437
 31
0.0
  0
SPLINE
  5
2FB
330
1F
100
AcDbEntity
  8
0
  6
Continuous
 62
     7
370
    25
100
AcDbSpline
210
0.0
220
0.0
230
1.0
 70
     8
 71
     3
 72
     8
 73
     4
 74
     0
 42
0.000000001
 43
0.00000001
 40
0.0
 40
0.0
 40
0.0
 40
0.0
 40
1.0
 40
1.0
 40
1.0
 40
1.0
 10
186.88787860081
 20
186.092094832448
 30
0.0
 10
183.3473623772496
 20
205.9302062172233
 30
0.0
 10
179.7856648363251
 20
225.7645289277627
 30
0.0
 10
176.1918184642875
 20
245.5930265053705
 30
0.0
  0
SPLINE
  5
2FC
330
1F
100
AcDbEntity
  8
0
  6
Continuous
 62
     7
370
    25
100
AcDbSpline
210
0.0
220
0.0
230
1.0
 70
     8
 71
     3
 72
    20
 73
    16
 74
     0
 42
0.000000001
 43
0.00000001
 40
0.0
 40
0.0
 40
0.0
 40
0.0
 40
0.2500000000000032
 40
0.2500000000000032
 40
0.3750000000000026
 40
0.3750000000000026
 40
0.5000000000000021
 40
0.5000000000000021
 40
0.6250000000000016
 40
0.6250000000000016
 40
0.7500000000000011
 40
0.7500000000000011
 40
0.8750000000000006
 40
0.8750000000000006
 40
1.0
 40
1.0
 40
1.0
 40
1.0
 10
45.00171960375923
 20
245.5930265053705
 30
0.0
 10
45.05698764560011
 20
245.9435588636687
 30
0.0
 10
45.16768208024462
 20
246.2748951430026
 30
0.0
 10
45.41322103252875
 20
246.7357384396441
 30
0.0
 10
45.50647370387262
 20
246.8794702471522
 30
0.0
 10
45.71494885321236
 20
247.1478989141384
 30
0.0
 10
45.83118765792313
 20
247.2734792325327
 30
0.0
 10
46.08205069165117
 20
247.5003221438991
 30
0.0
 10
46.21513543983701
 20
247.6005471998046
 30
0.0
 10
46.49616951145246
 20
247.7753664546362
 30
0.0
 10
46.64560488785811
 20
247.8504812681545
 30
0.0
 10
46.95241160605533
 20
247.9706041062803
 30
0.0
 10
47.10899453529052
 20
248.015674624364
 30
0.0
 10
47.42839003599855
 20
248.07644441036
 30
0.0
 10
47.59217159094992
 20
248.0920948324479
 30
0.0
 10
47.7564005252032
 20
248.0920948324479
 30
0.0
  0
LINE
  5
2FD
330
1F
100
AcDbEntity
  8
0
  6
Continuous
 62
     7
370
    25
100
AcDbLine
 10
47.7563992442
 20
248.0920948324
 30
0.0
 11
172.5330271126
 21
248.0920948324
 31
0.0
  0
SPLINE
  5
2FE
330
1F
100
AcDbEntity
  8
0
  6
Continuous
 62
     7
370
    25
100
AcDbSpline
210
0.0
220
0.0
230
1.0
 70
     8
 71
     3
 72
    20
 73
    16
 74
     0
 42
0.000000001
 43
0.00000001
 40
0.0
 40
0.0
 40
0.0
 40
0.0
 40
0.1249999999999991
 40
0.1249999999999991
 40
0.2499999999999982
 40
0.2499999999999982
 40
0.3749999999999972
 40
0.3749999999999972
 40
0.4999999999999963
 40
0.4999999999999963
 40
0.6249999999999954
 40
0.6249999999999954
 40
0.7499999999999944
 40
0.7499999999999944
 40
1.0
 40
1.0
 40
1.0
 40
1.0
 10
176.1918184642875
 20
245.5930265053705
 30
0.0
 10
176.150070296653
 20
245.7965871540447
 30
0.0
 10
176.0845894000748
 20
245.9896998369552
 30
0.0
 10
175.9120352694644
 20
246.3575872975633
 30
0.0
 10
175.8030570571137
 20
246.5341767397277
 30
0.0
 10
175.5569209889085
 20
246.8541703418356
 30
0.0
 10
175.419484086232
 20
246.999346410296
 30
0.0
 10
175.1195865820969
 20
247.2637885347728
 30
0.0
 10
174.9556069927082
 20
247.3836518223253
 30
0.0
 10
174.6165557909122
 20
247.5914332483104
 30
0.0
 10
174.4404701150628
 20
247.6805437852435
 30
0.0
 10
174.0767441179223
 20
247.8325549224382
 30
0.0
 10
173.8878095660008
 20
247.8957133580953
 30
0.0
 10
173.3150079979279
 20
248.0448978961304
 30
0.0
 10
172.9268103994028
 20
248.0920948324479
 30
0.0
 10
172.5330243903556
 20
248.0920948324479
 30
0.0
  0
SPLINE
  5
2FF
330
1F
100
AcDbEntity
  8
0
  6
Continuous
 62
     7
370
    25
100
AcDbSpline
210
0.0
220
0.0
230
1.0
 70
     8
 71
     3
 72
    14
 73
    10
 74
     0
 42
0.000000001
 43
0.00000001
 40
0.0
 40
0.0
 40
0.0
 40
0.0
 40
0.25
 40
0.25
 40
0.5
 40
0.5
 40
0.75
 40
0.75
 40
1.0
 40
1.0
 40
1.0
 40
1.0
 10
168.6827143870688
 20
282.592094832448
 30
0.0
 10
168.6819723064917
 20
282.8079797015594
 30
0.0
 10
168.6881132982939
 20
283.008706434238
 30
0.0
 10
168.7131743967332
 20
283.3800485131567
 30
0.0
 10
168.7314097374898
 20
283.5405280413354
 30
0.0
 10
168.777859716994
 20
283.8111337637303
 30
0.0
 10
168.80488065205
 20
283.9142930164948
 30
0.0
 10
168.8652050611991
 20
284.0564456341123
 30
0.0
 10
168.8971341194032
 20
284.0920948324479
 30
0.0
 10
168.930373624767
 20
284.0920948324479
 30
0.0
  0
SPLINE
  5
300
330
1F
100
AcDbEntity
  8
0
  6
Continuous
 62
     7
370
    25
100
AcDbSpline
210
0.0
220
0.0
230
1.0
 70
     8
 71
     3
 72
    14
 73
    10
 74
     0
 42
0.000000001
 43
0.00000001
 40
0.0
 40
0.0
 40
0.0
 40
0.0
 40
0.25
 40
0.25
 40
0.5
 40
0.5
 40
0.75
 40
0.75
 40
1.0
 40
1.0
 40
1.0
 40
1.0
 10
168.3716145506106
 20
281.092094832448
 30
0.0
 10
168.4190390229261
 20
281.092094832448
 30
0.0
 10
168.4623070259308
 20
281.1270332185314
 30
0.0
 10
168.5408092014091
 20
281.2678938043134
 30
0.0
 10
168.5741998818987
 20
281.3708639976278
 30
0.0
 10
168.6291788121643
 20
281.6402333398345
 30
0.0
 10
168.6497700516499
 20
281.8021945468127
 30
0.0
 10
168.6770963700444
 20
282.1727450805776
 30
0.0
 10
168.6834553901639
 20
282.376523422608
 30
0.0
 10
168.6827143870688
 20
282.592094832448
 30
0.0
  0
SPLINE
  5
301
330
1F
100
AcDbEntity
  8
0
  6
Continuous
 62
     7
370
    25
100
AcDbSpline
210
0.0
220
0.0
230
1.0
 70
     8
 71
     3
 72
    20
 73
    16
 74
     0
 42
0.000000001
 43
0.00000001
 40
0.0
 40
0.0
 40
0.0
 40
0.0
 40
0.1249999999999999
 40
0.1249999999999999
 40
0.2499999999999998
 40
0.2499999999999998
 40
0.4999999999999983
 40
0.4999999999999983
 40
0.6249999999999988
 40
0.6249999999999988
 40
0.7499999999999992
 40
0.7499999999999992
 40
0.8749999999999997
 40
0.8749999999999997
 40
1.0
 40
1.0
 40
1.0
 40
1.0
 10
164.5494577011216
 20
279.092094832448
 30
0.0
 10
164.5419705060652
 20
279.2288861463671
 30
0.0
 10
164.5407982936128
 20
279.3633994825011
 30
0.0
 10
164.5505638822955
 20
279.6280380678853
 30
0.0
 10
164.5617759270873
 20
279.7594166581874
 30
0.0
 10
164.6119996077983
 20
280.129595204783
 30
0.0
 10
164.6686176071572
 20
280.3526546547097
 30
0.0
 10
164.7759430686696
 20
280.6239348046842
 30
0.0
 10
164.8160211179197
 20
280.7054311401924
 30
0.0
 10
164.900948078817
 20
280.844638597049
 30
0.0
 10
164.945811432865
 20
280.9028089211108
 30
0.0
 10
165.0399637656464
 20
280.9971006620523
 30
0.0
 10
165.0892499845513
 20
281.0329040819051
 30
0.0
 10
165.1885611628038
 20
281.0801545214812
 30
0.0
 10
165.2390199901976
 20
281.092094832448
 30
0.0
 10
165.2902759059359
 20
281.092094832448
 30
0.0
  0
LWPOLYLINE
  5
302
330
1F
100
AcDbEntity
  8
0
  6
Continuous
 62
     7
370
    25
100
AcDbPolyline
 90
        3
 70
   128
 43
0.0
 10
164.5494580568
 20
279.0920943258
 10
165.3130792381
 20
265.1251502571
 10
166.0786524714
 20
251.0920948585
  0
SPLINE
  5
303
330
1F
100
AcDbEntity
  8
0
  6
Continuous
 62
     7
370
    25
100
AcDbSpline
210
0.0
220
0.0
230
1.0
 70
     8
 71
     3
 72
    20
 73
    16
 74
     0
 42
0.000000001
 43
0.00000001
 40
0.0
 40
0.0
 40
0.0
 40
0.0
 40
0.2500000000000013
 40
0.2500000000000013
 40
0.3750000000000011
 40
0.3750000000000011
 40
0.5000000000000009
 40
0.5000000000000009
 40
0.6250000000000007
 40
0.6250000000000007
 40
0.7500000000000004
 40
0.7500000000000004
 40
0.8750000000000002
 40
0.8750000000000002
 40
1.0
 40
1.0
 40
1.0
 40
1.0
 10
164.8505801462236
 20
248.0920948324479
 30
0.0
 10
165.034626650629
 20
248.0920948324479
 30
0.0
 10
165.2077367683443
 20
248.1590532870525
 30
0.0
 10
165.4479319187646
 20
248.3672231832241
 30
0.0
 10
165.5224939603338
 20
248.452977905605
 30
0.0
 10
165.6609301110794
 20
248.6576901301684
 30
0.0
 10
165.7252324964804
 20
248.7776270369517
 30
0.0
 10
165.8405143096035
 20
249.0505266216196
 30
0.0
 10
165.8903342417484
 20
249.2002761020261
 30
0.0
 10
165.974713129751
 20
249.5267918503311
 30
0.0
 10
166.0095727960905
 20
249.7062333588962
 30
0.0
 10
166.0605949109323
 20
250.0801478454633
 30
0.0
 10
166.0770547543327
 20
250.2741690634766
 30
0.0
 10
166.0918546457802
 20
250.6766581090278
 30
0.0
 10
166.0899555342304
 20
250.8846617199794
 30
0.0
 10
166.0786510814171
 20
251.092094832448
 30
0.0
  0
LINE
  5
304
330
1F
100
AcDbEntity
  8
0
  6
Continuous
 62
     7
370
    25
100
AcDbLine
 10
55.9789344968
 20
285.0920953093
 30
0.0
 11
54.2514987589
 21
248.0920948324
 31
0.0
  0
LINE
  5
305
330
1F
100
AcDbEntity
  8
0
  6
Continuous
 62
     7
370
    25
100
AcDbLine
 10
45.3957610132
 20
248.0920948324
 30
0.0
 11
45.3957610132
 21
285.0920953093
 31
0.0
  0
LINE
  5
306
330
1F
100
AcDbEntity
  8
0
  6
Continuous
 62
     7
370
    25
100
AcDbLine
 10
45.3957610132
 20
285.0920953093
 30
0.0
 11
55.9789344968
 21
285.0920953093
 31
0.0
  0
SPLINE
  5
307
330
1F
100
AcDbEntity
  8
0
  6
Continuous
 62
     7
370
    25
100
AcDbSpline
210
0.0
220
0.0
230
1.0
 70
     8
 71
     3
 72
     8
 73
     4
 74
     0
 42
0.000000001
 43
0.00000001
 40
0.0000000000000003
 40
0.0000000000000003
 40
0.0000000000000003
 40
0.0000000000000003
 40
0.0000161629183689
 40
0.0000161629183689
 40
0.0000161629183689
 40
0.0000161629183689
 10
41.08486579893217
 20
248.0923655680608
 30
0.0
 10
41.08686274091163
 20
248.0921849610669
 30
0.0
 10
41.08886164531079
 20
248.0920948324479
 30
0.0
 10
41.09086082551913
 20
248.0920948324479
 30
0.0
  0
LINE
  5
308
330
1F
100
AcDbEntity
  8
0
  6
Continuous
 62
     7
370
    25
100
AcDbLine
 10
41.0848625304
 20
282.0920966802
 30
0.0
 11
41.0848625304
 21
248.092365568
 31
0.0
  0
SPLINE
  5
309
330
1F
100
AcDbEntity
  8
0
  6
Continuous
 62
     7
370
    25
100
AcDbSpline
210
0.0
220
0.0
230
1.0
 70
     8
 71
     3
 72
    10
 73
     6
 74
     0
 42
0.000000001
 43
0.00000001
 40
0.0
 40
0.0
 40
0.0
 40
0.0
 40
0.5
 40
0.5
 40
1.0
 40
1.0
 40
1.0
 40
1.0
 10
40.70929036460183
 20
285.0920948324479
 30
0.0
 10
40.82770173323233
 20
284.6627461640048
 30
0.0
 10
40.92143214423488
 20
284.1902653490453
 30
0.0
 10
41.05157025180603
 20
283.164008626007
 30
0.0
 10
41.08486579891113
 20
282.6352425037452
 30
0.0
 10
41.08486579891115
 20
282.0920948324479
 30
0.0
  0
LINE
  5
30A
330
1F
100
AcDbEntity
  8
0
  6
Continuous
 62
     7
370
    25
100
AcDbLine
 10
40.7092936636
 20
285.0920953093
 30
0.0
 11
45.3957610132
 21
285.0920953093
 31
0.0
  0
LINE
  5
30B
330
1F
100
AcDbEntity
  8
0
  6
Continuous
 62
     7
370
    25
100
AcDbLine
 10
172.5330271126
 20
248.0920948324
 30
0.0
 11
172.5330271126
 21
251.0920948585
 31
0.0
  0
SPLINE
  5
30C
330
1F
100
AcDbEntity
  8
0
  6
Continuous
 62
     7
370
    25
100
AcDbSpline
210
0.0
220
0.0
230
1.0
 70
     8
 71
     3
 72
    24
 73
    20
 74
     0
 42
0.000000001
 43
0.00000001
 40
0.0
 40
0.0
 40
0.0
 40
0.0
 40
0.2500000000000016
 40
0.2500000000000016
 40
0.3750000000000046
 40
0.3750000000000046
 40
0.5000000000000075
 40
0.5000000000000075
 40
0.5625000000000072
 40
0.5625000000000072
 40
0.6250000000000068
 40
0.6250000000000068
 40
0.7500000000000029
 40
0.7500000000000029
 40
0.8125000000000021
 40
0.8125000000000021
 40
0.8750000000000014
 40
0.8750000000000014
 40
1.0
 40
1.0
 40
1.0
 40
1.0
 10
172.5330243903556
 20
251.0920948324479
 30
0.0
 10
173.2744898453525
 20
251.0920948324479
 30
0.0
 10
173.9971690093316
 20
250.9799006564364
 30
0.0
 10
175.0521101053867
 20
250.6379538811065
 30
0.0
 10
175.3934225752537
 20
250.4957616314014
 30
0.0
 10
176.0425914308674
 20
250.1603656874432
 30
0.0
 10
176.3525371851026
 20
249.9665338746015
 30
0.0
 10
176.7940309085966
 20
249.6339666003628
 30
0.0
 10
176.9378528959569
 20
249.5154982421315
 30
0.0
 10
177.2117650607765
 20
249.2686778228533
 30
0.0
 10
177.3424242879337
 20
249.1399871306399
 30
0.0
 10
177.7156114766839
 20
248.7381575265676
 30
0.0
 10
177.9395096461589
 20
248.4493958492653
 30
0.0
 10
178.2357099808966
 20
247.9830058059327
 30
0.0
 10
178.3281906124871
 20
247.8210767883959
 30
0.0
 10
178.4957772874125
 20
247.4919458694511
 30
0.0
 10
178.5712370245834
 20
247.3243652822479
 30
0.0
 10
178.7728071588479
 20
246.8126475037709
 30
0.0
 10
178.8743352887502
 20
246.4596163563558
 30
0.0
 10
178.9409631969426
 20
246.0939581782931
 30
0.0
  0
LWPOLYLINE
  5
30D
330
1F
100
AcDbEntity
  8
0
  6
Continuous
 62
     7
370
    25
100
AcDbPolyline
 90
        9
 70
   128
 43
0.0
 10
176.1918209793
 20
245.5930264437
 10
176.3828613163
 20
245.6278374189
 10
176.6312040688
 20
245.6730889858
 10
176.9312911035
 20
245.7277678655
 10
177.2763870956
 20
245.7906491359
 10
177.658765793
 20
245.8603244046
 10
178.0698664786
 20
245.9352327747
 10
178.5004802348
 20
246.0136967016
 10
178.9409660102
 20
246.0939580811
  0
LINE
  5
30E
330
1F
100
AcDbEntity
  8
0
  6
Continuous
 62
     7
370
    25
100
AcDbLine
 10
166.0786524714
 20
251.0920948585
 30
0.0
 11
172.5330271126
 21
251.0920948585
 31
0.0
  0
SPLINE
  5
30F
330
1F
100
AcDbEntity
  8
0
  6
Continuous
 62
     7
370
    25
100
AcDbSpline
210
0.0
220
0.0
230
1.0
 70
     8
 71
     3
 72
     8
 73
     4
 74
     0
 42
0.000000001
 43
0.00000001
 40
0.0
 40
0.0
 40
0.0
 40
0.0
 40
1.0
 40
1.0
 40
1.0
 40
1.0
 10
178.9409631969426
 20
246.0939581782931
 30
0.0
 10
182.5842879249752
 20
226.0991614288932
 30
0.0
 10
186.1910730051426
 20
206.0977675316661
 30
0.0
 10
189.7741590683873
 20
186.092094832449
 30
0.0
  0
SPLINE
  5
310
330
1F
100
AcDbEntity
  8
0
  6
Continuous
 62
     7
370
    25
100
AcDbSpline
210
0.0
220
0.0
230
1.0
 70
     8
 71
     3
 72
     8
 73
     4
 74
     0
 42
0.000000001
 43
0.00000001
 40
0.0
 40
0.0
 40
0.0
 40
0.0
 40
1.0
 40
1.0
 40
1.0
 40
1.0
 10
27.05539274788014
 20
186.092094832449
 30
0.0
 10
30.77290202162736
 20
206.8483012071133
 30
0.0
 10
34.51587192792572
 20
227.5999461898076
 30
0.0
 10
38.29880055303416
 20
248.3443312738732
 30
0.0
  0
SPLINE
  5
311
330
1F
100
AcDbEntity
  8
0
  6
Continuous
 62
     7
370
    25
100
AcDbSpline
210
0.0
220
0.0
230
1.0
 70
     8
 71
     3
 72
    20
 73
    16
 74
     0
 42
0.000000001
 43
0.00000001
 40
0.0
 40
0.0
 40
0.0
 40
0.0
 40
0.2500000000000055
 40
0.2500000000000055
 40
0.3750000000000046
 40
0.3750000000000046
 40
0.5000000000000038
 40
0.5000000000000038
 40
0.6250000000000029
 40
0.6250000000000029
 40
0.7500000000000019
 40
0.7500000000000019
 40
0.875000000000001
 40
0.875000000000001
 40
1.0
 40
1.0
 40
1.0
 40
1.0
 10
41.08486579893217
 20
248.0923655680608
 30
0.0
 10
40.97327209178904
 20
248.1024583019465
 30
0.0
 10
40.8234173245211
 20
248.1160113871468
 30
0.0
 10
40.54243787473853
 20
248.1414233119544
 30
0.0
 10
40.4394532693879
 20
248.1507372542614
 30
0.0
 10
40.22116162413523
 20
248.1704794727148
 30
0.0
 10
40.10511062696677
 20
248.1809750329991
 30
0.0
 10
39.85912655571165
 20
248.2032215016977
 30
0.0
 10
39.72818406432259
 20
248.2150636986361
 30
0.0
 10
39.46008030594304
 20
248.239310347183
 30
0.0
 10
39.32228559814692
 20
248.2517720873566
 30
0.0
 10
39.03929837065549
 20
248.2773644288293
 30
0.0
 10
38.89330094031203
 20
248.2905678223742
 30
0.0
 10
38.59742615214594
 20
248.3173253022643
 30
0.0
 10
38.44659183043493
 20
248.3309657247734
 30
0.0
 10
38.29880055303416
 20
248.3443312738733
 30
0.0
  0
SPLINE
  5
312
330
1F
100
AcDbEntity
  8
0
  6
Continuous
 62
     7
370
    25
100
AcDbSpline
210
0.0
220
0.0
230
1.0
 70
     8
 71
     3
 72
    12
 73
     8
 74
     0
 42
0.000000001
 43
0.00000001
 40
0.0
 40
0.0
 40
0.0
 40
0.0
 40
0.2500000000000011
 40
0.2500000000000011
 40
0.5000000000000021
 40
0.5000000000000021
 40
1.0
 40
1.0
 40
1.0
 40
1.0
 10
38.29880055301227
 20
282.0920948324479
 30
0.0
 10
38.29880055301227
 20
282.2068830395495
 30
0.0
 10
38.28900346682415
 20
282.3190447835171
 30
0.0
 10
38.25167722277376
 20
282.538592901846
 30
0.0
 10
38.22367709783565
 20
282.6470877945536
 30
0.0
 10
38.11789830398308
 20
282.9549450800592
 30
0.0
 10
38.0213366240415
 20
283.133807201231
 30
0.0
 10
37.90768406624877
 20
283.292094832448
 30
0.0
  0
ARC
  5
313
330
1F
100
AcDbEntity
  8
0
  6
Continuous
 62
     7
370
    25
100
AcDbCircle
 10
37.4446765718
 20
287.0930247494
 30
0.0
 40
3.829026427240195
100
AcDbArc
 50
276.9451892449
 51
328.4952855601
  0
LINE
  5
314
330
1F
100
AcDbEntity
  8
0
  6
Continuous
 62
     7
370
    25
100
AcDbLine
 10
38.2987998725
 20
282.0920966802
 30
0.0
 11
41.0848625304
 21
282.0920966802
 31
0.0
  0
LINE
  5
315
330
1F
100
AcDbEntity
  8
0
  6
Continuous
 62
     7
370
    25
100
AcDbLine
 10
38.2987998725
 20
248.34433127
 30
0.0
 11
38.2987998725
 21
282.0920966802
 31
0.0
  0
SPLINE
  5
316
330
1F
100
AcDbEntity
  8
0
  6
Continuous
 62
     7
370
    25
100
AcDbSpline
210
0.0
220
0.0
230
1.0
 70
     8
 71
     3
 72
    14
 73
    10
 74
     0
 42
0.000000001
 43
0.00000001
 40
0.0
 40
0.0
 40
0.0
 40
0.0
 40
0.25
 40
0.25
 40
0.5
 40
0.5
 40
0.75
 40
0.75
 40
1.0
 40
1.0
 40
1.0
 40
1.0
 10
37.90768406624877
 20
283.292094832448
 30
0.0
 10
37.82511820880673
 20
283.4070870002273
 30
0.0
 10
37.77097995933787
 20
283.5219046459668
 30
0.0
 10
37.7013281200909
 20
283.7292585470487
 30
0.0
 10
37.6857037154921
 20
283.8192802456029
 30
0.0
 10
37.64268929756803
 20
283.9615630857932
 30
0.0
 10
37.61281702535271
 20
284.014450439828
 30
0.0
 10
37.49726851886541
 20
284.0791818966026
 30
0.0
 10
37.41023333110375
 20
284.0920948324485
 30
0.0
 10
37.30584639337495
 20
284.0920948324482
 30
0.0
  0
ARC
  5
317
330
1F
100
AcDbEntity
  8
0
  6
Continuous
 62
     7
370
    25
100
AcDbCircle
 10
37.2902378226
 20
286.8885167184
 30
0.0
 40
2.796466994233783
100
AcDbArc
 50
270.3197937938
 51
320.0297598346
  0
LINE
  5
318
330
1F
100
AcDbEntity
  8
0
  6
Continuous
 62
     7
370
    25
100
AcDbLine
 10
39.433389187
 20
285.0920953093
 30
0.0
 11
40.7092936636
 21
285.0920953093
 31
0.0
  0
LINE
  5
319
330
1F
100
AcDbEntity
  8
0
  6
Continuous
 62
     7
370
    25
100
AcDbLine
 10
20.414776385
 20
282.0920966802
 30
0.0
 11
20.414776385
 21
186.0920958457
 31
0.0
  0
LINE
  5
31A
330
1F
100
AcDbEntity
  8
0
  6
Continuous
 62
     7
370
    25
100
AcDbLine
 10
38.2987998725
 20
282.0920966802
 30
0.0
 11
20.414776385
 21
282.0920966802
 31
0.0
  0
LINE
  5
31B
330
1F
100
AcDbEntity
  8
0
  6
Continuous
 62
     7
370
    25
100
AcDbLine
 10
21.9147794248
 20
186.0920958457
 30
0.0
 11
20.414776385
 21
186.0920958457
 31
0.0
  0
LINE
  5
31C
330
1F
100
AcDbEntity
  8
0
  6
Continuous
 62
     7
370
    25
100
AcDbLine
 10
18.4147723319
 20
186.0920958457
 30
0.0
 11
18.4147723319
 21
282.0920966802
 31
0.0
  0
LINE
  5
31D
330
1F
100
AcDbEntity
  8
0
  6
Continuous
 62
     7
370
    25
100
AcDbLine
 10
18.4147723319
 20
282.0920966802
 30
0.0
 11
20.414776385
 21
282.0920966802
 31
0.0
  0
LINE
  5
31E
330
1F
100
AcDbEntity
  8
0
  6
Continuous
 62
     7
370
    25
100
AcDbLine
 10
20.414776385
 20
186.0920958457
 30
0.0
 11
18.4147723319
 21
186.0920958457
 31
0.0
  0
LINE
  5
31F
330
1F
100
AcDbEntity
  8
0
  6
Continuous
 62
     7
370
    25
100
AcDbLine
 10
196.4147754313
 20
279.0920943258
 30
0.0
 11
164.5494580568
 21
279.0920943258
 31
0.0
  0
LINE
  5
320
330
1F
100
AcDbEntity
  8
0
  6
Continuous
 62
     7
370
    25
100
AcDbLine
 10
196.4147754313
 20
186.0920958457
 30
0.0
 11
196.4147754313
 21
279.0920943258
 31
0.0
  0
LINE
  5
321
330
1F
100
AcDbEntity
  8
0
  6
Continuous
 62
     7
370
    25
100
AcDbLine
 10
194.9147723915
 20
186.0920958457
 30
0.0
 11
196.4147754313
 21
186.0920958457
 31
0.0
  0
LINE
  5
322
330
1F
100
AcDbEntity
  8
0
  6
Continuous
 62
     7
370
    25
100
AcDbLine
 10
198.4147794844
 20
279.0920943258
 30
0.0
 11
198.4147794844
 21
186.0920958457
 31
0.0
  0
LINE
  5
323
330
1F
100
AcDbEntity
  8
0
  6
Continuous
 62
     7
370
    25
100
AcDbLine
 10
196.4147754313
 20
279.0920943258
 30
0.0
 11
198.4147794844
 21
279.0920943258
 31
0.0
  0
LINE
  5
324
330
1F
100
AcDbEntity
  8
0
  6
Continuous
 62
     7
370
    25
100
AcDbLine
 10
198.4147794844
 20
186.0920958457
 30
0.0
 11
196.4147754313
 21
186.0920958457
 31
0.0
  0
ARC
  5
325
330
1F
100
AcDbEntity
  8
0
  6
Continuous
 62
     7
370
    25
100
AcDbCircle
 10
196.4147759082
 20
279.0920948324
 30
0.0
 40
2.0
100
AcDbArc
 50
0.0
 51
90.0
  0
LINE
  5
326
330
1F
100
AcDbEntity
  8
0
  6
Continuous
 62
     7
370
    25
100
AcDbLine
 10
196.4147754313
 20
279.0920943258
 30
0.0
 11
196.4147754313
 21
281.0920946536
 31
0.0
  0
LINE
  5
327
330
1F
100
AcDbEntity
  8
0
  6
Continuous
 62
     7
370
    25
100
AcDbLine
 10
20.414776385
 20
284.0920932827
 30
0.0
 11
20.414776385
 21
282.0920966802
 31
0.0
  0
LINE
  5
328
330
1F
100
AcDbEntity
  8
0
  6
Continuous
 62
     7
370
    25
100
AcDbLine
 10
20.414776385
 20
284.0920932827
 30
0.0
 11
37.3058460952
 21
284.0920932827
 31
0.0
  0
ARC
  5
329
330
1F
100
AcDbEntity
  8
0
  6
Continuous
 62
     7
370
    25
100
AcDbCircle
 10
20.4147759081
 20
282.0920948324
 30
0.0
 40
2.0
100
AcDbArc
 50
90.0000000003
 51
180.0
  0
LINE
  5
32A
330
1F
100
AcDbEntity
  8
0
  6
Continuous
 62
     7
370
    25
100
AcDbLine
 10
165.2902767362
 20
281.0920946536
 30
0.0
 11
196.4147754313
 21
281.0920946536
 31
0.0
  0
SPLINE
  5
32B
330
1F
100
AcDbEntity
  8
0
  6
Continuous
 62
     7
370
    25
100
AcDbSpline
210
0.0
220
0.0
230
1.0
 70
     8
 71
     3
 72
    14
 73
    10
 74
     0
 42
0.000000001
 43
0.00000001
 40
0.0
 40
0.0
 40
0.0
 40
0.0
 40
0.25
 40
0.25
 40
0.5
 40
0.5
 40
0.75
 40
0.75
 40
1.0
 40
1.0
 40
1.0
 40
1.0
 10
36.42598667679099
 20
284.0920948324479
 30
0.0
 10
36.62300810144155
 20
284.0920948324479
 30
0.0
 10
36.81654743166417
 20
284.1142538883055
 30
0.0
 10
37.19693397582413
 20
284.2011587189504
 30
0.0
 10
37.38584349922322
 20
284.2671256183435
 30
0.0
 10
37.74240100428748
 20
284.4380954552418
 30
0.0
 10
37.91088806528976
 20
284.5427006940978
 30
0.0
 10
38.2280135595648
 20
284.790669758176
 30
0.0
 10
38.37553601822134
 20
284.9336806615503
 30
0.0
 10
38.50746089816716
 20
285.0920948324361
 30
0.0
  0
LINE
  5
32C
330
1F
100
AcDbEntity
  8
0
  6
Continuous
 62
     7
370
    25
100
AcDbLine
 10
38.5074608327
 20
285.0920953093
 30
0.0
 11
39.433389187
 21
285.0920953093
 31
0.0
  0
LINE
  5
32D
330
1F
100
AcDbEntity
  8
0
  6
Continuous
 62
     7
370
    25
100
AcDbLine
 10
196.4147754313
 20
282.5920939682
 30
0.0
 11
168.6827160717
 21
282.5920939682
 31
0.0
  0
LINE
  5
32E
330
1F
100
AcDbEntity
  8
0
  6
Continuous
 62
     7
370
    25
100
AcDbLine
 10
196.4147754313
 20
282.5920939682
 30
0.0
 11
196.4147754313
 21
281.0920946536
 31
0.0
  0
ARC
  5
32F
330
1F
100
AcDbEntity
  8
0
  6
Continuous
 62
     7
370
    25
100
AcDbCircle
 10
196.8835286572
 20
280.217084289
 30
0.0
 40
2.420826421453141
100
AcDbArc
 50
50.7628032273
 51
101.1649107245
  0
LINE
  5
330
330
1F
100
AcDbEntity
  8
0
  6
Continuous
 62
     7
370
    25
100
AcDbLine
 10
198.4147794844
 20
282.0920966802
 30
0.0
 11
198.4147794844
 21
279.0920943258
 31
0.0
  0
LINE
  5
331
330
1F
100
AcDbEntity
  8
0
  6
Continuous
 62
     7
370
    25
100
AcDbLine
 10
196.4147754313
 20
284.0920932827
 30
0.0
 11
196.4147754313
 21
282.5920939682
 31
0.0
  0
ARC
  5
332
330
1F
100
AcDbEntity
  8
0
  6
Continuous
 62
     7
370
    25
100
AcDbCircle
 10
196.4147759081
 20
282.0920948324
 30
0.0
 40
2.0
100
AcDbArc
 50
0.0
 51
89.9999999994
  0
LINE
  5
333
330
1F
100
AcDbEntity
  8
0
  6
Continuous
 62
     7
370
    25
100
AcDbLine
 10
168.9303733708
 20
284.0920932827
 30
0.0
 11
196.4147754313
 21
284.0920932827
 31
0.0
  0
SPLINE
  5
334
330
1F
100
AcDbEntity
  8
0
  6
Continuous
 62
     7
370
    25
100
AcDbSpline
210
0.0
220
0.0
230
1.0
 70
     8
 71
     3
 72
    14
 73
    10
 74
     0
 42
0.000000001
 43
0.00000001
 40
0.0
 40
0.0
 40
0.0
 40
0.0
 40
0.25
 40
0.25
 40
0.5
 40
0.5
 40
0.75
 40
0.75
 40
1.0
 40
1.0
 40
1.0
 40
1.0
 10
180.4035651394765
 20
284.092094832448
 30
0.0
 10
180.2065437148259
 20
284.0920948324479
 30
0.0
 10
180.0130043846033
 20
284.1142538883055
 30
0.0
 10
179.6326178404433
 20
284.2011587189504
 30
0.0
 10
179.4437083170442
 20
284.2671256183436
 30
0.0
 10
179.08715081198
 20
284.4380954552418
 30
0.0
 10
178.9186637509777
 20
284.5427006940978
 30
0.0
 10
178.6015382567026
 20
284.790669758176
 30
0.0
 10
178.4540157980461
 20
284.9336806615503
 30
0.0
 10
178.3220909181003
 20
285.0920948324361
 30
0.0
  0
LINE
  5
335
330
1F
100
AcDbEntity
  8
0
  6
Continuous
 62
     7
370
    25
100
AcDbLine
 10
169.5647754075
 20
285.0920953093
 30
0.0
 11
178.3220909835
 21
285.0920953093
 31
0.0
  0
LINE
  5
336
330
1F
100
AcDbEntity
  8
0
  6
Continuous
 62
     8
370
    25
100
AcDbLine
 10
65.6188234986
 20
445.092091733
 30
0.0
 11
63.2837258579
 21
311.0920958457
 31
0.0
  0
LINE
  5
337
330
1F
100
AcDbEntity
  8
0
  6
Continuous
 62
     8
370
    25
100
AcDbLine
 10
69.0458260776
 20
311.0920958457
 30
0.0
 11
69.3554647566
 21
445.092091733
 31
0.0
  0
LINE
  5
338
330
1F
100
AcDbEntity
  8
0
  6
Continuous
 62
     8
370
    25
100
AcDbLine
 10
72.0873058142
 20
445.092091733
 30
0.0
 11
71.7776671351
 21
311.0920958457
 31
0.0
  0
LINE
  5
339
330
1F
100
AcDbEntity
  8
0
  6
Continuous
 62
     8
370
    25
100
AcDbLine
 10
126.4149017931
 20
320.5920927463
 30
0.0
 11
126.176745847
 21
352.076271945
 31
0.0
  0
LINE
  5
33A
330
1F
100
AcDbEntity
  8
0
  6
Continuous
 62
     8
370
    25
100
AcDbLine
 10
90.6528059693
 20
352.076271945
 30
0.0
 11
90.4146500231
 21
320.5920927463
 31
0.0
  0
LWPOLYLINE
  5
33B
330
1F
100
AcDbEntity
  8
0
  6
Continuous
 62
     8
370
    25
100
AcDbPolyline
 90
        5
 70
   128
 43
0.0
 10
89.0478708149
 20
320.5920927463
 10
89.0554275663
 20
321.5917520461
 10
89.0856582971
 20
325.590381795
 10
89.2065812202
 20
341.5848933397
 10
89.2858963759
 20
352.076271945
  0
LINE
  5
33C
330
1F
100
AcDbEntity
  8
0
  6
Continuous
 62
     8
370
    25
100
AcDbLine
 10
127.5436554404
 20
352.076271945
 30
0.0
 11
127.7816810013
 21
320.5920927463
 31
0.0
  0
LINE
  5
33D
330
1F
100
AcDbEntity
  8
0
  6
Continuous
 62
     8
370
    25
100
AcDbLine
 10
169.2565113605
 20
318.013566011
 30
0.0
 11
170.272103727
 21
318.013566011
 31
0.0
  0
LINE
  5
33E
330
1F
100
AcDbEntity
  8
0
  6
Continuous
 62
     8
370
    25
100
AcDbLine
 10
144.1147767307
 20
440.5920900641
 30
0.0
 11
176.2851693036
 21
440.5920900641
 31
0.0
  0
SPLINE
  5
33F
330
1F
100
AcDbEntity
  8
0
  6
Continuous
 62
     8
370
    25
100
AcDbSpline
210
0.0
220
0.0
230
1.0
 70
     8
 71
     3
 72
     9
 73
     5
 74
     0
 42
0.000000001
 43
0.00000001
 40
0.0
 40
0.0
 40
0.0
 40
0.0
 40
0.5842786934121893
 40
1.0
 40
1.0
 40
1.0
 40
1.0
 10
54.99728697552418
 20
312.0920978722848
 30
0.0
 10
56.45497257083179
 20
314.1418778177717
 30
0.0
 10
58.94981897160458
 20
317.6501008089546
 30
0.0
 10
61.44668970385591
 20
321.1561757707583
 30
0.0
 10
62.48469206704831
 20
322.6137258348741
 30
0.0
  0
SPLINE
  5
340
330
1F
100
AcDbEntity
  8
0
  6
Continuous
 62
     8
370
    25
100
AcDbSpline
210
0.0
220
0.0
230
1.0
 70
     8
 71
     3
 72
     9
 73
     5
 74
     0
 42
0.000000001
 43
0.00000001
 40
0.0
 40
0.0
 40
0.0
 40
0.0
 40
0.3155914855699448
 40
1.0
 40
1.0
 40
1.0
 40
1.0
 10
62.44319978370404
 20
320.2327735958375
 30
0.0
 10
61.80329533097765
 20
319.3330978831373
 30
0.0
 10
59.77565997962859
 20
316.4823374734408
 30
0.0
 10
57.749114211406
 20
313.6300278417315
 30
0.0
 10
56.36212903275227
 20
311.6778828439988
 30
0.0
  0
LWPOLYLINE
  5
341
330
1F
100
AcDbEntity
  8
0
  6
Continuous
 62
     8
370
    25
100
AcDbPolyline
 90
        5
 70
   128
 43
0.0
 10
52.3429245056
 20
440.0920965014
 10
52.2391490938
 20
436.0935934124
 10
51.8242113592
 20
420.0996108589
 10
50.1671575309
 20
356.1236135898
 10
49.2407225372
 20
320.2809937535
  0
LINE
  5
342
330
1F
100
AcDbEntity
  8
0
  6
Continuous
 62
     8
370
    25
100
AcDbLine
 10
40.4147722126
 20
440.5920900641
 30
0.0
 11
64.5405941011
 21
440.5920900641
 31
0.0
  0
LINE
  5
343
330
1F
100
AcDbEntity
  8
0
  6
Continuous
 62
     8
370
    25
100
AcDbLine
 10
173.5514171721
 20
312.0920978723
 30
0.0
 11
187.9872896077
 21
312.0920978723
 31
0.0
  0
LWPOLYLINE
  5
344
330
1F
100
AcDbEntity
  8
0
  6
Continuous
 62
     8
370
    25
100
AcDbPolyline
 90
        4
 70
   128
 43
0.0
 10
47.5526593925
 20
317.9053090749
 10
48.2441328765
 20
344.533564919
 10
49.1574921013
 20
379.6567417918
 10
50.7324219049
 20
440.0920965014
  0
ARC
  5
345
330
1F
100
AcDbEntity
  8
0
  6
Continuous
 62
     8
370
    25
100
AcDbCircle
 10
177.5768144833
 20
315.03565413
 30
0.0
 40
0.5635538210850783
100
AcDbArc
 50
85.8184860412
 51
92.6246245517
  0
SPLINE
  5
346
330
1F
100
AcDbEntity
  8
0
  6
Continuous
 62
     8
370
    25
100
AcDbSpline
210
0.0
220
0.0
230
1.0
 70
     8
 71
     3
 72
     9
 73
     5
 74
     0
 42
0.000000001
 43
0.00000001
 40
0.0
 40
0.0
 40
0.0
 40
0.0
 40
0.79050446388131
 40
1.0
 40
1.0
 40
1.0
 40
1.0
 10
178.4257136584733
 20
315.092096501378
 30
0.0
 10
178.2227592340885
 20
315.091844044832
 30
0.0
 10
177.9660188440492
 20
315.0915246835158
 30
0.0
 10
177.7333417652766
 20
315.1937618606121
 30
0.0
 10
177.6845969559166
 20
315.2151800928391
 30
0.0
  0
SPLINE
  5
347
330
1F
100
AcDbEntity
  8
0
  6
Continuous
 62
     8
370
    25
100
AcDbSpline
210
0.0
220
0.0
230
1.0
 70
     8
 71
     3
 72
     9
 73
     5
 74
     0
 42
0.000000001
 43
0.00000001
 40
0.0
 40
0.0
 40
0.0
 40
0.0
 40
0.484223673366368
 40
1.0
 40
1.0
 40
1.0
 40
1.0
 10
177.6123859287713
 20
315.8172615108766
 30
0.0
 10
177.7563515526211
 20
315.7482161608852
 30
0.0
 10
178.0536637902675
 20
315.6056263748234
 30
0.0
 10
178.3817917766378
 20
315.5940909535636
 30
0.0
 10
178.5510324241135
 20
315.58814125636
 30
0.0
  0
ARC
  5
348
330
1F
100
AcDbEntity
  8
0
  6
Continuous
 62
     8
370
    25
100
AcDbCircle
 10
182.8258978944
 20
316.9492745529
 30
0.0
 40
1.350868815041012
100
AcDbArc
 50
268.9872231604
 51
270.3957315546
  0
LWPOLYLINE
  5
349
330
1F
100
AcDbEntity
  8
0
  6
Continuous
 62
     8
370
    25
100
AcDbPolyline
 90
        3
 70
   128
 43
0.0
 10
182.8392662407
 20
315.5882306633
 10
183.1700571181
 20
315.5882753668
 10
185.3575028779
 20
315.58857339
  0
LINE
  5
34A
330
1F
100
AcDbEntity
  8
0
  6
Continuous
 62
     8
370
    25
100
AcDbLine
 10
186.2397261263
 20
315.3064124522
 30
0.0
 11
186.2213753463
 21
315.5986167727
 31
0.0
  0
LWPOLYLINE
  5
34B
330
1F
100
AcDbEntity
  8
0
  6
Continuous
 62
     8
370
    25
100
AcDbPolyline
 90
        3
 70
   128
 43
0.0
 10
186.2322904469
 20
315.598735982
 10
186.2321041824
 20
315.5987583337
 10
186.2213753463
 20
315.5986167727
  0
LWPOLYLINE
  5
34C
330
1F
100
AcDbEntity
  8
0
  6
Continuous
 62
     8
370
    25
100
AcDbPolyline
 90
        5
 70
   128
 43
0.0
 10
190.894819081
 20
312.1008225022
 10
190.8358030321
 20
315.0911651788
 10
190.5200846793
 20
331.0874425111
 10
189.2572187187
 20
395.0725443898
 10
188.2699944378
 20
445.092091733
  0
LINE
  5
34D
330
1F
100
AcDbEntity
  8
0
  6
Continuous
 62
     8
370
    25
100
AcDbLine
 10
108.4147759081
 20
176.8063105879
 30
0.0
 11
95.5478709491
 21
176.8063105879
 31
0.0
  0
LINE
  5
34E
330
1F
100
AcDbEntity
  8
0
  6
Continuous
 62
     8
370
    25
100
AcDbLine
 10
121.2816808672
 20
176.8063105879
 30
0.0
 11
108.4147759081
 21
176.8063105879
 31
0.0
  0
LINE
  5
34F
330
1F
100
AcDbEntity
  8
0
  6
Continuous
 62
     8
370
    25
100
AcDbLine
 10
191.9594697954
 20
463.0920984087
 30
0.0
 11
191.9594697954
 21
455.0920970974
 31
0.0
  0
LINE
  5
350
330
1F
100
AcDbEntity
  8
0
  6
Continuous
 62
     8
370
    25
100
AcDbLine
 10
192.2493867876
 20
462.9455156861
 30
0.0
 11
192.2493867876
 21
455.2386798201
 31
0.0
  0
ARC
  5
351
330
1F
100
AcDbEntity
  8
0
  6
Continuous
 62
     8
370
    25
100
AcDbCircle
 10
88.1295861914
 20
368.3732592611
 30
0.0
 40
4.976492267629617
100
AcDbArc
 50
198.6113145685
 51
270.9808705553
  0
ARC
  5
352
330
1F
100
AcDbEntity
  8
0
  6
Continuous
 62
     8
370
    25
100
AcDbCircle
 10
129.7457358291
 20
368.2917513257
 30
0.0
 40
4.896006916880707
100
AcDbArc
 50
268.4672445073
 51
349.4003832226
  0
ARC
  5
353
330
1F
100
AcDbEntity
  8
0
  6
Continuous
 62
     8
370
    25
100
AcDbCircle
 10
138.5154925127
 20
359.206676115
 30
0.0
 40
5.66060779927337
100
AcDbArc
 50
268.9805018268
 51
343.5793538664
  0
LINE
  5
354
330
1F
100
AcDbEntity
  8
0
  6
Continuous
 62
     8
370
    25
100
AcDbLine
 10
75.4147760869
 20
445.9363617239
 30
0.0
 11
75.4147760869
 21
445.5249853668
 31
0.0
  0
LINE
  5
355
330
1F
100
AcDbEntity
  8
0
  6
Continuous
 62
     8
370
    25
100
AcDbLine
 10
75.4147760869
 20
444.9966646967
 30
0.0
 11
75.4147760869
 21
360.0129582224
 31
0.0
  0
LINE
  5
356
330
1F
100
AcDbEntity
  8
0
  6
Continuous
 62
     8
370
    25
100
AcDbLine
 10
79.4147767426
 20
450.8137054978
 30
0.0
 11
79.4147767426
 21
449.6951349316
 31
0.0
  0
LINE
  5
357
330
1F
100
AcDbEntity
  8
0
  6
Continuous
 62
     8
370
    25
100
AcDbLine
 10
138.4147752376
 20
450.8137054978
 30
0.0
 11
138.4147752376
 21
449.6951349316
 31
0.0
  0
LINE
  5
358
330
1F
100
AcDbEntity
  8
0
  6
Continuous
 62
     8
370
    25
100
AcDbLine
 10
188.41477412
 20
479.0509589253
 30
0.0
 11
33.9515574576
 21
479.0509589253
 31
0.0
  0
LINE
  5
359
330
1F
100
AcDbEntity
  8
0
  6
Continuous
 62
     8
370
    25
100
AcDbLine
 10
187.8873996736
 20
466.0920895872
 30
0.0
 11
188.41477412
 21
466.0920895872
 31
0.0
  0
LINE
  5
35A
330
1F
100
AcDbEntity
  8
0
  6
Continuous
 62
     8
370
    25
100
AcDbLine
 10
76.6205519737
 20
466.0920895872
 30
0.0
 11
76.6205519737
 21
450.0695266066
 31
0.0
  0
LINE
  5
35B
330
1F
100
AcDbEntity
  8
0
  6
Continuous
 62
     8
370
    25
100
AcDbLine
 10
34.7453795673
 20
480.6892670927
 30
0.0
 11
187.5619285108
 21
480.6892670927
 31
0.0
  0
SPLINE
  5
35C
330
1F
100
AcDbEntity
  8
0
  6
Continuous
 62
     8
370
    25
100
AcDbSpline
210
0.0
220
0.0
230
1.0
 70
     8
 71
     3
 72
    11
 73
     7
 74
     0
 42
0.000000001
 43
0.00000001
 40
0.0
 40
0.0
 40
0.0
 40
0.0
 40
0.0003076836789128
 40
0.3764695678433665
 40
0.7561974542189637
 40
1.0
 40
1.0
 40
1.0
 40
1.0
 10
34.54691100134587
 20
484.3855448303498
 30
0.0
 10
34.546906029501
 20
484.3856442606495
 30
0.0
 10
34.54082267695379
 20
484.5073032387546
 30
0.0
 10
34.57182648576601
 20
483.946732659007
 30
0.0
 10
34.64737136162709
 20
482.6110317640722
 30
0.0
 10
34.71782999791134
 20
481.2294646076231
 30
0.0
 10
34.74537956728673
 20
480.6892670927323
 30
0.0
  0
LINE
  5
35D
330
1F
100
AcDbEntity
  8
0
  6
Continuous
 62
     8
370
    25
100
AcDbLine
 10
172.7676235439
 20
491.0483457384
 30
0.0
 11
44.0619282724
 21
491.0483457384
 31
0.0
  0
LINE
  5
35E
330
1F
100
AcDbEntity
  8
0
  6
Continuous
 62
     8
370
    25
100
AcDbLine
 10
74.5779082478
 20
462.5194318829
 30
0.0
 11
74.5779082478
 21
448.1804020939
 31
0.0
  0
SPLINE
  5
35F
330
1F
100
AcDbEntity
  8
0
  6
Continuous
 62
     8
370
    25
100
AcDbSpline
210
0.0
220
0.0
230
1.0
 70
     8
 71
     3
 72
     9
 73
     5
 74
     0
 42
0.000000001
 43
0.00000001
 40
0.0
 40
0.0
 40
0.0
 40
0.0
 40
0.8523530065524606
 40
1.0
 40
1.0
 40
1.0
 40
1.0
 10
72.33012023582194
 20
462.5194318828859
 30
0.0
 10
71.36329275558619
 20
462.5671680429384
 30
0.0
 10
70.22898869048257
 20
462.623173195364
 30
0.0
 10
69.09418891483237
 20
462.6049180515743
 30
0.0
 10
68.92663913979267
 20
462.6022227344789
 30
0.0
  0
LINE
  5
360
330
1F
100
AcDbEntity
  8
0
  6
Continuous
 62
     8
370
    25
100
AcDbLine
 10
65.0089487733
 20
462.5517525015
 30
0.0
 11
62.4994330408
 21
462.5194318829
 31
0.0
  0
LINE
  5
361
330
1F
100
AcDbEntity
  8
0
  6
Continuous
 62
     8
370
    25
100
AcDbLine
 10
62.4994330408
 20
462.5194318829
 30
0.0
 11
61.4994310142
 21
462.5194318829
 31
0.0
  0
ARC
  5
362
330
1F
100
AcDbEntity
  8
0
  6
Continuous
 62
     8
370
    25
100
AcDbCircle
 10
63.2733664677
 20
462.5505562916
 30
0.0
 40
1.777038171255694
100
AcDbArc
 50
98.9892737194
 51
158.9356050725
  0
SPLINE
  5
363
330
1F
100
AcDbEntity
  8
0
  6
Continuous
 62
     8
370
    25
100
AcDbSpline
210
0.0
220
0.0
230
1.0
 70
     8
 71
     3
 72
    11
 73
     7
 74
     0
 42
0.000000001
 43
0.00000001
 40
0.0
 40
0.0
 40
0.0
 40
0.0
 40
0.1627214018787899
 40
0.5764883768183808
 40
0.996595298246589
 40
1.0
 40
1.0
 40
1.0
 40
1.0
 10
61.51688772453999
 20
462.8572710094728
 30
0.0
 10
61.51930449155525
 20
463.0110947295394
 30
0.0
 10
61.52786659879927
 20
463.5560604542289
 30
0.0
 10
61.23338800507748
 20
464.679286759899
 30
0.0
 10
60.92408470584526
 20
465.6125081557668
 30
0.0
 10
60.7378767683457
 20
466.0882648758256
 30
0.0
 10
60.73637980236744
 20
466.0920895872392
 30
0.0
  0
LINE
  5
364
330
1F
100
AcDbEntity
  8
0
  6
Continuous
 62
     8
370
    25
100
AcDbLine
 10
108.4147759081
 20
492.6866539059
 30
0.0
 11
171.9147779347
 21
492.6866539059
 31
0.0
  0
LINE
  5
365
330
1F
100
AcDbEntity
  8
0
  6
Continuous
 62
     8
370
    25
100
AcDbLine
 10
44.9147738816
 20
492.6866539059
 30
0.0
 11
108.4147759081
 21
492.6866539059
 31
0.0
  0
LINE
  5
366
330
1F
100
AcDbEntity
  8
0
  6
Continuous
 62
     8
370
    25
100
AcDbLine
 10
171.9147779347
 20
493.0920996008
 30
0.0
 11
44.9147738816
 21
493.0920996008
 31
0.0
  0
SPLINE
  5
367
330
1F
100
AcDbEntity
  8
0
  6
Continuous
 62
     8
370
    25
100
AcDbSpline
210
0.0
220
0.0
230
1.0
 70
     8
 71
     3
 72
     9
 73
     5
 74
     0
 42
0.000000001
 43
0.00000001
 40
0.0
 40
0.0
 40
0.0
 40
0.0
 40
0.6968426534384969
 40
0.9999999999999999
 40
0.9999999999999999
 40
0.9999999999999999
 40
0.9999999999999999
 10
189.3119804860566
 20
464.3057681856431
 30
0.0
 10
189.3548224952989
 20
464.3282767418656
 30
0.0
 10
189.4163026716787
 20
464.3605775146603
 30
0.0
 10
189.4053088936598
 20
464.3546864715094
 30
0.0
 10
189.4019760490868
 20
464.3529005584992
 30
0.0
  0
LINE
  5
368
330
1F
100
AcDbEntity
  8
0
  6
Continuous
 62
     8
370
    25
100
AcDbLine
 10
33.4147729279
 20
289.5501353083
 30
0.0
 11
44.0547161104
 21
289.5501353083
 31
0.0
  0
LINE
  5
369
330
1F
100
AcDbEntity
  8
0
  6
Continuous
 62
     8
370
    25
100
AcDbLine
 10
172.7748357059
 20
289.5501353083
 30
0.0
 11
183.4147788884
 21
289.5501353083
 31
0.0
  0
LINE
  5
36A
330
1F
100
AcDbEntity
  8
0
  6
Continuous
 62
     8
370
    25
100
AcDbLine
 10
180.914773822
 20
286.5920946238
 30
0.0
 11
35.9147779943
 21
286.5920946238
 31
0.0
  0
LINE
  5
36B
330
1F
100
AcDbEntity
  8
0
  6
Continuous
 62
     8
370
    25
100
AcDbLine
 10
182.5814388992
 20
288.5641217468
 30
0.0
 11
169.2268953027
 21
288.5641217468
 31
0.0
  0
LINE
  5
36C
330
1F
100
AcDbEntity
  8
0
  6
Continuous
 62
     8
370
    25
100
AcDbLine
 10
47.6026565136
 20
288.5641217468
 30
0.0
 11
34.2481129171
 21
288.5641217468
 31
0.0
  0
LINE
  5
36D
330
1F
100
AcDbEntity
  8
0
  6
Continuous
 62
     8
370
    25
100
AcDbLine
 10
172.0483444931
 20
289.5920932529
 30
0.0
 11
172.7757148744
 21
289.5920932529
 31
0.0
  0
LINE
  5
36E
330
1F
100
AcDbEntity
  8
0
  6
Continuous
 62
     8
370
    25
100
AcDbLine
 10
44.0538369419
 20
289.5920932529
 30
0.0
 11
44.7812073232
 21
289.5920932529
 31
0.0
  0
LINE
  5
36F
330
1F
100
AcDbEntity
  8
0
  6
Continuous
 62
     8
370
    25
100
AcDbLine
 10
47.5042902233
 20
288.5920949517
 30
0.0
 11
47.6026565136
 21
288.5641217468
 31
0.0
  0
LINE
  5
370
330
1F
100
AcDbEntity
  8
0
  6
Continuous
 62
     8
370
    25
100
AcDbLine
 10
169.2268953027
 20
288.5641217468
 30
0.0
 11
169.325261593
 21
288.5920949517
 31
0.0
  0
LINE
  5
371
330
1F
100
AcDbEntity
  8
0
  6
HIDDEN
 62
     7
370
    18
100
AcDbLine
 10
18.4147759081
 20
270.0920948324
 30
0.0
 11
38.298800553
 21
270.0920948324
 31
0.0
  0
LINE
  5
372
330
1F
100
AcDbEntity
  8
0
  6
HIDDEN
 62
     7
370
    18
100
AcDbLine
 10
18.4147759081
 20
246.0920948324
 30
0.0
 11
38.298800553
 21
246.0920948324
 31
0.0
  0
LINE
  5
373
330
1F
100
AcDbEntity
  8
0
  6
HIDDEN
 62
     7
370
    18
100
AcDbLine
 10
178.4147759081
 20
269.0920948324
 30
0.0
 11
198.4147759081
 21
269.0920948324
 31
0.0
  0
LINE
  5
374
330
1F
100
AcDbEntity
  8
0
  6
HIDDEN
 62
     7
370
    18
100
AcDbLine
 10
178.4147759081
 20
247.0920948324
 30
0.0
 11
198.4147759081
 21
247.0920948324
 31
0.0
  0
LINE
  5
375
330
1F
100
AcDbEntity
  8
0
  6
Continuous
 62
     7
370
    18
100
AcDbLine
 10
18.4147759081
 20
156.2164297716
 30
0.0
 11
18.4151564607
 21
156.4584612038
 31
0.0
  0
LINE
  5
376
330
1F
100
AcDbEntity
  8
0
  6
Continuous
 62
     7
370
    18
100
AcDbLine
 10
95.0267618071
 20
251.0920948324
 30
0.0
 11
120.0672823804
 21
251.0920948324
 31
0.0
  0
LINE
  5
377
330
1F
100
AcDbEntity
  8
0
  6
CENTERX2
 62
     7
370
    18
100
AcDbLine
 10
4.7971004148
 20
258.0920948324
 30
0.0
 11
42.0177005739
 21
258.0920948324
 31
0.0
  0
LINE
  5
378
330
1F
100
AcDbEntity
  8
0
  6
CENTERX2
 62
     7
370
    18
100
AcDbLine
 10
172.5043715267
 20
258.0920948324
 30
0.0
 11
212.6597165753
 21
258.0920948324
 31
0.0
  0
LINE
  5
379
330
1F
100
AcDbEntity
  8
0
  6
HIDDEN
 62
     7
370
    18
100
AcDbLine
 10
18.4147759081
 20
269.0920948324
 30
0.0
 11
38.298800553
 21
269.0920948324
 31
0.0
  0
LINE
  5
37A
330
1F
100
AcDbEntity
  8
0
  6
HIDDEN
 62
     7
370
    18
100
AcDbLine
 10
18.4147759081
 20
247.0920948324
 30
0.0
 11
38.298800553
 21
247.0920948324
 31
0.0
  0
LINE
  5
37B
330
1F
100
AcDbEntity
  8
0
  6
HIDDEN
 62
     7
370
    18
100
AcDbLine
 10
178.4147759081
 20
246.0920948324
 30
0.0
 11
198.4147759081
 21
246.0920948324
 31
0.0
  0
LINE
  5
37C
330
1F
100
AcDbEntity
  8
0
  6
HIDDEN
 62
     7
370
    18
100
AcDbLine
 10
178.4147759081
 20
270.0920948324
 30
0.0
 11
198.4147759081
 21
270.0920948324
 31
0.0
  0
LINE
  5
37D
330
1F
100
AcDbEntity
  8
0
  6
Continuous
 62
     7
370
    18
100
AcDbLine
 10
108.4147759081
 20
522.3084356437
 30
0.0
 11
108.4147759081
 21
129.0103428129
 31
0.0
  0
CIRCLE
  5
37E
330
1F
100
AcDbEntity
  8
0
  6
HIDDEN
 62
     7
370
    18
100
AcDbCircle
 10
108.4147759081
 20
251.0920948324
 30
0.0
 40
2.999999999999993
  0
LINE
  5
37F
330
1F
100
AcDbEntity
  8
0
  6
Continuous
 62
     7
370
    25
100
AcDbLine
 10
77.4147764148
 20
54.8016279928
 30
0.0
 11
77.4147764148
 21
53.422905504
 31
0.0
  0
LINE
  5
380
330
1F
100
AcDbEntity
  8
0
  6
Continuous
 62
     7
370
    25
100
AcDbLine
 10
81.4147752078
 20
53.422905504
 30
0.0
 11
81.4147752078
 21
54.9619942896
 31
0.0
  0
LINE
  5
381
330
1F
100
AcDbEntity
  8
0
  6
Continuous
 62
     7
370
    25
100
AcDbLine
 10
75.4147760869
 20
60.5125948779
 30
0.0
 11
75.4147760869
 21
59.7725063555
 31
0.0
  0
LINE
  5
382
330
1F
100
AcDbEntity
  8
0
  6
Continuous
 62
     7
370
    25
100
AcDbLine
 10
75.4646390976
 20
60.6596767895
 30
0.0
 11
75.4403688313
 21
60.5420842759
 31
0.0
  0
LINE
  5
383
330
1F
100
AcDbEntity
  8
0
  6
Continuous
 62
     7
370
    25
100
AcDbLine
 10
83.4147755356
 20
60.5125948779
 30
0.0
 11
83.3677456082
 21
60.7260242097
 31
0.0
  0
ARC
  5
384
330
1F
100
AcDbEntity
  8
0
  6
Continuous
 62
     7
370
    25
100
AcDbCircle
 10
79.4147759081
 20
55.8661050623
 30
0.0
 40
6.499999999999985
100
AcDbArc
 50
58.9823638146
 51
121.0176361854
  0
LINE
  5
385
330
1F
100
AcDbEntity
  8
0
  6
Continuous
 62
     7
370
    25
100
AcDbLine
 10
135.4147766085
 20
54.9619942896
 30
0.0
 11
135.4147766085
 21
53.422905504
 31
0.0
  0
LINE
  5
386
330
1F
100
AcDbEntity
  8
0
  6
Continuous
 62
     7
370
    25
100
AcDbLine
 10
139.4147754015
 20
53.422905504
 30
0.0
 11
139.4147754015
 21
54.9235120408
 31
0.0
  0
LINE
  5
387
330
1F
100
AcDbEntity
  8
0
  6
Continuous
 62
     7
370
    25
100
AcDbLine
 10
141.4147757293
 20
60.156606137
 30
0.0
 11
141.4147757293
 21
60.5125948779
 31
0.0
  0
LINE
  5
388
330
1F
100
AcDbEntity
  8
0
  6
Continuous
 62
     7
370
    25
100
AcDbLine
 10
133.4646392913
 20
60.6596767895
 30
0.0
 11
133.4403671624
 21
60.5420842759
 31
0.0
  0
LINE
  5
389
330
1F
100
AcDbEntity
  8
0
  6
Continuous
 62
     7
370
    25
100
AcDbLine
 10
141.4147757293
 20
60.5125948779
 30
0.0
 11
141.3677439393
 21
60.7260242097
 31
0.0
  0
ARC
  5
38A
330
1F
100
AcDbEntity
  8
0
  6
Continuous
 62
     7
370
    25
100
AcDbCircle
 10
137.4147759081
 20
55.8661050623
 30
0.0
 40
6.499999999999996
100
AcDbArc
 50
58.9823638146
 51
121.0176361854
  0
LINE
  5
38B
330
1F
100
AcDbEntity
  8
0
  6
Continuous
 62
     7
370
    25
100
AcDbLine
 10
138.4147752376
 20
60.5316609137
 30
0.0
 11
79.4147767426
 21
60.5316609137
 31
0.0
  0
SPLINE
  5
38C
330
1F
100
AcDbEntity
  8
0
  6
Continuous
 62
     7
370
    25
100
AcDbSpline
210
0.0
220
0.0
230
1.0
 70
     8
 71
     3
 72
    15
 73
    11
 74
     0
 42
0.000000001
 43
0.00000001
 40
0.0
 40
0.0
 40
0.0
 40
0.0
 40
0.0815961525120705
 40
0.2376382298461851
 40
0.3974090075267296
 40
0.5672458451702092
 40
0.7066720008136678
 40
0.8222271413137874
 40
0.9331893282834199
 40
1.0
 40
1.0
 40
1.0
 40
1.0
 10
79.41477674259876
 20
60.53166091367191
 30
0.0
 10
79.19135716578533
 20
60.52828837226469
 30
0.0
 10
78.54067657469895
 20
60.5184662820629
 30
0.0
 10
77.47647352984427
 20
60.40776762280592
 30
0.0
 10
76.29570757548224
 20
60.15371994861408
 30
0.0
 10
75.31891361589102
 20
59.77938654747705
 30
0.0
 10
74.56437086239038
 20
59.28654809784447
 30
0.0
 10
74.0317916386794
 20
58.67716088383624
 30
0.0
 10
73.75251040197121
 20
58.04011733375187
 30
0.0
 10
73.72508437378141
 20
57.62106667625241
 30
0.0
 10
73.71477711214756
 20
57.46357887908405
 30
0.0
  0
SPLINE
  5
38D
330
1F
100
AcDbEntity
  8
0
  6
Continuous
 62
     7
370
    25
100
AcDbSpline
210
0.0
220
0.0
230
1.0
 70
     8
 71
     3
 72
    15
 73
    11
 74
     0
 42
0.000000001
 43
0.00000001
 40
0.0
 40
0.0
 40
0.0
 40
0.0
 40
0.1127077833643948
 40
0.2198726774657913
 40
0.3293855912475049
 40
0.4560127195005887
 40
0.6132195496849796
 40
0.7803863503196646
 40
0.9394145740215988
 40
1.0
 40
1.0
 40
1.0
 40
1.0
 10
144.1147767306778
 20
57.46357887908405
 30
0.0
 10
144.0855900828385
 20
57.72979858549849
 30
0.0
 10
144.0286521659074
 20
58.2491455010017
 30
0.0
 10
143.6276455997038
 20
58.90244299203917
 30
0.0
 10
143.0911186187965
 20
59.41506742139491
 30
0.0
 10
142.3704807013243
 20
59.83943468510918
 30
0.0
 10
141.4149961076502
 20
60.18652255091787
 30
0.0
 10
140.2258548912307
 20
60.42838281235021
 30
0.0
 10
139.1816683496213
 20
60.52291094237508
 30
0.0
 10
138.5805950061286
 20
60.52976897046307
 30
0.0
 10
138.4147752375815
 20
60.53166091367191
 30
0.0
  0
CIRCLE
  5
38E
330
1F
100
AcDbEntity
  8
0
  6
Continuous
 62
     7
370
    25
100
AcDbCircle
 10
108.4147759081
 20
-61.0461682089
 30
0.0
 40
10.55269119345813
  0
CIRCLE
  5
38F
330
1F
100
AcDbEntity
  8
0
  6
Continuous
 62
     7
370
    25
100
AcDbCircle
 10
108.4147759081
 20
-61.0461682089
 30
0.0
 40
34.95269119345814
  0
CIRCLE
  5
390
330
1F
100
AcDbEntity
  8
0
  6
Continuous
 62
     7
370
    25
100
AcDbCircle
 10
108.4147759081
 20
-61.0461682089
 30
0.0
 40
50.94730880654186
  0
CIRCLE
  5
391
330
1F
100
AcDbEntity
  8
0
  6
Continuous
 62
     7
370
    25
100
AcDbCircle
 10
108.4147759081
 20
-61.0461682089
 30
0.0
 40
74.0
  0
CIRCLE
  5
392
330
1F
100
AcDbEntity
  8
0
  6
Continuous
 62
     7
370
    25
100
AcDbCircle
 10
177.4147759081
 20
-61.0461682089
 30
0.0
 40
2.75
  0
CIRCLE
  5
393
330
1F
100
AcDbEntity
  8
0
  6
Continuous
 62
     7
370
    25
100
AcDbCircle
 10
129.73694852
 20
4.5767314155
 30
0.0
 40
2.750000000000006
  0
CIRCLE
  5
394
330
1F
100
AcDbEntity
  8
0
  6
Continuous
 62
     7
370
    25
100
AcDbCircle
 10
52.5926032963
 20
-20.4889858007
 30
0.0
 40
2.750000000000003
  0
CIRCLE
  5
395
330
1F
100
AcDbEntity
  8
0
  6
Continuous
 62
     7
370
    25
100
AcDbCircle
 10
52.5926032963
 20
-101.6033506171
 30
0.0
 40
2.74999999999999
  0
CIRCLE
  5
396
330
1F
100
AcDbEntity
  8
0
  6
Continuous
 62
     7
370
    25
100
AcDbCircle
 10
129.73694852
 20
-126.6690678332
 30
0.0
 40
2.749999999999968
  0
LWPOLYLINE
  5
397
330
1F
100
AcDbEntity
  8
0
  6
Continuous
 62
     7
370
    25
100
AcDbPolyline
 90
       17
 70
   128
 43
0.0
 10
81.4147752078
 20
53.422905504
 10
81.2625356318
 20
53.1611368053
 10
80.8289900722
 20
52.9392138116
 10
80.1801432224
 20
52.7909323566
 10
79.4147767426
 20
52.7388602488
 10
78.6494084002
 20
52.7909323566
 10
78.0005615504
 20
52.9392138116
 10
77.5670159908
 20
53.1611368053
 10
77.4147764148
 20
53.422905504
 10
77.5670159908
 20
53.6846742026
 10
78.0005615504
 20
53.9065971963
 10
78.6494084002
 20
54.0548786513
 10
79.4147767426
 20
54.1069433086
 10
80.1801432224
 20
54.0548786513
 10
80.8289900722
 20
53.9065971963
 10
81.2625356318
 20
53.6846742026
 10
81.4147752078
 20
53.422905504
  0
LWPOLYLINE
  5
398
330
1F
100
AcDbEntity
  8
0
  6
Continuous
 62
     7
370
    25
100
AcDbPolyline
 90
       11
 70
   128
 43
0.0
 10
75.5691856445
 20
60.8690157525
 10
75.7499553563
 20
61.1922964446
 10
76.2972936334
 20
61.559699475
 10
77.1497927906
 20
61.8512704961
 10
78.2240044625
 20
62.0384737842
 10
79.4147767426
 20
62.102980911
 10
80.6055490227
 20
62.0384737842
 10
81.679758832
 20
61.8512704961
 10
82.5322579892
 20
61.559699475
 10
83.0795962663
 20
61.1922964446
 10
83.2507677676
 20
60.9102323644
  0
LWPOLYLINE
  5
399
330
1F
100
AcDbEntity
  8
0
  6
Continuous
 62
     7
370
    25
100
AcDbPolyline
 90
       17
 70
   128
 43
0.0
 10
139.4147754015
 20
53.422905504
 10
139.2625358255
 20
53.1611368053
 10
138.8289902659
 20
52.9392138116
 10
138.1801434161
 20
52.7909323566
 10
137.4147750737
 20
52.7388602488
 10
136.6494085939
 20
52.7909323566
 10
136.0005617441
 20
52.9392138116
 10
135.5670161845
 20
53.1611368053
 10
135.4147766085
 20
53.422905504
 10
135.5670161845
 20
53.6846742026
 10
136.0005617441
 20
53.9065971963
 10
136.6494085939
 20
54.0548786513
 10
137.4147750737
 20
54.1069433086
 10
138.1801434161
 20
54.0548786513
 10
138.8289902659
 20
53.9065971963
 10
139.2625358255
 20
53.6846742026
 10
139.4147754015
 20
53.422905504
  0
LWPOLYLINE
  5
39A
330
1F
100
AcDbEntity
  8
0
  6
Continuous
 62
     7
370
    25
100
AcDbPolyline
 90
       11
 70
   128
 43
0.0
 10
133.5691877009
 20
60.8690157525
 10
133.74995555
 20
61.1922964446
 10
134.2972938271
 20
61.559699475
 10
135.1497929843
 20
61.8512704961
 10
136.2240027936
 20
62.0384737842
 10
137.4147750737
 20
62.102980911
 10
138.6055473538
 20
62.0384737842
 10
139.6797590257
 20
61.8512704961
 10
140.5322581829
 20
61.559699475
 10
141.07959646
 20
61.1922964446
 10
141.2507698239
 20
60.9102323644
  0
SPLINE
  5
39B
330
1F
100
AcDbEntity
  8
0
  6
Continuous
 62
     7
370
    25
100
AcDbSpline
210
0.0
220
0.0
230
1.0
 70
    24
 71
     3
 72
     9
 73
     5
 74
     0
 42
0.000000001
 43
0.00000001
 40
0.0
 40
0.0
 40
0.0
 40
0.0
 40
0.004124858909731
 40
1.0
 40
1.0
 40
1.0
 40
1.0
 10
106.4147758131388
 20
40.88573157712406
 30
0.0
 10
106.4147758131388
 20
40.8857814555229
 30
0.0
 10
106.4147758131388
 20
40.89787360217461
 30
0.0
 10
106.4147758131388
 20
40.87331547856478
 30
0.0
 10
106.4147758131388
 20
40.84885865374989
 30
0.0
  0
LINE
  5
39C
330
1F
100
AcDbEntity
  8
0
  6
Continuous
 62
     7
370
    25
100
AcDbLine
 10
73.7147771121
 20
53.422905504
 30
0.0
 11
73.7147771121
 21
25.4538282745
 31
0.0
  0
LWPOLYLINE
  5
39D
330
1F
100
AcDbEntity
  8
0
  6
Continuous
 62
     7
370
    25
100
AcDbPolyline
 90
        9
 70
   128
 43
0.0
 10
79.4147767426
 20
55.3724169724
 10
78.3027608247
 20
55.3349629037
 10
77.2334795745
 20
55.2240237586
 10
76.2480266692
 20
55.0438687198
 10
75.3842659594
 20
54.8014193766
 10
74.675399095
 20
54.5059964053
 10
74.1486616732
 20
54.1689544909
 10
73.8243006469
 20
53.8032352917
 10
73.7147771121
 20
53.422905504
  0
LINE
  5
39E
330
1F
100
AcDbEntity
  8
0
  6
Continuous
 62
     7
370
    25
100
AcDbLine
 10
138.4147752376
 20
55.3724169724
 30
0.0
 11
79.4147767426
 21
55.3724169724
 31
0.0
  0
LWPOLYLINE
  5
39F
330
1F
100
AcDbEntity
  8
0
  6
Continuous
 62
     7
370
    25
100
AcDbPolyline
 90
        9
 70
   128
 43
0.0
 10
144.1147767307
 20
53.422905504
 10
144.0052531959
 20
53.8032352917
 10
143.6808884443
 20
54.1689544909
 10
143.1541510226
 20
54.5059964053
 10
142.4452841581
 20
54.8014193766
 10
141.5815271737
 20
55.0438687198
 10
140.5960724057
 20
55.2240237586
 10
139.5267911555
 20
55.3349629037
 10
138.4147752376
 20
55.3724169724
  0
LINE
  5
3A0
330
1F
100
AcDbEntity
  8
0
  6
Continuous
 62
     7
370
    25
100
AcDbLine
 10
144.1147767307
 20
25.4538282745
 30
0.0
 11
144.1147767307
 21
53.422905504
 31
0.0
  0
LINE
  5
3A1
330
1F
100
AcDbEntity
  8
0
  6
Continuous
 62
     7
370
    25
100
AcDbLine
 10
142.9147750439
 20
25.4538282745
 30
0.0
 11
142.9147750439
 21
53.422905504
 31
0.0
  0
LWPOLYLINE
  5
3A2
330
1F
100
AcDbEntity
  8
0
  6
Continuous
 62
     7
370
    25
100
AcDbPolyline
 90
        9
 70
   128
 43
0.0
 10
138.4147752376
 20
54.9619942896
 10
139.2926827373
 20
54.9324229352
 10
140.1368521453
 20
54.8448413603
 10
140.9148417713
 20
54.7026097767
 10
141.5967561604
 20
54.5112043612
 10
142.1563878955
 20
54.2779788367
 10
142.5722346009
 20
54.0118888013
 10
142.828311056
 20
53.723163902
 10
142.9147750439
 20
53.422905504
  0
LINE
  5
3A3
330
1F
100
AcDbEntity
  8
0
  6
Continuous
 62
     7
370
    25
100
AcDbLine
 10
138.4147752376
 20
54.9619942896
 30
0.0
 11
79.4147767426
 21
54.9619942896
 31
0.0
  0
LWPOLYLINE
  5
3A4
330
1F
100
AcDbEntity
  8
0
  6
Continuous
 62
     7
370
    25
100
AcDbPolyline
 90
        9
 70
   128
 43
0.0
 10
74.9147750737
 20
53.422905504
 10
75.0012427868
 20
53.723163902
 10
75.2573192419
 20
54.0118888013
 10
75.673162222
 20
54.2779788367
 10
76.2327939571
 20
54.5112043612
 10
76.9147083463
 20
54.7026097767
 10
77.6926998348
 20
54.8448413603
 10
78.5368692429
 20
54.9324229352
 10
79.4147767426
 20
54.9619942896
  0
LINE
  5
3A5
330
1F
100
AcDbEntity
  8
0
  6
Continuous
 62
     7
370
    25
100
AcDbLine
 10
74.9147750737
 20
53.422905504
 30
0.0
 11
74.9147750737
 21
25.4538282745
 31
0.0
  0
LINE
  5
3A6
330
1F
100
AcDbEntity
  8
0
  6
Continuous
 62
     7
370
    25
100
AcDbLine
 10
73.7147771121
 20
53.422905504
 30
0.0
 11
73.7147771121
 21
57.4635788791
 31
0.0
  0
LINE
  5
3A7
330
1F
100
AcDbEntity
  8
0
  6
Continuous
 62
     7
370
    25
100
AcDbLine
 10
144.1147767307
 20
57.4635788791
 30
0.0
 11
144.1147767307
 21
53.422905504
 31
0.0
  0
ARC
  5
3A8
330
1F
100
AcDbEntity
  8
0
  6
Continuous
 62
     7
370
    25
100
AcDbCircle
 10
85.2147759081
 20
60.2086438194
 30
0.0
 40
2.000000000000007
100
AcDbArc
 50
90.0
 51
167.6654072805
  0
LINE
  5
3A9
330
1F
100
AcDbEntity
  8
0
  6
Continuous
 62
     7
370
    25
100
AcDbLine
 10
85.2147762032
 20
62.208645045
 30
0.0
 11
88.2147766949
 21
62.208645045
 31
0.0
  0
LINE
  5
3AA
330
1F
100
AcDbEntity
  8
0
  6
Continuous
 62
     7
370
    25
100
AcDbLine
 10
88.2147766949
 20
62.208645045
 30
0.0
 11
129.6147752853
 21
62.208645045
 31
0.0
  0
LINE
  5
3AB
330
1F
100
AcDbEntity
  8
0
  6
Continuous
 62
     7
370
    25
100
AcDbLine
 10
129.6147752853
 20
62.208645045
 30
0.0
 11
132.614775777
 21
62.208645045
 31
0.0
  0
ARC
  5
3AC
330
1F
100
AcDbEntity
  8
0
  6
Continuous
 62
     7
370
    25
100
AcDbCircle
 10
132.6147759081
 20
60.2086438194
 30
0.0
 40
2.0
100
AcDbArc
 50
39.7655702587
 51
90.0
  0
ARC
  5
3AD
330
1F
100
AcDbEntity
  8
0
  6
Continuous
 62
     7
370
    25
100
AcDbCircle
 10
136.0253045362
 20
26.3765818418
 30
0.0
 40
0.934905528197864
100
AcDbArc
 50
279.2480141939
 51
342.0642468808
  0
LINE
  5
3AE
330
1F
100
AcDbEntity
  8
0
  6
Continuous
 62
     7
370
    25
100
AcDbLine
 10
136.914775923
 20
52.7605861418
 30
0.0
 11
136.914775923
 21
26.088677346
 31
0.0
  0
ARC
  5
3AF
330
1F
100
AcDbEntity
  8
0
  6
Continuous
 62
     7
370
    25
100
AcDbCircle
 10
136.1326627799
 20
57.8718555908
 30
0.0
 40
3.531709718762626
100
AcDbArc
 50
238.0563531113
 51
258.2718287421
  0
LINE
  5
3B0
330
1F
100
AcDbEntity
  8
0
  6
Continuous
 62
     7
370
    25
100
AcDbLine
 10
134.1235891284
 20
54.9619942896
 30
0.0
 11
134.264088452
 21
54.8749566071
 31
0.0
  0
LINE
  5
3B1
330
1F
100
AcDbEntity
  8
0
  6
Continuous
 62
     7
370
    25
100
AcDbLine
 10
82.5654633643
 20
54.8749566071
 30
0.0
 11
82.7059626879
 21
54.9619942896
 31
0.0
  0
ARC
  5
3B2
330
1F
100
AcDbEntity
  8
0
  6
Continuous
 62
     7
370
    25
100
AcDbCircle
 10
80.6968890364
 20
57.8718555908
 30
0.0
 40
3.531709718762633
100
AcDbArc
 50
281.7281712579
 51
301.9436468887
  0
LINE
  5
3B3
330
1F
100
AcDbEntity
  8
0
  6
Continuous
 62
     7
370
    25
100
AcDbLine
 10
79.9147758932
 20
26.088677346
 30
0.0
 11
79.9147758932
 21
52.7605861418
 31
0.0
  0
ARC
  5
3B4
330
1F
100
AcDbEntity
  8
0
  6
Continuous
 62
     7
370
    25
100
AcDbCircle
 10
80.80424728
 20
26.3765818418
 30
0.0
 40
0.9349055281978723
100
AcDbArc
 50
197.9357531192
 51
260.7519858061
  0
LINE
  5
3B5
330
1F
100
AcDbEntity
  8
0
  6
Continuous
 62
     7
370
    25
100
AcDbLine
 10
75.9147771002
 20
25.4538282745
 30
0.0
 11
75.9147771002
 21
54.3902814381
 31
0.0
  0
LINE
  5
3B6
330
1F
100
AcDbEntity
  8
0
  6
Continuous
 62
     7
370
    25
100
AcDbLine
 10
140.914774716
 20
54.7026246779
 30
0.0
 11
140.914774716
 21
25.4538282745
 31
0.0
  0
LWPOLYLINE
  5
3B7
330
1F
100
AcDbEntity
  8
0
  6
Continuous
 62
     7
370
    25
100
AcDbPolyline
 90
        3
 70
   128
 43
0.0
 10
81.4147752078
 20
53.9918541901
 10
81.5579213501
 20
54.0354251854
 10
81.7373574079
 20
54.0780127041
  0
ARC
  5
3B8
330
1F
100
AcDbEntity
  8
0
  6
Continuous
 62
     7
370
    25
100
AcDbCircle
 10
80.955361129
 20
58.7925167736
 30
0.0
 40
4.778918999274986
100
AcDbArc
 50
279.4179221178
 51
301.6875093924
  0
ARC
  5
3B9
330
1F
100
AcDbEntity
  8
0
  6
Continuous
 62
     7
370
    25
100
AcDbCircle
 10
84.3913585267
 20
53.2375319783
 30
0.0
 40
1.752851556577747
100
AcDbArc
 50
100.3259468928
 51
121.8778035529
  0
ARC
  5
3BA
330
1F
100
AcDbEntity
  8
0
  6
Continuous
 62
     7
370
    25
100
AcDbCircle
 10
132.4381932896
 20
53.2375319783
 30
0.0
 40
1.752851556577766
100
AcDbArc
 50
58.1221964471
 51
79.6740531072
  0
ARC
  5
3BB
330
1F
100
AcDbEntity
  8
0
  6
Continuous
 62
     7
370
    25
100
AcDbCircle
 10
135.8741906873
 20
58.7925167736
 30
0.0
 40
4.778918999275001
100
AcDbArc
 50
238.3124906076
 51
260.5820778822
  0
LWPOLYLINE
  5
3BC
330
1F
100
AcDbEntity
  8
0
  6
Continuous
 62
     7
370
    25
100
AcDbPolyline
 90
        3
 70
   128
 43
0.0
 10
135.0921944083
 20
54.0780127041
 10
135.2716304661
 20
54.0354251854
 10
135.4147766085
 20
53.9918541901
  0
LINE
  5
3BD
330
1F
100
AcDbEntity
  8
0
  6
Continuous
 62
     7
370
    25
100
AcDbLine
 10
135.9147757591
 20
52.970454096
 30
0.0
 11
135.9147757591
 21
26.088677346
 31
0.0
  0
LWPOLYLINE
  5
3BE
330
1F
100
AcDbEntity
  8
0
  6
Continuous
 62
     7
370
    25
100
AcDbPolyline
 90
        9
 70
   128
 43
0.0
 10
135.9147757591
 20
26.088677346
 10
135.9007463159
 20
26.0141342871
 10
135.8588908167
 20
25.940820574
 10
135.789900303
 20
25.8699506514
 10
135.694912851
 20
25.8026868097
 10
135.5754968078
 20
25.7401466362
 10
135.4336209895
 20
25.6833583109
 10
135.2716304661
 20
25.633260607
 10
135.0921944083
 20
25.5906730883
  0
ARC
  5
3BF
330
1F
100
AcDbEntity
  8
0
  6
Continuous
 62
     7
370
    25
100
AcDbCircle
 10
136.6019798534
 20
18.1738533181
 30
0.0
 40
7.568927770424013
100
AcDbArc
 50
101.5060560365
 51
105.8827364476
  0
ARC
  5
3C0
330
1F
100
AcDbEntity
  8
0
  6
Continuous
 62
     7
370
    25
100
AcDbCircle
 10
80.2275719628
 20
18.1738533181
 30
0.0
 40
7.568927770424016
100
AcDbArc
 50
74.1172635524
 51
78.4939439635
  0
LWPOLYLINE
  5
3C1
330
1F
100
AcDbEntity
  8
0
  6
Continuous
 62
     7
370
    25
100
AcDbPolyline
 90
        9
 70
   128
 43
0.0
 10
81.7373574079
 20
25.5906730883
 10
81.5579213501
 20
25.633260607
 10
81.3959308268
 20
25.6833583109
 10
81.2540550084
 20
25.7401466362
 10
81.1346389653
 20
25.8026868097
 10
81.0396515132
 20
25.8699506514
 10
80.9706609996
 20
25.940820574
 10
80.9288055004
 20
26.0141342871
 10
80.9147760571
 20
26.088677346
  0
LINE
  5
3C2
330
1F
100
AcDbEntity
  8
0
  6
Continuous
 62
     7
370
    25
100
AcDbLine
 10
80.9147760571
 20
26.088677346
 30
0.0
 11
80.9147760571
 21
52.970454096
 31
0.0
  0
CIRCLE
  5
3C3
330
1F
100
AcDbEntity
  8
0
  6
Continuous
 62
     7
370
    25
100
AcDbCircle
 10
108.4147759081
 20
37.9538317911
 30
0.0
 40
10.99999999999999
  0
LINE
  5
3C4
330
1F
100
AcDbEntity
  8
0
  6
Continuous
 62
     7
370
    25
100
AcDbLine
 10
82.7147767247
 20
25.4538282745
 30
0.0
 11
82.7147767247
 21
51.2596890323
 31
0.0
  0
LINE
  5
3C5
330
1F
100
AcDbEntity
  8
0
  6
Continuous
 62
     7
370
    25
100
AcDbLine
 10
134.1147750916
 20
51.2596890323
 30
0.0
 11
134.1147750916
 21
25.4538282745
 31
0.0
  0
ARC
  5
3C6
330
1F
100
AcDbEntity
  8
0
  6
Continuous
 62
     7
370
    25
100
AcDbCircle
 10
108.4147759081
 20
-61.0461682089
 30
0.0
 40
83.5
100
AcDbArc
 50
202.9060710686
 51
247.0939289314
  0
LINE
  5
3C7
330
1F
100
AcDbEntity
  8
0
  6
Continuous
 62
     7
370
    25
100
AcDbLine
 10
75.9147771002
 20
-137.96170801
 30
0.0
 11
75.9147771002
 21
-147.5461646922
 31
0.0
  0
LINE
  5
3C8
330
1F
100
AcDbEntity
  8
0
  6
Continuous
 62
     7
370
    25
100
AcDbLine
 10
21.9147794248
 20
-93.5461670168
 30
0.0
 11
21.9147794248
 21
-114.1498386867
 31
0.0
  0
LINE
  5
3C9
330
1F
100
AcDbEntity
  8
0
  6
Continuous
 62
     7
370
    25
100
AcDbLine
 10
21.9147794248
 20
-93.5461670168
 30
0.0
 11
31.499236107
 21
-93.5461670168
 31
0.0
  0
LINE
  5
3CA
330
1F
100
AcDbEntity
  8
0
  6
Continuous
 62
     7
370
    25
100
AcDbLine
 10
55.3111054303
 20
-147.5461646922
 30
0.0
 11
75.9147771002
 21
-147.5461646922
 31
0.0
  0
ARC
  5
3CB
330
1F
100
AcDbEntity
  8
0
  6
Continuous
 62
     7
370
    25
100
AcDbCircle
 10
108.4147759081
 20
-61.0461682089
 30
0.0
 40
101.5
100
AcDbArc
 50
211.5463999537
 51
238.4536000463
  0
LINE
  5
3CC
330
1F
100
AcDbEntity
  8
0
  6
Continuous
 62
     7
370
    25
100
AcDbLine
 10
194.9147723915
 20
-114.1498386867
 30
0.0
 11
194.9147723915
 21
-93.5461670168
 31
0.0
  0
ARC
  5
3CD
330
1F
100
AcDbEntity
  8
0
  6
Continuous
 62
     7
370
    25
100
AcDbCircle
 10
108.4147759081
 20
-61.0461682089
 30
0.0
 40
101.5
100
AcDbArc
 50
301.5463999537
 51
328.4536000463
  0
LINE
  5
3CE
330
1F
100
AcDbEntity
  8
0
  6
Continuous
 62
     7
370
    25
100
AcDbLine
 10
185.3303157093
 20
-93.5461670168
 30
0.0
 11
194.9147723915
 21
-93.5461670168
 31
0.0
  0
CIRCLE
  5
3CF
330
1F
100
AcDbEntity
  8
0
  6
Continuous
 62
     7
370
    25
100
AcDbCircle
 10
172.0543862149
 20
-124.6857785157
 30
0.0
 40
5.0
  0
LINE
  5
3D0
330
1F
100
AcDbEntity
  8
0
  6
Continuous
 62
     7
370
    25
100
AcDbLine
 10
140.914774716
 20
-147.5461646922
 30
0.0
 11
140.914774716
 21
-137.96170801
 31
0.0
  0
ARC
  5
3D1
330
1F
100
AcDbEntity
  8
0
  6
Continuous
 62
     7
370
    25
100
AcDbCircle
 10
108.4147759081
 20
-61.0461682089
 30
0.0
 40
83.50000000000001
100
AcDbArc
 50
292.9060710686
 51
337.0939289314
  0
LINE
  5
3D2
330
1F
100
AcDbEntity
  8
0
  6
Continuous
 62
     7
370
    25
100
AcDbLine
 10
140.914774716
 20
-147.5461646922
 30
0.0
 11
161.518446386
 21
-147.5461646922
 31
0.0
  0
LINE
  5
3D3
330
1F
100
AcDbEntity
  8
0
  6
Continuous
 62
     7
370
    25
100
AcDbLine
 10
31.499236107
 20
-28.546169401
 30
0.0
 11
21.9147794248
 21
-28.546169401
 31
0.0
  0
ARC
  5
3D4
330
1F
100
AcDbEntity
  8
0
  6
Continuous
 62
     7
370
    25
100
AcDbCircle
 10
108.4147759081
 20
-61.0461682089
 30
0.0
 40
101.5
100
AcDbArc
 50
121.5463999537
 51
148.4536000463
  0
LINE
  5
3D5
330
1F
100
AcDbEntity
  8
0
  6
Continuous
 62
     7
370
    25
100
AcDbLine
 10
75.9147771002
 20
25.4538282745
 30
0.0
 11
55.3111054303
 21
25.4538282745
 31
0.0
  0
LINE
  5
3D6
330
1F
100
AcDbEntity
  8
0
  6
Continuous
 62
     7
370
    25
100
AcDbLine
 10
75.9147771002
 20
25.4538282745
 30
0.0
 11
75.9147771002
 21
15.8693715922
 31
0.0
  0
CIRCLE
  5
3D7
330
1F
100
AcDbEntity
  8
0
  6
Continuous
 62
     7
370
    25
100
AcDbCircle
 10
44.7751656013
 20
2.5934420979
 30
0.0
 40
4.999999999999993
  0
LINE
  5
3D8
330
1F
100
AcDbEntity
  8
0
  6
Continuous
 62
     7
370
    25
100
AcDbLine
 10
21.9147794248
 20
-7.942497731
 30
0.0
 11
21.9147794248
 21
-28.546169401
 31
0.0
  0
ARC
  5
3D9
330
1F
100
AcDbEntity
  8
0
  6
Continuous
 62
     7
370
    25
100
AcDbCircle
 10
108.4147759081
 20
-61.0461682089
 30
0.0
 40
83.50000000000001
100
AcDbArc
 50
112.9060710686
 51
157.0939289314
  0
LINE
  5
3DA
330
1F
100
AcDbEntity
  8
0
  6
Continuous
 62
     7
370
    25
100
AcDbLine
 10
140.914774716
 20
15.8693715922
 30
0.0
 11
140.914774716
 21
25.4538282745
 31
0.0
  0
LINE
  5
3DB
330
1F
100
AcDbEntity
  8
0
  6
Continuous
 62
     7
370
    25
100
AcDbLine
 10
161.518446386
 20
25.4538282745
 30
0.0
 11
140.914774716
 21
25.4538282745
 31
0.0
  0
ARC
  5
3DC
330
1F
100
AcDbEntity
  8
0
  6
Continuous
 62
     7
370
    25
100
AcDbCircle
 10
108.4147759081
 20
-61.0461682089
 30
0.0
 40
101.5
100
AcDbArc
 50
31.5463999537
 51
58.4536000463
  0
LINE
  5
3DD
330
1F
100
AcDbEntity
  8
0
  6
Continuous
 62
     7
370
    25
100
AcDbLine
 10
194.9147723915
 20
-28.546169401
 30
0.0
 11
185.3303157093
 21
-28.546169401
 31
0.0
  0
LINE
  5
3DE
330
1F
100
AcDbEntity
  8
0
  6
Continuous
 62
     7
370
    25
100
AcDbLine
 10
194.9147723915
 20
-28.546169401
 30
0.0
 11
194.9147723915
 21
-7.942497731
 31
0.0
  0
ARC
  5
3DF
330
1F
100
AcDbEntity
  8
0
  6
Continuous
 62
     7
370
    25
100
AcDbCircle
 10
108.4147759081
 20
-61.0461682089
 30
0.0
 40
83.50000000000001
100
AcDbArc
 50
22.9060710686
 51
67.0939289314
  0
ARC
  5
3E0
330
1F
100
AcDbEntity
  8
0
  6
Continuous
 62
     7
370
    25
100
AcDbCircle
 10
108.4147759081
 20
-61.0461682089
 30
0.0
 40
83.5
100
AcDbArc
 50
247.0939289314
 51
292.9060710686
  0
LINE
  5
3E1
330
1F
100
AcDbEntity
  8
0
  6
Continuous
 62
     7
370
    25
100
AcDbLine
 10
75.9147771002
 20
-147.5461646922
 30
0.0
 11
140.914774716
 21
-147.5461646922
 31
0.0
  0
LINE
  5
3E2
330
1F
100
AcDbEntity
  8
0
  6
Continuous
 62
     7
370
    25
100
AcDbLine
 10
21.9147794248
 20
-28.546169401
 30
0.0
 11
21.9147794248
 21
-93.5461670168
 31
0.0
  0
ARC
  5
3E3
330
1F
100
AcDbEntity
  8
0
  6
Continuous
 62
     7
370
    25
100
AcDbCircle
 10
108.4147759081
 20
-61.0461682089
 30
0.0
 40
83.5
100
AcDbArc
 50
157.0939289314
 51
202.9060710686
  0
LINE
  5
3E4
330
1F
100
AcDbEntity
  8
0
  6
Continuous
 62
     7
370
    25
100
AcDbLine
 10
194.9147723915
 20
-93.5461670168
 30
0.0
 11
194.9147723915
 21
-28.546169401
 31
0.0
  0
ARC
  5
3E5
330
1F
100
AcDbEntity
  8
0
  6
Continuous
 62
     7
370
    25
100
AcDbCircle
 10
108.4147759081
 20
-61.0461682089
 30
0.0
 40
83.50000000000001
100
AcDbArc
 50
337.0939289314
 51
22.9060710686
  0
LINE
  5
3E6
330
1F
100
AcDbEntity
  8
0
  6
Continuous
 62
     7
370
    25
100
AcDbLine
 10
140.914774716
 20
25.4538282745
 30
0.0
 11
75.9147771002
 21
25.4538282745
 31
0.0
  0
ARC
  5
3E7
330
1F
100
AcDbEntity
  8
0
  6
Continuous
 62
     7
370
    25
100
AcDbCircle
 10
108.4147759081
 20
-61.0461682089
 30
0.0
 40
83.50000000000001
100
AcDbArc
 50
67.0939289314
 51
112.9060710686
  0
ARC
  5
3E8
330
1F
100
AcDbEntity
  8
0
  6
Continuous
 62
     7
370
    25
100
AcDbCircle
 10
20.4147759081
 20
-84.0461682089
 30
0.0
 40
2.0
100
AcDbArc
 50
180.0
 51
269.9999999994
  0
LINE
  5
3E9
330
1F
100
AcDbEntity
  8
0
  6
Continuous
 62
     7
370
    25
100
AcDbLine
 10
18.4147723319
 20
-84.0461682536
 30
0.0
 11
18.4147723319
 21
-38.0461681642
 31
0.0
  0
ARC
  5
3EA
330
1F
100
AcDbEntity
  8
0
  6
Continuous
 62
     7
370
    25
100
AcDbCircle
 10
20.4147759081
 20
-38.0461682089
 30
0.0
 40
2.0
100
AcDbArc
 50
90.0000000006
 51
180.0
  0
LINE
  5
3EB
330
1F
100
AcDbEntity
  8
0
  6
Continuous
 62
     7
370
    25
100
AcDbLine
 10
21.9147794248
 20
-36.0461678363
 30
0.0
 11
20.414776385
 21
-36.0461678363
 31
0.0
  0
LINE
  5
3EC
330
1F
100
AcDbEntity
  8
0
  6
Continuous
 62
     7
370
    25
100
AcDbLine
 10
21.9147794248
 20
-86.0461685814
 30
0.0
 11
20.414776385
 21
-86.0461685814
 31
0.0
  0
LINE
  5
3ED
330
1F
100
AcDbEntity
  8
0
  6
Continuous
 62
     7
370
    25
100
AcDbLine
 10
194.9147723915
 20
-36.0461678363
 30
0.0
 11
196.4147754313
 21
-36.0461678363
 31
0.0
  0
ARC
  5
3EE
330
1F
100
AcDbEntity
  8
0
  6
Continuous
 62
     7
370
    25
100
AcDbCircle
 10
196.4147759082
 20
-38.0461682089
 30
0.0
 40
2.0
100
AcDbArc
 50
0.0
 51
90.0
  0
LINE
  5
3EF
330
1F
100
AcDbEntity
  8
0
  6
Continuous
 62
     7
370
    25
100
AcDbLine
 10
198.4147794844
 20
-84.0461682536
 30
0.0
 11
198.4147794844
 21
-38.0461681642
 31
0.0
  0
LINE
  5
3F0
330
1F
100
AcDbEntity
  8
0
  6
Continuous
 62
     7
370
    25
100
AcDbLine
 10
194.9147723915
 20
-86.0461685814
 30
0.0
 11
196.4147754313
 21
-86.0461685814
 31
0.0
  0
ARC
  5
3F1
330
1F
100
AcDbEntity
  8
0
  6
Continuous
 62
     7
370
    25
100
AcDbCircle
 10
196.4147759082
 20
-84.0461682089
 30
0.0
 40
2.0
100
AcDbArc
 50
270.0
 51
0.0
  0
INSERT
  5
43D
330
1F
100
AcDbEntity
  8
0
  6
Continuous
 62
     7
370
    18
100
AcDbBlockReference
  2
SW_CENTERMARKSYMBOL_0
 10
52.5926032963
 20
-20.4889858007
 30
0.0
  0
ENDSEC
  0
SECTION
  2
OBJECTS
  0
DICTIONARY
  5
C
330
0
100
AcDbDictionary
281
     1
  3
ACAD_GROUP
350
D
  3
ACAD_LAYOUT
350
1A
  3
ACAD_MLINESTYLE
350
17
  3
ACAD_PLOTSETTINGS
350
19
  3
ACAD_PLOTSTYLENAME
350
E
  3
ACAD_SCALELIST
350
47
  0
DICTIONARY
  5
D
102
{ACAD_REACTORS
330
C
102
}
330
C
100
AcDbDictionary
281
     1
  0
DICTIONARY
  5
1A
102
{ACAD_REACTORS
330
C
102
}
330
C
100
AcDbDictionary
281
     1
  3
Layout1
350
1E
  3
Layout2
350
26
  3
Model
350
22
  0
DICTIONARY
  5
17
102
{ACAD_REACTORS
330
C
102
}
330
C
100
AcDbDictionary
281
     1
  3
Standard
350
18
  0
DICTIONARY
  5
19
102
{ACAD_REACTORS
330
C
102
}
330
C
100
AcDbDictionary
281
     1
  0
ACDBDICTIONARYWDFLT
  5
E
102
{ACAD_REACTORS
330
C
102
}
330
C
100
AcDbDictionary
281
     1
  3
Normal
350
F
100
AcDbDictionaryWithDefault
340
F
  0
DICTIONARY
  5
47
102
{ACAD_REACTORS
330
C
102
}
330
C
100
AcDbDictionary
281
     1
  3
A0
350
48
  3
A1
350
49
  3
A2
350
4A
  3
A3
350
4B
  3
A4
350
4C
  3
A5
350
4D
  3
A6
350
4E
  3
A7
350
4F
  3
A8
350
50
  3
A9
350
51
  3
B0
350
52
  3
B1
350
53
  3
B2
350
54
  3
B3
350
55
  3
B4
350
56
  3
B5
350
57
  3
B6
350
58
  3
B7
350
59
  3
B8
350
5A
  3
B9
350
5B
  3
C0
350
5C
  3
C1
350
5D
  3
C2
350
5E
  3
C3
350
5F
  3
C4
350
60
  3
C5
350
61
  3
C6
350
62
  3
C7
350
63
  3
C8
350
64
  3
C9
350
65
  3
D0
350
66
  3
D1
350
67
  3
D2
350
68
  0
LAYOUT
  5
1E
102
{ACAD_REACTORS
330
1A
102
}
330
1A
100
AcDbPlotSettings
  1

  2
none_device
  4

  6

 40
0.0
 41
0.0
 42
0.0
 43
0.0
 44
0.0
 45
0.0
 46
0.0
 47
0.0
 48
0.0
 49
0.0
140
0.0
141
0.0
142
1.0
143
1.0
 70
   688
 72
     1
 73
     0
 74
     5
  7

 75
    16
147
1.0
148
0.0
149
0.0
100
AcDbLayout
  1
Layout1
 70
     1
 71
     1
 10
0.0
 20
0.0
 11
420.0
 21
297.0
 12
0.0
 22
0.0
 32
0.0
 14
1.0000000000E+20
 24
1.0000000000E+20
 34
1.0000000000E+20
 15
-1.0000000000E+20
 25
-1.0000000000E+20
 35
-1.0000000000E+20
146
0.0
 13
0.0
 23
0.0
 33
0.0
 16
1.0
 26
0.0
 36
0.0
 17
0.0
 27
1.0
 37
0.0
 76
     0
330
1B
  0
LAYOUT
  5
26
102
{ACAD_REACTORS
330
1A
102
}
330
1A
100
AcDbPlotSettings
  1

  2
none_device
  4

  6

 40
0.0
 41
0.0
 42
0.0
 43
0.0
 44
0.0
 45
0.0
 46
0.0
 47
0.0
 48
0.0
 49
0.0
140
0.0
141
0.0
142
1.0
143
1.0
 70
   688
 72
     1
 73
     0
 74
     5
  7

 75
    16
147
1.0
148
0.0
149
0.0
100
AcDbLayout
  1
Layout2
 70
     1
 71
     2
 10
0.0
 20
0.0
 11
0.0
 21
0.0
 12
0.0
 22
0.0
 32
0.0
 14
0.0
 24
0.0
 34
0.0
 15
0.0
 25
0.0
 35
0.0
146
0.0
 13
0.0
 23
0.0
 33
0.0
 16
1.0
 26
0.0
 36
0.0
 17
0.0
 27
1.0
 37
0.0
 76
     0
330
23
  0
LAYOUT
  5
22
102
{ACAD_REACTORS
330
1A
102
}
330
1A
100
AcDbPlotSettings
  1

  2
none_device
  4
Letter_(8.50_x_11.00_Inches)
  6

 40
6.35
 41
6.35
 42
6.35000508
 43
6.35000508
 44
215.9
 45
279.4
 46
0.0
 47
0.0
 48
0.0
 49
0.0
140
0.0
141
0.0
142
1.0
143
1.0
 70
  1712
 72
     1
 73
     0
 74
     0
  7

 75
     0
147
1.0
148
0.0
149
0.0
100
AcDbLayout
  1
Model
 70
     1
 71
     0
 10
0.0
 20
0.0
 11
210.0
 21
297.0
 12
0.0
 22
0.0
 32
0.0
 14
0.0
 24
0.0
 34
0.0
 15
210.0
 25
297.0
 35
0.0
146
0.0
 13
0.0
 23
0.0
 33
0.0
 16
1.0
 26
0.0
 36
0.0
 17
0.0
 27
1.0
 37
0.0
 76
     0
330
1F
331
29
  0
MLINESTYLE
  5
18
102
{ACAD_REACTORS
330
17
102
}
330
17
100
AcDbMlineStyle
  2
Standard
 70
     0
  3

 62
   256
 51
90.0
 52
90.0
 71
     2
 49
0.5
 62
   256
  6
BYLAYER
 49
-0.5
 62
   256
  6
BYLAYER
  0
ACDBPLACEHOLDER
  5
F
102
{ACAD_REACTORS
330
E
102
}
330
E
  0
SCALE
  5
48
102
{ACAD_REACTORS
330
47
102
}
330
47
100
AcDbScale
 70
     0
300
1:1
140
1.0
141
1.0
290
     1
  0
SCALE
  5
49
102
{ACAD_REACTORS
330
47
102
}
330
47
100
AcDbScale
 70
     0
300
1:2
140
1.0
141
2.0
290
     0
  0
SCALE
  5
4A
102
{ACAD_REACTORS
330
47
102
}
330
47
100
AcDbScale
 70
     0
300
1:4
140
1.0
141
4.0
290
     0
  0
SCALE
  5
4B
102
{ACAD_REACTORS
330
47
102
}
330
47
100
AcDbScale
 70
     0
300
1:5
140
1.0
141
5.0
290
     0
  0
SCALE
  5
4C
102
{ACAD_REACTORS
330
47
102
}
330
47
100
AcDbScale
 70
     0
300
1:8
140
1.0
141
8.0
290
     0
  0
SCALE
  5
4D
102
{ACAD_REACTORS
330
47
102
}
330
47
100
AcDbScale
 70
     0
300
1:10
140
1.0
141
10.0
290
     0
  0
SCALE
  5
4E
102
{ACAD_REACTORS
330
47
102
}
330
47
100
AcDbScale
 70
     0
300
1:16
140
1.0
141
16.0
290
     0
  0
SCALE
  5
4F
102
{ACAD_REACTORS
330
47
102
}
330
47
100
AcDbScale
 70
     0
300
1:20
140
1.0
141
20.0
290
     0
  0
SCALE
  5
50
102
{ACAD_REACTORS
330
47
102
}
330
47
100
AcDbScale
 70
     0
300
1:30
140
1.0
141
30.0
290
     0
  0
SCALE
  5
51
102
{ACAD_REACTORS
330
47
102
}
330
47
100
AcDbScale
 70
     0
300
1:40
140
1.0
141
40.0
290
     0
  0
SCALE
  5
52
102
{ACAD_REACTORS
330
47
102
}
330
47
100
AcDbScale
 70
     0
300
1:50
140
1.0
141
50.0
290
     0
  0
SCALE
  5
53
102
{ACAD_REACTORS
330
47
102
}
330
47
100
AcDbScale
 70
     0
300
1:100
140
1.0
141
100.0
290
     0
  0
SCALE
  5
54
102
{ACAD_REACTORS
330
47
102
}
330
47
100
AcDbScale
 70
     0
300
2:1
140
2.0
141
1.0
290
     0
  0
SCALE
  5
55
102
{ACAD_REACTORS
330
47
102
}
330
47
100
AcDbScale
 70
     0
300
4:1
140
4.0
141
1.0
290
     0
  0
SCALE
  5
56
102
{ACAD_REACTORS
330
47
102
}
330
47
100
AcDbScale
 70
     0
300
8:1
140
8.0
141
1.0
290
     0
  0
SCALE
  5
57
102
{ACAD_REACTORS
330
47
102
}
330
47
100
AcDbScale
 70
     0
300
10:1
140
10.0
141
1.0
290
     0
  0
SCALE
  5
58
102
{ACAD_REACTORS
330
47
102
}
330
47
100
AcDbScale
 70
     0
300
100:1
140
100.0
141
1.0
290
     0
  0
SCALE
  5
59
102
{ACAD_REACTORS
330
47
102
}
330
47
100
AcDbScale
 70
     0
300
1/128" = 1'-0"
140
0.0078125
141
12.0
290
     0
  0
SCALE
  5
5A
102
{ACAD_REACTORS
330
47
102
}
330
47
100
AcDbScale
 70
     0
300
1/64" = 1'-0"
140
0.015625
141
12.0
290
     0
  0
SCALE
  5
5B
102
{ACAD_REACTORS
330
47
102
}
330
47
100
AcDbScale
 70
     0
300
1/32" = 1'-0"
140
0.03125
141
12.0
290
     0
  0
SCALE
  5
5C
102
{ACAD_REACTORS
330
47
102
}
330
47
100
AcDbScale
 70
     0
300
1/16" = 1'-0"
140
0.0625
141
12.0
290
     0
  0
SCALE
  5
5D
102
{ACAD_REACTORS
330
47
102
}
330
47
100
AcDbScale
 70
     0
300
3/32" = 1'-0"
140
0.09375
141
12.0
290
     0
  0
SCALE
  5
5E
102
{ACAD_REACTORS
330
47
102
}
330
47
100
AcDbScale
 70
     0
300
1/8" = 1'-0"
140
0.125
141
12.0
290
     0
  0
SCALE
  5
5F
102
{ACAD_REACTORS
330
47
102
}
330
47
100
AcDbScale
 70
     0
300
3/16" = 1'-0"
140
0.1875
141
12.0
290
     0
  0
SCALE
  5
60
102
{ACAD_REACTORS
330
47
102
}
330
47
100
AcDbScale
 70
     0
300
1/4" = 1'-0"
140
0.25
141
12.0
290
     0
  0
SCALE
  5
61
102
{ACAD_REACTORS
330
47
102
}
330
47
100
AcDbScale
 70
     0
300
3/8" = 1'-0"
140
0.375
141
12.0
290
     0
  0
SCALE
  5
62
102
{ACAD_REACTORS
330
47
102
}
330
47
100
AcDbScale
 70
     0
300
1/2" = 1'-0"
140
0.5
141
12.0
290
     0
  0
SCALE
  5
63
102
{ACAD_REACTORS
330
47
102
}
330
47
100
AcDbScale
 70
     0
300
3/4" = 1'-0"
140
0.75
141
12.0
290
     0
  0
SCALE
  5
64
102
{ACAD_REACTORS
330
47
102
}
330
47
100
AcDbScale
 70
     0
300
1" = 1'-0"
140
1.0
141
12.0
290
     0
  0
SCALE
  5
65
102
{ACAD_REACTORS
330
47
102
}
330
47
100
AcDbScale
 70
     0
300
1-1/2" = 1'-0"
140
1.5
141
12.0
290
     0
  0
SCALE
  5
66
102
{ACAD_REACTORS
330
47
102
}
330
47
100
AcDbScale
 70
     0
300
3" = 1'-0"
140
3.0
141
12.0
290
     0
  0
SCALE
  5
67
102
{ACAD_REACTORS
330
47
102
}
330
47
100
AcDbScale
 70
     0
300
6" = 1'-0"
140
6.0
141
12.0
290
     0
  0
SCALE
  5
68
102
{ACAD_REACTORS
330
47
102
}
330
47
100
AcDbScale
 70
     0
300
1'-0" = 1'-0"
140
12.0
141
12.0
290
     0
  0
ENDSEC
  0
EOF
