  0
SECTION
  2
HEADER
  9
$ACADVER
  1
AC1018
  9
$ACADMAINTVER
 70
    39
  9
$DWGCODEPAGE
  3
ANSI_932
  9
$LASTSAVEDBY
  1
fottrem
  9
$INSBASE
 10
0.0
 20
0.0
 30
0.0
  9
$EXTMIN
 10
-28.16845032202355
 20
-77.300608163016
 30
0.0
  9
$EXTMAX
 10
25.79924785496155
 20
59.00593448781871
 30
0.0
  9
$LIMMIN
 10
0.0
 20
0.0
  9
$LIMMAX
 10
12.0
 20
9.0
  9
$ORTHOMODE
 70
     0
  9
$REGENMODE
 70
     1
  9
$FILLMODE
 70
     1
  9
$QTEXTMODE
 70
     0
  9
$MIRRTEXT
 70
     1
  9
$LTSCALE
 40
1.0
  9
$ATTMODE
 70
     1
  9
$TEXTSIZE
 40
2.799999952316284
  9
$TRACEWID
 40
0.05
  9
$TEXTSTYLE
  7
STANDARD1
  9
$CLAYER
  8
0
  9
$CELTYPE
  6
ByBlock
  9
$CECOLOR
 62
   256
  9
$CELTSCALE
 40
1.0
  9
$DISPSILH
 70
     0
  9
$DIMSCALE
 40
1.0
  9
$DIMASZ
 40
1.931851648807023
  9
$DIMEXO
 40
1.0
  9
$DIMDLI
 40
0.38
  9
$DIMRND
 40
0.0
  9
$DIMDLE
 40
0.0
  9
$DIMEXE
 40
2.0
  9
$DIMTP
 40
0.0
  9
$DIMTM
 40
0.0
  9
$DIMTXT
 40
3.200000047683716
  9
$DIMCEN
 40
0.09
  9
$DIMTSZ
 40
0.0
  9
$DIMTOL
 70
     0
  9
$DIMLIM
 70
     0
  9
$DIMTIH
 70
     1
  9
$DIMTOH
 70
     1
  9
$DIMSE1
 70
     0
  9
$DIMSE2
 70
     0
  9
$DIMTAD
 70
     1
  9
$DIMZIN
 70
     0
  9
$DIMBLK
  1

  9
$DIMASO
 70
     1
  9
$DIMSHO
 70
     1
  9
$DIMPOST
  1

  9
$DIMAPOST
  1

  9
$DIMALT
 70
     0
  9
$DIMALTD
 70
     2
  9
$DIMALTF
 40
25.4
  9
$DIMLFAC
 40
1.0
  9
$DIMTOFL
 70
     0
  9
$DIMTVP
 40
0.0
  9
$DIMTIX
 70
     0
  9
$DIMSOXD
 70
     0
  9
$DIMSAH
 70
     0
  9
$DIMBLK1
  1

  9
$DIMBLK2
  1

  9
$DIMSTYLE
  2
Standard
  9
$DIMCLRD
 70
     0
  9
$DIMCLRE
 70
     0
  9
$DIMCLRT
 70
     0
  9
$DIMTFAC
 40
0.714285731315613
  9
$DIMGAP
 40
0.09
  9
$DIMJUST
 70
     0
  9
$DIMSD1
 70
     0
  9
$DIMSD2
 70
     0
  9
$DIMTOLJ
 70
     1
  9
$DIMTZIN
 70
     0
  9
$DIMALTZ
 70
     0
  9
$DIMALTTZ
 70
     0
  9
$DIMUPT
 70
     0
  9
$DIMDEC
 70
     4
  9
$DIMTDEC
 70
     4
  9
$DIMALTU
 70
     2
  9
$DIMALTTD
 70
     2
  9
$DIMTXSTY
  7
Standard
  9
$DIMAUNIT
 70
     0
  9
$DIMADEC
 70
     0
  9
$DIMALTRND
 40
0.0
  9
$DIMAZIN
 70
     0
  9
$DIMDSEP
 70
    46
  9
$DIMATFIT
 70
     3
  9
$DIMFRAC
 70
     0
  9
$DIMLDRBLK
  1

  9
$DIMLUNIT
 70
     2
  9
$DIMLWD
 70
    -2
  9
$DIMLWE
 70
    -2
  9
$DIMTMOVE
 70
     0
  9
$LUNITS
 70
     2
  9
$LUPREC
 70
     3
  9
$SKETCHINC
 40
0.1
  9
$FILLETRAD
 40
0.5
  9
$AUNITS
 70
     0
  9
$AUPREC
 70
     0
  9
$MENU
  1
.
  9
$ELEVATION
 40
0.0
  9
$PELEVATION
 40
0.0
  9
$THICKNESS
 40
0.0
  9
$LIMCHECK
 70
     0
  9
$CHAMFERA
 40
0.5
  9
$CHAMFERB
 40
0.5
  9
$CHAMFERC
 40
1.0
  9
$CHAMFERD
 40
0.0
  9
$SKPOLY
 70
     0
  9
$TDCREATE
 40
2453354.092125822
  9
$TDUCREATE
 40
2453353.717125822
  9
$TDUPDATE
 40
2456118.57975985
  9
$TDUUPDATE
 40
2456118.20475985
  9
$TDINDWG
 40
0.0425000116
  9
$TDUSRTIMER
 40
0.0425000116
  9
$USRTIMER
 70
     1
  9
$ANGBASE
 50
0.0
  9
$ANGDIR
 70
     0
  9
$PDMODE
 70
     0
  9
$PDSIZE
 40
0.0
  9
$PLINEWID
 40
0.0
  9
$SPLFRAME
 70
     0
  9
$SPLINETYPE
 70
     6
  9
$SPLINESEGS
 70
     8
  9
$HANDSEED
  5
164
  9
$SURFTAB1
 70
     6
  9
$SURFTAB2
 70
     6
  9
$SURFTYPE
 70
     6
  9
$SURFU
 70
     6
  9
$SURFV
 70
     6
  9
$UCSBASE
  2

  9
$UCSNAME
  2

  9
$UCSORG
 10
0.0
 20
0.0
 30
0.0
  9
$UCSXDIR
 10
1.0
 20
0.0
 30
0.0
  9
$UCSYDIR
 10
0.0
 20
1.0
 30
0.0
  9
$UCSORTHOREF
  2

  9
$UCSORTHOVIEW
 70
     0
  9
$UCSORGTOP
 10
0.0
 20
0.0
 30
0.0
  9
$UCSORGBOTTOM
 10
0.0
 20
0.0
 30
0.0
  9
$UCSORGLEFT
 10
0.0
 20
0.0
 30
0.0
  9
$UCSORGRIGHT
 10
0.0
 20
0.0
 30
0.0
  9
$UCSORGFRONT
 10
0.0
 20
0.0
 30
0.0
  9
$UCSORGBACK
 10
0.0
 20
0.0
 30
0.0
  9
$PUCSBASE
  2

  9
$PUCSNAME
  2

  9
$PUCSORG
 10
0.0
 20
0.0
 30
0.0
  9
$PUCSXDIR
 10
1.0
 20
0.0
 30
0.0
  9
$PUCSYDIR
 10
0.0
 20
1.0
 30
0.0
  9
$PUCSORTHOREF
  2

  9
$PUCSORTHOVIEW
 70
     0
  9
$PUCSORGTOP
 10
0.0
 20
0.0
 30
0.0
  9
$PUCSORGBOTTOM
 10
0.0
 20
0.0
 30
0.0
  9
$PUCSORGLEFT
 10
0.0
 20
0.0
 30
0.0
  9
$PUCSORGRIGHT
 10
0.0
 20
0.0
 30
0.0
  9
$PUCSORGFRONT
 10
0.0
 20
0.0
 30
0.0
  9
$PUCSORGBACK
 10
0.0
 20
0.0
 30
0.0
  9
$USERI1
 70
     0
  9
$USERI2
 70
     0
  9
$USERI3
 70
     0
  9
$USERI4
 70
     0
  9
$USERI5
 70
     0
  9
$USERR1
 40
0.0
  9
$USERR2
 40
0.0
  9
$USERR3
 40
0.0
  9
$USERR4
 40
0.0
  9
$USERR5
 40
0.0
  9
$WORLDVIEW
 70
     1
  9
$SHADEDGE
 70
     3
  9
$SHADEDIF
 70
    70
  9
$TILEMODE
 70
     1
  9
$MAXACTVP
 70
    64
  9
$PINSBASE
 10
0.0
 20
0.0
 30
0.0
  9
$PLIMCHECK
 70
     0
  9
$PEXTMIN
 10
1.000000000000000E+20
 20
1.000000000000000E+20
 30
1.000000000000000E+20
  9
$PEXTMAX
 10
-1.000000000000000E+20
 20
-1.000000000000000E+20
 30
-1.000000000000000E+20
  9
$PLIMMIN
 10
0.0
 20
0.0
  9
$PLIMMAX
 10
12.0
 20
9.0
  9
$UNITMODE
 70
     0
  9
$VISRETAIN
 70
     1
  9
$PLINEGEN
 70
     0
  9
$PSLTSCALE
 70
     1
  9
$TREEDEPTH
 70
  3020
  9
$CMLSTYLE
  2
Standard
  9
$CMLJUST
 70
     0
  9
$CMLSCALE
 40
1.0
  9
$PROXYGRAPHICS
 70
     1
  9
$MEASUREMENT
 70
     0
  9
$CELWEIGHT
370
    -1
  9
$ENDCAPS
280
     0
  9
$JOINSTYLE
280
     0
  9
$LWDISPLAY
290
     0
  9
$INSUNITS
 70
     0
  9
$HYPERLINKBASE
  1

  9
$STYLESHEET
  1

  9
$XEDIT
290
     0
  9
$CEPSNTYPE
380
     0
  9
$PSTYLEMODE
290
     1
  9
$FINGERPRINTGUID
  2
{E3775572-4F75-4443-A332-2A2DEAC491DC}
  9
$VERSIONGUID
  2
{FAEB1C32-E019-11D5-929B-00C0DF256EC4}
  9
$EXTNAMES
290
     1
  9
$PSVPSCALE
 40
0.0
  9
$OLESTARTUP
290
     0
  9
$SORTENTS
280
   127
  9
$INDEXCTL
280
     0
  9
$HIDETEXT
280
     1
  9
$XCLIPFRAME
290
     0
  9
$HALOGAP
280
     0
  9
$OBSCOLOR
 70
   257
  9
$OBSLTYPE
280
     0
  9
$INTERSECTIONDISPLAY
280
     0
  9
$INTERSECTIONCOLOR
 70
   257
  9
$DIMASSOC
280
     2
  9
$PROJECTNAME
  1

  0
ENDSEC
  0
SECTION
  2
CLASSES
  0
CLASS
  1
ACDBDICTIONARYWDFLT
  2
AcDbDictionaryWithDefault
  3
ObjectDBX Classes
 90
        0
 91
        3
280
     0
281
     0
  0
CLASS
  1
ACDBPLACEHOLDER
  2
AcDbPlaceHolder
  3
ObjectDBX Classes
 90
        0
 91
        1
280
     0
281
     0
  0
CLASS
  1
LAYOUT
  2
AcDbLayout
  3
ObjectDBX Classes
 90
        0
 91
        1
280
     0
281
     0
  0
CLASS
  1
DICTIONARYVAR
  2
AcDbDictionaryVar
  3
ObjectDBX Classes
 90
        0
 91
        3
280
     0
281
     0
  0
CLASS
  1
TABLESTYLE
  2
AcDbTableStyle
  3
ObjectDBX Classes
 90
     2047
 91
        3
280
     0
281
     0
  0
ENDSEC
  0
SECTION
  2
TABLES
  0
TABLE
  2
VPORT
  5
8
330
0
100
AcDbSymbolTable
 70
     2
  0
VPORT
  5
97
330
8
100
AcDbSymbolTableRecord
100
AcDbViewportTableRecord
  2
*Active
 70
     0
 10
0.0
 20
0.0
 11
1.0
 21
1.0
 12
-1.184601233530998
 22
-9.147336837598644
 13
0.0
 23
0.0
 14
0.5
 24
0.5
 15
0.5
 25
0.5
 16
0.0
 26
0.0
 36
1.0
 17
0.0
 27
0.0
 37
0.0
 40
139.0326735038514
 41
1.972972972850329
 42
50.0
 43
0.0
 44
0.0
 50
0.0
 51
0.0
 71
    16
 72
   100
 73
     1
 74
     1
 75
     0
 76
     0
 77
     0
 78
     0
281
     0
 65
     0
110
0.0
120
0.0
130
0.0
111
1.0
121
0.0
131
0.0
112
0.0
122
1.0
132
0.0
 79
     0
146
0.0
  0
ENDTAB
  0
TABLE
  2
LTYPE
  5
5
330
0
100
AcDbSymbolTable
 70
     4
  0
LTYPE
  5
14
330
5
100
AcDbSymbolTableRecord
100
AcDbLinetypeTableRecord
  2
ByBlock
 70
     0
  3

 72
    65
 73
     0
 40
0.0
  0
LTYPE
  5
15
330
5
100
AcDbSymbolTableRecord
100
AcDbLinetypeTableRecord
  2
ByLayer
 70
     0
  3

 72
    65
 73
     0
 40
0.0
  0
LTYPE
  5
16
330
5
100
AcDbSymbolTableRecord
100
AcDbLinetypeTableRecord
  2
Continuous
 70
     0
  3
Solid line
 72
    65
 73
     0
 40
0.0
  0
LTYPE
  5
15D
330
5
100
AcDbSymbolTableRecord
100
AcDbLinetypeTableRecord
  2
DASHED
 70
     0
  3
-- -- -- -- -- -- -- -- -- -- -- -- -- -- --
 72
    65
 73
     2
 40
0.75
 49
0.5
 74
     4
 75
     0
340
0
 46
1.0
 50
0.0
 44
0.0
 45
0.0
 49
-0.25
 74
     4
 75
     0
340
0
 46
1.0
 50
0.0
 44
0.0
 45
0.0
  0
LTYPE
  5
15E
330
5
100
AcDbSymbolTableRecord
100
AcDbLinetypeTableRecord
  2
DASHDOT
 70
     0
  3
__ . __ . __ . __ . __ . __ . __ . __ . __ . __
 72
    65
 73
     4
 40
1.0
 49
0.5
 74
     4
 75
     0
340
0
 46
1.0
 50
0.0
 44
0.0
 45
0.0
 49
-0.25
 74
     4
 75
     0
340
0
 46
1.0
 50
0.0
 44
0.0
 45
0.0
 49
0.0
 74
     4
 75
     0
340
0
 46
1.0
 50
0.0
 44
0.0
 45
0.0
 49
-0.25
 74
     4
 75
     0
340
0
 46
1.0
 50
0.0
 44
0.0
 45
0.0
  0
LTYPE
  5
15F
330
5
100
AcDbSymbolTableRecord
100
AcDbLinetypeTableRecord
  2
DIVIDE
 70
     0
  3
__ . . __ . . __ . . __ . . __ . . __ . . __
 72
    65
 73
     6
 40
1.25
 49
0.5
 74
     4
 75
     0
340
0
 46
1.0
 50
0.0
 44
0.0
 45
0.0
 49
-0.25
 74
     4
 75
     0
340
0
 46
1.0
 50
0.0
 44
0.0
 45
0.0
 49
0.0
 74
     4
 75
     0
340
0
 46
1.0
 50
0.0
 44
0.0
 45
0.0
 49
-0.25
 74
     4
 75
     0
340
0
 46
1.0
 50
0.0
 44
0.0
 45
0.0
 49
0.0
 74
     4
 75
     0
340
0
 46
1.0
 50
0.0
 44
0.0
 45
0.0
 49
-0.25
 74
     4
 75
     0
340
0
 46
1.0
 50
0.0
 44
0.0
 45
0.0
  0
ENDTAB
  0
TABLE
  2
LAYER
  5
2
330
0
100
AcDbSymbolTable
 70
     2
  0
LAYER
  5
10
330
2
100
AcDbSymbolTableRecord
100
AcDbLayerTableRecord
  2
0
 70
     0
 62
     3
  6
Continuous
370
    -3
390
F
  0
LAYER
  5
25
330
2
100
AcDbSymbolTableRecord
100
AcDbLayerTableRecord
  2
1
 70
     0
 62
    -7
  6
Continuous
370
    -3
390
F
  0
ENDTAB
  0
TABLE
  2
STYLE
  5
3
330
0
100
AcDbSymbolTable
 70
     5
  0
STYLE
  5
11
330
3
100
AcDbSymbolTableRecord
100
AcDbTextStyleTableRecord
  2
Standard
 70
     0
 40
0.0
 41
1.0
 50
0.0
 71
     0
 42
0.2
  3
txt
  4

  0
STYLE
  5
26
330
3
100
AcDbSymbolTableRecord
100
AcDbTextStyleTableRecord
  2
STANDARD1
 70
     0
 40
0.0
 41
1.0
 50
0.0
 71
     0
 42
2.799999952316284
  3
MONOTXT
  4
BIGFONT
  0
STYLE
  5
15C
330
3
100
AcDbSymbolTableRecord
100
AcDbTextStyleTableRecord
  2
STANDARD2
 70
     4
 40
0.0
 41
1.0
 50
0.0
 71
     0
 42
2.799999952316284
  3
MONOTXT
  4
BIGFONT
  0
STYLE
  5
28
330
3
100
AcDbSymbolTableRecord
100
AcDbTextStyleTableRecord
  2
STANDARD3
 70
     0
 40
0.0
 41
1.0
 50
0.0
 71
     0
 42
2.799999952316284
  3
MONOTXT
  4

  0
STYLE
  5
29
330
3
100
AcDbSymbolTableRecord
100
AcDbTextStyleTableRecord
  2
STANDARD4
 70
     4
 40
0.0
 41
1.0
 50
0.0
 71
     0
 42
2.799999952316284
  3
MONOTXT
  4

  0
ENDTAB
  0
TABLE
  2
VIEW
  5
6
330
0
100
AcDbSymbolTable
 70
     0
  0
ENDTAB
  0
TABLE
  2
UCS
  5
7
330
0
100
AcDbSymbolTable
 70
     0
  0
ENDTAB
  0
TABLE
  2
APPID
  5
9
330
0
100
AcDbSymbolTable
 70
     1
  0
APPID
  5
12
330
9
100
AcDbSymbolTableRecord
100
AcDbRegAppTableRecord
  2
ACAD
 70
     0
  0
ENDTAB
  0
TABLE
  2
DIMSTYLE
  5
A
330
0
100
AcDbSymbolTable
 70
     1
100
AcDbDimStyleTable
  0
DIMSTYLE
105
27
330
A
100
AcDbSymbolTableRecord
100
AcDbDimStyleTableRecord
  2
Standard
 70
     0
340
11
  0
ENDTAB
  0
TABLE
  2
BLOCK_RECORD
  5
1
330
0
100
AcDbSymbolTable
 70
     0
  0
BLOCK_RECORD
  5
1F
330
1
100
AcDbSymbolTableRecord
100
AcDbBlockTableRecord
  2
*Model_Space
340
22
  0
BLOCK_RECORD
  5
73
330
1
100
AcDbSymbolTableRecord
100
AcDbBlockTableRecord
  2
*Paper_Space
340
74
  0
ENDTAB
  0
ENDSEC
  0
SECTION
  2
BLOCKS
  0
BLOCK
  5
20
330
1F
100
AcDbEntity
  8
0
100
AcDbBlockBegin
  2
*Model_Space
 70
     0
 71
     0
 10
0.0
 20
0.0
 30
0.0
  3
*Model_Space
  1

  0
ENDBLK
  5
21
330
1F
100
AcDbEntity
  8
0
100
AcDbBlockEnd
  0
BLOCK
  5
75
330
73
100
AcDbEntity
 67
     1
  8
0
100
AcDbBlockBegin
  2
*Paper_Space
 70
     0
 71
     0
 10
0.0
 20
0.0
 30
0.0
  3
*Paper_Space
  1

  0
ENDBLK
  5
76
330
73
100
AcDbEntity
 67
     1
  8
0
100
AcDbBlockEnd
  0
ENDSEC
  0
SECTION
  2
ENTITIES
  0
ARC
  5
2B
330
1F
100
AcDbEntity
  8
0
  6
DASHED
 62
     3
100
AcDbCircle
 10
0.46694138777741
 20
-33.82567199807195
 30
0.0
 40
2.75
100
AcDbArc
 50
151.7885241587796
 51
28.21147584122037
  0
CIRCLE
  5
2C
330
1F
100
AcDbEntity
  8
0
  6
DASHED
 62
     3
100
AcDbCircle
 10
0.46694138777741
 20
2.971392414053774
 30
0.0
 40
1.0
  0
LINE
  5
2D
330
1F
100
AcDbEntity
  8
0
  6
DASHDOT
 62
     4
100
AcDbLine
 10
-1.641907637543341
 20
2.971392414053774
 30
0.0
 11
2.968024946029345
 21
2.971392414053774
 31
0.0
  0
LINE
  5
2E
330
1F
100
AcDbEntity
  8
0
  6
DASHDOT
 62
     4
100
AcDbLine
 10
16.36789805576257
 20
4.471392414053774
 30
0.0
 11
23.95532997736439
 21
4.471392414053774
 31
0.0
  0
LINE
  5
2F
330
1F
100
AcDbEntity
  8
0
  6
DASHDOT
 62
     4
100
AcDbLine
 10
-22.95824432103507
 20
4.471392414053774
 30
0.0
 11
-16.71281261277693
 21
4.471392414053774
 31
0.0
  0
LINE
  5
30
330
1F
100
AcDbEntity
  8
0
  6
Continuous
 62
     3
100
AcDbLine
 10
8.59194138777741
 20
-16.77860758594623
 30
0.0
 11
22.09194138777741
 21
-16.77860758594623
 31
0.0
  0
LINE
  5
31
330
1F
100
AcDbEntity
  8
0
  6
Continuous
 62
     3
100
AcDbLine
 10
22.96694138777747
 20
10.22139241405377
 30
0.0
 11
22.96694138777741
 21
-15.35360758594623
 31
0.0
  0
LINE
  5
32
330
1F
100
AcDbEntity
  8
0
  6
Continuous
 62
     3
100
AcDbLine
 10
22.09194138777741
 20
-13.52860758594623
 30
0.0
 11
22.09194138777741
 21
-16.77860758594623
 31
0.0
  0
LINE
  5
33
330
1F
100
AcDbEntity
  8
0
  6
Continuous
 62
     3
100
AcDbLine
 10
22.09194138777741
 20
-15.35360758594623
 30
0.0
 11
22.96694138777741
 21
-15.35360758594623
 31
0.0
  0
LINE
  5
34
330
1F
100
AcDbEntity
  8
0
  6
Continuous
 62
     3
100
AcDbLine
 10
15.71694138777735
 20
11.47139241405377
 30
0.0
 11
15.71694138777741
 21
10.22139241405377
 31
0.0
  0
LINE
  5
35
330
1F
100
AcDbEntity
  8
0
  6
Continuous
 62
     3
100
AcDbLine
 10
14.37736888777744
 20
10.22139241405377
 30
0.0
 11
22.96694138777741
 21
10.22139241405377
 31
0.0
  0
LINE
  5
36
330
1F
100
AcDbEntity
  8
0
  6
Continuous
 62
     3
100
AcDbLine
 10
-14.78305861222259
 20
11.47139241405377
 30
0.0
 11
-14.78305861222259
 21
11.22139241405377
 31
0.0
  0
LINE
  5
37
330
1F
100
AcDbEntity
  8
0
  6
Continuous
 62
     3
100
AcDbLine
 10
-17.00980861222257
 20
10.22139241405377
 30
0.0
 11
-22.03305861222259
 21
10.22139241405377
 31
0.0
  0
LINE
  5
38
330
1F
100
AcDbEntity
  8
0
  6
Continuous
 62
     3
100
AcDbLine
 10
-22.0330586122227
 20
10.22139241405377
 30
0.0
 11
-22.03305861222259
 21
-15.35360758594623
 31
0.0
  0
LINE
  5
39
330
1F
100
AcDbEntity
  8
0
  6
Continuous
 62
     3
100
AcDbLine
 10
-21.15805861222259
 20
-15.35360758594623
 30
0.0
 11
-22.03305861222259
 21
-15.35360758594623
 31
0.0
  0
LINE
  5
3A
330
1F
100
AcDbEntity
  8
0
  6
Continuous
 62
     3
100
AcDbLine
 10
-21.15805861222259
 20
-13.52860758594623
 30
0.0
 11
-21.15805861222259
 21
-16.77860758594623
 31
0.0
  0
LINE
  5
3B
330
1F
100
AcDbEntity
  8
0
  6
Continuous
 62
     3
100
AcDbLine
 10
22.09194138777741
 20
-13.52860758594623
 30
0.0
 11
-21.15805861222259
 21
-13.52860758594623
 31
0.0
  0
LINE
  5
3C
330
1F
100
AcDbEntity
  8
0
  6
Continuous
 62
     3
100
AcDbLine
 10
8.59194138777741
 20
-16.77860758594623
 30
0.0
 11
-21.15805861222259
 21
-16.77860758594623
 31
0.0
  0
LINE
  5
3D
330
1F
100
AcDbEntity
  8
0
  6
Continuous
 62
     3
100
AcDbLine
 10
-15.28780861222259
 20
11.22139241405377
 30
0.0
 11
-15.28780861222259
 21
2.471392414053774
 31
0.0
  0
LINE
  5
3E
330
1F
100
AcDbEntity
  8
0
  6
Continuous
 62
     3
100
AcDbLine
 10
-17.00980861222257
 20
11.22139241405377
 30
0.0
 11
-17.00980861222257
 21
1.564643605234231
 31
0.0
  0
LINE
  5
3F
330
1F
100
AcDbEntity
  8
0
  6
Continuous
 62
     3
100
AcDbLine
 10
0.46694138777741
 20
1.971392414053774
 30
0.0
 11
-15.80086252500359
 21
1.971392414053774
 31
0.0
  0
LINE
  5
40
330
1F
100
AcDbEntity
  8
0
  6
Continuous
 62
     3
100
AcDbLine
 10
-17.78489661352131
 20
0.223600137170443
 30
0.0
 11
-19.53305861222259
 21
-13.52860758594623
 31
0.0
  0
LINE
  5
41
330
1F
100
AcDbEntity
  8
0
  6
Continuous
 62
     3
100
AcDbLine
 10
0.46694138777741
 20
11.47139241405377
 30
0.0
 11
-14.78305861222259
 21
11.47139241405377
 31
0.0
  0
LINE
  5
42
330
1F
100
AcDbEntity
  8
0
  6
Continuous
 62
     3
100
AcDbLine
 10
0.46694138777741
 20
1.971392414053774
 30
0.0
 11
15.72006441421735
 21
1.971392414053774
 31
0.0
  0
LINE
  5
43
330
1F
100
AcDbEntity
  8
0
  6
Continuous
 62
     3
100
AcDbLine
 10
17.70386250545795
 20
0.225449756380534
 30
0.0
 11
19.46529138777743
 21
-13.52860758594623
 31
0.0
  0
LINE
  5
44
330
1F
100
AcDbEntity
  8
0
  6
Continuous
 62
     3
100
AcDbLine
 10
14.37736888777744
 20
10.22139241405377
 30
0.0
 11
14.92376638777739
 21
1.971392414053774
 31
0.0
  0
ARC
  5
45
330
1F
100
AcDbEntity
  8
0
  6
Continuous
 62
     3
100
AcDbCircle
 10
-15.78780861222259
 20
2.471392414053774
 30
0.0
 40
0.5
100
AcDbArc
 50
270.0
 51
0.0
  0
ARC
  5
46
330
1F
100
AcDbEntity
  8
0
  6
Continuous
 62
     3
100
AcDbCircle
 10
-13.50223749618158
 20
2.471392414053774
 30
0.0
 40
0.5
100
AcDbArc
 50
270.0
 51
356.9872124958168
  0
ARC
  5
47
330
1F
100
AcDbEntity
  8
0
  6
Continuous
 62
     3
100
AcDbCircle
 10
15.72006441421735
 20
-0.028607585946226
 30
0.0
 40
1.999999999999997
100
AcDbArc
 50
7.297924115051073
 51
90.0
  0
ARC
  5
48
330
1F
100
AcDbEntity
  8
0
  6
Continuous
 62
     3
100
AcDbCircle
 10
-15.80086252500359
 20
-0.028607585946226
 30
0.0
 40
2.0
100
AcDbArc
 50
90.0
 51
172.7554931475585
  0
LINE
  5
49
330
1F
100
AcDbEntity
  8
0
  6
DASHED
 62
     3
100
AcDbLine
 10
22.96694138777741
 20
8.257767414053767
 30
0.0
 11
17.96694138777741
 21
8.257767414053767
 31
0.0
  0
LINE
  5
4A
330
1F
100
AcDbEntity
  8
0
  6
DASHED
 62
     4
100
AcDbLine
 10
22.96694138777741
 20
8.627517414053777
 30
0.0
 11
17.96694138777741
 21
8.627517414053777
 31
0.0
  0
LINE
  5
4B
330
1F
100
AcDbEntity
  8
0
  6
DASHED
 62
     3
100
AcDbLine
 10
22.96694138777741
 20
0.685017414053782
 30
0.0
 11
17.96694138777741
 21
0.685017414053782
 31
0.0
  0
LINE
  5
4C
330
1F
100
AcDbEntity
  8
0
  6
DASHED
 62
     4
100
AcDbLine
 10
22.96694138777741
 20
0.315267414053771
 30
0.0
 11
17.96694138777741
 21
0.315267414053771
 31
0.0
  0
LINE
  5
4D
330
1F
100
AcDbEntity
  8
0
  6
DASHED
 62
     3
100
AcDbLine
 10
-22.03305861222259
 20
0.685017414053767
 30
0.0
 11
-17.03305861222259
 21
0.685017414053782
 31
0.0
  0
LINE
  5
4E
330
1F
100
AcDbEntity
  8
0
  6
DASHED
 62
     4
100
AcDbLine
 10
-22.03305861222259
 20
0.315267414053771
 30
0.0
 11
-17.03305861222259
 21
0.315267414053771
 31
0.0
  0
LINE
  5
4F
330
1F
100
AcDbEntity
  8
0
  6
DASHED
 62
     3
100
AcDbLine
 10
-22.03305861222259
 20
8.257767414053767
 30
0.0
 11
-17.03305861222259
 21
8.257767414053767
 31
0.0
  0
LINE
  5
50
330
1F
100
AcDbEntity
  8
0
  6
DASHED
 62
     4
100
AcDbLine
 10
-22.03305861222259
 20
8.627517414053777
 30
0.0
 11
-17.03305861222259
 21
8.627517414053777
 31
0.0
  0
LINE
  5
51
330
1F
100
AcDbEntity
  8
0
  6
Continuous
 62
     3
100
AcDbLine
 10
-14.03305861222259
 20
11.47139241405377
 30
0.0
 11
-14.78305861222259
 21
11.47139241405377
 31
0.0
  0
LINE
  5
52
330
1F
100
AcDbEntity
  8
0
  6
Continuous
 62
     3
100
AcDbLine
 10
-12.60680861222266
 20
11.22139241405377
 30
0.0
 11
-17.00988736471641
 21
11.22139241405377
 31
0.0
  0
LINE
  5
53
330
1F
100
AcDbEntity
  8
0
  6
Continuous
 62
     3
100
AcDbLine
 10
-12.60680861222261
 20
11.22139241405377
 30
0.0
 11
-13.00292858151533
 21
2.445112997492394
 31
0.0
  0
LINE
  5
54
330
1F
100
AcDbEntity
  8
0
  6
Continuous
 62
     3
100
AcDbLine
 10
17.94369138777739
 20
11.22139241405377
 30
0.0
 11
17.94369138777739
 21
10.22139241405377
 31
0.0
  0
LINE
  5
55
330
1F
100
AcDbEntity
  8
0
  6
Continuous
 62
     3
100
AcDbLine
 10
15.71694138777741
 20
11.22139241405377
 30
0.0
 11
17.94377014027123
 21
11.22139241405377
 31
0.0
  0
LWPOLYLINE
  5
56
330
1F
100
AcDbEntity
  8
0
  6
Continuous
 62
     3
100
AcDbPolyline
 90
       17
 70
     0
 43
0.0
 10
16.88396638777743
 20
-13.52860758594623
 10
16.8481624478696
 20
-11.51118323379303
 10
16.74212655347766
 20
-9.571287368108466
 10
16.56993360455751
 20
-7.783469099104665
 10
16.3382008795692
 20
-6.216433280239402
 10
16.05583373717684
 20
-4.930400219227858
 10
15.73368338830925
 20
-3.974791445389059
 10
15.38412989020941
 20
-3.386330467990055
 10
15.02060638777743
 20
-3.187631512379568
 10
14.65708288534546
 20
-3.386330467990055
 10
14.30752938724562
 20
-3.974791445389061
 10
13.98537903837803
 20
-4.93040021922786
 10
13.70301189598567
 20
-6.216433280239403
 10
13.47127917099736
 20
-7.783469099104665
 10
13.2990862220772
 20
-9.571287368108466
 10
13.19305032768527
 20
-11.51118323379303
 10
13.15724638777743
 20
-13.52860758594622
  0
LWPOLYLINE
  5
69
330
1F
100
AcDbEntity
  8
0
  6
Continuous
 62
     3
100
AcDbPolyline
 90
       17
 70
     0
 43
0.0
 10
-12.22336361222261
 20
-13.52860758594623
 10
-12.25916755213045
 20
-11.51118323379303
 10
-12.36520344652238
 20
-9.571287368108466
 10
-12.53739639544254
 20
-7.783469099104665
 10
-12.76912912043085
 20
-6.216433280239402
 10
-13.05149626282321
 20
-4.930400219227858
 10
-13.3736466116908
 20
-3.974791445389059
 10
-13.72320010979064
 20
-3.386330467990055
 10
-14.08672361222261
 20
-3.187631512379568
 10
-14.45024711465459
 20
-3.386330467990055
 10
-14.79980061275443
 20
-3.974791445389061
 10
-15.12195096162202
 20
-4.93040021922786
 10
-15.40431810401438
 20
-6.216433280239403
 10
-15.63605082900268
 20
-7.783469099104665
 10
-15.80824377792284
 20
-9.571287368108466
 10
-15.91427967231478
 20
-11.51118323379303
 10
-15.95008361222261
 20
-13.52860758594622
  0
LINE
  5
7C
330
1F
100
AcDbEntity
  8
0
  6
Continuous
 62
     3
100
AcDbLine
 10
17.08780104316531
 20
13.4141984651725
 30
0.0
 11
16.47082430758212
 21
43.61001603719996
 31
0.0
  0
LINE
  5
7D
330
1F
100
AcDbEntity
  8
0
  6
Continuous
 62
     3
100
AcDbLine
 10
-16.09610695851006
 20
15.49396776017249
 30
0.0
 11
-15.53694153202741
 21
43.61001603719996
 31
0.0
  0
LINE
  5
7E
330
1F
100
AcDbEntity
  8
0
  6
Continuous
 62
     3
100
AcDbLine
 10
-13.90578588494998
 20
44.72139241405375
 30
0.0
 11
-14.43398806981668
 21
17.35397896894023
 31
0.0
  0
LINE
  5
7F
330
1F
100
AcDbEntity
  8
0
  6
Continuous
 62
     3
100
AcDbLine
 10
0.46694138777741
 20
11.47139241405377
 30
0.0
 11
17.94377014027111
 21
11.47139241405377
 31
0.0
  0
LINE
  5
80
330
1F
100
AcDbEntity
  8
0
  6
Continuous
 62
     3
100
AcDbLine
 10
0.46694138777741
 20
11.47139241405377
 30
0.0
 11
-14.78305861222259
 21
11.47139241405377
 31
0.0
  0
LINE
  5
81
330
1F
100
AcDbEntity
  8
0
  6
DASHDOT
 62
     4
100
AcDbLine
 10
0.46694138777741
 20
-18.89026118042123
 30
0.0
 11
0.46694138777741
 21
59.00593448781871
 31
0.0
  0
LINE
  5
82
330
1F
100
AcDbEntity
  8
0
  6
Continuous
 62
     3
100
AcDbLine
 10
-17.00988736471641
 20
14.28053999836057
 30
0.0
 11
-17.00988736471641
 21
11.47139241405377
 31
0.0
  0
LINE
  5
83
330
1F
100
AcDbEntity
  8
0
  6
Continuous
 62
     3
100
AcDbLine
 10
-15.28781191907353
 20
14.28053999836055
 30
0.0
 11
-15.28781191907353
 21
11.47139241405377
 31
0.0
  0
LINE
  5
84
330
1F
100
AcDbEntity
  8
0
  6
Continuous
 62
     3
100
AcDbLine
 10
-12.60699115703972
 20
19.58375629484701
 30
0.0
 11
-12.60699115703972
 21
11.47139241405377
 31
0.0
  0
LINE
  5
85
330
1F
100
AcDbEntity
  8
0
  6
Continuous
 62
     3
100
AcDbLine
 10
15.71694138777741
 20
13.72139241405376
 30
0.0
 11
15.71694138777741
 21
11.47139241405377
 31
0.0
  0
LINE
  5
86
330
1F
100
AcDbEntity
  8
0
  6
Continuous
 62
     3
100
AcDbLine
 10
17.94377014027111
 20
14.47139241405377
 30
0.0
 11
17.94377014027111
 21
11.47139241405377
 31
0.0
  0
LINE
  5
87
330
1F
100
AcDbEntity
  8
0
  6
DASHDOT
 62
     4
100
AcDbLine
 10
15.72235610911935
 20
48.34639241405375
 30
0.0
 11
17.08780246473134
 21
48.34639241405375
 31
0.0
  0
ARC
  5
88
330
1F
100
AcDbEntity
  8
0
  6
Continuous
 62
     3
100
AcDbCircle
 10
7.120226396116664
 20
45.59639241405375
 30
0.0
 40
1.250000000000049
100
AcDbArc
 50
8.626926558678301
 51
78.22916053262237
  0
ARC
  5
89
330
1F
100
AcDbEntity
  8
0
  6
Continuous
 62
     3
100
AcDbCircle
 10
9.59194138777741
 20
45.97139241405375
 30
0.0
 40
1.250000000000049
100
AcDbArc
 50
188.6269265586783
 51
270.0
  0
LINE
  5
8A
330
1F
100
AcDbEntity
  8
0
  6
Continuous
 62
     3
100
AcDbLine
 10
9.59194138777741
 20
44.72139241405375
 30
0.0
 11
16.29194138777734
 21
44.72139241405375
 31
0.0
  0
LINE
  5
8B
330
1F
100
AcDbEntity
  8
0
  6
Continuous
 62
     3
100
AcDbLine
 10
0.46694138777741
 20
57.22139241405375
 30
0.0
 11
11.43444138777738
 21
57.22139241405381
 31
0.0
  0
ARC
  5
8C
330
1F
100
AcDbEntity
  8
0
  6
Continuous
 62
     3
100
AcDbCircle
 10
11.43444138777738
 20
56.93889241405378
 30
0.0
 40
0.282500000000027
100
AcDbArc
 50
0.0
 51
90.0
  0
POINT
  5
8D
330
1F
100
AcDbEntity
  8
0
  6
Continuous
 62
     3
100
AcDbPoint
 10
11.71694138777741
 20
56.22139241405381
 30
0.0
  0
ARC
  5
8E
330
1F
100
AcDbEntity
  8
0
  6
Continuous
 62
     3
100
AcDbCircle
 10
16.00944138777731
 20
53.18889241405384
 30
0.0
 40
0.282500000000027
100
AcDbArc
 50
0.0
 51
90.0
  0
LINE
  5
8F
330
1F
100
AcDbEntity
  8
0
  6
Continuous
 62
     3
100
AcDbLine
 10
11.71694138777741
 20
56.28646329537276
 30
0.0
 11
11.71694138777741
 21
56.93889241405378
 31
0.0
  0
LINE
  5
90
330
1F
100
AcDbEntity
  8
0
  6
Continuous
 62
     3
100
AcDbLine
 10
11.77024433323345
 20
56.18406928983666
 30
0.0
 11
15.64434840631816
 21
53.47139241405381
 31
0.0
  0
ARC
  5
91
330
1F
100
AcDbEntity
  8
0
  6
Continuous
 62
     3
100
AcDbCircle
 10
11.84194138777741
 20
56.28646329537276
 30
0.0
 40
0.125
100
AcDbArc
 50
180.0
 51
234.9999999999631
  0
LINE
  5
160
330
1F
100
AcDbEntity
  8
0
  6
Continuous
 62
     3
100
AcDbLine
 10
0.46694138777741
 20
56.22139241405381
 30
0.0
 11
11.73521378870203
 21
56.22139241405381
 31
0.0
  0
LINE
  5
161
330
1F
100
AcDbEntity
  8
0
  6
Continuous
 62
     3
100
AcDbLine
 10
16.29194138777734
 20
44.72139241405375
 30
0.0
 11
16.29194138777734
 21
53.18889241405384
 31
0.0
  0
LINE
  5
94
330
1F
100
AcDbEntity
  8
0
  6
Continuous
 62
     3
100
AcDbLine
 10
0.46694138777741
 20
53.47139241405318
 30
0.0
 11
16.00944138777731
 21
53.47139241405381
 31
0.0
  0
ARC
  5
95
330
1F
100
AcDbEntity
  8
0
  6
Continuous
 62
     3
100
AcDbCircle
 10
-6.186343620561956
 20
45.59639241405375
 30
0.0
 40
1.25000000000001
100
AcDbArc
 50
101.7708394673776
 51
171.3730734413217
  0
ARC
  5
96
330
1F
100
AcDbEntity
  8
0
  6
Continuous
 62
     3
100
AcDbCircle
 10
-8.65805861222259
 20
45.97139241405375
 30
0.0
 40
1.25
100
AcDbArc
 50
270.0
 51
351.3730734413209
  0
ARC
  5
162
330
1F
100
AcDbEntity
  8
0
  6
Continuous
 62
     3
100
AcDbCircle
 10
-10.90805861222259
 20
56.28646329537276
 30
0.0
 40
0.12499999999996
100
AcDbArc
 50
304.9999999999941
 51
0.0
  0
LINE
  5
163
330
1F
100
AcDbEntity
  8
0
  6
Continuous
 62
     3
100
AcDbLine
 10
0.46694138777741
 20
56.22139241405381
 30
0.0
 11
-10.80133101314732
 21
56.22139241405381
 31
0.0
  0
ARC
  5
99
330
1F
100
AcDbEntity
  8
0
  6
Continuous
 62
     3
100
AcDbCircle
 10
-15.07555861222261
 20
53.18889241405384
 30
0.0
 40
0.28249999999997
100
AcDbArc
 50
90.0
 51
180.0
  0
LINE
  5
9A
330
1F
100
AcDbEntity
  8
0
  6
Continuous
 62
     3
100
AcDbLine
 10
0.46694138777741
 20
53.47139241405318
 30
0.0
 11
-15.07555861222261
 21
53.47139241405381
 31
0.0
  0
POINT
  5
9B
330
1F
100
AcDbEntity
  8
0
  6
Continuous
 62
     3
100
AcDbPoint
 10
-10.78305861222259
 20
56.22139241405381
 30
0.0
  0
ARC
  5
9C
330
1F
100
AcDbEntity
  8
0
  6
Continuous
 62
     3
100
AcDbCircle
 10
-10.50055861222256
 20
56.93889241405378
 30
0.0
 40
0.282500000000027
100
AcDbArc
 50
90.0
 51
180.0
  0
LINE
  5
9D
330
1F
100
AcDbEntity
  8
0
  6
Continuous
 62
     3
100
AcDbLine
 10
-10.83636155767874
 20
56.18406928983666
 30
0.0
 11
-14.71046563076345
 21
53.47139241405381
 31
0.0
  0
LINE
  5
9E
330
1F
100
AcDbEntity
  8
0
  6
Continuous
 62
     3
100
AcDbLine
 10
-10.78305861222259
 20
56.28646329537276
 30
0.0
 11
-10.78305861222259
 21
56.93889241405378
 31
0.0
  0
LINE
  5
9F
330
1F
100
AcDbEntity
  8
0
  6
Continuous
 62
     3
100
AcDbLine
 10
-15.35805861222264
 20
44.72139241405375
 30
0.0
 11
-15.35805861222264
 21
53.18889241405384
 31
0.0
  0
LINE
  5
A0
330
1F
100
AcDbEntity
  8
0
  6
Continuous
 62
     3
100
AcDbLine
 10
0.46694138777741
 20
57.22139241405375
 30
0.0
 11
-10.50055861222256
 21
57.22139241405381
 31
0.0
  0
LINE
  5
A1
330
1F
100
AcDbEntity
  8
0
  6
Continuous
 62
     3
100
AcDbLine
 10
-8.65805861222259
 20
44.72139241405375
 30
0.0
 11
-15.35805861222264
 21
44.72139241405375
 31
0.0
  0
ARC
  5
A2
330
1F
100
AcDbEntity
  8
0
  6
Continuous
 62
     3
100
AcDbCircle
 10
14.99901390795799
 20
43.48886000052573
 30
0.0
 40
0.25
100
AcDbArc
 50
0.0
 51
51.71189747674171
  0
ARC
  5
A3
330
1F
100
AcDbEntity
  8
0
  6
Continuous
 62
     3
100
AcDbCircle
 10
14.43131317535233
 20
44.57403137256813
 30
0.0
 40
0.25
100
AcDbArc
 50
180.0
 51
231.7118974767702
  0
ARC
  5
A4
330
1F
100
AcDbEntity
  8
0
  6
Continuous
 62
     3
100
AcDbCircle
 10
13.63567047490426
 20
43.4997216018391
 30
0.0
 40
0.25
100
AcDbArc
 50
0.0
 51
47.61200893941967
  0
ARC
  5
A5
330
1F
100
AcDbEntity
  8
0
  6
Continuous
 62
     3
100
AcDbCircle
 10
13.21223314064048
 20
44.56316977125471
 30
0.0
 40
0.25
100
AcDbArc
 50
180.0
 51
227.6120089394197
  0
LINE
  5
A6
330
1F
100
AcDbEntity
  8
0
  6
Continuous
 62
     3
100
AcDbLine
 10
13.8042073738626
 20
43.68437076563225
 30
0.0
 11
13.04369624168214
 21
44.37852060746155
 31
0.0
  0
LINE
  5
A7
330
1F
100
AcDbEntity
  8
0
  6
Continuous
 62
     3
100
AcDbLine
 10
14.27640916047505
 20
44.37780510986391
 30
0.0
 11
15.15391792283538
 21
43.68508626322989
 31
0.0
  0
LINE
  5
A8
330
1F
100
AcDbEntity
  8
0
  6
Continuous
 62
     3
100
AcDbLine
 10
14.18131317535233
 20
44.57403137256813
 30
0.0
 11
14.18131317535233
 21
44.72139241405375
 31
0.0
  0
LINE
  5
A9
330
1F
100
AcDbEntity
  8
0
  6
Continuous
 62
     3
100
AcDbLine
 10
13.53452766044325
 20
44.72139241405375
 30
0.0
 11
13.53452766044325
 21
43.93051855031734
 31
0.0
  0
LINE
  5
AA
330
1F
100
AcDbEntity
  8
0
  6
Continuous
 62
     3
100
AcDbLine
 10
15.24901390795799
 20
13.72139241405377
 30
0.0
 11
15.24901390795799
 21
43.48886000052573
 31
0.0
  0
LINE
  5
AB
330
1F
100
AcDbEntity
  8
0
  6
Continuous
 62
     3
100
AcDbLine
 10
-5.649885091504189
 20
28.56226655530301
 30
0.0
 11
-5.649885091504189
 21
13.72139241405377
 31
0.0
  0
LINE
  5
AC
330
1F
100
AcDbEntity
  8
0
  6
Continuous
 62
     3
100
AcDbLine
 10
-4.754488357658829
 20
28.23368799240652
 30
0.0
 11
-4.754488357658829
 21
13.72139241405377
 31
0.0
  0
LINE
  5
AD
330
1F
100
AcDbEntity
  8
0
  6
Continuous
 62
     3
100
AcDbLine
 10
-7.083302743433592
 20
13.72139241405377
 30
0.0
 11
-7.083302743433592
 21
46.46700388416969
 31
0.0
  0
LINE
  5
AE
330
1F
100
AcDbEntity
  8
0
  6
Continuous
 62
     3
100
AcDbLine
 10
-9.249572252190887
 20
44.72139241405375
 30
0.0
 11
-9.249572252190887
 21
13.72139241405377
 31
0.0
  0
LINE
  5
AF
330
1F
100
AcDbEntity
  8
0
  6
Continuous
 62
     3
100
AcDbLine
 10
-10.92949715570978
 20
44.72139241405375
 30
0.0
 11
-10.92949715570978
 21
13.72139241405377
 31
0.0
  0
LINE
  5
B0
330
1F
100
AcDbEntity
  8
0
  6
Continuous
 62
     3
100
AcDbLine
 10
-10.22239037452323
 20
44.72139241405375
 30
0.0
 11
-10.22239037452323
 21
13.72139241405377
 31
0.0
  0
LINE
  5
B1
330
1F
100
AcDbEntity
  8
0
  6
Continuous
 62
     3
100
AcDbLine
 10
-8.241737842835278
 20
13.72139241405377
 30
0.0
 11
-8.241737842835278
 21
43.55324918755554
 31
0.0
  0
ARC
  5
B2
330
1F
100
AcDbEntity
  8
0
  6
Continuous
 62
     3
100
AcDbCircle
 10
-7.991737842835278
 20
43.55324918755554
 30
0.0
 40
0.24999999999998
100
AcDbArc
 50
154.4138421521101
 51
180.0
  0
LINE
  5
B3
330
1F
100
AcDbEntity
  8
0
  6
Continuous
 62
     3
100
AcDbLine
 10
-7.760179170612105
 20
44.67249683099556
 30
0.0
 11
-7.760179170612105
 21
45.10173011848553
 31
0.0
  0
LINE
  5
B4
330
1F
100
AcDbEntity
  8
0
  6
Continuous
 62
     3
100
AcDbLine
 10
-7.784694948569495
 20
44.5645298656317
 30
0.0
 11
-8.217222064877774
 21
43.66121615291939
 31
0.0
  0
ARC
  5
B5
330
1F
100
AcDbEntity
  8
0
  6
Continuous
 62
     3
100
AcDbCircle
 10
-8.010179170612105
 20
44.67249683099556
 30
0.0
 40
0.250000000000083
100
AcDbArc
 50
334.4138421521214
 51
0.0
  0
ARC
  5
B6
330
1F
100
AcDbEntity
  8
0
  6
Continuous
 62
     3
100
AcDbCircle
 10
8.944061946166698
 20
44.67249683099556
 30
0.0
 40
0.25
100
AcDbArc
 50
180.0
 51
205.5861578478899
  0
ARC
  5
B7
330
1F
100
AcDbEntity
  8
0
  6
Continuous
 62
     3
100
AcDbCircle
 10
8.925620618390099
 20
43.55324918755554
 30
0.0
 40
0.25
100
AcDbArc
 50
0.0
 51
25.58615784788988
  0
LINE
  5
B8
330
1F
100
AcDbEntity
  8
0
  6
Continuous
 62
     3
100
AcDbLine
 10
8.718577724124202
 20
44.5645298656317
 30
0.0
 11
9.151104840432595
 21
43.66121615291939
 31
0.0
  0
LINE
  5
B9
330
1F
100
AcDbEntity
  8
0
  6
Continuous
 62
     3
100
AcDbLine
 10
12.96223314064048
 20
44.56316977125471
 30
0.0
 11
12.96223314064048
 21
44.72139241405375
 31
0.0
  0
LINE
  5
BA
330
1F
100
AcDbEntity
  8
0
  6
Continuous
 62
     3
100
AcDbLine
 10
12.27999789086243
 20
44.72139241405375
 30
0.0
 11
12.27999789086243
 21
13.72139241405377
 31
0.0
  0
LINE
  5
BB
330
1F
100
AcDbEntity
  8
0
  6
Continuous
 62
     3
100
AcDbLine
 10
13.88567047490426
 20
43.4997216018391
 30
0.0
 11
13.88567047490426
 21
13.72139241405377
 31
0.0
  0
LINE
  5
BC
330
1F
100
AcDbEntity
  8
0
  6
Continuous
 62
     3
100
AcDbLine
 10
10.18345502774559
 20
44.72139241405375
 30
0.0
 11
10.18345502774559
 21
13.72139241405377
 31
0.0
  0
LINE
  5
BD
330
1F
100
AcDbEntity
  8
0
  6
Continuous
 62
     3
100
AcDbLine
 10
11.15627315007794
 20
44.72139241405375
 30
0.0
 11
11.15627315007794
 21
13.72139241405377
 31
0.0
  0
LINE
  5
BE
330
1F
100
AcDbEntity
  8
0
  6
Continuous
 62
     3
100
AcDbLine
 10
11.86337993126449
 20
44.72139241405375
 30
0.0
 11
11.86337993126449
 21
13.72139241405377
 31
0.0
  0
LINE
  5
BF
330
1F
100
AcDbEntity
  8
0
  6
Continuous
 62
     3
100
AcDbLine
 10
8.694061946166698
 20
44.67249683099556
 30
0.0
 11
8.694061946166698
 21
45.10173011848553
 31
0.0
  0
LINE
  5
C0
330
1F
100
AcDbEntity
  8
0
  6
Continuous
 62
     3
100
AcDbLine
 10
5.688371133213536
 20
28.23368799240652
 30
0.0
 11
5.688371133213536
 21
13.72139241405377
 31
0.0
  0
LINE
  5
C1
330
1F
100
AcDbEntity
  8
0
  6
Continuous
 62
     3
100
AcDbLine
 10
6.583767867059009
 20
28.56226655530301
 30
0.0
 11
6.583767867059009
 21
13.72139241405377
 31
0.0
  0
LINE
  5
C2
330
1F
100
AcDbEntity
  8
0
  6
Continuous
 62
     3
100
AcDbLine
 10
9.175620618390099
 20
13.72139241405377
 30
0.0
 11
9.175620618390099
 21
43.55324918755554
 31
0.0
  0
LINE
  5
C3
330
1F
100
AcDbEntity
  8
0
  6
Continuous
 62
     3
100
AcDbLine
 10
8.017185518988299
 20
13.72139241405377
 30
0.0
 11
8.017185518988299
 21
46.46700388416969
 31
0.0
  0
ARC
  5
C4
330
1F
100
AcDbEntity
  8
0
  6
Continuous
 62
     3
100
AcDbCircle
 10
-4.53305861222259
 20
29.72139241405378
 30
0.0
 40
1.25
100
AcDbArc
 50
180.0
 51
270.0
  0
ARC
  5
C5
330
1F
100
AcDbEntity
  8
0
  6
Continuous
 62
     3
100
AcDbCircle
 10
5.466941387777411
 20
29.72139241405378
 30
0.0
 40
1.25
100
AcDbArc
 50
270.0
 51
0.0
  0
ARC
  5
C6
330
1F
100
AcDbEntity
  8
0
  6
Continuous
 62
     3
100
AcDbCircle
 10
0.46694138777741
 20
28.22139241405378
 30
0.0
 40
1.250000000000045
100
AcDbArc
 50
202.0243128370414
 51
337.9756871629567
  0
ARC
  5
C7
330
1F
100
AcDbEntity
  8
0
  6
Continuous
 62
     3
100
AcDbCircle
 10
-1.387108233996628
 20
27.47139241405378
 30
0.0
 40
0.750000000000069
100
AcDbArc
 50
22.02431283704003
 51
90.0
  0
ARC
  5
C8
330
1F
100
AcDbEntity
  8
0
  6
Continuous
 62
     3
100
AcDbCircle
 10
2.320991009551221
 20
27.47139241405378
 30
0.0
 40
0.75
100
AcDbArc
 50
90.0
 51
157.9756871629567
  0
LINE
  5
C9
330
1F
100
AcDbEntity
  8
0
  6
Continuous
 62
     3
100
AcDbLine
 10
2.320991009551221
 20
28.22139241405378
 30
0.0
 11
5.466941387777411
 21
28.22139241405378
 31
0.0
  0
ARC
  5
CA
330
1F
100
AcDbEntity
  8
0
  6
Continuous
 62
     3
100
AcDbCircle
 10
0.46694138777741
 20
28.22139241405378
 30
0.0
 40
1.25
100
AcDbArc
 50
0.0
 51
180.0
  0
LINE
  5
CB
330
1F
100
AcDbEntity
  8
0
  6
Continuous
 62
     3
100
AcDbLine
 10
-5.78305861222259
 20
29.72139241405378
 30
0.0
 11
-5.78305861222259
 21
46.22139241405375
 31
0.0
  0
ARC
  5
CC
330
1F
100
AcDbEntity
  8
0
  6
Continuous
 62
     3
100
AcDbCircle
 10
-4.53305861222259
 20
46.22139241405375
 30
0.0
 40
1.250000000000057
100
AcDbArc
 50
90.0
 51
180.0
  0
LINE
  5
CD
330
1F
100
AcDbEntity
  8
0
  6
Continuous
 62
     3
100
AcDbLine
 10
-4.53305861222259
 20
47.47139241405381
 30
0.0
 11
5.466941387777411
 21
47.47139241405381
 31
0.0
  0
LINE
  5
CE
330
1F
100
AcDbEntity
  8
0
  6
Continuous
 62
     3
100
AcDbLine
 10
6.716941387777411
 20
29.72139241405378
 30
0.0
 11
6.716941387777411
 21
46.22139241405375
 31
0.0
  0
ARC
  5
CF
330
1F
100
AcDbEntity
  8
0
  6
Continuous
 62
     3
100
AcDbCircle
 10
5.466941387777411
 20
46.22139241405375
 30
0.0
 40
1.25
100
AcDbArc
 50
0.0
 51
90.0
  0
ARC
  5
D0
330
1F
100
AcDbEntity
  8
0
  6
Continuous
 62
     3
100
AcDbCircle
 10
5.466941387777411
 20
30.22139241405378
 30
0.0
 40
2.0
100
AcDbArc
 50
270.0
 51
0.0
  0
ARC
  5
D1
330
1F
100
AcDbEntity
  8
0
  6
Continuous
 62
     3
100
AcDbCircle
 10
-4.53305861222259
 20
30.22139241405378
 30
0.0
 40
2.0
100
AcDbArc
 50
180.0
 51
270.0
  0
ARC
  5
D2
330
1F
100
AcDbEntity
  8
0
  6
Continuous
 62
     3
100
AcDbCircle
 10
-4.53305861222259
 20
46.22139241405375
 30
0.0
 40
2.000000000000057
100
AcDbArc
 50
90.0
 51
180.0
  0
ARC
  5
D3
330
1F
100
AcDbEntity
  8
0
  6
Continuous
 62
     3
100
AcDbCircle
 10
5.466941387777411
 20
46.22139241405375
 30
0.0
 40
2.0
100
AcDbArc
 50
0.0
 51
90.0
  0
LINE
  5
D4
330
1F
100
AcDbEntity
  8
0
  6
Continuous
 62
     3
100
AcDbLine
 10
-4.53305861222259
 20
48.22139241405381
 30
0.0
 11
5.466941387777411
 21
48.22139241405381
 31
0.0
  0
LINE
  5
D5
330
1F
100
AcDbEntity
  8
0
  6
Continuous
 62
     3
100
AcDbLine
 10
-6.53305861222259
 20
30.22139241405378
 30
0.0
 11
-6.53305861222259
 21
46.22139241405375
 31
0.0
  0
LINE
  5
D6
330
1F
100
AcDbEntity
  8
0
  6
Continuous
 62
     3
100
AcDbLine
 10
7.466941387777411
 20
30.22139241405378
 30
0.0
 11
7.466941387777411
 21
46.22139241405375
 31
0.0
  0
LINE
  5
D7
330
1F
100
AcDbEntity
  8
0
  6
Continuous
 62
     3
100
AcDbLine
 10
-4.53305861222259
 20
28.22139241405378
 30
0.0
 11
-1.387108233996628
 21
28.22139241405378
 31
0.0
  0
POINT
  5
D8
330
1F
100
AcDbEntity
  8
0
  6
Continuous
 62
     3
100
AcDbPoint
 10
15.21694138777741
 20
44.47139241405375
 30
0.0
  0
LINE
  5
D9
330
1F
100
AcDbEntity
  8
0
  6
Continuous
 62
     3
100
AcDbLine
 10
15.34194138777741
 20
44.39922363040506
 30
0.0
 11
16.34592083567156
 21
43.81957582590252
 31
0.0
  0
ARC
  5
DA
330
1F
100
AcDbEntity
  8
0
  6
Continuous
 62
     3
100
AcDbCircle
 10
15.46694138777741
 20
44.61572998135114
 30
0.0
 40
0.25
100
AcDbArc
 50
180.0
 51
239.9999999999962
  0
LINE
  5
DB
330
1F
100
AcDbEntity
  8
0
  6
Continuous
 62
     3
100
AcDbLine
 10
15.21694138777741
 20
44.61572998135114
 30
0.0
 11
15.21694138777741
 21
44.72139241405375
 31
0.0
  0
ARC
  5
DC
330
1F
100
AcDbEntity
  8
0
  6
Continuous
 62
     3
100
AcDbCircle
 10
-14.53305861222259
 20
44.61572998135119
 30
0.0
 40
0.25000000000002
100
AcDbArc
 50
299.9999999999973
 51
0.0
  0
POINT
  5
DD
330
1F
100
AcDbEntity
  8
0
  6
Continuous
 62
     3
100
AcDbPoint
 10
-14.28305861222259
 20
44.47139241405375
 30
0.0
  0
LINE
  5
DE
330
1F
100
AcDbEntity
  8
0
  6
Continuous
 62
     3
100
AcDbLine
 10
-14.28305861222259
 20
44.61572998135119
 30
0.0
 11
-14.28305861222259
 21
44.72139241405375
 31
0.0
  0
ARC
  5
DF
330
1F
100
AcDbEntity
  8
0
  6
Continuous
 62
     3
100
AcDbCircle
 10
-14.78781191907353
 20
14.28053999836055
 30
0.0
 40
0.499999999999987
100
AcDbArc
 50
138.2158057643582
 51
180.0
  0
ARC
  5
E0
330
1F
100
AcDbEntity
  8
0
  6
Continuous
 62
     3
100
AcDbCircle
 10
-16.50988736471641
 20
14.28053999836057
 30
0.0
 40
0.499999999999977
100
AcDbArc
 50
138.2158057643594
 51
180.0
  0
LINE
  5
E1
330
1F
100
AcDbEntity
  8
0
  6
Continuous
 62
     3
100
AcDbLine
 10
-4.03305861222259
 20
11.47139241405377
 30
0.0
 11
-4.03305861222259
 21
28.22139241405378
 31
0.0
  0
LINE
  5
E2
330
1F
100
AcDbEntity
  8
0
  6
Continuous
 62
     3
100
AcDbLine
 10
4.966941387777411
 20
11.47139241405377
 30
0.0
 11
4.966941387777411
 21
28.22139241405378
 31
0.0
  0
LINE
  5
E3
330
1F
100
AcDbEntity
  8
0
  6
Continuous
 62
     3
100
AcDbLine
 10
17.94377014027111
 20
14.47139241405377
 30
0.0
 11
17.02883121806929
 21
15.53564552240923
 31
0.0
  0
LINE
  5
E4
330
1F
100
AcDbEntity
  8
0
  6
Continuous
 62
     3
100
AcDbLine
 10
-14.43398806981668
 20
17.35397896894023
 30
0.0
 11
-16.88271728607367
 21
14.61370339632126
 31
0.0
  0
LINE
  5
E5
330
1F
100
AcDbEntity
  8
0
  6
Continuous
 62
     3
100
AcDbLine
 10
-12.60699115703972
 20
17.47139241405377
 30
0.0
 11
-15.1606418404308
 21
14.61370339632125
 31
0.0
  0
LINE
  5
E6
330
1F
100
AcDbEntity
  8
0
  6
Continuous
 62
     3
100
AcDbLine
 10
-15.2499540567585
 20
14.47139241405377
 30
0.0
 11
-16.97202950240137
 21
14.47139241405377
 31
0.0
  0
LINE
  5
E7
330
1F
100
AcDbEntity
  8
0
  6
Continuous
 62
     3
100
AcDbLine
 10
0.46694138777741
 20
11.47139241405377
 30
0.0
 11
-17.00988736471641
 21
11.47139241405377
 31
0.0
  0
LINE
  5
E8
330
1F
100
AcDbEntity
  8
0
  6
Continuous
 62
     3
100
AcDbLine
 10
-4.03305861222259
 20
13.72139241405377
 30
0.0
 11
-12.60699115703972
 21
13.72139241405377
 31
0.0
  0
LINE
  5
E9
330
1F
100
AcDbEntity
  8
0
  6
Continuous
 62
     3
100
AcDbLine
 10
-14.40805861222259
 20
44.39922363040506
 30
0.0
 11
-15.41203806011674
 21
43.81957582590252
 31
0.0
  0
ARC
  5
EA
330
1F
100
AcDbEntity
  8
0
  6
Continuous
 62
     3
100
AcDbCircle
 10
-15.28703806011674
 20
43.60306947495638
 30
0.0
 40
0.25000000000002
100
AcDbArc
 50
119.9999999999973
 51
178.4077602721871
  0
ARC
  5
EB
330
1F
100
AcDbEntity
  8
0
  6
Continuous
 62
     3
100
AcDbCircle
 10
16.83789757125464
 20
13.40725190292897
 30
0.0
 40
0.250000000000008
100
AcDbArc
 50
299.9999999999989
 51
1.592239727803176
  0
ARC
  5
EC
330
1F
100
AcDbEntity
  8
0
  6
Continuous
 62
     3
100
AcDbCircle
 10
16.22092083567156
 20
43.60306947495638
 30
0.0
 40
0.249999999999908
100
AcDbArc
 50
1.592239727813667
 51
60.00000000000272
  0
LINE
  5
ED
330
1F
100
AcDbEntity
  8
0
  6
Continuous
 62
     3
100
AcDbLine
 10
15.21694138777741
 20
44.47139241405375
 30
0.0
 11
16.34592083567156
 21
43.81957582590252
 31
0.0
  0
LINE
  5
EE
330
1F
100
AcDbEntity
  8
0
  6
Continuous
 62
     3
100
AcDbLine
 10
15.21694138777741
 20
44.47139241405375
 30
0.0
 11
15.21694138777741
 21
44.72139241405375
 31
0.0
  0
LINE
  5
EF
330
1F
100
AcDbEntity
  8
0
  6
Continuous
 62
     3
100
AcDbLine
 10
15.71694138777741
 20
12.47139241405377
 30
0.0
 11
16.96289757125464
 21
13.19074555198285
 31
0.0
  0
LINE
  5
F0
330
1F
100
AcDbEntity
  8
0
  6
Continuous
 62
     3
100
AcDbLine
 10
14.83966866050469
 20
44.72139241405375
 30
0.0
 11
14.86163893258106
 21
43.91581577125186
 31
0.0
  0
LINE
  5
F1
330
1F
100
AcDbEntity
  8
0
  6
Continuous
 62
     3
100
AcDbLine
 10
4.966941387777411
 20
13.72139241405377
 30
0.0
 11
15.71694138777741
 21
13.72139241405377
 31
0.0
  0
LINE
  5
F2
330
1F
100
AcDbEntity
  8
0
  6
DASHED
 62
     4
100
AcDbLine
 10
-22.03305861222259
 20
-58.30679699807161
 30
0.0
 11
-17.03305861222259
 21
-58.30679699807161
 31
0.0
  0
LINE
  5
F3
330
1F
100
AcDbEntity
  8
0
  6
DASHED
 62
     3
100
AcDbLine
 10
-22.03305861222259
 20
-57.93704699807162
 30
0.0
 11
-17.03305861222259
 21
-57.93704699807161
 31
0.0
  0
LINE
  5
F4
330
1F
100
AcDbEntity
  8
0
  6
DASHED
 62
     4
100
AcDbLine
 10
-22.03305861222259
 20
-49.99454699807161
 30
0.0
 11
-17.03305861222259
 21
-49.99454699807161
 31
0.0
  0
LINE
  5
F5
330
1F
100
AcDbEntity
  8
0
  6
DASHED
 62
     3
100
AcDbLine
 10
-22.03305861222259
 20
-50.36429699807162
 30
0.0
 11
-17.03305861222259
 21
-50.36429699807161
 31
0.0
  0
LINE
  5
F6
330
1F
100
AcDbEntity
  8
0
  6
DASHED
 62
     4
100
AcDbLine
 10
22.96694138777741
 20
-58.30679699807161
 30
0.0
 11
17.96694138777741
 21
-58.30679699807161
 31
0.0
  0
LINE
  5
F7
330
1F
100
AcDbEntity
  8
0
  6
DASHED
 62
     3
100
AcDbLine
 10
22.96694138777741
 20
-57.93704699807161
 30
0.0
 11
17.96694138777741
 21
-57.93704699807161
 31
0.0
  0
LINE
  5
F8
330
1F
100
AcDbEntity
  8
0
  6
DASHED
 62
     3
100
AcDbLine
 10
22.96694138777741
 20
-50.36429699807161
 30
0.0
 11
17.96694138777741
 21
-50.36429699807161
 31
0.0
  0
LINE
  5
F9
330
1F
100
AcDbEntity
  8
0
  6
DASHED
 62
     4
100
AcDbLine
 10
22.96694138777741
 20
-49.99454699807161
 30
0.0
 11
17.96694138777741
 21
-49.99454699807161
 31
0.0
  0
LINE
  5
FA
330
1F
100
AcDbEntity
  8
0
  6
DASHDOT
 62
     4
100
AcDbLine
 10
-17.21072814188625
 20
-36.47300246840792
 30
0.0
 11
-13.67519423595354
 21
-40.00853637434064
 31
0.0
  0
ARC
  5
FB
330
1F
100
AcDbEntity
  8
0
  6
DASHDOT
 62
     4
100
AcDbCircle
 10
0.46694138777741
 20
-54.15067199807161
 30
0.0
 40
22.5
100
AcDbArc
 50
128.6206297915573
 51
141.3793702084428
  0
CIRCLE
  5
FC
330
1F
100
AcDbEntity
  8
0
  6
Continuous
 62
     3
100
AcDbCircle
 10
-15.44296118891992
 20
-38.24076942137429
 30
0.0
 40
1.25
  0
CIRCLE
  5
FD
330
1F
100
AcDbEntity
  8
0
  6
Continuous
 62
     3
100
AcDbCircle
 10
16.37684396447474
 20
-70.06057457476894
 30
0.0
 40
1.25
  0
ARC
  5
FE
330
1F
100
AcDbEntity
  8
0
  6
DASHDOT
 62
     4
100
AcDbCircle
 10
0.46694138777741
 20
-54.15067199807161
 30
0.0
 40
22.5
100
AcDbArc
 50
308.6206297915573
 51
321.3793702084428
  0
LINE
  5
FF
330
1F
100
AcDbEntity
  8
0
  6
DASHDOT
 62
     4
100
AcDbLine
 10
18.14461091744107
 20
-71.82834152773529
 30
0.0
 11
14.60907701150836
 21
-68.29280762180258
 31
0.0
  0
LINE
  5
100
330
1F
100
AcDbEntity
  8
0
  6
Continuous
 62
     3
100
AcDbLine
 10
-12.80897665957434
 20
-75.7756719980716
 30
0.0
 11
0.46694138777741
 21
-75.7756719980716
 31
0.0
  0
LINE
  5
101
330
1F
100
AcDbEntity
  8
0
  6
Continuous
 62
     3
100
AcDbLine
 10
-7.65805861222259
 20
-74.5256719980716
 30
0.0
 11
-7.65805861222259
 21
-75.7756719980716
 31
0.0
  0
LINE
  5
102
330
1F
100
AcDbEntity
  8
0
  6
Continuous
 62
     3
100
AcDbLine
 10
-12.45106929498638
 20
-74.5256719980716
 30
0.0
 11
-7.65805861222259
 21
-74.5256719980716
 31
0.0
  0
ARC
  5
103
330
1F
100
AcDbEntity
  8
0
  6
Continuous
 62
     3
100
AcDbCircle
 10
0.46694138777741
 20
-54.15067199807161
 30
0.0
 40
24.12499999999995
100
AcDbArc
 50
212.3752202305361
 51
237.6247797694642
  0
LINE
  5
104
330
1F
100
AcDbEntity
  8
0
  6
Continuous
 62
     3
100
AcDbLine
 10
-19.90805861222248
 20
-62.27567199807161
 30
0.0
 11
-19.90805861222248
 21
-67.06868268083551
 31
0.0
  0
ARC
  5
105
330
1F
100
AcDbEntity
  8
0
  6
Continuous
 62
     3
100
AcDbCircle
 10
0.46694138777741
 20
-54.15067199807161
 30
0.0
 40
25.37499999999994
100
AcDbArc
 50
211.5463999537035
 51
238.4536000462967
  0
LINE
  5
106
330
1F
100
AcDbEntity
  8
0
  6
Continuous
 62
     3
100
AcDbLine
 10
-22.03305861222259
 20
-60.40067199807161
 30
0.0
 11
-21.15805861222248
 21
-60.40067199807161
 31
0.0
  0
LINE
  5
107
330
1F
100
AcDbEntity
  8
0
  6
Continuous
 62
     3
100
AcDbLine
 10
-21.15805861222248
 20
-60.40067199807161
 30
0.0
 11
-21.15805861222248
 21
-67.42659004542344
 31
0.0
  0
LINE
  5
108
330
1F
100
AcDbEntity
  8
0
  6
Continuous
 62
     3
100
AcDbLine
 10
-21.15805861222248
 20
-62.27567199807161
 30
0.0
 11
-19.90805861222248
 21
-62.27567199807161
 31
0.0
  0
LINE
  5
109
330
1F
100
AcDbEntity
  8
0
  6
Continuous
 62
     3
100
AcDbLine
 10
-22.03305861222259
 20
-54.15067199807161
 30
0.0
 11
-22.03305861222259
 21
-60.40067199807161
 31
0.0
  0
LINE
  5
10A
330
1F
100
AcDbEntity
  8
0
  6
Continuous
 62
     3
100
AcDbLine
 10
-12.80897665957434
 20
-32.52567199807161
 30
0.0
 11
0.46694138777741
 21
-32.52567199807161
 31
0.0
  0
LINE
  5
10B
330
1F
100
AcDbEntity
  8
0
  6
Continuous
 62
     3
100
AcDbLine
 10
-7.65805861222259
 20
-33.77567199807161
 30
0.0
 11
-7.65805861222259
 21
-32.52567199807161
 31
0.0
  0
LINE
  5
10C
330
1F
100
AcDbEntity
  8
0
  6
Continuous
 62
     3
100
AcDbLine
 10
-12.45106929498638
 20
-33.77567199807161
 30
0.0
 11
-7.65805861222259
 21
-33.77567199807161
 31
0.0
  0
ARC
  5
10D
330
1F
100
AcDbEntity
  8
0
  6
Continuous
 62
     3
100
AcDbCircle
 10
0.46694138777741
 20
-54.15067199807161
 30
0.0
 40
24.12499999999999
100
AcDbArc
 50
122.3752202305358
 51
147.6247797694639
  0
LINE
  5
10E
330
1F
100
AcDbEntity
  8
0
  6
Continuous
 62
     3
100
AcDbLine
 10
-19.90805861222248
 20
-46.02567199807161
 30
0.0
 11
-19.90805861222248
 21
-41.2326613153077
 31
0.0
  0
ARC
  5
10F
330
1F
100
AcDbEntity
  8
0
  6
Continuous
 62
     3
100
AcDbCircle
 10
0.46694138777741
 20
-54.15067199807161
 30
0.0
 40
25.375
100
AcDbArc
 50
121.5463999537033
 51
148.4536000462964
  0
LINE
  5
110
330
1F
100
AcDbEntity
  8
0
  6
Continuous
 62
     3
100
AcDbLine
 10
-22.03305861222259
 20
-47.90067199807161
 30
0.0
 11
-21.15805861222248
 21
-47.90067199807161
 31
0.0
  0
LINE
  5
111
330
1F
100
AcDbEntity
  8
0
  6
Continuous
 62
     3
100
AcDbLine
 10
-21.15805861222248
 20
-47.90067199807161
 30
0.0
 11
-21.15805861222248
 21
-40.87475395071977
 31
0.0
  0
LINE
  5
112
330
1F
100
AcDbEntity
  8
0
  6
Continuous
 62
     3
100
AcDbLine
 10
-21.15805861222248
 20
-46.02567199807161
 30
0.0
 11
-19.90805861222248
 21
-46.02567199807161
 31
0.0
  0
LINE
  5
113
330
1F
100
AcDbEntity
  8
0
  6
Continuous
 62
     3
100
AcDbLine
 10
-22.03305861222259
 20
-54.15067199807161
 30
0.0
 11
-22.03305861222259
 21
-47.90067199807161
 31
0.0
  0
LINE
  5
114
330
1F
100
AcDbEntity
  8
0
  6
Continuous
 62
     3
100
AcDbLine
 10
13.74285943512916
 20
-32.52567199807161
 30
0.0
 11
0.46694138777741
 21
-32.52567199807161
 31
0.0
  0
LINE
  5
115
330
1F
100
AcDbEntity
  8
0
  6
Continuous
 62
     3
100
AcDbLine
 10
8.59194138777741
 20
-33.77567199807161
 30
0.0
 11
8.59194138777741
 21
-32.52567199807161
 31
0.0
  0
LINE
  5
116
330
1F
100
AcDbEntity
  8
0
  6
Continuous
 62
     3
100
AcDbLine
 10
13.3849520705412
 20
-33.77567199807161
 30
0.0
 11
8.59194138777741
 21
-33.77567199807161
 31
0.0
  0
ARC
  5
117
330
1F
100
AcDbEntity
  8
0
  6
Continuous
 62
     3
100
AcDbCircle
 10
0.46694138777741
 20
-54.15067199807161
 30
0.0
 40
24.125
100
AcDbArc
 50
32.37522023053605
 51
57.62477976946425
  0
LINE
  5
118
330
1F
100
AcDbEntity
  8
0
  6
Continuous
 62
     3
100
AcDbLine
 10
20.84194138777735
 20
-46.02567199807161
 30
0.0
 11
20.84194138777735
 21
-41.2326613153077
 31
0.0
  0
ARC
  5
119
330
1F
100
AcDbEntity
  8
0
  6
Continuous
 62
     3
100
AcDbCircle
 10
0.46694138777741
 20
-54.15067199807161
 30
0.0
 40
25.375
100
AcDbArc
 50
31.54639995370353
 51
58.45360004629671
  0
LINE
  5
11A
330
1F
100
AcDbEntity
  8
0
  6
Continuous
 62
     3
100
AcDbLine
 10
22.96694138777741
 20
-47.90067199807161
 30
0.0
 11
22.09194138777735
 21
-47.90067199807161
 31
0.0
  0
LINE
  5
11B
330
1F
100
AcDbEntity
  8
0
  6
Continuous
 62
     3
100
AcDbLine
 10
22.09194138777735
 20
-47.90067199807161
 30
0.0
 11
22.09194138777735
 21
-40.87475395071976
 31
0.0
  0
LINE
  5
11C
330
1F
100
AcDbEntity
  8
0
  6
Continuous
 62
     3
100
AcDbLine
 10
22.09194138777735
 20
-46.02567199807161
 30
0.0
 11
20.84194138777735
 21
-46.02567199807161
 31
0.0
  0
LINE
  5
11D
330
1F
100
AcDbEntity
  8
0
  6
Continuous
 62
     3
100
AcDbLine
 10
22.96694138777741
 20
-54.15067199807161
 30
0.0
 11
22.96694138777741
 21
-47.90067199807161
 31
0.0
  0
LINE
  5
11E
330
1F
100
AcDbEntity
  8
0
  6
Continuous
 62
     3
100
AcDbLine
 10
8.59194138777741
 20
-74.5256719980716
 30
0.0
 11
8.59194138777741
 21
-75.7756719980716
 31
0.0
  0
LINE
  5
11F
330
1F
100
AcDbEntity
  8
0
  6
Continuous
 62
     3
100
AcDbLine
 10
13.3849520705412
 20
-74.5256719980716
 30
0.0
 11
8.59194138777741
 21
-74.5256719980716
 31
0.0
  0
ARC
  5
120
330
1F
100
AcDbEntity
  8
0
  6
Continuous
 62
     3
100
AcDbCircle
 10
0.46694138777741
 20
-54.15067199807161
 30
0.0
 40
24.12499999999998
100
AcDbArc
 50
302.3752202305358
 51
327.624779769464
  0
LINE
  5
121
330
1F
100
AcDbEntity
  8
0
  6
Continuous
 62
     3
100
AcDbLine
 10
20.84194138777735
 20
-62.27567199807161
 30
0.0
 11
20.84194138777735
 21
-67.06868268083551
 31
0.0
  0
LINE
  5
122
330
1F
100
AcDbEntity
  8
0
  6
Continuous
 62
     3
100
AcDbLine
 10
22.09194138777735
 20
-62.27567199807161
 30
0.0
 11
20.84194138777735
 21
-62.27567199807161
 31
0.0
  0
LINE
  5
123
330
1F
100
AcDbEntity
  8
0
  6
Continuous
 62
     3
100
AcDbLine
 10
22.96694138777741
 20
-60.40067199807161
 30
0.0
 11
22.09194138777735
 21
-60.40067199807161
 31
0.0
  0
ARC
  5
124
330
1F
100
AcDbEntity
  8
0
  6
Continuous
 62
     3
100
AcDbCircle
 10
0.46694138777741
 20
-54.15067199807161
 30
0.0
 40
25.37499999999999
100
AcDbArc
 50
301.5463999537033
 51
328.4536000462965
  0
LINE
  5
125
330
1F
100
AcDbEntity
  8
0
  6
Continuous
 62
     3
100
AcDbLine
 10
22.09194138777735
 20
-60.40067199807161
 30
0.0
 11
22.09194138777735
 21
-67.42659004542345
 31
0.0
  0
LINE
  5
126
330
1F
100
AcDbEntity
  8
0
  6
Continuous
 62
     3
100
AcDbLine
 10
13.74285943512916
 20
-75.7756719980716
 30
0.0
 11
0.46694138777741
 21
-75.7756719980716
 31
0.0
  0
LINE
  5
127
330
1F
100
AcDbEntity
  8
0
  6
Continuous
 62
     3
100
AcDbLine
 10
22.96694138777741
 20
-54.15067199807161
 30
0.0
 11
22.96694138777741
 21
-60.40067199807161
 31
0.0
  0
CIRCLE
  5
128
330
1F
100
AcDbEntity
  8
0
  6
Continuous
 62
     3
100
AcDbCircle
 10
0.46694138777741
 20
-34.77567199807169
 30
0.0
 40
0.6875
  0
ARC
  5
129
330
1F
100
AcDbEntity
  8
0
  6
DASHDOT
 62
     4
100
AcDbCircle
 10
0.46694138777741
 20
-54.15067199807167
 30
0.0
 40
19.37499999999998
100
AcDbArc
 50
86.30092893683496
 51
93.69907106316504
  0
LINE
  5
12A
330
1F
100
AcDbEntity
  8
0
  6
DASHDOT
 62
     4
100
AcDbLine
 10
0.46694138777741
 20
-33.52567199807169
 30
0.0
 11
0.46694138777741
 21
-36.02567199807169
 31
0.0
  0
CIRCLE
  5
12B
330
1F
100
AcDbEntity
  8
0
  6
Continuous
 62
     3
100
AcDbCircle
 10
-16.31230081054599
 20
-44.46317199807164
 30
0.0
 40
0.6875
  0
ARC
  5
12C
330
1F
100
AcDbEntity
  8
0
  6
DASHDOT
 62
     4
100
AcDbCircle
 10
0.466941387777467
 20
-54.15067199807167
 30
0.0
 40
19.37499999999998
100
AcDbArc
 50
146.3009289368349
 51
153.6990710631649
  0
LINE
  5
12D
330
1F
100
AcDbEntity
  8
0
  6
DASHDOT
 62
     4
100
AcDbLine
 10
-17.39483256527654
 20
-43.83817199807164
 30
0.0
 11
-15.22976905581544
 21
-45.08817199807164
 31
0.0
  0
CIRCLE
  5
12E
330
1F
100
AcDbEntity
  8
0
  6
Continuous
 62
     3
100
AcDbCircle
 10
-16.31230081054599
 20
-63.83817199807155
 30
0.0
 40
0.6875
  0
ARC
  5
12F
330
1F
100
AcDbEntity
  8
0
  6
DASHDOT
 62
     4
100
AcDbCircle
 10
0.466941387777524
 20
-54.15067199807161
 30
0.0
 40
19.37499999999998
100
AcDbArc
 50
206.3009289368349
 51
213.6990710631649
  0
LINE
  5
130
330
1F
100
AcDbEntity
  8
0
  6
DASHDOT
 62
     4
100
AcDbLine
 10
-17.39483256527654
 20
-64.46317199807154
 30
0.0
 11
-15.22976905581544
 21
-63.21317199807155
 31
0.0
  0
CIRCLE
  5
131
330
1F
100
AcDbEntity
  8
0
  6
Continuous
 62
     3
100
AcDbCircle
 10
0.46694138777741
 20
-73.52567199807149
 30
0.0
 40
0.6875
  0
ARC
  5
132
330
1F
100
AcDbEntity
  8
0
  6
DASHDOT
 62
     4
100
AcDbCircle
 10
0.466941387777467
 20
-54.15067199807155
 30
0.0
 40
19.37499999999991
100
AcDbArc
 50
266.300928936835
 51
273.6990710631649
  0
LINE
  5
133
330
1F
100
AcDbEntity
  8
0
  6
DASHDOT
 62
     4
100
AcDbLine
 10
0.46694138777741
 20
-74.77567199807149
 30
0.0
 11
0.46694138777741
 21
-72.27567199807149
 31
0.0
  0
CIRCLE
  5
134
330
1F
100
AcDbEntity
  8
0
  6
Continuous
 62
     3
100
AcDbCircle
 10
17.24618358610087
 20
-63.83817199807155
 30
0.0
 40
0.6875
  0
ARC
  5
135
330
1F
100
AcDbEntity
  8
0
  6
DASHDOT
 62
     4
100
AcDbCircle
 10
0.46694138777741
 20
-54.15067199807155
 30
0.0
 40
19.3749999999999
100
AcDbArc
 50
326.300928936835
 51
333.699071063165
  0
LINE
  5
136
330
1F
100
AcDbEntity
  8
0
  6
DASHDOT
 62
     4
100
AcDbLine
 10
18.32871534083142
 20
-64.46317199807154
 30
0.0
 11
16.16365183137032
 21
-63.21317199807155
 31
0.0
  0
CIRCLE
  5
137
330
1F
100
AcDbEntity
  8
0
  6
Continuous
 62
     3
100
AcDbCircle
 10
17.24618358610087
 20
-44.46317199807161
 30
0.0
 40
0.6875
  0
ARC
  5
138
330
1F
100
AcDbEntity
  8
0
  6
DASHDOT
 62
     4
100
AcDbCircle
 10
0.466941387777354
 20
-54.15067199807161
 30
0.0
 40
19.37499999999998
100
AcDbArc
 50
26.30092893683499
 51
33.69907106316506
  0
LINE
  5
139
330
1F
100
AcDbEntity
  8
0
  6
DASHDOT
 62
     4
100
AcDbLine
 10
18.32871534083142
 20
-43.83817199807161
 30
0.0
 11
16.16365183137032
 21
-45.08817199807162
 31
0.0
  0
CIRCLE
  5
13A
330
1F
100
AcDbEntity
  8
0
  6
Continuous
 62
     3
100
AcDbCircle
 10
0.46694138777741
 20
-54.15067199807161
 30
0.0
 40
3.125
  0
CIRCLE
  5
13B
330
1F
100
AcDbEntity
  8
0
  6
Continuous
 62
     3
100
AcDbCircle
 10
0.46694138777741
 20
-54.15067199807161
 30
0.0
 40
20.875
  0
LINE
  5
13C
330
1F
100
AcDbEntity
  8
0
  6
DASHDOT
 62
     4
100
AcDbLine
 10
25.79924785496155
 20
-54.15067199807161
 30
0.0
 11
-28.16845032202355
 21
-54.15067199807161
 31
0.0
  0
LINE
  5
13D
330
1F
100
AcDbEntity
  8
0
  6
Continuous
 62
     3
100
AcDbLine
 10
-5.858058612222578
 20
-32.52567199807161
 30
0.0
 11
-5.858058612222578
 21
-30.07567199807195
 31
0.0
  0
LINE
  5
13E
330
1F
100
AcDbEntity
  8
0
  6
Continuous
 62
     3
100
AcDbLine
 10
-6.53305861222259
 20
-32.52567199807161
 30
0.0
 11
-6.53305861222259
 21
-29.70067199807195
 31
0.0
  0
LINE
  5
13F
330
1F
100
AcDbEntity
  8
0
  6
Continuous
 62
     3
100
AcDbLine
 10
-5.78305861222259
 20
-28.95067199807195
 30
0.0
 11
-0.910556343618396
 21
-28.95067199807195
 31
0.0
  0
LINE
  5
140
330
1F
100
AcDbEntity
  8
0
  6
Continuous
 62
     3
100
AcDbLine
 10
-5.358058612222578
 20
-29.57567199807195
 30
0.0
 11
-0.633058612222726
 21
-29.57567199807195
 31
0.0
  0
ARC
  5
141
330
1F
100
AcDbEntity
  8
0
  6
Continuous
 62
     3
100
AcDbCircle
 10
-5.358058612222578
 20
-30.07567199807195
 30
0.0
 40
0.5
100
AcDbArc
 50
90.0
 51
180.0
  0
ARC
  5
142
330
1F
100
AcDbEntity
  8
0
  6
Continuous
 62
     3
100
AcDbCircle
 10
-5.78305861222259
 20
-29.70067199807195
 30
0.0
 40
0.75
100
AcDbArc
 50
90.0
 51
180.0
  0
ARC
  5
143
330
1F
100
AcDbEntity
  8
0
  6
Continuous
 62
     3
100
AcDbCircle
 10
-0.910556343618396
 20
-28.20067199807195
 30
0.0
 40
0.75
100
AcDbArc
 50
270.0
 51
313.53115216738
  0
ARC
  5
144
330
1F
100
AcDbEntity
  8
0
  6
Continuous
 62
     3
100
AcDbCircle
 10
-0.633058612222726
 20
-28.82567199807195
 30
0.0
 40
0.75
100
AcDbArc
 50
270.0
 51
323.1301023541673
  0
ARC
  5
145
330
1F
100
AcDbEntity
  8
0
  6
Continuous
 62
     3
100
AcDbCircle
 10
0.46694138777741
 20
-33.82567199807195
 30
0.0
 40
2.749999999999994
100
AcDbArc
 50
28.21147584122044
 51
151.7885241587796
  0
LINE
  5
146
330
1F
100
AcDbEntity
  8
0
  6
Continuous
 62
     3
100
AcDbLine
 10
6.791941387777399
 20
-32.52567199807161
 30
0.0
 11
6.791941387777399
 21
-30.07567199807195
 31
0.0
  0
LINE
  5
147
330
1F
100
AcDbEntity
  8
0
  6
Continuous
 62
     3
100
AcDbLine
 10
7.466941387777411
 20
-32.52567199807161
 30
0.0
 11
7.466941387777411
 21
-29.70067199807195
 31
0.0
  0
ARC
  5
148
330
1F
100
AcDbEntity
  8
0
  6
Continuous
 62
     3
100
AcDbCircle
 10
6.291941387777399
 20
-30.07567199807195
 30
0.0
 40
0.5
100
AcDbArc
 50
0.0
 51
90.0
  0
ARC
  5
149
330
1F
100
AcDbEntity
  8
0
  6
Continuous
 62
     3
100
AcDbCircle
 10
6.716941387777411
 20
-29.70067199807195
 30
0.0
 40
0.75
100
AcDbArc
 50
0.0
 51
90.0
  0
LINE
  5
14A
330
1F
100
AcDbEntity
  8
0
  6
Continuous
 62
     3
100
AcDbLine
 10
1.919310142605184
 20
-29.02567199807195
 30
0.0
 11
6.716941387777411
 21
-29.02567199807195
 31
0.0
  0
LINE
  5
14B
330
1F
100
AcDbEntity
  8
0
  6
Continuous
 62
     3
100
AcDbLine
 10
1.566941387777604
 20
-29.57567199807195
 30
0.0
 11
6.291941387777399
 21
-29.57567199807195
 31
0.0
  0
ARC
  5
14C
330
1F
100
AcDbEntity
  8
0
  6
Continuous
 62
     3
100
AcDbCircle
 10
1.919310142605411
 20
-28.27567199807195
 30
0.0
 40
0.749999999999975
100
AcDbArc
 50
223.4325365577826
 51
270.0
  0
ARC
  5
14D
330
1F
100
AcDbEntity
  8
0
  6
Continuous
 62
     3
100
AcDbCircle
 10
1.566941387777604
 20
-28.82567199807195
 30
0.0
 40
0.749999999999989
100
AcDbArc
 50
216.8698976458327
 51
270.0
  0
ARC
  5
14E
330
1F
100
AcDbEntity
  8
0
  6
Continuous
 62
     3
100
AcDbCircle
 10
0.46694138777741
 20
-29.65067199807172
 30
0.0
 40
1.250000000000023
100
AcDbArc
 50
43.43253655777937
 51
133.5311521673823
  0
ARC
  5
14F
330
1F
100
AcDbEntity
  8
0
  6
Continuous
 62
     3
100
AcDbCircle
 10
0.46694138777741
 20
-29.65067199807172
 30
0.0
 40
0.625000000000027
100
AcDbArc
 50
36.86989764582995
 51
143.1301023541669
  0
ARC
  5
150
330
1F
100
AcDbEntity
  8
0
  6
Continuous
 62
     3
100
AcDbCircle
 10
0.46694138777741
 20
-54.15067199807161
 30
0.0
 40
13.125
100
AcDbArc
 50
90.19544639795383
 51
90.0
  0
ARC
  5
151
330
1F
100
AcDbEntity
  8
0
  6
Continuous
 62
     3
100
AcDbCircle
 10
0.46694138777741
 20
-54.15067199807161
 30
0.0
 40
10.625
100
AcDbArc
 50
90.35819024409105
 51
90.0
  0
LINE
  5
152
330
1F
100
AcDbEntity
  8
0
  6
DASHDOT
 62
     4
100
AcDbLine
 10
0.46694138777741
 20
-26.46758776938673
 30
0.0
 11
0.46694138777741
 21
-77.300608163016
 31
0.0
  0
ARC
  5
153
330
1F
100
AcDbEntity
  8
1
  6
DASHDOT
 62
     4
100
AcDbCircle
 10
-223.9967593204506
 20
18.48171888176921
 30
0.0
 40
22.0
100
AcDbArc
 50
38.30878983300038
 51
51.60799951167646
  0
ENDSEC
  0
SECTION
  2
OBJECTS
  0
DICTIONARY
  5
C
330
0
100
AcDbDictionary
281
     1
  3
ACAD_COLOR
350
6C
  3
ACAD_GROUP
350
D
  3
ACAD_LAYOUT
350
1A
  3
ACAD_MATERIAL
350
6B
  3
ACAD_MLINESTYLE
350
17
  3
ACAD_PLOTSETTINGS
350
19
  3
ACAD_PLOTSTYLENAME
350
E
  3
ACAD_TABLESTYLE
350
92
  3
AcDbVariableDictionary
350
59
  0
DICTIONARY
  5
6C
102
{ACAD_REACTORS
330
C
102
}
330
C
100
AcDbDictionary
281
     1
  0
DICTIONARY
  5
D
102
{ACAD_REACTORS
330
C
102
}
330
C
100
AcDbDictionary
281
     1
  0
DICTIONARY
  5
1A
102
{ACAD_REACTORS
330
C
102
}
330
C
100
AcDbDictionary
281
     1
  3
Layout1
350
74
  3
Model
350
22
  0
DICTIONARY
  5
6B
102
{ACAD_REACTORS
330
C
102
}
330
C
100
AcDbDictionary
281
     1
  0
DICTIONARY
  5
17
102
{ACAD_REACTORS
330
C
102
}
330
C
100
AcDbDictionary
281
     1
  3
Standard
350
18
  0
DICTIONARY
  5
19
102
{ACAD_REACTORS
330
C
102
}
330
C
100
AcDbDictionary
281
     1
  0
ACDBDICTIONARYWDFLT
  5
E
102
{ACAD_REACTORS
330
C
102
}
330
C
100
AcDbDictionary
281
     1
  3
Normal
350
F
100
AcDbDictionaryWithDefault
340
F
  0
DICTIONARY
  5
92
102
{ACAD_REACTORS
330
C
102
}
330
C
100
AcDbDictionary
281
     1
  3
Standard
350
93
  0
DICTIONARY
  5
59
102
{ACAD_REACTORS
330
C
102
}
330
C
100
AcDbDictionary
281
     1
  3
CTABLESTYLE
350
98
  3
HIDETEXT
350
15A
  0
LAYOUT
  5
74
102
{ACAD_REACTORS
330
1A
102
}
330
1A
100
AcDbPlotSettings
  1

  2
指定なし
  4

  6

 40
0.0
 41
0.0
 42
0.0
 43
0.0
 44
0.0
 45
0.0
 46
0.0
 47
0.0
 48
0.0
 49
0.0
140
0.0
141
0.0
142
1.0
143
1.0
 70
   688
 72
     0
 73
     0
 74
     5
  7

 75
    16
 76
     0
 77
     2
 78
   300
147
1.0
148
0.0
149
0.0
100
AcDbLayout
  1
Layout1
 70
     1
 71
     1
 10
0.0
 20
0.0
 11
12.0
 21
9.0
 12
0.0
 22
0.0
 32
0.0
 14
1.000000000000000E+20
 24
1.000000000000000E+20
 34
1.000000000000000E+20
 15
-1.000000000000000E+20
 25
-1.000000000000000E+20
 35
-1.000000000000000E+20
146
0.0
 13
0.0
 23
0.0
 33
0.0
 16
1.0
 26
0.0
 36
0.0
 17
0.0
 27
1.0
 37
0.0
 76
     0
330
73
  0
LAYOUT
  5
22
102
{ACAD_REACTORS
330
1A
102
}
330
1A
100
AcDbPlotSettings
  1

  2
指定なし
  4

  6

 40
0.0
 41
0.0
 42
0.0
 43
0.0
 44
0.0
 45
0.0
 46
0.0
 47
0.0
 48
0.0
 49
0.0
140
0.0
141
0.0
142
1.0
143
1.0
 70
 11952
 72
     0
 73
     0
 74
     0
  7

 75
     0
 76
     0
 77
     2
 78
   300
147
1.0
148
0.0
149
0.0
100
AcDbLayout
  1
Model
 70
     1
 71
     0
 10
0.0
 20
0.0
 11
12.0
 21
9.0
 12
0.0
 22
0.0
 32
0.0
 14
-28.16845032202355
 24
-77.300608163016
 34
0.0
 15
25.79924785496155
 25
59.00593448781871
 35
0.0
146
0.0
 13
0.0
 23
0.0
 33
0.0
 16
1.0
 26
0.0
 36
0.0
 17
0.0
 27
1.0
 37
0.0
 76
     0
330
1F
  0
MLINESTYLE
  5
18
102
{ACAD_REACTORS
330
17
102
}
330
17
100
AcDbMlineStyle
  2
Standard
 70
     0
  3

 62
   256
 51
90.0
 52
90.0
 71
     2
 49
0.5
 62
   256
  6
BYLAYER
 49
-0.5
 62
   256
  6
BYLAYER
  0
ACDBPLACEHOLDER
  5
F
102
{ACAD_REACTORS
330
E
102
}
330
E
  0
TABLESTYLE
  5
93
102
{ACAD_REACTORS
330
92
102
}
330
92
100
AcDbTableStyle
  3
Standard
 70
     0
 71
     0
 40
0.06
 41
0.06
280
     0
281
     0
  7
Standard
140
0.18
170
     2
 62
     0
 63
     7
283
     0
274
    -2
284
     1
 64
     0
275
    -2
285
     1
 65
     0
276
    -2
286
     1
 66
     0
277
    -2
287
     1
 67
     0
278
    -2
288
     1
 68
     0
279
    -2
289
     1
 69
     0
  7
Standard
140
0.25
170
     5
 62
     0
 63
     7
283
     0
274
    -2
284
     1
 64
     0
275
    -2
285
     1
 65
     0
276
    -2
286
     1
 66
     0
277
    -2
287
     1
 67
     0
278
    -2
288
     1
 68
     0
279
    -2
289
     1
 69
     0
  7
Standard
140
0.18
170
     5
 62
     0
 63
     7
283
     0
274
    -2
284
     1
 64
     0
275
    -2
285
     1
 65
     0
276
    -2
286
     1
 66
     0
277
    -2
287
     1
 67
     0
278
    -2
288
     1
 68
     0
279
    -2
289
     1
 69
     0
  0
DICTIONARYVAR
  5
98
102
{ACAD_REACTORS
330
59
102
}
330
59
100
DictionaryVariables
280
     0
  1
STANDARD
  0
DICTIONARYVAR
  5
15A
102
{ACAD_REACTORS
330
59
102
}
330
59
100
DictionaryVariables
280
     0
  1
2
  0
ENDSEC
  0
EOF
