  0
SECTION
  2
HEADER
  9
$ACADVER
  1
AC1018
  9
$ACADMAINTVER
 70
    39
  9
$DWGCODEPAGE
  3
ANSI_932
  9
$LASTSAVEDBY
  1
fottrem
  9
$INSBASE
 10
0.0
 20
0.0
 30
0.0
  9
$EXTMIN
 10
-102.8788439830244
 20
-392.2241129892407
 30
0.0
  9
$EXTMAX
 10
113.6811022687677
 20
372.3128154577178
 30
0.0
  9
$LIMMIN
 10
0.0
 20
0.0
  9
$LIMMAX
 10
12.0
 20
9.0
  9
$ORTHOMODE
 70
     0
  9
$REGENMODE
 70
     1
  9
$FILLMODE
 70
     1
  9
$QTEXTMODE
 70
     0
  9
$MIRRTEXT
 70
     1
  9
$LTSCALE
 40
1.0
  9
$ATTMODE
 70
     1
  9
$TEXTSIZE
 40
3.200000047683716
  9
$TRACEWID
 40
0.05
  9
$TEXTSTYLE
  7
STANDARD1
  9
$CLAYER
  8
0
  9
$CELTYPE
  6
ByBlock
  9
$CECOLOR
 62
   256
  9
$CELTSCALE
 40
1.0
  9
$DISPSILH
 70
     0
  9
$DIMSCALE
 40
1.0
  9
$DIMASZ
 40
1.931851648807023
  9
$DIMEXO
 40
1.0
  9
$DIMDLI
 40
0.38
  9
$DIMRND
 40
0.0
  9
$DIMDLE
 40
0.0
  9
$DIMEXE
 40
2.0
  9
$DIMTP
 40
0.0
  9
$DIMTM
 40
0.0
  9
$DIMTXT
 40
3.200000047683716
  9
$DIMCEN
 40
0.09
  9
$DIMTSZ
 40
0.0
  9
$DIMTOL
 70
     0
  9
$DIMLIM
 70
     0
  9
$DIMTIH
 70
     1
  9
$DIMTOH
 70
     1
  9
$DIMSE1
 70
     0
  9
$DIMSE2
 70
     0
  9
$DIMTAD
 70
     1
  9
$DIMZIN
 70
     0
  9
$DIMBLK
  1

  9
$DIMASO
 70
     1
  9
$DIMSHO
 70
     1
  9
$DIMPOST
  1

  9
$DIMAPOST
  1

  9
$DIMALT
 70
     0
  9
$DIMALTD
 70
     2
  9
$DIMALTF
 40
25.4
  9
$DIMLFAC
 40
1.0
  9
$DIMTOFL
 70
     0
  9
$DIMTVP
 40
0.0
  9
$DIMTIX
 70
     0
  9
$DIMSOXD
 70
     0
  9
$DIMSAH
 70
     0
  9
$DIMBLK1
  1

  9
$DIMBLK2
  1

  9
$DIMSTYLE
  2
Standard
  9
$DIMCLRD
 70
     0
  9
$DIMCLRE
 70
     0
  9
$DIMCLRT
 70
     0
  9
$DIMTFAC
 40
0.714285731315613
  9
$DIMGAP
 40
0.09
  9
$DIMJUST
 70
     0
  9
$DIMSD1
 70
     0
  9
$DIMSD2
 70
     0
  9
$DIMTOLJ
 70
     1
  9
$DIMTZIN
 70
     0
  9
$DIMALTZ
 70
     0
  9
$DIMALTTZ
 70
     0
  9
$DIMUPT
 70
     0
  9
$DIMDEC
 70
     4
  9
$DIMTDEC
 70
     4
  9
$DIMALTU
 70
     2
  9
$DIMALTTD
 70
     2
  9
$DIMTXSTY
  7
Standard
  9
$DIMAUNIT
 70
     0
  9
$DIMADEC
 70
     0
  9
$DIMALTRND
 40
0.0
  9
$DIMAZIN
 70
     0
  9
$DIMDSEP
 70
    46
  9
$DIMATFIT
 70
     3
  9
$DIMFRAC
 70
     0
  9
$DIMLDRBLK
  1

  9
$DIMLUNIT
 70
     2
  9
$DIMLWD
 70
    -2
  9
$DIMLWE
 70
    -2
  9
$DIMTMOVE
 70
     0
  9
$LUNITS
 70
     2
  9
$LUPREC
 70
     3
  9
$SKETCHINC
 40
0.1
  9
$FILLETRAD
 40
0.5
  9
$AUNITS
 70
     0
  9
$AUPREC
 70
     0
  9
$MENU
  1
.
  9
$ELEVATION
 40
0.0
  9
$PELEVATION
 40
0.0
  9
$THICKNESS
 40
0.0
  9
$LIMCHECK
 70
     0
  9
$CHAMFERA
 40
0.5
  9
$CHAMFERB
 40
0.5
  9
$CHAMFERC
 40
1.0
  9
$CHAMFERD
 40
0.0
  9
$SKPOLY
 70
     0
  9
$TDCREATE
 40
2453354.092125822
  9
$TDUCREATE
 40
2453353.717125822
  9
$TDUPDATE
 40
2456118.582350625
  9
$TDUUPDATE
 40
2456118.207350625
  9
$TDINDWG
 40
0.0425115856
  9
$TDUSRTIMER
 40
0.0425115856
  9
$USRTIMER
 70
     1
  9
$ANGBASE
 50
0.0
  9
$ANGDIR
 70
     0
  9
$PDMODE
 70
     0
  9
$PDSIZE
 40
0.0
  9
$PLINEWID
 40
0.0
  9
$SPLFRAME
 70
     0
  9
$SPLINETYPE
 70
     6
  9
$SPLINESEGS
 70
     8
  9
$HANDSEED
  5
196
  9
$SURFTAB1
 70
     6
  9
$SURFTAB2
 70
     6
  9
$SURFTYPE
 70
     6
  9
$SURFU
 70
     6
  9
$SURFV
 70
     6
  9
$UCSBASE
  2

  9
$UCSNAME
  2

  9
$UCSORG
 10
0.0
 20
0.0
 30
0.0
  9
$UCSXDIR
 10
1.0
 20
0.0
 30
0.0
  9
$UCSYDIR
 10
0.0
 20
1.0
 30
0.0
  9
$UCSORTHOREF
  2

  9
$UCSORTHOVIEW
 70
     0
  9
$UCSORGTOP
 10
0.0
 20
0.0
 30
0.0
  9
$UCSORGBOTTOM
 10
0.0
 20
0.0
 30
0.0
  9
$UCSORGLEFT
 10
0.0
 20
0.0
 30
0.0
  9
$UCSORGRIGHT
 10
0.0
 20
0.0
 30
0.0
  9
$UCSORGFRONT
 10
0.0
 20
0.0
 30
0.0
  9
$UCSORGBACK
 10
0.0
 20
0.0
 30
0.0
  9
$PUCSBASE
  2

  9
$PUCSNAME
  2

  9
$PUCSORG
 10
0.0
 20
0.0
 30
0.0
  9
$PUCSXDIR
 10
1.0
 20
0.0
 30
0.0
  9
$PUCSYDIR
 10
0.0
 20
1.0
 30
0.0
  9
$PUCSORTHOREF
  2

  9
$PUCSORTHOVIEW
 70
     0
  9
$PUCSORGTOP
 10
0.0
 20
0.0
 30
0.0
  9
$PUCSORGBOTTOM
 10
0.0
 20
0.0
 30
0.0
  9
$PUCSORGLEFT
 10
0.0
 20
0.0
 30
0.0
  9
$PUCSORGRIGHT
 10
0.0
 20
0.0
 30
0.0
  9
$PUCSORGFRONT
 10
0.0
 20
0.0
 30
0.0
  9
$PUCSORGBACK
 10
0.0
 20
0.0
 30
0.0
  9
$USERI1
 70
     0
  9
$USERI2
 70
     0
  9
$USERI3
 70
     0
  9
$USERI4
 70
     0
  9
$USERI5
 70
     0
  9
$USERR1
 40
0.0
  9
$USERR2
 40
0.0
  9
$USERR3
 40
0.0
  9
$USERR4
 40
0.0
  9
$USERR5
 40
0.0
  9
$WORLDVIEW
 70
     1
  9
$SHADEDGE
 70
     3
  9
$SHADEDIF
 70
    70
  9
$TILEMODE
 70
     1
  9
$MAXACTVP
 70
    64
  9
$PINSBASE
 10
0.0
 20
0.0
 30
0.0
  9
$PLIMCHECK
 70
     0
  9
$PEXTMIN
 10
1.000000000000000E+20
 20
1.000000000000000E+20
 30
1.000000000000000E+20
  9
$PEXTMAX
 10
-1.000000000000000E+20
 20
-1.000000000000000E+20
 30
-1.000000000000000E+20
  9
$PLIMMIN
 10
0.0
 20
0.0
  9
$PLIMMAX
 10
12.0
 20
9.0
  9
$UNITMODE
 70
     0
  9
$VISRETAIN
 70
     1
  9
$PLINEGEN
 70
     0
  9
$PSLTSCALE
 70
     1
  9
$TREEDEPTH
 70
  3020
  9
$CMLSTYLE
  2
Standard
  9
$CMLJUST
 70
     0
  9
$CMLSCALE
 40
1.0
  9
$PROXYGRAPHICS
 70
     1
  9
$MEASUREMENT
 70
     0
  9
$CELWEIGHT
370
    -1
  9
$ENDCAPS
280
     0
  9
$JOINSTYLE
280
     0
  9
$LWDISPLAY
290
     0
  9
$INSUNITS
 70
     0
  9
$HYPERLINKBASE
  1

  9
$STYLESHEET
  1

  9
$XEDIT
290
     0
  9
$CEPSNTYPE
380
     0
  9
$PSTYLEMODE
290
     1
  9
$FINGERPRINTGUID
  2
{85877D76-3AAA-45B8-A022-7407753FB7FB}
  9
$VERSIONGUID
  2
{FAEB1C32-E019-11D5-929B-00C0DF256EC4}
  9
$EXTNAMES
290
     1
  9
$PSVPSCALE
 40
0.0
  9
$OLESTARTUP
290
     0
  9
$SORTENTS
280
   127
  9
$INDEXCTL
280
     0
  9
$HIDETEXT
280
     1
  9
$XCLIPFRAME
290
     0
  9
$HALOGAP
280
     0
  9
$OBSCOLOR
 70
   257
  9
$OBSLTYPE
280
     0
  9
$INTERSECTIONDISPLAY
280
     0
  9
$INTERSECTIONCOLOR
 70
   257
  9
$DIMASSOC
280
     2
  9
$PROJECTNAME
  1

  0
ENDSEC
  0
SECTION
  2
CLASSES
  0
CLASS
  1
ACDBDICTIONARYWDFLT
  2
AcDbDictionaryWithDefault
  3
ObjectDBX Classes
 90
        0
 91
        3
280
     0
281
     0
  0
CLASS
  1
ACDBPLACEHOLDER
  2
AcDbPlaceHolder
  3
ObjectDBX Classes
 90
        0
 91
        1
280
     0
281
     0
  0
CLASS
  1
LAYOUT
  2
AcDbLayout
  3
ObjectDBX Classes
 90
        0
 91
        1
280
     0
281
     0
  0
CLASS
  1
DICTIONARYVAR
  2
AcDbDictionaryVar
  3
ObjectDBX Classes
 90
        0
 91
        3
280
     0
281
     0
  0
CLASS
  1
TABLESTYLE
  2
AcDbTableStyle
  3
ObjectDBX Classes
 90
     2047
 91
        3
280
     0
281
     0
  0
ENDSEC
  0
SECTION
  2
TABLES
  0
TABLE
  2
VPORT
  5
8
330
0
100
AcDbSymbolTable
 70
     2
  0
VPORT
  5
97
330
8
100
AcDbSymbolTableRecord
100
AcDbViewportTableRecord
  2
*Active
 70
     0
 10
0.0
 20
0.0
 11
1.0
 21
1.0
 12
5.401129142871696
 22
-9.955648765761481
 13
0.0
 23
0.0
 14
0.5
 24
0.5
 15
0.5
 25
0.5
 16
0.0
 26
0.0
 36
1.0
 17
0.0
 27
0.0
 37
0.0
 40
779.8276670158976
 41
1.972972972850329
 42
50.0
 43
0.0
 44
0.0
 50
0.0
 51
0.0
 71
    16
 72
   100
 73
     1
 74
     1
 75
     0
 76
     0
 77
     0
 78
     0
281
     0
 65
     0
110
0.0
120
0.0
130
0.0
111
1.0
121
0.0
131
0.0
112
0.0
122
1.0
132
0.0
 79
     0
146
0.0
  0
ENDTAB
  0
TABLE
  2
LTYPE
  5
5
330
0
100
AcDbSymbolTable
 70
     4
  0
LTYPE
  5
14
330
5
100
AcDbSymbolTableRecord
100
AcDbLinetypeTableRecord
  2
ByBlock
 70
     0
  3

 72
    65
 73
     0
 40
0.0
  0
LTYPE
  5
15
330
5
100
AcDbSymbolTableRecord
100
AcDbLinetypeTableRecord
  2
ByLayer
 70
     0
  3

 72
    65
 73
     0
 40
0.0
  0
LTYPE
  5
16
330
5
100
AcDbSymbolTableRecord
100
AcDbLinetypeTableRecord
  2
Continuous
 70
     0
  3
Solid line
 72
    65
 73
     0
 40
0.0
  0
LTYPE
  5
186
330
5
100
AcDbSymbolTableRecord
100
AcDbLinetypeTableRecord
  2
DASHED
 70
     0
  3
-- -- -- -- -- -- -- -- -- -- -- -- -- -- --
 72
    65
 73
     2
 40
0.75
 49
0.5
 74
     4
 75
     0
340
0
 46
1.0
 50
0.0
 44
0.0
 45
0.0
 49
-0.25
 74
     4
 75
     0
340
0
 46
1.0
 50
0.0
 44
0.0
 45
0.0
  0
LTYPE
  5
187
330
5
100
AcDbSymbolTableRecord
100
AcDbLinetypeTableRecord
  2
DASHDOT
 70
     0
  3
__ . __ . __ . __ . __ . __ . __ . __ . __ . __
 72
    65
 73
     4
 40
1.0
 49
0.5
 74
     4
 75
     0
340
0
 46
1.0
 50
0.0
 44
0.0
 45
0.0
 49
-0.25
 74
     4
 75
     0
340
0
 46
1.0
 50
0.0
 44
0.0
 45
0.0
 49
0.0
 74
     4
 75
     0
340
0
 46
1.0
 50
0.0
 44
0.0
 45
0.0
 49
-0.25
 74
     4
 75
     0
340
0
 46
1.0
 50
0.0
 44
0.0
 45
0.0
  0
LTYPE
  5
188
330
5
100
AcDbSymbolTableRecord
100
AcDbLinetypeTableRecord
  2
DIVIDE
 70
     0
  3
__ . . __ . . __ . . __ . . __ . . __ . . __
 72
    65
 73
     6
 40
1.25
 49
0.5
 74
     4
 75
     0
340
0
 46
1.0
 50
0.0
 44
0.0
 45
0.0
 49
-0.25
 74
     4
 75
     0
340
0
 46
1.0
 50
0.0
 44
0.0
 45
0.0
 49
0.0
 74
     4
 75
     0
340
0
 46
1.0
 50
0.0
 44
0.0
 45
0.0
 49
-0.25
 74
     4
 75
     0
340
0
 46
1.0
 50
0.0
 44
0.0
 45
0.0
 49
0.0
 74
     4
 75
     0
340
0
 46
1.0
 50
0.0
 44
0.0
 45
0.0
 49
-0.25
 74
     4
 75
     0
340
0
 46
1.0
 50
0.0
 44
0.0
 45
0.0
  0
ENDTAB
  0
TABLE
  2
LAYER
  5
2
330
0
100
AcDbSymbolTable
 70
     2
  0
LAYER
  5
10
330
2
100
AcDbSymbolTableRecord
100
AcDbLayerTableRecord
  2
0
 70
     0
 62
     3
  6
Continuous
370
    -3
390
F
  0
LAYER
  5
25
330
2
100
AcDbSymbolTableRecord
100
AcDbLayerTableRecord
  2
1
 70
     0
 62
    -7
  6
Continuous
370
    -3
390
F
  0
ENDTAB
  0
TABLE
  2
STYLE
  5
3
330
0
100
AcDbSymbolTable
 70
     5
  0
STYLE
  5
11
330
3
100
AcDbSymbolTableRecord
100
AcDbTextStyleTableRecord
  2
Standard
 70
     0
 40
0.0
 41
1.0
 50
0.0
 71
     0
 42
0.2
  3
txt
  4

  0
STYLE
  5
26
330
3
100
AcDbSymbolTableRecord
100
AcDbTextStyleTableRecord
  2
STANDARD1
 70
     0
 40
0.0
 41
1.0
 50
0.0
 71
     0
 42
3.200000047683716
  3
MONOTXT
  4
BIGFONT
  0
STYLE
  5
185
330
3
100
AcDbSymbolTableRecord
100
AcDbTextStyleTableRecord
  2
STANDARD2
 70
     4
 40
0.0
 41
1.0
 50
0.0
 71
     0
 42
3.200000047683716
  3
MONOTXT
  4
BIGFONT
  0
STYLE
  5
28
330
3
100
AcDbSymbolTableRecord
100
AcDbTextStyleTableRecord
  2
STANDARD3
 70
     0
 40
0.0
 41
1.0
 50
0.0
 71
     0
 42
3.200000047683716
  3
MONOTXT
  4

  0
STYLE
  5
29
330
3
100
AcDbSymbolTableRecord
100
AcDbTextStyleTableRecord
  2
STANDARD4
 70
     4
 40
0.0
 41
1.0
 50
0.0
 71
     0
 42
3.200000047683716
  3
MONOTXT
  4

  0
ENDTAB
  0
TABLE
  2
VIEW
  5
6
330
0
100
AcDbSymbolTable
 70
     0
  0
ENDTAB
  0
TABLE
  2
UCS
  5
7
330
0
100
AcDbSymbolTable
 70
     0
  0
ENDTAB
  0
TABLE
  2
APPID
  5
9
330
0
100
AcDbSymbolTable
 70
     1
  0
APPID
  5
12
330
9
100
AcDbSymbolTableRecord
100
AcDbRegAppTableRecord
  2
ACAD
 70
     0
  0
ENDTAB
  0
TABLE
  2
DIMSTYLE
  5
A
330
0
100
AcDbSymbolTable
 70
     1
100
AcDbDimStyleTable
  0
DIMSTYLE
105
27
330
A
100
AcDbSymbolTableRecord
100
AcDbDimStyleTableRecord
  2
Standard
 70
     0
340
11
  0
ENDTAB
  0
TABLE
  2
BLOCK_RECORD
  5
1
330
0
100
AcDbSymbolTable
 70
     0
  0
BLOCK_RECORD
  5
1F
330
1
100
AcDbSymbolTableRecord
100
AcDbBlockTableRecord
  2
*Model_Space
340
22
  0
BLOCK_RECORD
  5
73
330
1
100
AcDbSymbolTableRecord
100
AcDbBlockTableRecord
  2
*Paper_Space
340
74
  0
ENDTAB
  0
ENDSEC
  0
SECTION
  2
BLOCKS
  0
BLOCK
  5
20
330
1F
100
AcDbEntity
  8
0
100
AcDbBlockBegin
  2
*Model_Space
 70
     0
 71
     0
 10
0.0
 20
0.0
 30
0.0
  3
*Model_Space
  1

  0
ENDBLK
  5
21
330
1F
100
AcDbEntity
  8
0
100
AcDbBlockEnd
  0
BLOCK
  5
75
330
73
100
AcDbEntity
 67
     1
  8
0
100
AcDbBlockBegin
  2
*Paper_Space
 70
     0
 71
     0
 10
0.0
 20
0.0
 30
0.0
  3
*Paper_Space
  1

  0
ENDBLK
  5
76
330
73
100
AcDbEntity
 67
     1
  8
0
100
AcDbBlockEnd
  0
ENDSEC
  0
SECTION
  2
ENTITIES
  0
ARC
  5
2B
330
1F
100
AcDbEntity
  8
0
  6
DASHED
 62
     3
100
AcDbCircle
 10
21.93404010716768
 20
274.3042887738437
 30
0.0
 40
1.0
100
AcDbArc
 50
270.0
 51
0.0
  0
ARC
  5
2C
330
1F
100
AcDbEntity
  8
0
  6
DASHED
 62
     3
100
AcDbCircle
 10
21.93404010716768
 20
312.3042887738437
 30
0.0
 40
1.0
100
AcDbArc
 50
0.0
 51
90.0
  0
LINE
  5
2D
330
1F
100
AcDbEntity
  8
0
  6
DASHED
 62
     3
100
AcDbLine
 10
22.93404010716768
 20
274.3042887738437
 30
0.0
 11
22.93404010716768
 21
312.3042887738437
 31
0.0
  0
LINE
  5
2E
330
1F
100
AcDbEntity
  8
0
  6
DASHED
 62
     3
100
AcDbLine
 10
21.93404010716768
 20
273.3042887738433
 30
0.0
 11
-41.06595989283232
 21
273.3042887738437
 31
0.0
  0
ARC
  5
2F
330
1F
100
AcDbEntity
  8
0
  6
DASHED
 62
     3
100
AcDbCircle
 10
-41.06595989283232
 20
274.3042887738437
 30
0.0
 40
1.0
100
AcDbArc
 50
180.0
 51
270.0
  0
LINE
  5
30
330
1F
100
AcDbEntity
  8
0
  6
DASHED
 62
     3
100
AcDbLine
 10
-41.06595989283232
 20
313.3042887738437
 30
0.0
 11
21.93404010716768
 21
313.3042887738437
 31
0.0
  0
ARC
  5
31
330
1F
100
AcDbEntity
  8
0
  6
DASHED
 62
     3
100
AcDbCircle
 10
-41.06595989283232
 20
312.3042887738437
 30
0.0
 40
1.0
100
AcDbArc
 50
90.0
 51
180.0
  0
LINE
  5
32
330
1F
100
AcDbEntity
  8
0
  6
DASHED
 62
     3
100
AcDbLine
 10
-42.06595989283232
 20
274.3042887738437
 30
0.0
 11
-42.06595989283232
 21
312.3042887738437
 31
0.0
  0
LINE
  5
33
330
1F
100
AcDbEntity
  8
0
  6
DASHDOT
 62
     4
100
AcDbLine
 10
-64.82543715716315
 20
183.3042887738435
 30
0.0
 11
-93.55426175429136
 21
183.3042887738435
 31
0.0
  0
ARC
  5
34
330
1F
100
AcDbEntity
  8
0
  6
Continuous
 62
     3
100
AcDbCircle
 10
-85.73888189971467
 20
206.3042887738435
 30
0.0
 40
2.0
100
AcDbArc
 50
90.0
 51
180.0
  0
LINE
  5
35
330
1F
100
AcDbEntity
  8
0
  6
Continuous
 62
     3
100
AcDbLine
 10
-87.73888189971467
 20
160.3042887738435
 30
0.0
 11
-87.73888189971467
 21
206.3042887738435
 31
0.0
  0
ARC
  5
36
330
1F
100
AcDbEntity
  8
0
  6
Continuous
 62
     3
100
AcDbCircle
 10
-85.73888189971467
 20
160.3042887738435
 30
0.0
 40
2.0
100
AcDbArc
 50
180.0
 51
270.0
  0
LINE
  5
37
330
1F
100
AcDbEntity
  8
0
  6
DASHED
 62
     3
100
AcDbLine
 10
-70.23888189971467
 20
198.5542887738435
 30
0.0
 11
-87.73888189971467
 21
198.5542887738435
 31
0.0
  0
LINE
  5
38
330
1F
100
AcDbEntity
  8
0
  6
DASHED
 62
     3
100
AcDbLine
 10
-70.23888189971467
 20
199.9287887738435
 30
0.0
 11
-87.73888189971467
 21
199.9287887738435
 31
0.0
  0
LINE
  5
39
330
1F
100
AcDbEntity
  8
0
  6
DASHED
 62
     3
100
AcDbLine
 10
-70.23888189971467
 20
168.0542887738435
 30
0.0
 11
-87.73888189971467
 21
168.0542887738435
 31
0.0
  0
LINE
  5
3A
330
1F
100
AcDbEntity
  8
0
  6
DASHED
 62
     3
100
AcDbLine
 10
-70.23888189971467
 20
166.6797887738435
 30
0.0
 11
-87.73888189971467
 21
166.6797887738435
 31
0.0
  0
LINE
  5
3B
330
1F
100
AcDbEntity
  8
0
  6
Continuous
 62
     3
100
AcDbLine
 10
-57.64619690968971
 20
208.3042887738435
 30
0.0
 11
-85.73888189971467
 21
208.3042887738435
 31
0.0
  0
LINE
  5
3C
330
1F
100
AcDbEntity
  8
0
  6
Continuous
 62
     3
100
AcDbLine
 10
-70.23888189971467
 20
158.3042887738435
 30
0.0
 11
-85.73888189971467
 21
158.3042887738435
 31
0.0
  0
ARC
  5
3D
330
1F
100
AcDbEntity
  8
0
  6
Continuous
 62
     3
100
AcDbCircle
 10
12.26111810028533
 20
-295.914848992314
 30
0.0
 40
50.0
100
AcDbArc
 50
180.0
 51
90.0
  0
ARC
  5
3E
330
1F
100
AcDbEntity
  8
0
  6
Continuous
 62
     3
100
AcDbCircle
 10
12.26111810028533
 20
-295.914848992314
 30
0.0
 40
37.5
100
AcDbArc
 50
180.0
 51
90.0
  0
ARC
  5
3F
330
1F
100
AcDbEntity
  8
0
  6
DASHDOT
 62
     4
100
AcDbCircle
 10
12.26111810028533
 20
-295.914848992314
 30
0.0
 40
69.0
100
AcDbArc
 50
332.5482332258316
 51
352.074653630698
  0
ARC
  5
40
330
1F
100
AcDbEntity
  8
0
  6
DASHDOT
 62
     4
100
AcDbCircle
 10
12.26111810028533
 20
-295.914848992314
 30
0.0
 40
69.00000000000003
100
AcDbArc
 50
260.1680656674319
 51
278.8272674588511
  0
ARC
  5
41
330
1F
100
AcDbEntity
  8
0
  6
DASHDOT
 62
     4
100
AcDbCircle
 10
12.26111810028533
 20
-295.914848992314
 30
0.0
 40
69.00000000000009
100
AcDbArc
 50
187.3162842665727
 51
207.3706912464776
  0
ARC
  5
42
330
1F
100
AcDbEntity
  8
0
  6
DASHDOT
 62
     4
100
AcDbCircle
 10
12.26111810028533
 20
-295.914848992314
 30
0.0
 40
69.0
100
AcDbArc
 50
115.660453900867
 51
136.3107850579534
  0
LINE
  5
43
330
1F
100
AcDbEntity
  8
0
  6
DASHDOT
 62
     4
100
AcDbLine
 10
60.06156427279348
 20
-230.1231790900181
 30
0.0
 11
47.99051568065465
 21
-246.737552133367
 31
0.0
  0
LINE
  5
44
330
1F
100
AcDbEntity
  8
0
  6
DASHDOT
 62
     4
100
AcDbLine
 10
-35.36093780553892
 20
-230.36871222787
 30
0.0
 11
-22.57102897016568
 21
-247.9725115133523
 31
0.0
  0
LINE
  5
45
330
1F
100
AcDbEntity
  8
0
  6
DASHDOT
 62
     4
100
AcDbLine
 10
-62.36964517164381
 20
-320.1638539242592
 30
0.0
 11
-44.72394063734464
 21
-314.4304169671591
 31
0.0
  0
LINE
  5
46
330
1F
100
AcDbEntity
  8
0
  6
DASHDOT
 62
     4
100
AcDbLine
 10
70.80610504696688
 20
-314.9372683669892
 30
0.0
 11
87.29819455128188
 21
-320.2958730789771
 31
0.0
  0
CIRCLE
  5
47
330
1F
100
AcDbEntity
  8
0
  6
Continuous
 62
     3
100
AcDbCircle
 10
52.818300508466
 20
-240.0926763804426
 30
0.0
 40
4.799999999999997
  0
CIRCLE
  5
48
330
1F
100
AcDbEntity
  8
0
  6
Continuous
 62
     3
100
AcDbCircle
 10
-28.29606430789534
 20
-240.0926763804426
 30
0.0
 40
4.800000000000001
  0
CIRCLE
  5
49
330
1F
100
AcDbEntity
  8
0
  6
Continuous
 62
     3
100
AcDbCircle
 10
-53.36178152408024
 20
-317.2370216041854
 30
0.0
 40
4.799999999999997
  0
CIRCLE
  5
4A
330
1F
100
AcDbEntity
  8
0
  6
Continuous
 62
     3
100
AcDbCircle
 10
12.26111810028533
 20
-364.914848992314
 30
0.0
 40
4.800000000000001
  0
CIRCLE
  5
4B
330
1F
100
AcDbEntity
  8
0
  6
Continuous
 62
     3
100
AcDbCircle
 10
77.8840177246509
 20
-317.2370216041854
 30
0.0
 40
4.799999999999997
  0
ARC
  5
4C
330
1F
100
AcDbEntity
  8
0
  6
Continuous
 62
     3
100
AcDbCircle
 10
12.26111810028533
 20
-295.914848992314
 30
0.0
 40
50.0
100
AcDbArc
 50
90.0
 51
180.0
  0
ARC
  5
4D
330
1F
100
AcDbEntity
  8
0
  6
Continuous
 62
     3
100
AcDbCircle
 10
12.26111810028533
 20
-295.914848992314
 30
0.0
 40
37.5
100
AcDbArc
 50
90.0
 51
180.0
  0
LINE
  5
4E
330
1F
100
AcDbEntity
  8
0
  6
DASHDOT
 62
     4
100
AcDbLine
 10
-34.1999816138092
 20
-249.4537492782194
 30
0.0
 11
-62.71816532413663
 21
-220.935565567892
 31
0.0
  0
CIRCLE
  5
4F
330
1F
100
AcDbEntity
  8
0
  6
Continuous
 62
     3
100
AcDbCircle
 10
-51.37849220650389
 20
-232.2752386855248
 30
0.0
 40
5.0
  0
CIRCLE
  5
50
330
1F
100
AcDbEntity
  8
0
  6
Continuous
 62
     3
100
AcDbCircle
 10
75.90072840707478
 20
-359.5544592991033
 30
0.0
 40
5.0
  0
ARC
  5
51
330
1F
100
AcDbEntity
  8
0
  6
DASHDOT
 62
     4
100
AcDbCircle
 10
12.26111810028544
 20
-295.914848992314
 30
0.0
 40
90.0
100
AcDbArc
 50
302.3775192095662
 51
327.2179060180239
  0
ARC
  5
52
330
1F
100
AcDbEntity
  8
0
  6
DASHDOT
 62
     4
100
AcDbCircle
 10
12.26111810028544
 20
-295.914848992314
 30
0.0
 40
89.99999999999997
100
AcDbArc
 50
122.9056875921942
 51
148.0424790863837
  0
LINE
  5
53
330
1F
100
AcDbEntity
  8
0
  6
DASHDOT
 62
     4
100
AcDbLine
 10
86.79248390828593
 20
-370.4462148003145
 30
0.0
 11
58.09122735983465
 21
-341.7449582518632
 31
0.0
  0
CIRCLE
  5
54
330
1F
100
AcDbEntity
  8
0
  6
Continuous
 62
     3
100
AcDbCircle
 10
12.26111810028533
 20
-295.914848992314
 30
0.0
 40
74.0
  0
ARC
  5
55
330
1F
100
AcDbEntity
  8
0
  6
DASHDOT
 62
     4
100
AcDbCircle
 10
12.26111810028533
 20
-295.914848992314
 30
0.0
 40
69.0
100
AcDbArc
 50
44.40687570474473
 51
63.36527735264862
  0
ARC
  5
56
330
1F
100
AcDbEntity
  8
0
  6
Continuous
 62
     3
100
AcDbCircle
 10
-72.23888189971467
 20
-322.914848992314
 30
0.0
 40
2.0
100
AcDbArc
 50
0.0
 51
90.0
  0
ARC
  5
57
330
1F
100
AcDbEntity
  8
0
  6
Continuous
 62
     3
100
AcDbCircle
 10
-72.23888189971467
 20
-268.914848992314
 30
0.0
 40
2.0
100
AcDbArc
 50
270.0
 51
0.0
  0
ARC
  5
58
330
1F
100
AcDbEntity
  8
0
  6
Continuous
 62
     3
100
AcDbCircle
 10
12.26111810028533
 20
-295.914848992314
 30
0.0
 40
100.0
100
AcDbArc
 50
124.4115086697695
 51
145.5884913302306
  0
ARC
  5
189
330
1F
100
AcDbEntity
  8
0
  6
Continuous
 62
     3
100
AcDbCircle
 10
12.26111810028533
 20
-295.914848992314
 30
0.0
 40
100.0
100
AcDbArc
 50
214.4115086697695
 51
235.5884913302305
  0
ARC
  5
18A
330
1F
100
AcDbEntity
  8
0
  6
Continuous
 62
     3
100
AcDbCircle
 10
12.26111810028533
 20
-295.914848992314
 30
0.0
 40
100.0
100
AcDbArc
 50
304.4115086697694
 51
325.5884913302306
  0
ARC
  5
5B
330
1F
100
AcDbEntity
  8
0
  6
Continuous
 62
     3
100
AcDbCircle
 10
12.26111810028533
 20
-295.914848992314
 30
0.0
 40
100.0
100
AcDbArc
 50
34.41150866976943
 51
55.58849133023053
  0
LINE
  5
5C
330
1F
100
AcDbEntity
  8
0
  6
Continuous
 62
     3
100
AcDbLine
 10
-70.23888189971467
 20
-352.4281217696006
 30
0.0
 11
-70.23888189971467
 21
-239.4015762150274
 31
0.0
  0
LINE
  5
5D
330
1F
100
AcDbEntity
  8
0
  6
Continuous
 62
     3
100
AcDbLine
 10
94.76111810028533
 20
-352.4281217696006
 30
0.0
 11
94.76111810028533
 21
-239.4015762150274
 31
0.0
  0
LINE
  5
18B
330
1F
100
AcDbEntity
  8
0
  6
Continuous
 62
     3
100
AcDbLine
 10
-44.25215467700127
 20
-378.414848992314
 30
0.0
 11
68.77439087757193
 21
-378.414848992314
 31
0.0
  0
LINE
  5
5F
330
1F
100
AcDbEntity
  8
0
  6
Continuous
 62
     3
100
AcDbLine
 10
-44.25215467700127
 20
-213.414848992314
 30
0.0
 11
68.77439087757193
 21
-213.414848992314
 31
0.0
  0
ARC
  5
60
330
1F
100
AcDbEntity
  8
0
  6
Continuous
 62
     3
100
AcDbCircle
 10
84.26111810028533
 20
-106.5957112261565
 30
0.0
 40
5.0
100
AcDbArc
 50
180.0
 51
270.0
  0
ARC
  5
61
330
1F
100
AcDbEntity
  8
0
  6
Continuous
 62
     3
100
AcDbCircle
 10
68.26111810028533
 20
-101.5957112261565
 30
0.0
 40
5.0
100
AcDbArc
 50
0.0
 51
90.0
  0
ARC
  5
62
330
1F
100
AcDbEntity
  8
0
  6
Continuous
 62
     3
100
AcDbCircle
 10
78.26111810028533
 20
-106.5957112261565
 30
0.0
 40
5.0
100
AcDbArc
 50
180.0
 51
270.0
  0
ARC
  5
63
330
1F
100
AcDbEntity
  8
0
  6
Continuous
 62
     3
100
AcDbCircle
 10
84.26111810028533
 20
-113.5957112261565
 30
0.0
 40
2.0
100
AcDbArc
 50
0.0
 51
90.0
  0
LINE
  5
64
330
1F
100
AcDbEntity
  8
0
  6
Continuous
 62
     3
100
AcDbLine
 10
73.26111810028533
 20
-106.5957112261565
 30
0.0
 11
73.26111810028533
 21
-101.5957112261565
 31
0.0
  0
LINE
  5
65
330
1F
100
AcDbEntity
  8
0
  6
DASHDOT
 62
     4
100
AcDbLine
 10
-34.17512427696124
 20
123.3042887738434
 30
0.0
 11
-39.64211307340327
 21
123.3042887738434
 31
0.0
  0
LINE
  5
66
330
1F
100
AcDbEntity
  8
0
  6
DASHDOT
 62
     4
100
AcDbLine
 10
58.6973604775319
 20
123.3042887738434
 30
0.0
 11
64.16434927397393
 21
123.3042887738434
 31
0.0
  0
LINE
  5
67
330
1F
100
AcDbEntity
  8
0
  6
Continuous
 62
     3
100
AcDbLine
 10
12.26111810028533
 20
-119.5957112261565
 30
0.0
 11
86.26111810028533
 21
-119.5957112261565
 31
0.0
  0
LINE
  5
68
330
1F
100
AcDbEntity
  8
0
  6
Continuous
 62
     3
100
AcDbLine
 10
12.26111810028533
 20
-111.5957112261565
 30
0.0
 11
84.26111810028533
 21
-111.5957112261565
 31
0.0
  0
LINE
  5
69
330
1F
100
AcDbEntity
  8
0
  6
Continuous
 62
     3
100
AcDbLine
 10
86.26111810028533
 20
-121.8957112261565
 30
0.0
 11
86.26111810028533
 21
-113.5957112261565
 31
0.0
  0
LINE
  5
6A
330
1F
100
AcDbEntity
  8
0
  6
Continuous
 62
     3
100
AcDbLine
 10
24.01380929374341
 20
-125.8957112261565
 30
0.0
 11
28.01380929374341
 21
-121.8957112261565
 31
0.0
  0
LINE
  5
18C
330
1F
100
AcDbEntity
  8
0
  6
Continuous
 62
     3
100
AcDbLine
 10
24.01380929374341
 20
-125.8957112261565
 30
0.0
 11
12.26111810028533
 21
-125.8957112261565
 31
0.0
  0
LINE
  5
18D
330
1F
100
AcDbEntity
  8
0
  6
Continuous
 62
     3
100
AcDbLine
 10
12.26111810028533
 20
-121.8957112261565
 30
0.0
 11
86.26111810028533
 21
-121.8957112261565
 31
0.0
  0
LINE
  5
6D
330
1F
100
AcDbEntity
  8
0
  6
Continuous
 62
     3
100
AcDbLine
 10
77.76111810028533
 20
-126.3957112261565
 30
0.0
 11
77.76111810028533
 21
-121.8957112261565
 31
0.0
  0
LINE
  5
6E
330
1F
100
AcDbEntity
  8
0
  6
DASHDOT
 62
     4
100
AcDbLine
 10
81.26111810028533
 20
-128.5613855772799
 30
0.0
 11
81.26111810028533
 21
-117.490757551268
 31
0.0
  0
LINE
  5
6F
330
1F
100
AcDbEntity
  8
0
  6
Continuous
 62
     3
100
AcDbLine
 10
84.76111810028533
 20
-126.3957112261565
 30
0.0
 11
84.76111810028533
 21
-121.8957112261565
 31
0.0
  0
LINE
  5
70
330
1F
100
AcDbEntity
  8
0
  6
Continuous
 62
     3
100
AcDbLine
 10
84.76111810028533
 20
-126.3957112261565
 30
0.0
 11
77.76111810028533
 21
-126.3957112261565
 31
0.0
  0
LINE
  5
71
330
1F
100
AcDbEntity
  8
0
  6
Continuous
 62
     3
100
AcDbLine
 10
60.76111810028533
 20
-54.6957112261565
 30
0.0
 11
60.76111810028533
 21
121.3042887738435
 31
0.0
  0
LINE
  5
72
330
1F
100
AcDbEntity
  8
0
  6
Continuous
 62
     3
100
AcDbLine
 10
60.76111810028533
 20
-54.6957112261565
 30
0.0
 11
62.76111810028533
 21
-54.6957112261565
 31
0.0
  0
LINE
  5
18E
330
1F
100
AcDbEntity
  8
0
  6
Continuous
 62
     3
100
AcDbLine
 10
62.76111810028533
 20
-58.6957112261565
 30
0.0
 11
62.76111810028533
 21
-54.6957112261565
 31
0.0
  0
LINE
  5
18F
330
1F
100
AcDbEntity
  8
0
  6
Continuous
 62
     3
100
AcDbLine
 10
60.76111810028533
 20
-58.6957112261565
 30
0.0
 11
62.76111810028533
 21
-58.6957112261565
 31
0.0
  0
LINE
  5
190
330
1F
100
AcDbEntity
  8
0
  6
DASHDOT
 62
     4
100
AcDbLine
 10
58.6973604775319
 20
-56.6957112261565
 30
0.0
 11
64.16434927397393
 21
-56.6957112261565
 31
0.0
  0
LINE
  5
191
330
1F
100
AcDbEntity
  8
0
  6
DASHDOT
 62
     4
100
AcDbLine
 10
-34.17512427696124
 20
-56.6957112261565
 30
0.0
 11
-39.64211307340327
 21
-56.6957112261565
 31
0.0
  0
LINE
  5
77
330
1F
100
AcDbEntity
  8
0
  6
Continuous
 62
     3
100
AcDbLine
 10
-36.23888189971467
 20
-54.6957112261565
 30
0.0
 11
-36.23888189971467
 21
121.3042887738435
 31
0.0
  0
LINE
  5
78
330
1F
100
AcDbEntity
  8
0
  6
Continuous
 62
     3
100
AcDbLine
 10
-36.23888189971467
 20
-58.6957112261565
 30
0.0
 11
-38.23888189971467
 21
-58.6957112261565
 31
0.0
  0
LINE
  5
79
330
1F
100
AcDbEntity
  8
0
  6
Continuous
 62
     3
100
AcDbLine
 10
-36.23888189971467
 20
-54.6957112261565
 30
0.0
 11
-38.23888189971467
 21
-54.6957112261565
 31
0.0
  0
LINE
  5
7A
330
1F
100
AcDbEntity
  8
0
  6
Continuous
 62
     3
100
AcDbLine
 10
-38.23888189971467
 20
-58.6957112261565
 30
0.0
 11
-38.23888189971467
 21
-54.6957112261565
 31
0.0
  0
LINE
  5
7B
330
1F
100
AcDbEntity
  8
0
  6
Continuous
 62
     3
100
AcDbLine
 10
60.76111810028533
 20
125.3042887738435
 30
0.0
 11
60.76111810028533
 21
145.3042887738435
 31
0.0
  0
LINE
  5
7C
330
1F
100
AcDbEntity
  8
0
  6
Continuous
 62
     3
100
AcDbLine
 10
60.76111810028533
 20
125.3042887738435
 30
0.0
 11
62.76111810028533
 21
125.3042887738435
 31
0.0
  0
LINE
  5
7D
330
1F
100
AcDbEntity
  8
0
  6
Continuous
 62
     3
100
AcDbLine
 10
62.76111810028533
 20
121.3042887738435
 30
0.0
 11
62.76111810028533
 21
125.3042887738435
 31
0.0
  0
LINE
  5
7E
330
1F
100
AcDbEntity
  8
0
  6
Continuous
 62
     3
100
AcDbLine
 10
60.76111810028533
 20
121.3042887738435
 30
0.0
 11
62.76111810028533
 21
121.3042887738435
 31
0.0
  0
LINE
  5
7F
330
1F
100
AcDbEntity
  8
0
  6
Continuous
 62
     3
100
AcDbLine
 10
-36.23888189971467
 20
125.3042887738435
 30
0.0
 11
-36.23888189971467
 21
145.3042887738435
 31
0.0
  0
LINE
  5
80
330
1F
100
AcDbEntity
  8
0
  6
Continuous
 62
     3
100
AcDbLine
 10
-36.23888189971467
 20
121.3042887738435
 30
0.0
 11
-38.23888189971467
 21
121.3042887738435
 31
0.0
  0
LINE
  5
81
330
1F
100
AcDbEntity
  8
0
  6
Continuous
 62
     3
100
AcDbLine
 10
-36.23888189971467
 20
125.3042887738435
 30
0.0
 11
-38.23888189971467
 21
125.3042887738435
 31
0.0
  0
LINE
  5
82
330
1F
100
AcDbEntity
  8
0
  6
Continuous
 62
     3
100
AcDbLine
 10
-38.23888189971467
 20
121.3042887738435
 30
0.0
 11
-38.23888189971467
 21
125.3042887738435
 31
0.0
  0
ARC
  5
83
330
1F
100
AcDbEntity
  8
0
  6
Continuous
 62
     3
100
AcDbCircle
 10
65.76111810028533
 20
-91.59571122615651
 30
0.0
 40
5.0
100
AcDbArc
 50
180.0
 51
270.0
  0
ARC
  5
84
330
1F
100
AcDbEntity
  8
0
  6
Continuous
 62
     3
100
AcDbCircle
 10
47.76111810028533
 20
-91.59571122615651
 30
0.0
 40
5.0
100
AcDbArc
 50
270.0
 51
0.0
  0
ARC
  5
85
330
1F
100
AcDbEntity
  8
0
  6
Continuous
 62
     3
100
AcDbCircle
 10
-41.23888189971467
 20
-91.5957112261565
 30
0.0
 40
5.000000000000014
100
AcDbArc
 50
270.0
 51
0.0
  0
ARC
  5
86
330
1F
100
AcDbEntity
  8
0
  6
Continuous
 62
     3
100
AcDbCircle
 10
-23.23888189971467
 20
-91.5957112261565
 30
0.0
 40
5.0
100
AcDbArc
 50
180.0
 51
270.0
  0
ARC
  5
87
330
1F
100
AcDbEntity
  8
0
  6
Continuous
 62
     3
100
AcDbCircle
 10
-59.73888189971467
 20
-113.5957112261565
 30
0.0
 40
2.0
100
AcDbArc
 50
90.0
 51
180.0
  0
LINE
  5
88
330
1F
100
AcDbEntity
  8
0
  6
Continuous
 62
     3
100
AcDbLine
 10
12.26111810028533
 20
-111.5957112261565
 30
0.0
 11
-59.73888189971467
 21
-111.5957112261565
 31
0.0
  0
ARC
  5
89
330
1F
100
AcDbEntity
  8
0
  6
Continuous
 62
     3
100
AcDbCircle
 10
-53.73888189971467
 20
-104.5957112261565
 30
0.0
 40
8.000000000000014
100
AcDbArc
 50
90.0
 51
180.0
  0
ARC
  5
8A
330
1F
100
AcDbEntity
  8
0
  6
Continuous
 62
     3
100
AcDbCircle
 10
36.76111810028556
 20
-95.59571122615648
 30
0.0
 40
1.0
100
AcDbArc
 50
180.0
 51
270.0
  0
LINE
  5
8B
330
1F
100
AcDbEntity
  8
0
  6
Continuous
 62
     3
100
AcDbLine
 10
35.76111810028556
 20
-95.59571122615648
 30
0.0
 11
35.76111810028556
 21
-93.59571122615645
 31
0.0
  0
LINE
  5
8C
330
1F
100
AcDbEntity
  8
0
  6
Continuous
 62
     3
100
AcDbLine
 10
30.76111810028556
 20
-93.59571122615648
 30
0.0
 11
35.76111810028556
 21
-93.59571122615645
 31
0.0
  0
LINE
  5
8D
330
1F
100
AcDbEntity
  8
0
  6
Continuous
 62
     3
100
AcDbLine
 10
30.76111810028556
 20
-96.59571122615648
 30
0.0
 11
30.76111810028556
 21
-93.59571122615648
 31
0.0
  0
ARC
  5
8E
330
1F
100
AcDbEntity
  8
0
  6
Continuous
 62
     3
100
AcDbCircle
 10
41.26111810028556
 20
-95.59571122615645
 30
0.0
 40
1.0
100
AcDbArc
 50
270.0
 51
0.0
  0
LINE
  5
8F
330
1F
100
AcDbEntity
  8
0
  6
Continuous
 62
     3
100
AcDbLine
 10
42.26111810028556
 20
-95.59571122615645
 30
0.0
 11
42.26111810028556
 21
-84.5957112261565
 31
0.0
  0
LINE
  5
90
330
1F
100
AcDbEntity
  8
0
  6
Continuous
 62
     3
100
AcDbLine
 10
29.26111810028556
 20
-75.5957112261565
 30
0.0
 11
37.26111810028556
 21
-67.5957112261565
 31
0.0
  0
ARC
  5
91
330
1F
100
AcDbEntity
  8
0
  6
Continuous
 62
     3
100
AcDbCircle
 10
37.26111810028556
 20
-84.5957112261565
 30
0.0
 40
5.0
100
AcDbArc
 50
0.0
 51
90.0
  0
ARC
  5
192
330
1F
100
AcDbEntity
  8
0
  6
Continuous
 62
     3
100
AcDbCircle
 10
30.26111810028556
 20
-78.5957112261565
 30
0.0
 40
1.0
100
AcDbArc
 50
180.0
 51
270.0
  0
LINE
  5
193
330
1F
100
AcDbEntity
  8
0
  6
Continuous
 62
     3
100
AcDbLine
 10
30.26111810028556
 20
-79.5957112261565
 30
0.0
 11
37.26111810028556
 21
-79.5957112261565
 31
0.0
  0
LINE
  5
94
330
1F
100
AcDbEntity
  8
0
  6
Continuous
 62
     3
100
AcDbLine
 10
29.26111810028556
 20
-78.5957112261565
 30
0.0
 11
29.26111810028556
 21
-75.5957112261565
 31
0.0
  0
LINE
  5
95
330
1F
100
AcDbEntity
  8
0
  6
Continuous
 62
     3
100
AcDbLine
 10
37.26111810028556
 20
-67.5957112261565
 30
0.0
 11
49.76111810028533
 21
-67.5957112261565
 31
0.0
  0
ARC
  5
96
330
1F
100
AcDbEntity
  8
0
  6
Continuous
 62
     3
100
AcDbCircle
 10
49.76111810028533
 20
-64.5957112261565
 30
0.0
 40
3.0
100
AcDbArc
 50
270.0
 51
0.0
  0
ARC
  5
194
330
1F
100
AcDbEntity
  8
0
  6
Continuous
 62
     3
100
AcDbCircle
 10
-25.23888189971467
 20
-64.5957112261565
 30
0.0
 40
3.0
100
AcDbArc
 50
180.0
 51
270.0
  0
LINE
  5
195
330
1F
100
AcDbEntity
  8
0
  6
Continuous
 62
     3
100
AcDbLine
 10
12.26111810028556
 20
-96.59571122615648
 30
0.0
 11
-53.73888189971467
 21
-96.59571122615651
 31
0.0
  0
LINE
  5
99
330
1F
100
AcDbEntity
  8
0
  6
Continuous
 62
     3
100
AcDbLine
 10
12.2611181002851
 20
-96.59571122615648
 30
0.0
 11
68.26111810028533
 21
-96.59571122615652
 31
0.0
  0
ARC
  5
9A
330
1F
100
AcDbEntity
  8
0
  6
Continuous
 62
     3
100
AcDbCircle
 10
80.26111810028533
 20
149.3042887738434
 30
0.0
 40
1.0
100
AcDbArc
 50
90.0
 51
180.0
  0
LINE
  5
9B
330
1F
100
AcDbEntity
  8
0
  6
Continuous
 62
     3
100
AcDbLine
 10
79.26111810028533
 20
-106.5957112261565
 30
0.0
 11
79.26111810028533
 21
149.3042887738434
 31
0.0
  0
ARC
  5
9C
330
1F
100
AcDbEntity
  8
0
  6
Continuous
 62
     3
100
AcDbCircle
 10
47.76111810028533
 20
145.3042887738435
 30
0.0
 40
5.0
100
AcDbArc
 50
0.0
 51
90.0
  0
ARC
  5
9D
330
1F
100
AcDbEntity
  8
0
  6
Continuous
 62
     3
100
AcDbCircle
 10
65.76111810028533
 20
145.3042887738434
 30
0.0
 40
5.0
100
AcDbArc
 50
90.0
 51
179.9999999999994
  0
LINE
  5
9E
330
1F
100
AcDbEntity
  8
0
  6
Continuous
 62
     3
100
AcDbLine
 10
52.76111810028533
 20
-91.59571122615651
 30
0.0
 11
52.76111810028533
 21
145.3042887738435
 31
0.0
  0
LINE
  5
9F
330
1F
100
AcDbEntity
  8
0
  6
Continuous
 62
     3
100
AcDbLine
 10
60.76111810028533
 20
-91.59571122615651
 30
0.0
 11
60.76111810028533
 21
-58.6957112261565
 31
0.0
  0
ARC
  5
A0
330
1F
100
AcDbEntity
  8
0
  6
Continuous
 62
     3
100
AcDbCircle
 10
-41.23888189971467
 20
145.3042887738435
 30
0.0
 40
5.0
100
AcDbArc
 50
0.0
 51
90.0
  0
ARC
  5
A1
330
1F
100
AcDbEntity
  8
0
  6
Continuous
 62
     3
100
AcDbCircle
 10
-23.23888189971467
 20
145.3042887738435
 30
0.0
 40
5.0
100
AcDbArc
 50
90.0
 51
180.0
  0
LINE
  5
A2
330
1F
100
AcDbEntity
  8
0
  6
Continuous
 62
     3
100
AcDbLine
 10
-36.23888189971467
 20
-91.5957112261565
 30
0.0
 11
-36.23888189971467
 21
-58.6957112261565
 31
0.0
  0
LINE
  5
A3
330
1F
100
AcDbEntity
  8
0
  6
Continuous
 62
     3
100
AcDbLine
 10
-28.23888189971467
 20
-91.5957112261565
 30
0.0
 11
-28.23888189971467
 21
145.3042887738435
 31
0.0
  0
ARC
  5
A4
330
1F
100
AcDbEntity
  8
0
  6
Continuous
 62
     3
100
AcDbCircle
 10
-62.73888189971467
 20
149.3042887738435
 30
0.0
 40
1.0
100
AcDbArc
 50
0.0
 51
90.0
  0
LINE
  5
A5
330
1F
100
AcDbEntity
  8
0
  6
Continuous
 62
     3
100
AcDbLine
 10
-61.73888189971467
 20
-121.8957112261565
 30
0.0
 11
-61.73888189971467
 21
149.3042887738435
 31
0.0
  0
LINE
  5
A6
330
1F
100
AcDbEntity
  8
0
  6
DASHED
 62
     3
100
AcDbLine
 10
-70.23888189971467
 20
-311.164848992314
 30
0.0
 11
-87.73888189971467
 21
-311.164848992314
 31
0.0
  0
LINE
  5
A7
330
1F
100
AcDbEntity
  8
0
  6
DASHED
 62
     3
100
AcDbLine
 10
-70.23888189971467
 20
-312.539348992314
 30
0.0
 11
-87.73888189971467
 21
-312.539348992314
 31
0.0
  0
LINE
  5
A8
330
1F
100
AcDbEntity
  8
0
  6
DASHED
 62
     3
100
AcDbLine
 10
-70.23888189971467
 20
-279.290348992314
 30
0.0
 11
-87.73888189971467
 21
-279.290348992314
 31
0.0
  0
LINE
  5
A9
330
1F
100
AcDbEntity
  8
0
  6
DASHED
 62
     3
100
AcDbLine
 10
-70.23888189971467
 20
-280.664848992314
 30
0.0
 11
-87.73888189971467
 21
-280.664848992314
 31
0.0
  0
ARC
  5
AA
330
1F
100
AcDbEntity
  8
0
  6
Continuous
 62
     3
100
AcDbCircle
 10
-85.73888189971467
 20
-318.914848992314
 30
0.0
 40
2.0
100
AcDbArc
 50
180.0
 51
270.0
  0
ARC
  5
AB
330
1F
100
AcDbEntity
  8
0
  6
Continuous
 62
     3
100
AcDbCircle
 10
-85.73888189971467
 20
-272.914848992314
 30
0.0
 40
2.0
100
AcDbArc
 50
90.0
 51
180.0
  0
LINE
  5
AC
330
1F
100
AcDbEntity
  8
0
  6
Continuous
 62
     3
100
AcDbLine
 10
-87.73888189971467
 20
-318.914848992314
 30
0.0
 11
-87.73888189971467
 21
-272.914848992314
 31
0.0
  0
LINE
  5
AD
330
1F
100
AcDbEntity
  8
0
  6
Continuous
 62
     3
100
AcDbLine
 10
-72.23888189971467
 20
-270.914848992314
 30
0.0
 11
-85.73888189971467
 21
-270.914848992314
 31
0.0
  0
LINE
  5
AE
330
1F
100
AcDbEntity
  8
0
  6
Continuous
 62
     3
100
AcDbLine
 10
-72.23888189971467
 20
-320.914848992314
 30
0.0
 11
-85.73888189971467
 21
-320.914848992314
 31
0.0
  0
LINE
  5
AF
330
1F
100
AcDbEntity
  8
0
  6
Continuous
 62
     3
100
AcDbLine
 10
73.26111810028533
 20
222.3042887738434
 30
0.0
 11
73.26111810028533
 21
166.3042887738434
 31
0.0
  0
ARC
  5
B0
330
1F
100
AcDbEntity
  8
0
  6
Continuous
 62
     3
100
AcDbCircle
 10
76.26111810028533
 20
166.3042887738434
 30
0.0
 40
3.0
100
AcDbArc
 50
180.0
 51
270.0
  0
LINE
  5
B1
330
1F
100
AcDbEntity
  8
0
  6
Continuous
 62
     3
100
AcDbLine
 10
12.26111810028533
 20
153.3042887738435
 30
0.0
 11
94.76111810028533
 21
153.3042887738434
 31
0.0
  0
LINE
  5
B2
330
1F
100
AcDbEntity
  8
0
  6
Continuous
 62
     3
100
AcDbLine
 10
94.76111810028533
 20
153.3042887738434
 30
0.0
 11
94.76111810028533
 21
161.3042887738434
 31
0.0
  0
LINE
  5
B3
330
1F
100
AcDbEntity
  8
0
  6
Continuous
 62
     3
100
AcDbLine
 10
12.26111810028533
 20
163.3042887738434
 30
0.0
 11
92.76111810028533
 21
163.3042887738434
 31
0.0
  0
ARC
  5
B4
330
1F
100
AcDbEntity
  8
0
  6
Continuous
 62
     3
100
AcDbCircle
 10
92.76111810028533
 20
161.3042887738434
 30
0.0
 40
2.0
100
AcDbArc
 50
0.0
 51
90.0
  0
LINE
  5
B5
330
1F
100
AcDbEntity
  8
0
  6
Continuous
 62
     3
100
AcDbLine
 10
12.26111810028533
 20
150.3042887738435
 30
0.0
 11
88.26111810028533
 21
150.3042887738434
 31
0.0
  0
LINE
  5
B6
330
1F
100
AcDbEntity
  8
0
  6
Continuous
 62
     3
100
AcDbLine
 10
88.26111810028533
 20
150.3042887738434
 30
0.0
 11
88.26111810028533
 21
153.3042887738434
 31
0.0
  0
LINE
  5
B7
330
1F
100
AcDbEntity
  8
0
  6
Continuous
 62
     3
100
AcDbLine
 10
-63.73888189971467
 20
150.3042887738435
 30
0.0
 11
-63.73888189971467
 21
153.3042887738435
 31
0.0
  0
ARC
  5
B8
330
1F
100
AcDbEntity
  8
0
  6
Continuous
 62
     3
100
AcDbCircle
 10
-68.23888189971467
 20
161.3042887738435
 30
0.0
 40
2.0
100
AcDbArc
 50
90.0
 51
180.0
  0
ARC
  5
B9
330
1F
100
AcDbEntity
  8
0
  6
Continuous
 62
     3
100
AcDbCircle
 10
-51.73888189971467
 20
166.3042887738435
 30
0.0
 40
3.0
100
AcDbArc
 50
270.0
 51
0.0
  0
LINE
  5
BA
330
1F
100
AcDbEntity
  8
0
  6
Continuous
 62
     3
100
AcDbLine
 10
-70.23888189971467
 20
153.3042887738435
 30
0.0
 11
-70.23888189971467
 21
161.3042887738435
 31
0.0
  0
LINE
  5
BB
330
1F
100
AcDbEntity
  8
0
  6
Continuous
 62
     3
100
AcDbLine
 10
12.26111810028533
 20
163.3042887738435
 30
0.0
 11
-68.23888189971467
 21
163.3042887738435
 31
0.0
  0
LINE
  5
BC
330
1F
100
AcDbEntity
  8
0
  6
DASHDOT
 62
     4
100
AcDbLine
 10
73.2827769856533
 20
328.8042887738435
 30
0.0
 11
78.74456240810127
 21
328.8042887738435
 31
0.0
  0
ARC
  5
BD
330
1F
100
AcDbEntity
  8
0
  6
Continuous
 62
     3
100
AcDbCircle
 10
38.87425813364268
 20
317.8042887738435
 30
0.0
 40
5.000000000000082
100
AcDbArc
 50
8.626926558678496
 51
78.22916053262492
  0
ARC
  5
BE
330
1F
100
AcDbEntity
  8
0
  6
Continuous
 62
     3
100
AcDbCircle
 10
48.76111810028533
 20
319.3042887738435
 30
0.0
 40
4.99999999999997
100
AcDbArc
 50
188.6269265586787
 51
270.0
  0
LINE
  5
BF
330
1F
100
AcDbEntity
  8
0
  6
Continuous
 62
     3
100
AcDbLine
 10
48.76111810028533
 20
314.3042887738435
 30
0.0
 11
75.56111810028528
 21
314.3042887738434
 31
0.0
  0
LINE
  5
C0
330
1F
100
AcDbEntity
  8
0
  6
Continuous
 62
     3
100
AcDbLine
 10
12.26111810028533
 20
364.3042887738434
 30
0.0
 11
56.13111810028522
 21
364.3042887738436
 31
0.0
  0
ARC
  5
C1
330
1F
100
AcDbEntity
  8
0
  6
Continuous
 62
     3
100
AcDbCircle
 10
56.13111810028522
 20
363.1742887738435
 30
0.0
 40
1.130000000000109
100
AcDbArc
 50
0.000000000005764
 51
90.0
  0
POINT
  5
C2
330
1F
100
AcDbEntity
  8
0
  6
Continuous
 62
     3
100
AcDbPoint
 10
57.26111810028533
 20
360.3042887738436
 30
0.0
  0
ARC
  5
C3
330
1F
100
AcDbEntity
  8
0
  6
Continuous
 62
     3
100
AcDbCircle
 10
74.43111810028529
 20
348.1742887738437
 30
0.0
 40
1.129999999999996
100
AcDbArc
 50
0.0
 51
90.0
  0
LINE
  5
C4
330
1F
100
AcDbEntity
  8
0
  6
Continuous
 62
     3
100
AcDbLine
 10
57.26111810028533
 20
360.5645722991195
 30
0.0
 11
57.26111810028533
 21
363.1742887738436
 31
0.0
  0
LINE
  5
C5
330
1F
100
AcDbEntity
  8
0
  6
Continuous
 62
     3
100
AcDbLine
 10
57.47432988210983
 20
360.154996276975
 30
0.0
 11
72.97074617444855
 21
349.3042887738436
 31
0.0
  0
ARC
  5
C6
330
1F
100
AcDbEntity
  8
0
  6
Continuous
 62
     3
100
AcDbCircle
 10
57.76111810028533
 20
360.5645722991195
 30
0.0
 40
0.5
100
AcDbArc
 50
180.0
 51
235.0000000000026
  0
LINE
  5
C7
330
1F
100
AcDbEntity
  8
0
  6
Continuous
 62
     3
100
AcDbLine
 10
12.26111810028533
 20
360.3042887738436
 30
0.0
 11
57.33420770398425
 21
360.3042887738436
 31
0.0
  0
LINE
  5
C8
330
1F
100
AcDbEntity
  8
0
  6
Continuous
 62
     3
100
AcDbLine
 10
75.56111810028528
 20
314.3042887738434
 30
0.0
 11
75.56111810028528
 21
348.1742887738437
 31
0.0
  0
LINE
  5
C9
330
1F
100
AcDbEntity
  8
0
  6
Continuous
 62
     3
100
AcDbLine
 10
12.26111810028533
 20
349.3042887738412
 30
0.0
 11
74.43111810028529
 21
349.3042887738436
 31
0.0
  0
ARC
  5
CA
330
1F
100
AcDbEntity
  8
0
  6
Continuous
 62
     3
100
AcDbCircle
 10
-14.35202193307202
 20
317.8042887738435
 30
0.0
 40
4.999999999999993
100
AcDbArc
 50
101.7708394673751
 51
171.3730734413215
  0
ARC
  5
CB
330
1F
100
AcDbEntity
  8
0
  6
Continuous
 62
     3
100
AcDbCircle
 10
-24.23888189971467
 20
319.3042887738435
 30
0.0
 40
5.0
100
AcDbArc
 50
270.0
 51
351.3730734413214
  0
ARC
  5
CC
330
1F
100
AcDbEntity
  8
0
  6
Continuous
 62
     3
100
AcDbCircle
 10
-33.23888189971456
 20
360.5645722991195
 30
0.0
 40
0.499999999999996
100
AcDbArc
 50
304.9999999999974
 51
0.0
  0
LINE
  5
CD
330
1F
100
AcDbEntity
  8
0
  6
Continuous
 62
     3
100
AcDbLine
 10
12.26111810028544
 20
360.3042887738436
 30
0.0
 11
-32.81197150341347
 21
360.3042887738436
 31
0.0
  0
ARC
  5
CE
330
1F
100
AcDbEntity
  8
0
  6
Continuous
 62
     3
100
AcDbCircle
 10
-49.90888189971452
 20
348.1742887738437
 30
0.0
 40
1.129999999999882
100
AcDbArc
 50
90.0
 51
180.0
  0
LINE
  5
CF
330
1F
100
AcDbEntity
  8
0
  6
Continuous
 62
     3
100
AcDbLine
 10
12.26111810028544
 20
349.3042887738412
 30
0.0
 11
-49.90888189971452
 21
349.3042887738436
 31
0.0
  0
POINT
  5
D0
330
1F
100
AcDbEntity
  8
0
  6
Continuous
 62
     3
100
AcDbPoint
 10
-32.73888189971456
 20
360.3042887738436
 30
0.0
  0
ARC
  5
D1
330
1F
100
AcDbEntity
  8
0
  6
Continuous
 62
     3
100
AcDbCircle
 10
-31.60888189971445
 20
363.1742887738435
 30
0.0
 40
1.130000000000109
100
AcDbArc
 50
90.0
 51
179.9999999999943
  0
LINE
  5
D2
330
1F
100
AcDbEntity
  8
0
  6
Continuous
 62
     3
100
AcDbLine
 10
-32.95209368153905
 20
360.154996276975
 30
0.0
 11
-48.44850997387778
 21
349.3042887738436
 31
0.0
  0
LINE
  5
D3
330
1F
100
AcDbEntity
  8
0
  6
Continuous
 62
     3
100
AcDbLine
 10
-32.73888189971456
 20
360.5645722991195
 30
0.0
 11
-32.73888189971456
 21
363.1742887738436
 31
0.0
  0
LINE
  5
D4
330
1F
100
AcDbEntity
  8
0
  6
Continuous
 62
     3
100
AcDbLine
 10
-51.03888189971462
 20
314.3042887738435
 30
0.0
 11
-51.03888189971451
 21
348.1742887738437
 31
0.0
  0
LINE
  5
D5
330
1F
100
AcDbEntity
  8
0
  6
Continuous
 62
     3
100
AcDbLine
 10
12.26111810028544
 20
364.3042887738434
 30
0.0
 11
-31.60888189971445
 21
364.3042887738436
 31
0.0
  0
LINE
  5
D6
330
1F
100
AcDbEntity
  8
0
  6
Continuous
 62
     3
100
AcDbLine
 10
-24.23888189971467
 20
314.3042887738435
 30
0.0
 11
-51.03888189971462
 21
314.3042887738435
 31
0.0
  0
LINE
  5
D7
330
1F
100
AcDbEntity
  8
0
  6
DASHDOT
 62
     4
100
AcDbLine
 10
-5.451603654124483
 20
-215.914848992314
 30
0.0
 11
30.45228251514425
 21
-215.914848992314
 31
0.0
  0
ARC
  5
D8
330
1F
100
AcDbEntity
  8
0
  6
Continuous
 62
     3
100
AcDbCircle
 10
7.861118100284784
 20
-195.914848992314
 30
0.0
 40
3.0
100
AcDbArc
 50
270.0
 51
323.1301023541673
  0
ARC
  5
D9
330
1F
100
AcDbEntity
  8
0
  6
Continuous
 62
     3
100
AcDbCircle
 10
16.6611181002861
 20
-195.914848992314
 30
0.0
 40
2.999999999999954
100
AcDbArc
 50
216.8698976458327
 51
270.0
  0
ARC
  5
DA
330
1F
100
AcDbEntity
  8
0
  6
Continuous
 62
     3
100
AcDbCircle
 10
12.26111810028533
 20
-199.2148489923131
 30
0.0
 40
2.500000000000108
100
AcDbArc
 50
36.86989764582995
 51
143.1301023541669
  0
ARC
  5
DB
330
1F
100
AcDbEntity
  8
0
  6
Continuous
 62
     3
100
AcDbCircle
 10
6.751127174702106
 20
-193.414848992314
 30
0.0
 40
3.000000000000028
100
AcDbArc
 50
270.0
 51
313.5311521673797
  0
ARC
  5
DC
330
1F
100
AcDbEntity
  8
0
  6
Continuous
 62
     3
100
AcDbCircle
 10
18.07059311959733
 20
-193.714848992314
 30
0.0
 40
2.999999999999901
100
AcDbArc
 50
223.4325365577826
 51
270.0
  0
ARC
  5
DD
330
1F
100
AcDbEntity
  8
0
  6
Continuous
 62
     3
100
AcDbCircle
 10
12.26111810028533
 20
-199.2148489923131
 30
0.0
 40
5.000000000000111
100
AcDbArc
 50
43.4325365577796
 51
133.5311521673823
  0
LINE
  5
DE
330
1F
100
AcDbEntity
  8
0
  6
Continuous
 62
     3
100
AcDbLine
 10
16.6611181002861
 20
-198.914848992314
 30
0.0
 11
35.56111810028528
 21
-198.914848992314
 31
0.0
  0
LINE
  5
DF
330
1F
100
AcDbEntity
  8
0
  6
Continuous
 62
     3
100
AcDbLine
 10
18.07059311959642
 20
-196.714848992314
 30
0.0
 11
37.26111810028533
 21
-196.714848992314
 31
0.0
  0
ARC
  5
E0
330
1F
100
AcDbEntity
  8
0
  6
Continuous
 62
     3
100
AcDbCircle
 10
-12.73888189971467
 20
-199.414848992314
 30
0.0
 40
3.0
100
AcDbArc
 50
90.0
 51
180.0
  0
ARC
  5
E1
330
1F
100
AcDbEntity
  8
0
  6
Continuous
 62
     3
100
AcDbCircle
 10
37.26111810028533
 20
-199.414848992314
 30
0.0
 40
3.0
100
AcDbArc
 50
0.0
 51
90.0
  0
ARC
  5
E2
330
1F
100
AcDbEntity
  8
0
  6
Continuous
 62
     3
100
AcDbCircle
 10
-11.03888189971462
 20
-200.914848992314
 30
0.0
 40
2.0
100
AcDbArc
 50
90.0
 51
180.0
  0
ARC
  5
E3
330
1F
100
AcDbEntity
  8
0
  6
Continuous
 62
     3
100
AcDbCircle
 10
35.56111810028528
 20
-200.914848992314
 30
0.0
 40
2.0
100
AcDbArc
 50
0.0
 51
90.0
  0
LINE
  5
E4
330
1F
100
AcDbEntity
  8
0
  6
Continuous
 62
     3
100
AcDbLine
 10
-11.03888189971462
 20
-198.914848992314
 30
0.0
 11
7.861118100284784
 21
-198.914848992314
 31
0.0
  0
LINE
  5
E5
330
1F
100
AcDbEntity
  8
0
  6
Continuous
 62
     3
100
AcDbLine
 10
-12.73888189971467
 20
-196.414848992314
 30
0.0
 11
6.751127174702106
 21
-196.414848992314
 31
0.0
  0
LINE
  5
E6
330
1F
100
AcDbEntity
  8
0
  6
Continuous
 62
     3
100
AcDbLine
 10
40.26111810028533
 20
-213.414848992314
 30
0.0
 11
40.26111810028533
 21
-199.414848992314
 31
0.0
  0
LINE
  5
E7
330
1F
100
AcDbEntity
  8
0
  6
Continuous
 62
     3
100
AcDbLine
 10
-15.73888189971467
 20
-213.414848992314
 30
0.0
 11
-15.73888189971467
 21
-199.414848992314
 31
0.0
  0
LINE
  5
E8
330
1F
100
AcDbEntity
  8
0
  6
Continuous
 62
     3
100
AcDbLine
 10
-13.03888189971462
 20
-213.414848992314
 30
0.0
 11
-13.03888189971462
 21
-200.914848992314
 31
0.0
  0
LINE
  5
E9
330
1F
100
AcDbEntity
  8
0
  6
Continuous
 62
     3
100
AcDbLine
 10
37.56111810028528
 20
-213.414848992314
 30
0.0
 11
37.56111810028528
 21
-200.914848992314
 31
0.0
  0
ARC
  5
EA
330
1F
100
AcDbEntity
  8
0
  6
Continuous
 62
     3
100
AcDbCircle
 10
12.26111810028533
 20
-215.914848992314
 30
0.0
 40
10.99999999999996
100
AcDbArc
 50
13.13655878694491
 51
166.8634412130551
  0
ARC
  5
EB
330
1F
100
AcDbEntity
  8
0
  6
Continuous
 62
     3
100
AcDbCircle
 10
70.38940818100787
 20
309.3741591197313
 30
0.0
 40
1.0
100
AcDbArc
 50
0.0
 51
51.7118974767335
  0
ARC
  5
EC
330
1F
100
AcDbEntity
  8
0
  6
Continuous
 62
     3
100
AcDbCircle
 10
68.11860525058546
 20
313.7148446079009
 30
0.0
 40
1.0
100
AcDbArc
 50
180.0
 51
231.7118974767457
  0
ARC
  5
ED
330
1F
100
AcDbEntity
  8
0
  6
Continuous
 62
     3
100
AcDbCircle
 10
64.93603444879273
 20
309.4176055249848
 30
0.0
 40
1.0
100
AcDbArc
 50
0.0
 51
47.61200893942406
  0
ARC
  5
EE
330
1F
100
AcDbEntity
  8
0
  6
Continuous
 62
     3
100
AcDbCircle
 10
63.2422851117376
 20
313.6713982026473
 30
0.0
 40
1.0
100
AcDbArc
 50
180.0
 51
227.6120089394315
  0
LINE
  5
EF
330
1F
100
AcDbEntity
  8
0
  6
Continuous
 62
     3
100
AcDbLine
 10
65.61018204462607
 20
310.1562021801575
 30
0.0
 11
62.56813751590448
 21
312.9328015474746
 31
0.0
  0
LINE
  5
F0
330
1F
100
AcDbEntity
  8
0
  6
Continuous
 62
     3
100
AcDbLine
 10
67.4989891910759
 20
312.9299395570842
 30
0.0
 11
71.00902424051765
 21
310.159064170548
 31
0.0
  0
LINE
  5
F1
330
1F
100
AcDbEntity
  8
0
  6
Continuous
 62
     3
100
AcDbLine
 10
67.11860525058546
 20
313.7148446079009
 30
0.0
 11
67.11860525058546
 21
314.3042887738434
 31
0.0
  0
LINE
  5
F2
330
1F
100
AcDbEntity
  8
0
  6
Continuous
 62
     3
100
AcDbLine
 10
64.5314631909489
 20
314.3042887738434
 30
0.0
 11
64.5314631909489
 21
311.1407933188978
 31
0.0
  0
LINE
  5
F3
330
1F
100
AcDbEntity
  8
0
  6
Continuous
 62
     3
100
AcDbLine
 10
71.38940818100787
 20
222.3042887738435
 30
0.0
 11
71.38940818100787
 21
309.3741591197313
 31
0.0
  0
LINE
  5
F4
330
1F
100
AcDbEntity
  8
0
  6
Continuous
 62
     3
100
AcDbLine
 10
-12.20618781684107
 20
249.6677853388405
 30
0.0
 11
-12.20618781684107
 21
222.3042887738435
 31
0.0
  0
LINE
  5
F5
330
1F
100
AcDbEntity
  8
0
  6
Continuous
 62
     3
100
AcDbLine
 10
-8.6246008814594
 20
248.3534710872545
 30
0.0
 11
-8.6246008814594
 21
222.3042887738435
 31
0.0
  0
LINE
  5
F6
330
1F
100
AcDbEntity
  8
0
  6
Continuous
 62
     3
100
AcDbLine
 10
-17.93985842455845
 20
222.3042887738435
 30
0.0
 11
-17.93985842455845
 21
321.2867346543071
 31
0.0
  0
LINE
  5
F7
330
1F
100
AcDbEntity
  8
0
  6
Continuous
 62
     3
100
AcDbLine
 10
-26.60493645958763
 20
314.3042887738435
 30
0.0
 11
-26.60493645958763
 21
222.3042887738435
 31
0.0
  0
LINE
  5
F8
330
1F
100
AcDbEntity
  8
0
  6
Continuous
 62
     3
100
AcDbLine
 10
-33.32463607366321
 20
314.3042887738435
 30
0.0
 11
-33.32463607366321
 21
222.3042887738435
 31
0.0
  0
LINE
  5
F9
330
1F
100
AcDbEntity
  8
0
  6
Continuous
 62
     3
100
AcDbLine
 10
-30.496208948917
 20
314.3042887738435
 30
0.0
 11
-30.496208948917
 21
222.3042887738435
 31
0.0
  0
LINE
  5
FA
330
1F
100
AcDbEntity
  8
0
  6
Continuous
 62
     3
100
AcDbLine
 10
-22.57359882216542
 20
222.3042887738435
 30
0.0
 11
-22.57359882216542
 21
309.6317158678507
 31
0.0
  0
ARC
  5
FB
330
1F
100
AcDbEntity
  8
0
  6
Continuous
 62
     3
100
AcDbCircle
 10
-21.57359882216542
 20
309.6317158678507
 30
0.0
 40
0.999999999999897
100
AcDbArc
 50
154.4138421521131
 51
180.0
  0
LINE
  5
FC
330
1F
100
AcDbEntity
  8
0
  6
Continuous
 62
     3
100
AcDbLine
 10
-20.64736413327228
 20
314.1087064416107
 30
0.0
 11
-20.64736413327228
 21
315.8256395915705
 31
0.0
  0
LINE
  5
FD
330
1F
100
AcDbEntity
  8
0
  6
Continuous
 62
     3
100
AcDbLine
 10
-20.74542724510206
 20
313.6768385801553
 30
0.0
 11
-22.47553571033541
 21
310.0635837293061
 31
0.0
  0
ARC
  5
FE
330
1F
100
AcDbEntity
  8
0
  6
Continuous
 62
     3
100
AcDbCircle
 10
-21.64736413327228
 20
314.1087064416107
 30
0.0
 40
1.000000000000102
100
AcDbArc
 50
334.4138421521187
 51
0.0
  0
ARC
  5
FF
330
1F
100
AcDbEntity
  8
0
  6
Continuous
 62
     3
100
AcDbCircle
 10
46.16960033384294
 20
314.1087064416107
 30
0.0
 40
1.0
100
AcDbArc
 50
180.0
 51
205.5861578478813
  0
ARC
  5
100
330
1F
100
AcDbEntity
  8
0
  6
Continuous
 62
     3
100
AcDbCircle
 10
46.09583502273608
 20
309.6317158678507
 30
0.0
 40
1.0
100
AcDbArc
 50
0.0
 51
25.58615784788131
  0
LINE
  5
101
330
1F
100
AcDbEntity
  8
0
  6
Continuous
 62
     3
100
AcDbLine
 10
45.26766344567272
 20
313.6768385801553
 30
0.0
 11
46.99777191090629
 21
310.0635837293061
 31
0.0
  0
LINE
  5
102
330
1F
100
AcDbEntity
  8
0
  6
Continuous
 62
     3
100
AcDbLine
 10
62.2422851117376
 20
313.6713982026473
 30
0.0
 11
62.2422851117376
 21
314.3042887738434
 31
0.0
  0
LINE
  5
103
330
1F
100
AcDbEntity
  8
0
  6
Continuous
 62
     3
100
AcDbLine
 10
59.51334411262565
 20
314.3042887738434
 30
0.0
 11
59.51334411262565
 21
222.3042887738435
 31
0.0
  0
LINE
  5
104
330
1F
100
AcDbEntity
  8
0
  6
Continuous
 62
     3
100
AcDbLine
 10
65.93603444879273
 20
309.4176055249848
 30
0.0
 11
65.93603444879273
 21
222.3042887738435
 31
0.0
  0
LINE
  5
105
330
1F
100
AcDbEntity
  8
0
  6
Continuous
 62
     3
100
AcDbLine
 10
51.12717266015829
 20
314.3042887738435
 30
0.0
 11
51.12717266015829
 21
222.3042887738435
 31
0.0
  0
LINE
  5
106
330
1F
100
AcDbEntity
  8
0
  6
Continuous
 62
     3
100
AcDbLine
 10
55.01844514948766
 20
314.3042887738434
 30
0.0
 11
55.01844514948766
 21
222.3042887738435
 31
0.0
  0
LINE
  5
107
330
1F
100
AcDbEntity
  8
0
  6
Continuous
 62
     3
100
AcDbLine
 10
57.84687227423387
 20
314.3042887738434
 30
0.0
 11
57.84687227423387
 21
222.3042887738435
 31
0.0
  0
LINE
  5
108
330
1F
100
AcDbEntity
  8
0
  6
Continuous
 62
     3
100
AcDbLine
 10
45.16960033384294
 20
314.1087064416107
 30
0.0
 11
45.16960033384294
 21
315.8256395915705
 31
0.0
  0
LINE
  5
109
330
1F
100
AcDbEntity
  8
0
  6
Continuous
 62
     3
100
AcDbLine
 10
33.14683708203006
 20
248.3534710872545
 30
0.0
 11
33.14683708203006
 21
222.3042887738435
 31
0.0
  0
LINE
  5
10A
330
1F
100
AcDbEntity
  8
0
  6
Continuous
 62
     3
100
AcDbLine
 10
36.72842401741173
 20
249.6677853388405
 30
0.0
 11
36.72842401741173
 21
222.3042887738435
 31
0.0
  0
LINE
  5
10B
330
1F
100
AcDbEntity
  8
0
  6
Continuous
 62
     3
100
AcDbLine
 10
47.09583502273608
 20
222.3042887738435
 30
0.0
 11
47.09583502273608
 21
309.6317158678507
 31
0.0
  0
LINE
  5
10C
330
1F
100
AcDbEntity
  8
0
  6
Continuous
 62
     3
100
AcDbLine
 10
42.46209462512911
 20
222.3042887738435
 30
0.0
 11
42.46209462512911
 21
321.2867346543071
 31
0.0
  0
ARC
  5
10D
330
1F
100
AcDbEntity
  8
0
  6
Continuous
 62
     3
100
AcDbCircle
 10
-7.738881899714443
 20
254.3042887738436
 30
0.0
 40
5.0
100
AcDbArc
 50
180.0
 51
270.0
  0
ARC
  5
10E
330
1F
100
AcDbEntity
  8
0
  6
Continuous
 62
     3
100
AcDbCircle
 10
32.26111810028533
 20
254.3042887738436
 30
0.0
 40
5.0
100
AcDbArc
 50
270.0
 51
0.0
  0
ARC
  5
10F
330
1F
100
AcDbEntity
  8
0
  6
Continuous
 62
     3
100
AcDbCircle
 10
12.26111810028533
 20
248.3042887738436
 30
0.0
 40
4.999999999999968
100
AcDbArc
 50
202.0243128370423
 51
337.9756871629577
  0
ARC
  5
110
330
1F
100
AcDbEntity
  8
0
  6
Continuous
 62
     3
100
AcDbCircle
 10
4.844919613189632
 20
245.3042887738436
 30
0.0
 40
3.000000000000065
100
AcDbArc
 50
22.02431283704166
 51
90.0
  0
ARC
  5
111
330
1F
100
AcDbEntity
  8
0
  6
Continuous
 62
     3
100
AcDbCircle
 10
19.67731658738103
 20
245.3042887738436
 30
0.0
 40
3.0
100
AcDbArc
 50
90.0
 51
157.9756871629584
  0
LINE
  5
112
330
1F
100
AcDbEntity
  8
0
  6
Continuous
 62
     3
100
AcDbLine
 10
19.67731658738103
 20
248.3042887738436
 30
0.0
 11
32.26111810028533
 21
248.3042887738436
 31
0.0
  0
ARC
  5
113
330
1F
100
AcDbEntity
  8
0
  6
Continuous
 62
     3
100
AcDbCircle
 10
12.26111810028533
 20
248.3042887738436
 30
0.0
 40
5.0
100
AcDbArc
 50
0.0
 51
180.0
  0
LINE
  5
114
330
1F
100
AcDbEntity
  8
0
  6
Continuous
 62
     3
100
AcDbLine
 10
-12.73888189971467
 20
254.3042887738436
 30
0.0
 11
-12.73888189971467
 21
320.3042887738436
 31
0.0
  0
ARC
  5
115
330
1F
100
AcDbEntity
  8
0
  6
Continuous
 62
     3
100
AcDbCircle
 10
-7.73888189971467
 20
320.3042887738436
 30
0.0
 40
5.000000000000057
100
AcDbArc
 50
90.0
 51
180.0
  0
LINE
  5
116
330
1F
100
AcDbEntity
  8
0
  6
Continuous
 62
     3
100
AcDbLine
 10
-7.73888189971467
 20
325.3042887738436
 30
0.0
 11
32.26111810028533
 21
325.3042887738436
 31
0.0
  0
LINE
  5
117
330
1F
100
AcDbEntity
  8
0
  6
Continuous
 62
     3
100
AcDbLine
 10
37.26111810028533
 20
254.3042887738436
 30
0.0
 11
37.26111810028533
 21
320.3042887738435
 31
0.0
  0
ARC
  5
118
330
1F
100
AcDbEntity
  8
0
  6
Continuous
 62
     3
100
AcDbCircle
 10
32.26111810028533
 20
320.3042887738435
 30
0.0
 40
5.0
100
AcDbArc
 50
0.0
 51
90.0
  0
ARC
  5
119
330
1F
100
AcDbEntity
  8
0
  6
Continuous
 62
     3
100
AcDbCircle
 10
32.26111810028533
 20
256.3042887738436
 30
0.0
 40
8.0
100
AcDbArc
 50
270.0
 51
0.0
  0
ARC
  5
11A
330
1F
100
AcDbEntity
  8
0
  6
Continuous
 62
     3
100
AcDbCircle
 10
-7.738881899714443
 20
256.3042887738436
 30
0.0
 40
8.000000000000227
100
AcDbArc
 50
180.0
 51
270.0
  0
ARC
  5
11B
330
1F
100
AcDbEntity
  8
0
  6
Continuous
 62
     3
100
AcDbCircle
 10
-7.73888189971467
 20
320.3042887738436
 30
0.0
 40
8.000000000000057
100
AcDbArc
 50
90.0
 51
180.0
  0
ARC
  5
11C
330
1F
100
AcDbEntity
  8
0
  6
Continuous
 62
     3
100
AcDbCircle
 10
32.26111810028533
 20
320.3042887738435
 30
0.0
 40
8.0
100
AcDbArc
 50
0.0
 51
90.0
  0
LINE
  5
11D
330
1F
100
AcDbEntity
  8
0
  6
Continuous
 62
     3
100
AcDbLine
 10
-7.73888189971467
 20
328.3042887738436
 30
0.0
 11
32.26111810028533
 21
328.3042887738436
 31
0.0
  0
LINE
  5
11E
330
1F
100
AcDbEntity
  8
0
  6
Continuous
 62
     3
100
AcDbLine
 10
-15.73888189971467
 20
256.3042887738436
 30
0.0
 11
-15.73888189971467
 21
320.3042887738436
 31
0.0
  0
LINE
  5
11F
330
1F
100
AcDbEntity
  8
0
  6
Continuous
 62
     3
100
AcDbLine
 10
40.26111810028533
 20
256.3042887738436
 30
0.0
 11
40.26111810028533
 21
320.3042887738435
 31
0.0
  0
LINE
  5
120
330
1F
100
AcDbEntity
  8
0
  6
Continuous
 62
     3
100
AcDbLine
 10
-7.738881899714443
 20
248.3042887738436
 30
0.0
 11
4.844919613189632
 21
248.3042887738436
 31
0.0
  0
POINT
  5
121
330
1F
100
AcDbEntity
  8
0
  6
Continuous
 62
     3
100
AcDbPoint
 10
71.26111810028533
 20
313.3042887738434
 30
0.0
  0
LINE
  5
122
330
1F
100
AcDbEntity
  8
0
  6
Continuous
 62
     3
100
AcDbLine
 10
71.76111810028533
 20
313.0156136392486
 30
0.0
 11
75.77703589186194
 21
310.6970224212384
 31
0.0
  0
ARC
  5
123
330
1F
100
AcDbEntity
  8
0
  6
Continuous
 62
     3
100
AcDbCircle
 10
72.26111810028533
 20
313.8816390430331
 30
0.0
 40
1.0
100
AcDbArc
 50
180.0
 51
240.0000000000011
  0
LINE
  5
124
330
1F
100
AcDbEntity
  8
0
  6
Continuous
 62
     3
100
AcDbLine
 10
71.26111810028533
 20
313.8816390430331
 30
0.0
 11
71.26111810028533
 21
314.3042887738434
 31
0.0
  0
ARC
  5
125
330
1F
100
AcDbEntity
  8
0
  6
Continuous
 62
     3
100
AcDbCircle
 10
-47.73888189971444
 20
313.8816390430331
 30
0.0
 40
1.000000000000033
100
AcDbArc
 50
299.9999999999989
 51
0.0
  0
POINT
  5
126
330
1F
100
AcDbEntity
  8
0
  6
Continuous
 62
     3
100
AcDbPoint
 10
-46.73888189971467
 20
313.3042887738435
 30
0.0
  0
LINE
  5
127
330
1F
100
AcDbEntity
  8
0
  6
Continuous
 62
     3
100
AcDbLine
 10
-46.73888189971444
 20
313.8816390430331
 30
0.0
 11
-46.73888189971444
 21
314.3042887738435
 31
0.0
  0
LINE
  5
128
330
1F
100
AcDbEntity
  8
0
  6
Continuous
 62
     3
100
AcDbLine
 10
-45.22979099062377
 20
314.3042887738435
 30
0.0
 11
-47.34259973009057
 21
236.8346349933896
 31
0.0
  0
LINE
  5
129
330
1F
100
AcDbEntity
  8
0
  6
DASHDOT
 62
     4
100
AcDbLine
 10
-102.8788439830244
 20
-295.914848992314
 30
0.0
 11
113.6811022687677
 21
-295.914848992314
 31
0.0
  0
LINE
  5
12A
330
1F
100
AcDbEntity
  8
0
  6
Continuous
 62
     3
100
AcDbLine
 10
-53.23888189971467
 20
-126.3957112261565
 30
0.0
 11
-53.23888189971467
 21
-121.8957112261565
 31
0.0
  0
LINE
  5
12B
330
1F
100
AcDbEntity
  8
0
  6
Continuous
 62
     3
100
AcDbLine
 10
-60.23888189971467
 20
-126.3957112261565
 30
0.0
 11
-53.23888189971467
 21
-126.3957112261565
 31
0.0
  0
LINE
  5
12C
330
1F
100
AcDbEntity
  8
0
  6
Continuous
 62
     3
100
AcDbLine
 10
-60.23888189971467
 20
-126.3957112261565
 30
0.0
 11
-60.23888189971467
 21
-121.8957112261565
 31
0.0
  0
LINE
  5
12D
330
1F
100
AcDbEntity
  8
0
  6
DASHDOT
 62
     4
100
AcDbLine
 10
-56.73888189971467
 20
-128.5613855772799
 30
0.0
 11
-56.73888189971467
 21
-117.490757551268
 31
0.0
  0
CIRCLE
  5
12E
330
1F
100
AcDbEntity
  8
0
  6
DASHED
 62
     3
100
AcDbCircle
 10
12.26111810028533
 20
171.3042887738435
 30
0.0
 40
4.0
  0
LINE
  5
12F
330
1F
100
AcDbEntity
  8
0
  6
DASHDOT
 62
     4
100
AcDbLine
 10
3.793412016047114
 20
171.3042887738435
 30
0.0
 11
21.68600680092868
 21
171.3042887738435
 31
0.0
  0
ARC
  5
130
330
1F
100
AcDbEntity
  8
0
  6
Continuous
 62
     3
100
AcDbCircle
 10
80.16843311026037
 20
202.3042887738435
 30
0.0
 40
2.0
100
AcDbArc
 50
270.0
 51
0.0
  0
LINE
  5
131
330
1F
100
AcDbEntity
  8
0
  6
Continuous
 62
     3
100
AcDbLine
 10
73.26111810028533
 20
200.3042887738435
 30
0.0
 11
80.16843311026037
 21
200.3042887738435
 31
0.0
  0
ARC
  5
132
330
1F
100
AcDbEntity
  8
0
  6
Continuous
 62
     3
100
AcDbCircle
 10
-48.75789512711799
 20
224.5408791110706
 30
0.0
 40
2.000000000000116
100
AcDbArc
 50
138.2158057643625
 51
180.0
  0
ARC
  5
133
330
1F
100
AcDbEntity
  8
0
  6
Continuous
 62
     3
100
AcDbCircle
 10
-55.64619690968971
 20
224.5408791110707
 30
0.0
 40
1.999999999999909
100
AcDbArc
 50
138.2158057643594
 51
180.0
  0
ARC
  5
134
330
1F
100
AcDbEntity
  8
0
  6
Continuous
 62
     3
100
AcDbCircle
 10
-55.64619690968971
 20
202.3042887738435
 30
0.0
 40
2.0
100
AcDbArc
 50
180.0
 51
270.0
  0
LINE
  5
135
330
1F
100
AcDbEntity
  8
0
  6
Continuous
 62
     3
100
AcDbLine
 10
-40.03461207898272
 20
200.3042887738435
 30
0.0
 11
-55.64619690968971
 21
200.3042887738435
 31
0.0
  0
LINE
  5
136
330
1F
100
AcDbEntity
  8
0
  6
Continuous
 62
     3
100
AcDbLine
 10
-5.73888189971467
 20
213.3042887738435
 30
0.0
 11
-5.73888189971467
 21
248.3042887738436
 31
0.0
  0
LINE
  5
137
330
1F
100
AcDbEntity
  8
0
  6
Continuous
 62
     3
100
AcDbLine
 10
30.26111810028533
 20
213.3042887738435
 30
0.0
 11
30.26111810028533
 21
248.3042887738436
 31
0.0
  0
LINE
  5
138
330
1F
100
AcDbEntity
  8
0
  6
Continuous
 62
     3
100
AcDbLine
 10
82.16843311026037
 20
225.3042887738435
 30
0.0
 11
78.50867742145283
 21
229.5613012072653
 31
0.0
  0
LINE
  5
139
330
1F
100
AcDbEntity
  8
0
  6
Continuous
 62
     3
100
AcDbLine
 10
82.16843311026037
 20
225.3042887738435
 30
0.0
 11
82.16843311026037
 21
202.3042887738435
 31
0.0
  0
LINE
  5
13A
330
1F
100
AcDbEntity
  8
0
  6
Continuous
 62
     3
100
AcDbLine
 10
-47.3425997300908
 20
236.8346349933893
 30
0.0
 11
-57.13751659511877
 21
225.8735327029135
 31
0.0
  0
LINE
  5
13B
330
1F
100
AcDbEntity
  8
0
  6
Continuous
 62
     3
100
AcDbLine
 10
-40.03461207898272
 20
237.3042887738435
 30
0.0
 11
-50.24921481254728
 21
225.8735327029134
 31
0.0
  0
LINE
  5
13C
330
1F
100
AcDbEntity
  8
0
  6
Continuous
 62
     3
100
AcDbLine
 10
-57.64619690968971
 20
224.5408791110707
 30
0.0
 11
-57.64619690968971
 21
202.3042887738435
 31
0.0
  0
LINE
  5
13D
330
1F
100
AcDbEntity
  8
0
  6
Continuous
 62
     3
100
AcDbLine
 10
-50.75789512711799
 20
224.5408791110706
 30
0.0
 11
-50.75789512711799
 21
200.3042887738435
 31
0.0
  0
LINE
  5
13E
330
1F
100
AcDbEntity
  8
0
  6
Continuous
 62
     3
100
AcDbLine
 10
-40.03461207898272
 20
245.7537442970165
 30
0.0
 11
-40.03461207898272
 21
200.3042887738435
 31
0.0
  0
LINE
  5
13F
330
1F
100
AcDbEntity
  8
0
  6
Continuous
 62
     3
100
AcDbLine
 10
-50.60646367785807
 20
225.3042887738435
 30
0.0
 11
-57.49476546042979
 21
225.3042887738435
 31
0.0
  0
CIRCLE
  5
140
330
1F
100
AcDbEntity
  8
0
  6
Continuous
 62
     3
100
AcDbCircle
 10
12.26111810028533
 20
-295.914848992314
 30
0.0
 40
12.5
  0
LINE
  5
141
330
1F
100
AcDbEntity
  8
0
  6
DASHDOT
 62
     4
100
AcDbLine
 10
12.26111810028533
 20
-392.2241129892407
 30
0.0
 11
12.26111810028533
 21
-183.5838231708219
 31
0.0
  0
LINE
  5
142
330
1F
100
AcDbEntity
  8
0
  6
DASHDOT
 62
     4
100
AcDbLine
 10
12.26111810028533
 20
-132.5963983326719
 30
0.0
 11
12.26111810028533
 21
372.3128154577178
 31
0.0
  0
LINE
  5
143
330
1F
100
AcDbEntity
  8
0
  6
Continuous
 62
     3
100
AcDbLine
 10
0.508426906827253
 20
-125.8957112261565
 30
0.0
 11
12.26111810028533
 21
-125.8957112261565
 31
0.0
  0
LINE
  5
144
330
1F
100
AcDbEntity
  8
0
  6
Continuous
 62
     3
100
AcDbLine
 10
0.508426906827253
 20
-125.8957112261565
 30
0.0
 11
-3.491573093172747
 21
-121.8957112261565
 31
0.0
  0
LINE
  5
145
330
1F
100
AcDbEntity
  8
0
  6
Continuous
 62
     3
100
AcDbLine
 10
12.26111810028533
 20
-121.8957112261565
 30
0.0
 11
-61.73888189971467
 21
-121.8957112261565
 31
0.0
  0
LINE
  5
146
330
1F
100
AcDbEntity
  8
0
  6
Continuous
 62
     3
100
AcDbLine
 10
12.26111810028533
 20
-119.5957112261565
 30
0.0
 11
-61.73888189971467
 21
-119.5957112261565
 31
0.0
  0
ARC
  5
147
330
1F
100
AcDbEntity
  8
0
  6
Continuous
 62
     3
100
AcDbCircle
 10
-16.7388818997149
 20
-95.59571122615645
 30
0.0
 40
1.0
100
AcDbArc
 50
180.0
 51
270.0
  0
LINE
  5
148
330
1F
100
AcDbEntity
  8
0
  6
Continuous
 62
     3
100
AcDbLine
 10
-6.238881899714897
 20
-96.59571122615648
 30
0.0
 11
-6.238881899714897
 21
-93.59571122615648
 31
0.0
  0
LINE
  5
149
330
1F
100
AcDbEntity
  8
0
  6
Continuous
 62
     3
100
AcDbLine
 10
-6.238881899714897
 20
-93.59571122615648
 30
0.0
 11
-11.2388818997149
 21
-93.59571122615645
 31
0.0
  0
LINE
  5
14A
330
1F
100
AcDbEntity
  8
0
  6
Continuous
 62
     3
100
AcDbLine
 10
-11.2388818997149
 20
-95.59571122615648
 30
0.0
 11
-11.2388818997149
 21
-93.59571122615645
 31
0.0
  0
ARC
  5
14B
330
1F
100
AcDbEntity
  8
0
  6
Continuous
 62
     3
100
AcDbCircle
 10
-12.2388818997149
 20
-95.59571122615648
 30
0.0
 40
1.0
100
AcDbArc
 50
270.0
 51
0.0
  0
LINE
  5
14C
330
1F
100
AcDbEntity
  8
0
  6
Continuous
 62
     3
100
AcDbLine
 10
-17.7388818997149
 20
-95.59571122615645
 30
0.0
 11
-17.7388818997149
 21
-84.5957112261565
 31
0.0
  0
LINE
  5
14D
330
1F
100
AcDbEntity
  8
0
  6
Continuous
 62
     3
100
AcDbLine
 10
-4.738881899714897
 20
-78.5957112261565
 30
0.0
 11
-4.738881899714897
 21
-75.5957112261565
 31
0.0
  0
LINE
  5
14E
330
1F
100
AcDbEntity
  8
0
  6
Continuous
 62
     3
100
AcDbLine
 10
-5.738881899714897
 20
-79.5957112261565
 30
0.0
 11
-12.7388818997149
 21
-79.5957112261565
 31
0.0
  0
ARC
  5
14F
330
1F
100
AcDbEntity
  8
0
  6
Continuous
 62
     3
100
AcDbCircle
 10
-5.738881899714897
 20
-78.5957112261565
 30
0.0
 40
1.0
100
AcDbArc
 50
270.0
 51
0.0
  0
ARC
  5
150
330
1F
100
AcDbEntity
  8
0
  6
Continuous
 62
     3
100
AcDbCircle
 10
-12.7388818997149
 20
-84.5957112261565
 30
0.0
 40
5.0
100
AcDbArc
 50
90.0
 51
180.0
  0
LINE
  5
151
330
1F
100
AcDbEntity
  8
0
  6
Continuous
 62
     3
100
AcDbLine
 10
-4.738881899714897
 20
-75.5957112261565
 30
0.0
 11
-12.7388818997149
 21
-67.5957112261565
 31
0.0
  0
LINE
  5
152
330
1F
100
AcDbEntity
  8
0
  6
Continuous
 62
     3
100
AcDbLine
 10
-12.7388818997149
 20
-67.5957112261565
 30
0.0
 11
-25.23888189971467
 21
-67.5957112261565
 31
0.0
  0
LINE
  5
153
330
1F
100
AcDbEntity
  8
0
  6
Continuous
 62
     3
100
AcDbLine
 10
12.26111810028533
 20
153.3042887738435
 30
0.0
 11
-70.23888189971467
 21
153.3042887738435
 31
0.0
  0
LINE
  5
154
330
1F
100
AcDbEntity
  8
0
  6
Continuous
 62
     3
100
AcDbLine
 10
12.26111810028533
 20
150.3042887738435
 30
0.0
 11
-63.73888189971467
 21
150.3042887738435
 31
0.0
  0
LINE
  5
155
330
1F
100
AcDbEntity
  8
0
  6
Continuous
 62
     3
100
AcDbLine
 10
12.26111810028533
 20
153.3042887738435
 30
0.0
 11
-57.73888189971467
 21
153.3042887738435
 31
0.0
  0
LINE
  5
156
330
1F
100
AcDbEntity
  8
0
  6
Continuous
 62
     3
100
AcDbLine
 10
4.01111810028533
 20
142.3042887738435
 30
0.0
 11
4.01111810028533
 21
143.3042887738434
 31
0.0
  0
LINE
  5
157
330
1F
100
AcDbEntity
  8
0
  6
Continuous
 62
     3
100
AcDbLine
 10
3.76111810028533
 20
148.3042887738434
 30
0.0
 11
3.76111810028533
 21
150.3042887738435
 31
0.0
  0
LINE
  5
158
330
1F
100
AcDbEntity
  8
0
  6
Continuous
 62
     3
100
AcDbLine
 10
3.76111810028533
 20
148.3042887738434
 30
0.0
 11
12.2611181002851
 21
148.3042887738434
 31
0.0
  0
LINE
  5
159
330
1F
100
AcDbEntity
  8
0
  6
Continuous
 62
     3
100
AcDbLine
 10
0.76111810028533
 20
143.3042887738435
 30
0.0
 11
0.76111810028533
 21
145.8042887738435
 31
0.0
  0
LINE
  5
15A
330
1F
100
AcDbEntity
  8
0
  6
Continuous
 62
     3
100
AcDbLine
 10
0.76111810028533
 20
143.3042887738435
 30
0.0
 11
12.2611181002851
 21
143.3042887738434
 31
0.0
  0
LINE
  5
15B
330
1F
100
AcDbEntity
  8
0
  6
Continuous
 62
     3
100
AcDbLine
 10
-2.73888189971467
 20
145.8042887738435
 30
0.0
 11
-2.73888189971467
 21
147.3042887738435
 31
0.0
  0
LINE
  5
15C
330
1F
100
AcDbEntity
  8
0
  6
Continuous
 62
     3
100
AcDbLine
 10
-2.73888189971467
 20
145.8042887738435
 30
0.0
 11
12.2611181002851
 21
145.8042887738434
 31
0.0
  0
LINE
  5
15D
330
1F
100
AcDbEntity
  8
0
  6
Continuous
 62
     3
100
AcDbLine
 10
-2.73888189971467
 20
147.3042887738435
 30
0.0
 11
12.2611181002851
 21
147.3042887738434
 31
0.0
  0
LINE
  5
15E
330
1F
100
AcDbEntity
  8
0
  6
Continuous
 62
     3
100
AcDbLine
 10
4.01111810028533
 20
147.3042887738434
 30
0.0
 11
4.01111810028533
 21
148.3042887738434
 31
0.0
  0
LINE
  5
15F
330
1F
100
AcDbEntity
  8
0
  6
Continuous
 62
     3
100
AcDbLine
 10
12.26111810028533
 20
213.3042887738435
 30
0.0
 11
-57.64619690968971
 21
213.3042887738435
 31
0.0
  0
LINE
  5
160
330
1F
100
AcDbEntity
  8
0
  6
Continuous
 62
     3
100
AcDbLine
 10
-5.73888189971467
 20
222.3042887738435
 30
0.0
 11
-40.03461207898272
 21
222.3042887738435
 31
0.0
  0
LINE
  5
161
330
1F
100
AcDbEntity
  8
0
  6
Continuous
 62
     3
100
AcDbLine
 10
-51.75441357893374
 20
309.8587832664282
 30
0.0
 11
-53.99107528486434
 21
229.3945901583184
 31
0.0
  0
LINE
  5
162
330
1F
100
AcDbEntity
  8
0
  6
Continuous
 62
     3
100
AcDbLine
 10
-47.23888189971444
 20
313.0156136392487
 30
0.0
 11
-51.25479969129105
 21
310.6970224212385
 31
0.0
  0
ARC
  5
163
330
1F
100
AcDbEntity
  8
0
  6
Continuous
 62
     3
100
AcDbCircle
 10
-50.75479969129105
 20
309.8309970174541
 30
0.0
 40
0.999999999999984
100
AcDbArc
 50
120.0000000000006
 51
178.4077602721936
  0
LINE
  5
164
330
1F
100
AcDbEntity
  8
0
  6
Continuous
 62
     3
100
AcDbLine
 10
20.51111810028533
 20
147.3042887738434
 30
0.0
 11
20.51111810028533
 21
148.3042887738434
 31
0.0
  0
LINE
  5
165
330
1F
100
AcDbEntity
  8
0
  6
Continuous
 62
     3
100
AcDbLine
 10
27.26111810028533
 20
147.3042887738435
 30
0.0
 11
12.26111810028556
 21
147.3042887738434
 31
0.0
  0
LINE
  5
166
330
1F
100
AcDbEntity
  8
0
  6
Continuous
 62
     3
100
AcDbLine
 10
27.26111810028533
 20
145.8042887738435
 30
0.0
 11
12.26111810028556
 21
145.8042887738434
 31
0.0
  0
LINE
  5
167
330
1F
100
AcDbEntity
  8
0
  6
Continuous
 62
     3
100
AcDbLine
 10
27.26111810028533
 20
145.8042887738435
 30
0.0
 11
27.26111810028533
 21
147.3042887738435
 31
0.0
  0
LINE
  5
168
330
1F
100
AcDbEntity
  8
0
  6
Continuous
 62
     3
100
AcDbLine
 10
23.76111810028533
 20
143.3042887738435
 30
0.0
 11
12.26111810028556
 21
143.3042887738434
 31
0.0
  0
LINE
  5
169
330
1F
100
AcDbEntity
  8
0
  6
Continuous
 62
     3
100
AcDbLine
 10
23.76111810028533
 20
143.3042887738435
 30
0.0
 11
23.76111810028533
 21
145.8042887738435
 31
0.0
  0
ARC
  5
16A
330
1F
100
AcDbEntity
  8
0
  6
Continuous
 62
     3
100
AcDbCircle
 10
77.74494283419449
 20
221.0477267293443
 30
0.0
 40
1.000000000000033
100
AcDbArc
 50
299.9999999999989
 51
1.592239727803176
  0
ARC
  5
16B
330
1F
100
AcDbEntity
  8
0
  6
Continuous
 62
     3
100
AcDbCircle
 10
75.27703589186194
 20
309.8309970174541
 30
0.0
 40
1.000000000000085
100
AcDbArc
 50
1.592239727806432
 51
59.99999999999946
  0
LINE
  5
16C
330
1F
100
AcDbEntity
  8
0
  6
Continuous
 62
     3
100
AcDbLine
 10
76.27664977950462
 20
309.8587832664282
 30
0.0
 11
78.74455672183717
 21
221.0755129783184
 31
0.0
  0
LINE
  5
16D
330
1F
100
AcDbEntity
  8
0
  6
Continuous
 62
     3
100
AcDbLine
 10
71.26111810028533
 20
313.3042887738434
 30
0.0
 11
75.77703589186194
 21
310.6970224212385
 31
0.0
  0
LINE
  5
16E
330
1F
100
AcDbEntity
  8
0
  6
Continuous
 62
     3
100
AcDbLine
 10
71.26111810028533
 20
313.3042887738436
 30
0.0
 11
71.26111810028533
 21
314.3042887738434
 31
0.0
  0
LINE
  5
16F
330
1F
100
AcDbEntity
  8
0
  6
Continuous
 62
     3
100
AcDbLine
 10
73.26111810028533
 20
217.3042887738435
 30
0.0
 11
78.24494283419449
 21
220.1817013255598
 31
0.0
  0
LINE
  5
170
330
1F
100
AcDbEntity
  8
0
  6
Continuous
 62
     3
100
AcDbLine
 10
20.76111810028533
 20
142.3042887738435
 30
0.0
 11
12.26111810028556
 21
142.3042887738434
 31
0.0
  0
LINE
  5
171
330
1F
100
AcDbEntity
  8
0
  6
Continuous
 62
     3
100
AcDbLine
 10
20.76111810028533
 20
148.3042887738434
 30
0.0
 11
12.26111810028556
 21
148.3042887738434
 31
0.0
  0
LINE
  5
172
330
1F
100
AcDbEntity
  8
0
  6
Continuous
 62
     3
100
AcDbLine
 10
20.76111810028533
 20
148.3042887738434
 30
0.0
 11
20.76111810028533
 21
150.3042887738435
 31
0.0
  0
LINE
  5
173
330
1F
100
AcDbEntity
  8
0
  6
Continuous
 62
     3
100
AcDbLine
 10
20.51111810028533
 20
142.3042887738435
 30
0.0
 11
20.51111810028533
 21
143.3042887738434
 31
0.0
  0
LINE
  5
174
330
1F
100
AcDbEntity
  8
0
  6
Continuous
 62
     3
100
AcDbLine
 10
20.76111810028522
 20
-96.59571122615648
 30
0.0
 11
20.76111810028533
 21
142.3042887738435
 31
0.0
  0
LINE
  5
175
330
1F
100
AcDbEntity
  8
0
  6
Continuous
 62
     3
100
AcDbLine
 10
3.76111810028533
 20
-96.5957112261565
 30
0.0
 11
3.76111810028533
 21
142.3042887738435
 31
0.0
  0
LINE
  5
176
330
1F
100
AcDbEntity
  8
0
  6
Continuous
 62
     3
100
AcDbLine
 10
3.76111810028533
 20
142.3042887738435
 30
0.0
 11
12.2611181002851
 21
142.3042887738434
 31
0.0
  0
LINE
  5
177
330
1F
100
AcDbEntity
  8
0
  6
Continuous
 62
     3
100
AcDbLine
 10
-45.73888189971444
 20
213.3042887738435
 30
0.0
 11
-48.73888189971444
 21
213.3042887738435
 31
0.0
  0
LINE
  5
178
330
1F
100
AcDbEntity
  8
0
  6
Continuous
 62
     3
100
AcDbLine
 10
-46.98386242208903
 20
249.9883362867879
 30
0.0
 11
-47.3425997300908
 21
236.8346349933894
 31
0.0
  0
LINE
  5
179
330
1F
100
AcDbEntity
  8
0
  6
Continuous
 62
     3
100
AcDbLine
 10
69.75202719119454
 20
314.3042887738434
 30
0.0
 11
69.83990827950015
 21
311.0819822026358
 31
0.0
  0
LINE
  5
17A
330
1F
100
AcDbEntity
  8
0
  6
Continuous
 62
     3
100
AcDbLine
 10
30.26111810028533
 20
222.3042887738435
 30
0.0
 11
73.26111810028533
 21
222.3042887738435
 31
0.0
  0
LINE
  5
17B
330
1F
100
AcDbEntity
  8
0
  6
Continuous
 62
     3
100
AcDbLine
 10
12.26111810028533
 20
213.3042887738435
 30
0.0
 11
82.16843311026037
 21
213.3042887738435
 31
0.0
  0
LINE
  5
17C
330
1F
100
AcDbEntity
  8
0
  6
Continuous
 62
     3
100
AcDbLine
 10
-48.73888189971467
 20
200.3042887738435
 30
0.0
 11
-48.73888189971467
 21
166.3042887738435
 31
0.0
  0
ENDSEC
  0
SECTION
  2
OBJECTS
  0
DICTIONARY
  5
C
330
0
100
AcDbDictionary
281
     1
  3
ACAD_COLOR
350
6C
  3
ACAD_GROUP
350
D
  3
ACAD_LAYOUT
350
1A
  3
ACAD_MATERIAL
350
6B
  3
ACAD_MLINESTYLE
350
17
  3
ACAD_PLOTSETTINGS
350
19
  3
ACAD_PLOTSTYLENAME
350
E
  3
ACAD_TABLESTYLE
350
92
  3
AcDbVariableDictionary
350
59
  0
DICTIONARY
  5
6C
102
{ACAD_REACTORS
330
C
102
}
330
C
100
AcDbDictionary
281
     1
  0
DICTIONARY
  5
D
102
{ACAD_REACTORS
330
C
102
}
330
C
100
AcDbDictionary
281
     1
  0
DICTIONARY
  5
1A
102
{ACAD_REACTORS
330
C
102
}
330
C
100
AcDbDictionary
281
     1
  3
Layout1
350
74
  3
Model
350
22
  0
DICTIONARY
  5
6B
102
{ACAD_REACTORS
330
C
102
}
330
C
100
AcDbDictionary
281
     1
  0
DICTIONARY
  5
17
102
{ACAD_REACTORS
330
C
102
}
330
C
100
AcDbDictionary
281
     1
  3
Standard
350
18
  0
DICTIONARY
  5
19
102
{ACAD_REACTORS
330
C
102
}
330
C
100
AcDbDictionary
281
     1
  0
ACDBDICTIONARYWDFLT
  5
E
102
{ACAD_REACTORS
330
C
102
}
330
C
100
AcDbDictionary
281
     1
  3
Normal
350
F
100
AcDbDictionaryWithDefault
340
F
  0
DICTIONARY
  5
92
102
{ACAD_REACTORS
330
C
102
}
330
C
100
AcDbDictionary
281
     1
  3
Standard
350
93
  0
DICTIONARY
  5
59
102
{ACAD_REACTORS
330
C
102
}
330
C
100
AcDbDictionary
281
     1
  3
CTABLESTYLE
350
98
  3
HIDETEXT
350
183
  0
LAYOUT
  5
74
102
{ACAD_REACTORS
330
1A
102
}
330
1A
100
AcDbPlotSettings
  1

  2
指定なし
  4

  6

 40
0.0
 41
0.0
 42
0.0
 43
0.0
 44
0.0
 45
0.0
 46
0.0
 47
0.0
 48
0.0
 49
0.0
140
0.0
141
0.0
142
1.0
143
1.0
 70
   688
 72
     0
 73
     0
 74
     5
  7

 75
    16
 76
     0
 77
     2
 78
   300
147
1.0
148
0.0
149
0.0
100
AcDbLayout
  1
Layout1
 70
     1
 71
     1
 10
0.0
 20
0.0
 11
12.0
 21
9.0
 12
0.0
 22
0.0
 32
0.0
 14
1.000000000000000E+20
 24
1.000000000000000E+20
 34
1.000000000000000E+20
 15
-1.000000000000000E+20
 25
-1.000000000000000E+20
 35
-1.000000000000000E+20
146
0.0
 13
0.0
 23
0.0
 33
0.0
 16
1.0
 26
0.0
 36
0.0
 17
0.0
 27
1.0
 37
0.0
 76
     0
330
73
  0
LAYOUT
  5
22
102
{ACAD_REACTORS
330
1A
102
}
330
1A
100
AcDbPlotSettings
  1

  2
指定なし
  4

  6

 40
0.0
 41
0.0
 42
0.0
 43
0.0
 44
0.0
 45
0.0
 46
0.0
 47
0.0
 48
0.0
 49
0.0
140
0.0
141
0.0
142
1.0
143
1.0
 70
 11952
 72
     0
 73
     0
 74
     0
  7

 75
     0
 76
     0
 77
     2
 78
   300
147
1.0
148
0.0
149
0.0
100
AcDbLayout
  1
Model
 70
     1
 71
     0
 10
0.0
 20
0.0
 11
12.0
 21
9.0
 12
0.0
 22
0.0
 32
0.0
 14
-102.8788439830244
 24
-392.2241129892407
 34
0.0
 15
113.6811022687677
 25
372.3128154577178
 35
0.0
146
0.0
 13
0.0
 23
0.0
 33
0.0
 16
1.0
 26
0.0
 36
0.0
 17
0.0
 27
1.0
 37
0.0
 76
     0
330
1F
  0
MLINESTYLE
  5
18
102
{ACAD_REACTORS
330
17
102
}
330
17
100
AcDbMlineStyle
  2
Standard
 70
     0
  3

 62
   256
 51
90.0
 52
90.0
 71
     2
 49
0.5
 62
   256
  6
BYLAYER
 49
-0.5
 62
   256
  6
BYLAYER
  0
ACDBPLACEHOLDER
  5
F
102
{ACAD_REACTORS
330
E
102
}
330
E
  0
TABLESTYLE
  5
93
102
{ACAD_REACTORS
330
92
102
}
330
92
100
AcDbTableStyle
  3
Standard
 70
     0
 71
     0
 40
0.06
 41
0.06
280
     0
281
     0
  7
Standard
140
0.18
170
     2
 62
     0
 63
     7
283
     0
274
    -2
284
     1
 64
     0
275
    -2
285
     1
 65
     0
276
    -2
286
     1
 66
     0
277
    -2
287
     1
 67
     0
278
    -2
288
     1
 68
     0
279
    -2
289
     1
 69
     0
  7
Standard
140
0.25
170
     5
 62
     0
 63
     7
283
     0
274
    -2
284
     1
 64
     0
275
    -2
285
     1
 65
     0
276
    -2
286
     1
 66
     0
277
    -2
287
     1
 67
     0
278
    -2
288
     1
 68
     0
279
    -2
289
     1
 69
     0
  7
Standard
140
0.18
170
     5
 62
     0
 63
     7
283
     0
274
    -2
284
     1
 64
     0
275
    -2
285
     1
 65
     0
276
    -2
286
     1
 66
     0
277
    -2
287
     1
 67
     0
278
    -2
288
     1
 68
     0
279
    -2
289
     1
 69
     0
  0
DICTIONARYVAR
  5
98
102
{ACAD_REACTORS
330
59
102
}
330
59
100
DictionaryVariables
280
     0
  1
STANDARD
  0
DICTIONARYVAR
  5
183
102
{ACAD_REACTORS
330
59
102
}
330
59
100
DictionaryVariables
280
     0
  1
2
  0
ENDSEC
  0
EOF
