  0
SECTION
  2
HEADER
  9
$ACADVER
  1
AC1015
  9
$ACADMAINTVER
 70
     6
  9
$DWGCODEPAGE
  3
DOS932
  9
$INSBASE
 10
0.0
 20
0.0
 30
0.0
  9
$EXTMIN
 10
0.0
 20
0.0
 30
0.0
  9
$EXTMAX
 10
594.0
 20
420.0
 30
0.0
  9
$LIMMIN
 10
0.0
 20
0.0
  9
$LIMMAX
 10
594.0
 20
420.0
  9
$ORTHOMODE
 70
     0
  9
$REGENMODE
 70
     1
  9
$FILLMODE
 70
     1
  9
$QTEXTMODE
 70
     0
  9
$MIRRTEXT
 70
     1
  9
$LTSCALE
 40
2.0
  9
$ATTMODE
 70
     1
  9
$TEXTSIZE
 40
7.0
  9
$TRACEWID
 40
1.0
  9
$TEXTSTYLE
  7
STANDARD
  9
$CLAYER
  8
0
  9
$CELTYPE
  6
ByLayer
  9
$CECOLOR
 62
   256
  9
$CELTSCALE
 40
1.0
  9
$DISPSILH
 70
     0
  9
$DIMSCALE
 40
1.0
  9
$DIMASZ
 40
4.0
  9
$DIMEXO
 40
2.0
  9
$DIMDLI
 40
3.75
  9
$DIMRND
 40
0.0
  9
$DIMDLE
 40
0.0
  9
$DIMEXE
 40
2.0
  9
$DIMTP
 40
0.0
  9
$DIMTM
 40
0.0
  9
$DIMTXT
 40
5.5999999046
  9
$DIMCEN
 40
2.5
  9
$DIMTSZ
 40
0.0
  9
$DIMTOL
 70
     0
  9
$DIMLIM
 70
     0
  9
$DIMTIH
 70
     1
  9
$DIMTOH
 70
     1
  9
$DIMSE1
 70
     0
  9
$DIMSE2
 70
     0
  9
$DIMTAD
 70
     1
  9
$DIMZIN
 70
     1
  9
$DIMBLK
  1

  9
$DIMASO
 70
     1
  9
$DIMSHO
 70
     1
  9
$DIMPOST
  1

  9
$DIMAPOST
  1

  9
$DIMALT
 70
     0
  9
$DIMALTD
 70
     3
  9
$DIMALTF
 40
0.0393700787
  9
$DIMLFAC
 40
1.0
  9
$DIMTOFL
 70
     1
  9
$DIMTVP
 40
0.0
  9
$DIMTIX
 70
     0
  9
$DIMSOXD
 70
     0
  9
$DIMSAH
 70
     0
  9
$DIMBLK1
  1

  9
$DIMBLK2
  1

  9
$DIMSTYLE
  2
ISO-25
  9
$DIMCLRD
 70
     0
  9
$DIMCLRE
 70
     0
  9
$DIMCLRT
 70
     0
  9
$DIMTFAC
 40
1.0
  9
$DIMGAP
 40
3.048
  9
$DIMJUST
 70
     0
  9
$DIMSD1
 70
     0
  9
$DIMSD2
 70
     0
  9
$DIMTOLJ
 70
     0
  9
$DIMTZIN
 70
     1
  9
$DIMALTZ
 70
     0
  9
$DIMALTTZ
 70
     0
  9
$DIMUPT
 70
     0
  9
$DIMDEC
 70
     1
  9
$DIMTDEC
 70
     1
  9
$DIMALTU
 70
     2
  9
$DIMALTTD
 70
     3
  9
$DIMTXSTY
  7
STANDARD
  9
$DIMAUNIT
 70
     0
  9
$DIMADEC
 70
     0
  9
$DIMALTRND
 40
0.0
  9
$DIMAZIN
 70
     0
  9
$DIMDSEP
 70
    44
  9
$DIMATFIT
 70
     3
  9
$DIMFRAC
 70
     0
  9
$DIMLDRBLK
  1

  9
$DIMLUNIT
 70
     2
  9
$DIMLWD
 70
    -2
  9
$DIMLWE
 70
    -2
  9
$DIMTMOVE
 70
     0
  9
$LUNITS
 70
     2
  9
$LUPREC
 70
     1
  9
$SKETCHINC
 40
1.0
  9
$FILLETRAD
 40
10.0
  9
$AUNITS
 70
     0
  9
$AUPREC
 70
     0
  9
$MENU
  1
.
  9
$ELEVATION
 40
0.0
  9
$PELEVATION
 40
0.0
  9
$THICKNESS
 40
0.0
  9
$LIMCHECK
 70
     0
  9
$CHAMFERA
 40
0.0
  9
$CHAMFERB
 40
0.0
  9
$CHAMFERC
 40
0.0
  9
$CHAMFERD
 40
0.0
  9
$SKPOLY
 70
     0
  9
$TDCREATE
 40
2459086.486645856
  9
$TDUCREATE
 40
2459086.111645856
  9
$TDUPDATE
 40
2459086.486646285
  9
$TDUUPDATE
 40
2459086.111646285
  9
$TDINDWG
 40
0.0000000116
  9
$TDUSRTIMER
 40
0.0000000116
  9
$USRTIMER
 70
     1
  9
$ANGBASE
 50
0.0
  9
$ANGDIR
 70
     0
  9
$PDMODE
 70
     0
  9
$PDSIZE
 40
-1.0
  9
$PLINEWID
 40
0.0
  9
$SPLFRAME
 70
     0
  9
$SPLINETYPE
 70
     6
  9
$SPLINESEGS
 70
     8
  9
$HANDSEED
  5
21C
  9
$SURFTAB1
 70
     6
  9
$SURFTAB2
 70
     6
  9
$SURFTYPE
 70
     6
  9
$SURFU
 70
     6
  9
$SURFV
 70
     6
  9
$UCSBASE
  2

  9
$UCSNAME
  2

  9
$UCSORG
 10
0.0
 20
0.0
 30
0.0
  9
$UCSXDIR
 10
1.0
 20
0.0
 30
0.0
  9
$UCSYDIR
 10
0.0
 20
1.0
 30
0.0
  9
$UCSORTHOREF
  2

  9
$UCSORTHOVIEW
 70
     0
  9
$UCSORGTOP
 10
0.0
 20
0.0
 30
0.0
  9
$UCSORGBOTTOM
 10
0.0
 20
0.0
 30
0.0
  9
$UCSORGLEFT
 10
0.0
 20
0.0
 30
0.0
  9
$UCSORGRIGHT
 10
0.0
 20
0.0
 30
0.0
  9
$UCSORGFRONT
 10
0.0
 20
0.0
 30
0.0
  9
$UCSORGBACK
 10
0.0
 20
0.0
 30
0.0
  9
$PUCSBASE
  2

  9
$PUCSNAME
  2

  9
$PUCSORG
 10
0.0
 20
0.0
 30
0.0
  9
$PUCSXDIR
 10
1.0
 20
0.0
 30
0.0
  9
$PUCSYDIR
 10
0.0
 20
1.0
 30
0.0
  9
$PUCSORTHOREF
  2

  9
$PUCSORTHOVIEW
 70
     0
  9
$PUCSORGTOP
 10
0.0
 20
0.0
 30
0.0
  9
$PUCSORGBOTTOM
 10
0.0
 20
0.0
 30
0.0
  9
$PUCSORGLEFT
 10
0.0
 20
0.0
 30
0.0
  9
$PUCSORGRIGHT
 10
0.0
 20
0.0
 30
0.0
  9
$PUCSORGFRONT
 10
0.0
 20
0.0
 30
0.0
  9
$PUCSORGBACK
 10
0.0
 20
0.0
 30
0.0
  9
$USERI1
 70
     0
  9
$USERI2
 70
     0
  9
$USERI3
 70
     0
  9
$USERI4
 70
     0
  9
$USERI5
 70
     0
  9
$USERR1
 40
0.0
  9
$USERR2
 40
0.0
  9
$USERR3
 40
0.0
  9
$USERR4
 40
0.0
  9
$USERR5
 40
0.0
  9
$WORLDVIEW
 70
     1
  9
$SHADEDGE
 70
     3
  9
$SHADEDIF
 70
    70
  9
$TILEMODE
 70
     1
  9
$MAXACTVP
 70
    64
  9
$PINSBASE
 10
0.0
 20
0.0
 30
0.0
  9
$PLIMCHECK
 70
     0
  9
$PEXTMIN
 10
1.0000000000E+20
 20
1.0000000000E+20
 30
1.0000000000E+20
  9
$PEXTMAX
 10
-1.0000000000E+20
 20
-1.0000000000E+20
 30
-1.0000000000E+20
  9
$PLIMMIN
 10
0.0
 20
0.0
  9
$PLIMMAX
 10
420.0
 20
297.0
  9
$UNITMODE
 70
     0
  9
$VISRETAIN
 70
     1
  9
$PLINEGEN
 70
     0
  9
$PSLTSCALE
 70
     1
  9
$TREEDEPTH
 70
  3020
  9
$CMLSTYLE
  2
Standard
  9
$CMLJUST
 70
     0
  9
$CMLSCALE
 40
20.0
  9
$PROXYGRAPHICS
 70
     1
  9
$MEASUREMENT
 70
     1
  9
$CELWEIGHT
370
    -1
  9
$ENDCAPS
280
     0
  9
$JOINSTYLE
280
     0
  9
$LWDISPLAY
290
     1
  9
$INSUNITS
 70
     4
  9
$HYPERLINKBASE
  1

  9
$STYLESHEET
  1

  9
$XEDIT
290
     1
  9
$CEPSNTYPE
380
     0
  9
$PSTYLEMODE
290
     1
  9
$FINGERPRINTGUID
  2
{a4a60dcd-d162-4de6-9fbf-94772e4468e8}
  9
$VERSIONGUID
  2
{FAEB1C32-E019-11D5-929B-00C0DF256EC4}
  9
$EXTNAMES
290
     1
  9
$PSVPSCALE
 40
0.0
  9
$OLESTARTUP
290
     0
  0
ENDSEC
  0
SECTION
  2
CLASSES
  0
CLASS
  1
ACDBDICTIONARYWDFLT
  2
AcDbDictionaryWithDefault
  3
ObjectDBX Classes
 90
        0
280
     0
281
     0
  0
CLASS
  1
VISUALSTYLE
  2
AcDbVisualStyle
  3
ObjectDBX Classes
 90
     4095
280
     0
281
     0
  0
CLASS
  1
MATERIAL
  2
AcDbMaterial
  3
ObjectDBX Classes
 90
     1153
280
     0
281
     0
  0
CLASS
  1
SCALE
  2
AcDbScale
  3
ObjectDBX Classes
 90
     1153
280
     0
281
     0
  0
CLASS
  1
TABLESTYLE
  2
AcDbTableStyle
  3
ObjectDBX Classes
 90
     4095
280
     0
281
     0
  0
CLASS
  1
MLEADERSTYLE
  2
AcDbMLeaderStyle
  3
ACDB_MLEADERSTYLE_CLASS
 90
     4095
280
     0
281
     0
  0
CLASS
  1
SUN
  2
AcDbSun
  3
SCENEOE
 90
     1153
280
     0
281
     0
  0
CLASS
  1
ACDBPLACEHOLDER
  2
AcDbPlaceHolder
  3
ObjectDBX Classes
 90
        0
280
     0
281
     0
  0
CLASS
  1
LAYOUT
  2
AcDbLayout
  3
ObjectDBX Classes
 90
        0
280
     0
281
     0
  0
ENDSEC
  0
SECTION
  2
TABLES
  0
TABLE
  2
VPORT
  5
8
330
0
100
AcDbSymbolTable
 70
     1
  0
VPORT
  5
29
330
8
100
AcDbSymbolTableRecord
100
AcDbViewportTableRecord
  2
*Active
 70
     0
 10
0.0
 20
0.0
 11
1.0
 21
1.0
 12
297.0
 22
210.0
 13
0.0
 23
0.0
 14
10.0
 24
10.0
 15
10.0
 25
10.0
 16
0.0
 26
0.0
 36
1.0
 17
0.0
 27
0.0
 37
0.0
 40
420.0
 41
1.4142857143
 42
50.0
 43
0.0
 44
0.0
 50
0.0
 51
0.0
 71
     0
 72
  2000
 73
     1
 74
     3
 75
     0
 76
     0
 77
     0
 78
     0
281
     0
 65
     1
110
0.0
120
0.0
130
0.0
111
1.0
121
0.0
131
0.0
112
0.0
122
1.0
132
0.0
 79
     0
146
0.0
  0
ENDTAB
  0
TABLE
  2
LTYPE
  5
5
330
0
100
AcDbSymbolTable
 70
     8
  0
LTYPE
  5
14
330
5
100
AcDbSymbolTableRecord
100
AcDbLinetypeTableRecord
  2
ByBlock
 70
     0
  3

 72
    65
 73
     0
 40
0.0
  0
LTYPE
  5
15
330
5
100
AcDbSymbolTableRecord
100
AcDbLinetypeTableRecord
  2
ByLayer
 70
     0
  3

 72
    65
 73
     0
 40
0.0
  0
LTYPE
  5
16
330
5
100
AcDbSymbolTableRecord
100
AcDbLinetypeTableRecord
  2
Continuous
 70
     0
  3
Solid line
 72
    65
 73
     0
 40
0.0
  0
LTYPE
  5
6E
330
5
100
AcDbSymbolTableRecord
100
AcDbLinetypeTableRecord
  2
SLD-実線
 70
     0
  3
SolidWorks Line Style
 72
    65
 73
     0
 40
0.0
  0
LTYPE
  5
6F
330
5
100
AcDbSymbolTableRecord
100
AcDbLinetypeTableRecord
  2
SLD-破線
 70
     0
  3
SolidWorks Line Style
 72
    65
 73
     2
 40
1.905
 49
1.27
 74
     0
 49
-0.635
 74
     0
  0
LTYPE
  5
70
330
5
100
AcDbSymbolTableRecord
100
AcDbLinetypeTableRecord
  2
SLD-2点鎖線
 70
     0
  3
SolidWorks Line Style
 72
    65
 73
     6
 40
12.7
 49
6.35
 74
     0
 49
-1.27
 74
     0
 49
1.27
 74
     0
 49
-1.27
 74
     0
 49
1.27
 74
     0
 49
-1.27
 74
     0
  0
LTYPE
  5
71
330
5
100
AcDbSymbolTableRecord
100
AcDbLinetypeTableRecord
  2
SLD-鎖線
 70
     0
  3
SolidWorks Line Style
 72
    65
 73
     4
 40
10.16
 49
6.35
 74
     0
 49
-1.27
 74
     0
 49
1.27
 74
     0
 49
-1.27
 74
     0
  0
LTYPE
  5
72
330
5
100
AcDbSymbolTableRecord
100
AcDbLinetypeTableRecord
  2
SLD-1点鎖線(中心線)
 70
     0
  3
SolidWorks Line Style
 72
    65
 73
     4
 40
34.29
 49
30.48
 74
     0
 49
-1.27
 74
     0
 49
1.27
 74
     0
 49
-1.27
 74
     0
  0
LTYPE
  5
73
330
5
100
AcDbSymbolTableRecord
100
AcDbLinetypeTableRecord
  2
SLD-点線
 70
     0
  3
SolidWorks Line Style
 72
    65
 73
     2
 40
0.635
 49
0.0
 74
     0
 49
-0.635
 74
     0
  0
LTYPE
  5
74
330
5
100
AcDbSymbolTableRecord
100
AcDbLinetypeTableRecord
  2
SLD-細-太鎖線(切断面)
 70
     0
  3
SolidWorks Line Style
 72
    65
 73
     4
 40
10.16
 49
6.35
 74
     0
 49
-1.27
 74
     0
 49
1.27
 74
     0
 49
-1.27
 74
     0
  0
ENDTAB
  0
TABLE
  2
LAYER
  5
2
330
0
100
AcDbSymbolTable
 70
     2
  0
LAYER
  5
10
330
2
100
AcDbSymbolTableRecord
100
AcDbLayerTableRecord
  2
0
 70
     0
 62
     7
  6
Continuous
370
    -3
390
F
  0
LAYER
  5
75
330
2
100
AcDbSymbolTableRecord
100
AcDbLayerTableRecord
  2
SLD-0
 70
     0
 62
     3
  6
SLD-実線
370
    -3
390
F
  0
ENDTAB
  0
TABLE
  2
STYLE
  5
3
330
0
100
AcDbSymbolTable
 70
     1
  0
STYLE
  5
11
330
3
100
AcDbSymbolTableRecord
100
AcDbTextStyleTableRecord
  2
STANDARD
 70
     0
 40
0.0
 41
1.0
 50
0.0
 71
     0
 42
7.0
  3
MSGOTHIC.TTC
  4

1001
ACAD
1000
ＭＳ ゴシック
1071
    32817
  0
ENDTAB
  0
TABLE
  2
VIEW
  5
6
330
0
100
AcDbSymbolTable
 70
     0
  0
ENDTAB
  0
TABLE
  2
UCS
  5
7
330
0
100
AcDbSymbolTable
 70
     0
  0
ENDTAB
  0
TABLE
  2
APPID
  5
9
330
0
100
AcDbSymbolTable
 70
     1
  0
APPID
  5
12
330
9
100
AcDbSymbolTableRecord
100
AcDbRegAppTableRecord
  2
ACAD
 70
     0
  0
ENDTAB
  0
TABLE
  2
DIMSTYLE
  5
A
330
0
100
AcDbSymbolTable
 70
     1
100
AcDbDimStyleTable
  0
DIMSTYLE
105
27
330
A
100
AcDbSymbolTableRecord
100
AcDbDimStyleTableRecord
  2
ISO-25
 70
     0
 41
2.5
 42
0.625
 43
3.75
 44
1.25
 73
     0
 74
     0
 77
     1
 78
     8
140
2.5
141
2.5
143
0.0393700787
147
0.625
171
     3
172
     1
178
     0
271
     2
272
     2
274
     3
278
    44
283
     0
284
     8
340
11
  0
ENDTAB
  0
TABLE
  2
BLOCK_RECORD
  5
1
330
0
100
AcDbSymbolTable
 70
     2
  0
BLOCK_RECORD
  5
1F
330
1
100
AcDbSymbolTableRecord
100
AcDbBlockTableRecord
  2
*Model_Space
340
22
  0
BLOCK_RECORD
  5
1B
330
1
100
AcDbSymbolTableRecord
100
AcDbBlockTableRecord
  2
*Paper_Space
340
1E
  0
BLOCK_RECORD
  5
23
330
1
100
AcDbSymbolTableRecord
100
AcDbBlockTableRecord
  2
*Paper_Space0
340
26
  0
BLOCK_RECORD
  5
20F
330
1
100
AcDbSymbolTableRecord
100
AcDbBlockTableRecord
  2
SW_CENTERMARKSYMBOL_0
340
0
102
{BLKREFS
331
21A
102
}
  0
ENDTAB
  0
ENDSEC
  0
SECTION
  2
BLOCKS
  0
BLOCK
  5
20
330
1F
100
AcDbEntity
  8
0
100
AcDbBlockBegin
  2
*Model_Space
 70
     0
 10
0.0
 20
0.0
 30
0.0
  3
*Model_Space
  1

  0
ENDBLK
  5
21
330
1F
100
AcDbEntity
  8
0
100
AcDbBlockEnd
  0
BLOCK
  5
1C
330
1B
100
AcDbEntity
 67
     1
  8
0
100
AcDbBlockBegin
  2
*Paper_Space
 70
     0
 10
0.0
 20
0.0
 30
0.0
  3
*Paper_Space
  1

  0
ENDBLK
  5
1D
330
1B
100
AcDbEntity
 67
     1
  8
0
100
AcDbBlockEnd
  0
BLOCK
  5
24
330
23
100
AcDbEntity
  8
0
100
AcDbBlockBegin
  2
*Paper_Space0
 70
     0
 10
0.0
 20
0.0
 30
0.0
  3
*Paper_Space0
  1

  0
ENDBLK
  5
25
330
23
100
AcDbEntity
  8
0
100
AcDbBlockEnd
  0
BLOCK
  5
210
330
20F
100
AcDbEntity
  8
0
100
AcDbBlockBegin
  2
SW_CENTERMARKSYMBOL_0
 70
     0
 10
0.0
 20
0.0
 30
0.0
  3
SW_CENTERMARKSYMBOL_0
  1

  0
LINE
  5
212
330
20F
100
AcDbEntity
  8
SLD-0
 62
     0
100
AcDbLine
 10
0.0
 20
0.0
 30
0.0
 11
0.0
 21
2.5
 31
0.0
  0
LINE
  5
213
330
20F
100
AcDbEntity
  8
SLD-0
 62
     0
100
AcDbLine
 10
0.0
 20
0.0
 30
0.0
 11
-2.5
 21
0.0
 31
0.0
  0
LINE
  5
214
330
20F
100
AcDbEntity
  8
SLD-0
 62
     0
100
AcDbLine
 10
0.0
 20
0.0
 30
0.0
 11
0.0
 21
-2.5
 31
0.0
  0
LINE
  5
215
330
20F
100
AcDbEntity
  8
SLD-0
 62
     0
100
AcDbLine
 10
0.0
 20
0.0
 30
0.0
 11
2.5
 21
0.0
 31
0.0
  0
LINE
  5
216
330
20F
100
AcDbEntity
  8
SLD-0
 62
     0
100
AcDbLine
 10
0.0
 20
5.0
 30
0.0
 11
0.0
 21
65.1742596361
 31
0.0
  0
LINE
  5
217
330
20F
100
AcDbEntity
  8
SLD-0
 62
     0
100
AcDbLine
 10
-5.0
 20
0.0
 30
0.0
 11
-88.4058900247
 21
0.0
 31
0.0
  0
LINE
  5
218
330
20F
100
AcDbEntity
  8
SLD-0
 62
     0
100
AcDbLine
 10
0.0
 20
-5.0
 30
0.0
 11
0.0
 21
-64.6783912499
 31
0.0
  0
LINE
  5
219
330
20F
100
AcDbEntity
  8
SLD-0
 62
     0
100
AcDbLine
 10
5.0
 20
0.0
 30
0.0
 11
87.4498356727
 21
0.0
 31
0.0
  0
ENDBLK
  5
211
330
20F
100
AcDbEntity
  8
0
100
AcDbBlockEnd
  0
ENDSEC
  0
SECTION
  2
ENTITIES
  0
LINE
  5
76
330
1F
100
AcDbEntity
  8
0
  6
SLD-実線
 62
     7
370
    25
100
AcDbLine
 10
240.3975565512
 20
171.598008633
 30
0.0
 11
240.3968189437
 21
171.597179756
 31
0.0
  0
LINE
  5
77
330
1F
100
AcDbEntity
  8
0
  6
SLD-実線
 62
     7
370
    25
100
AcDbLine
 10
341.5483523686
 20
171.3628031168
 30
0.0
 11
341.0082933087
 21
171.9696417306
 31
0.0
  0
LINE
  5
78
330
1F
100
AcDbEntity
  8
0
  6
SLD-実線
 62
     7
370
    25
100
AcDbLine
 10
328.7282910723
 20
171.9696417306
 30
0.0
 11
328.1882357378
 21
171.3628031168
 31
0.0
  0
LINE
  5
79
330
1F
100
AcDbEntity
  8
0
  6
SLD-実線
 62
     7
370
    25
100
AcDbLine
 10
253.3390287835
 20
171.598008633
 30
0.0
 11
253.0082937856
 21
171.9696417306
 31
0.0
  0
LINE
  5
7A
330
1F
100
AcDbEntity
  8
0
  6
SLD-実線
 62
     7
370
    25
100
AcDbLine
 10
240.7282915492
 20
171.9696417306
 30
0.0
 11
240.3975565512
 21
171.598008633
 31
0.0
  0
LINE
  5
7B
330
1F
100
AcDbEntity
  8
0
  6
SLD-実線
 62
     7
370
    25
100
AcDbLine
 10
364.5365041275
 20
116.5205005411
 30
0.0
 11
365.0982928056
 21
117.8196433786
 31
0.0
  0
LINE
  5
7C
330
1F
100
AcDbEntity
  8
0
  6
SLD-実線
 62
     7
370
    25
100
AcDbLine
 10
365.0982928056
 20
134.1196417663
 30
0.0
 11
364.5365041275
 21
135.4187846039
 31
0.0
  0
LINE
  5
7D
330
1F
100
AcDbEntity
  8
0
  6
SLD-実線
 62
     7
370
    25
100
AcDbLine
 10
217.1923544783
 20
135.4009022791
 30
0.0
 11
216.6382920522
 21
134.1196417663
 31
0.0
  0
LINE
  5
7E
330
1F
100
AcDbEntity
  8
0
  6
SLD-実線
 62
     7
370
    25
100
AcDbLine
 10
216.6382920522
 20
117.8196433786
 30
0.0
 11
217.1923544783
 21
116.5383819346
 31
0.0
  0
LINE
  5
7F
330
1F
100
AcDbEntity
  8
0
  6
SLD-実線
 62
     7
370
    25
100
AcDbLine
 10
251.368290611
 20
73.9696424309
 30
0.0
 11
251.368290611
 21
70.9696438018
 31
0.0
  0
LINE
  5
80
330
1F
100
AcDbEntity
  8
0
  6
SLD-実線
 62
     7
370
    25
100
AcDbLine
 10
274.3682925184
 20
70.9696438018
 30
0.0
 11
274.3682925184
 21
73.9696424309
 31
0.0
  0
LINE
  5
81
330
1F
100
AcDbEntity
  8
0
  6
SLD-実線
 62
     7
370
    25
100
AcDbLine
 10
369.3682950516
 20
152.9696421087
 30
0.0
 11
347.8682924588
 21
152.9696421087
 31
0.0
  0
LINE
  5
82
330
1F
100
AcDbEntity
  8
0
  6
SLD-実線
 62
     7
370
    25
100
AcDbLine
 10
347.8682924588
 20
98.9696409408
 30
0.0
 11
369.3682950516
 21
98.9696409408
 31
0.0
  0
LINE
  5
83
330
1F
100
AcDbEntity
  8
0
  6
SLD-実線
 62
     7
370
    25
100
AcDbLine
 10
233.8682923991
 20
152.9696421087
 30
0.0
 11
212.3682898063
 21
152.9696421087
 31
0.0
  0
LINE
  5
84
330
1F
100
AcDbEntity
  8
0
  6
SLD-実線
 62
     7
370
    25
100
AcDbLine
 10
212.3682898063
 20
98.9696409408
 30
0.0
 11
233.8682923991
 21
98.9696409408
 31
0.0
  0
LINE
  5
85
330
1F
100
AcDbEntity
  8
0
  6
SLD-実線
 62
     7
370
    25
100
AcDbLine
 10
344.8682938297
 20
99.9696429674
 30
0.0
 11
347.8682924588
 21
99.9696429674
 31
0.0
  0
LINE
  5
86
330
1F
100
AcDbEntity
  8
0
  6
SLD-実線
 62
     7
370
    25
100
AcDbLine
 10
233.8682923991
 20
99.9696429674
 30
0.0
 11
236.8682910282
 21
99.9696429674
 31
0.0
  0
LINE
  5
87
330
1F
100
AcDbEntity
  8
0
  6
SLD-実線
 62
     7
370
    25
100
AcDbLine
 10
240.0499385376
 20
96.3077012304
 30
0.0
 11
240.4920559902
 21
87.3179387156
 31
0.0
  0
LINE
  5
88
330
1F
100
AcDbEntity
  8
0
  6
SLD-実線
 62
     7
370
    25
100
AcDbLine
 10
341.2447412092
 20
87.3222824041
 30
0.0
 11
341.6867729802
 21
96.3102791313
 31
0.0
  0
ARC
  5
89
330
1F
100
AcDbEntity
  8
0
  6
SLD-実線
 62
     7
370
    25
100
AcDbCircle
 10
338.2483631641
 20
87.4696420137
 30
0.0
 40
3.000000000000053
100
AcDbArc
 50
270.0
 51
357.1844433158
  0
ARC
  5
8A
330
1F
100
AcDbEntity
  8
0
  6
SLD-実線
 62
     7
370
    25
100
AcDbCircle
 10
325.3646690503
 20
82.4696420137
 30
0.0
 40
2.000000000000015
100
AcDbArc
 50
90.0
 51
117.6841867241
  0
ARC
  5
8B
330
1F
100
AcDbEntity
  8
0
  6
SLD-実線
 62
     7
370
    25
100
AcDbCircle
 10
290.8682924289
 20
148.2196420137
 30
0.0
 40
72.25000000000036
100
AcDbArc
 50
263.1843722266
 51
297.6841867241
  0
ARC
  5
8C
330
1F
100
AcDbEntity
  8
0
  6
SLD-実線
 62
     7
370
    25
100
AcDbCircle
 10
243.3682924289
 20
79.4696420137
 30
0.0
 40
5.000000000000014
100
AcDbArc
 50
0.0
 51
90.0
  0
LINE
  5
8D
330
1F
100
AcDbEntity
  8
0
  6
SLD-実線
 62
     7
370
    25
100
AcDbLine
 10
248.3682919819
 20
79.4696386758
 30
0.0
 11
248.3682919819
 21
74.9696444575
 31
0.0
  0
ARC
  5
8E
330
1F
100
AcDbEntity
  8
0
  6
SLD-実線
 62
     7
370
    25
100
AcDbCircle
 10
249.3682924289
 20
74.9696420137
 30
0.0
 40
1.0
100
AcDbArc
 50
180.0
 51
270.0
  0
SPLINE
  5
8F
330
1F
100
AcDbEntity
  8
0
  6
SLD-実線
 62
     7
370
    25
100
AcDbSpline
210
0.0
220
0.0
230
1.0
 70
     8
 71
     3
 72
    15
 73
    11
 74
     0
 42
0.000000001
 43
0.00000001
 40
0.0
 40
0.0
 40
0.0
 40
0.0
 40
0.1284558738205664
 40
0.292016416961053
 40
0.445237933596543
 40
0.5886325710359862
 40
0.7220594234682367
 40
0.8448390935567816
 40
0.9557495636854252
 40
1.0
 40
1.0
 40
1.0
 40
1.0
 10
277.6382880810876
 20
74.36684778371533
 30
0.0
 10
277.7720489906386
 20
74.55453989157797
 30
0.0
 10
278.0761252494717
 20
74.9812169690815
 30
0.0
 10
278.6824864958854
 20
75.50949817681924
 30
0.0
 10
279.3782145644017
 20
75.95459728207254
 30
0.0
 10
280.0891350675335
 20
76.25830043549672
 30
0.0
 10
280.783258864418
 20
76.44141038689831
 30
0.0
 10
281.4371984166963
 20
76.51610989686708
 30
0.0
 10
281.9368623394256
 20
76.52155078445038
 30
0.0
 10
282.2121313537666
 20
76.48493332963984
 30
0.0
 10
282.2906354967733
 20
76.47449037471493
 30
0.0
  0
ARC
  5
90
330
1F
100
AcDbEntity
  8
0
  6
SLD-実線
 62
     7
370
    25
100
AcDbCircle
 10
276.8189275793
 20
74.9696477029
 30
0.0
 40
1.000005271982697
100
AcDbArc
 50
269.9997139715
 51
323.7157019225
  0
SPLINE
  5
91
330
1F
100
AcDbEntity
  8
0
  6
SLD-実線
 62
     7
370
    25
100
AcDbSpline
210
0.0
220
0.0
230
1.0
 70
     8
 71
     3
 72
    14
 73
    10
 74
     0
 42
0.000000001
 43
0.00000001
 40
0.0
 40
0.0
 40
0.0
 40
0.0
 40
0.0999303572639672
 40
0.2422916730719352
 40
0.3964471293432471
 40
0.5560961053261242
 40
0.7182162383056572
 40
0.8903745977329202
 40
0.9999999999999999
 40
0.9999999999999999
 40
0.9999999999999999
 40
0.9999999999999999
 10
341.7001132447501
 20
96.306635797412
 30
0.0
 10
341.7120919534902
 20
96.48021226318714
 30
0.0
 10
341.7411355940949
 20
96.90106668070392
 30
0.0
 10
341.9515021040571
 20
97.56531004447658
 30
0.0
 10
342.3172556863293
 20
98.27363923939032
 30
0.0
 10
342.8471547345286
 20
98.92011035999474
 30
0.0
 10
343.5246728057485
 20
99.4554422884634
 30
0.0
 10
344.2209563370769
 20
99.81556339620673
 30
0.0
 10
344.7024147106989
 20
99.91545514813572
 30
0.0
 10
344.8897216994544
 20
99.95431712308606
 30
0.0
  0
SPLINE
  5
92
330
1F
100
AcDbEntity
  8
0
  6
SLD-実線
 62
     7
370
    25
100
AcDbSpline
210
0.0
220
0.0
230
1.0
 70
     8
 71
     3
 72
    15
 73
    11
 74
     0
 42
0.000000001
 43
0.00000001
 40
0.0
 40
0.0
 40
0.0
 40
0.0
 40
0.1011722580938794
 40
0.263372646128047
 40
0.4352614311708525
 40
0.5917924710358154
 40
0.7359011519838151
 40
0.8692513613749503
 40
0.9922608847212449
 40
1.0
 40
1.0
 40
1.0
 40
1.0
 10
236.8474219519873
 20
99.9515492323943
 30
0.0
 10
237.0206502632458
 20
99.91775433790154
 30
0.0
 10
237.4715999561756
 20
99.82977912655535
 30
0.0
 10
238.1585389548106
 20
99.48755631192527
 30
0.0
 10
238.8422880038964
 20
98.9682690529266
 30
0.0
 10
239.3743596320485
 20
98.33358278323307
 30
0.0
 10
239.743566349446
 20
97.66872191052003
 30
0.0
 10
239.9560998264511
 20
97.00462941127547
 30
0.0
 10
240.048709264692
 20
96.54924332932724
 30
0.0
 10
240.0481288727367
 20
96.3224549429432
 30
0.0
 10
240.048094518878
 20
96.30903115907391
 30
0.0
  0
ARC
  5
93
330
1F
100
AcDbEntity
  8
0
  6
SLD-実線
 62
     7
370
    25
100
AcDbCircle
 10
243.488265939
 20
87.4687423604
 30
0.0
 40
3.0
100
AcDbArc
 50
182.8172428703
 51
269.1336039838
  0
LINE
  5
94
330
1F
100
AcDbEntity
  8
0
  6
SLD-実線
 62
     7
370
    25
100
AcDbLine
 10
252.3834880967
 20
62.1377106611
 30
0.0
 11
252.8682936508
 21
61.969640464
 31
0.0
  0
LINE
  5
95
330
1F
100
AcDbEntity
  8
0
  6
SLD-実線
 62
     7
370
    25
100
AcDbLine
 10
272.8682932038
 20
61.969640464
 30
0.0
 11
273.3530950327
 21
62.1377106611
 31
0.0
  0
LINE
  5
96
330
1F
100
AcDbEntity
  8
0
  6
SLD-実線
 62
     7
370
    25
100
AcDbLine
 10
340.2852777917
 20
171.0043370579
 30
0.0
 11
340.2852777917
 21
164.9696424458
 31
0.0
  0
LINE
  5
97
330
1F
100
AcDbEntity
  8
0
  6
SLD-実線
 62
     7
370
    25
100
AcDbLine
 10
334.0566929955
 20
170.2531359945
 30
0.0
 11
334.0566929955
 21
164.9696424458
 31
0.0
  0
SPLINE
  5
98
330
1F
100
AcDbEntity
  8
0
  6
SLD-実線
 62
     7
370
    25
100
AcDbSpline
210
0.0
220
0.0
230
1.0
 70
     8
 71
     3
 72
    12
 73
     8
 74
     0
 42
0.000000001
 43
0.00000001
 40
0.0
 40
0.0
 40
0.0
 40
0.0
 40
0.2013658418913337
 40
0.4067596361635452
 40
0.6832522385792331
 40
0.9592808390019903
 40
1.0
 40
1.0
 40
1.0
 40
1.0
 10
334.0566929955264
 20
170.2531359944649
 30
0.0
 10
334.4378125797109
 20
170.5010335500885
 30
0.0
 10
335.2076753426385
 20
171.0017873948526
 30
0.0
 10
336.6153387673108
 20
171.5901592055198
 30
0.0
 10
338.2992309830482
 20
171.7578167552343
 30
0.0
 10
339.570229938895
 20
171.3560012634732
 30
0.0
 10
340.203826483038
 20
171.0443952297002
 30
0.0
 10
340.2852777917166
 20
171.0043370578595
 30
0.0
  0
SPLINE
  5
99
330
1F
100
AcDbEntity
  8
0
  6
SLD-実線
 62
     7
370
    25
100
AcDbSpline
210
0.0
220
0.0
230
1.0
 70
     8
 71
     3
 72
    11
 73
     7
 74
     0
 42
0.000000001
 43
0.00000001
 40
0.0
 40
0.0
 40
0.0
 40
0.0
 40
0.2586131193795861
 40
0.491786665476983
 40
0.7257930694046176
 40
0.9999999999999999
 40
0.9999999999999999
 40
0.9999999999999999
 40
0.9999999999999999
 10
327.5554504771014
 20
170.2531359944649
 30
0.0
 10
328.0775731795636
 20
170.633459715124
 30
0.0
 10
329.0704577765621
 20
171.3566950050946
 30
0.0
 10
330.7489004989613
 20
171.7916247874254
 30
0.0
 10
332.4736761147015
 20
171.4015491710034
 30
0.0
 10
333.5019090522629
 20
170.6556087654715
 30
0.0
 10
334.0566929955264
 20
170.2531359944649
 30
0.0
  0
SPLINE
  5
9A
330
1F
100
AcDbEntity
  8
0
  6
SLD-実線
 62
     7
370
    25
100
AcDbSpline
210
0.0
220
0.0
230
1.0
 70
     8
 71
     3
 72
    10
 73
     6
 74
     0
 42
0.000000001
 43
0.00000001
 40
0.0
 40
0.0
 40
0.0
 40
0.0
 40
0.3036396477139089
 40
0.8251361596918559
 40
1.0
 40
1.0
 40
1.0
 40
1.0
 10
328.2042209584494
 20
171.3485762331792
 30
0.0
 10
328.1345457535965
 20
171.273571155861
 30
0.0
 10
327.945204436048
 20
171.0697459903346
 30
0.0
 10
327.7336375963297
 20
170.6475918605456
 30
0.0
 10
327.5912145022818
 20
170.3323074272159
 30
0.0
 10
327.5554504771014
 20
170.2531359944649
 30
0.0
  0
SPLINE
  5
9B
330
1F
100
AcDbEntity
  8
0
  6
SLD-実線
 62
     7
370
    25
100
AcDbSpline
210
0.0
220
0.0
230
1.0
 70
     8
 71
     3
 72
    12
 73
     8
 74
     0
 42
0.000000001
 43
0.00000001
 40
0.0
 40
0.0
 40
0.0
 40
0.0
 40
0.287967327383499
 40
0.5634731580560771
 40
0.750084265974788
 40
0.9372433757010865
 40
1.0
 40
1.0
 40
1.0
 40
1.0
 10
340.2852777917166
 20
171.0043370578595
 30
0.0
 10
340.466055663279
 20
171.2559892196786
 30
0.0
 10
340.8197884256776
 20
171.748403548902
 30
0.0
 10
341.3324690364126
 20
171.639656687349
 30
0.0
 10
341.7431996146533
 20
171.1346633636317
 30
0.0
 10
342.0031156615889
 20
170.6494406971338
 30
0.0
 10
342.1454037741362
 20
170.3326785081256
 30
0.0
 10
342.1811339039584
 20
170.2531359944649
 30
0.0
  0
LINE
  5
9C
330
1F
100
AcDbEntity
  8
0
  6
SLD-実線
 62
     7
370
    25
100
AcDbLine
 10
328.7282910723
 20
171.9696417306
 30
0.0
 11
341.0082933087
 21
171.9696417306
 31
0.0
  0
LINE
  5
9D
330
1F
100
AcDbEntity
  8
0
  6
SLD-実線
 62
     7
370
    25
100
AcDbLine
 10
327.5554504771
 20
170.2531359945
 30
0.0
 11
327.5554504771
 21
164.9696424458
 31
0.0
  0
LINE
  5
9E
330
1F
100
AcDbEntity
  8
0
  6
SLD-実線
 62
     7
370
    25
100
AcDbLine
 10
342.181133904
 20
170.2531359945
 30
0.0
 11
342.181133904
 21
164.9696424458
 31
0.0
  0
SPLINE
  5
9F
330
1F
100
AcDbEntity
  8
0
  6
SLD-実線
 62
     7
370
    25
100
AcDbSpline
210
0.0
220
0.0
230
1.0
 70
     8
 71
     3
 72
    11
 73
     7
 74
     0
 42
0.000000001
 43
0.00000001
 40
0.0
 40
0.0
 40
0.0
 40
0.0
 40
0.2586132244717227
 40
0.491786518303641
 40
0.7257931080792602
 40
1.0
 40
1.0
 40
1.0
 40
1.0
 10
240.204601414897
 20
170.2531359944649
 30
0.0
 10
240.8049517392936
 20
170.6334596868064
 30
0.0
 10
241.9465955836891
 20
171.3566944125905
 30
0.0
 10
243.876507495511
 20
171.7916248615365
 30
0.0
 10
245.859702196728
 20
171.4015494760319
 30
0.0
 10
247.0419885462609
 20
170.6556087597952
 30
0.0
 10
247.6798918623705
 20
170.2531359944649
 30
0.0
  0
SPLINE
  5
A0
330
1F
100
AcDbEntity
  8
0
  6
SLD-実線
 62
     7
370
    25
100
AcDbSpline
210
0.0
220
0.0
230
1.0
 70
     8
 71
     3
 72
    11
 73
     7
 74
     0
 42
0.000000001
 43
0.00000001
 40
0.0
 40
0.0
 40
0.0
 40
0.0
 40
0.211166753762304
 40
0.548385728615023
 40
0.8865947537428026
 40
1.0
 40
1.0
 40
1.0
 40
1.0
 10
240.4407959956904
 20
171.559526384265
 30
0.0
 10
240.4228508975251
 20
171.5611692442787
 30
0.0
 10
240.37624869544
 20
171.5654356402411
 30
0.0
 10
240.3051418034378
 20
171.1184859418664
 30
0.0
 10
240.2454551156266
 20
170.6505737464416
 30
0.0
 10
240.2128011741038
 20
170.3329058514832
 30
0.0
 10
240.204601414897
 20
170.2531359944649
 30
0.0
  0
SPLINE
  5
A1
330
1F
100
AcDbEntity
  8
0
  6
SLD-実線
 62
     7
370
    25
100
AcDbSpline
210
0.0
220
0.0
230
1.0
 70
     8
 71
     3
 72
    12
 73
     8
 74
     0
 42
0.000000001
 43
0.00000001
 40
0.0
 40
0.0
 40
0.0
 40
0.0
 40
0.2879667990370851
 40
0.563472964272011
 40
0.7500841739424362
 40
0.9372432604918073
 40
1.0
 40
1.0
 40
1.0
 40
1.0
 10
253.0968774635573
 20
171.0043370578595
 30
0.0
 10
253.138367380338
 20
171.2559891675378
 30
0.0
 10
253.2195519004771
 20
171.7484041288454
 30
0.0
 10
253.3372098347706
 20
171.6396566031949
 30
0.0
 10
253.4314742278426
 20
171.1346637651384
 30
0.0
 10
253.4911281732865
 20
170.6494401313196
 30
0.0
 10
253.5237837330409
 20
170.3326784878641
 30
0.0
 10
253.531983919837
 20
170.2531359944649
 30
0.0
  0
SPLINE
  5
A2
330
1F
100
AcDbEntity
  8
0
  6
SLD-実線
 62
     7
370
    25
100
AcDbSpline
210
0.0
220
0.0
230
1.0
 70
     8
 71
     3
 72
    12
 73
     8
 74
     0
 42
0.000000001
 43
0.00000001
 40
0.0
 40
0.0
 40
0.0
 40
0.0
 40
0.2013659868844417
 40
0.4067598512737811
 40
0.6832520388613746
 40
0.9592809259579449
 40
1.0
 40
1.0
 40
1.0
 40
1.0
 10
247.6798918623705
 20
170.2531359944649
 30
0.0
 10
248.0113511757476
 20
170.5010335264382
 30
0.0
 10
248.6808999068843
 20
171.0017872276799
 30
0.0
 10
249.905142052135
 20
171.5901588970915
 30
0.0
 10
251.3696187974329
 20
171.7578162286511
 30
0.0
 10
252.4750005608976
 20
171.3560021696917
 30
0.0
 10
253.0260394585042
 20
171.044395234747
 30
0.0
 10
253.0968774635573
 20
171.0043370578595
 30
0.0
  0
LINE
  5
A3
330
1F
100
AcDbEntity
  8
0
  6
SLD-実線
 62
     7
370
    25
100
AcDbLine
 10
240.7282915492
 20
171.9696417306
 30
0.0
 11
253.0082937856
 21
171.9696417306
 31
0.0
  0
LINE
  5
A4
330
1F
100
AcDbEntity
  8
0
  6
SLD-実線
 62
     7
370
    25
100
AcDbLine
 10
253.0968774636
 20
171.0043370579
 30
0.0
 11
253.0968774636
 21
164.9696424458
 31
0.0
  0
LINE
  5
A5
330
1F
100
AcDbEntity
  8
0
  6
SLD-実線
 62
     7
370
    25
100
AcDbLine
 10
247.6798918624
 20
170.2531359945
 30
0.0
 11
247.6798918624
 21
164.9696424458
 31
0.0
  0
LINE
  5
A6
330
1F
100
AcDbEntity
  8
0
  6
SLD-実線
 62
     7
370
    25
100
AcDbLine
 10
240.2046014149
 20
170.2531359945
 30
0.0
 11
240.2046014149
 21
164.9696424458
 31
0.0
  0
LINE
  5
A7
330
1F
100
AcDbEntity
  8
0
  6
SLD-実線
 62
     7
370
    25
100
AcDbLine
 10
253.5319839198
 20
170.2531359945
 30
0.0
 11
253.5319839198
 21
164.9696424458
 31
0.0
  0
LINE
  5
A8
330
1F
100
AcDbEntity
  8
0
  6
SLD-実線
 62
     7
370
    25
100
AcDbLine
 10
364.2982941646
 20
116.024262071
 30
0.0
 11
364.4831132669
 21
116.5435861651
 31
0.0
  0
SPLINE
  5
A9
330
1F
100
AcDbEntity
  8
0
  6
SLD-実線
 62
     7
370
    25
100
AcDbSpline
210
0.0
220
0.0
230
1.0
 70
     8
 71
     3
 72
    11
 73
     7
 74
     0
 42
0.000000001
 43
0.00000001
 40
0.0
 40
0.0
 40
0.0
 40
0.0
 40
0.1658273934403455
 40
0.5244849451432941
 40
0.896029236362041
 40
0.9999999999999999
 40
0.9999999999999999
 40
0.9999999999999999
 40
0.9999999999999999
 10
364.2982941646357
 20
122.9132812325068
 30
0.0
 10
364.4251153816871
 20
122.5390578142761
 30
0.0
 10
364.8262301654885
 20
121.3554502997994
 30
0.0
 10
365.1077329151652
 20
119.2802485467164
 30
0.0
 10
364.7521322822212
 20
117.3550654240848
 30
0.0
 10
364.3797213439513
 20
116.2833985564102
 30
0.0
 10
364.2982941646357
 20
116.0490799550124
 30
0.0
  0
SPLINE
  5
AA
330
1F
100
AcDbEntity
  8
0
  6
SLD-実線
 62
     7
370
    25
100
AcDbSpline
210
0.0
220
0.0
230
1.0
 70
     8
 71
     3
 72
    10
 73
     6
 74
     0
 42
0.000000001
 43
0.00000001
 40
0.0
 40
0.0
 40
0.0
 40
0.0
 40
0.3840257040147881
 40
0.7792874277352508
 40
1.0
 40
1.0
 40
1.0
 40
1.0
 10
364.6364089627047
 20
131.8597484234877
 30
0.0
 10
364.7917965033752
 20
130.7400186908879
 30
0.0
 10
365.1071179925498
 20
128.4677976026796
 30
0.0
 10
364.8314182280208
 20
125.5197854562574
 30
0.0
 10
364.4389288367348
 20
123.7525236120152
 30
0.0
 10
364.2982941646357
 20
123.1192879233666
 30
0.0
  0
SPLINE
  5
AB
330
1F
100
AcDbEntity
  8
0
  6
SLD-実線
 62
     7
370
    25
100
AcDbSpline
210
0.0
220
0.0
230
1.0
 70
     8
 71
     3
 72
    10
 73
     6
 74
     0
 42
0.000000001
 43
0.00000001
 40
0.0
 40
0.0
 40
0.0
 40
0.0
 40
0.4345926525619173
 40
0.8829903903556037
 40
1.0
 40
1.0
 40
1.0
 40
1.0
 10
364.2982941646357
 20
135.9150202799745
 30
0.0
 10
364.5567149582522
 20
135.3334155239221
 30
0.0
 10
365.0817654304271
 20
134.1517310026765
 30
0.0
 10
364.9681856119623
 20
132.7765029643437
 30
0.0
 10
364.6932965529322
 20
132.0169383787666
 30
0.0
 10
364.6364089627048
 20
131.8597484234877
 30
0.0
  0
LINE
  5
AC
330
1F
100
AcDbEntity
  8
0
  6
SLD-実線
 62
     7
370
    25
100
AcDbLine
 10
365.0982928056
 20
134.1196417663
 30
0.0
 11
365.0982928056
 21
117.8196433786
 31
0.0
  0
LINE
  5
AD
330
1F
100
AcDbEntity
  8
0
  6
SLD-実線
 62
     7
370
    25
100
AcDbLine
 10
364.2982941646
 20
122.9955207411
 30
0.0
 11
357.8682940979
 21
122.9955207411
 31
0.0
  0
LINE
  5
AE
330
1F
100
AcDbEntity
  8
0
  6
SLD-実線
 62
     7
370
    25
100
AcDbLine
 10
364.6364089627
 20
131.8597484235
 30
0.0
 11
357.8682940979
 21
131.8597484235
 31
0.0
  0
LINE
  5
AF
330
1F
100
AcDbEntity
  8
0
  6
SLD-実線
 62
     7
370
    25
100
AcDbLine
 10
364.2982941646
 20
123.1192879234
 30
0.0
 11
364.2982941646
 21
122.9955207411
 31
0.0
  0
LINE
  5
B0
330
1F
100
AcDbEntity
  8
0
  6
SLD-実線
 62
     7
370
    25
100
AcDbLine
 10
364.2982941646
 20
116.049079955
 30
0.0
 11
364.2982941646
 21
115.9668404464
 31
0.0
  0
LINE
  5
B1
330
1F
100
AcDbEntity
  8
0
  6
SLD-実線
 62
     7
370
    25
100
AcDbLine
 10
364.2982941646
 20
115.9668404464
 30
0.0
 11
357.8682940979
 21
115.9668404464
 31
0.0
  0
LINE
  5
B2
330
1F
100
AcDbEntity
  8
0
  6
SLD-実線
 62
     7
370
    25
100
AcDbLine
 10
364.2982941646
 20
122.9955207411
 30
0.0
 11
364.2982941646
 21
122.9132812325
 31
0.0
  0
LINE
  5
B3
330
1F
100
AcDbEntity
  8
0
  6
SLD-実線
 62
     7
370
    25
100
AcDbLine
 10
364.2982941646
 20
135.9724446986
 30
0.0
 11
357.8682940979
 21
135.9724446986
 31
0.0
  0
LINE
  5
B4
330
1F
100
AcDbEntity
  8
0
  6
SLD-実線
 62
     7
370
    25
100
AcDbLine
 10
364.2982941646
 20
135.9724446986
 30
0.0
 11
364.2982941646
 21
135.91502028
 31
0.0
  0
SPLINE
  5
B5
330
1F
100
AcDbEntity
  8
0
  6
SLD-実線
 62
     7
370
    25
100
AcDbSpline
210
0.0
220
0.0
230
1.0
 70
     8
 71
     3
 72
    10
 73
     6
 74
     0
 42
0.000000001
 43
0.00000001
 40
0.0
 40
0.0
 40
0.0
 40
0.0
 40
0.3840256677417264
 40
0.7792873530860478
 40
1.0
 40
1.0
 40
1.0
 40
1.0
 10
217.1001758951922
 20
131.8597484234877
 30
0.0
 10
216.944788344648
 20
132.3792643436243
 30
0.0
 10
216.6294668358587
 20
133.433496443968
 30
0.0
 10
216.9051667563316
 20
134.801273140529
 30
0.0
 10
217.2976560255993
 20
135.6212209437125
 30
0.0
 10
217.4382906932612
 20
135.9150202799745
 30
0.0
  0
SPLINE
  5
B6
330
1F
100
AcDbEntity
  8
0
  6
SLD-実線
 62
     7
370
    25
100
AcDbSpline
210
0.0
220
0.0
230
1.0
 70
     8
 71
     3
 72
    10
 73
     6
 74
     0
 42
0.000000001
 43
0.00000001
 40
0.0
 40
0.0
 40
0.0
 40
0.0
 40
0.4345925905313968
 40
0.8829903489409994
 40
1.0
 40
1.0
 40
1.0
 40
1.0
 10
217.4382906932612
 20
123.1192879233666
 30
0.0
 10
217.1798698953167
 20
124.3728395675271
 30
0.0
 10
216.6548193640327
 20
126.9197628879163
 30
0.0
 10
216.7683993173199
 20
129.8838427979443
 30
0.0
 10
217.0432883056932
 20
131.5209526325507
 30
0.0
 10
217.1001758951922
 20
131.8597484234877
 30
0.0
  0
SPLINE
  5
B7
330
1F
100
AcDbEntity
  8
0
  6
SLD-実線
 62
     7
370
    25
100
AcDbSpline
210
0.0
220
0.0
230
1.0
 70
     8
 71
     3
 72
    11
 73
     7
 74
     0
 42
0.000000001
 43
0.00000001
 40
0.0
 40
0.0
 40
0.0
 40
0.0
 40
0.1658273931445774
 40
0.5244849442078279
 40
0.896029343901352
 40
1.0
 40
1.0
 40
1.0
 40
1.0
 10
217.4382906932612
 20
116.0490799550124
 30
0.0
 10
217.3114694718537
 20
116.423303395423
 30
0.0
 10
216.9103546742743
 20
117.6069109800511
 30
0.0
 10
216.6288520901143
 20
119.6821119685779
 30
0.0
 10
216.98445215551
 20
121.6072984579505
 30
0.0
 10
217.3568635078025
 20
122.6789633138112
 30
0.0
 10
217.4382906932612
 20
122.9132812325068
 30
0.0
  0
LINE
  5
B8
330
1F
100
AcDbEntity
  8
0
  6
SLD-実線
 62
     7
370
    25
100
AcDbLine
 10
217.206838407
 20
116.5446441475
 30
0.0
 11
217.4382906933
 21
116.024262071
 31
0.0
  0
LINE
  5
B9
330
1F
100
AcDbEntity
  8
0
  6
SLD-実線
 62
     7
370
    25
100
AcDbLine
 10
216.6382920522
 20
131.1772566144
 30
0.0
 11
216.6382920522
 21
134.1196417663
 31
0.0
  0
LINE
  5
BA
330
1F
100
AcDbEntity
  8
0
  6
SLD-実線
 62
     7
370
    25
100
AcDbLine
 10
216.6382920522
 20
117.8196433786
 30
0.0
 11
216.6382920522
 21
131.1772566144
 31
0.0
  0
LINE
  5
BB
330
1F
100
AcDbEntity
  8
0
  6
SLD-実線
 62
     7
370
    25
100
AcDbLine
 10
217.1001758952
 20
131.8597484235
 30
0.0
 11
223.86829076
 21
131.8597484235
 31
0.0
  0
LINE
  5
BC
330
1F
100
AcDbEntity
  8
0
  6
SLD-実線
 62
     7
370
    25
100
AcDbLine
 10
217.4382906933
 20
122.9955207411
 30
0.0
 11
223.86829076
 21
122.9955207411
 31
0.0
  0
LINE
  5
BD
330
1F
100
AcDbEntity
  8
0
  6
SLD-実線
 62
     7
370
    25
100
AcDbLine
 10
217.4382906933
 20
122.9955207411
 30
0.0
 11
217.4382906933
 21
123.1192879234
 31
0.0
  0
LINE
  5
BE
330
1F
100
AcDbEntity
  8
0
  6
SLD-実線
 62
     7
370
    25
100
AcDbLine
 10
217.4382906933
 20
115.9668404464
 30
0.0
 11
223.86829076
 21
115.9668404464
 31
0.0
  0
LINE
  5
BF
330
1F
100
AcDbEntity
  8
0
  6
SLD-実線
 62
     7
370
    25
100
AcDbLine
 10
217.4382906933
 20
115.9668404464
 30
0.0
 11
217.4382906933
 21
116.049079955
 31
0.0
  0
LINE
  5
C0
330
1F
100
AcDbEntity
  8
0
  6
SLD-実線
 62
     7
370
    25
100
AcDbLine
 10
217.4382906933
 20
122.9132812325
 30
0.0
 11
217.4382906933
 21
122.9955207411
 31
0.0
  0
LINE
  5
C1
330
1F
100
AcDbEntity
  8
0
  6
SLD-実線
 62
     7
370
    25
100
AcDbLine
 10
217.4382906933
 20
135.9724446986
 30
0.0
 11
223.86829076
 21
135.9724446986
 31
0.0
  0
LINE
  5
C2
330
1F
100
AcDbEntity
  8
0
  6
SLD-実線
 62
     7
370
    25
100
AcDbLine
 10
217.4382906933
 20
135.91502028
 30
0.0
 11
217.4382906933
 21
135.9724446986
 31
0.0
  0
LINE
  5
C3
330
1F
100
AcDbEntity
  8
0
  6
SLD-実線
 62
     7
370
    25
100
AcDbLine
 10
260.7025139559
 20
70.9696438018
 30
0.0
 11
252.9613104243
 21
70.9696438018
 31
0.0
  0
LINE
  5
C4
330
1F
100
AcDbEntity
  8
0
  6
SLD-実線
 62
     7
370
    25
100
AcDbLine
 10
252.3882937212
 20
70.9696438018
 30
0.0
 11
251.368290611
 21
70.9696438018
 31
0.0
  0
LINE
  5
C5
330
1F
100
AcDbEntity
  8
0
  6
SLD-実線
 62
     7
370
    25
100
AcDbLine
 10
274.3682925184
 20
70.9696438018
 30
0.0
 11
273.3482931335
 21
70.9696438018
 31
0.0
  0
LINE
  5
C6
330
1F
100
AcDbEntity
  8
0
  6
SLD-実線
 62
     7
370
    25
100
AcDbLine
 10
271.8968585659
 20
70.9696438018
 30
0.0
 11
263.490543567
 21
70.9696438018
 31
0.0
  0
LINE
  5
C7
330
1F
100
AcDbEntity
  8
0
  6
SLD-実線
 62
     7
370
    25
100
AcDbLine
 10
347.8682924588
 20
114.7826898698
 30
0.0
 11
347.8682924588
 21
137.1565952752
 31
0.0
  0
LINE
  5
C8
330
1F
100
AcDbEntity
  8
0
  6
SLD-実線
 62
     7
370
    25
100
AcDbLine
 10
357.8682940979
 20
114.7826898698
 30
0.0
 11
357.8682940979
 21
137.1565952752
 31
0.0
  0
LINE
  5
C9
330
1F
100
AcDbEntity
  8
0
  6
SLD-実線
 62
     7
370
    25
100
AcDbLine
 10
347.8682924588
 20
137.1565952752
 30
0.0
 11
347.8682924588
 21
150.1334616071
 31
0.0
  0
LINE
  5
CA
330
1F
100
AcDbEntity
  8
0
  6
SLD-実線
 62
     7
370
    25
100
AcDbLine
 10
357.8682940979
 20
137.1565952752
 30
0.0
 11
357.8682940979
 21
150.1334616071
 31
0.0
  0
LINE
  5
CB
330
1F
100
AcDbEntity
  8
0
  6
SLD-実線
 62
     7
370
    25
100
AcDbLine
 10
347.8682924588
 20
101.8058236543
 30
0.0
 11
347.8682924588
 21
114.7826898698
 31
0.0
  0
LINE
  5
CC
330
1F
100
AcDbEntity
  8
0
  6
SLD-実線
 62
     7
370
    25
100
AcDbLine
 10
357.8682940979
 20
101.8058236543
 30
0.0
 11
357.8682940979
 21
114.7826898698
 31
0.0
  0
LINE
  5
CD
330
1F
100
AcDbEntity
  8
0
  6
SLD-実線
 62
     7
370
    25
100
AcDbLine
 10
369.3682950516
 20
142.9402043898
 30
0.0
 11
357.8682940979
 21
142.9402043898
 31
0.0
  0
LINE
  5
CE
330
1F
100
AcDbEntity
  8
0
  6
SLD-実線
 62
     7
370
    25
100
AcDbLine
 10
369.3682950516
 20
152.9696421087
 30
0.0
 11
369.3682950516
 21
142.9402043898
 31
0.0
  0
LINE
  5
CF
330
1F
100
AcDbEntity
  8
0
  6
SLD-実線
 62
     7
370
    25
100
AcDbLine
 10
347.8682924588
 20
152.9696421087
 30
0.0
 11
347.8682924588
 21
150.1334616071
 31
0.0
  0
LINE
  5
D0
330
1F
100
AcDbEntity
  8
0
  6
SLD-実線
 62
     7
370
    25
100
AcDbLine
 10
369.3682950516
 20
108.9990798239
 30
0.0
 11
357.8682940979
 21
108.9990798239
 31
0.0
  0
LINE
  5
D1
330
1F
100
AcDbEntity
  8
0
  6
SLD-実線
 62
     7
370
    25
100
AcDbLine
 10
369.3682950516
 20
108.9990798239
 30
0.0
 11
369.3682950516
 21
142.9402043898
 31
0.0
  0
LINE
  5
D2
330
1F
100
AcDbEntity
  8
0
  6
SLD-実線
 62
     7
370
    25
100
AcDbLine
 10
369.3682950516
 20
108.9990798239
 30
0.0
 11
369.3682950516
 21
98.9696409408
 31
0.0
  0
LINE
  5
D3
330
1F
100
AcDbEntity
  8
0
  6
SLD-実線
 62
     7
370
    25
100
AcDbLine
 10
347.8682924588
 20
101.8058236543
 30
0.0
 11
347.8682924588
 21
98.9696409408
 31
0.0
  0
LINE
  5
D4
330
1F
100
AcDbEntity
  8
0
  6
SLD-実線
 62
     7
370
    25
100
AcDbLine
 10
223.86829076
 20
137.1565952752
 30
0.0
 11
223.86829076
 21
114.7826898698
 31
0.0
  0
LINE
  5
D5
330
1F
100
AcDbEntity
  8
0
  6
SLD-実線
 62
     7
370
    25
100
AcDbLine
 10
233.8682923991
 20
137.1565952752
 30
0.0
 11
233.8682923991
 21
114.7826898698
 31
0.0
  0
LINE
  5
D6
330
1F
100
AcDbEntity
  8
0
  6
SLD-実線
 62
     7
370
    25
100
AcDbLine
 10
223.86829076
 20
150.1334616071
 30
0.0
 11
223.86829076
 21
137.1565952752
 31
0.0
  0
LINE
  5
D7
330
1F
100
AcDbEntity
  8
0
  6
SLD-実線
 62
     7
370
    25
100
AcDbLine
 10
233.8682923991
 20
150.1334616071
 30
0.0
 11
233.8682923991
 21
137.1565952752
 31
0.0
  0
LINE
  5
D8
330
1F
100
AcDbEntity
  8
0
  6
SLD-実線
 62
     7
370
    25
100
AcDbLine
 10
223.86829076
 20
114.7826898698
 30
0.0
 11
223.86829076
 21
101.8058236543
 31
0.0
  0
LINE
  5
D9
330
1F
100
AcDbEntity
  8
0
  6
SLD-実線
 62
     7
370
    25
100
AcDbLine
 10
233.8682923991
 20
114.7826898698
 30
0.0
 11
233.8682923991
 21
101.8058236543
 31
0.0
  0
LINE
  5
DA
330
1F
100
AcDbEntity
  8
0
  6
SLD-実線
 62
     7
370
    25
100
AcDbLine
 10
212.3682898063
 20
142.9402043898
 30
0.0
 11
223.86829076
 21
142.9402043898
 31
0.0
  0
LINE
  5
DB
330
1F
100
AcDbEntity
  8
0
  6
SLD-実線
 62
     7
370
    25
100
AcDbLine
 10
212.3682898063
 20
142.9402043898
 30
0.0
 11
212.3682898063
 21
152.9696421087
 31
0.0
  0
LINE
  5
DC
330
1F
100
AcDbEntity
  8
0
  6
SLD-実線
 62
     7
370
    25
100
AcDbLine
 10
233.8682923991
 20
150.1334616071
 30
0.0
 11
233.8682923991
 21
152.9696421087
 31
0.0
  0
LINE
  5
DD
330
1F
100
AcDbEntity
  8
0
  6
SLD-実線
 62
     7
370
    25
100
AcDbLine
 10
212.3682898063
 20
108.9990798239
 30
0.0
 11
223.86829076
 21
108.9990798239
 31
0.0
  0
LINE
  5
DE
330
1F
100
AcDbEntity
  8
0
  6
SLD-実線
 62
     7
370
    25
100
AcDbLine
 10
212.3682898063
 20
142.9402043898
 30
0.0
 11
212.3682898063
 21
108.9990798239
 31
0.0
  0
LINE
  5
DF
330
1F
100
AcDbEntity
  8
0
  6
SLD-実線
 62
     7
370
    25
100
AcDbLine
 10
212.3682898063
 20
98.9696409408
 30
0.0
 11
212.3682898063
 21
108.9990798239
 31
0.0
  0
LINE
  5
E0
330
1F
100
AcDbEntity
  8
0
  6
SLD-実線
 62
     7
370
    25
100
AcDbLine
 10
233.8682923991
 20
98.9696409408
 30
0.0
 11
233.8682923991
 21
101.8058236543
 31
0.0
  0
LINE
  5
E1
330
1F
100
AcDbEntity
  8
0
  6
SLD-実線
 62
     7
370
    25
100
AcDbLine
 10
347.8682924588
 20
150.9696420137
 30
0.0
 11
344.8682938297
 21
150.9696420137
 31
0.0
  0
LINE
  5
E2
330
1F
100
AcDbEntity
  8
0
  6
SLD-実線
 62
     7
370
    25
100
AcDbLine
 10
344.8682938297
 20
102.5056268875
 30
0.0
 11
344.8682938297
 21
99.9696429674
 31
0.0
  0
LINE
  5
E3
330
1F
100
AcDbEntity
  8
0
  6
SLD-実線
 62
     7
370
    25
100
AcDbLine
 10
236.8682910282
 20
150.9696420137
 30
0.0
 11
233.8682923991
 21
150.9696420137
 31
0.0
  0
LINE
  5
E4
330
1F
100
AcDbEntity
  8
0
  6
SLD-実線
 62
     7
370
    25
100
AcDbLine
 10
236.8682910282
 20
102.5056268875
 30
0.0
 11
236.8682910282
 21
99.9696429674
 31
0.0
  0
LINE
  5
E5
330
1F
100
AcDbEntity
  8
0
  6
SLD-実線
 62
     7
370
    25
100
AcDbLine
 10
322.491067328
 20
156.9696420659
 30
0.0
 11
322.491067328
 21
162.969642118
 31
0.0
  0
LINE
  5
E6
330
1F
100
AcDbEntity
  8
0
  6
SLD-実線
 62
     7
370
    25
100
AcDbLine
 10
259.2455175299
 20
162.969642118
 30
0.0
 11
259.2455175299
 21
156.9696420659
 31
0.0
  0
LINE
  5
E7
330
1F
100
AcDbEntity
  8
0
  6
SLD-実線
 62
     7
370
    25
100
AcDbLine
 10
259.2455175299
 20
162.969642118
 30
0.0
 11
322.491067328
 21
162.969642118
 31
0.0
  0
LINE
  5
E8
330
1F
100
AcDbEntity
  8
0
  6
SLD-実線
 62
     7
370
    25
100
AcDbLine
 10
314.5111509193
 20
164.9696424458
 30
0.0
 11
314.5111509193
 21
162.969642118
 31
0.0
  0
LINE
  5
E9
330
1F
100
AcDbEntity
  8
0
  6
SLD-実線
 62
     7
370
    25
100
AcDbLine
 10
314.5111509193
 20
164.9696424458
 30
0.0
 11
330.0764363785
 21
164.9696424458
 31
0.0
  0
LINE
  5
EA
330
1F
100
AcDbEntity
  8
0
  6
SLD-実線
 62
     7
370
    25
100
AcDbLine
 10
330.0764363785
 20
164.9696424458
 30
0.0
 11
330.0764363785
 21
162.969642118
 31
0.0
  0
LINE
  5
EB
330
1F
100
AcDbEntity
  8
0
  6
SLD-実線
 62
     7
370
    25
100
AcDbLine
 10
330.0764363785
 20
164.9696424458
 30
0.0
 11
335.8682942171
 21
164.9696424458
 31
0.0
  0
LINE
  5
EC
330
1F
100
AcDbEntity
  8
0
  6
SLD-実線
 62
     7
370
    25
100
AcDbLine
 10
322.491067328
 20
162.969642118
 30
0.0
 11
330.0764363785
 21
162.969642118
 31
0.0
  0
LINE
  5
ED
330
1F
100
AcDbEntity
  8
0
  6
SLD-実線
 62
     7
370
    25
100
AcDbLine
 10
251.6601484794
 20
164.9696424458
 30
0.0
 11
251.6601484794
 21
162.969642118
 31
0.0
  0
LINE
  5
EE
330
1F
100
AcDbEntity
  8
0
  6
SLD-実線
 62
     7
370
    25
100
AcDbLine
 10
251.6601484794
 20
164.9696424458
 30
0.0
 11
267.2254339386
 21
164.9696424458
 31
0.0
  0
LINE
  5
EF
330
1F
100
AcDbEntity
  8
0
  6
SLD-実線
 62
     7
370
    25
100
AcDbLine
 10
267.2254339386
 20
164.9696424458
 30
0.0
 11
267.2254339386
 21
162.969642118
 31
0.0
  0
LINE
  5
F0
330
1F
100
AcDbEntity
  8
0
  6
SLD-実線
 62
     7
370
    25
100
AcDbLine
 10
245.8682906408
 20
164.9696424458
 30
0.0
 11
251.6601484794
 21
164.9696424458
 31
0.0
  0
LINE
  5
F1
330
1F
100
AcDbEntity
  8
0
  6
SLD-実線
 62
     7
370
    25
100
AcDbLine
 10
251.6601484794
 20
162.969642118
 30
0.0
 11
259.2455175299
 21
162.969642118
 31
0.0
  0
LINE
  5
F2
330
1F
100
AcDbEntity
  8
0
  6
SLD-実線
 62
     7
370
    25
100
AcDbLine
 10
235.868292727
 20
156.9696420659
 30
0.0
 11
235.868292727
 21
164.9696424458
 31
0.0
  0
LINE
  5
F3
330
1F
100
AcDbEntity
  8
0
  6
SLD-実線
 62
     7
370
    25
100
AcDbLine
 10
235.868292727
 20
164.9696424458
 30
0.0
 11
245.8682906408
 21
164.9696424458
 31
0.0
  0
LINE
  5
F4
330
1F
100
AcDbEntity
  8
0
  6
SLD-実線
 62
     7
370
    25
100
AcDbLine
 10
345.8682921309
 20
164.9696424458
 30
0.0
 11
345.8682921309
 21
156.9696420659
 31
0.0
  0
LINE
  5
F5
330
1F
100
AcDbEntity
  8
0
  6
SLD-実線
 62
     7
370
    25
100
AcDbLine
 10
335.8682942171
 20
164.9696424458
 30
0.0
 11
345.8682921309
 21
164.9696424458
 31
0.0
  0
LINE
  5
F6
330
1F
100
AcDbEntity
  8
0
  6
SLD-実線
 62
     7
370
    25
100
AcDbLine
 10
267.2254339386
 20
164.9696424458
 30
0.0
 11
314.5111509193
 21
164.9696424458
 31
0.0
  0
LINE
  5
F7
330
1F
100
AcDbEntity
  8
0
  6
SLD-実線
 62
     7
370
    25
100
AcDbLine
 10
235.868292727
 20
162.969642118
 30
0.0
 11
235.4483183999
 21
162.969642118
 31
0.0
  0
LINE
  5
F8
330
1F
100
AcDbEntity
  8
0
  6
SLD-実線
 62
     7
370
    25
100
AcDbLine
 10
235.4483183999
 20
164.9696424458
 30
0.0
 11
235.4483183999
 21
162.969642118
 31
0.0
  0
LINE
  5
F9
330
1F
100
AcDbEntity
  8
0
  6
SLD-実線
 62
     7
370
    25
100
AcDbLine
 10
235.868292727
 20
164.9696424458
 30
0.0
 11
235.4483183999
 21
164.9696424458
 31
0.0
  0
LINE
  5
FA
330
1F
100
AcDbEntity
  8
0
  6
SLD-実線
 62
     7
370
    25
100
AcDbLine
 10
322.8057314236
 20
153.9696420398
 30
0.0
 11
322.8057314236
 21
156.9696420659
 31
0.0
  0
LINE
  5
FB
330
1F
100
AcDbEntity
  8
0
  6
SLD-実線
 62
     7
370
    25
100
AcDbLine
 10
322.8057314236
 20
153.9696420398
 30
0.0
 11
258.9308534343
 21
153.9696420398
 31
0.0
  0
LINE
  5
FC
330
1F
100
AcDbEntity
  8
0
  6
SLD-実線
 62
     7
370
    25
100
AcDbLine
 10
258.9308534343
 20
153.9696420398
 30
0.0
 11
258.9308534343
 21
156.9696420659
 31
0.0
  0
LINE
  5
FD
330
1F
100
AcDbEntity
  8
0
  6
SLD-実線
 62
     7
370
    25
100
AcDbLine
 10
322.8057314236
 20
156.9696420659
 30
0.0
 11
258.9308534343
 21
156.9696420659
 31
0.0
  0
LINE
  5
FE
330
1F
100
AcDbEntity
  8
0
  6
SLD-実線
 62
     7
370
    25
100
AcDbLine
 10
235.868292727
 20
153.9696420398
 30
0.0
 11
235.868292727
 21
156.9696420659
 31
0.0
  0
LINE
  5
FF
330
1F
100
AcDbEntity
  8
0
  6
SLD-実線
 62
     7
370
    25
100
AcDbLine
 10
240.8682916839
 20
153.9696420398
 30
0.0
 11
235.868292727
 21
153.9696420398
 31
0.0
  0
LINE
  5
100
330
1F
100
AcDbEntity
  8
0
  6
SLD-実線
 62
     7
370
    25
100
AcDbLine
 10
235.868292727
 20
156.9696420659
 30
0.0
 11
240.8682916839
 21
156.9696420659
 31
0.0
  0
LINE
  5
101
330
1F
100
AcDbEntity
  8
0
  6
SLD-実線
 62
     7
370
    25
100
AcDbLine
 10
258.9308534343
 20
153.9696420398
 30
0.0
 11
240.8682916839
 21
153.9696420398
 31
0.0
  0
LINE
  5
102
330
1F
100
AcDbEntity
  8
0
  6
SLD-実線
 62
     7
370
    25
100
AcDbLine
 10
258.9308534343
 20
156.9696420659
 30
0.0
 11
240.8682916839
 21
156.9696420659
 31
0.0
  0
LINE
  5
103
330
1F
100
AcDbEntity
  8
0
  6
SLD-実線
 62
     7
370
    25
100
AcDbLine
 10
340.868293174
 20
153.9696420398
 30
0.0
 11
322.8057314236
 21
153.9696420398
 31
0.0
  0
LINE
  5
104
330
1F
100
AcDbEntity
  8
0
  6
SLD-実線
 62
     7
370
    25
100
AcDbLine
 10
340.868293174
 20
156.9696420659
 30
0.0
 11
322.8057314236
 21
156.9696420659
 31
0.0
  0
LINE
  5
105
330
1F
100
AcDbEntity
  8
0
  6
SLD-実線
 62
     7
370
    25
100
AcDbLine
 10
345.8682921309
 20
156.9696420659
 30
0.0
 11
345.8682921309
 21
153.9696420398
 31
0.0
  0
LINE
  5
106
330
1F
100
AcDbEntity
  8
0
  6
SLD-実線
 62
     7
370
    25
100
AcDbLine
 10
345.8682921309
 20
153.9696420398
 30
0.0
 11
340.868293174
 21
153.9696420398
 31
0.0
  0
LINE
  5
107
330
1F
100
AcDbEntity
  8
0
  6
SLD-実線
 62
     7
370
    25
100
AcDbLine
 10
340.868293174
 20
156.9696420659
 30
0.0
 11
345.8682921309
 21
156.9696420659
 31
0.0
  0
LINE
  5
108
330
1F
100
AcDbEntity
  8
0
  6
SLD-実線
 62
     7
370
    25
100
AcDbLine
 10
259.2455175299
 20
153.9696420398
 30
0.0
 11
259.2455175299
 21
150.9696420137
 31
0.0
  0
LINE
  5
109
330
1F
100
AcDbEntity
  8
0
  6
SLD-実線
 62
     7
370
    25
100
AcDbLine
 10
322.491067328
 20
153.9696420398
 30
0.0
 11
322.491067328
 21
150.9696420137
 31
0.0
  0
LINE
  5
10A
330
1F
100
AcDbEntity
  8
0
  6
SLD-実線
 62
     7
370
    25
100
AcDbLine
 10
259.9692632038
 20
150.9696420137
 30
0.0
 11
321.7673216541
 21
150.9696420137
 31
0.0
  0
LINE
  5
10B
330
1F
100
AcDbEntity
  8
0
  6
SLD-実線
 62
     7
370
    25
100
AcDbLine
 10
236.8682910282
 20
150.9696420137
 30
0.0
 11
236.8682910282
 21
153.9696420398
 31
0.0
  0
LINE
  5
10C
330
1F
100
AcDbEntity
  8
0
  6
SLD-実線
 62
     7
370
    25
100
AcDbLine
 10
344.8682938297
 20
153.9696420398
 30
0.0
 11
344.8682938297
 21
150.9696420137
 31
0.0
  0
LINE
  5
10D
330
1F
100
AcDbEntity
  8
0
  6
SLD-実線
 62
     7
370
    25
100
AcDbLine
 10
338.2483635623
 20
84.469641358
 30
0.0
 11
243.571485259
 21
84.469641358
 31
0.0
  0
LINE
  5
10E
330
1F
100
AcDbEntity
  8
0
  6
SLD-実線
 62
     7
370
    25
100
AcDbLine
 10
344.8682938297
 20
126.0438065831
 30
0.0
 11
344.8682938297
 21
150.9696420137
 31
0.0
  0
LINE
  5
10F
330
1F
100
AcDbEntity
  8
0
  6
SLD-実線
 62
     7
370
    25
100
AcDbLine
 10
321.7673216541
 20
150.9696420137
 30
0.0
 11
344.8682938297
 21
150.9696420137
 31
0.0
  0
LINE
  5
110
330
1F
100
AcDbEntity
  8
0
  6
SLD-実線
 62
     7
370
    25
100
AcDbLine
 10
236.8682910282
 20
126.0438065831
 30
0.0
 11
236.8682910282
 21
150.9696420137
 31
0.0
  0
LINE
  5
111
330
1F
100
AcDbEntity
  8
0
  6
SLD-実線
 62
     7
370
    25
100
AcDbLine
 10
236.8682910282
 20
150.9696420137
 30
0.0
 11
259.9692632038
 21
150.9696420137
 31
0.0
  0
LINE
  5
112
330
1F
100
AcDbEntity
  8
0
  6
SLD-実線
 62
     7
370
    25
100
AcDbLine
 10
236.8682910282
 20
125.9053617571
 30
0.0
 11
236.8682910282
 21
126.0438065831
 31
0.0
  0
LINE
  5
113
330
1F
100
AcDbEntity
  8
0
  6
SLD-実線
 62
     7
370
    25
100
AcDbLine
 10
344.8682938297
 20
126.0438065831
 30
0.0
 11
344.8682938297
 21
125.9053617571
 31
0.0
  0
LINE
  5
114
330
1F
100
AcDbEntity
  8
0
  6
SLD-実線
 62
     7
370
    25
100
AcDbLine
 10
236.8682910282
 20
115.1400979463
 30
0.0
 11
236.8682910282
 21
125.9053617571
 31
0.0
  0
LINE
  5
115
330
1F
100
AcDbEntity
  8
0
  6
SLD-実線
 62
     7
370
    25
100
AcDbLine
 10
344.8682938297
 20
115.1400979463
 30
0.0
 11
344.8682938297
 21
125.9053617571
 31
0.0
  0
LINE
  5
116
330
1F
100
AcDbEntity
  8
0
  6
SLD-実線
 62
     7
370
    25
100
AcDbLine
 10
236.8682910282
 20
102.5056268875
 30
0.0
 11
236.8682910282
 21
115.1400979463
 31
0.0
  0
LINE
  5
117
330
1F
100
AcDbEntity
  8
0
  6
SLD-実線
 62
     7
370
    25
100
AcDbLine
 10
344.8682938297
 20
102.5056268875
 30
0.0
 11
344.8682938297
 21
115.1400979463
 31
0.0
  0
LINE
  5
118
330
1F
100
AcDbEntity
  8
0
  6
SLD-実線
 62
     7
370
    25
100
AcDbLine
 10
243.571485259
 20
84.469641358
 30
0.0
 11
243.5545575399
 21
84.4695668522
 31
0.0
  0
LINE
  5
119
330
1F
100
AcDbEntity
  8
0
  6
SLD-実線
 62
     7
370
    25
100
AcDbLine
 10
269.8191859354
 20
73.9696424309
 30
0.0
 11
249.3682940085
 21
73.9696424309
 31
0.0
  0
SPLINE
  5
11A
330
1F
100
AcDbEntity
  8
0
  6
SLD-実線
 62
     7
370
    25
100
AcDbSpline
210
0.0
220
0.0
230
1.0
 70
    24
 71
     3
 72
     8
 73
     4
 74
     0
 42
0.000000001
 43
0.00000001
 40
0.0
 40
0.0
 40
0.0
 40
0.0
 40
1.0
 40
1.0
 40
1.0
 40
1.0
 10
271.9195331528542
 20
73.9696420136996
 30
0.0
 10
271.2485973356331
 20
73.9696420136996
 30
0.0
 10
270.5465500881515
 20
73.9696420136996
 30
0.0
 10
269.8191852860721
 20
73.9696420136996
 30
0.0
  0
LINE
  5
11B
330
1F
100
AcDbEntity
  8
0
  6
SLD-実線
 62
     7
370
    25
100
AcDbLine
 10
236.8682910282
 20
101.4061186318
 30
0.0
 11
236.8682910282
 21
102.5056268875
 31
0.0
  0
LINE
  5
11C
330
1F
100
AcDbEntity
  8
0
  6
SLD-実線
 62
     7
370
    25
100
AcDbLine
 10
344.8682938297
 20
101.4061186318
 30
0.0
 11
344.8682938297
 21
102.5056268875
 31
0.0
  0
SPLINE
  5
11D
330
1F
100
AcDbEntity
  8
0
  6
SLD-実線
 62
     7
370
    25
100
AcDbSpline
210
0.0
220
0.0
230
1.0
 70
    24
 71
     3
 72
    13
 73
     9
 74
     0
 42
0.000000001
 43
0.00000001
 40
0.0
 40
0.0
 40
0.0
 40
0.0
 40
0.0969479363258435
 40
0.2836377418441899
 40
0.4632694185418727
 40
0.6428850201828759
 40
0.8214668018433299
 40
1.0
 40
1.0
 40
1.0
 40
1.0
 10
276.7730866153021
 20
73.96964243093213
 30
0.0
 10
276.7811697851853
 20
73.96964243093213
 30
0.0
 10
276.8048184789017
 20
73.96964243093213
 30
0.0
 10
276.4582296676788
 20
73.96964243093213
 30
0.0
 10
275.7739112700889
 20
73.96964243093213
 30
0.0
 10
274.7725861568298
 20
73.96964243093213
 30
0.0
 10
273.5020108155956
 20
73.9696424309321
 30
0.0
 10
272.4469774582656
 20
73.96964243093213
 30
0.0
 10
271.9195325453063
 20
73.96964243093213
 30
0.0
  0
LINE
  5
11E
330
1F
100
AcDbEntity
  8
0
  6
SLD-実線
 62
     7
370
    25
100
AcDbLine
 10
344.8682938297
 20
101.4061186318
 30
0.0
 11
344.8682938297
 21
99.9696429674
 31
0.0
  0
LINE
  5
11F
330
1F
100
AcDbEntity
  8
0
  6
SLD-実線
 62
     7
370
    25
100
AcDbLine
 10
236.8682910282
 20
101.4061186318
 30
0.0
 11
236.8682910282
 21
99.9696429674
 31
0.0
  0
SPLINE
  5
120
330
1F
100
AcDbEntity
  8
0
  6
SLD-実線
 62
     7
370
    25
100
AcDbSpline
210
0.0
220
0.0
230
1.0
 70
     8
 71
     3
 72
    11
 73
     7
 74
     0
 42
0.000000001
 43
0.00000001
 40
0.0
 40
0.0
 40
0.0
 40
0.0
 40
0.2463195798693561
 40
0.4925063137923186
 40
0.7461891945143031
 40
0.9999999999999999
 40
0.9999999999999999
 40
0.9999999999999999
 40
0.9999999999999999
 10
262.0169379342576
 20
62.7496417466708
 30
0.0
 10
261.2322272583593
 20
62.59423466782277
 30
0.0
 10
259.6632291194979
 20
62.28350432482166
 30
0.0
 10
257.2572481374967
 20
62.09410583759168
 30
0.0
 10
254.8221768488715
 20
62.18259169995032
 30
0.0
 10
253.1997244218211
 20
62.45796769502195
 30
0.0
 10
252.3882937211771
 20
62.59569039979657
 30
0.0
  0
LINE
  5
121
330
1F
100
AcDbEntity
  8
0
  6
SLD-実線
 62
     7
370
    25
100
AcDbLine
 10
252.3882937212
 20
62.5956903998
 30
0.0
 11
252.3882937212
 21
70.9696438018
 31
0.0
  0
LINE
  5
122
330
1F
100
AcDbEntity
  8
0
  6
SLD-実線
 62
     7
370
    25
100
AcDbLine
 10
262.0391089995
 20
70.9696438018
 30
0.0
 11
260.7025139559
 21
70.9696438018
 31
0.0
  0
LINE
  5
123
330
1F
100
AcDbEntity
  8
0
  6
SLD-実線
 62
     7
370
    25
100
AcDbLine
 10
252.9613104243
 20
70.9696438018
 30
0.0
 11
252.3882937212
 21
70.9696438018
 31
0.0
  0
LINE
  5
124
330
1F
100
AcDbEntity
  8
0
  6
SLD-実線
 62
     7
370
    25
100
AcDbLine
 10
262.0391089995
 20
62.7496417467
 30
0.0
 11
262.0391089995
 21
70.9696438018
 31
0.0
  0
LINE
  5
125
330
1F
100
AcDbEntity
  8
0
  6
SLD-実線
 62
     7
370
    25
100
AcDbLine
 10
262.0391089995
 20
62.7496417467
 30
0.0
 11
262.0169379343
 21
62.7496417467
 31
0.0
  0
SPLINE
  5
126
330
1F
100
AcDbEntity
  8
0
  6
SLD-実線
 62
     7
370
    25
100
AcDbSpline
210
0.0
220
0.0
230
1.0
 70
     8
 71
     3
 72
    10
 73
     6
 74
     0
 42
0.000000001
 43
0.00000001
 40
0.0
 40
0.0
 40
0.0
 40
0.0
 40
0.3707929253348569
 40
0.7486717679544495
 40
1.0
 40
1.0
 40
1.0
 40
1.0
 10
273.3242165822764
 20
62.7496417466708
 30
0.0
 10
271.9388145731077
 20
62.51360323704469
 30
0.0
 10
269.141535281451
 20
62.03701548082597
 30
0.0
 10
265.3448032090618
 20
62.1583359334661
 30
0.0
 10
262.9998466453996
 20
62.58086731650497
 30
0.0
 10
262.0631855506678
 20
62.7496417466708
 30
0.0
  0
SPLINE
  5
127
330
1F
100
AcDbEntity
  8
0
  6
SLD-実線
 62
     7
370
    25
100
AcDbSpline
210
0.0
220
0.0
230
1.0
 70
    24
 71
     3
 72
    10
 73
     6
 74
     0
 42
0.000000001
 43
0.00000001
 40
0.0
 40
0.0
 40
0.0
 40
0.0
 40
0.0576781350946885
 40
0.5287015033313927
 40
0.9999999999999999
 40
0.9999999999999999
 40
0.9999999999999999
 40
0.9999999999999999
 10
273.3482931334754
 20
62.15156129041394
 30
0.0
 10
273.3482931334754
 20
62.14656206152889
 30
0.0
 10
273.3482931334754
 20
62.10073707390263
 30
0.0
 10
273.3482931334754
 20
62.28753041915628
 30
0.0
 10
273.3482931334754
 20
62.59557465774696
 30
0.0
 10
273.3482931334754
 20
62.7496417466708
 30
0.0
  0
SPLINE
  5
128
330
1F
100
AcDbEntity
  8
0
  6
SLD-実線
 62
     7
370
    25
100
AcDbSpline
210
0.0
220
0.0
230
1.0
 70
    24
 71
     3
 72
     9
 73
     5
 74
     0
 42
0.000000001
 43
0.00000001
 40
0.0
 40
0.0
 40
0.0
 40
0.0
 40
0.5338229376175455
 40
1.0
 40
1.0
 40
1.0
 40
1.0
 10
252.3882937211771
 20
62.59569039979657
 30
0.0
 10
252.3882937211771
 20
62.45628363846958
 30
0.0
 10
252.3882937211771
 20
62.19513569688962
 30
0.0
 10
252.3882937211771
 20
62.16541595321496
 30
0.0
 10
252.3882937211771
 20
62.15156129041394
 30
0.0
  0
LINE
  5
129
330
1F
100
AcDbEntity
  8
0
  6
SLD-実線
 62
     7
370
    25
100
AcDbLine
 10
272.8682932038
 20
61.969640464
 30
0.0
 11
252.8682936508
 21
61.969640464
 31
0.0
  0
LINE
  5
12A
330
1F
100
AcDbEntity
  8
0
  6
SLD-実線
 62
     7
370
    25
100
AcDbLine
 10
273.3482931335
 20
62.7496417467
 30
0.0
 11
273.3482931335
 21
70.9696438018
 31
0.0
  0
LINE
  5
12B
330
1F
100
AcDbEntity
  8
0
  6
SLD-実線
 62
     7
370
    25
100
AcDbLine
 10
273.3482931335
 20
62.7496417467
 30
0.0
 11
273.3242165823
 21
62.7496417467
 31
0.0
  0
LINE
  5
12C
330
1F
100
AcDbEntity
  8
0
  6
SLD-実線
 62
     7
370
    25
100
AcDbLine
 10
262.0631855507
 20
62.7496417467
 30
0.0
 11
262.0391089995
 21
62.7496417467
 31
0.0
  0
LINE
  5
12D
330
1F
100
AcDbEntity
  8
0
  6
SLD-実線
 62
     7
370
    25
100
AcDbLine
 10
273.3482931335
 20
70.9696438018
 30
0.0
 11
271.8968585659
 21
70.9696438018
 31
0.0
  0
LINE
  5
12E
330
1F
100
AcDbEntity
  8
0
  6
SLD-実線
 62
     7
370
    25
100
AcDbLine
 10
263.490543567
 20
70.9696438018
 30
0.0
 11
262.0391089995
 21
70.9696438018
 31
0.0
  0
LINE
  5
12F
330
1F
100
AcDbEntity
  8
SLD-0
  6
SLD-1点鎖線(中心線)
 62
     7
 48
0.5
370
    18
100
AcDbLine
 10
208.8616450083
 20
125.9696420137
 30
0.0
 11
373.6394464046
 21
125.9696420137
 31
0.0
  0
LINE
  5
130
330
1F
100
AcDbEntity
  8
0
  6
SLD-実線
 62
     7
370
    25
100
AcDbLine
 10
364.9709698338
 20
320.3977326931
 30
0.0
 11
365.0982928056
 21
320.6921740504
 31
0.0
  0
LINE
  5
131
330
1F
100
AcDbEntity
  8
0
  6
SLD-実線
 62
     7
370
    25
100
AcDbLine
 10
365.0982928056
 20
336.9921724381
 30
0.0
 11
364.9709698338
 21
337.286615658
 31
0.0
  0
LINE
  5
132
330
1F
100
AcDbEntity
  8
0
  6
SLD-実線
 62
     7
370
    25
100
AcDbLine
 10
364.8195665855
 20
255.0476248445
 30
0.0
 11
365.0982928056
 21
255.6921745719
 31
0.0
  0
LINE
  5
133
330
1F
100
AcDbEntity
  8
0
  6
SLD-実線
 62
     7
370
    25
100
AcDbLine
 10
365.0982928056
 20
271.9921729596
 30
0.0
 11
364.8195665855
 21
272.6367245497
 31
0.0
  0
LINE
  5
134
330
1F
100
AcDbEntity
  8
0
  6
SLD-実線
 62
     7
370
    25
100
AcDbLine
 10
216.7783331651
 20
337.3160193743
 30
0.0
 11
216.6382920522
 21
336.9921724381
 31
0.0
  0
LINE
  5
135
330
1F
100
AcDbEntity
  8
0
  6
SLD-実線
 62
     7
370
    25
100
AcDbLine
 10
216.6382920522
 20
320.6921740504
 30
0.0
 11
216.7783331651
 21
320.3683289768
 31
0.0
  0
LINE
  5
136
330
1F
100
AcDbEntity
  8
0
  6
SLD-実線
 62
     7
370
    25
100
AcDbLine
 10
216.9164073248
 20
272.63531639
 30
0.0
 11
216.6382920522
 21
271.9921729596
 31
0.0
  0
LINE
  5
137
330
1F
100
AcDbEntity
  8
0
  6
SLD-実線
 62
     7
370
    25
100
AcDbLine
 10
216.6382920522
 20
255.6921745719
 30
0.0
 11
216.9164073248
 21
255.0490292789
 31
0.0
  0
LINE
  5
138
330
1F
100
AcDbEntity
  8
0
  6
SLD-実線
 62
     7
370
    25
100
AcDbLine
 10
357.8682940979
 20
341.3421752931
 30
0.0
 11
347.8682924588
 21
341.3421752931
 31
0.0
  0
LINE
  5
139
330
1F
100
AcDbEntity
  8
0
  6
SLD-実線
 62
     7
370
    25
100
AcDbLine
 10
347.8682924588
 20
251.3421717169
 30
0.0
 11
357.8682940979
 21
251.3421717169
 31
0.0
  0
LINE
  5
13A
330
1F
100
AcDbEntity
  8
0
  6
SLD-実線
 62
     7
370
    25
100
AcDbLine
 10
233.8682923991
 20
341.3421752931
 30
0.0
 11
223.86829076
 21
341.3421752931
 31
0.0
  0
LINE
  5
13B
330
1F
100
AcDbEntity
  8
0
  6
SLD-実線
 62
     7
370
    25
100
AcDbLine
 10
223.86829076
 20
251.3421717169
 30
0.0
 11
233.8682923991
 21
251.3421717169
 31
0.0
  0
LINE
  5
13C
330
1F
100
AcDbEntity
  8
0
  6
SLD-実線
 62
     7
370
    25
100
AcDbLine
 10
347.8682924588
 20
338.842173952
 30
0.0
 11
345.6379872341
 21
338.842173952
 31
0.0
  0
LINE
  5
13D
330
1F
100
AcDbEntity
  8
0
  6
SLD-実線
 62
     7
370
    25
100
AcDbLine
 10
345.6379872341
 20
253.842173058
 30
0.0
 11
347.8682924588
 21
253.842173058
 31
0.0
  0
LINE
  5
13E
330
1F
100
AcDbEntity
  8
0
  6
SLD-実線
 62
     7
370
    25
100
AcDbLine
 10
236.0985976238
 20
338.842173952
 30
0.0
 11
233.8682923991
 21
338.842173952
 31
0.0
  0
LINE
  5
13F
330
1F
100
AcDbEntity
  8
0
  6
SLD-実線
 62
     7
370
    25
100
AcDbLine
 10
233.8682923991
 20
253.842173058
 30
0.0
 11
236.0985976238
 21
253.842173058
 31
0.0
  0
CIRCLE
  5
140
330
1F
100
AcDbEntity
  8
0
  6
SLD-実線
 62
     7
370
    25
100
AcDbCircle
 10
246.8682924289
 20
331.342173505
 30
0.0
 40
6.140000000000017
  0
SPLINE
  5
141
330
1F
100
AcDbEntity
  8
0
  6
SLD-実線
 62
     7
370
    25
100
AcDbSpline
210
0.0
220
0.0
230
1.0
 70
     8
 71
     3
 72
    11
 73
     7
 74
     0
 42
0.000000001
 43
0.00000001
 40
0.0
 40
0.0
 40
0.0
 40
0.0
 40
0.2586128920320039
 40
0.4917864567182616
 40
0.7257927745080982
 40
1.0
 40
1.0
 40
1.0
 40
1.0
 10
246.0566934723635
 20
323.7176387639488
 30
0.0
 10
246.6570421923311
 20
324.0253476343819
 30
0.0
 10
247.7986843102795
 20
324.6104965567812
 30
0.0
 10
249.7285994040001
 20
325.5996694980163
 30
0.0
 10
251.711790906771
 20
326.6161564126185
 30
0.0
 10
252.8940789767527
 20
327.2221355932236
 30
0.0
 10
253.531983919837
 20
327.5490923853363
 30
0.0
  0
SPLINE
  5
142
330
1F
100
AcDbEntity
  8
0
  6
SLD-実線
 62
     7
370
    25
100
AcDbSpline
210
0.0
220
0.0
230
1.0
 70
     8
 71
     3
 72
    12
 73
     8
 74
     0
 42
0.000000001
 43
0.00000001
 40
0.0
 40
0.0
 40
0.0
 40
0.0
 40
0.2879670717389547
 40
0.5634730097076076
 40
0.7500841407740336
 40
0.937243298993895
 40
0.9999999999999999
 40
0.9999999999999999
 40
0.9999999999999999
 40
0.9999999999999999
 10
240.6397078711768
 20
328.1497153522218
 30
0.0
 10
241.1562435037758
 20
327.7270958215036
 30
0.0
 10
242.1669628397199
 20
326.9001446791489
 30
0.0
 10
243.631813787426
 20
325.7016295559407
 30
0.0
 10
244.8054058270135
 20
324.7414195502159
 30
0.0
 10
245.5480498235481
 20
324.1338037207373
 30
0.0
 10
245.9546032941795
 20
323.8011674872337
 30
0.0
 10
246.0566934723635
 20
323.7176387639488
 30
0.0
  0
SPLINE
  5
143
330
1F
100
AcDbEntity
  8
0
  6
SLD-実線
 62
     7
370
    25
100
AcDbSpline
210
0.0
220
0.0
230
1.0
 70
     8
 71
     3
 72
    12
 73
     8
 74
     0
 42
0.000000001
 43
0.00000001
 40
0.0
 40
0.0
 40
0.0
 40
0.0
 40
0.2037158153237385
 40
0.4067680742496814
 40
0.6832562221270843
 40
0.9592817195162446
 40
0.9999999999999999
 40
0.9999999999999999
 40
0.9999999999999999
 40
0.9999999999999999
 10
240.204601414897
 20
335.1352530600275
 30
0.0
 10
240.2315354053845
 20
334.702843661047
 30
0.0
 10
240.2853156552145
 20
333.8394333350924
 30
0.0
 10
240.3837068414742
 20
332.2597404606888
 30
0.0
 10
240.5009721927723
 20
330.3771523282057
 30
0.0
 10
240.5897574316811
 20
328.9516595396878
 30
0.0
 10
240.6340180477169
 20
328.2410643152633
 30
0.0
 10
240.6397078711768
 20
328.1497153522218
 30
0.0
  0
SPLINE
  5
144
330
1F
100
AcDbEntity
  8
0
  6
SLD-実線
 62
     7
370
    25
100
AcDbSpline
210
0.0
220
0.0
230
1.0
 70
     8
 71
     3
 72
    11
 73
     7
 74
     0
 42
0.000000001
 43
0.00000001
 40
0.0
 40
0.0
 40
0.0
 40
0.0
 40
0.2586128919349596
 40
0.4917863631948093
 40
0.7257927746109945
 40
1.0
 40
1.0
 40
1.0
 40
1.0
 10
247.6798918623705
 20
338.966706681415
 30
0.0
 10
247.0795432655464
 20
338.6589975670332
 30
0.0
 10
245.93790159845
 20
338.0738482917922
 30
0.0
 10
244.0079849242295
 20
337.0846785950314
 30
0.0
 10
242.0247950293463
 20
336.068188388395
 30
0.0
 10
240.8425064923373
 20
335.46220958716
 30
0.0
 10
240.204601414897
 20
335.1352530600275
 30
0.0
  0
SPLINE
  5
145
330
1F
100
AcDbEntity
  8
0
  6
SLD-実線
 62
     7
370
    25
100
AcDbSpline
210
0.0
220
0.0
230
1.0
 70
     8
 71
     3
 72
    12
 73
     8
 74
     0
 42
0.000000001
 43
0.00000001
 40
0.0
 40
0.0
 40
0.0
 40
0.0
 40
0.2879671729732846
 40
0.5634732209500044
 40
0.7500843181380578
 40
0.9372435857385428
 40
1.0
 40
1.0
 40
1.0
 40
1.0
 10
253.0968774635573
 20
334.5346282304968
 30
0.0
 10
252.5803417664999
 20
334.9572482873616
 30
0.0
 10
251.5696222808326
 20
335.7842004785467
 30
0.0
 10
250.1047723166245
 20
336.982718285122
 30
0.0
 10
248.931178479734
 20
337.9429265513119
 30
0.0
 10
248.1885374832901
 20
338.5505473487746
 30
0.0
 10
247.7819821214454
 20
338.8831793446243
 30
0.0
 10
247.6798918623705
 20
338.966706681415
 30
0.0
  0
SPLINE
  5
146
330
1F
100
AcDbEntity
  8
0
  6
SLD-実線
 62
     7
370
    25
100
AcDbSpline
210
0.0
220
0.0
230
1.0
 70
     8
 71
     3
 72
    12
 73
     8
 74
     0
 42
0.000000001
 43
0.00000001
 40
0.0
 40
0.0
 40
0.0
 40
0.0
 40
0.2037160916347606
 40
0.4067684047196289
 40
0.6832566263430765
 40
0.9592817086556991
 40
0.9999999999999999
 40
0.9999999999999999
 40
0.9999999999999999
 40
0.9999999999999999
 10
253.531983919837
 20
327.5490923853363
 30
0.0
 10
253.5050499392077
 20
327.9815024344927
 30
0.0
 10
253.4512697383142
 20
328.844913589049
 30
0.0
 10
253.3528784666858
 20
330.4246067771111
 30
0.0
 10
253.2356133152683
 20
332.3071938997807
 30
0.0
 10
253.1468278257862
 20
333.7326851330589
 30
0.0
 10
253.1025672859946
 20
334.4432792667333
 30
0.0
 10
253.0968774635573
 20
334.5346282304968
 30
0.0
  0
SPLINE
  5
147
330
1F
100
AcDbEntity
  8
0
  6
SLD-実線
 62
     7
370
    25
100
AcDbSpline
210
0.0
220
0.0
230
1.0
 70
     8
 71
     3
 72
    11
 73
     7
 74
     0
 42
0.000000001
 43
0.00000001
 40
0.0
 40
0.0
 40
0.0
 40
0.0
 40
0.2586131193795861
 40
0.491786665476983
 40
0.7257930694046176
 40
0.9999999999999999
 40
0.9999999999999999
 40
0.9999999999999999
 40
0.9999999999999999
 10
327.5554504771014
 20
259.0368370594229
 30
0.0
 10
328.0775731795636
 20
258.6096458765044
 30
0.0
 10
329.0704577765621
 20
257.797285978164
 30
0.0
 10
330.7489004989613
 20
256.4240167020839
 30
0.0
 10
332.4736761147015
 20
255.0128321721434
 30
0.0
 10
333.5019090522629
 20
254.1715531370593
 30
0.0
 10
334.0566929955264
 20
253.7176403285708
 30
0.0
  0
SPLINE
  5
148
330
1F
100
AcDbEntity
  8
0
  6
SLD-実線
 62
     7
370
    25
100
AcDbSpline
210
0.0
220
0.0
230
1.0
 70
     8
 71
     3
 72
    12
 73
     8
 74
     0
 42
0.000000001
 43
0.00000001
 40
0.0
 40
0.0
 40
0.0
 40
0.0
 40
0.287967327383499
 40
0.5634731580560771
 40
0.750084265974788
 40
0.9372433757010865
 40
1.0
 40
1.0
 40
1.0
 40
1.0
 10
329.4513065893431
 20
265.7742518068994
 30
0.0
 10
329.2705287177808
 20
265.1318060932459
 30
0.0
 10
328.9167959553823
 20
263.8747158585962
 30
0.0
 10
328.4041153446472
 20
262.0527976545127
 30
0.0
 10
327.9933847664065
 20
260.5931332576828
 30
0.0
 10
327.7334687194709
 20
259.6694665624327
 30
0.0
 10
327.5911806069236
 20
259.1638124411086
 30
0.0
 10
327.5554504771014
 20
259.0368370594229
 30
0.0
  0
SPLINE
  5
149
330
1F
100
AcDbEntity
  8
0
  6
SLD-実線
 62
     7
370
    25
100
AcDbSpline
210
0.0
220
0.0
230
1.0
 70
     8
 71
     3
 72
    12
 73
     8
 74
     0
 42
0.000000001
 43
0.00000001
 40
0.0
 40
0.0
 40
0.0
 40
0.0
 40
0.2037160235016202
 40
0.4067678409765725
 40
0.6832565059065765
 40
0.959281401939199
 40
1.0
 40
1.0
 40
1.0
 40
1.0
 10
335.6798913855334
 20
268.9667082460369
 30
0.0
 10
335.2943372871914
 20
268.7690927489373
 30
0.0
 10
334.5244861705905
 20
268.3745060703
 30
0.0
 10
333.1159696323442
 20
267.6525711420001
 30
0.0
 10
331.4373773869927
 20
266.7922132171284
 30
0.0
 10
330.1663540072757
 20
266.1407469719697
 30
0.0
 10
329.5327578230383
 20
265.8159993645993
 30
0.0
 10
329.4513065893431
 20
265.7742518068994
 30
0.0
  0
SPLINE
  5
14A
330
1F
100
AcDbEntity
  8
0
  6
SLD-実線
 62
     7
370
    25
100
AcDbSpline
210
0.0
220
0.0
230
1.0
 70
     8
 71
     3
 72
    11
 73
     7
 74
     0
 42
0.000000001
 43
0.00000001
 40
0.0
 40
0.0
 40
0.0
 40
0.0
 40
0.2586130883561208
 40
0.4917862897249081
 40
0.7257929836100436
 40
1.0
 40
1.0
 40
1.0
 40
1.0
 10
342.1811339039584
 20
263.6475096525396
 30
0.0
 10
341.659010947043
 20
264.0747005311591
 30
0.0
 10
340.6661265056801
 20
264.887059327599
 30
0.0
 10
338.9876872774514
 20
266.2603325118002
 30
0.0
 10
337.262907702639
 20
267.6715130241476
 30
0.0
 10
336.2346749775534
 20
268.5127943793241
 30
0.0
 10
335.6798913855334
 20
268.9667082460369
 30
0.0
  0
SPLINE
  5
14B
330
1F
100
AcDbEntity
  8
0
  6
SLD-実線
 62
     7
370
    25
100
AcDbSpline
210
0.0
220
0.0
230
1.0
 70
     8
 71
     3
 72
    12
 73
     8
 74
     0
 42
0.000000001
 43
0.00000001
 40
0.0
 40
0.0
 40
0.0
 40
0.0
 40
0.287967327383499
 40
0.5634731580560771
 40
0.750084265974788
 40
0.9372433757010865
 40
1.0
 40
1.0
 40
1.0
 40
1.0
 10
340.2852777917166
 20
256.910094905063
 30
0.0
 10
340.466055663279
 20
257.5525406187166
 30
0.0
 10
340.8197884256776
 20
258.8096308533663
 30
0.0
 10
341.3324690364126
 20
260.6315490574498
 30
0.0
 10
341.7431996146533
 20
262.0912134542797
 30
0.0
 10
342.0031156615889
 20
263.0148801495299
 30
0.0
 10
342.1454037741362
 20
263.5205342708539
 30
0.0
 10
342.1811339039584
 20
263.6475096525396
 30
0.0
  0
SPLINE
  5
14C
330
1F
100
AcDbEntity
  8
0
  6
SLD-実線
 62
     7
370
    25
100
AcDbSpline
210
0.0
220
0.0
230
1.0
 70
     8
 71
     3
 72
    12
 73
     8
 74
     0
 42
0.000000001
 43
0.00000001
 40
0.0
 40
0.0
 40
0.0
 40
0.0
 40
0.2037159420423474
 40
0.406767779437492
 40
0.6832565865028583
 40
0.9592813979445424
 40
1.0
 40
1.0
 40
1.0
 40
1.0
 10
334.0566929955264
 20
253.7176403285708
 30
0.0
 10
334.442247130866
 20
253.9152551059579
 30
0.0
 10
335.2120985127103
 20
254.3098404456024
 30
0.0
 10
336.620615189774
 20
255.0317753341567
 30
0.0
 10
338.2992059064224
 20
255.892136306969
 30
0.0
 10
339.5702306341365
 20
256.5435997800144
 30
0.0
 10
340.2038265622332
 20
256.8683473388803
 30
0.0
 10
340.2852777917166
 20
256.910094905063
 30
0.0
  0
CIRCLE
  5
14D
330
1F
100
AcDbEntity
  8
0
  6
SLD-実線
 62
     7
370
    25
100
AcDbCircle
 10
334.8682924289
 20
261.342173505
 30
0.0
 40
6.139999999999953
  0
CIRCLE
  5
14E
330
1F
100
AcDbEntity
  8
0
  6
SLD-実線
 62
     7
370
    25
100
AcDbCircle
 10
334.8682924289
 20
331.342173505
 30
0.0
 40
6.139999999999991
  0
SPLINE
  5
14F
330
1F
100
AcDbEntity
  8
0
  6
SLD-実線
 62
     7
370
    25
100
AcDbSpline
210
0.0
220
0.0
230
1.0
 70
     8
 71
     3
 72
    11
 73
     7
 74
     0
 42
0.000000001
 43
0.00000001
 40
0.0
 40
0.0
 40
0.0
 40
0.0
 40
0.2586132243748304
 40
0.4917864247801836
 40
0.7257931081819949
 40
1.0
 40
1.0
 40
1.0
 40
1.0
 10
328.2046009380599
 20
327.5490923853363
 30
0.0
 10
328.8049511393125
 20
327.2413838957337
 30
0.0
 10
329.9465945328545
 20
326.6562364875066
 30
0.0
 10
331.8765080251785
 20
325.6670595036966
 30
0.0
 10
333.8597011185097
 20
324.6505766786088
 30
0.0
 10
335.0419879350683
 20
324.0445959648598
 30
0.0
 10
335.6798913855334
 20
323.7176387639488
 30
0.0
  0
SPLINE
  5
150
330
1F
100
AcDbEntity
  8
0
  6
SLD-実線
 62
     7
370
    25
100
AcDbSpline
210
0.0
220
0.0
230
1.0
 70
     8
 71
     3
 72
    12
 73
     8
 74
     0
 42
0.000000001
 43
0.00000001
 40
0.0
 40
0.0
 40
0.0
 40
0.0
 40
0.2879667990370851
 40
0.563472964272011
 40
0.7500841739424362
 40
0.9372432604918073
 40
1.0
 40
1.0
 40
1.0
 40
1.0
 10
328.6397073943396
 20
334.5346282304968
 30
0.0
 10
328.598217477559
 20
333.8685246835719
 30
0.0
 10
328.5170329574199
 20
332.5651406082101
 30
0.0
 10
328.3993750231263
 20
330.6761240973058
 30
0.0
 10
328.3051106300543
 20
329.1627048671159
 30
0.0
 10
328.2454566846105
 20
328.2050212049292
 30
0.0
 10
328.2128011248561
 20
327.6807443388507
 30
0.0
 10
328.2046009380599
 20
327.5490923853363
 30
0.0
  0
SPLINE
  5
151
330
1F
100
AcDbEntity
  8
0
  6
SLD-実線
 62
     7
370
    25
100
AcDbSpline
210
0.0
220
0.0
230
1.0
 70
     8
 71
     3
 72
    12
 73
     8
 74
     0
 42
0.000000001
 43
0.00000001
 40
0.0
 40
0.0
 40
0.0
 40
0.0
 40
0.203715789915531
 40
0.406768006812913
 40
0.6832563933380525
 40
0.959281485741369
 40
1.0
 40
1.0
 40
1.0
 40
1.0
 10
334.0566929955264
 20
338.966706681415
 30
0.0
 10
333.7213772648712
 20
338.6923590546484
 30
0.0
 10
333.0518380432517
 20
338.1445574465355
 30
0.0
 10
331.826854771184
 20
337.1422964508066
 30
0.0
 10
330.3669877903133
 20
335.9478604318132
 30
0.0
 10
329.2615836945476
 20
335.043431778841
 30
0.0
 10
328.7105453307674
 20
334.5925860484741
 30
0.0
 10
328.6397073943396
 20
334.5346282304968
 30
0.0
  0
SPLINE
  5
152
330
1F
100
AcDbEntity
  8
0
  6
SLD-実線
 62
     7
370
    25
100
AcDbSpline
210
0.0
220
0.0
230
1.0
 70
     8
 71
     3
 72
    11
 73
     7
 74
     0
 42
0.000000001
 43
0.00000001
 40
0.0
 40
0.0
 40
0.0
 40
0.0
 40
0.2586132244717227
 40
0.491786518303641
 40
0.7257931080792602
 40
1.0
 40
1.0
 40
1.0
 40
1.0
 10
341.5319834429999
 20
335.1352530600275
 30
0.0
 10
340.9316331186034
 20
335.442961305681
 30
0.0
 10
339.7899892742078
 20
336.0281083610661
 30
0.0
 10
337.8600773623859
 20
337.0172885893511
 30
0.0
 10
335.876882661169
 20
338.0337681224053
 30
0.0
 10
334.6945963116361
 20
338.6397492155243
 30
0.0
 10
334.0566929955264
 20
338.966706681415
 30
0.0
  0
SPLINE
  5
153
330
1F
100
AcDbEntity
  8
0
  6
SLD-実線
 62
     7
370
    25
100
AcDbSpline
210
0.0
220
0.0
230
1.0
 70
     8
 71
     3
 72
    12
 73
     8
 74
     0
 42
0.000000001
 43
0.00000001
 40
0.0
 40
0.0
 40
0.0
 40
0.0
 40
0.287967206087785
 40
0.5634732977848818
 40
0.7500844576452301
 40
0.9372434942382857
 40
1.0
 40
1.0
 40
1.0
 40
1.0
 10
341.0968769867201
 20
328.1497153522218
 30
0.0
 10
341.1383668835481
 20
328.8158201387201
 30
0.0
 10
341.2195512979403
 20
330.119205568671
 30
0.0
 10
341.3372093556587
 20
332.0082232596279
 30
0.0
 10
341.4314737765936
 20
333.5216422810763
 30
0.0
 10
341.4911275913382
 20
334.4793260748294
 30
0.0
 10
341.5237832520789
 20
335.0036017471781
 30
0.0
 10
341.5319834429999
 20
335.1352530600275
 30
0.0
  0
SPLINE
  5
154
330
1F
100
AcDbEntity
  8
0
  6
SLD-実線
 62
     7
370
    25
100
AcDbSpline
210
0.0
220
0.0
230
1.0
 70
     8
 71
     3
 72
    12
 73
     8
 74
     0
 42
0.000000001
 43
0.00000001
 40
0.0
 40
0.0
 40
0.0
 40
0.0
 40
0.2037159580569343
 40
0.406768202171647
 40
0.683256625757578
 40
0.9592821341247093
 40
0.9999999999999999
 40
0.9999999999999999
 40
0.9999999999999999
 40
0.9999999999999999
 10
335.6798913855334
 20
323.7176387639488
 30
0.0
 10
336.0152070345452
 20
323.9919871197974
 30
0.0
 10
336.6847458620848
 20
324.5397899946518
 30
0.0
 10
337.9097298716229
 20
325.5420507472033
 30
0.0
 10
339.3695962788797
 20
326.7364874097614
 30
0.0
 10
340.4750032892312
 20
327.6409159365007
 30
0.0
 10
341.0260403002101
 20
328.0917587850709
 30
0.0
 10
341.0968769867201
 20
328.1497153522218
 30
0.0
  0
SPLINE
  5
155
330
1F
100
AcDbEntity
  8
0
  6
SLD-実線
 62
     7
370
    25
100
AcDbSpline
210
0.0
220
0.0
230
1.0
 70
     8
 71
     3
 72
    11
 73
     7
 74
     0
 42
0.000000001
 43
0.00000001
 40
0.0
 40
0.0
 40
0.0
 40
0.0
 40
0.2586132244717227
 40
0.491786518303641
 40
0.7257931080792602
 40
1.0
 40
1.0
 40
1.0
 40
1.0
 10
240.204601414897
 20
257.5490939499582
 30
0.0
 10
240.8049517392936
 20
257.2413857043047
 30
0.0
 10
241.9465955836891
 20
256.6562386489196
 30
0.0
 10
243.876507495511
 20
255.6670584206346
 30
0.0
 10
245.859702196728
 20
254.6505788875805
 30
0.0
 10
247.0419885462609
 20
254.0445977944614
 30
0.0
 10
247.6798918623705
 20
253.7176403285708
 30
0.0
  0
SPLINE
  5
156
330
1F
100
AcDbEntity
  8
0
  6
SLD-実線
 62
     7
370
    25
100
AcDbSpline
210
0.0
220
0.0
230
1.0
 70
     8
 71
     3
 72
    12
 73
     8
 74
     0
 42
0.000000001
 43
0.00000001
 40
0.0
 40
0.0
 40
0.0
 40
0.0
 40
0.287967206087785
 40
0.5634732977848818
 40
0.7500844576452301
 40
0.9372434942382857
 40
1.0
 40
1.0
 40
1.0
 40
1.0
 10
240.6397078711768
 20
264.5346316577638
 30
0.0
 10
240.5982179743488
 20
263.8685268712656
 30
0.0
 10
240.5170335599566
 20
262.5651414413147
 30
0.0
 10
240.3993755022383
 20
260.6761237503579
 30
0.0
 10
240.3051110813034
 20
259.1627047289095
 30
0.0
 10
240.2454572665588
 20
258.2050209351564
 30
0.0
 10
240.212801605818
 20
257.6807452628076
 30
0.0
 10
240.204601414897
 20
257.5490939499582
 30
0.0
  0
SPLINE
  5
157
330
1F
100
AcDbEntity
  8
0
  6
SLD-実線
 62
     7
370
    25
100
AcDbSpline
210
0.0
220
0.0
230
1.0
 70
     8
 71
     3
 72
    12
 73
     8
 74
     0
 42
0.000000001
 43
0.00000001
 40
0.0
 40
0.0
 40
0.0
 40
0.0
 40
0.2037159580569343
 40
0.406768202171647
 40
0.683256625757578
 40
0.9592821341247093
 40
0.9999999999999999
 40
0.9999999999999999
 40
0.9999999999999999
 40
0.9999999999999999
 10
246.0566934723635
 20
268.9667082460369
 30
0.0
 10
245.7213778233518
 20
268.6923598901883
 30
0.0
 10
245.0518389958122
 20
268.144557015334
 30
0.0
 10
243.826854986274
 20
267.1422962627825
 30
0.0
 10
242.3669885790172
 20
265.9478596002243
 30
0.0
 10
241.2615815686657
 20
265.0434310734851
 30
0.0
 10
240.7105445576869
 20
264.5925882249149
 30
0.0
 10
240.6397078711768
 20
264.5346316577638
 30
0.0
  0
SPLINE
  5
158
330
1F
100
AcDbEntity
  8
0
  6
SLD-実線
 62
     7
370
    25
100
AcDbSpline
210
0.0
220
0.0
230
1.0
 70
     8
 71
     3
 72
    11
 73
     7
 74
     0
 42
0.000000001
 43
0.00000001
 40
0.0
 40
0.0
 40
0.0
 40
0.0
 40
0.2586132243748304
 40
0.4917864247801836
 40
0.7257931081819949
 40
1.0
 40
1.0
 40
1.0
 40
1.0
 10
253.531983919837
 20
265.1352546246494
 30
0.0
 10
252.9316337185844
 20
265.4429631142521
 30
0.0
 10
251.7899903250425
 20
266.0281105224791
 30
0.0
 10
249.8600768327185
 20
267.0172875062891
 30
0.0
 10
247.8768837393872
 20
268.0337703313769
 30
0.0
 10
246.6945969228286
 20
268.639751045126
 30
0.0
 10
246.0566934723635
 20
268.9667082460369
 30
0.0
  0
SPLINE
  5
159
330
1F
100
AcDbEntity
  8
0
  6
SLD-実線
 62
     7
370
    25
100
AcDbSpline
210
0.0
220
0.0
230
1.0
 70
     8
 71
     3
 72
    12
 73
     8
 74
     0
 42
0.000000001
 43
0.00000001
 40
0.0
 40
0.0
 40
0.0
 40
0.0
 40
0.2879667990370851
 40
0.563472964272011
 40
0.7500841739424362
 40
0.9372432604918073
 40
1.0
 40
1.0
 40
1.0
 40
1.0
 10
253.0968774635573
 20
258.1497187794889
 30
0.0
 10
253.138367380338
 20
258.8158223264138
 30
0.0
 10
253.2195519004771
 20
260.1192064017757
 30
0.0
 10
253.3372098347706
 20
262.00822291268
 30
0.0
 10
253.4314742278426
 20
263.5216421428698
 30
0.0
 10
253.4911281732865
 20
264.4793258050566
 30
0.0
 10
253.5237837330409
 20
265.003602671135
 30
0.0
 10
253.531983919837
 20
265.1352546246494
 30
0.0
  0
SPLINE
  5
15A
330
1F
100
AcDbEntity
  8
0
  6
SLD-実線
 62
     7
370
    25
100
AcDbSpline
210
0.0
220
0.0
230
1.0
 70
     8
 71
     3
 72
    12
 73
     8
 74
     0
 42
0.000000001
 43
0.00000001
 40
0.0
 40
0.0
 40
0.0
 40
0.0
 40
0.203715789915531
 40
0.406768006812913
 40
0.6832563933380525
 40
0.959281485741369
 40
1.0
 40
1.0
 40
1.0
 40
1.0
 10
247.6798918623705
 20
253.7176403285708
 30
0.0
 10
248.0152075930258
 20
253.9919879553374
 30
0.0
 10
248.6847468146453
 20
254.5397895634503
 30
0.0
 10
249.9097300867129
 20
255.5420505591792
 30
0.0
 10
251.3695970675837
 20
256.7364865781726
 30
0.0
 10
252.4750011633494
 20
257.6409152311448
 30
0.0
 10
253.0260395271295
 20
258.0917609615116
 30
0.0
 10
253.0968774635573
 20
258.1497187794889
 30
0.0
  0
CIRCLE
  5
15B
330
1F
100
AcDbEntity
  8
0
  6
SLD-実線
 62
     7
370
    25
100
AcDbCircle
 10
246.8682924289
 20
261.342173505
 30
0.0
 40
6.139999999999966
  0
SPLINE
  5
15C
330
1F
100
AcDbEntity
  8
0
  6
SLD-実線
 62
     7
370
    25
100
AcDbSpline
210
0.0
220
0.0
230
1.0
 70
     8
 71
     3
 72
     9
 73
     5
 74
     0
 42
0.000000001
 43
0.00000001
 40
0.0
 40
0.0
 40
0.0
 40
0.0
 40
0.7757596517022968
 40
1.0
 40
1.0
 40
1.0
 40
1.0
 10
364.9592351693888
 20
337.2863362611974
 30
0.0
 10
364.868359960851
 20
337.3477995323279
 30
0.0
 10
364.7512164508238
 20
337.4270293182488
 30
0.0
 10
364.381254550109
 20
337.5043230299399
 30
0.0
 10
364.2982941646358
 20
337.5216553987707
 30
0.0
  0
SPLINE
  5
15D
330
1F
100
AcDbEntity
  8
0
  6
SLD-実線
 62
     7
370
    25
100
AcDbSpline
210
0.0
220
0.0
230
1.0
 70
     8
 71
     3
 72
    11
 73
     7
 74
     0
 42
0.000000001
 43
0.00000001
 40
0.0
 40
0.0
 40
0.0
 40
0.0
 40
0.1658274234371612
 40
0.5244847257804175
 40
0.8960291723429471
 40
1.0
 40
1.0
 40
1.0
 40
1.0
 10
364.2982941646357
 20
320.6705170752252
 30
0.0
 10
364.4251153784022
 20
320.6428308986784
 30
0.0
 10
364.8262299114917
 20
320.5552640993327
 30
0.0
 10
365.1077329827085
 20
320.4017403784484
 30
0.0
 10
364.7521322067569
 20
320.2593085094581
 30
0.0
 10
364.3797213407298
 20
320.180026092306
 30
0.0
 10
364.2982941646358
 20
320.1626910896744
 30
0.0
  0
SPLINE
  5
15E
330
1F
100
AcDbEntity
  8
0
  6
SLD-実線
 62
     7
370
    25
100
AcDbSpline
210
0.0
220
0.0
230
1.0
 70
     8
 71
     3
 72
    10
 73
     6
 74
     0
 42
0.000000001
 43
0.00000001
 40
0.0
 40
0.0
 40
0.0
 40
0.0
 40
0.3840256125098758
 40
0.7792873593752891
 40
1.0
 40
1.0
 40
1.0
 40
1.0
 10
364.6364089627048
 20
329.2779344202722
 30
0.0
 10
364.791796499333
 20
328.1914137327528
 30
0.0
 10
365.1071180277786
 20
325.9865820499132
 30
0.0
 10
364.8314181486822
 20
323.1260009197312
 30
0.0
 10
364.4389288324928
 20
321.4111518936022
 30
0.0
 10
364.2982941646357
 20
320.7966963829244
 30
0.0
  0
SPLINE
  5
15F
330
1F
100
AcDbEntity
  8
0
  6
SLD-実線
 62
     7
370
    25
100
AcDbSpline
210
0.0
220
0.0
230
1.0
 70
     8
 71
     3
 72
    10
 73
     6
 74
     0
 42
0.000000001
 43
0.00000001
 40
0.0
 40
0.0
 40
0.0
 40
0.0
 40
0.4345926267774024
 40
0.8829904749813291
 40
1.0
 40
1.0
 40
1.0
 40
1.0
 10
364.2982941646357
 20
337.4125528217996
 30
0.0
 10
364.556714929822
 20
336.2458902692784
 30
0.0
 10
365.0817654257056
 20
333.8755050903293
 30
0.0
 10
364.9681858239338
 20
331.1168814133509
 30
0.0
 10
364.6932965530394
 20
329.5932465333649
 30
0.0
 10
364.6364089627047
 20
329.2779344202722
 30
0.0
  0
LINE
  5
160
330
1F
100
AcDbEntity
  8
0
  6
SLD-実線
 62
     7
370
    25
100
AcDbLine
 10
365.0982928056
 20
336.9921724381
 30
0.0
 11
365.0982928056
 21
320.6921740504
 31
0.0
  0
LINE
  5
161
330
1F
100
AcDbEntity
  8
0
  6
SLD-実線
 62
     7
370
    25
100
AcDbLine
 10
364.2982941646
 20
320.6766004743
 30
0.0
 11
357.8682940979
 21
320.6766004743
 31
0.0
  0
LINE
  5
162
330
1F
100
AcDbEntity
  8
0
  6
SLD-実線
 62
     7
370
    25
100
AcDbLine
 10
364.6364089627
 20
329.2779344203
 30
0.0
 11
357.8682940979
 21
329.2779344203
 31
0.0
  0
LINE
  5
163
330
1F
100
AcDbEntity
  8
0
  6
SLD-実線
 62
     7
370
    25
100
AcDbLine
 10
364.2982941646
 20
320.7966963829
 30
0.0
 11
364.2982941646
 21
320.6766004743
 31
0.0
  0
LINE
  5
164
330
1F
100
AcDbEntity
  8
0
  6
SLD-実線
 62
     7
370
    25
100
AcDbLine
 10
364.2982941646
 20
337.5277425231
 30
0.0
 11
357.8682940979
 21
337.5277425231
 31
0.0
  0
LINE
  5
165
330
1F
100
AcDbEntity
  8
0
  6
SLD-実線
 62
     7
370
    25
100
AcDbLine
 10
364.2982941646
 20
337.5277425231
 30
0.0
 11
364.2982941646
 21
337.4125528218
 31
0.0
  0
LINE
  5
166
330
1F
100
AcDbEntity
  8
0
  6
SLD-実線
 62
     7
370
    25
100
AcDbLine
 10
364.2982941646
 20
320.1626910897
 30
0.0
 11
364.2982941646
 21
320.156605828
 31
0.0
  0
LINE
  5
167
330
1F
100
AcDbEntity
  8
0
  6
SLD-実線
 62
     7
370
    25
100
AcDbLine
 10
364.2982941646
 20
320.156605828
 30
0.0
 11
357.8682940979
 21
320.156605828
 31
0.0
  0
LINE
  5
168
330
1F
100
AcDbEntity
  8
0
  6
SLD-実線
 62
     7
370
    25
100
AcDbLine
 10
364.2982941646
 20
320.6766004743
 30
0.0
 11
364.2982941646
 21
320.6705170752
 31
0.0
  0
SPLINE
  5
169
330
1F
100
AcDbEntity
  8
0
  6
SLD-実線
 62
     7
370
    25
100
AcDbSpline
210
0.0
220
0.0
230
1.0
 70
     8
 71
     3
 72
    11
 73
     7
 74
     0
 42
0.000000001
 43
0.00000001
 40
0.0
 40
0.0
 40
0.0
 40
0.0
 40
0.1658274332876547
 40
0.5244848919994466
 40
0.8960293324860675
 40
1.0
 40
1.0
 40
1.0
 40
1.0
 10
364.2982941646357
 20
273.3636572094406
 30
0.0
 10
364.4251153834941
 20
272.9131456109188
 30
0.0
 10
364.8262300359821
 20
271.488251536334
 30
0.0
 10
365.1077328032658
 20
268.9900035547992
 30
0.0
 10
364.7521326970933
 20
266.6723465353942
 30
0.0
 10
364.3797213491447
 20
265.3822173955259
 30
0.0
 10
364.2982941646358
 20
265.1001325877155
 30
0.0
  0
SPLINE
  5
16A
330
1F
100
AcDbEntity
  8
0
  6
SLD-実線
 62
     7
370
    25
100
AcDbSpline
210
0.0
220
0.0
230
1.0
 70
     8
 71
     3
 72
     9
 73
     5
 74
     0
 42
0.000000001
 43
0.00000001
 40
0.0
 40
0.0
 40
0.0
 40
0.0
 40
0.3272314727318645
 40
0.9999999999999999
 40
0.9999999999999999
 40
0.9999999999999999
 40
0.9999999999999999
 10
364.7682618875285
 20
272.6145367206777
 30
0.0
 10
364.7489645148062
 20
272.7044051118116
 30
0.0
 10
364.6899928866766
 20
272.9790375925555
 30
0.0
 10
364.4558309475585
 20
273.2470395963442
 30
0.0
 10
364.2982941646357
 20
273.4273429097379
 30
0.0
  0
SPLINE
  5
16B
330
1F
100
AcDbEntity
  8
0
  6
SLD-実線
 62
     7
370
    25
100
AcDbSpline
210
0.0
220
0.0
230
1.0
 70
     8
 71
     3
 72
    10
 73
     6
 74
     0
 42
0.000000001
 43
0.00000001
 40
0.0
 40
0.0
 40
0.0
 40
0.0
 40
0.3840257040147881
 40
0.7792874277352508
 40
1.0
 40
1.0
 40
1.0
 40
1.0
 10
364.6364089627047
 20
256.7513193072523
 30
0.0
 10
364.7917965033752
 20
256.4317760171697
 30
0.0
 10
365.1071179925498
 20
255.783340076619
 30
0.0
 10
364.8314182280208
 20
254.9420440216462
 30
0.0
 10
364.4389288367348
 20
254.4377122036105
 30
0.0
 10
364.2982941646357
 20
254.2570027591433
 30
0.0
  0
SPLINE
  5
16C
330
1F
100
AcDbEntity
  8
0
  6
SLD-実線
 62
     7
370
    25
100
AcDbSpline
210
0.0
220
0.0
230
1.0
 70
     8
 71
     3
 72
    10
 73
     6
 74
     0
 42
0.000000001
 43
0.00000001
 40
0.0
 40
0.0
 40
0.0
 40
0.0
 40
0.4345926525619173
 40
0.8829903903556037
 40
1.0
 40
1.0
 40
1.0
 40
1.0
 10
364.2982941646357
 20
264.8859377087797
 30
0.0
 10
364.5567149582522
 20
263.7192753795898
 30
0.0
 10
365.0817654304271
 20
261.348891022211
 30
0.0
 10
364.9681856119623
 20
258.5902649019991
 30
0.0
 10
364.6932965529322
 20
257.0666313814401
 30
0.0
 10
364.6364089627048
 20
256.7513193072523
 30
0.0
  0
LINE
  5
16D
330
1F
100
AcDbEntity
  8
0
  6
SLD-実線
 62
     7
370
    25
100
AcDbLine
 10
365.0982928056
 20
271.9921729596
 30
0.0
 11
365.0982928056
 21
255.6921745719
 31
0.0
  0
LINE
  5
16E
330
1F
100
AcDbEntity
  8
0
  6
SLD-実線
 62
     7
370
    25
100
AcDbLine
 10
364.6364089627
 20
256.7513193073
 30
0.0
 11
357.8682940979
 21
256.7513193073
 31
0.0
  0
LINE
  5
16F
330
1F
100
AcDbEntity
  8
0
  6
SLD-実線
 62
     7
370
    25
100
AcDbLine
 10
364.2982941646
 20
265.0011236848
 30
0.0
 11
357.8682940979
 21
265.0011236848
 31
0.0
  0
LINE
  5
170
330
1F
100
AcDbEntity
  8
0
  6
SLD-実線
 62
     7
370
    25
100
AcDbLine
 10
364.2982941646
 20
265.0011236848
 30
0.0
 11
364.2982941646
 21
264.8859377088
 31
0.0
  0
LINE
  5
171
330
1F
100
AcDbEntity
  8
0
  6
SLD-実線
 62
     7
370
    25
100
AcDbLine
 10
364.2982941646
 20
273.4626642497
 30
0.0
 11
357.8682940979
 21
273.4626642497
 31
0.0
  0
LINE
  5
172
330
1F
100
AcDbEntity
  8
0
  6
SLD-実線
 62
     7
370
    25
100
AcDbLine
 10
364.2982941646
 20
273.4626642497
 30
0.0
 11
364.2982941646
 21
273.3636572094
 31
0.0
  0
LINE
  5
173
330
1F
100
AcDbEntity
  8
0
  6
SLD-実線
 62
     7
370
    25
100
AcDbLine
 10
364.2982941646
 20
265.1001325877
 30
0.0
 11
364.2982941646
 21
265.0011236848
 31
0.0
  0
LINE
  5
174
330
1F
100
AcDbEntity
  8
0
  6
SLD-実線
 62
     7
370
    25
100
AcDbLine
 10
364.2982941646
 20
254.2216832818
 30
0.0
 11
357.8682940979
 21
254.2216832818
 31
0.0
  0
LINE
  5
175
330
1F
100
AcDbEntity
  8
0
  6
SLD-実線
 62
     7
370
    25
100
AcDbLine
 10
364.2982941646
 20
254.2570027591
 30
0.0
 11
364.2982941646
 21
254.2216832818
 31
0.0
  0
SPLINE
  5
176
330
1F
100
AcDbEntity
  8
0
  6
SLD-実線
 62
     7
370
    25
100
AcDbSpline
210
0.0
220
0.0
230
1.0
 70
     8
 71
     3
 72
    11
 73
     7
 74
     0
 42
0.000000001
 43
0.00000001
 40
0.0
 40
0.0
 40
0.0
 40
0.0
 40
0.1658274423705431
 40
0.5244848590192279
 40
0.8960293413031367
 40
1.0
 40
1.0
 40
1.0
 40
1.0
 10
217.4382906932612
 20
327.798409301206
 30
0.0
 10
217.3114694744196
 20
328.3225540878454
 30
0.0
 10
216.9103548691775
 20
329.9803376283521
 30
0.0
 10
216.6288520662695
 20
332.8869092859948
 30
0.0
 10
216.9844521005367
 20
335.5833679543335
 30
0.0
 10
217.3568635082398
 20
337.0843626303324
 30
0.0
 10
217.4382906932612
 20
337.4125528217996
 30
0.0
  0
SPLINE
  5
177
330
1F
100
AcDbEntity
  8
0
  6
SLD-実線
 62
     7
370
    25
100
AcDbSpline
210
0.0
220
0.0
230
1.0
 70
     8
 71
     3
 72
    10
 73
     6
 74
     0
 42
0.000000001
 43
0.00000001
 40
0.0
 40
0.0
 40
0.0
 40
0.0
 40
0.3840257252800997
 40
0.7792876354986018
 40
1.0
 40
1.0
 40
1.0
 40
1.0
 10
217.1001758951922
 20
320.592366072699
 30
0.0
 10
216.9447883998905
 20
321.488082999832
 30
0.0
 10
216.6294669361749
 20
323.3057245802559
 30
0.0
 10
216.9051662280746
 20
325.6639608975765
 30
0.0
 10
217.2976560090569
 20
327.0776643281134
 30
0.0
 10
217.4382906932612
 20
327.5842144222702
 30
0.0
  0
SPLINE
  5
178
330
1F
100
AcDbEntity
  8
0
  6
SLD-実線
 62
     7
370
    25
100
AcDbSpline
210
0.0
220
0.0
230
1.0
 70
     8
 71
     3
 72
    10
 73
     6
 74
     0
 42
0.000000001
 43
0.00000001
 40
0.0
 40
0.0
 40
0.0
 40
0.0
 40
0.4345926565129885
 40
0.8829903494086803
 40
1.0
 40
1.0
 40
1.0
 40
1.0
 10
217.4382906932612
 20
320.1626910896744
 30
0.0
 10
217.1798698869832
 20
320.2243149397744
 30
0.0
 10
216.6548194182046
 20
320.3495201500243
 30
0.0
 10
216.7683993448044
 20
320.4952342067459
 30
0.0
 10
217.0432883050939
 20
320.5757114966918
 30
0.0
 10
217.1001758951922
 20
320.592366072699
 30
0.0
  0
SPLINE
  5
179
330
1F
100
AcDbEntity
  8
0
  6
SLD-実線
 62
     7
370
    25
100
AcDbSpline
210
0.0
220
0.0
230
1.0
 70
     8
 71
     3
 72
     9
 73
     5
 74
     0
 42
0.000000001
 43
0.00000001
 40
0.0
 40
0.0
 40
0.0
 40
0.0
 40
0.7926341425700176
 40
0.9999999999999999
 40
0.9999999999999999
 40
0.9999999999999999
 40
0.9999999999999999
 10
217.4382906932612
 20
337.5216553987707
 30
0.0
 10
217.1320836212766
 20
337.4600479163642
 30
0.0
 10
216.7457678476566
 20
337.3823229243436
 30
0.0
 10
216.8287474899676
 20
337.3031861172997
 30
0.0
 10
216.8459546346446
 20
337.2867758454527
 30
0.0
  0
LINE
  5
17A
330
1F
100
AcDbEntity
  8
0
  6
SLD-実線
 62
     7
370
    25
100
AcDbLine
 10
216.6382920522
 20
321.5482792886
 30
0.0
 11
216.6382920522
 21
336.9921724381
 31
0.0
  0
LINE
  5
17B
330
1F
100
AcDbEntity
  8
0
  6
SLD-実線
 62
     7
370
    25
100
AcDbLine
 10
216.6382920522
 20
320.6921740504
 30
0.0
 11
216.6382920522
 21
321.5482792886
 31
0.0
  0
LINE
  5
17C
330
1F
100
AcDbEntity
  8
0
  6
SLD-実線
 62
     7
370
    25
100
AcDbLine
 10
217.4382906933
 20
327.6832233252
 30
0.0
 11
223.86829076
 21
327.6832233252
 31
0.0
  0
LINE
  5
17D
330
1F
100
AcDbEntity
  8
0
  6
SLD-実線
 62
     7
370
    25
100
AcDbLine
 10
217.1001758952
 20
320.5923660727
 30
0.0
 11
223.86829076
 21
320.5923660727
 31
0.0
  0
LINE
  5
17E
330
1F
100
AcDbEntity
  8
0
  6
SLD-実線
 62
     7
370
    25
100
AcDbLine
 10
217.4382906933
 20
327.5842144223
 30
0.0
 11
217.4382906933
 21
327.6832233252
 31
0.0
  0
LINE
  5
17F
330
1F
100
AcDbEntity
  8
0
  6
SLD-実線
 62
     7
370
    25
100
AcDbLine
 10
217.4382906933
 20
337.4125528218
 30
0.0
 11
217.4382906933
 21
337.5277425231
 31
0.0
  0
LINE
  5
180
330
1F
100
AcDbEntity
  8
0
  6
SLD-実線
 62
     7
370
    25
100
AcDbLine
 10
217.4382906933
 20
337.5277425231
 30
0.0
 11
223.86829076
 21
337.5277425231
 31
0.0
  0
LINE
  5
181
330
1F
100
AcDbEntity
  8
0
  6
SLD-実線
 62
     7
370
    25
100
AcDbLine
 10
217.4382906933
 20
327.6832233252
 30
0.0
 11
217.4382906933
 21
327.7984093012
 31
0.0
  0
LINE
  5
182
330
1F
100
AcDbEntity
  8
0
  6
SLD-実線
 62
     7
370
    25
100
AcDbLine
 10
217.4382906933
 20
320.156605828
 30
0.0
 11
223.86829076
 21
320.156605828
 31
0.0
  0
LINE
  5
183
330
1F
100
AcDbEntity
  8
0
  6
SLD-実線
 62
     7
370
    25
100
AcDbLine
 10
217.4382906933
 20
320.156605828
 30
0.0
 11
217.4382906933
 21
320.1626910897
 31
0.0
  0
SPLINE
  5
184
330
1F
100
AcDbEntity
  8
0
  6
SLD-実線
 62
     7
370
    25
100
AcDbSpline
210
0.0
220
0.0
230
1.0
 70
     8
 71
     3
 72
    11
 73
     7
 74
     0
 42
0.000000001
 43
0.00000001
 40
0.0
 40
0.0
 40
0.0
 40
0.0
 40
0.165827303499679
 40
0.5244847616806958
 40
0.8960293107549896
 40
1.0
 40
1.0
 40
1.0
 40
1.0
 10
217.4382906932612
 20
265.1001325877155
 30
0.0
 10
217.3114694671039
 20
265.5506434947262
 30
0.0
 10
216.9103545772553
 20
266.9755361433514
 30
0.0
 10
216.6288521469441
 20
269.4737859384421
 30
0.0
 10
216.9844521320638
 20
271.7914392493324
 30
0.0
 10
217.356863507942
 20
273.0815716967813
 30
0.0
 10
217.4382906932612
 20
273.3636572094406
 30
0.0
  0
SPLINE
  5
185
330
1F
100
AcDbEntity
  8
0
  6
SLD-実線
 62
     7
370
    25
100
AcDbSpline
210
0.0
220
0.0
230
1.0
 70
     8
 71
     3
 72
    10
 73
     6
 74
     0
 42
0.000000001
 43
0.00000001
 40
0.0
 40
0.0
 40
0.0
 40
0.0
 40
0.3840256677417264
 40
0.7792873530860478
 40
1.0
 40
1.0
 40
1.0
 40
1.0
 10
217.1001758951922
 20
256.7513193072523
 30
0.0
 10
216.944788344648
 20
257.7934350575448
 30
0.0
 10
216.6294668358587
 20
259.9081573088734
 30
0.0
 10
216.9051667563316
 20
262.6518299138202
 30
0.0
 10
217.2976560255993
 20
264.2965944332283
 30
0.0
 10
217.4382906932612
 20
264.8859377087797
 30
0.0
  0
SPLINE
  5
186
330
1F
100
AcDbEntity
  8
0
  6
SLD-実線
 62
     7
370
    25
100
AcDbSpline
210
0.0
220
0.0
230
1.0
 70
     8
 71
     3
 72
    10
 73
     6
 74
     0
 42
0.000000001
 43
0.00000001
 40
0.0
 40
0.0
 40
0.0
 40
0.0
 40
0.4345925905313968
 40
0.8829903489409994
 40
1.0
 40
1.0
 40
1.0
 40
1.0
 10
217.4382906932612
 20
254.2570027591433
 30
0.0
 10
217.1798698953167
 20
254.6147362488446
 30
0.0
 10
216.6548193640327
 20
255.3415669076762
 30
0.0
 10
216.7683993173199
 20
256.1874407239208
 30
0.0
 10
217.0432883056932
 20
256.6546346841799
 30
0.0
 10
217.1001758951922
 20
256.7513193072523
 30
0.0
  0
LINE
  5
187
330
1F
100
AcDbEntity
  8
0
  6
SLD-実線
 62
     7
370
    25
100
AcDbLine
 10
217.4382906933
 20
273.4273429097
 30
0.0
 11
216.9672873397
 21
272.6133166881
 31
0.0
  0
LINE
  5
188
330
1F
100
AcDbEntity
  8
0
  6
SLD-実線
 62
     7
370
    25
100
AcDbLine
 10
216.6382920522
 20
257.5729432584
 30
0.0
 11
216.6382920522
 21
271.9921729596
 31
0.0
  0
LINE
  5
189
330
1F
100
AcDbEntity
  8
0
  6
SLD-実線
 62
     7
370
    25
100
AcDbLine
 10
216.6382920522
 20
255.6921745719
 30
0.0
 11
216.6382920522
 21
257.5729432584
 31
0.0
  0
LINE
  5
18A
330
1F
100
AcDbEntity
  8
0
  6
SLD-実線
 62
     7
370
    25
100
AcDbLine
 10
217.4382906933
 20
265.0011236848
 30
0.0
 11
223.86829076
 21
265.0011236848
 31
0.0
  0
LINE
  5
18B
330
1F
100
AcDbEntity
  8
0
  6
SLD-実線
 62
     7
370
    25
100
AcDbLine
 10
217.1001758952
 20
256.7513193073
 30
0.0
 11
223.86829076
 21
256.7513193073
 31
0.0
  0
LINE
  5
18C
330
1F
100
AcDbEntity
  8
0
  6
SLD-実線
 62
     7
370
    25
100
AcDbLine
 10
217.4382906933
 20
264.8859377088
 30
0.0
 11
217.4382906933
 21
265.0011236848
 31
0.0
  0
LINE
  5
18D
330
1F
100
AcDbEntity
  8
0
  6
SLD-実線
 62
     7
370
    25
100
AcDbLine
 10
217.4382906933
 20
273.3636572094
 30
0.0
 11
217.4382906933
 21
273.4626642497
 31
0.0
  0
LINE
  5
18E
330
1F
100
AcDbEntity
  8
0
  6
SLD-実線
 62
     7
370
    25
100
AcDbLine
 10
217.4382906933
 20
273.4626642497
 30
0.0
 11
223.86829076
 21
273.4626642497
 31
0.0
  0
LINE
  5
18F
330
1F
100
AcDbEntity
  8
0
  6
SLD-実線
 62
     7
370
    25
100
AcDbLine
 10
217.4382906933
 20
265.0011236848
 30
0.0
 11
217.4382906933
 21
265.1001325877
 31
0.0
  0
LINE
  5
190
330
1F
100
AcDbEntity
  8
0
  6
SLD-実線
 62
     7
370
    25
100
AcDbLine
 10
217.4382906933
 20
254.2216832818
 30
0.0
 11
223.86829076
 21
254.2216832818
 31
0.0
  0
LINE
  5
191
330
1F
100
AcDbEntity
  8
0
  6
SLD-実線
 62
     7
370
    25
100
AcDbLine
 10
217.4382906933
 20
254.2216832818
 30
0.0
 11
217.4382906933
 21
254.2570027591
 31
0.0
  0
LINE
  5
192
330
1F
100
AcDbEntity
  8
0
  6
SLD-実線
 62
     7
370
    25
100
AcDbLine
 10
369.3682950516
 20
317.3421732219
 30
0.0
 11
369.3682950516
 21
275.3421737881
 31
0.0
  0
LINE
  5
193
330
1F
100
AcDbEntity
  8
0
  6
SLD-実線
 62
     7
370
    25
100
AcDbLine
 10
369.3682950516
 20
275.3421737881
 30
0.0
 11
357.8682940979
 21
275.3421737881
 31
0.0
  0
LINE
  5
194
330
1F
100
AcDbEntity
  8
0
  6
SLD-実線
 62
     7
370
    25
100
AcDbLine
 10
369.3682950516
 20
317.3421732219
 30
0.0
 11
357.8682940979
 21
317.3421732219
 31
0.0
  0
LINE
  5
195
330
1F
100
AcDbEntity
  8
0
  6
SLD-実線
 62
     7
370
    25
100
AcDbLine
 10
347.8682924588
 20
308.3883271621
 30
0.0
 11
347.8682924588
 21
284.2960198479
 31
0.0
  0
LINE
  5
196
330
1F
100
AcDbEntity
  8
0
  6
SLD-実線
 62
     7
370
    25
100
AcDbLine
 10
357.8682940979
 20
308.3883271621
 30
0.0
 11
357.8682940979
 21
334.4190958025
 31
0.0
  0
LINE
  5
197
330
1F
100
AcDbEntity
  8
0
  6
SLD-実線
 62
     7
370
    25
100
AcDbLine
 10
347.8682924588
 20
308.3883271621
 30
0.0
 11
347.8682924588
 21
334.4190958025
 31
0.0
  0
LINE
  5
198
330
1F
100
AcDbEntity
  8
0
  6
SLD-実線
 62
     7
370
    25
100
AcDbLine
 10
357.8682940979
 20
258.2652512075
 30
0.0
 11
357.8682940979
 21
284.2960198479
 31
0.0
  0
LINE
  5
199
330
1F
100
AcDbEntity
  8
0
  6
SLD-実線
 62
     7
370
    25
100
AcDbLine
 10
347.8682924588
 20
258.2652512075
 30
0.0
 11
347.8682924588
 21
284.2960198479
 31
0.0
  0
LINE
  5
19A
330
1F
100
AcDbEntity
  8
0
  6
SLD-実線
 62
     7
370
    25
100
AcDbLine
 10
357.8682940979
 20
334.4190958025
 30
0.0
 11
357.8682940979
 21
341.3421752931
 31
0.0
  0
LINE
  5
19B
330
1F
100
AcDbEntity
  8
0
  6
SLD-実線
 62
     7
370
    25
100
AcDbLine
 10
347.8682924588
 20
334.4190958025
 30
0.0
 11
347.8682924588
 21
341.3421752931
 31
0.0
  0
LINE
  5
19C
330
1F
100
AcDbEntity
  8
0
  6
SLD-実線
 62
     7
370
    25
100
AcDbLine
 10
357.8682940979
 20
251.3421717169
 30
0.0
 11
357.8682940979
 21
258.2652512075
 31
0.0
  0
LINE
  5
19D
330
1F
100
AcDbEntity
  8
0
  6
SLD-実線
 62
     7
370
    25
100
AcDbLine
 10
347.8682924588
 20
251.3421717169
 30
0.0
 11
347.8682924588
 21
258.2652512075
 31
0.0
  0
LINE
  5
19E
330
1F
100
AcDbEntity
  8
0
  6
SLD-実線
 62
     7
370
    25
100
AcDbLine
 10
212.3682898063
 20
275.3421737881
 30
0.0
 11
212.3682898063
 21
317.3421732219
 31
0.0
  0
LINE
  5
19F
330
1F
100
AcDbEntity
  8
0
  6
SLD-実線
 62
     7
370
    25
100
AcDbLine
 10
212.3682898063
 20
317.3421732219
 30
0.0
 11
223.86829076
 21
317.3421732219
 31
0.0
  0
LINE
  5
1A0
330
1F
100
AcDbEntity
  8
0
  6
SLD-実線
 62
     7
370
    25
100
AcDbLine
 10
212.3682898063
 20
275.3421737881
 30
0.0
 11
223.86829076
 21
275.3421737881
 31
0.0
  0
LINE
  5
1A1
330
1F
100
AcDbEntity
  8
0
  6
SLD-実線
 62
     7
370
    25
100
AcDbLine
 10
233.8682923991
 20
284.2960198479
 30
0.0
 11
233.8682923991
 21
308.3883271621
 31
0.0
  0
LINE
  5
1A2
330
1F
100
AcDbEntity
  8
0
  6
SLD-実線
 62
     7
370
    25
100
AcDbLine
 10
223.86829076
 20
334.4190958025
 30
0.0
 11
223.86829076
 21
308.3883271621
 31
0.0
  0
LINE
  5
1A3
330
1F
100
AcDbEntity
  8
0
  6
SLD-実線
 62
     7
370
    25
100
AcDbLine
 10
233.8682923991
 20
334.4190958025
 30
0.0
 11
233.8682923991
 21
308.3883271621
 31
0.0
  0
LINE
  5
1A4
330
1F
100
AcDbEntity
  8
0
  6
SLD-実線
 62
     7
370
    25
100
AcDbLine
 10
223.86829076
 20
284.2960198479
 30
0.0
 11
223.86829076
 21
258.2652512075
 31
0.0
  0
LINE
  5
1A5
330
1F
100
AcDbEntity
  8
0
  6
SLD-実線
 62
     7
370
    25
100
AcDbLine
 10
233.8682923991
 20
284.2960198479
 30
0.0
 11
233.8682923991
 21
258.2652512075
 31
0.0
  0
LINE
  5
1A6
330
1F
100
AcDbEntity
  8
0
  6
SLD-実線
 62
     7
370
    25
100
AcDbLine
 10
223.86829076
 20
341.3421752931
 30
0.0
 11
223.86829076
 21
334.4190958025
 31
0.0
  0
LINE
  5
1A7
330
1F
100
AcDbEntity
  8
0
  6
SLD-実線
 62
     7
370
    25
100
AcDbLine
 10
233.8682923991
 20
341.3421752931
 30
0.0
 11
233.8682923991
 21
334.4190958025
 31
0.0
  0
LINE
  5
1A8
330
1F
100
AcDbEntity
  8
0
  6
SLD-実線
 62
     7
370
    25
100
AcDbLine
 10
223.86829076
 20
258.2652512075
 30
0.0
 11
223.86829076
 21
251.3421717169
 31
0.0
  0
LINE
  5
1A9
330
1F
100
AcDbEntity
  8
0
  6
SLD-実線
 62
     7
370
    25
100
AcDbLine
 10
233.8682923991
 20
258.2652512075
 30
0.0
 11
233.8682923991
 21
251.3421717169
 31
0.0
  0
LINE
  5
1AA
330
1F
100
AcDbEntity
  8
0
  6
SLD-実線
 62
     7
370
    25
100
AcDbLine
 10
347.8682924588
 20
303.4836020389
 30
0.0
 11
345.8682921309
 21
303.4836020389
 31
0.0
  0
LINE
  5
1AB
330
1F
100
AcDbEntity
  8
0
  6
SLD-実線
 62
     7
370
    25
100
AcDbLine
 10
347.8682924588
 20
289.2007449711
 30
0.0
 11
345.8682921309
 21
289.2007449711
 31
0.0
  0
LINE
  5
1AC
330
1F
100
AcDbEntity
  8
0
  6
SLD-実線
 62
     7
370
    25
100
AcDbLine
 10
235.868292727
 20
303.4836020389
 30
0.0
 11
233.8682923991
 21
303.4836020389
 31
0.0
  0
LINE
  5
1AD
330
1F
100
AcDbEntity
  8
0
  6
SLD-実線
 62
     7
370
    25
100
AcDbLine
 10
235.868292727
 20
289.2007449711
 30
0.0
 11
233.8682923991
 21
289.2007449711
 31
0.0
  0
ARC
  5
1AE
330
1F
100
AcDbEntity
  8
0
  6
SLD-実線
 62
     7
370
    25
100
AcDbCircle
 10
290.8682924289
 20
296.342173505
 30
0.0
 40
40.00000000000001
100
AcDbArc
 50
53.7669190484
 51
126.2330809516
  0
ARC
  5
1AF
330
1F
100
AcDbEntity
  8
0
  6
SLD-実線
 62
     7
370
    25
100
AcDbCircle
 10
335.8682924289
 20
331.342173505
 30
0.0
 40
10.0
100
AcDbArc
 50
0.0
 51
90.0
  0
ARC
  5
1B0
330
1F
100
AcDbEntity
  8
0
  6
SLD-実線
 62
     7
370
    25
100
AcDbCircle
 10
290.8682924289
 20
296.342173505
 30
0.0
 40
40.00000000000001
100
AcDbArc
 50
1.4325437376
 51
24.8118946766
  0
LINE
  5
1B1
330
1F
100
AcDbEntity
  8
0
  6
SLD-実線
 62
     7
370
    25
100
AcDbLine
 10
337.8682908196
 20
297.3421735525
 30
0.0
 11
330.8557894606
 21
297.3421735525
 31
0.0
  0
LINE
  5
1B2
330
1F
100
AcDbEntity
  8
0
  6
SLD-実線
 62
     7
370
    25
100
AcDbLine
 10
337.8682908196
 20
299.3421735311
 30
0.0
 11
337.8682908196
 21
297.3421735525
 31
0.0
  0
LINE
  5
1B3
330
1F
100
AcDbEntity
  8
0
  6
SLD-実線
 62
     7
370
    25
100
AcDbLine
 10
340.868293174
 20
296.342173505
 30
0.0
 11
337.8682908196
 21
299.3421735311
 31
0.0
  0
LINE
  5
1B4
330
1F
100
AcDbEntity
  8
0
  6
SLD-実線
 62
     7
370
    25
100
AcDbLine
 10
337.8682908196
 20
293.3421734789
 30
0.0
 11
340.868293174
 21
296.342173505
 31
0.0
  0
LINE
  5
1B5
330
1F
100
AcDbEntity
  8
0
  6
SLD-実線
 62
     7
370
    25
100
AcDbLine
 10
337.8682908196
 20
295.3421734575
 30
0.0
 11
337.8682908196
 21
293.3421734789
 31
0.0
  0
LINE
  5
1B6
330
1F
100
AcDbEntity
  8
0
  6
SLD-実線
 62
     7
370
    25
100
AcDbLine
 10
330.8557894606
 20
295.3421734575
 30
0.0
 11
337.8682908196
 21
295.3421734575
 31
0.0
  0
ARC
  5
1B7
330
1F
100
AcDbEntity
  8
0
  6
SLD-実線
 62
     7
370
    25
100
AcDbCircle
 10
290.8682924289
 20
296.342173505
 30
0.0
 40
40.00000000000001
100
AcDbArc
 50
335.1881053234
 51
358.5674562624
  0
ARC
  5
1B8
330
1F
100
AcDbEntity
  8
0
  6
SLD-実線
 62
     7
370
    25
100
AcDbCircle
 10
335.8682924289
 20
261.342173505
 30
0.0
 40
10.00000000000003
100
AcDbArc
 50
270.0
 51
0.0
  0
ARC
  5
1B9
330
1F
100
AcDbEntity
  8
0
  6
SLD-実線
 62
     7
370
    25
100
AcDbCircle
 10
290.8682924289
 20
296.342173505
 30
0.0
 40
39.99999999999997
100
AcDbArc
 50
233.7669190484
 51
306.2330809516
  0
ARC
  5
1BA
330
1F
100
AcDbEntity
  8
0
  6
SLD-実線
 62
     7
370
    25
100
AcDbCircle
 10
245.8682924289
 20
261.342173505
 30
0.0
 40
10.00000000000003
100
AcDbArc
 50
180.0
 51
270.0
  0
ARC
  5
1BB
330
1F
100
AcDbEntity
  8
0
  6
SLD-実線
 62
     7
370
    25
100
AcDbCircle
 10
290.8682924289
 20
296.342173505
 30
0.0
 40
40.00000000000004
100
AcDbArc
 50
155.1881053234
 51
204.8118946766
  0
CIRCLE
  5
1BC
330
1F
100
AcDbEntity
  8
0
  6
SLD-実線
 62
     7
370
    25
100
AcDbCircle
 10
290.8682924289
 20
296.342173505
 30
0.0
 40
32.49999999999994
  0
ARC
  5
1BD
330
1F
100
AcDbEntity
  8
0
  6
SLD-実線
 62
     7
370
    25
100
AcDbCircle
 10
245.8682924289
 20
331.342173505
 30
0.0
 40
10.0
100
AcDbArc
 50
90.0
 51
180.0
  0
LINE
  5
1BE
330
1F
100
AcDbEntity
  8
0
  6
SLD-実線
 62
     7
370
    25
100
AcDbLine
 10
330.0764363785
 20
251.3421717169
 30
0.0
 11
335.8682942171
 21
251.3421717169
 31
0.0
  0
LINE
  5
1BF
330
1F
100
AcDbEntity
  8
0
  6
SLD-実線
 62
     7
370
    25
100
AcDbLine
 10
245.8682906408
 20
251.3421717169
 30
0.0
 11
251.6601484794
 21
251.3421717169
 31
0.0
  0
LINE
  5
1C0
330
1F
100
AcDbEntity
  8
0
  6
SLD-実線
 62
     7
370
    25
100
AcDbLine
 10
314.5111509193
 20
264.077408153
 30
0.0
 11
330.0764363785
 21
251.3421717169
 31
0.0
  0
LINE
  5
1C1
330
1F
100
AcDbEntity
  8
0
  6
SLD-実線
 62
     7
370
    25
100
AcDbLine
 10
251.6601484794
 20
251.3421717169
 30
0.0
 11
267.2254339386
 21
264.077408153
 31
0.0
  0
LINE
  5
1C2
330
1F
100
AcDbEntity
  8
0
  6
SLD-実線
 62
     7
370
    25
100
AcDbLine
 10
345.8682921309
 20
264.2627823235
 30
0.0
 11
327.1759067256
 21
279.5565518619
 31
0.0
  0
LINE
  5
1C3
330
1F
100
AcDbEntity
  8
0
  6
SLD-実線
 62
     7
370
    25
100
AcDbLine
 10
254.5606781323
 20
279.5565518619
 30
0.0
 11
235.868292727
 21
264.2627823235
 31
0.0
  0
LINE
  5
1C4
330
1F
100
AcDbEntity
  8
0
  6
SLD-実線
 62
     7
370
    25
100
AcDbLine
 10
327.1759067256
 20
313.1277951481
 30
0.0
 11
345.8682921309
 21
328.4215646865
 31
0.0
  0
LINE
  5
1C5
330
1F
100
AcDbEntity
  8
0
  6
SLD-実線
 62
     7
370
    25
100
AcDbLine
 10
345.8682921309
 20
328.4215646865
 30
0.0
 11
345.8682921309
 21
331.342173654
 31
0.0
  0
LINE
  5
1C6
330
1F
100
AcDbEntity
  8
0
  6
SLD-実線
 62
     7
370
    25
100
AcDbLine
 10
345.8682921309
 20
261.342173356
 30
0.0
 11
345.8682921309
 21
264.2627823235
 31
0.0
  0
LINE
  5
1C7
330
1F
100
AcDbEntity
  8
0
  6
SLD-実線
 62
     7
370
    25
100
AcDbLine
 10
235.868292727
 20
328.4215646865
 30
0.0
 11
254.5606781323
 21
313.1277951481
 31
0.0
  0
LINE
  5
1C8
330
1F
100
AcDbEntity
  8
0
  6
SLD-実線
 62
     7
370
    25
100
AcDbLine
 10
235.868292727
 20
264.2627823235
 30
0.0
 11
235.868292727
 21
261.342173356
 31
0.0
  0
LINE
  5
1C9
330
1F
100
AcDbEntity
  8
0
  6
SLD-実線
 62
     7
370
    25
100
AcDbLine
 10
235.868292727
 20
331.342173654
 30
0.0
 11
235.868292727
 21
328.4215646865
 31
0.0
  0
LINE
  5
1CA
330
1F
100
AcDbEntity
  8
0
  6
SLD-実線
 62
     7
370
    25
100
AcDbLine
 10
330.0764363785
 20
341.3421752931
 30
0.0
 11
314.5111509193
 21
328.606938857
 31
0.0
  0
LINE
  5
1CB
330
1F
100
AcDbEntity
  8
0
  6
SLD-実線
 62
     7
370
    25
100
AcDbLine
 10
335.8682942171
 20
341.3421752931
 30
0.0
 11
330.0764363785
 21
341.3421752931
 31
0.0
  0
LINE
  5
1CC
330
1F
100
AcDbEntity
  8
0
  6
SLD-実線
 62
     7
370
    25
100
AcDbLine
 10
267.2254339386
 20
328.606938857
 30
0.0
 11
251.6601484794
 21
341.3421752931
 31
0.0
  0
LINE
  5
1CD
330
1F
100
AcDbEntity
  8
0
  6
SLD-実線
 62
     7
370
    25
100
AcDbLine
 10
251.6601484794
 20
341.3421752931
 30
0.0
 11
245.8682906408
 21
341.3421752931
 31
0.0
  0
CIRCLE
  5
1CE
330
1F
100
AcDbEntity
  8
0
  6
SLD-実線
 62
     7
370
    25
100
AcDbCircle
 10
290.8682924289
 20
296.342173505
 30
0.0
 40
31.8000906917926
  0
LINE
  5
1CF
330
1F
100
AcDbEntity
  8
0
  6
SLD-実線
 62
     7
370
    25
100
AcDbLine
 10
246.687720396
 20
309.7540856408
 30
0.0
 11
235.5073418994
 21
309.7540856408
 31
0.0
  0
LINE
  5
1D0
330
1F
100
AcDbEntity
  8
0
  6
SLD-実線
 62
     7
370
    25
100
AcDbLine
 10
235.5073418994
 20
309.7540856408
 30
0.0
 11
235.5073418994
 21
311.4952732878
 31
0.0
  0
LINE
  5
1D1
330
1F
100
AcDbEntity
  8
0
  6
SLD-実線
 62
     7
370
    25
100
AcDbLine
 10
235.5073418994
 20
311.4952732878
 30
0.0
 11
236.2723749656
 21
311.4952732878
 31
0.0
  0
LINE
  5
1D2
330
1F
100
AcDbEntity
  8
0
  6
SLD-実線
 62
     7
370
    25
100
AcDbLine
 10
236.2723749656
 20
318.612122822
 30
0.0
 11
237.7229881067
 21
318.612122822
 31
0.0
  0
LINE
  5
1D3
330
1F
100
AcDbEntity
  8
0
  6
SLD-実線
 62
     7
370
    25
100
AcDbLine
 10
237.7229881067
 20
311.4952732878
 30
0.0
 11
245.237107255
 21
311.4952732878
 31
0.0
  0
LINE
  5
1D4
330
1F
100
AcDbEntity
  8
0
  6
SLD-実線
 62
     7
370
    25
100
AcDbLine
 10
245.237107255
 20
311.4952732878
 30
0.0
 11
245.237107255
 21
318.612122822
 31
0.0
  0
LINE
  5
1D5
330
1F
100
AcDbEntity
  8
0
  6
SLD-実線
 62
     7
370
    25
100
AcDbLine
 10
245.237107255
 20
318.612122822
 30
0.0
 11
246.687720396
 21
318.612122822
 31
0.0
  0
LINE
  5
1D6
330
1F
100
AcDbEntity
  8
0
  6
SLD-実線
 62
     7
370
    25
100
AcDbLine
 10
237.7229881067
 20
318.612122822
 30
0.0
 11
237.7229881067
 21
311.4952732878
 31
0.0
  0
LINE
  5
1D7
330
1F
100
AcDbEntity
  8
0
  6
SLD-実線
 62
     7
370
    25
100
AcDbLine
 10
246.687720396
 20
318.612122822
 30
0.0
 11
246.687720396
 21
309.7540856408
 31
0.0
  0
LINE
  5
1D8
330
1F
100
AcDbEntity
  8
0
  6
SLD-実線
 62
     7
370
    25
100
AcDbLine
 10
236.2723749656
 20
311.4952732878
 30
0.0
 11
236.2723749656
 21
318.612122822
 31
0.0
  0
LINE
  5
1D9
330
1F
100
AcDbEntity
  8
0
  6
SLD-実線
 62
     7
370
    25
100
AcDbLine
 10
242.596949317
 20
296.6077784087
 30
0.0
 11
240.8557635326
 21
296.6077784087
 31
0.0
  0
LINE
  5
1DA
330
1F
100
AcDbEntity
  8
0
  6
SLD-実線
 62
     7
370
    25
100
AcDbLine
 10
240.8557635326
 20
296.6077784087
 30
0.0
 11
240.8557635326
 21
307.5112001108
 31
0.0
  0
LINE
  5
1DB
330
1F
100
AcDbEntity
  8
0
  6
SLD-実線
 62
     7
370
    25
100
AcDbLine
 10
242.596949317
 20
307.5112001108
 30
0.0
 11
242.596949317
 21
296.6077784087
 31
0.0
  0
LINE
  5
1DC
330
1F
100
AcDbEntity
  8
0
  6
SLD-実線
 62
     7
370
    25
100
AcDbLine
 10
240.8557635326
 20
307.5112001108
 30
0.0
 11
242.596949317
 21
307.5112001108
 31
0.0
  0
LINE
  5
1DD
330
1F
100
AcDbEntity
  8
0
  6
SLD-実線
 62
     7
370
    25
100
AcDbLine
 10
246.687720396
 20
286.5647356095
 30
0.0
 11
235.4483183999
 21
286.5647356095
 31
0.0
  0
LINE
  5
1DE
330
1F
100
AcDbEntity
  8
0
  6
SLD-実線
 62
     7
370
    25
100
AcDbLine
 10
235.4483183999
 20
286.5647356095
 30
0.0
 11
235.4483183999
 21
288.3059232564
 31
0.0
  0
LINE
  5
1DF
330
1F
100
AcDbEntity
  8
0
  6
SLD-実線
 62
     7
370
    25
100
AcDbLine
 10
235.4483183999
 20
288.3059232564
 30
0.0
 11
236.3336671669
 21
288.3059232564
 31
0.0
  0
LINE
  5
1E0
330
1F
100
AcDbEntity
  8
0
  6
SLD-実線
 62
     7
370
    25
100
AcDbLine
 10
236.3336671669
 20
294.7598947514
 30
0.0
 11
237.784280308
 21
294.7598947514
 31
0.0
  0
LINE
  5
1E1
330
1F
100
AcDbEntity
  8
0
  6
SLD-実線
 62
     7
370
    25
100
AcDbLine
 10
237.784280308
 20
288.3059232564
 30
0.0
 11
240.8444125731
 21
288.3059232564
 31
0.0
  0
LINE
  5
1E2
330
1F
100
AcDbEntity
  8
0
  6
SLD-実線
 62
     7
370
    25
100
AcDbLine
 10
240.8444125731
 20
288.3059232564
 30
0.0
 11
240.8444125731
 21
294.4602379877
 31
0.0
  0
LINE
  5
1E3
330
1F
100
AcDbEntity
  8
0
  6
SLD-実線
 62
     7
370
    25
100
AcDbLine
 10
240.8444125731
 20
294.4602379877
 30
0.0
 11
242.2950219888
 21
294.4602379877
 31
0.0
  0
LINE
  5
1E4
330
1F
100
AcDbEntity
  8
0
  6
SLD-実線
 62
     7
370
    25
100
AcDbLine
 10
242.2950219888
 20
294.4602379877
 30
0.0
 11
242.2950219888
 21
288.3059232564
 31
0.0
  0
LINE
  5
1E5
330
1F
100
AcDbEntity
  8
0
  6
SLD-実線
 62
     7
370
    25
100
AcDbLine
 10
242.2950219888
 20
288.3059232564
 30
0.0
 11
245.237107255
 21
288.3059232564
 31
0.0
  0
LINE
  5
1E6
330
1F
100
AcDbEntity
  8
0
  6
SLD-実線
 62
     7
370
    25
100
AcDbLine
 10
245.237107255
 20
288.3059232564
 30
0.0
 11
245.237107255
 21
294.7598947514
 31
0.0
  0
LINE
  5
1E7
330
1F
100
AcDbEntity
  8
0
  6
SLD-実線
 62
     7
370
    25
100
AcDbLine
 10
245.237107255
 20
294.7598947514
 30
0.0
 11
246.687720396
 21
294.7598947514
 31
0.0
  0
LINE
  5
1E8
330
1F
100
AcDbEntity
  8
0
  6
SLD-実線
 62
     7
370
    25
100
AcDbLine
 10
246.687720396
 20
294.7598947514
 30
0.0
 11
246.687720396
 21
286.5647356095
 31
0.0
  0
LINE
  5
1E9
330
1F
100
AcDbEntity
  8
0
  6
SLD-実線
 62
     7
370
    25
100
AcDbLine
 10
237.784280308
 20
294.7598947514
 30
0.0
 11
237.784280308
 21
288.3059232564
 31
0.0
  0
LINE
  5
1EA
330
1F
100
AcDbEntity
  8
0
  6
SLD-実線
 62
     7
370
    25
100
AcDbLine
 10
236.3336671669
 20
288.3059232564
 30
0.0
 11
236.3336671669
 21
294.7598947514
 31
0.0
  0
LINE
  5
1EB
330
1F
100
AcDbEntity
  8
0
  6
SLD-実線
 62
     7
370
    25
100
AcDbLine
 10
242.596949317
 20
273.6522517236
 30
0.0
 11
240.8557635326
 21
273.6522517236
 31
0.0
  0
LINE
  5
1EC
330
1F
100
AcDbEntity
  8
0
  6
SLD-実線
 62
     7
370
    25
100
AcDbLine
 10
240.8557635326
 20
273.6522517236
 30
0.0
 11
240.8557635326
 21
284.5556725817
 31
0.0
  0
LINE
  5
1ED
330
1F
100
AcDbEntity
  8
0
  6
SLD-実線
 62
     7
370
    25
100
AcDbLine
 10
240.8557635326
 20
284.5556725817
 30
0.0
 11
242.596949317
 21
284.5556725817
 31
0.0
  0
LINE
  5
1EE
330
1F
100
AcDbEntity
  8
0
  6
SLD-実線
 62
     7
370
    25
100
AcDbLine
 10
242.596949317
 20
284.5556725817
 30
0.0
 11
242.596949317
 21
273.6522517236
 31
0.0
  0
ARC
  5
1EF
330
1F
100
AcDbEntity
  8
0
  6
SLD-実線
 62
     7
370
    25
100
AcDbCircle
 10
290.8682924289
 20
296.342173505
 30
0.0
 40
55.00000000000001
100
AcDbArc
 50
54.9031987724
 51
125.0968012276
  0
LINE
  5
1F0
330
1F
100
AcDbEntity
  8
0
  6
SLD-実線
 62
     7
370
    25
100
AcDbLine
 10
330.0764363785
 20
341.3421752931
 30
0.0
 11
322.491067328
 21
341.3421752931
 31
0.0
  0
LINE
  5
1F1
330
1F
100
AcDbEntity
  8
0
  6
SLD-実線
 62
     7
370
    25
100
AcDbLine
 10
259.2455175299
 20
341.3421752931
 30
0.0
 11
251.6601484794
 21
341.3421752931
 31
0.0
  0
LINE
  5
1F2
330
1F
100
AcDbEntity
  8
0
  6
SLD-実線
 62
     7
370
    25
100
AcDbLine
 10
235.868292727
 20
328.4215646865
 30
0.0
 11
235.868292727
 21
311.4952732878
 31
0.0
  0
LINE
  5
1F3
330
1F
100
AcDbEntity
  8
0
  6
SLD-実線
 62
     7
370
    25
100
AcDbLine
 10
235.868292727
 20
309.7540856408
 30
0.0
 11
235.868292727
 21
288.3059232564
 31
0.0
  0
LINE
  5
1F4
330
1F
100
AcDbEntity
  8
0
  6
SLD-実線
 62
     7
370
    25
100
AcDbLine
 10
235.868292727
 20
286.5647356095
 30
0.0
 11
235.868292727
 21
264.2627823235
 31
0.0
  0
LINE
  5
1F5
330
1F
100
AcDbEntity
  8
0
  6
SLD-実線
 62
     7
370
    25
100
AcDbLine
 10
345.8682921309
 20
264.2627823235
 30
0.0
 11
345.8682921309
 21
328.4215646865
 31
0.0
  0
ARC
  5
1F6
330
1F
100
AcDbEntity
  8
0
  6
SLD-実線
 62
     7
370
    25
100
AcDbCircle
 10
290.8682924289
 20
296.342173505
 30
0.0
 40
54.99999999999999
100
AcDbArc
 50
234.9031987724
 51
305.0968012276
  0
LINE
  5
1F7
330
1F
100
AcDbEntity
  8
0
  6
SLD-実線
 62
     7
370
    25
100
AcDbLine
 10
322.491067328
 20
251.3421717169
 30
0.0
 11
330.0764363785
 21
251.3421717169
 31
0.0
  0
LINE
  5
1F8
330
1F
100
AcDbEntity
  8
0
  6
SLD-実線
 62
     7
370
    25
100
AcDbLine
 10
251.6601484794
 20
251.3421717169
 30
0.0
 11
259.2455175299
 21
251.3421717169
 31
0.0
  0
ARC
  5
1F9
330
1F
100
AcDbEntity
  8
0
  6
SLD-実線
 62
     7
370
    25
100
AcDbCircle
 10
290.8682924289
 20
296.342173505
 30
0.0
 40
56.00000000000004
100
AcDbArc
 50
55.2280559681
 51
124.7719440319
  0
LINE
  5
1FA
330
1F
100
AcDbEntity
  8
0
  6
SLD-実線
 62
     7
370
    25
100
AcDbLine
 10
322.8057314236
 20
342.3421735944
 30
0.0
 11
340.868293174
 21
342.3421735944
 31
0.0
  0
ARC
  5
1FB
330
1F
100
AcDbEntity
  8
0
  6
SLD-実線
 62
     7
370
    25
100
AcDbCircle
 10
340.8682924289
 20
337.342173505
 30
0.0
 40
5.0
100
AcDbArc
 50
0.0
 51
90.0
  0
LINE
  5
1FC
330
1F
100
AcDbEntity
  8
0
  6
SLD-実線
 62
     7
370
    25
100
AcDbLine
 10
345.8682921309
 20
337.3421746375
 30
0.0
 11
345.8682921309
 21
331.342173654
 31
0.0
  0
LINE
  5
1FD
330
1F
100
AcDbEntity
  8
0
  6
SLD-実線
 62
     7
370
    25
100
AcDbLine
 10
345.8682921309
 20
261.342173356
 30
0.0
 11
345.8682921309
 21
255.3421723725
 31
0.0
  0
ARC
  5
1FE
330
1F
100
AcDbEntity
  8
0
  6
SLD-実線
 62
     7
370
    25
100
AcDbCircle
 10
340.8682924289
 20
255.342173505
 30
0.0
 40
5.000000000000028
100
AcDbArc
 50
270.0
 51
0.0
  0
LINE
  5
1FF
330
1F
100
AcDbEntity
  8
0
  6
SLD-実線
 62
     7
370
    25
100
AcDbLine
 10
340.868293174
 20
250.3421734156
 30
0.0
 11
322.8057314236
 21
250.3421734156
 31
0.0
  0
ARC
  5
200
330
1F
100
AcDbEntity
  8
0
  6
SLD-実線
 62
     7
370
    25
100
AcDbCircle
 10
290.8682924289
 20
296.342173505
 30
0.0
 40
56.00000000000001
100
AcDbArc
 50
235.2280559681
 51
304.7719440319
  0
LINE
  5
201
330
1F
100
AcDbEntity
  8
0
  6
SLD-実線
 62
     7
370
    25
100
AcDbLine
 10
258.9308534343
 20
250.3421734156
 30
0.0
 11
240.8682916839
 21
250.3421734156
 31
0.0
  0
ARC
  5
202
330
1F
100
AcDbEntity
  8
0
  6
SLD-実線
 62
     7
370
    25
100
AcDbCircle
 10
240.8682924289
 20
255.342173505
 30
0.0
 40
5.0
100
AcDbArc
 50
180.0
 51
270.0
  0
LINE
  5
203
330
1F
100
AcDbEntity
  8
0
  6
SLD-実線
 62
     7
370
    25
100
AcDbLine
 10
235.868292727
 20
255.3421723725
 30
0.0
 11
235.868292727
 21
261.342173356
 31
0.0
  0
LINE
  5
204
330
1F
100
AcDbEntity
  8
0
  6
SLD-実線
 62
     7
370
    25
100
AcDbLine
 10
235.868292727
 20
331.342173654
 30
0.0
 11
235.868292727
 21
337.3421746375
 31
0.0
  0
ARC
  5
205
330
1F
100
AcDbEntity
  8
0
  6
SLD-実線
 62
     7
370
    25
100
AcDbCircle
 10
240.8682924289
 20
337.342173505
 30
0.0
 40
5.0
100
AcDbArc
 50
90.0
 51
180.0
  0
LINE
  5
206
330
1F
100
AcDbEntity
  8
0
  6
SLD-実線
 62
     7
370
    25
100
AcDbLine
 10
240.8682916839
 20
342.3421735944
 30
0.0
 11
258.9308534343
 21
342.3421735944
 31
0.0
  0
LINE
  5
207
330
1F
100
AcDbEntity
  8
0
  6
SLD-実線
 62
     7
370
    25
100
AcDbLine
 10
344.8682938297
 20
250.8421744289
 30
0.0
 11
344.8682938297
 21
252.3421737434
 31
0.0
  0
LINE
  5
208
330
1F
100
AcDbEntity
  8
0
  6
SLD-実線
 62
     7
370
    25
100
AcDbLine
 10
344.8682938297
 20
340.3421732666
 30
0.0
 11
344.8682938297
 21
341.8421725811
 31
0.0
  0
LINE
  5
209
330
1F
100
AcDbEntity
  8
0
  6
SLD-実線
 62
     7
370
    25
100
AcDbLine
 10
343.0477407355
 20
250.8421744289
 30
0.0
 11
344.8682938297
 21
250.8421744289
 31
0.0
  0
LINE
  5
20A
330
1F
100
AcDbEntity
  8
0
  6
SLD-実線
 62
     7
370
    25
100
AcDbLine
 10
236.8682910282
 20
250.8421744289
 30
0.0
 11
238.6888441224
 21
250.8421744289
 31
0.0
  0
LINE
  5
20B
330
1F
100
AcDbEntity
  8
0
  6
SLD-実線
 62
     7
370
    25
100
AcDbLine
 10
236.8682910282
 20
341.8421725811
 30
0.0
 11
236.8682910282
 21
340.3421732666
 31
0.0
  0
LINE
  5
20C
330
1F
100
AcDbEntity
  8
0
  6
SLD-実線
 62
     7
370
    25
100
AcDbLine
 10
236.8682910282
 20
252.3421737434
 30
0.0
 11
236.8682910282
 21
250.8421744289
 31
0.0
  0
LINE
  5
20D
330
1F
100
AcDbEntity
  8
0
  6
SLD-実線
 62
     7
370
    25
100
AcDbLine
 10
238.6888441224
 20
341.8421725811
 30
0.0
 11
236.8682910282
 21
341.8421725811
 31
0.0
  0
LINE
  5
20E
330
1F
100
AcDbEntity
  8
0
  6
SLD-実線
 62
     7
370
    25
100
AcDbLine
 10
344.8682938297
 20
341.8421725811
 30
0.0
 11
343.0477407355
 21
341.8421725811
 31
0.0
  0
INSERT
  5
21A
330
1F
100
AcDbEntity
  8
SLD-0
 62
     7
100
AcDbBlockReference
  2
SW_CENTERMARKSYMBOL_0
 10
290.8682924289
 20
296.342173505
 30
0.0
  0
CIRCLE
  5
21B
330
1F
100
AcDbEntity
  8
SLD-0
  6
SLD-1点鎖線(中心線)
 62
     7
 48
0.5
370
    18
100
AcDbCircle
 10
290.8682924289
 20
296.342173505
 30
0.0
 40
32.15004534589637
  0
ENDSEC
  0
SECTION
  2
OBJECTS
  0
DICTIONARY
  5
C
330
0
100
AcDbDictionary
281
     1
  3
ACAD_GROUP
350
D
  3
ACAD_LAYOUT
350
1A
  3
ACAD_MLINESTYLE
350
17
  3
ACAD_PLOTSETTINGS
350
19
  3
ACAD_PLOTSTYLENAME
350
E
  3
ACAD_SCALELIST
350
47
  0
DICTIONARY
  5
D
102
{ACAD_REACTORS
330
C
102
}
330
C
100
AcDbDictionary
281
     1
  0
DICTIONARY
  5
1A
102
{ACAD_REACTORS
330
C
102
}
330
C
100
AcDbDictionary
281
     1
  3
Layout1
350
1E
  3
Layout2
350
26
  3
Model
350
22
  0
DICTIONARY
  5
17
102
{ACAD_REACTORS
330
C
102
}
330
C
100
AcDbDictionary
281
     1
  3
Standard
350
18
  0
DICTIONARY
  5
19
102
{ACAD_REACTORS
330
C
102
}
330
C
100
AcDbDictionary
281
     1
  0
ACDBDICTIONARYWDFLT
  5
E
102
{ACAD_REACTORS
330
C
102
}
330
C
100
AcDbDictionary
281
     1
  3
Normal
350
F
100
AcDbDictionaryWithDefault
340
F
  0
DICTIONARY
  5
47
102
{ACAD_REACTORS
330
C
102
}
330
C
100
AcDbDictionary
281
     1
  3
A0
350
48
  3
A1
350
49
  3
A2
350
4A
  3
A3
350
4B
  3
A4
350
4C
  3
A5
350
4D
  3
A6
350
4E
  3
A7
350
4F
  3
A8
350
50
  3
A9
350
51
  3
B0
350
52
  3
B1
350
53
  3
B2
350
54
  3
B3
350
55
  3
B4
350
56
  3
B5
350
57
  3
B6
350
58
  3
B7
350
59
  3
B8
350
5A
  3
B9
350
5B
  3
C0
350
5C
  3
C1
350
5D
  3
C2
350
5E
  3
C3
350
5F
  3
C4
350
60
  3
C5
350
61
  3
C6
350
62
  3
C7
350
63
  3
C8
350
64
  3
C9
350
65
  3
D0
350
66
  3
D1
350
67
  3
D2
350
68
  0
LAYOUT
  5
1E
102
{ACAD_REACTORS
330
1A
102
}
330
1A
100
AcDbPlotSettings
  1

  2
none_device
  4

  6

 40
0.0
 41
0.0
 42
0.0
 43
0.0
 44
0.0
 45
0.0
 46
0.0
 47
0.0
 48
0.0
 49
0.0
140
0.0
141
0.0
142
1.0
143
1.0
 70
   688
 72
     1
 73
     0
 74
     5
  7

 75
    16
147
1.0
148
0.0
149
0.0
100
AcDbLayout
  1
Layout1
 70
     1
 71
     1
 10
0.0
 20
0.0
 11
420.0
 21
297.0
 12
0.0
 22
0.0
 32
0.0
 14
1.0000000000E+20
 24
1.0000000000E+20
 34
1.0000000000E+20
 15
-1.0000000000E+20
 25
-1.0000000000E+20
 35
-1.0000000000E+20
146
0.0
 13
0.0
 23
0.0
 33
0.0
 16
1.0
 26
0.0
 36
0.0
 17
0.0
 27
1.0
 37
0.0
 76
     0
330
1B
  0
LAYOUT
  5
26
102
{ACAD_REACTORS
330
1A
102
}
330
1A
100
AcDbPlotSettings
  1

  2
none_device
  4

  6

 40
0.0
 41
0.0
 42
0.0
 43
0.0
 44
0.0
 45
0.0
 46
0.0
 47
0.0
 48
0.0
 49
0.0
140
0.0
141
0.0
142
1.0
143
1.0
 70
   688
 72
     1
 73
     0
 74
     5
  7

 75
    16
147
1.0
148
0.0
149
0.0
100
AcDbLayout
  1
Layout2
 70
     1
 71
     2
 10
0.0
 20
0.0
 11
0.0
 21
0.0
 12
0.0
 22
0.0
 32
0.0
 14
0.0
 24
0.0
 34
0.0
 15
0.0
 25
0.0
 35
0.0
146
0.0
 13
0.0
 23
0.0
 33
0.0
 16
1.0
 26
0.0
 36
0.0
 17
0.0
 27
1.0
 37
0.0
 76
     0
330
23
  0
LAYOUT
  5
22
102
{ACAD_REACTORS
330
1A
102
}
330
1A
100
AcDbPlotSettings
  1

  2
none_device
  4
Letter_(8.50_x_11.00_Inches)
  6

 40
6.35
 41
6.35
 42
6.35000508
 43
6.35000508
 44
215.9
 45
279.4
 46
0.0
 47
0.0
 48
0.0
 49
0.0
140
0.0
141
0.0
142
1.0
143
1.0
 70
  1712
 72
     1
 73
     0
 74
     0
  7

 75
     0
147
1.0
148
0.0
149
0.0
100
AcDbLayout
  1
Model
 70
     1
 71
     0
 10
0.0
 20
0.0
 11
594.0
 21
420.0
 12
0.0
 22
0.0
 32
0.0
 14
0.0
 24
0.0
 34
0.0
 15
594.0
 25
420.0
 35
0.0
146
0.0
 13
0.0
 23
0.0
 33
0.0
 16
1.0
 26
0.0
 36
0.0
 17
0.0
 27
1.0
 37
0.0
 76
     0
330
1F
331
29
  0
MLINESTYLE
  5
18
102
{ACAD_REACTORS
330
17
102
}
330
17
100
AcDbMlineStyle
  2
Standard
 70
     0
  3

 62
   256
 51
90.0
 52
90.0
 71
     2
 49
0.5
 62
   256
  6
BYLAYER
 49
-0.5
 62
   256
  6
BYLAYER
  0
ACDBPLACEHOLDER
  5
F
102
{ACAD_REACTORS
330
E
102
}
330
E
  0
SCALE
  5
48
102
{ACAD_REACTORS
330
47
102
}
330
47
100
AcDbScale
 70
     0
300
1:1
140
1.0
141
1.0
290
     1
  0
SCALE
  5
49
102
{ACAD_REACTORS
330
47
102
}
330
47
100
AcDbScale
 70
     0
300
1:2
140
1.0
141
2.0
290
     0
  0
SCALE
  5
4A
102
{ACAD_REACTORS
330
47
102
}
330
47
100
AcDbScale
 70
     0
300
1:4
140
1.0
141
4.0
290
     0
  0
SCALE
  5
4B
102
{ACAD_REACTORS
330
47
102
}
330
47
100
AcDbScale
 70
     0
300
1:5
140
1.0
141
5.0
290
     0
  0
SCALE
  5
4C
102
{ACAD_REACTORS
330
47
102
}
330
47
100
AcDbScale
 70
     0
300
1:8
140
1.0
141
8.0
290
     0
  0
SCALE
  5
4D
102
{ACAD_REACTORS
330
47
102
}
330
47
100
AcDbScale
 70
     0
300
1:10
140
1.0
141
10.0
290
     0
  0
SCALE
  5
4E
102
{ACAD_REACTORS
330
47
102
}
330
47
100
AcDbScale
 70
     0
300
1:16
140
1.0
141
16.0
290
     0
  0
SCALE
  5
4F
102
{ACAD_REACTORS
330
47
102
}
330
47
100
AcDbScale
 70
     0
300
1:20
140
1.0
141
20.0
290
     0
  0
SCALE
  5
50
102
{ACAD_REACTORS
330
47
102
}
330
47
100
AcDbScale
 70
     0
300
1:30
140
1.0
141
30.0
290
     0
  0
SCALE
  5
51
102
{ACAD_REACTORS
330
47
102
}
330
47
100
AcDbScale
 70
     0
300
1:40
140
1.0
141
40.0
290
     0
  0
SCALE
  5
52
102
{ACAD_REACTORS
330
47
102
}
330
47
100
AcDbScale
 70
     0
300
1:50
140
1.0
141
50.0
290
     0
  0
SCALE
  5
53
102
{ACAD_REACTORS
330
47
102
}
330
47
100
AcDbScale
 70
     0
300
1:100
140
1.0
141
100.0
290
     0
  0
SCALE
  5
54
102
{ACAD_REACTORS
330
47
102
}
330
47
100
AcDbScale
 70
     0
300
2:1
140
2.0
141
1.0
290
     0
  0
SCALE
  5
55
102
{ACAD_REACTORS
330
47
102
}
330
47
100
AcDbScale
 70
     0
300
4:1
140
4.0
141
1.0
290
     0
  0
SCALE
  5
56
102
{ACAD_REACTORS
330
47
102
}
330
47
100
AcDbScale
 70
     0
300
8:1
140
8.0
141
1.0
290
     0
  0
SCALE
  5
57
102
{ACAD_REACTORS
330
47
102
}
330
47
100
AcDbScale
 70
     0
300
10:1
140
10.0
141
1.0
290
     0
  0
SCALE
  5
58
102
{ACAD_REACTORS
330
47
102
}
330
47
100
AcDbScale
 70
     0
300
100:1
140
100.0
141
1.0
290
     0
  0
SCALE
  5
59
102
{ACAD_REACTORS
330
47
102
}
330
47
100
AcDbScale
 70
     0
300
1/128" = 1'-0"
140
0.0078125
141
12.0
290
     0
  0
SCALE
  5
5A
102
{ACAD_REACTORS
330
47
102
}
330
47
100
AcDbScale
 70
     0
300
1/64" = 1'-0"
140
0.015625
141
12.0
290
     0
  0
SCALE
  5
5B
102
{ACAD_REACTORS
330
47
102
}
330
47
100
AcDbScale
 70
     0
300
1/32" = 1'-0"
140
0.03125
141
12.0
290
     0
  0
SCALE
  5
5C
102
{ACAD_REACTORS
330
47
102
}
330
47
100
AcDbScale
 70
     0
300
1/16" = 1'-0"
140
0.0625
141
12.0
290
     0
  0
SCALE
  5
5D
102
{ACAD_REACTORS
330
47
102
}
330
47
100
AcDbScale
 70
     0
300
3/32" = 1'-0"
140
0.09375
141
12.0
290
     0
  0
SCALE
  5
5E
102
{ACAD_REACTORS
330
47
102
}
330
47
100
AcDbScale
 70
     0
300
1/8" = 1'-0"
140
0.125
141
12.0
290
     0
  0
SCALE
  5
5F
102
{ACAD_REACTORS
330
47
102
}
330
47
100
AcDbScale
 70
     0
300
3/16" = 1'-0"
140
0.1875
141
12.0
290
     0
  0
SCALE
  5
60
102
{ACAD_REACTORS
330
47
102
}
330
47
100
AcDbScale
 70
     0
300
1/4" = 1'-0"
140
0.25
141
12.0
290
     0
  0
SCALE
  5
61
102
{ACAD_REACTORS
330
47
102
}
330
47
100
AcDbScale
 70
     0
300
3/8" = 1'-0"
140
0.375
141
12.0
290
     0
  0
SCALE
  5
62
102
{ACAD_REACTORS
330
47
102
}
330
47
100
AcDbScale
 70
     0
300
1/2" = 1'-0"
140
0.5
141
12.0
290
     0
  0
SCALE
  5
63
102
{ACAD_REACTORS
330
47
102
}
330
47
100
AcDbScale
 70
     0
300
3/4" = 1'-0"
140
0.75
141
12.0
290
     0
  0
SCALE
  5
64
102
{ACAD_REACTORS
330
47
102
}
330
47
100
AcDbScale
 70
     0
300
1" = 1'-0"
140
1.0
141
12.0
290
     0
  0
SCALE
  5
65
102
{ACAD_REACTORS
330
47
102
}
330
47
100
AcDbScale
 70
     0
300
1-1/2" = 1'-0"
140
1.5
141
12.0
290
     0
  0
SCALE
  5
66
102
{ACAD_REACTORS
330
47
102
}
330
47
100
AcDbScale
 70
     0
300
3" = 1'-0"
140
3.0
141
12.0
290
     0
  0
SCALE
  5
67
102
{ACAD_REACTORS
330
47
102
}
330
47
100
AcDbScale
 70
     0
300
6" = 1'-0"
140
6.0
141
12.0
290
     0
  0
SCALE
  5
68
102
{ACAD_REACTORS
330
47
102
}
330
47
100
AcDbScale
 70
     0
300
1'-0" = 1'-0"
140
12.0
141
12.0
290
     0
  0
ENDSEC
  0
EOF
