  0
SECTION
  2
HEADER
  9
$ACADVER
  1
AC1015
  9
$ACADMAINTVER
 70
     6
  9
$DWGCODEPAGE
  3
DOS932
  9
$INSBASE
 10
0.0
 20
0.0
 30
0.0
  9
$EXTMIN
 10
0.0
 20
0.0
 30
0.0
  9
$EXTMAX
 10
420.0
 20
297.0
 30
0.0
  9
$LIMMIN
 10
0.0
 20
0.0
  9
$LIMMAX
 10
420.0
 20
297.0
  9
$ORTHOMODE
 70
     0
  9
$REGENMODE
 70
     1
  9
$FILLMODE
 70
     1
  9
$QTEXTMODE
 70
     0
  9
$MIRRTEXT
 70
     1
  9
$LTSCALE
 40
1.0
  9
$ATTMODE
 70
     1
  9
$TEXTSIZE
 40
3.5
  9
$TRACEWID
 40
1.0
  9
$TEXTSTYLE
  7
Standard
  9
$CLAYER
  8
0
  9
$CELTYPE
  6
ByLayer
  9
$CECOLOR
 62
   256
  9
$CELTSCALE
 40
1.0
  9
$DISPSILH
 70
     0
  9
$DIMSCALE
 40
1.0
  9
$DIMASZ
 40
2.0
  9
$DIMEXO
 40
1.0
  9
$DIMDLI
 40
3.75
  9
$DIMRND
 40
0.0
  9
$DIMDLE
 40
0.0
  9
$DIMEXE
 40
1.0
  9
$DIMTP
 40
0.0
  9
$DIMTM
 40
0.0
  9
$DIMTXT
 40
2.7999999523
  9
$DIMCEN
 40
2.5
  9
$DIMTSZ
 40
0.0
  9
$DIMTOL
 70
     0
  9
$DIMLIM
 70
     0
  9
$DIMTIH
 70
     1
  9
$DIMTOH
 70
     1
  9
$DIMSE1
 70
     0
  9
$DIMSE2
 70
     0
  9
$DIMTAD
 70
     1
  9
$DIMZIN
 70
     1
  9
$DIMBLK
  1

  9
$DIMASO
 70
     1
  9
$DIMSHO
 70
     1
  9
$DIMPOST
  1

  9
$DIMAPOST
  1

  9
$DIMALT
 70
     0
  9
$DIMALTD
 70
     3
  9
$DIMALTF
 40
0.0393700787
  9
$DIMLFAC
 40
5.0
  9
$DIMTOFL
 70
     1
  9
$DIMTVP
 40
0.0
  9
$DIMTIX
 70
     0
  9
$DIMSOXD
 70
     0
  9
$DIMSAH
 70
     0
  9
$DIMBLK1
  1

  9
$DIMBLK2
  1

  9
$DIMSTYLE
  2
ISO-25
  9
$DIMCLRD
 70
     0
  9
$DIMCLRE
 70
     0
  9
$DIMCLRT
 70
     0
  9
$DIMTFAC
 40
1.0
  9
$DIMGAP
 40
1.524
  9
$DIMJUST
 70
     0
  9
$DIMSD1
 70
     0
  9
$DIMSD2
 70
     0
  9
$DIMTOLJ
 70
     0
  9
$DIMTZIN
 70
     1
  9
$DIMALTZ
 70
     0
  9
$DIMALTTZ
 70
     0
  9
$DIMUPT
 70
     0
  9
$DIMDEC
 70
     3
  9
$DIMTDEC
 70
     3
  9
$DIMALTU
 70
     2
  9
$DIMALTTD
 70
     3
  9
$DIMTXSTY
  7
Standard
  9
$DIMAUNIT
 70
     0
  9
$DIMADEC
 70
     0
  9
$DIMALTRND
 40
0.0
  9
$DIMAZIN
 70
     0
  9
$DIMDSEP
 70
    44
  9
$DIMATFIT
 70
     3
  9
$DIMFRAC
 70
     0
  9
$DIMLDRBLK
  1

  9
$DIMLUNIT
 70
     2
  9
$DIMLWD
 70
    -2
  9
$DIMLWE
 70
    -2
  9
$DIMTMOVE
 70
     0
  9
$LUNITS
 70
     2
  9
$LUPREC
 70
     3
  9
$SKETCHINC
 40
1.0
  9
$FILLETRAD
 40
10.0
  9
$AUNITS
 70
     0
  9
$AUPREC
 70
     0
  9
$MENU
  1
.
  9
$ELEVATION
 40
0.0
  9
$PELEVATION
 40
0.0
  9
$THICKNESS
 40
0.0
  9
$LIMCHECK
 70
     0
  9
$CHAMFERA
 40
10.0
  9
$CHAMFERB
 40
10.0
  9
$CHAMFERC
 40
20.0
  9
$CHAMFERD
 40
0.0
  9
$SKPOLY
 70
     0
  9
$TDCREATE
 40
2456338.596090313
  9
$TDUCREATE
 40
2456338.221090313
  9
$TDUPDATE
 40
2456338.596090324
  9
$TDUUPDATE
 40
2456338.221090324
  9
$TDINDWG
 40
0.0000000116
  9
$TDUSRTIMER
 40
0.0000000116
  9
$USRTIMER
 70
     1
  9
$ANGBASE
 50
0.0
  9
$ANGDIR
 70
     0
  9
$PDMODE
 70
     0
  9
$PDSIZE
 40
-1.0
  9
$PLINEWID
 40
0.0
  9
$SPLFRAME
 70
     0
  9
$SPLINETYPE
 70
     6
  9
$SPLINESEGS
 70
     8
  9
$HANDSEED
  5
215
  9
$SURFTAB1
 70
     6
  9
$SURFTAB2
 70
     6
  9
$SURFTYPE
 70
     6
  9
$SURFU
 70
     6
  9
$SURFV
 70
     6
  9
$UCSBASE
  2

  9
$UCSNAME
  2

  9
$UCSORG
 10
0.0
 20
0.0
 30
0.0
  9
$UCSXDIR
 10
1.0
 20
0.0
 30
0.0
  9
$UCSYDIR
 10
0.0
 20
1.0
 30
0.0
  9
$UCSORTHOREF
  2

  9
$UCSORTHOVIEW
 70
     0
  9
$UCSORGTOP
 10
0.0
 20
0.0
 30
0.0
  9
$UCSORGBOTTOM
 10
0.0
 20
0.0
 30
0.0
  9
$UCSORGLEFT
 10
0.0
 20
0.0
 30
0.0
  9
$UCSORGRIGHT
 10
0.0
 20
0.0
 30
0.0
  9
$UCSORGFRONT
 10
0.0
 20
0.0
 30
0.0
  9
$UCSORGBACK
 10
0.0
 20
0.0
 30
0.0
  9
$PUCSBASE
  2

  9
$PUCSNAME
  2

  9
$PUCSORG
 10
0.0
 20
0.0
 30
0.0
  9
$PUCSXDIR
 10
1.0
 20
0.0
 30
0.0
  9
$PUCSYDIR
 10
0.0
 20
1.0
 30
0.0
  9
$PUCSORTHOREF
  2

  9
$PUCSORTHOVIEW
 70
     0
  9
$PUCSORGTOP
 10
0.0
 20
0.0
 30
0.0
  9
$PUCSORGBOTTOM
 10
0.0
 20
0.0
 30
0.0
  9
$PUCSORGLEFT
 10
0.0
 20
0.0
 30
0.0
  9
$PUCSORGRIGHT
 10
0.0
 20
0.0
 30
0.0
  9
$PUCSORGFRONT
 10
0.0
 20
0.0
 30
0.0
  9
$PUCSORGBACK
 10
0.0
 20
0.0
 30
0.0
  9
$USERI1
 70
     0
  9
$USERI2
 70
     0
  9
$USERI3
 70
     0
  9
$USERI4
 70
     0
  9
$USERI5
 70
     0
  9
$USERR1
 40
0.0
  9
$USERR2
 40
0.0
  9
$USERR3
 40
0.0
  9
$USERR4
 40
0.0
  9
$USERR5
 40
0.0
  9
$WORLDVIEW
 70
     1
  9
$SHADEDGE
 70
     3
  9
$SHADEDIF
 70
    70
  9
$TILEMODE
 70
     1
  9
$MAXACTVP
 70
    64
  9
$PINSBASE
 10
0.0
 20
0.0
 30
0.0
  9
$PLIMCHECK
 70
     0
  9
$PEXTMIN
 10
1.0000000000E+20
 20
1.0000000000E+20
 30
1.0000000000E+20
  9
$PEXTMAX
 10
-1.0000000000E+20
 20
-1.0000000000E+20
 30
-1.0000000000E+20
  9
$PLIMMIN
 10
0.0
 20
0.0
  9
$PLIMMAX
 10
420.0
 20
297.0
  9
$UNITMODE
 70
     0
  9
$VISRETAIN
 70
     1
  9
$PLINEGEN
 70
     0
  9
$PSLTSCALE
 70
     1
  9
$TREEDEPTH
 70
  3020
  9
$CMLSTYLE
  2
Standard
  9
$CMLJUST
 70
     0
  9
$CMLSCALE
 40
20.0
  9
$PROXYGRAPHICS
 70
     1
  9
$MEASUREMENT
 70
     1
  9
$CELWEIGHT
370
    -1
  9
$ENDCAPS
280
     0
  9
$JOINSTYLE
280
     0
  9
$LWDISPLAY
290
     1
  9
$INSUNITS
 70
     4
  9
$HYPERLINKBASE
  1

  9
$STYLESHEET
  1

  9
$XEDIT
290
     1
  9
$CEPSNTYPE
380
     0
  9
$PSTYLEMODE
290
     1
  9
$FINGERPRINTGUID
  2
{000EEEA6-B743-483E-837F-7EAC9CE6EE10}
  9
$VERSIONGUID
  2
{FAEB1C32-E019-11D5-929B-00C0DF256EC4}
  9
$EXTNAMES
290
     1
  9
$PSVPSCALE
 40
0.0
  9
$OLESTARTUP
290
     0
  0
ENDSEC
  0
SECTION
  2
CLASSES
  0
CLASS
  1
ACDBDICTIONARYWDFLT
  2
AcDbDictionaryWithDefault
  3
ObjectDBX Classes
 90
        0
280
     0
281
     0
  0
CLASS
  1
VISUALSTYLE
  2
AcDbVisualStyle
  3
ObjectDBX Classes
 90
     4095
280
     0
281
     0
  0
CLASS
  1
MATERIAL
  2
AcDbMaterial
  3
ObjectDBX Classes
 90
     1153
280
     0
281
     0
  0
CLASS
  1
ACDBPLACEHOLDER
  2
AcDbPlaceHolder
  3
ObjectDBX Classes
 90
        0
280
     0
281
     0
  0
CLASS
  1
LAYOUT
  2
AcDbLayout
  3
ObjectDBX Classes
 90
        0
280
     0
281
     0
  0
ENDSEC
  0
SECTION
  2
TABLES
  0
TABLE
  2
VPORT
  5
8
330
0
100
AcDbSymbolTable
 70
     1
  0
VPORT
  5
29
330
8
100
AcDbSymbolTableRecord
100
AcDbViewportTableRecord
  2
*Active
 70
     0
 10
0.0
 20
0.0
 11
1.0
 21
1.0
 12
210.0
 22
148.5
 13
0.0
 23
0.0
 14
10.0
 24
10.0
 15
10.0
 25
10.0
 16
0.0
 26
0.0
 36
1.0
 17
0.0
 27
0.0
 37
0.0
 40
297.0
 41
1.4141414141
 42
50.0
 43
0.0
 44
0.0
 50
0.0
 51
0.0
 71
     0
 72
  2000
 73
     1
 74
     3
 75
     0
 76
     0
 77
     0
 78
     0
281
     0
 65
     1
110
0.0
120
0.0
130
0.0
111
1.0
121
0.0
131
0.0
112
0.0
122
1.0
132
0.0
 79
     0
146
0.0
  0
ENDTAB
  0
TABLE
  2
LTYPE
  5
5
330
0
100
AcDbSymbolTable
 70
     6
  0
LTYPE
  5
14
330
5
100
AcDbSymbolTableRecord
100
AcDbLinetypeTableRecord
  2
ByBlock
 70
     0
  3

 72
    65
 73
     0
 40
0.0
  0
LTYPE
  5
15
330
5
100
AcDbSymbolTableRecord
100
AcDbLinetypeTableRecord
  2
ByLayer
 70
     0
  3

 72
    65
 73
     0
 40
0.0
  0
LTYPE
  5
16
330
5
100
AcDbSymbolTableRecord
100
AcDbLinetypeTableRecord
  2
Continuous
 70
     0
  3
Solid line
 72
    65
 73
     0
 40
0.0
  0
LTYPE
  5
3F
330
5
100
AcDbSymbolTableRecord
100
AcDbLinetypeTableRecord
  2
HIDDEN
 70
     0
  3
Hidden __ __ __ __ __ __ __ __ __ __ __ __ __ __
 72
    65
 73
     2
 40
1.905
 49
1.27
 74
     0
 49
-0.635
 74
     0
  0
LTYPE
  5
40
330
5
100
AcDbSymbolTableRecord
100
AcDbLinetypeTableRecord
  2
PHANTOM
 70
     0
  3
Phantom ______  __  __  ______  __  __  ______
 72
    65
 73
     6
 40
12.7
 49
6.35
 74
     0
 49
-1.27
 74
     0
 49
1.27
 74
     0
 49
-1.27
 74
     0
 49
1.27
 74
     0
 49
-1.27
 74
     0
  0
LTYPE
  5
41
330
5
100
AcDbSymbolTableRecord
100
AcDbLinetypeTableRecord
  2
CENTER
 70
     0
  3
Center ____ _ ____ _ ____ _ ____ _ ____ _ ____
 72
    65
 73
     4
 40
10.16
 49
6.35
 74
     0
 49
-1.27
 74
     0
 49
1.27
 74
     0
 49
-1.27
 74
     0
  0
LTYPE
  5
42
330
5
100
AcDbSymbolTableRecord
100
AcDbLinetypeTableRecord
  2
CENTERX2
 70
     0
  3
Center (2x) ________  __  ________  __  _____
 72
    65
 73
     4
 40
20.32
 49
12.7
 74
     0
 49
-2.54
 74
     0
 49
2.54
 74
     0
 49
-2.54
 74
     0
  0
LTYPE
  5
43
330
5
100
AcDbSymbolTableRecord
100
AcDbLinetypeTableRecord
  2
DOT2
 70
     0
  3
Dot (.5x) ........................................
 72
    65
 73
     2
 40
0.635
 49
0.0
 74
     0
 49
-0.635
 74
     0
  0
ENDTAB
  0
TABLE
  2
LAYER
  5
2
330
0
100
AcDbSymbolTable
 70
     2
  0
LAYER
  5
10
330
2
100
AcDbSymbolTableRecord
100
AcDbLayerTableRecord
  2
0
 70
     0
 62
     7
  6
Continuous
370
    -3
390
F
  0
LAYER
  5
44
330
2
100
AcDbSymbolTableRecord
100
AcDbLayerTableRecord
  2
SLD-0
 70
     0
 62
     3
  6
Continuous
370
    -3
390
F
  0
ENDTAB
  0
TABLE
  2
STYLE
  5
3
330
0
100
AcDbSymbolTable
 70
     1
  0
STYLE
  5
11
330
3
100
AcDbSymbolTableRecord
100
AcDbTextStyleTableRecord
  2
Standard
 70
     0
 40
0.0
 41
1.0
 50
0.0
 71
     0
 42
2.5
  3
txt
  4
bigfont
  0
ENDTAB
  0
TABLE
  2
VIEW
  5
6
330
0
100
AcDbSymbolTable
 70
     0
  0
ENDTAB
  0
TABLE
  2
UCS
  5
7
330
0
100
AcDbSymbolTable
 70
     0
  0
ENDTAB
  0
TABLE
  2
APPID
  5
9
330
0
100
AcDbSymbolTable
 70
     1
  0
APPID
  5
12
330
9
100
AcDbSymbolTableRecord
100
AcDbRegAppTableRecord
  2
ACAD
 70
     0
  0
ENDTAB
  0
TABLE
  2
DIMSTYLE
  5
A
330
0
100
AcDbSymbolTable
 70
     1
100
AcDbDimStyleTable
  0
DIMSTYLE
105
27
330
A
100
AcDbSymbolTableRecord
100
AcDbDimStyleTableRecord
  2
ISO-25
 70
     0
 41
2.5
 42
0.625
 43
3.75
 44
1.25
 73
     0
 74
     0
 77
     1
 78
     8
140
2.5
141
2.5
143
0.0393700787
147
0.625
171
     3
172
     1
178
     0
271
     2
272
     2
274
     3
278
    44
283
     0
284
     8
340
11
  0
ENDTAB
  0
TABLE
  2
BLOCK_RECORD
  5
1
330
0
100
AcDbSymbolTable
 70
     1
  0
BLOCK_RECORD
  5
1F
330
1
100
AcDbSymbolTableRecord
100
AcDbBlockTableRecord
  2
*Model_Space
340
22
  0
BLOCK_RECORD
  5
1B
330
1
100
AcDbSymbolTableRecord
100
AcDbBlockTableRecord
  2
*Paper_Space
340
1E
  0
BLOCK_RECORD
  5
23
330
1
100
AcDbSymbolTableRecord
100
AcDbBlockTableRecord
  2
*Paper_Space0
340
26
  0
ENDTAB
  0
ENDSEC
  0
SECTION
  2
BLOCKS
  0
BLOCK
  5
20
330
1F
100
AcDbEntity
  8
0
100
AcDbBlockBegin
  2
*Model_Space
 70
     0
 10
0.0
 20
0.0
 30
0.0
  3
*Model_Space
  1

  0
ENDBLK
  5
21
330
1F
100
AcDbEntity
  8
0
100
AcDbBlockEnd
  0
BLOCK
  5
1C
330
1B
100
AcDbEntity
 67
     1
  8
0
100
AcDbBlockBegin
  2
*Paper_Space
 70
     0
 10
0.0
 20
0.0
 30
0.0
  3
*Paper_Space
  1

  0
ENDBLK
  5
1D
330
1B
100
AcDbEntity
 67
     1
  8
0
100
AcDbBlockEnd
  0
BLOCK
  5
24
330
23
100
AcDbEntity
  8
0
100
AcDbBlockBegin
  2
*Paper_Space0
 70
     0
 10
0.0
 20
0.0
 30
0.0
  3
*Paper_Space0
  1

  0
ENDBLK
  5
25
330
23
100
AcDbEntity
  8
0
100
AcDbBlockEnd
  0
ENDSEC
  0
SECTION
  2
ENTITIES
  0
LINE
  5
45
330
1F
100
AcDbEntity
  8
0
  6
Continuous
 62
     7
370
    15
100
AcDbLine
 10
50.1692069373
 20
519.2036279237
 30
0.0
 11
54.6353829703
 21
519.2036279237
 31
0.0
  0
ARC
  5
46
330
1F
100
AcDbEntity
  8
0
  6
Continuous
 62
     7
370
    15
100
AcDbCircle
 10
50.1692040695
 20
521.2036290589
 30
0.0
 40
2.000000000000007
100
AcDbArc
 50
180.0
 51
270.0
  0
ARC
  5
47
330
1F
100
AcDbEntity
  8
0
  6
Continuous
 62
     7
370
    15
100
AcDbCircle
 10
50.1692040695
 20
615.2036290589
 30
0.0
 40
2.000000000000007
100
AcDbArc
 50
90.0
 51
180.0
  0
LINE
  5
48
330
1F
100
AcDbEntity
  8
0
  6
Continuous
 62
     7
370
    15
100
AcDbLine
 10
54.6353829703
 20
617.2036253607
 30
0.0
 11
50.1692069373
 21
617.2036253607
 31
0.0
  0
SPLINE
  5
49
330
1F
100
AcDbEntity
  8
0
  6
Continuous
 62
     7
370
    15
100
AcDbSpline
210
0.0
220
0.0
230
1.0
 70
     8
 71
     3
 72
    17
 73
    13
 74
     0
 42
0.00000001
 43
0.00000001
 40
0.0
 40
0.0
 40
0.0
 40
0.0
 40
0.089684439163439
 40
0.2159989276146402
 40
0.3106248506959136
 40
0.3929652677145233
 40
0.5025511196677522
 40
0.6400957597494757
 40
0.719639605067444
 40
0.8061545881763481
 40
0.8996590345889854
 40
1.0
 40
1.0
 40
1.0
 40
1.0
 10
54.92911465976189
 20
692.2495462691511
 30
0.0
 10
54.87658582465313
 20
692.1160299670572
 30
0.0
 10
54.75007366537371
 20
691.7944649515389
 30
0.0
 10
54.67198562852788
 20
690.6546355404222
 30
0.0
 10
54.647387092011
 20
689.3116545314695
 30
0.0
 10
54.6613859536465
 20
687.8578053825624
 30
0.0
 10
54.66042784863651
 20
686.1404989281156
 30
0.0
 10
54.65404952031816
 20
684.5151480486651
 30
0.0
 10
54.64061023481076
 20
683.2458739959787
 30
0.0
 10
54.62551634027415
 20
682.3761633955021
 30
0.0
 10
54.6060843943649
 20
681.6910658246416
 30
0.0
 10
54.59120118264277
 20
681.5341007647957
 30
0.0
 10
54.58349712703181
 20
681.452850321504
 30
0.0
  0
SPLINE
  5
4A
330
1F
100
AcDbEntity
  8
0
  6
Continuous
 62
     7
370
    15
100
AcDbSpline
210
0.0
220
0.0
230
1.0
 70
     8
 71
     3
 72
    11
 73
     7
 74
     0
 42
0.00000001
 43
0.00000001
 40
0.0
 40
0.0
 40
0.0
 40
0.0
 40
0.1542485296041593
 40
0.4495309280632584
 40
0.7318190959908499
 40
0.9999999999999999
 40
0.9999999999999999
 40
0.9999999999999999
 40
0.9999999999999999
 10
54.36994858596278
 20
515.6366326606001
 30
0.0
 10
54.35996179655695
 20
515.6141736813378
 30
0.0
 10
54.33085700883883
 20
515.548720831855
 30
0.0
 10
54.28895736023526
 20
515.4361580691308
 30
0.0
 10
54.24580703239457
 20
515.3081790883548
 30
0.0
 10
54.22459531069235
 20
515.2335037172263
 30
0.0
 10
54.21426125380946
 20
515.1971229111875
 30
0.0
  0
LINE
  5
4B
330
1F
100
AcDbEntity
  8
0
  6
Continuous
 62
     7
370
    15
100
AcDbLine
 10
125.0878793797
 20
497.4650987184
 30
0.0
 11
125.1096350751
 21
497.4871114588
 31
0.0
  0
SPLINE
  5
4C
330
1F
100
AcDbEntity
  8
0
  6
Continuous
 62
     7
370
    15
100
AcDbSpline
210
0.0
220
0.0
230
1.0
 70
     8
 71
     3
 72
    15
 73
    11
 74
     0
 42
0.00000001
 43
0.00000001
 40
0.0
 40
0.0
 40
0.0
 40
0.0
 40
0.1080836180624617
 40
0.2218049074068915
 40
0.3409330403917036
 40
0.4648079840558553
 40
0.592928935277703
 40
0.7251036299206868
 40
0.8608923760768027
 40
0.9999999999999999
 40
0.9999999999999999
 40
0.9999999999999999
 40
0.9999999999999999
 10
54.21427615497065
 20
621.2036334669317
 30
0.0
 10
54.22013748345114
 20
621.1564072371165
 30
0.0
 10
54.23216586891982
 20
621.0594914443337
 30
0.0
 10
54.25431596352692
 20
620.9067034608158
 30
0.0
 10
54.27974569563634
 20
620.7532535833869
 30
0.0
 10
54.30867554059668
 20
620.6062939756174
 30
0.0
 10
54.3408011939176
 20
620.4749386092922
 30
0.0
 10
54.37586957635887
 20
620.3703355537016
 30
0.0
 10
54.41331769185129
 20
620.2940109574865
 30
0.0
 10
54.43946383084461
 20
620.2735518761597
 30
0.0
 10
54.45269473407222
 20
620.2631988322462
 30
0.0
  0
SPLINE
  5
4D
330
1F
100
AcDbEntity
  8
0
  6
Continuous
 62
     7
370
    15
100
AcDbSpline
210
0.0
220
0.0
230
1.0
 70
     8
 71
     3
 72
    15
 73
    11
 74
     0
 42
0.00000001
 43
0.00000001
 40
0.0
 40
0.0
 40
0.0
 40
0.0
 40
0.1080892248418448
 40
0.2218052399867835
 40
0.3409283015935456
 40
0.46480831389331
 40
0.5929336668132706
 40
0.7251020575536669
 40
0.8608932866347652
 40
1.0
 40
1.0
 40
1.0
 40
1.0
 10
54.21427615497065
 20
693.7036313807691
 30
0.0
 10
54.22013731058107
 20
693.6564026607083
 30
0.0
 10
54.23216473541148
 20
693.5594866396829
 30
0.0
 10
54.25431600020519
 20
693.4067011734161
 30
0.0
 10
54.27974701119376
 20
693.2532550365906
 30
0.0
 10
54.30867550492269
 20
693.1062935574353
 30
0.0
 10
54.34079934774439
 20
692.9749271893783
 30
0.0
 10
54.37587132902058
 20
692.870345570722
 30
0.0
 10
54.41331688553394
 20
692.7940042714146
 30
0.0
 10
54.43946366767558
 20
692.7735531072617
 30
0.0
 10
54.45269473407222
 20
692.7632041966642
 30
0.0
  0
LINE
  5
4E
330
1F
100
AcDbEntity
  8
0
  6
Continuous
 62
     7
370
    15
100
AcDbLine
 10
242.750536432
 20
749.9421634471
 30
0.0
 11
242.7287732861
 21
749.9201395309
 31
0.0
  0
LINE
  5
4F
330
1F
100
AcDbEntity
  8
0
  6
Continuous
 62
     7
370
    15
100
AcDbLine
 10
250.0878719291
 20
497.4650987184
 30
0.0
 11
250.1096350751
 21
497.4871114588
 31
0.0
  0
LINE
  5
50
330
1F
100
AcDbEntity
  8
0
  6
Continuous
 62
     7
370
    15
100
AcDbLine
 10
354.2505351505
 20
749.9421634471
 30
0.0
 11
354.2287720046
 21
749.9201395309
 31
0.0
  0
LINE
  5
51
330
1F
100
AcDbEntity
  8
0
  6
Continuous
 62
     7
370
    15
100
AcDbLine
 10
347.1570869586
 20
492.4036287462
 30
0.0
 11
347.1570869586
 21
494.4036290741
 31
0.0
  0
LINE
  5
52
330
1F
100
AcDbEntity
  8
0
  6
Continuous
 62
     7
370
    15
100
AcDbLine
 10
327.1570874057
 20
494.4036290741
 30
0.0
 11
327.1570874057
 21
492.4036287462
 31
0.0
  0
LINE
  5
53
330
1F
100
AcDbEntity
  8
0
  6
Continuous
 62
     7
370
    15
100
AcDbLine
 10
342.1692026458
 20
494.4036290741
 30
0.0
 11
342.1692026458
 21
494.8036283946
 31
0.0
  0
LINE
  5
54
330
1F
100
AcDbEntity
  8
0
  6
Continuous
 62
     7
370
    15
100
AcDbLine
 10
332.1692047319
 20
494.8036283946
 30
0.0
 11
332.1692047319
 21
494.4036290741
 31
0.0
  0
LINE
  5
55
330
1F
100
AcDbEntity
  8
0
  6
Continuous
 62
     7
370
    15
100
AcDbLine
 10
46.2561173043
 20
523.2520983314
 30
0.0
 11
48.1692028842
 21
523.2520983314
 31
0.0
  0
LINE
  5
56
330
1F
100
AcDbEntity
  8
0
  6
Continuous
 62
     7
370
    15
100
AcDbLine
 10
48.1692028842
 20
543.2520978844
 30
0.0
 11
46.2561173043
 21
543.2520978844
 31
0.0
  0
LINE
  5
57
330
1F
100
AcDbEntity
  8
0
  6
Continuous
 62
     7
370
    15
100
AcDbLine
 10
46.2561173043
 20
593.2520986294
 30
0.0
 11
48.1692028842
 21
593.2520986294
 31
0.0
  0
LINE
  5
58
330
1F
100
AcDbEntity
  8
0
  6
Continuous
 62
     7
370
    15
100
AcDbLine
 10
48.1692028842
 20
613.2520981824
 30
0.0
 11
46.2561173043
 21
613.2520981824
 31
0.0
  0
LINE
  5
59
330
1F
100
AcDbEntity
  8
0
  6
Continuous
 62
     7
370
    15
100
AcDbLine
 10
277.1570866606
 20
492.4036287462
 30
0.0
 11
277.1570866606
 21
494.4036290741
 31
0.0
  0
LINE
  5
5A
330
1F
100
AcDbEntity
  8
0
  6
Continuous
 62
     7
370
    15
100
AcDbLine
 10
257.1570871076
 20
494.4036290741
 30
0.0
 11
257.1570871076
 21
492.4036287462
 31
0.0
  0
LINE
  5
5B
330
1F
100
AcDbEntity
  8
0
  6
Continuous
 62
     7
370
    15
100
AcDbLine
 10
272.1692042104
 20
494.4036290741
 30
0.0
 11
272.1692042104
 21
494.8036283946
 31
0.0
  0
LINE
  5
5C
330
1F
100
AcDbEntity
  8
0
  6
Continuous
 62
     7
370
    15
100
AcDbLine
 10
262.1692044339
 20
494.8036283946
 30
0.0
 11
262.1692044339
 21
494.4036290741
 31
0.0
  0
LINE
  5
5D
330
1F
100
AcDbEntity
  8
0
  6
Continuous
 62
     7
370
    15
100
AcDbLine
 10
152.1570903859
 20
492.8036280668
 30
0.0
 11
152.1570903859
 21
494.8036283946
 31
0.0
  0
LINE
  5
5E
330
1F
100
AcDbEntity
  8
0
  6
Continuous
 62
     7
370
    15
100
AcDbLine
 10
132.1570796571
 20
494.8036283946
 30
0.0
 11
132.1570796571
 21
492.8036280668
 31
0.0
  0
LINE
  5
5F
330
1F
100
AcDbEntity
  8
0
  6
Continuous
 62
     7
370
    15
100
AcDbLine
 10
222.1570832333
 20
492.8036280668
 30
0.0
 11
222.1570832333
 21
494.8036283946
 31
0.0
  0
LINE
  5
60
330
1F
100
AcDbEntity
  8
0
  6
Continuous
 62
     7
370
    15
100
AcDbLine
 10
202.1570874057
 20
494.8036283946
 30
0.0
 11
202.1570874057
 21
492.8036280668
 31
0.0
  0
ARC
  5
61
330
1F
100
AcDbEntity
  8
0
  6
Continuous
 62
     7
370
    15
100
AcDbCircle
 10
322.6692040695
 20
484.2036290589
 30
0.0
 40
1.0
100
AcDbArc
 50
270.0
 51
360.0
  0
ARC
  5
62
330
1F
100
AcDbEntity
  8
0
  6
Continuous
 62
     7
370
    15
100
AcDbCircle
 10
281.6692040695
 20
484.2036290589
 30
0.0
 40
1.0
100
AcDbArc
 50
180.0
 51
270.0
  0
LINE
  5
63
330
1F
100
AcDbEntity
  8
0
  6
Continuous
 62
     7
370
    15
100
AcDbLine
 10
280.6692042067
 20
493.8036300933
 30
0.0
 11
280.6692042067
 21
484.2036315
 31
0.0
  0
LINE
  5
64
330
1F
100
AcDbEntity
  8
0
  6
Continuous
 62
     7
370
    15
100
AcDbLine
 10
323.6692024073
 20
484.2036315
 30
0.0
 11
323.6692024073
 21
493.8036300933
 31
0.0
  0
ARC
  5
65
330
1F
100
AcDbEntity
  8
0
  6
Continuous
 62
     7
370
    15
100
AcDbCircle
 10
279.6692040695
 20
493.8036290589
 30
0.0
 40
1.0
100
AcDbArc
 50
360.0
 51
90.0
  0
ARC
  5
66
330
1F
100
AcDbEntity
  8
0
  6
Continuous
 62
     7
370
    15
100
AcDbCircle
 10
324.6692040695
 20
493.8036290589
 30
0.0
 40
1.0
100
AcDbArc
 50
90.0
 51
180.0
  0
LINE
  5
67
330
1F
100
AcDbEntity
  8
0
  6
Continuous
 62
     7
370
    15
100
AcDbLine
 10
253.1692048213
 20
497.6698145961
 30
0.0
 11
253.1692048213
 21
496.8036287224
 31
0.0
  0
LINE
  5
68
330
1F
100
AcDbEntity
  8
0
  6
Continuous
 62
     7
370
    15
100
AcDbLine
 10
351.1692059836
 20
496.8036287224
 30
0.0
 11
351.1692059836
 21
497.6698145961
 31
0.0
  0
ARC
  5
69
330
1F
100
AcDbEntity
  8
0
  6
Continuous
 62
     7
370
    15
100
AcDbCircle
 10
349.1692040695
 20
496.8036290589
 30
0.0
 40
2.0
100
AcDbArc
 50
270.0
 51
360.0
  0
ARC
  5
6A
330
1F
100
AcDbEntity
  8
0
  6
Continuous
 62
     7
370
    15
100
AcDbCircle
 10
255.1692040695
 20
496.8036290589
 30
0.0
 40
2.0
100
AcDbArc
 50
180.0
 51
270.0
  0
LINE
  5
6B
330
1F
100
AcDbEntity
  8
0
  6
Continuous
 62
     7
370
    15
100
AcDbLine
 10
155.6692046723
 20
493.8036300933
 30
0.0
 11
155.6692046723
 21
484.2036315
 31
0.0
  0
LINE
  5
6C
330
1F
100
AcDbEntity
  8
0
  6
Continuous
 62
     7
370
    15
100
AcDbLine
 10
198.6692024073
 20
484.2036315
 30
0.0
 11
198.6692024073
 21
493.8036300933
 31
0.0
  0
ARC
  5
6D
330
1F
100
AcDbEntity
  8
0
  6
Continuous
 62
     7
370
    15
100
AcDbCircle
 10
197.6692040695
 20
484.2036290589
 30
0.0
 40
1.0
100
AcDbArc
 50
270.0
 51
0.0
  0
ARC
  5
6E
330
1F
100
AcDbEntity
  8
0
  6
Continuous
 62
     7
370
    15
100
AcDbCircle
 10
156.6692040695
 20
484.2036290589
 30
0.0
 40
1.0
100
AcDbArc
 50
180.0
 51
270.0
  0
ARC
  5
6F
330
1F
100
AcDbEntity
  8
0
  6
Continuous
 62
     7
370
    15
100
AcDbCircle
 10
199.6692040695
 20
493.8036290589
 30
0.0
 40
1.0
100
AcDbArc
 50
90.0
 51
180.0
  0
ARC
  5
70
330
1F
100
AcDbEntity
  8
0
  6
Continuous
 62
     7
370
    15
100
AcDbCircle
 10
154.6692040695
 20
493.8036290589
 30
0.0
 40
1.0
100
AcDbArc
 50
0.0
 51
90.0
  0
LINE
  5
71
330
1F
100
AcDbEntity
  8
0
  6
Continuous
 62
     7
370
    15
100
AcDbLine
 10
128.169201096
 20
497.6698145961
 30
0.0
 11
128.169201096
 21
496.8036287224
 31
0.0
  0
LINE
  5
72
330
1F
100
AcDbEntity
  8
0
  6
Continuous
 62
     7
370
    15
100
AcDbLine
 10
226.1692022583
 20
496.8036287224
 30
0.0
 11
226.1692022583
 21
497.6698145961
 31
0.0
  0
ARC
  5
73
330
1F
100
AcDbEntity
  8
0
  6
Continuous
 62
     7
370
    15
100
AcDbCircle
 10
224.1692040695
 20
496.8036290589
 30
0.0
 40
2.0
100
AcDbArc
 50
270.0
 51
0.0
  0
ARC
  5
74
330
1F
100
AcDbEntity
  8
0
  6
Continuous
 62
     7
370
    15
100
AcDbCircle
 10
130.1692040695
 20
496.8036290589
 30
0.0
 40
2.0
100
AcDbArc
 50
180.0
 51
270.0
  0
LINE
  5
75
330
1F
100
AcDbEntity
  8
0
  6
Continuous
 62
     7
370
    15
100
AcDbLine
 10
298.3245558715
 20
749.4131722247
 30
0.0
 11
298.3245558715
 21
750.2036341226
 31
0.0
  0
LINE
  5
76
330
1F
100
AcDbEntity
  8
0
  6
Continuous
 62
     7
370
    15
100
AcDbLine
 10
287.6904468429
 20
749.4359710014
 30
0.0
 11
287.6904468429
 21
750.2036341226
 31
0.0
  0
LINE
  5
77
330
1F
100
AcDbEntity
  8
0
  6
Continuous
 62
     7
370
    15
100
AcDbLine
 10
298.3245558715
 20
750.2036341226
 30
0.0
 11
287.6904468429
 21
750.2036341226
 31
0.0
  0
LINE
  5
78
330
1F
100
AcDbEntity
  8
0
  6
Continuous
 62
     7
370
    15
100
AcDbLine
 10
312.8033129177
 20
749.4241543805
 30
0.0
 11
312.8033129177
 21
750.2036341226
 31
0.0
  0
LINE
  5
79
330
1F
100
AcDbEntity
  8
0
  6
Continuous
 62
     7
370
    15
100
AcDbLine
 10
312.8033129177
 20
750.2036341226
 30
0.0
 11
298.3245558715
 21
750.2036341226
 31
0.0
  0
LINE
  5
7A
330
1F
100
AcDbEntity
  8
0
  6
Continuous
 62
     7
370
    15
100
AcDbLine
 10
316.6479615173
 20
749.4359710014
 30
0.0
 11
316.6479615173
 21
750.2036341226
 31
0.0
  0
LINE
  5
7B
330
1F
100
AcDbEntity
  8
0
  6
Continuous
 62
     7
370
    15
100
AcDbLine
 10
316.6479615173
 20
750.2036341226
 30
0.0
 11
312.8033129177
 21
750.2036341226
 31
0.0
  0
LINE
  5
7C
330
1F
100
AcDbEntity
  8
0
  6
Continuous
 62
     7
370
    15
100
AcDbLine
 10
48.1692028842
 20
525.2162744051
 30
0.0
 11
48.1692028842
 21
568.2036285048
 31
0.0
  0
LINE
  5
7D
330
1F
100
AcDbEntity
  8
0
  6
Continuous
 62
     7
370
    15
100
AcDbLine
 10
48.1692028842
 20
568.2036285048
 30
0.0
 11
48.1692028842
 21
611.1909844672
 31
0.0
  0
SPLINE
  5
7E
330
1F
100
AcDbEntity
  8
0
  6
Continuous
 62
     7
370
    15
100
AcDbSpline
210
0.0
220
0.0
230
1.0
 70
     8
 71
     3
 72
    10
 73
     6
 74
     0
 42
0.00000001
 43
0.00000001
 40
0.0
 40
0.0
 40
0.0
 40
0.0
 40
0.0037743376688151
 40
0.6356604539975395
 40
1.0
 40
1.0
 40
1.0
 40
1.0
 10
46.16919883105708
 20
568.7905852442707
 30
0.0
 10
46.17138933910645
 20
568.7929561538149
 30
0.0
 10
46.54030687200578
 20
569.1922562613922
 30
0.0
 10
47.11567538954841
 20
569.8522456715907
 30
0.0
 10
47.88708356586202
 20
570.2229790744896
 30
0.0
 10
48.16920288417293
 20
570.3585636561836
 30
0.0
  0
LINE
  5
7F
330
1F
100
AcDbEntity
  8
0
  6
Continuous
 62
     7
370
    15
100
AcDbLine
 10
46.1691988311
 20
568.7905852443
 30
0.0
 11
46.1691988311
 21
567.6166726967
 31
0.0
  0
SPLINE
  5
80
330
1F
100
AcDbEntity
  8
0
  6
Continuous
 62
     7
370
    15
100
AcDbSpline
210
0.0
220
0.0
230
1.0
 70
     8
 71
     3
 72
    10
 73
     6
 74
     0
 42
0.00000001
 43
0.00000001
 40
0.0
 40
0.0
 40
0.0
 40
0.0
 40
0.3643395398760239
 40
0.9962253960466586
 40
0.9999999999999999
 40
0.9999999999999999
 40
0.9999999999999999
 40
0.9999999999999999
 10
48.16920288417293
 20
566.048694284829
 30
0.0
 10
47.887085202717
 20
566.1842803851039
 30
0.0
 10
47.11568169532973
 20
566.5550178474462
 30
0.0
 10
46.54028075763425
 20
567.214977174285
 30
0.0
 10
46.17138933856241
 20
567.6143014762815
 30
0.0
 10
46.16919883105708
 20
567.616672696742
 30
0.0
  0
SPLINE
  5
81
330
1F
100
AcDbEntity
  8
0
  6
Continuous
 62
     7
370
    15
100
AcDbSpline
210
0.0
220
0.0
230
1.0
 70
     8
 71
     3
 72
    10
 73
     6
 74
     0
 42
0.00000001
 43
0.00000001
 40
0.0
 40
0.0
 40
0.0
 40
0.0
 40
0.0037748553692259
 40
0.6356609535093569
 40
0.9999999999999999
 40
0.9999999999999999
 40
0.9999999999999999
 40
0.9999999999999999
 10
46.16919883105705
 20
554.7163949573512
 30
0.0
 10
46.17138933806181
 20
554.7164985418553
 30
0.0
 10
46.54025638994192
 20
554.7339414948108
 30
0.0
 10
47.11568619167913
 20
554.7959047574994
 30
0.0
 10
47.88708663437746
 20
554.8572907340101
 30
0.0
 10
48.16920288417293
 20
554.8797407878662
 30
0.0
  0
LINE
  5
82
330
1F
100
AcDbEntity
  8
0
  6
Continuous
 62
     7
370
    15
100
AcDbLine
 10
46.1691988311
 20
567.6166726967
 30
0.0
 11
46.1691988311
 21
554.7163949574
 31
0.0
  0
SPLINE
  5
83
330
1F
100
AcDbEntity
  8
0
  6
Continuous
 62
     7
370
    15
100
AcDbSpline
210
0.0
220
0.0
230
1.0
 70
     8
 71
     3
 72
    10
 73
     6
 74
     0
 42
0.00000001
 43
0.00000001
 40
0.0
 40
0.0
 40
0.0
 40
0.0
 40
0.3643390388724996
 40
0.9962251505366296
 40
1.0
 40
1.0
 40
1.0
 40
1.0
 10
48.1692028841729
 20
581.5275166874851
 30
0.0
 10
47.88708659627475
 20
581.5499650541296
 30
0.0
 10
47.11568602868843
 20
581.6113464188846
 30
0.0
 10
46.54025697354933
 20
581.6733430391644
 30
0.0
 10
46.17138933807411
 20
581.6907597877649
 30
0.0
 10
46.16919883105705
 20
581.6908632164921
 30
0.0
  0
LINE
  5
84
330
1F
100
AcDbEntity
  8
0
  6
Continuous
 62
     7
370
    15
100
AcDbLine
 10
46.1691988311
 20
581.6908632165
 30
0.0
 11
46.1691988311
 21
568.7905852443
 31
0.0
  0
LINE
  5
85
330
1F
100
AcDbEntity
  8
0
  6
Continuous
 62
     7
370
    15
100
AcDbLine
 10
48.1692028842
 20
521.2036282515
 30
0.0
 11
48.1692028842
 21
525.2162744051
 31
0.0
  0
LINE
  5
86
330
1F
100
AcDbEntity
  8
0
  6
Continuous
 62
     7
370
    15
100
AcDbLine
 10
48.1692028842
 20
611.1909844672
 30
0.0
 11
48.1692028842
 21
615.2036287582
 31
0.0
  0
SPLINE
  5
87
330
1F
100
AcDbEntity
  8
0
  6
Continuous
 62
     7
370
    15
100
AcDbSpline
210
0.0
220
0.0
230
1.0
 70
     8
 71
     3
 72
    12
 73
     8
 74
     0
 42
0.00000001
 43
0.00000001
 40
0.0
 40
0.0
 40
0.0
 40
0.0
 40
0.1405549167593245
 40
0.3551329792769909
 40
0.5700169144771093
 40
0.78502025167607
 40
0.9999999999999999
 40
0.9999999999999999
 40
0.9999999999999999
 40
0.9999999999999999
 10
46.16919883105708
 20
581.6908632164921
 30
0.0
 10
46.31616440109845
 20
581.7005368936617
 30
0.0
 10
46.68749485287699
 20
581.7249788831203
 30
0.0
 10
47.24990669355969
 20
581.9651380568906
 30
0.0
 10
47.75770103113647
 20
582.4186971530203
 30
0.0
 10
48.10278905860363
 20
583.0194601045933
 30
0.0
 10
48.14706575198974
 20
583.4702036094812
 30
0.0
 10
48.16920288417293
 20
583.6955629980291
 30
0.0
  0
SPLINE
  5
88
330
1F
100
AcDbEntity
  8
0
  6
Continuous
 62
     7
370
    15
100
AcDbSpline
210
0.0
220
0.0
230
1.0
 70
     8
 71
     3
 72
    12
 73
     8
 74
     0
 42
0.00000001
 43
0.00000001
 40
0.0
 40
0.0
 40
0.0
 40
0.0
 40
0.134649425663477
 40
0.3495760946243057
 40
0.5642751672492383
 40
0.7786707346338975
 40
0.9999999999999999
 40
0.9999999999999999
 40
0.9999999999999999
 40
0.9999999999999999
 10
48.16920288417293
 20
552.7116956705793
 30
0.0
 10
48.16038114751925
 20
552.852368794745
 30
0.0
 10
48.13747820358169
 20
553.2175835821242
 30
0.0
 10
47.9067804991849
 20
553.7766592176135
 30
0.0
 10
47.46025006490012
 20
554.2898146627771
 30
0.0
 10
46.85862340265959
 20
554.6461705212361
 30
0.0
 10
46.4014321196028
 20
554.69273979273
 30
0.0
 10
46.16919883105708
 20
554.7163949573512
 30
0.0
  0
LINE
  5
89
330
1F
100
AcDbEntity
  8
0
  6
Continuous
 62
     7
370
    15
100
AcDbLine
 10
46.1691988311
 20
554.7163949574
 30
0.0
 11
46.1691988311
 21
554.703629086
 31
0.0
  0
LINE
  5
8A
330
1F
100
AcDbEntity
  8
0
  6
Continuous
 62
     7
370
    15
100
AcDbLine
 10
46.1691988311
 20
581.7036297863
 30
0.0
 11
46.1691988311
 21
581.6908632165
 31
0.0
  0
SPLINE
  5
8B
330
1F
100
AcDbEntity
  8
0
  6
Continuous
 62
     7
370
    15
100
AcDbSpline
210
0.0
220
0.0
230
1.0
 70
     8
 71
     3
 72
    15
 73
    11
 74
     0
 42
0.00000001
 43
0.00000001
 40
0.0
 40
0.0
 40
0.0
 40
0.0
 40
0.1301251236802479
 40
0.2568327364339062
 40
0.3801240186836811
 40
0.4999998204487828
 40
0.619875126667076
 40
0.7431657912491417
 40
0.8698734040021331
 40
1.0
 40
1.0
 40
1.0
 40
1.0
 10
381.1692071757074
 20
737.7056875025953
 30
0.0
 10
381.1148581513576
 20
738.6254909936665
 30
0.0
 10
381.0075874856207
 20
740.4409409307113
 30
0.0
 10
380.1687036227287
 20
743.0171514358169
 30
0.0
 10
378.9169361713151
 20
745.3217747118804
 30
0.0
 10
377.2721251333811
 20
747.306542064036
 30
0.0
 10
375.2873600011515
 20
748.9513469533375
 30
0.0
 10
372.9827495469073
 20
750.2031225926931
 30
0.0
 10
370.4065310007445
 20
751.0420003894704
 30
0.0
 10
368.5910718319196
 20
751.149281519578
 30
0.0
 10
367.6712585291619
 20
751.2036361491407
 30
0.0
  0
SPLINE
  5
8C
330
1F
100
AcDbEntity
  8
0
  6
Continuous
 62
     7
370
    15
100
AcDbSpline
210
0.0
220
0.0
230
1.0
 70
     8
 71
     3
 72
    15
 73
    11
 74
     0
 42
0.00000001
 43
0.00000001
 40
0.0
 40
0.0
 40
0.0
 40
0.0
 40
0.1301254508405222
 40
0.2568333244036381
 40
0.3801240516348912
 40
0.4999999912258035
 40
0.619875411872189
 40
0.7431660546943292
 40
0.869873813002073
 40
1.0
 40
1.0
 40
1.0
 40
1.0
 10
367.6712585291619
 20
496.2036297416415
 30
0.0
 10
368.591064098033
 20
496.2579796208293
 30
0.0
 10
370.4065177278357
 20
496.3652519496671
 30
0.0
 10
372.9827350916743
 20
497.2041213341521
 30
0.0
 10
375.2873458162138
 20
498.4559096065429
 30
0.0
 10
377.2721233697369
 20
500.1007042757875
 30
0.0
 10
378.9169236766603
 20
502.0854775179548
 30
0.0
 10
380.1687018214025
 20
504.3900879805425
 30
0.0
 10
381.0075792949967
 20
506.9663058711396
 30
0.0
 10
381.114855272052
 20
508.7817638902289
 30
0.0
 10
381.1692071757074
 20
509.7015746628966
 30
0.0
  0
SPLINE
  5
8D
330
1F
100
AcDbEntity
  8
0
  6
Continuous
 62
     7
370
    15
100
AcDbSpline
210
0.0
220
0.0
230
1.0
 70
     8
 71
     3
 72
    15
 73
    11
 74
     0
 42
0.00000001
 43
0.00000001
 40
0.0
 40
0.0
 40
0.0
 40
0.0
 40
0.1301256386535238
 40
0.25683324145907
 40
0.3801240507781246
 40
0.5000003386773696
 40
0.6198757944671642
 40
0.743166618187826
 40
0.8698741683314997
 40
1.0
 40
1.0
 40
1.0
 40
1.0
 10
53.16919811580134
 20
509.7015746628966
 30
0.0
 10
53.22354698775497
 20
508.7817675062043
 30
0.0
 10
53.33081713910953
 20
506.96631394905
 30
0.0
 10
54.16969858954612
 20
504.3901014611691
 30
0.0
 10
55.42147484158421
 20
502.0854832664051
 30
0.0
 10
57.06628361075644
 20
500.100711513203
 30
0.0
 10
59.0510632058503
 20
498.4559156913649
 30
0.0
 10
61.35566721173547
 20
497.2041257655432
 30
0.0
 10
63.93188494286664
 20
496.3652549989698
 30
0.0
 10
65.7473386619287
 20
496.2579807437518
 30
0.0
 10
66.66714676234675
 20
496.2036297416415
 30
0.0
  0
SPLINE
  5
8E
330
1F
100
AcDbEntity
  8
0
  6
Continuous
 62
     7
370
    15
100
AcDbSpline
210
0.0
220
0.0
230
1.0
 70
     8
 71
     3
 72
    15
 73
    11
 74
     0
 42
0.00000001
 43
0.00000001
 40
0.0
 40
0.0
 40
0.0
 40
0.0
 40
0.1301259236125547
 40
0.2568333528552888
 40
0.3801243814786279
 40
0.4999999845406159
 40
0.6198750452607634
 40
0.7431657362463588
 40
0.8698733761346424
 40
1.0
 40
1.0
 40
1.0
 40
1.0
 10
66.66714676234675
 20
751.2036361491407
 30
0.0
 10
65.74733921564493
 20
751.1492791053366
 30
0.0
 10
63.93188807691244
 20
751.0419930133428
 30
0.0
 10
61.35566292280581
 20
750.2031454262434
 30
0.0
 10
59.05106417434966
 20
748.9513407801023
 30
0.0
 10
57.06629151917625
 20
747.3065493367025
 30
0.0
 10
55.4214855806914
 20
745.3217874728772
 30
0.0
 10
54.16971189826078
 20
743.0171784681164
 30
0.0
 10
53.33083381652592
 20
740.4409599877985
 30
0.0
 10
53.22355272554194
 20
738.6255008099334
 30
0.0
 10
53.16919811580134
 20
737.7056875025953
 30
0.0
  0
LINE
  5
8F
330
1F
100
AcDbEntity
  8
0
  6
Continuous
 62
     7
370
    15
100
AcDbLine
 10
381.1692071757
 20
675.7036321556
 30
0.0
 11
381.1692071757
 21
737.7056875026
 31
0.0
  0
SPLINE
  5
90
330
1F
100
AcDbEntity
  8
0
  6
Continuous
 62
     7
370
    15
100
AcDbSpline
210
0.0
220
0.0
230
1.0
 70
     8
 71
     3
 72
    13
 73
     9
 74
     0
 42
0.00000001
 43
0.00000001
 40
0.0
 40
0.0
 40
0.0
 40
0.0
 40
0.2394399242939443
 40
0.3683380679941244
 40
0.4999752074329389
 40
0.6316168097493751
 40
0.7605261275557303
 40
1.0
 40
1.0
 40
1.0
 40
1.0
 10
380.7328266701455
 20
668.7036254203047
 30
0.0
 10
380.7344620801677
 20
669.5842056008003
 30
0.0
 10
380.7369778835355
 20
670.938830162072
 30
0.0
 10
380.7522035122382
 20
672.5685339459374
 30
0.0
 10
380.7679713229599
 20
673.6899796561967
 30
0.0
 10
380.7875571303696
 20
674.5934099727499
 30
0.0
 10
380.815994811386
 20
675.4662900190518
 30
0.0
 10
380.839643168108
 20
675.6101278697889
 30
0.0
 10
380.8550161919351
 20
675.7036321556295
 30
0.0
  0
LINE
  5
91
330
1F
100
AcDbEntity
  8
0
  6
Continuous
 62
     7
370
    15
100
AcDbLine
 10
380.7328266701
 20
578.7036292946
 30
0.0
 11
380.7328266701
 21
668.7036254203
 31
0.0
  0
SPLINE
  5
92
330
1F
100
AcDbEntity
  8
0
  6
Continuous
 62
     7
370
    15
100
AcDbSpline
210
0.0
220
0.0
230
1.0
 70
     8
 71
     3
 72
    13
 73
     9
 74
     0
 42
0.00000001
 43
0.00000001
 40
0.0
 40
0.0
 40
0.0
 40
0.0
 40
0.2394739041095824
 40
0.368383256107344
 40
0.5000246789570626
 40
0.6316619852708719
 40
0.7605600121979412
 40
1.0
 40
1.0
 40
1.0
 40
1.0
 10
380.8550161919351
 20
571.7036281472172
 30
0.0
 10
380.8396431650528
 20
571.7971314573398
 30
0.0
 10
380.8159948025302
 20
571.9409678138223
 30
0.0
 10
380.7875571549666
 20
572.8138489598048
 30
0.0
 10
380.7679712890661
 20
573.7172748286587
 30
0.0
 10
380.7522035352563
 20
574.8387223802889
 30
0.0
 10
380.7369778675746
 20
576.4684245609246
 30
0.0
 10
380.7344620742859
 20
577.8230488985755
 30
0.0
 10
380.7328266701455
 20
578.7036292946066
 30
0.0
  0
LINE
  5
93
330
1F
100
AcDbEntity
  8
0
  6
Continuous
 62
     7
370
    15
100
AcDbLine
 10
381.1692071757
 20
509.7015746629
 30
0.0
 11
381.1692071757
 21
571.7036281472
 31
0.0
  0
LINE
  5
94
330
1F
100
AcDbEntity
  8
0
  6
Continuous
 62
     7
370
    15
100
AcDbLine
 10
367.6712585292
 20
751.2036361491
 30
0.0
 11
66.6671467623
 21
751.2036361491
 31
0.0
  0
LINE
  5
95
330
1F
100
AcDbEntity
  8
0
  6
Continuous
 62
     7
370
    15
100
AcDbLine
 10
66.6671467623
 20
496.2036297416
 30
0.0
 11
128.2613200745
 21
496.2036297416
 31
0.0
  0
LINE
  5
96
330
1F
100
AcDbEntity
  8
0
  6
Continuous
 62
     7
370
    15
100
AcDbLine
 10
226.0770832798
 20
496.2036297416
 30
0.0
 11
235.3771363995
 21
496.2036297416
 31
0.0
  0
LINE
  5
97
330
1F
100
AcDbEntity
  8
0
  6
Continuous
 62
     7
370
    15
100
AcDbLine
 10
243.9612706802
 20
496.2036297416
 30
0.0
 11
253.2613275251
 21
496.2036297416
 31
0.0
  0
LINE
  5
98
330
1F
100
AcDbEntity
  8
0
  6
Continuous
 62
     7
370
    15
100
AcDbLine
 10
351.0770795545
 20
496.2036297416
 30
0.0
 11
367.6712585292
 21
496.2036297416
 31
0.0
  0
LINE
  5
99
330
1F
100
AcDbEntity
  8
0
  6
Continuous
 62
     7
370
    15
100
AcDbLine
 10
53.1691981158
 20
519.2036279237
 30
0.0
 11
53.1691981158
 21
509.7015746629
 31
0.0
  0
LINE
  5
9A
330
1F
100
AcDbEntity
  8
0
  6
Continuous
 62
     7
370
    15
100
AcDbLine
 10
53.6055786214
 20
668.7036254203
 30
0.0
 11
53.6055786214
 21
617.2036253607
 31
0.0
  0
SPLINE
  5
9B
330
1F
100
AcDbEntity
  8
0
  6
Continuous
 62
     7
370
    15
100
AcDbSpline
210
0.0
220
0.0
230
1.0
 70
     8
 71
     3
 72
    13
 73
     9
 74
     0
 42
0.00000001
 43
0.00000001
 40
0.0
 40
0.0
 40
0.0
 40
0.0
 40
0.2394738837627761
 40
0.3683831908487608
 40
0.5000247837628389
 40
0.6316619379884774
 40
0.760560076048391
 40
1.0
 40
1.0
 40
1.0
 40
1.0
 10
53.48338909957362
 20
675.7036321556295
 30
0.0
 10
53.49876661361919
 20
675.6101278858359
 30
0.0
 10
53.5224218765748
 20
675.4662900663487
 30
0.0
 10
53.55084959509387
 20
674.5934099864775
 30
0.0
 10
53.57041843648741
 20
673.6899795241318
 30
0.0
 10
53.58621744033668
 20
672.5685340757958
 30
0.0
 10
53.60141947348315
 20
670.9388300833384
 30
0.0
 10
53.60394008545849
 20
669.5842055776873
 30
0.0
 10
53.60557862136317
 20
668.7036254203047
 30
0.0
  0
LINE
  5
9C
330
1F
100
AcDbEntity
  8
0
  6
Continuous
 62
     7
370
    15
100
AcDbLine
 10
53.1691981158
 20
737.7056875026
 30
0.0
 11
53.1691981158
 21
675.7036321556
 31
0.0
  0
LINE
  5
9D
330
1F
100
AcDbEntity
  8
0
  6
Continuous
 62
     7
370
    15
100
AcDbLine
 10
52.6054275832
 20
617.2036253607
 30
0.0
 11
52.6054275832
 21
668.7036254203
 31
0.0
  0
SPLINE
  5
9E
330
1F
100
AcDbEntity
  8
0
  6
Continuous
 62
     7
370
    15
100
AcDbSpline
210
0.0
220
0.0
230
1.0
 70
     8
 71
     3
 72
    13
 73
     9
 74
     0
 42
0.00000001
 43
0.00000001
 40
0.0
 40
0.0
 40
0.0
 40
0.0
 40
0.2394399249236127
 40
0.368338074422328
 40
0.4999752142073159
 40
0.6316168076557916
 40
0.7605261152650822
 40
1.0
 40
1.0
 40
1.0
 40
1.0
 10
52.60542758319328
 20
668.7036254203047
 30
0.0
 10
52.60379406191351
 20
669.5842056136995
 30
0.0
 10
52.6012811640211
 20
670.938830214893
 30
0.0
 10
52.5860412778367
 20
672.5685339160862
 30
0.0
 10
52.57027418230859
 20
673.6899796175577
 30
0.0
 10
52.5506968247205
 20
674.5934099714322
 30
0.0
 10
52.52227171607837
 20
675.4662900739719
 30
0.0
 10
52.49861592122112
 20
675.6101278888391
 30
0.0
 10
52.48323806140376
 20
675.7036321556295
 30
0.0
  0
LINE
  5
9F
330
1F
100
AcDbEntity
  8
0
  6
Continuous
 62
     7
370
    15
100
AcDbLine
 10
53.4833890996
 20
675.7036321556
 30
0.0
 11
52.4832380614
 21
675.7036321556
 31
0.0
  0
LINE
  5
A0
330
1F
100
AcDbEntity
  8
0
  6
Continuous
 62
     7
370
    15
100
AcDbLine
 10
381.7329777083
 20
668.7036254203
 30
0.0
 11
381.7329777083
 21
578.7036292946
 31
0.0
  0
SPLINE
  5
A1
330
1F
100
AcDbEntity
  8
0
  6
Continuous
 62
     7
370
    15
100
AcDbSpline
210
0.0
220
0.0
230
1.0
 70
     8
 71
     3
 72
    13
 73
     9
 74
     0
 42
0.00000001
 43
0.00000001
 40
0.0
 40
0.0
 40
0.0
 40
0.0
 40
0.2394399882159092
 40
0.3683380153657672
 40
0.4999753293928526
 40
0.6316167432559386
 40
0.7605260954765084
 40
1.0
 40
1.0
 40
1.0
 40
1.0
 10
381.7329777083154
 20
578.7036292946066
 30
0.0
 10
381.7346137684351
 20
577.8230489039001
 30
0.0
 10
381.7371305708371
 20
576.4684245744403
 30
0.0
 10
381.7523512871013
 20
574.8387223292114
 30
0.0
 10
381.7681352014895
 20
573.7172749182072
 30
0.0
 10
381.7877049068786
 20
572.8138489137588
 30
0.0
 10
381.8161475060481
 20
571.9409678290031
 30
0.0
 10
381.8397948593101
 20
571.7971314633204
 30
0.0
 10
381.8551672301049
 20
571.7036281472172
 30
0.0
  0
LINE
  5
A2
330
1F
100
AcDbEntity
  8
0
  6
Continuous
 62
     7
370
    15
100
AcDbLine
 10
380.8550161919
 20
571.7036281472
 30
0.0
 11
381.8551672301
 21
571.7036281472
 31
0.0
  0
SPLINE
  5
A3
330
1F
100
AcDbEntity
  8
0
  6
Continuous
 62
     7
370
    15
100
AcDbSpline
210
0.0
220
0.0
230
1.0
 70
     8
 71
     3
 72
    13
 73
     9
 74
     0
 42
0.00000001
 43
0.00000001
 40
0.0
 40
0.0
 40
0.0
 40
0.0
 40
0.2394738728581732
 40
0.3683831908873337
 40
0.5000247842171518
 40
0.6316619313692446
 40
0.7605600752922108
 40
1.0
 40
1.0
 40
1.0
 40
1.0
 10
381.8551672301049
 20
675.7036321556295
 30
0.0
 10
381.8397948623645
 20
675.6101278638082
 30
0.0
 10
381.8161475149018
 20
675.466290003871
 30
0.0
 10
381.7877048822841
 20
674.5934100187958
 30
0.0
 10
381.7681352353832
 20
673.6899795666482
 30
0.0
 10
381.7523512640787
 20
672.568533997015
 30
0.0
 10
381.7371305867995
 20
670.9388301485562
 30
0.0
 10
381.7346137743172
 20
669.5842055954756
 30
0.0
 10
381.7329777083154
 20
668.7036254203047
 30
0.0
  0
LINE
  5
A4
330
1F
100
AcDbEntity
  8
0
  6
Continuous
 62
     7
370
    15
100
AcDbLine
 10
382.1693582139
 20
675.7036321556
 30
0.0
 11
381.8551672301
 21
675.7036321556
 31
0.0
  0
LINE
  5
A5
330
1F
100
AcDbEntity
  8
0
  6
Continuous
 62
     7
370
    15
100
AcDbLine
 10
382.1692017517
 20
675.7036321556
 30
0.0
 11
382.1692017517
 21
673.7036281025
 31
0.0
  0
SPLINE
  5
A6
330
1F
100
AcDbEntity
  8
0
  6
Continuous
 62
     7
370
    15
100
AcDbSpline
210
0.0
220
0.0
230
1.0
 70
     8
 71
     3
 72
    13
 73
     9
 74
     0
 42
0.00000001
 43
0.00000001
 40
0.0
 40
0.0
 40
0.0
 40
0.0
 40
0.2394404811681938
 40
0.3683385107020894
 40
0.4999755890517029
 40
0.6316171053855792
 40
0.7605263482359432
 40
1.0
 40
1.0
 40
1.0
 40
1.0
 10
381.7678911289926
 20
668.7036254203047
 30
0.0
 10
381.7690556617193
 20
669.332613316441
 30
0.0
 10
381.7708470975206
 20
670.3002043594514
 30
0.0
 10
381.7817293113789
 20
671.464278438099
 30
0.0
 10
381.7929993489819
 20
672.2653115688646
 30
0.0
 10
381.8069800314772
 20
672.9106174742616
 30
0.0
 10
381.8272976348579
 20
673.534102193008
 30
0.0
 10
381.8441876103464
 20
673.6368409816711
 30
0.0
 10
381.8551672301049
 20
673.7036281025137
 30
0.0
  0
LINE
  5
A7
330
1F
100
AcDbEntity
  8
0
  6
Continuous
 62
     7
370
    15
100
AcDbLine
 10
381.767891129
 20
578.7036292946
 30
0.0
 11
381.767891129
 21
668.7036254203
 31
0.0
  0
SPLINE
  5
A8
330
1F
100
AcDbEntity
  8
0
  6
Continuous
 62
     7
370
    15
100
AcDbSpline
210
0.0
220
0.0
230
1.0
 70
     8
 71
     3
 72
    13
 73
     9
 74
     0
 42
0.00000001
 43
0.00000001
 40
0.0
 40
0.0
 40
0.0
 40
0.0
 40
0.2394738274372934
 40
0.3683832503297459
 40
0.500024838720425
 40
0.6316619891244118
 40
0.7605600892134038
 40
1.0
 40
1.0
 40
1.0
 40
1.0
 10
381.8551672301049
 20
573.7036284750427
 30
0.0
 10
381.844187607515
 20
573.7704160321088
 30
0.0
 10
381.8272976237521
 20
573.8731555156542
 30
0.0
 10
381.8069800398702
 20
574.4966431129357
 30
0.0
 10
381.7929993477866
 20
575.1419486080381
 30
0.0
 10
381.7817293116202
 20
575.94298189882
 30
0.0
 10
381.770847112971
 20
577.1070542837933
 30
0.0
 10
381.7690556670826
 20
578.0746433368611
 30
0.0
 10
381.7678911289926
 20
578.7036292946066
 30
0.0
  0
LINE
  5
A9
330
1F
100
AcDbEntity
  8
0
  6
Continuous
 62
     7
370
    15
100
AcDbLine
 10
382.1693582139
 20
571.7036281472
 30
0.0
 11
382.1693582139
 21
573.703628475
 31
0.0
  0
LINE
  5
AA
330
1F
100
AcDbEntity
  8
0
  6
Continuous
 62
     7
370
    15
100
AcDbLine
 10
381.8551672301
 20
571.7036281472
 30
0.0
 11
382.1693582139
 21
571.7036281472
 31
0.0
  0
LINE
  5
AB
330
1F
100
AcDbEntity
  8
0
  6
Continuous
 62
     7
370
    15
100
AcDbLine
 10
382.1693582139
 20
573.703628475
 30
0.0
 11
381.8551672301
 21
573.703628475
 31
0.0
  0
LINE
  5
AC
330
1F
100
AcDbEntity
  8
0
  6
Continuous
 62
     7
370
    15
100
AcDbLine
 10
381.8551672301
 20
673.7036281025
 30
0.0
 11
382.1693582139
 21
673.7036281025
 31
0.0
  0
LINE
  5
AD
330
1F
100
AcDbEntity
  8
0
  6
Continuous
 62
     7
370
    15
100
AcDbLine
 10
52.5705141625
 20
668.7036254203
 30
0.0
 11
52.5705141625
 21
617.2036253607
 31
0.0
  0
SPLINE
  5
AE
330
1F
100
AcDbEntity
  8
0
  6
Continuous
 62
     7
370
    15
100
AcDbSpline
210
0.0
220
0.0
230
1.0
 70
     8
 71
     3
 72
    13
 73
     9
 74
     0
 42
0.00000001
 43
0.00000001
 40
0.0
 40
0.0
 40
0.0
 40
0.0
 40
0.2425102601349342
 40
0.3694510990137482
 40
0.4998129939031983
 40
0.7096871065233769
 40
0.8448932419881442
 40
1.0
 40
1.0
 40
1.0
 40
1.0
 10
52.57051416251613
 20
668.7036254203047
 30
0.0
 10
52.56926885446692
 20
669.3409451341823
 30
0.0
 10
52.56737169585953
 20
670.3118668122349
 30
0.0
 10
52.55646365038755
 20
671.4736554700231
 30
0.0
 10
52.54325584704966
 20
672.4264800466149
 30
0.0
 10
52.52462566497443
 20
673.1567902458322
 30
0.0
 10
52.50338364587934
 20
673.6217406796368
 30
0.0
 10
52.49025328016613
 20
673.6751127627842
 30
0.0
 10
52.48323806140376
 20
673.7036281025137
 30
0.0
  0
LINE
  5
AF
330
1F
100
AcDbEntity
  8
0
  6
Continuous
 62
     7
370
    15
100
AcDbLine
 10
52.1692109904
 20
673.7036281025
 30
0.0
 11
52.1692109904
 21
675.7036321556
 31
0.0
  0
LINE
  5
B0
330
1F
100
AcDbEntity
  8
0
  6
Continuous
 62
     7
370
    15
100
AcDbLine
 10
52.4832380614
 20
675.7036321556
 30
0.0
 11
52.1690470776
 21
675.7036321556
 31
0.0
  0
LINE
  5
B1
330
1F
100
AcDbEntity
  8
0
  6
Continuous
 62
     7
370
    15
100
AcDbLine
 10
52.1690470776
 20
673.7036281025
 30
0.0
 11
52.4832380614
 21
673.7036281025
 31
0.0
  0
LINE
  5
B2
330
1F
100
AcDbEntity
  8
0
  6
Continuous
 62
     7
370
    15
100
AcDbLine
 10
381.8551672301
 20
675.7036321556
 30
0.0
 11
380.8550161919
 21
675.7036321556
 31
0.0
  0
LINE
  5
B3
330
1F
100
AcDbEntity
  8
0
  6
Continuous
 62
     7
370
    15
100
AcDbLine
 10
52.1692109904
 20
675.7036321556
 30
0.0
 11
52.1692109904
 21
737.7036311424
 31
0.0
  0
SPLINE
  5
B4
330
1F
100
AcDbEntity
  8
0
  6
Continuous
 62
     7
370
    15
100
AcDbSpline
210
0.0
220
0.0
230
1.0
 70
     8
 71
     3
 72
    15
 73
    11
 74
     0
 42
0.00000001
 43
0.00000001
 40
0.0
 40
0.0
 40
0.0
 40
0.0
 40
0.1249998868329633
 40
0.2500000874221515
 40
0.3749998503391207
 40
0.5
 40
0.6250001496608794
 40
0.7499999125778485
 40
0.8750001131670367
 40
1.0
 40
1.0
 40
1.0
 40
1.0
 10
52.16921099040459
 20
737.7036311423506
 30
0.0
 10
52.22317297764098
 20
738.6526480172851
 30
0.0
 10
52.33109708756109
 20
740.5506841492355
 30
0.0
 10
53.1933106594791
 20
743.2882721060248
 30
0.0
 10
54.53338278891812
 20
745.8114535226891
 30
0.0
 10
56.35055072562078
 20
748.0222835393213
 30
0.0
 10
58.56138074225306
 20
749.839451476024
 30
0.0
 10
61.08456215891736
 20
751.179523605463
 30
0.0
 10
63.82215011570663
 20
752.041737177381
 30
0.0
 10
65.72018624765713
 20
752.1496612873011
 30
0.0
 10
66.66920312259147
 20
752.2036232745374
 30
0.0
  0
LINE
  5
B5
330
1F
100
AcDbEntity
  8
0
  6
Continuous
 62
     7
370
    15
100
AcDbLine
 10
66.6692031226
 20
752.2036232745
 30
0.0
 11
367.6692021689
 21
752.2036232745
 31
0.0
  0
SPLINE
  5
B6
330
1F
100
AcDbEntity
  8
0
  6
Continuous
 62
     7
370
    15
100
AcDbSpline
210
0.0
220
0.0
230
1.0
 70
     8
 71
     3
 72
    15
 73
    11
 74
     0
 42
0.00000001
 43
0.00000001
 40
0.0
 40
0.0
 40
0.0
 40
0.0
 40
0.1250001830865309
 40
0.250000040330226
 40
0.3750000623908089
 40
0.5000001822403582
 40
0.6250003020899074
 40
0.7500000351956388
 40
0.8750001108640021
 40
1.0
 40
1.0
 40
1.0
 40
1.0
 10
367.6692021689172
 20
752.2036232745374
 30
0.0
 10
368.6182216926001
 20
752.1496618920825
 30
0.0
 10
370.5162582661199
 20
752.0417392678356
 30
0.0
 10
373.2538465350853
 20
751.1795199718446
 30
0.0
 10
375.7770308180406
 20
749.8394540392636
 30
0.0
 10
377.9878620783658
 20
748.0222832817757
 30
0.0
 10
379.8050291838316
 20
745.8114533898437
 30
0.0
 10
381.1451047581878
 20
743.2882735348916
 30
0.0
 10
382.0073040591005
 20
740.5506823077673
 30
0.0
 10
382.1152358810003
 20
738.6526477254296
 30
0.0
 10
382.1692017516847
 20
737.7036311423506
 30
0.0
  0
LINE
  5
B7
330
1F
100
AcDbEntity
  8
0
  6
Continuous
 62
     7
370
    15
100
AcDbLine
 10
382.1692017517
 20
737.7036311424
 30
0.0
 11
382.1692017517
 21
675.7036321556
 31
0.0
  0
LINE
  5
B8
330
1F
100
AcDbEntity
  8
0
  6
Continuous
 62
     7
370
    15
100
AcDbLine
 10
382.1692017517
 20
571.7036281472
 30
0.0
 11
382.1692017517
 21
509.7036272979
 31
0.0
  0
SPLINE
  5
B9
330
1F
100
AcDbEntity
  8
0
  6
Continuous
 62
     7
370
    15
100
AcDbSpline
210
0.0
220
0.0
230
1.0
 70
     8
 71
     3
 72
    15
 73
    11
 74
     0
 42
0.00000001
 43
0.00000001
 40
0.0
 40
0.0
 40
0.0
 40
0.0
 40
0.1249998763442191
 40
0.2499999392207845
 40
0.3749998040121401
 40
0.4999999110698868
 40
0.6249999142005375
 40
0.7500000006940978
 40
0.874999797591063
 40
1.0
 40
1.0
 40
1.0
 40
1.0
 10
382.1692017516847
 20
509.703627297851
 30
0.0
 10
382.1152359275386
 20
508.7546106948357
 30
0.0
 10
382.0073041987155
 20
506.8565760726254
 30
0.0
 10
381.1451038675445
 20
504.1189840898255
 30
0.0
 10
379.8050301534104
 20
501.5958022502995
 30
0.0
 10
377.9878633354139
 20
499.384970846596
 30
0.0
 10
375.7770283594907
 20
497.5678059776249
 30
0.0
 10
373.2538485604828
 20
496.2277320848534
 30
0.0
 10
370.5162569493443
 20
495.3655225122338
 30
0.0
 10
368.6182214552944
 20
495.2575927058227
 30
0.0
 10
367.6692021689172
 20
495.2036277150835
 30
0.0
  0
LINE
  5
BA
330
1F
100
AcDbEntity
  8
0
  6
Continuous
 62
     7
370
    15
100
AcDbLine
 10
367.6692021689
 20
495.2036277151
 30
0.0
 11
350.3692036173
 21
495.2036277151
 31
0.0
  0
LINE
  5
BB
330
1F
100
AcDbEntity
  8
0
  6
Continuous
 62
     7
370
    15
100
AcDbLine
 10
253.9692034623
 20
495.2036277151
 30
0.0
 11
225.3692073426
 21
495.2036277151
 31
0.0
  0
LINE
  5
BC
330
1F
100
AcDbEntity
  8
0
  6
Continuous
 62
     7
370
    15
100
AcDbLine
 10
128.969199737
 20
495.2036277151
 30
0.0
 11
66.6692031226
 21
495.2036277151
 31
0.0
  0
SPLINE
  5
BD
330
1F
100
AcDbEntity
  8
0
  6
Continuous
 62
     7
370
    15
100
AcDbSpline
210
0.0
220
0.0
230
1.0
 70
     8
 71
     3
 72
    15
 73
    11
 74
     0
 42
0.00000001
 43
0.00000001
 40
0.0
 40
0.0
 40
0.0
 40
0.0
 40
0.1249999061554403
 40
0.2500000463979209
 40
0.3749998737480401
 40
0.4999999066899422
 40
0.6250000435589652
 40
0.7499999381615392
 40
0.875000125958866
 40
0.9999999999999999
 40
0.9999999999999999
 40
0.9999999999999999
 40
0.9999999999999999
 10
66.66920312259147
 20
495.2036277150835
 30
0.0
 10
65.72018648496183
 20
495.2575933106001
 30
0.0
 10
63.82215143248121
 20
495.3655246026943
 30
0.0
 10
61.08456013351771
 20
496.2277284512346
 30
0.0
 10
58.56138320080328
 20
497.5678085408605
 30
0.0
 10
56.35054946857182
 20
499.3849705890499
 30
0.0
 10
54.53338181933928
 20
501.5958021174542
 30
0.0
 10
53.19331155012657
 20
504.1189855186935
 30
0.0
 10
52.33109694794649
 20
506.8565742311573
 30
0.0
 10
52.22317293110282
 20
508.7546104029804
 30
0.0
 10
52.16921099040461
 20
509.703627297851
 30
0.0
  0
LINE
  5
BE
330
1F
100
AcDbEntity
  8
0
  6
Continuous
 62
     7
370
    15
100
AcDbLine
 10
52.1692109904
 20
509.7036272979
 30
0.0
 11
52.1692109904
 21
519.2036279237
 31
0.0
  0
CIRCLE
  5
BF
330
1F
100
AcDbEntity
  8
0
  6
Continuous
 62
     7
370
    15
100
AcDbCircle
 10
217.1692040695
 20
623.7036290589
 30
0.0
 40
8.0
  0
SPLINE
  5
C0
330
1F
100
AcDbEntity
  8
0
  6
Continuous
 62
     7
370
    15
100
AcDbSpline
210
0.0
220
0.0
230
1.0
 70
     8
 71
     3
 72
    15
 73
    11
 74
     0
 42
0.00000001
 43
0.00000001
 40
0.0
 40
0.0
 40
0.0
 40
0.0
 40
0.1301251886626513
 40
0.2568326663544738
 40
0.3801238827798146
 40
0.4999999818477706
 40
0.6198754442542148
 40
0.7431662643151967
 40
0.8698739892993553
 40
1.0
 40
1.0
 40
1.0
 40
1.0
 10
65.67633875224543
 20
750.1947530305113
 30
0.0
 10
64.8928062674377
 20
750.1484454844635
 30
0.0
 10
63.34632061529999
 20
750.0570466504178
 30
0.0
 10
61.15178142425645
 20
749.3424372502677
 30
0.0
 10
59.18861630312758
 20
748.2760738544663
 30
0.0
 10
57.49789177462227
 20
746.8749490811894
 30
0.0
 10
56.0967525063987
 20
745.1842353442115
 30
0.0
 10
55.03042007406708
 20
743.2210599664947
 30
0.0
 10
54.31578017946714
 20
741.0265274495704
 30
0.0
 10
54.22438634642926
 20
739.480033758167
 30
0.0
 10
54.1780812344308
 20
738.6964955126966
 30
0.0
  0
SPLINE
  5
C1
330
1F
100
AcDbEntity
  8
0
  6
Continuous
 62
     7
370
    15
100
AcDbSpline
210
0.0
220
0.0
230
1.0
 70
     8
 71
     3
 72
    15
 73
    11
 74
     0
 42
0.00000001
 43
0.00000001
 40
0.0
 40
0.0
 40
0.0
 40
0.0
 40
0.1301244298111169
 40
0.2568319690301548
 40
0.3801235740477005
 40
0.4999999947249035
 40
0.619875833671662
 40
0.7431667136007826
 40
0.8698742528198203
 40
1.0
 40
1.0
 40
1.0
 40
1.0
 10
380.1603240570779
 20
738.6964955126966
 30
0.0
 10
380.1140166914115
 20
739.4800233119599
 30
0.0
 10
380.0226179285351
 20
741.0265045358682
 30
0.0
 10
379.3080005426225
 20
743.2210358916085
 30
0.0
 10
378.2416677266643
 20
745.1842220599349
 30
0.0
 10
376.8405253811354
 20
746.874942312471
 30
0.0
 10
375.1498073497643
 20
748.2760785065568
 30
0.0
 10
373.186634000984
 20
749.3424195207492
 30
0.0
 10
370.992096985484
 20
750.0570300282525
 30
0.0
 10
369.4456090851486
 20
750.1484398370784
 30
0.0
 10
368.6620739898439
 20
750.1947530305113
 30
0.0
  0
SPLINE
  5
C2
330
1F
100
AcDbEntity
  8
0
  6
Continuous
 62
     7
370
    15
100
AcDbSpline
210
0.0
220
0.0
230
1.0
 70
     8
 71
     3
 72
    15
 73
    11
 74
     0
 42
0.00000001
 43
0.00000001
 40
0.0
 40
0.0
 40
0.0
 40
0.0
 40
0.1301248145252651
 40
0.2568321310098035
 40
0.3801237449226956
 40
0.500000037133218
 40
0.6198754018162852
 40
0.7431663559126094
 40
0.8698739313400897
 40
1.0
 40
1.0
 40
1.0
 40
1.0
 10
54.1780812344308
 20
508.7107592022147
 30
0.0
 10
54.22438875988347
 20
507.9272291500998
 30
0.0
 10
54.31578762555872
 20
506.3807470764921
 30
0.0
 10
55.030399575418
 20
504.1862104318704
 30
0.0
 10
56.09675939234912
 20
502.2230417477478
 30
0.0
 10
57.49788266515876
 20
500.5323117102373
 30
0.0
 10
59.18860170572676
 20
499.1311788451877
 30
0.0
 10
61.15177079907874
 20
498.0648360976166
 30
0.0
 10
63.34630946318451
 20
497.350216503593
 30
0.0
 10
64.89280098006928
 20
497.258817104293
 30
0.0
 10
65.67633875224543
 20
497.2125091349806
 30
0.0
  0
SPLINE
  5
C3
330
1F
100
AcDbEntity
  8
0
  6
Continuous
 62
     7
370
    15
100
AcDbSpline
210
0.0
220
0.0
230
1.0
 70
     8
 71
     3
 72
    15
 73
    11
 74
     0
 42
0.00000001
 43
0.00000001
 40
0.0
 40
0.0
 40
0.0
 40
0.0
 40
0.1301248630101053
 40
0.2568324856491536
 40
0.3801234856840041
 40
0.4999999817267298
 40
0.6198757368731292
 40
0.7431668359990012
 40
0.8698745204610208
 40
1.0
 40
1.0
 40
1.0
 40
1.0
 10
368.6620739898439
 20
497.2125091349806
 30
0.0
 10
369.4456041755895
 20
497.2588162941387
 30
0.0
 10
370.9920880721418
 20
497.3502145289939
 30
0.0
 10
373.186620386256
 20
498.0648315751682
 30
0.0
 10
375.149791488955
 20
499.1311818717672
 30
0.0
 10
376.8405255489787
 20
500.5323013500285
 30
0.0
 10
378.241646277966
 20
502.223034901577
 30
0.0
 10
379.3079975445845
 20
504.1862013255791
 30
0.0
 10
380.022620785427
 20
506.3807368864635
 30
0.0
 10
380.1140175471788
 20
507.927225157336
 30
0.0
 10
380.1603240570779
 20
508.7107592022147
 30
0.0
  0
LINE
  5
C4
330
1F
100
AcDbEntity
  8
0
  6
Continuous
 62
     7
370
    15
100
AcDbLine
 10
380.1603240571
 20
508.7107592022
 30
0.0
 11
380.1603240571
 21
738.6964955127
 31
0.0
  0
SPLINE
  5
C5
330
1F
100
AcDbEntity
  8
0
  6
Continuous
 62
     7
370
    15
100
AcDbSpline
210
0.0
220
0.0
230
1.0
 70
     8
 71
     3
 72
    19
 73
    15
 74
     0
 42
0.00000001
 43
0.00000001
 40
0.0
 40
0.0
 40
0.0
 40
0.0
 40
0.0791552635540948
 40
0.1600976680161627
 40
0.242712862313962
 40
0.3278015090486823
 40
0.4136118281284675
 40
0.5000000001980119
 40
0.586383504135307
 40
0.672193900056023
 40
0.7572871336366581
 40
0.8398976688311404
 40
0.9208423624317824
 40
1.0
 40
1.0
 40
1.0
 40
1.0
 10
255.6862977943177
 20
497.7138214504446
 30
0.0
 10
257.8070639388501
 20
497.7415520570639
 30
0.0
 10
262.0964781723741
 20
497.7976393626083
 30
0.0
 10
269.2157728272081
 20
497.8665977960388
 30
0.0
 10
276.8753054269424
 20
497.9237374225559
 30
0.0
 10
285.0218644469837
 20
497.966023349957
 30
0.0
 10
293.5152719383364
 20
497.9921373966632
 30
0.0
 10
302.1690490514203
 20
498.0009214348645
 30
0.0
 10
310.822823915342
 20
497.9921355327826
 30
0.0
 10
319.3162484208346
 20
497.966028353599
 30
0.0
 10
327.4628145359451
 20
497.9237384417813
 30
0.0
 10
335.1224054208678
 20
497.8665993307304
 30
0.0
 10
342.2417614765153
 20
497.797644015179
 30
0.0
 10
346.5312865199725
 20
497.7415536123868
 30
0.0
 10
348.6521092853303
 20
497.7138214504446
 30
0.0
  0
LINE
  5
C6
330
1F
100
AcDbEntity
  8
0
  6
Continuous
 62
     7
370
    15
100
AcDbLine
 10
243.9612706802
 20
497.212509135
 30
0.0
 11
249.1692041657
 21
497.212509135
 31
0.0
  0
SPLINE
  5
C7
330
1F
100
AcDbEntity
  8
0
  6
Continuous
 62
     7
370
    15
100
AcDbSpline
210
0.0
220
0.0
230
1.0
 70
     8
 71
     3
 72
    13
 73
     9
 74
     0
 42
0.00000001
 43
0.00000001
 40
0.0
 40
0.0
 40
0.0
 40
0.0
 40
0.314560190223213
 40
0.4856409832528116
 40
0.6568437635430732
 40
0.8279142002505219
 40
0.9991080260847294
 40
1.0
 40
1.0
 40
1.0
 40
1.0
 10
236.1692038974519
 20
497.4915929829802
 30
0.0
 10
236.2161380765244
 20
497.4992805858649
 30
0.0
 10
236.2885984881766
 20
497.5111492683615
 30
0.0
 10
236.7249101888209
 20
497.5253540215817
 30
0.0
 10
237.1753263402653
 20
497.5351819989822
 30
0.0
 10
237.7390876437898
 20
497.5426552003075
 30
0.0
 10
238.1482381269482
 20
497.547688091699
 30
0.0
 10
238.3833075669291
 20
497.5484036762261
 30
0.0
 10
238.3845260045285
 20
497.548407385322
 30
0.0
  0
LINE
  5
C8
330
1F
100
AcDbEntity
  8
0
  6
Continuous
 62
     7
370
    15
100
AcDbLine
 10
230.169202914
 20
497.212509135
 30
0.0
 11
235.3771363995
 21
497.212509135
 31
0.0
  0
SPLINE
  5
C9
330
1F
100
AcDbEntity
  8
0
  6
Continuous
 62
     7
370
    15
100
AcDbSpline
210
0.0
220
0.0
230
1.0
 70
     8
 71
     3
 72
    19
 73
    15
 74
     0
 42
0.00000001
 43
0.00000001
 40
0.0
 40
0.0
 40
0.0
 40
0.0
 40
0.0791551777168906
 40
0.160097684125474
 40
0.2427128407077132
 40
0.327801505920807
 40
0.4136117616213629
 40
0.4999999574363884
 40
0.5863834573210576
 40
0.6721938767026526
 40
0.757287151000625
 40
0.8398976570195364
 40
0.9208423878592871
 40
1.0
 40
1.0
 40
1.0
 40
1.0
 10
130.6863052448983
 20
497.7138214504446
 30
0.0
 10
132.8070670941332
 20
497.741552073124
 30
0.0
 10
137.0964777231956
 20
497.7976394776171
 30
0.0
 10
144.2157776296426
 20
497.8665977110816
 30
0.0
 10
151.875309288729
 20
497.9237374595096
 30
0.0
 10
160.0218662813963
 20
497.9660233219258
 30
0.0
 10
168.5152719012321
 20
497.9921374126609
 30
0.0
 10
177.1690472250776
 20
498.0009214313733
 30
0.0
 10
185.8228229948197
 20
497.9921355327251
 30
0.0
 10
194.3162488056348
 20
497.9660283434561
 30
0.0
 10
202.4628165129388
 20
497.9237384741544
 30
0.0
 10
210.1224067601795
 20
497.8665992912142
 30
0.0
 10
217.2417641406639
 20
497.7976440548525
 30
0.0
 10
221.53128796196
 20
497.7415536181824
 30
0.0
 10
223.6521092853303
 20
497.7138214504446
 30
0.0
  0
LINE
  5
CA
330
1F
100
AcDbEntity
  8
0
  6
Continuous
 62
     7
370
    15
100
AcDbLine
 10
65.6763387522
 20
497.212509135
 30
0.0
 11
124.169207891
 21
497.212509135
 31
0.0
  0
LINE
  5
CB
330
1F
100
AcDbEntity
  8
0
  6
Continuous
 62
     7
370
    15
100
AcDbLine
 10
368.6620739898
 20
497.212509135
 30
0.0
 11
355.1692066393
 21
497.212509135
 31
0.0
  0
SPLINE
  5
CC
330
1F
100
AcDbEntity
  8
0
  6
Continuous
 62
     7
370
    15
100
AcDbSpline
210
0.0
220
0.0
230
1.0
 70
     8
 71
     3
 72
    19
 73
    15
 74
     0
 42
0.00000001
 43
0.00000001
 40
0.0
 40
0.0
 40
0.0
 40
0.0
 40
0.0791552621686962
 40
0.1600976642607175
 40
0.2427128493336027
 40
0.3278015077373383
 40
0.413611830110499
 40
0.500000000630389
 40
0.5863835030181093
 40
0.6721938943461037
 40
0.757287129403338
 40
0.8398976716922425
 40
0.9208423641939815
 40
1.0
 40
1.0
 40
1.0
 40
1.0
 10
54.67940100047542
 20
614.6865361129965
 30
0.0
 10
54.70713318985698
 20
612.5657699844282
 30
0.0
 10
54.76322369632711
 20
608.2763558087363
 30
0.0
 10
54.83215753262291
 20
601.1570611656412
 30
0.0
 10
54.88932451618781
 20
593.4975288914759
 30
0.0
 10
54.93159306860274
 20
585.3509691926785
 30
0.0
 10
54.95772625962883
 20
576.8575612224222
 30
0.0
 10
54.96649600615944
 20
568.2037839233527
 30
0.0
 10
54.95772561836121
 20
559.5500091446625
 30
0.0
 10
54.93159323928301
 20
551.0565847300122
 30
0.0
 10
54.88932135010369
 20
542.9100182928015
 30
0.0
 10
54.83217955257228
 20
535.2504268118863
 30
0.0
 10
54.76321782469293
 20
528.1310706150343
 30
0.0
 10
54.70713126312257
 20
523.8415455339746
 30
0.0
 10
54.67940100047542
 20
521.7207227593387
 30
0.0
  0
LINE
  5
CD
330
1F
100
AcDbEntity
  8
0
  6
Continuous
 62
     7
370
    15
100
AcDbLine
 10
54.1780812344
 20
680.7326026952
 30
0.0
 11
54.1780812344
 21
621.2036260164
 31
0.0
  0
LINE
  5
CE
330
1F
100
AcDbEntity
  8
0
  6
Continuous
 62
     7
370
    15
100
AcDbLine
 10
54.1780812344
 20
738.6964955127
 30
0.0
 11
54.1780812344
 21
693.7036313808
 31
0.0
  0
LINE
  5
CF
330
1F
100
AcDbEntity
  8
0
  6
Continuous
 62
     7
370
    15
100
AcDbLine
 10
54.1780812344
 20
515.203627268
 30
0.0
 11
54.1780812344
 21
508.7107592022
 31
0.0
  0
LINE
  5
D0
330
1F
100
AcDbEntity
  8
0
  6
Continuous
 62
     7
370
    15
100
AcDbLine
 10
235.6692028842
 20
750.1947530305
 30
0.0
 11
65.6763387522
 21
750.1947530305
 31
0.0
  0
LINE
  5
D1
330
1F
100
AcDbEntity
  8
0
  6
Continuous
 62
     7
370
    15
100
AcDbLine
 10
249.1692041657
 20
750.1947530305
 30
0.0
 11
243.6692041955
 21
750.1947530305
 31
0.0
  0
SPLINE
  5
D2
330
1F
100
AcDbEntity
  8
0
  6
Continuous
 62
     7
370
    15
100
AcDbSpline
210
0.0
220
0.0
230
1.0
 70
     8
 71
     3
 72
    19
 73
    15
 74
     0
 42
0.00000001
 43
0.00000001
 40
0.0
 40
0.0
 40
0.0
 40
0.0
 40
0.0791552635590994
 40
0.1600976683441085
 40
0.2427128538530962
 40
0.3278014959605225
 40
0.4136118198409859
 40
0.499999982612388
 40
0.5863834957834213
 40
0.6721938874760854
 40
0.7572871251399604
 40
0.839897668879962
 40
0.9208423628035365
 40
0.9999999999999999
 40
0.9999999999999999
 40
0.9999999999999999
 40
0.9999999999999999
 10
348.6521092853303
 20
749.6934332644666
 30
0.0
 10
346.531343140672
 20
749.6657031259706
 30
0.0
 10
342.2419288983783
 20
749.6096167671299
 30
0.0
 10
335.1226344929013
 20
749.5406510619154
 30
0.0
 10
327.4631024860312
 20
749.4835169222869
 30
0.0
 10
319.3165437149676
 20
749.4412392287328
 30
0.0
 10
310.8231365424575
 20
749.4151085388269
 30
0.0
 10
302.1693592784346
 20
749.4063381157025
 30
0.0
 10
293.515584519309
 20
749.4151086834696
 30
0.0
 10
285.0221598133369
 20
749.4412410162025
 30
0.0
 10
276.875593358714
 20
749.4835129169894
 30
0.0
 10
269.2160018477202
 20
749.54065471175
 30
0.0
 10
262.0966456498066
 20
749.6096164403989
 30
0.0
 10
257.8071205688852
 20
749.6657030018691
 30
0.0
 10
255.6862977943177
 20
749.6934332644666
 30
0.0
  0
LINE
  5
D3
330
1F
100
AcDbEntity
  8
0
  6
Continuous
 62
     7
370
    15
100
AcDbLine
 10
368.6620739898
 20
750.1947530305
 30
0.0
 11
355.1692066393
 21
750.1947530305
 31
0.0
  0
LINE
  5
D4
330
1F
100
AcDbEntity
  8
0
  6
Continuous
 62
     7
370
    15
100
AcDbLine
 10
55.0183875165
 20
692.7036293542
 30
0.0
 11
55.0381762585
 21
692.5793834722
 31
0.0
  0
SPLINE
  5
D5
330
1F
100
AcDbEntity
  8
0
  6
Continuous
 62
     7
370
    15
100
AcDbSpline
210
0.0
220
0.0
230
1.0
 70
     8
 71
     3
 72
    11
 73
     7
 74
     0
 42
0.00000001
 43
0.00000001
 40
0.0
 40
0.0
 40
0.0
 40
0.0
 40
0.2500043382760009
 40
0.499999084050928
 40
0.7499979037576766
 40
1.0
 40
1.0
 40
1.0
 40
1.0
 10
54.18681331489039
 20
681.2325962578977
 30
0.0
 10
54.19432968163848
 20
681.2981157969689
 30
0.0
 10
54.20936212673669
 20
681.4291523611695
 30
0.0
 10
54.32495790545983
 20
681.5944314104141
 30
0.0
 10
54.49020358284137
 20
681.7100623862726
 30
0.0
 10
54.62122248927742
 20
681.7250905771022
 30
0.0
 10
54.68673237178279
 20
681.7326047217573
 30
0.0
  0
SPLINE
  5
D6
330
1F
100
AcDbEntity
  8
0
  6
Continuous
 62
     7
370
    15
100
AcDbSpline
210
0.0
220
0.0
230
1.0
 70
     8
 71
     3
 72
    10
 73
     6
 74
     0
 42
0.00000001
 43
0.00000001
 40
0.0
 40
0.0
 40
0.0
 40
0.0
 40
0.3628296020207353
 40
0.7256724634779133
 40
0.9999999999999999
 40
0.9999999999999999
 40
0.9999999999999999
 40
0.9999999999999999
 10
54.18681331489039
 20
693.2036229169096
 30
0.0
 10
54.19456695646608
 20
693.138608240632
 30
0.0
 10
54.21007452297052
 20
693.0085765121461
 30
0.0
 10
54.31300841818781
 20
692.8498565453768
 30
0.0
 10
54.41286255141905
 20
692.7927312311456
 30
0.0
 10
54.45585378024531
 20
692.7681364810194
 30
0.0
  0
SPLINE
  5
D7
330
1F
100
AcDbEntity
  8
0
  6
Continuous
 62
     7
370
    15
100
AcDbSpline
210
0.0
220
0.0
230
1.0
 70
     8
 71
     3
 72
    10
 73
     6
 74
     0
 42
0.00000001
 43
0.00000001
 40
0.0
 40
0.0
 40
0.0
 40
0.0
 40
0.3628469211228645
 40
0.7256799200494003
 40
1.0
 40
1.0
 40
1.0
 40
1.0
 10
54.18681331489039
 20
620.7036324536527
 30
0.0
 10
54.19456616054874
 20
620.6386126238883
 30
0.0
 10
54.21007155439378
 20
620.5085754591272
 30
0.0
 10
54.31300844894454
 20
620.3498511814867
 30
0.0
 10
54.41286256067562
 20
620.2927258668865
 30
0.0
 10
54.45585378024528
 20
620.2681311166014
 30
0.0
  0
SPLINE
  5
D8
330
1F
100
AcDbEntity
  8
0
  6
Continuous
 62
     7
370
    15
100
AcDbSpline
210
0.0
220
0.0
230
1.0
 70
     8
 71
     3
 72
    11
 73
     7
 74
     0
 42
0.00000001
 43
0.00000001
 40
0.0
 40
0.0
 40
0.0
 40
0.0
 40
0.2500022493528334
 40
0.4999956187967466
 40
0.7499943793324962
 40
1.0
 40
1.0
 40
1.0
 40
1.0
 10
54.18681331489039
 20
515.7036282813276
 30
0.0
 10
54.1943297088614
 20
515.7691465623553
 30
0.0
 10
54.20936222982623
 20
515.900180797246
 30
0.0
 10
54.32495815547378
 20
516.0654569251979
 30
0.0
 10
54.49020510539984
 20
516.1810817641373
 30
0.0
 10
54.62122268379513
 20
516.1961133823715
 30
0.0
 10
54.68673237178279
 20
516.2036292946066
 30
0.0
  0
LINE
  5
D9
330
1F
100
AcDbEntity
  8
0
  6
Continuous
 62
     7
370
    15
100
AcDbLine
 10
243.9612706802
 20
496.0681781864
 30
0.0
 11
243.9612706802
 21
497.4690549767
 31
0.0
  0
LINE
  5
DA
330
1F
100
AcDbEntity
  8
0
  6
Continuous
 62
     7
370
    15
100
AcDbLine
 10
240.3375317952
 20
496.0681781864
 30
0.0
 11
240.3375317952
 21
497.6292573607
 31
0.0
  0
LINE
  5
DB
330
1F
100
AcDbEntity
  8
0
  6
Continuous
 62
     7
370
    15
100
AcDbLine
 10
243.9612706802
 20
496.0681781864
 30
0.0
 11
240.3375317952
 21
496.0681781864
 31
0.0
  0
LINE
  5
DC
330
1F
100
AcDbEntity
  8
0
  6
Continuous
 62
     7
370
    15
100
AcDbLine
 10
236.0454646549
 20
496.0681781864
 30
0.0
 11
236.0454646549
 21
497.4892609513
 31
0.0
  0
LINE
  5
DD
330
1F
100
AcDbEntity
  8
0
  6
Continuous
 62
     7
370
    15
100
AcDbLine
 10
240.3375317952
 20
496.0681781864
 30
0.0
 11
236.0454646549
 21
496.0681781864
 31
0.0
  0
LINE
  5
DE
330
1F
100
AcDbEntity
  8
0
  6
Continuous
 62
     7
370
    15
100
AcDbLine
 10
235.3771363995
 20
496.0681781864
 30
0.0
 11
235.3771363995
 21
497.4094875848
 31
0.0
  0
LINE
  5
DF
330
1F
100
AcDbEntity
  8
0
  6
Continuous
 62
     7
370
    15
100
AcDbLine
 10
236.0454646549
 20
496.0681781864
 30
0.0
 11
235.3771363995
 21
496.0681781864
 31
0.0
  0
LINE
  5
E0
330
1F
100
AcDbEntity
  8
0
  6
Continuous
 62
     7
370
    15
100
AcDbLine
 10
327.1570874057
 20
494.4036290741
 30
0.0
 11
347.1570869586
 21
494.4036290741
 31
0.0
  0
LINE
  5
E1
330
1F
100
AcDbEntity
  8
0
  6
Continuous
 62
     7
370
    15
100
AcDbLine
 10
327.1570874057
 20
492.4036287462
 30
0.0
 11
347.1570869586
 21
492.4036287462
 31
0.0
  0
LINE
  5
E2
330
1F
100
AcDbEntity
  8
0
  6
Continuous
 62
     7
370
    15
100
AcDbLine
 10
337.1692036888
 20
485.4036294615
 30
0.0
 11
337.1692036888
 21
492.4036287462
 31
0.0
  0
LINE
  5
E3
330
1F
100
AcDbEntity
  8
0
  6
Continuous
 62
     7
370
    15
100
AcDbLine
 10
328.6692050895
 20
485.4036294615
 30
0.0
 11
328.6692050895
 21
492.4036287462
 31
0.0
  0
LINE
  5
E4
330
1F
100
AcDbEntity
  8
0
  6
Continuous
 62
     7
370
    15
100
AcDbLine
 10
337.1692036888
 20
485.4036294615
 30
0.0
 11
328.6692050895
 21
485.4036294615
 31
0.0
  0
LINE
  5
E5
330
1F
100
AcDbEntity
  8
0
  6
Continuous
 62
     7
370
    15
100
AcDbLine
 10
345.6692022881
 20
485.4036294615
 30
0.0
 11
345.6692022881
 21
492.4036287462
 31
0.0
  0
LINE
  5
E6
330
1F
100
AcDbEntity
  8
0
  6
Continuous
 62
     7
370
    15
100
AcDbLine
 10
345.6692022881
 20
485.4036294615
 30
0.0
 11
337.1692036888
 21
485.4036294615
 31
0.0
  0
LINE
  5
E7
330
1F
100
AcDbEntity
  8
0
  6
Continuous
 62
     7
370
    15
100
AcDbLine
 10
46.2561173043
 20
543.2520978844
 30
0.0
 11
46.2561173043
 21
523.2520983314
 31
0.0
  0
LINE
  5
E8
330
1F
100
AcDbEntity
  8
0
  6
Continuous
 62
     7
370
    15
100
AcDbLine
 10
39.2561180196
 20
523.3886749243
 30
0.0
 11
46.2561173043
 21
523.3886749243
 31
0.0
  0
LINE
  5
E9
330
1F
100
AcDbEntity
  8
0
  6
Continuous
 62
     7
370
    15
100
AcDbLine
 10
39.2561180196
 20
523.3886749243
 30
0.0
 11
39.2561180196
 21
528.2961525714
 31
0.0
  0
LINE
  5
EA
330
1F
100
AcDbEntity
  8
0
  6
Continuous
 62
     7
370
    15
100
AcDbLine
 10
39.2561180196
 20
528.2961525714
 30
0.0
 11
46.2561173043
 21
528.2961525714
 31
0.0
  0
LINE
  5
EB
330
1F
100
AcDbEntity
  8
0
  6
Continuous
 62
     7
370
    15
100
AcDbLine
 10
39.2561180196
 20
538.1111060029
 30
0.0
 11
46.2561173043
 21
538.1111060029
 31
0.0
  0
LINE
  5
EC
330
1F
100
AcDbEntity
  8
0
  6
Continuous
 62
     7
370
    15
100
AcDbLine
 10
39.2561180196
 20
538.1111060029
 30
0.0
 11
39.2561180196
 21
543.01858365
 31
0.0
  0
LINE
  5
ED
330
1F
100
AcDbEntity
  8
0
  6
Continuous
 62
     7
370
    15
100
AcDbLine
 10
39.2561180196
 20
543.01858365
 30
0.0
 11
46.2561173043
 21
543.01858365
 31
0.0
  0
LINE
  5
EE
330
1F
100
AcDbEntity
  8
0
  6
Continuous
 62
     7
370
    15
100
AcDbLine
 10
39.2561180196
 20
528.2961525714
 30
0.0
 11
39.2561180196
 21
538.1111060029
 31
0.0
  0
LINE
  5
EF
330
1F
100
AcDbEntity
  8
0
  6
Continuous
 62
     7
370
    15
100
AcDbLine
 10
46.2561173043
 20
613.2520981824
 30
0.0
 11
46.2561173043
 21
593.2520986294
 31
0.0
  0
LINE
  5
F0
330
1F
100
AcDbEntity
  8
0
  6
Continuous
 62
     7
370
    15
100
AcDbLine
 10
39.2561180196
 20
598.2961528694
 30
0.0
 11
46.2561173043
 21
598.2961528694
 31
0.0
  0
LINE
  5
F1
330
1F
100
AcDbEntity
  8
0
  6
Continuous
 62
     7
370
    15
100
AcDbLine
 10
39.2561180196
 20
598.2961528694
 30
0.0
 11
39.2561180196
 21
608.1111081636
 31
0.0
  0
LINE
  5
F2
330
1F
100
AcDbEntity
  8
0
  6
Continuous
 62
     7
370
    15
100
AcDbLine
 10
39.2561180196
 20
608.1111081636
 30
0.0
 11
46.2561173043
 21
608.1111081636
 31
0.0
  0
LINE
  5
F3
330
1F
100
AcDbEntity
  8
0
  6
Continuous
 62
     7
370
    15
100
AcDbLine
 10
39.2561180196
 20
593.3886752224
 30
0.0
 11
46.2561173043
 21
593.3886752224
 31
0.0
  0
LINE
  5
F4
330
1F
100
AcDbEntity
  8
0
  6
Continuous
 62
     7
370
    15
100
AcDbLine
 10
39.2561180196
 20
593.3886752224
 30
0.0
 11
39.2561180196
 21
598.2961528694
 31
0.0
  0
LINE
  5
F5
330
1F
100
AcDbEntity
  8
0
  6
Continuous
 62
     7
370
    15
100
AcDbLine
 10
39.2561180196
 20
608.1111081636
 30
0.0
 11
39.2561180196
 21
613.0185820853
 31
0.0
  0
LINE
  5
F6
330
1F
100
AcDbEntity
  8
0
  6
Continuous
 62
     7
370
    15
100
AcDbLine
 10
39.2561180196
 20
613.0185820853
 30
0.0
 11
46.2561173043
 21
613.0185820853
 31
0.0
  0
LINE
  5
F7
330
1F
100
AcDbEntity
  8
0
  6
Continuous
 62
     7
370
    15
100
AcDbLine
 10
257.1570871076
 20
494.4036290741
 30
0.0
 11
277.1570866606
 21
494.4036290741
 31
0.0
  0
LINE
  5
F8
330
1F
100
AcDbEntity
  8
0
  6
Continuous
 62
     7
370
    15
100
AcDbLine
 10
257.1570871076
 20
492.4036287462
 30
0.0
 11
277.1570866606
 21
492.4036287462
 31
0.0
  0
LINE
  5
F9
330
1F
100
AcDbEntity
  8
0
  6
Continuous
 62
     7
370
    15
100
AcDbLine
 10
267.1692033908
 20
485.4036294615
 30
0.0
 11
267.1692033908
 21
492.4036287462
 31
0.0
  0
LINE
  5
FA
330
1F
100
AcDbEntity
  8
0
  6
Continuous
 62
     7
370
    15
100
AcDbLine
 10
258.6692047915
 20
485.4036294615
 30
0.0
 11
258.6692047915
 21
492.4036287462
 31
0.0
  0
LINE
  5
FB
330
1F
100
AcDbEntity
  8
0
  6
Continuous
 62
     7
370
    15
100
AcDbLine
 10
267.1692033908
 20
485.4036294615
 30
0.0
 11
258.6692047915
 21
485.4036294615
 31
0.0
  0
LINE
  5
FC
330
1F
100
AcDbEntity
  8
0
  6
Continuous
 62
     7
370
    15
100
AcDbLine
 10
275.6692038527
 20
485.4036294615
 30
0.0
 11
275.6692038527
 21
492.4036287462
 31
0.0
  0
LINE
  5
FD
330
1F
100
AcDbEntity
  8
0
  6
Continuous
 62
     7
370
    15
100
AcDbLine
 10
275.6692038527
 20
485.4036294615
 30
0.0
 11
267.1692033908
 21
485.4036294615
 31
0.0
  0
LINE
  5
FE
330
1F
100
AcDbEntity
  8
0
  6
Continuous
 62
     7
370
    15
100
AcDbLine
 10
138.8908100924
 20
494.8036283946
 30
0.0
 11
145.4233599505
 21
494.8036283946
 31
0.0
  0
LINE
  5
FF
330
1F
100
AcDbEntity
  8
0
  6
Continuous
 62
     7
370
    15
100
AcDbLine
 10
132.1570796571
 20
492.8036280668
 30
0.0
 11
152.1570903859
 21
492.8036280668
 31
0.0
  0
LINE
  5
100
330
1F
100
AcDbEntity
  8
0
  6
Continuous
 62
     7
370
    15
100
AcDbLine
 10
142.1691996655
 20
485.803628782
 30
0.0
 11
142.1691996655
 21
492.8036280668
 31
0.0
  0
LINE
  5
101
330
1F
100
AcDbEntity
  8
0
  6
Continuous
 62
     7
370
    15
100
AcDbLine
 10
142.1691996655
 20
485.803628782
 30
0.0
 11
133.6692047915
 21
485.803628782
 31
0.0
  0
LINE
  5
102
330
1F
100
AcDbEntity
  8
0
  6
Continuous
 62
     7
370
    15
100
AcDbLine
 10
133.6692047915
 20
485.803628782
 30
0.0
 11
133.6692047915
 21
492.8036280668
 31
0.0
  0
LINE
  5
103
330
1F
100
AcDbEntity
  8
0
  6
Continuous
 62
     7
370
    15
100
AcDbLine
 10
150.6692094407
 20
485.803628782
 30
0.0
 11
150.6692094407
 21
492.8036280668
 31
0.0
  0
LINE
  5
104
330
1F
100
AcDbEntity
  8
0
  6
Continuous
 62
     7
370
    15
100
AcDbLine
 10
150.6692094407
 20
485.803628782
 30
0.0
 11
142.1691996655
 21
485.803628782
 31
0.0
  0
LINE
  5
105
330
1F
100
AcDbEntity
  8
0
  6
Continuous
 62
     7
370
    15
100
AcDbLine
 10
202.1570874057
 20
492.8036280668
 30
0.0
 11
222.1570832333
 21
492.8036280668
 31
0.0
  0
LINE
  5
106
330
1F
100
AcDbEntity
  8
0
  6
Continuous
 62
     7
370
    15
100
AcDbLine
 10
208.8908103904
 20
494.8036283946
 30
0.0
 11
215.4233602485
 21
494.8036283946
 31
0.0
  0
LINE
  5
107
330
1F
100
AcDbEntity
  8
0
  6
Continuous
 62
     7
370
    15
100
AcDbLine
 10
220.6692022881
 20
485.803628782
 30
0.0
 11
220.6692022881
 21
492.8036280668
 31
0.0
  0
LINE
  5
108
330
1F
100
AcDbEntity
  8
0
  6
Continuous
 62
     7
370
    15
100
AcDbLine
 10
220.6692022881
 20
485.803628782
 30
0.0
 11
212.1692074141
 21
485.803628782
 31
0.0
  0
LINE
  5
109
330
1F
100
AcDbEntity
  8
0
  6
Continuous
 62
     7
370
    15
100
AcDbLine
 10
212.1692074141
 20
485.803628782
 30
0.0
 11
212.1692074141
 21
492.8036280668
 31
0.0
  0
LINE
  5
10A
330
1F
100
AcDbEntity
  8
0
  6
Continuous
 62
     7
370
    15
100
AcDbLine
 10
212.1692074141
 20
485.803628782
 30
0.0
 11
203.6692050895
 21
485.803628782
 31
0.0
  0
LINE
  5
10B
330
1F
100
AcDbEntity
  8
0
  6
Continuous
 62
     7
370
    15
100
AcDbLine
 10
203.6692050895
 20
485.803628782
 30
0.0
 11
203.6692050895
 21
492.8036280668
 31
0.0
  0
LINE
  5
10C
330
1F
100
AcDbEntity
  8
0
  6
Continuous
 62
     7
370
    15
100
AcDbLine
 10
322.6692041061
 20
483.2036294734
 30
0.0
 11
281.6693235799
 21
483.2036294734
 31
0.0
  0
SPLINE
  5
10D
330
1F
100
AcDbEntity
  8
0
  6
Continuous
 62
     7
370
    15
100
AcDbSpline
210
0.0
220
0.0
230
1.0
 70
     8
 71
     3
 72
     9
 73
     5
 74
     0
 42
0.00000001
 43
0.00000001
 40
0.0
 40
0.0
 40
0.0
 40
0.0
 40
0.9162519666340772
 40
1.0
 40
1.0
 40
1.0
 40
1.0
 10
345.1034424504991
 20
497.758085349771
 30
0.0
 10
345.0354775160974
 20
497.7123588662734
 30
0.0
 10
344.9613003935629
 20
497.6624528522481
 30
0.0
 10
344.8851512582169
 20
497.6210703553472
 30
0.0
 10
344.8787739178891
 20
497.617604652616
 30
0.0
  0
SPLINE
  5
10E
330
1F
100
AcDbEntity
  8
0
  6
Continuous
 62
     7
370
    15
100
AcDbSpline
210
0.0
220
0.0
230
1.0
 70
     8
 71
     3
 72
     9
 73
     5
 74
     0
 42
0.00000001
 43
0.00000001
 40
0.0
 40
0.0
 40
0.0
 40
0.0
 40
0.917029827948699
 40
1.0
 40
1.0
 40
1.0
 40
1.0
 10
259.2322023263927
 20
497.7580518221583
 30
0.0
 10
259.3011794960686
 20
497.7125185262295
 30
0.0
 10
259.3763975179625
 20
497.662865511092
 30
0.0
 10
259.4532579048778
 20
497.6210722469337
 30
0.0
 10
259.4596350244041
 20
497.617604652616
 30
0.0
  0
LINE
  5
10F
330
1F
100
AcDbEntity
  8
0
  6
Continuous
 62
     7
370
    15
100
AcDbLine
 10
281.8253382719
 20
494.8036283946
 30
0.0
 11
280.6750189191
 21
494.8036283946
 31
0.0
  0
LINE
  5
110
330
1F
100
AcDbEntity
  8
0
  6
Continuous
 62
     7
370
    15
100
AcDbLine
 10
323.6633909545
 20
494.8036283946
 30
0.0
 11
322.5130697391
 21
494.8036283946
 31
0.0
  0
LINE
  5
111
330
1F
100
AcDbEntity
  8
0
  6
Continuous
 62
     7
370
    15
100
AcDbLine
 10
349.1692056558
 20
494.8036283946
 30
0.0
 11
343.1413395009
 21
494.8036283946
 31
0.0
  0
LINE
  5
112
330
1F
100
AcDbEntity
  8
0
  6
Continuous
 62
     7
370
    15
100
AcDbLine
 10
280.6750189191
 20
494.8036283946
 30
0.0
 11
261.1970675788
 21
494.8036283946
 31
0.0
  0
LINE
  5
113
330
1F
100
AcDbEntity
  8
0
  6
Continuous
 62
     7
370
    15
100
AcDbLine
 10
343.1413395009
 20
494.8036283946
 30
0.0
 11
323.6633909545
 21
494.8036283946
 31
0.0
  0
LINE
  5
114
330
1F
100
AcDbEntity
  8
0
  6
Continuous
 62
     7
370
    15
100
AcDbLine
 10
261.1970675788
 20
494.8036283946
 30
0.0
 11
255.1692051491
 21
494.8036283946
 31
0.0
  0
LINE
  5
115
330
1F
100
AcDbEntity
  8
0
  6
Continuous
 62
     7
370
    15
100
AcDbLine
 10
197.6692003808
 20
483.2036294734
 30
0.0
 11
156.6693259082
 21
483.2036294734
 31
0.0
  0
SPLINE
  5
116
330
1F
100
AcDbEntity
  8
0
  6
Continuous
 62
     7
370
    15
100
AcDbSpline
210
0.0
220
0.0
230
1.0
 70
     8
 71
     3
 72
     9
 73
     5
 74
     0
 42
0.00000001
 43
0.00000001
 40
0.0
 40
0.0
 40
0.0
 40
0.0
 40
0.9162288915278196
 40
1.0
 40
1.0
 40
1.0
 40
1.0
 10
220.1034424504991
 20
497.758085349771
 30
0.0
 10
220.0354821543406
 20
497.7123536742781
 30
0.0
 10
219.9613082259839
 20
497.6624407366752
 30
0.0
 10
219.8851500476196
 20
497.6210702999578
 30
0.0
 10
219.8787701925988
 20
497.617604652616
 30
0.0
  0
SPLINE
  5
117
330
1F
100
AcDbEntity
  8
0
  6
Continuous
 62
     7
370
    15
100
AcDbSpline
210
0.0
220
0.0
230
1.0
 70
     8
 71
     3
 72
     9
 73
     5
 74
     0
 42
0.00000001
 43
0.00000001
 40
0.0
 40
0.0
 40
0.0
 40
0.0
 40
0.9170367661071376
 40
1.0
 40
1.0
 40
1.0
 40
1.0
 10
134.2322004637475
 20
497.7580518221583
 30
0.0
 10
134.3011805479106
 20
497.7125201204826
 30
0.0
 10
134.3764011788738
 20
497.6628692194953
 30
0.0
 10
134.4532603977008
 20
497.6210722632712
 30
0.0
 10
134.4596368870492
 20
497.617604652616
 30
0.0
  0
LINE
  5
118
330
1F
100
AcDbEntity
  8
0
  6
Continuous
 62
     7
370
    15
100
AcDbLine
 10
156.8253410659
 20
494.8036283946
 30
0.0
 11
155.6750161252
 21
494.8036283946
 31
0.0
  0
LINE
  5
119
330
1F
100
AcDbEntity
  8
0
  6
Continuous
 62
     7
370
    15
100
AcDbLine
 10
198.6633909545
 20
494.8036283946
 30
0.0
 11
197.5130734644
 21
494.8036283946
 31
0.0
  0
LINE
  5
11A
330
1F
100
AcDbEntity
  8
0
  6
Continuous
 62
     7
370
    15
100
AcDbLine
 10
224.1692019305
 20
494.8036283946
 30
0.0
 11
218.1413395009
 21
494.8036283946
 31
0.0
  0
LINE
  5
11B
330
1F
100
AcDbEntity
  8
0
  6
Continuous
 62
     7
370
    15
100
AcDbLine
 10
218.1413395009
 20
494.8036283946
 30
0.0
 11
215.4233602485
 21
494.8036283946
 31
0.0
  0
LINE
  5
11C
330
1F
100
AcDbEntity
  8
0
  6
Continuous
 62
     7
370
    15
100
AcDbLine
 10
208.8908103904
 20
494.8036283946
 30
0.0
 11
198.6633909545
 21
494.8036283946
 31
0.0
  0
LINE
  5
11D
330
1F
100
AcDbEntity
  8
0
  6
Continuous
 62
     7
370
    15
100
AcDbLine
 10
155.6750161252
 20
494.8036283946
 30
0.0
 11
145.4233599505
 21
494.8036283946
 31
0.0
  0
LINE
  5
11E
330
1F
100
AcDbEntity
  8
0
  6
Continuous
 62
     7
370
    15
100
AcDbLine
 10
138.8908100924
 20
494.8036283946
 30
0.0
 11
136.1970675788
 21
494.8036283946
 31
0.0
  0
LINE
  5
11F
330
1F
100
AcDbEntity
  8
0
  6
Continuous
 62
     7
370
    15
100
AcDbLine
 10
136.1970675788
 20
494.8036283946
 30
0.0
 11
130.1692051491
 21
494.8036283946
 31
0.0
  0
ARC
  5
120
330
1F
100
AcDbEntity
  8
0
  6
Continuous
 62
     7
370
    15
100
AcDbCircle
 10
50.1692040695
 20
79.9675109677
 30
0.0
 40
2.000000000000007
100
AcDbArc
 50
180.0
 51
270.0
  0
LINE
  5
121
330
1F
100
AcDbEntity
  8
0
  6
Continuous
 62
     7
370
    15
100
AcDbLine
 10
50.1692069373
 20
77.9675107329
 30
0.0
 11
53.8673771224
 21
77.9675107329
 31
0.0
  0
ARC
  5
122
330
1F
100
AcDbEntity
  8
0
  6
Continuous
 62
     7
370
    15
100
AcDbCircle
 10
50.1692040695
 20
125.9702686844
 30
0.0
 40
2.000000000000007
100
AcDbArc
 50
90.0
 51
180.0
  0
LINE
  5
123
330
1F
100
AcDbEntity
  8
0
  6
Continuous
 62
     7
370
    15
100
AcDbLine
 10
54.9023372731
 20
127.9702681928
 30
0.0
 11
50.1692069373
 21
127.9702681928
 31
0.0
  0
ARC
  5
124
330
1F
100
AcDbEntity
  8
0
  6
Continuous
 62
     7
370
    15
100
AcDbCircle
 10
291.1692040695
 20
108.968889826
 30
0.0
 40
1.0
100
AcDbArc
 50
180.0
 51
270.0
  0
LINE
  5
125
330
1F
100
AcDbEntity
  8
0
  6
Continuous
 62
     7
370
    15
100
AcDbLine
 10
290.1692040176
 20
109.1535512238
 30
0.0
 11
290.1692040176
 21
108.9688885837
 31
0.0
  0
SPLINE
  5
126
330
1F
100
AcDbEntity
  8
0
  6
Continuous
 62
     7
370
    15
100
AcDbSpline
210
0.0
220
0.0
230
1.0
 70
     8
 71
     3
 72
     9
 73
     5
 74
     0
 42
0.00000001
 43
0.00000001
 40
0.0
 40
0.0
 40
0.0
 40
0.0
 40
0.497421697965935
 40
1.0
 40
1.0
 40
1.0
 40
1.0
 10
54.29240294310997
 20
85.68533620524974
 30
0.0
 10
54.21857806567984
 20
85.58379058149451
 30
0.0
 10
54.07016299305212
 20
85.37964664452821
 30
0.0
 10
54.18937867085177
 20
85.11993595610939
 30
0.0
 10
54.2492938837762
 20
84.98941099930377
 30
0.0
  0
SPLINE
  5
127
330
1F
100
AcDbEntity
  8
0
  6
Continuous
 62
     7
370
    15
100
AcDbSpline
210
0.0
220
0.0
230
1.0
 70
     8
 71
     3
 72
     9
 73
     5
 74
     0
 42
0.00000001
 43
0.00000001
 40
0.0
 40
0.0
 40
0.0
 40
0.0
 40
0.4962150999279879
 40
1.0
 40
1.0
 40
1.0
 40
1.0
 10
58.88805516574336
 20
353.6067653327045
 30
0.0
 10
58.87929580037684
 20
353.3019142788645
 30
0.0
 10
58.86164344484043
 20
352.6875616445243
 30
0.0
 10
58.9748595237484
 20
352.0324580389328
 30
0.0
 10
59.03189607474757
 20
351.7024267344532
 30
0.0
  0
SPLINE
  5
128
330
1F
100
AcDbEntity
  8
0
  6
Continuous
 62
     7
370
    15
100
AcDbSpline
210
0.0
220
0.0
230
1.0
 70
     8
 71
     3
 72
    13
 73
     9
 74
     0
 42
0.00000001
 43
0.00000001
 40
0.0
 40
0.0
 40
0.0
 40
0.0
 40
0.1246288327251848
 40
0.2874789081883435
 40
0.4814574839545626
 40
0.6354796399179503
 40
0.8086134978641216
 40
1.0
 40
1.0
 40
1.0
 40
1.0
 10
86.36232443664024
 20
388.9769364028034
 30
0.0
 10
85.59410630941532
 20
388.7103869877762
 30
0.0
 10
83.82207247393767
 20
388.0955426284521
 30
0.0
 10
81.00143558668796
 20
386.8195767908729
 30
0.0
 10
77.99217686210166
 20
385.1608661264301
 30
0.0
 10
74.9543382474984
 20
383.1084191855597
 30
0.0
 10
71.98985162026244
 20
380.7597413874292
 30
0.0
 10
70.06400643261954
 20
378.7595612086386
 30
0.0
 10
69.05286737296534
 20
377.7093935637531
 30
0.0
  0
LINE
  5
129
330
1F
100
AcDbEntity
  8
0
  6
Continuous
 62
     7
370
    15
100
AcDbLine
 10
46.2561173043
 20
92.956771317
 30
0.0
 11
48.1692028842
 21
92.956771317
 31
0.0
  0
LINE
  5
12A
330
1F
100
AcDbEntity
  8
0
  6
Continuous
 62
     7
370
    15
100
AcDbLine
 10
48.1692028842
 20
112.9567745953
 30
0.0
 11
46.2561173043
 21
112.9567745953
 31
0.0
  0
ARC
  5
12B
330
1F
100
AcDbEntity
  8
0
  6
Continuous
 62
     7
370
    15
100
AcDbCircle
 10
302.1692040695
 20
102.968889826
 30
0.0
 40
8.500000000000004
100
AcDbArc
 50
143.9681209275
 51
180.0
  0
ARC
  5
12C
330
1F
100
AcDbEntity
  8
0
  6
Continuous
 62
     7
370
    15
100
AcDbCircle
 10
302.1692040695
 20
102.968889826
 30
0.0
 40
8.500000000000048
100
AcDbArc
 50
180.0
 51
36.0318790725
  0
CIRCLE
  5
12D
330
1F
100
AcDbEntity
  8
0
  6
Continuous
 62
     7
370
    15
100
AcDbCircle
 10
302.1692040695
 20
102.968889826
 30
0.0
 40
5.0
  0
LINE
  5
12E
330
1F
100
AcDbEntity
  8
0
  6
Continuous
 62
     7
370
    15
100
AcDbLine
 10
48.1692028842
 20
94.7127278774
 30
0.0
 11
48.1692028842
 21
111.2250510483
 31
0.0
  0
LINE
  5
12F
330
1F
100
AcDbEntity
  8
0
  6
Continuous
 62
     7
370
    15
100
AcDbLine
 10
48.1692028842
 20
79.9675110607
 30
0.0
 11
48.1692028842
 21
94.7127278774
 31
0.0
  0
LINE
  5
130
330
1F
100
AcDbEntity
  8
0
  6
Continuous
 62
     7
370
    15
100
AcDbLine
 10
48.1692028842
 20
111.2250510483
 30
0.0
 11
48.1692028842
 21
125.9702715902
 31
0.0
  0
SPLINE
  5
131
330
1F
100
AcDbEntity
  8
0
  6
Continuous
 62
     7
370
    15
100
AcDbSpline
210
0.0
220
0.0
230
1.0
 70
     8
 71
     3
 72
    10
 73
     6
 74
     0
 42
0.00000001
 43
0.00000001
 40
0.0
 40
0.0
 40
0.0
 40
0.0
 40
0.0037745572224147
 40
0.6356604743228224
 40
1.0
 40
1.0
 40
1.0
 40
1.0
 10
46.16919883105705
 20
89.48165661383243
 30
0.0
 10
46.17138933865824
 20
89.48175941956418
 30
0.0
 10
46.54028534917279
 20
89.49907258674058
 30
0.0
 10
47.11568054314963
 20
89.56119452111793
 30
0.0
 10
47.88708491192006
 20
89.62256041191979
 30
0.0
 10
48.16920288417293
 20
89.64500314283939
 30
0.0
  0
LINE
  5
132
330
1F
100
AcDbEntity
  8
0
  6
Continuous
 62
     7
370
    15
100
AcDbLine
 10
46.1691988311
 20
94.4688890009
 30
0.0
 11
46.1691988311
 21
89.4816566138
 31
0.0
  0
SPLINE
  5
133
330
1F
100
AcDbEntity
  8
0
  6
Continuous
 62
     7
370
    15
100
AcDbSpline
210
0.0
220
0.0
230
1.0
 70
     8
 71
     3
 72
    10
 73
     6
 74
     0
 42
0.00000001
 43
0.00000001
 40
0.0
 40
0.0
 40
0.0
 40
0.0
 40
0.3643395398760239
 40
0.9962253960466586
 40
0.9999999999999999
 40
0.9999999999999999
 40
0.9999999999999999
 40
0.9999999999999999
 10
48.16920288417293
 20
116.2927795081195
 30
0.0
 10
47.887085202717
 20
116.3152353899196
 30
0.0
 10
47.11568169532973
 20
116.3766372343294
 30
0.0
 10
46.54028075763425
 20
116.4384991731759
 30
0.0
 10
46.17138933856241
 20
116.4560219852312
 30
0.0
 10
46.16919883105708
 20
116.4561260371265
 30
0.0
  0
LINE
  5
134
330
1F
100
AcDbEntity
  8
0
  6
Continuous
 62
     7
370
    15
100
AcDbLine
 10
46.1691988311
 20
116.4561260371
 30
0.0
 11
46.1691988311
 21
111.4688861995
 31
0.0
  0
SPLINE
  5
135
330
1F
100
AcDbEntity
  8
0
  6
Continuous
 62
     7
370
    15
100
AcDbSpline
210
0.0
220
0.0
230
1.0
 70
     8
 71
     3
 72
    12
 73
     8
 74
     0
 42
0.00000001
 43
0.00000001
 40
0.0
 40
0.0
 40
0.0
 40
0.0
 40
0.2149797421378215
 40
0.4299835208477086
 40
0.6448669239303717
 40
0.8594451344797963
 40
1.0
 40
1.0
 40
1.0
 40
1.0
 10
48.16920288417293
 20
87.47695496965022
 30
0.0
 10
48.14706561266238
 20
87.70231423881947
 30
0.0
 10
48.10278859450518
 20
88.15305797424983
 30
0.0
 10
47.75770240855512
 20
88.753822565199
 30
0.0
 10
47.24990538317545
 20
89.2073792980222
 30
0.0
 10
46.68749528758489
 20
89.44754130133377
 30
0.0
 10
46.31616445727996
 20
89.47198304149364
 30
0.0
 10
46.16919883105708
 20
89.48165661383243
 30
0.0
  0
SPLINE
  5
136
330
1F
100
AcDbEntity
  8
0
  6
Continuous
 62
     7
370
    15
100
AcDbSpline
210
0.0
220
0.0
230
1.0
 70
     8
 71
     3
 72
    12
 73
     8
 74
     0
 42
0.00000001
 43
0.00000001
 40
0.0
 40
0.0
 40
0.0
 40
0.0
 40
0.1405548630131357
 40
0.3551321647199123
 40
0.5700163549918046
 40
0.7850190900868357
 40
1.0
 40
1.0
 40
1.0
 40
1.0
 10
46.16919883105708
 20
116.4561260371265
 30
0.0
 10
46.31616427300225
 20
116.4658000036308
 30
0.0
 10
46.68749369140946
 20
116.4902426774198
 30
0.0
 10
47.24990867757064
 20
116.7303936024507
 30
0.0
 10
47.75769967624222
 20
117.183956624306
 30
0.0
 10
48.10279026743919
 20
117.784718702078
 30
0.0
 10
48.14706609438166
 20
118.2354631643592
 30
0.0
 10
48.1692028841729
 20
118.4608239560184
 30
0.0
  0
LINE
  5
137
330
1F
100
AcDbEntity
  8
0
  6
Continuous
 62
     7
370
    15
100
AcDbLine
 10
46.1691988311
 20
89.4816566138
 30
0.0
 11
46.1691988311
 21
89.468890044
 31
0.0
  0
LINE
  5
138
330
1F
100
AcDbEntity
  8
0
  6
Continuous
 62
     7
370
    15
100
AcDbLine
 10
46.1691988311
 20
116.4688888817
 30
0.0
 11
46.1691988311
 21
116.4561260371
 31
0.0
  0
LINE
  5
139
330
1F
100
AcDbEntity
  8
0
  6
Continuous
 62
     7
370
    15
100
AcDbLine
 10
306.1692041955
 20
107.9688865571
 30
0.0
 11
291.1692040651
 21
107.9688865571
 31
0.0
  0
LINE
  5
13A
330
1F
100
AcDbEntity
  8
0
  6
Continuous
 62
     7
370
    15
100
AcDbLine
 10
314.7091397694
 20
107.9688865571
 30
0.0
 11
306.1692041955
 21
107.9688865571
 31
0.0
  0
LINE
  5
13B
330
1F
100
AcDbEntity
  8
0
  6
Continuous
 62
     7
370
    15
100
AcDbLine
 10
52.1692109904
 20
37.9688897515
 30
0.0
 11
52.1692109904
 21
35.9688898312
 31
0.0
  0
SPLINE
  5
13C
330
1F
100
AcDbEntity
  8
0
  6
Continuous
 62
     7
370
    15
100
AcDbSpline
210
0.0
220
0.0
230
1.0
 70
    24
 71
     3
 72
    15
 73
    11
 74
     0
 42
0.00000001
 43
0.00000001
 40
0.0
 40
0.0
 40
0.0
 40
0.0
 40
0.1249999061554403
 40
0.2500000463979209
 40
0.3749998737480401
 40
0.4999999066899422
 40
0.6250000435589652
 40
0.7499999381615392
 40
0.875000125958866
 40
0.9999999999999999
 40
0.9999999999999999
 40
0.9999999999999999
 40
0.9999999999999999
 10
66.66920312259147
 20
37.9688897515443
 30
0.0
 10
65.72018648496183
 20
37.9688897515443
 30
0.0
 10
63.82215143248121
 20
37.9688897515443
 30
0.0
 10
61.08456013351771
 20
37.9688897515443
 30
0.0
 10
58.56138320080328
 20
37.9688897515443
 30
0.0
 10
56.35054946857182
 20
37.9688897515443
 30
0.0
 10
54.53338181933928
 20
37.9688897515443
 30
0.0
 10
53.19331155012657
 20
37.9688897515443
 30
0.0
 10
52.33109694794649
 20
37.9688897515443
 30
0.0
 10
52.22317293110282
 20
37.9688897515443
 30
0.0
 10
52.16921099040461
 20
37.9688897515443
 30
0.0
  0
SPLINE
  5
13D
330
1F
100
AcDbEntity
  8
0
  6
Continuous
 62
     7
370
    15
100
AcDbSpline
210
0.0
220
0.0
230
1.0
 70
    24
 71
     3
 72
    15
 73
    11
 74
     0
 42
0.00000001
 43
0.00000001
 40
0.0
 40
0.0
 40
0.0
 40
0.0
 40
0.1249998740411339
 40
0.2500000618384606
 40
0.3749999564410346
 40
0.5000000933100577
 40
0.6250001262519598
 40
0.749999953602079
 40
0.8750000938445597
 40
0.9999999999999999
 40
0.9999999999999999
 40
0.9999999999999999
 40
0.9999999999999999
 10
52.16921099040459
 20
35.96888983117238
 30
0.0
 10
52.22317293110276
 20
35.96888983117238
 30
0.0
 10
52.33109694794641
 20
35.96888983117238
 30
0.0
 10
53.19331155012657
 20
35.96888983117238
 30
0.0
 10
54.53338181933934
 20
35.96888983117238
 30
0.0
 10
56.35054946857176
 20
35.96888983117238
 30
0.0
 10
58.56138320080334
 20
35.96888983117238
 30
0.0
 10
61.08456013351765
 20
35.96888983117238
 30
0.0
 10
63.82215143248124
 20
35.96888983117238
 30
0.0
 10
65.72018648496186
 20
35.96888983117238
 30
0.0
 10
66.66920312259147
 20
35.96888983117238
 30
0.0
  0
LINE
  5
13E
330
1F
100
AcDbEntity
  8
0
  6
Continuous
 62
     7
370
    15
100
AcDbLine
 10
66.6692031226
 20
35.9688898312
 30
0.0
 11
367.6692021689
 21
35.9688898312
 31
0.0
  0
LINE
  5
13F
330
1F
100
AcDbEntity
  8
0
  6
Continuous
 62
     7
370
    15
100
AcDbLine
 10
367.6692021689
 20
37.9688897515
 30
0.0
 11
66.6692031226
 21
37.9688897515
 31
0.0
  0
LINE
  5
140
330
1F
100
AcDbEntity
  8
0
  6
Continuous
 62
     7
370
    15
100
AcDbLine
 10
382.1692017517
 20
37.9688897515
 30
0.0
 11
382.1692017517
 21
35.9688898312
 31
0.0
  0
SPLINE
  5
141
330
1F
100
AcDbEntity
  8
0
  6
Continuous
 62
     7
370
    15
100
AcDbSpline
210
0.0
220
0.0
230
1.0
 70
    24
 71
     3
 72
    15
 73
    11
 74
     0
 42
0.00000001
 43
0.00000001
 40
0.0
 40
0.0
 40
0.0
 40
0.0
 40
0.1249998763442191
 40
0.2499999392207845
 40
0.3749998040121401
 40
0.4999999110698868
 40
0.6249999142005375
 40
0.7500000006940978
 40
0.874999797591063
 40
1.0
 40
1.0
 40
1.0
 40
1.0
 10
382.1692017516847
 20
37.9688897515443
 30
0.0
 10
382.1152359275386
 20
37.9688897515443
 30
0.0
 10
382.0073041987155
 20
37.9688897515443
 30
0.0
 10
381.1451038675445
 20
37.9688897515443
 30
0.0
 10
379.8050301534104
 20
37.9688897515443
 30
0.0
 10
377.9878633354139
 20
37.9688897515443
 30
0.0
 10
375.7770283594907
 20
37.9688897515443
 30
0.0
 10
373.2538485604828
 20
37.9688897515443
 30
0.0
 10
370.5162569493443
 20
37.9688897515443
 30
0.0
 10
368.6182214552944
 20
37.9688897515443
 30
0.0
 10
367.6692021689172
 20
37.9688897515443
 30
0.0
  0
SPLINE
  5
142
330
1F
100
AcDbEntity
  8
0
  6
Continuous
 62
     7
370
    15
100
AcDbSpline
210
0.0
220
0.0
230
1.0
 70
    24
 71
     3
 72
    15
 73
    11
 74
     0
 42
0.00000001
 43
0.00000001
 40
0.0
 40
0.0
 40
0.0
 40
0.0
 40
0.1250002024089369
 40
0.2499999993059023
 40
0.3750000857994626
 40
0.5000000889301133
 40
0.6250001959878599
 40
0.7500000607792155
 40
0.8750001236557808
 40
1.0
 40
1.0
 40
1.0
 40
1.0
 10
367.6692021689172
 20
35.96888983117238
 30
0.0
 10
368.6182214552944
 20
35.96888983117238
 30
0.0
 10
370.5162569493443
 20
35.96888983117238
 30
0.0
 10
373.2538485604829
 20
35.96888983117238
 30
0.0
 10
375.7770283594907
 20
35.96888983117238
 30
0.0
 10
377.9878633354139
 20
35.96888983117238
 30
0.0
 10
379.8050301534104
 20
35.96888983117238
 30
0.0
 10
381.1451038675446
 20
35.96888983117238
 30
0.0
 10
382.0073041987155
 20
35.96888983117238
 30
0.0
 10
382.1152359275387
 20
35.96888983117238
 30
0.0
 10
382.1692017516847
 20
35.96888983117238
 30
0.0
  0
LINE
  5
143
330
1F
100
AcDbEntity
  8
0
  6
Continuous
 62
     7
370
    15
100
AcDbLine
 10
380.3485108218
 20
84.9863413601
 30
0.0
 11
381.1692071757
 21
37.9688897515
 31
0.0
  0
LINE
  5
144
330
1F
100
AcDbEntity
  8
0
  6
Continuous
 62
     7
370
    15
100
AcDbLine
 10
53.1691981158
 20
37.9688897515
 30
0.0
 11
53.9898944697
 21
84.9863413601
 31
0.0
  0
SPLINE
  5
145
330
1F
100
AcDbEntity
  8
0
  6
Continuous
 62
     7
370
    15
100
AcDbSpline
210
0.0
220
0.0
230
1.0
 70
     8
 71
     3
 72
     9
 73
     5
 74
     0
 42
0.00000001
 43
0.00000001
 40
0.0
 40
0.0
 40
0.0
 40
0.0
 40
0.5000057668220215
 40
1.0
 40
1.0
 40
1.0
 40
1.0
 10
137.6065237126107
 20
85.96889040160747
 30
0.0
 10
137.6997002069893
 20
85.96225377287081
 30
0.0
 10
137.8860510464422
 20
85.94898066848481
 30
0.0
 10
138.0513675302965
 20
85.86195625686143
 30
0.0
 10
138.1340248188729
 20
85.81844455290408
 30
0.0
  0
SPLINE
  5
146
330
1F
100
AcDbEntity
  8
0
  6
Continuous
 62
     7
370
    15
100
AcDbSpline
210
0.0
220
0.0
230
1.0
 70
     8
 71
     3
 72
     9
 73
     5
 74
     0
 42
0.00000001
 43
0.00000001
 40
0.0
 40
0.0
 40
0.0
 40
0.0
 40
0.4999989735960635
 40
1.0
 40
1.0
 40
1.0
 40
1.0
 10
263.1340304068084
 20
85.81844455290408
 30
0.0
 10
263.0513718608065
 20
85.86195625453502
 30
0.0
 10
262.8860544294378
 20
85.94897983643956
 30
0.0
 10
262.699703229261
 20
85.96225353746873
 30
0.0
 10
262.606527437901
 20
85.96889040160747
 30
0.0
  0
SPLINE
  5
147
330
1F
100
AcDbEntity
  8
0
  6
Continuous
 62
     7
370
    15
100
AcDbSpline
210
0.0
220
0.0
230
1.0
 70
     8
 71
     3
 72
     9
 73
     5
 74
     0
 42
0.00000001
 43
0.00000001
 40
0.0
 40
0.0
 40
0.0
 40
0.0
 40
0.4999993611262599
 40
1.0
 40
1.0
 40
1.0
 40
1.0
 10
341.731879641747
 20
85.96889040160747
 30
0.0
 10
341.6387044917585
 20
85.96225345477507
 30
0.0
 10
341.4523539536727
 20
85.94897954414962
 30
0.0
 10
341.2870370786252
 20
85.86195625371718
 30
0.0
 10
341.2043785354848
 20
85.81844455290408
 30
0.0
  0
SPLINE
  5
148
330
1F
100
AcDbEntity
  8
0
  6
Continuous
 62
     7
370
    15
100
AcDbSpline
210
0.0
220
0.0
230
1.0
 70
     8
 71
     3
 72
     9
 73
     5
 74
     0
 42
0.00000001
 43
0.00000001
 40
0.0
 40
0.0
 40
0.0
 40
0.0
 40
0.499999616549867
 40
1.0
 40
1.0
 40
1.0
 40
1.0
 10
216.7318833670373
 20
85.96889040160747
 30
0.0
 10
216.6387069959501
 20
85.96225346745872
 30
0.0
 10
216.4523541108616
 20
85.94897958898157
 30
0.0
 10
216.2870346193447
 20
85.86195625384266
 30
0.0
 10
216.2043748101945
 20
85.81844455290408
 30
0.0
  0
SPLINE
  5
149
330
1F
100
AcDbEntity
  8
0
  6
Continuous
 62
     7
370
    15
100
AcDbSpline
210
0.0
220
0.0
230
1.0
 70
     8
 71
     3
 72
    19
 73
    15
 74
     0
 42
0.00000001
 43
0.00000001
 40
0.0
 40
0.0
 40
0.0
 40
0.0
 40
0.0851776679784695
 40
0.1696173610837741
 40
0.2533192429336837
 40
0.3362835040627015
 40
0.4185103715933355
 40
0.4999999992719415
 40
0.5814896439261594
 40
0.6637165023375656
 40
0.7466807724327776
 40
0.8303826596582409
 40
0.9148223320215304
 40
1.0
 40
1.0
 40
1.0
 40
1.0
 10
341.2043785354848
 20
85.81844455290408
 30
0.0
 10
339.1870885120859
 20
84.6409805241204
 30
0.0
 10
335.1699861608449
 20
82.29625395349105
 30
0.0
 10
328.7861681735109
 20
79.53077122849209
 30
0.0
 10
322.2516748795458
 20
77.35053114015192
 30
0.0
 10
315.5970790103325
 20
75.80867908042113
 30
0.0
 10
308.890960843275
 20
74.88862617142334
 30
0.0
 10
302.1692040088562
 20
74.58425506814554
 30
0.0
 10
295.4474474060251
 20
74.88862604742936
 30
0.0
 10
288.7413288110878
 20
75.8086792345637
 30
0.0
 10
282.0867327898308
 20
77.35053115625662
 30
0.0
 10
275.5522394557096
 20
79.53077069961584
 30
0.0
 10
269.1684223884502
 20
82.29625446665322
 30
0.0
 10
265.1513204630493
 20
84.64098059981644
 30
0.0
 10
263.1340304068084
 20
85.81844455290408
 30
0.0
  0
SPLINE
  5
14A
330
1F
100
AcDbEntity
  8
0
  6
Continuous
 62
     7
370
    15
100
AcDbSpline
210
0.0
220
0.0
230
1.0
 70
     8
 71
     3
 72
    19
 73
    15
 74
     0
 42
0.00000001
 43
0.00000001
 40
0.0
 40
0.0
 40
0.0
 40
0.0
 40
0.0851776265585709
 40
0.169617276359513
 40
0.2533191564049941
 40
0.3362834378161162
 40
0.4185103484687788
 40
0.4999999630735733
 40
0.5814895776783677
 40
0.6637164883310304
 40
0.746680681459629
 40
0.83038256150511
 40
0.9148222942741125
 40
1.0
 40
1.0
 40
1.0
 40
1.0
 10
216.2043748101945
 20
85.81844455290408
 30
0.0
 10
214.1870860299813
 20
84.64098055437574
 30
0.0
 10
210.16998620747
 20
82.29625407500593
 30
0.0
 10
203.7861709734798
 20
79.53077049255141
 30
0.0
 10
197.2516780135014
 20
77.35053096461294
 30
0.0
 10
190.5970802642213
 20
75.80867885834192
 30
0.0
 10
183.8909605023119
 20
74.88862650102223
 30
0.0
 10
177.1692035306954
 20
74.58425487909251
 30
0.0
 10
170.4474466140156
 20
74.88862664984939
 30
0.0
 10
163.7413290853024
 20
75.80867792522464
 30
0.0
 10
157.0867342566685
 20
77.35053205556456
 30
0.0
 10
150.5522416868409
 20
79.53077186806806
 30
0.0
 10
144.1684209703112
 20
82.29625385640193
 30
0.0
 10
140.1513160870898
 20
84.64098050203047
 30
0.0
 10
138.1340248188729
 20
85.81844455290408
 30
0.0
  0
LINE
  5
14B
330
1F
100
AcDbEntity
  8
0
  6
Continuous
 62
     7
370
    15
100
AcDbLine
 10
355.1692066393
 20
85.9688904016
 30
0.0
 11
341.7318796417
 21
85.9688904016
 31
0.0
  0
LINE
  5
14C
330
1F
100
AcDbEntity
  8
0
  6
Continuous
 62
     7
370
    15
100
AcDbLine
 10
137.6065237126
 20
85.9688904016
 30
0.0
 11
124.169207891
 21
85.9688904016
 31
0.0
  0
LINE
  5
14D
330
1F
100
AcDbEntity
  8
0
  6
Continuous
 62
     7
370
    15
100
AcDbLine
 10
262.6065274379
 20
85.9688904016
 30
0.0
 11
249.1692041657
 21
85.9688904016
 31
0.0
  0
LINE
  5
14E
330
1F
100
AcDbEntity
  8
0
  6
Continuous
 62
     7
370
    15
100
AcDbLine
 10
243.6692041955
 20
85.9688904016
 30
0.0
 11
235.6692028842
 21
85.9688904016
 31
0.0
  0
LINE
  5
14F
330
1F
100
AcDbEntity
  8
0
  6
Continuous
 62
     7
370
    15
100
AcDbLine
 10
230.169202914
 20
85.9688904016
 30
0.0
 11
216.731883367
 21
85.9688904016
 31
0.0
  0
SPLINE
  5
150
330
1F
100
AcDbEntity
  8
0
  6
Continuous
 62
     7
370
    15
100
AcDbSpline
210
0.0
220
0.0
230
1.0
 70
    24
 71
     3
 72
    11
 73
     7
 74
     0
 42
0.00000001
 43
0.00000001
 40
0.0
 40
0.0
 40
0.0
 40
0.0
 40
0.2482412940504807
 40
0.4999804690215267
 40
0.7517308043811258
 40
1.0
 40
1.0
 40
1.0
 40
1.0
 10
374.5839072069879
 20
85.96889040160747
 30
0.0
 10
374.0214102886368
 20
85.96889040160747
 30
0.0
 10
372.8884905053427
 20
85.96889040160747
 30
0.0
 10
370.9596018753097
 20
85.96889040160747
 30
0.0
 10
368.9309259227026
 20
85.9688904016075
 30
0.0
 10
367.5407956924098
 20
85.9688904016075
 30
0.0
 10
366.8505696258302
 20
85.96889040160747
 30
0.0
  0
SPLINE
  5
151
330
1F
100
AcDbEntity
  8
0
  6
Continuous
 62
     7
370
    15
100
AcDbSpline
210
0.0
220
0.0
230
1.0
 70
    24
 71
     3
 72
    11
 73
     7
 74
     0
 42
0.00000001
 43
0.00000001
 40
0.0
 40
0.0
 40
0.0
 40
0.0
 40
0.2468015723689086
 40
0.5000199779147169
 40
0.7532275214368269
 40
1.0
 40
1.0
 40
1.0
 40
1.0
 10
379.3486652574296
 20
85.96889040160747
 30
0.0
 10
379.2889041618411
 20
85.96889040160747
 30
0.0
 10
379.1678281840445
 20
85.96889040160747
 30
0.0
 10
378.1806621912018
 20
85.96889040160747
 30
0.0
 10
376.6815035362748
 20
85.96889040160747
 30
0.0
 10
375.2770807079185
 20
85.9688904016075
 30
0.0
 10
374.5839072069879
 20
85.96889040160747
 30
0.0
  0
SPLINE
  5
152
330
1F
100
AcDbEntity
  8
0
  6
Continuous
 62
     7
370
    15
100
AcDbSpline
210
0.0
220
0.0
230
1.0
 70
     8
 71
     3
 72
    11
 73
     7
 74
     0
 42
0.00000001
 43
0.00000001
 40
0.0
 40
0.0
 40
0.0
 40
0.0
 40
0.2500013877389442
 40
0.5000017007990266
 40
0.750001292612424
 40
1.0
 40
1.0
 40
1.0
 40
1.0
 10
380.348510821795
 20
84.98634136009784
 30
0.0
 10
380.3315600767941
 20
85.11564627810247
 30
0.0
 10
380.2976586596583
 20
85.3742555582698
 30
0.0
 10
380.0655919145111
 20
85.69844274118243
 30
0.0
 10
379.7374033465842
 20
85.92481032950633
 30
0.0
 10
379.4782444676761
 20
85.95419706156737
 30
0.0
 10
379.3486652574296
 20
85.96889040160747
 30
0.0
  0
SPLINE
  5
153
330
1F
100
AcDbEntity
  8
0
  6
Continuous
 62
     7
370
    15
100
AcDbSpline
210
0.0
220
0.0
230
1.0
 70
    24
 71
     3
 72
     9
 73
     5
 74
     0
 42
0.00000001
 43
0.00000001
 40
0.0
 40
0.0
 40
0.0
 40
0.0
 40
0.4999902767681527
 40
1.0
 40
1.0
 40
1.0
 40
1.0
 10
59.75449808452083
 20
85.96889040160747
 30
0.0
 10
58.77500388426999
 20
85.96889040160747
 30
0.0
 10
56.81597738763064
 20
85.96889040160747
 30
0.0
 10
55.89752330794195
 20
85.96889040160747
 30
0.0
 10
55.43828733775569
 20
85.96889040160747
 30
0.0
  0
SPLINE
  5
154
330
1F
100
AcDbEntity
  8
0
  6
Continuous
 62
     7
370
    15
100
AcDbSpline
210
0.0
220
0.0
230
1.0
 70
    24
 71
     3
 72
    11
 73
     7
 74
     0
 42
0.00000001
 43
0.00000001
 40
0.0
 40
0.0
 40
0.0
 40
0.0
 40
0.2482689925981221
 40
0.5000191220902865
 40
0.7517589089474551
 40
1.0
 40
1.0
 40
1.0
 40
1.0
 10
67.4878431162591
 20
85.96889040160747
 30
0.0
 10
66.79761701024206
 20
85.96889040160747
 30
0.0
 10
65.40748670052146
 20
85.96889040160744
 30
0.0
 10
63.37880914327562
 20
85.9688904016075
 30
0.0
 10
61.44991629307198
 20
85.96889040160747
 30
0.0
 10
60.31699488806269
 20
85.96889040160747
 30
0.0
 10
59.7544980845208
 20
85.96889040160747
 30
0.0
  0
SPLINE
  5
155
330
1F
100
AcDbEntity
  8
0
  6
Continuous
 62
     7
370
    15
100
AcDbSpline
210
0.0
220
0.0
230
1.0
 70
     8
 71
     3
 72
    11
 73
     7
 74
     0
 42
0.00000001
 43
0.00000001
 40
0.0
 40
0.0
 40
0.0
 40
0.0
 40
0.2500019718033889
 40
0.5000018550750108
 40
0.7499969863543572
 40
1.0
 40
1.0
 40
1.0
 40
1.0
 10
53.9898944697137
 20
84.98634136009784
 30
0.0
 10
54.00684822055771
 20
85.11564624914305
 30
0.0
 10
54.04075558061311
 20
85.3742549470125
 30
0.0
 10
54.27281969958634
 20
85.69844007477545
 30
0.0
 10
54.60100539336998
 20
85.92481345811397
 30
0.0
 10
54.86016542569521
 20
85.95419793269626
 30
0.0
 10
54.98974748465968
 20
85.96889040160747
 30
0.0
  0
LINE
  5
156
330
1F
100
AcDbEntity
  8
0
  6
Continuous
 62
     7
370
    15
100
AcDbLine
 10
262.8927675686
 20
85.9688904016
 30
0.0
 11
255.9982647798
 21
90.8559646337
 31
0.0
  0
LINE
  5
157
330
1F
100
AcDbEntity
  8
0
  6
Continuous
 62
     7
370
    15
100
AcDbLine
 10
138.1340248189
 20
85.8184445529
 30
0.0
 11
130.9982610545
 21
90.8559646337
 31
0.0
  0
LINE
  5
158
330
1F
100
AcDbEntity
  8
0
  6
Continuous
 62
     7
370
    15
100
AcDbLine
 10
348.3401460252
 20
90.8559646337
 30
0.0
 11
341.4456395111
 21
85.9688904016
 31
0.0
  0
LINE
  5
159
330
1F
100
AcDbEntity
  8
0
  6
Continuous
 62
     7
370
    15
100
AcDbLine
 10
223.3401460252
 20
90.8559646337
 30
0.0
 11
216.2043748102
 21
85.8184445529
 31
0.0
  0
SPLINE
  5
15A
330
1F
100
AcDbEntity
  8
0
  6
Continuous
 62
     7
370
    15
100
AcDbSpline
210
0.0
220
0.0
230
1.0
 70
     8
 71
     3
 72
     9
 73
     5
 74
     0
 42
0.00000001
 43
0.00000001
 40
0.0
 40
0.0
 40
0.0
 40
0.0
 40
0.4749346516016109
 40
1.0
 40
1.0
 40
1.0
 40
1.0
 10
255.9982647797818
 20
90.85596463370891
 30
0.0
 10
255.135357046841
 20
91.6288131543275
 30
0.0
 10
253.3184592272548
 20
93.25608654449252
 30
0.0
 10
252.1687076007579
 20
95.4098280758392
 30
0.0
 10
251.5650128624196
 20
96.54068312335582
 30
0.0
  0
SPLINE
  5
15B
330
1F
100
AcDbEntity
  8
0
  6
Continuous
 62
     7
370
    15
100
AcDbSpline
210
0.0
220
0.0
230
1.0
 70
     8
 71
     3
 72
     9
 73
     5
 74
     0
 42
0.00000001
 43
0.00000001
 40
0.0
 40
0.0
 40
0.0
 40
0.0
 40
0.4749342705150983
 40
0.9999999999999999
 40
0.9999999999999999
 40
0.9999999999999999
 40
0.9999999999999999
 10
130.9982610544915
 20
90.85596463370891
 30
0.0
 10
130.1353562167975
 20
91.62881354140771
 30
0.0
 10
128.3184630354355
 20
93.25608905231283
 30
0.0
 10
127.1687116418889
 20
95.40982840107672
 30
0.0
 10
126.5650165877099
 20
96.54068312335582
 30
0.0
  0
SPLINE
  5
15C
330
1F
100
AcDbEntity
  8
0
  6
Continuous
 62
     7
370
    15
100
AcDbSpline
210
0.0
220
0.0
230
1.0
 70
     8
 71
     3
 72
     9
 73
     5
 74
     0
 42
0.00000001
 43
0.00000001
 40
0.0
 40
0.0
 40
0.0
 40
0.0
 40
0.5250650932849262
 40
1.0
 40
1.0
 40
1.0
 40
1.0
 10
352.7733904919381
 20
96.54068312335582
 30
0.0
 10
352.1696986180191
 20
95.40982785811369
 30
0.0
 10
351.0199518882528
 20
93.25608486566449
 30
0.0
 10
349.2030541723633
 20
91.62881289520102
 30
0.0
 10
348.3401460251565
 20
90.85596463370891
 30
0.0
  0
SPLINE
  5
15D
330
1F
100
AcDbEntity
  8
0
  6
Continuous
 62
     7
370
    15
100
AcDbSpline
210
0.0
220
0.0
230
1.0
 70
     8
 71
     3
 72
     9
 73
     5
 74
     0
 42
0.00000001
 43
0.00000001
 40
0.0
 40
0.0
 40
0.0
 40
0.0
 40
0.5250652208416055
 40
1.0
 40
1.0
 40
1.0
 40
1.0
 10
227.7733942172284
 20
96.54068312335582
 30
0.0
 10
227.1697009110998
 20
95.40982796697637
 30
0.0
 10
226.0199517329673
 20
93.25608570507815
 30
0.0
 10
224.2030539652301
 20
91.62881302476428
 30
0.0
 10
223.3401460251565
 20
90.85596463370891
 30
0.0
  0
SPLINE
  5
15E
330
1F
100
AcDbEntity
  8
0
  6
Continuous
 62
     7
370
    15
100
AcDbSpline
210
0.0
220
0.0
230
1.0
 70
     8
 71
     3
 72
    11
 73
     7
 74
     0
 42
0.00000001
 43
0.00000001
 40
0.0
 40
0.0
 40
0.0
 40
0.0
 40
0.2466134075107327
 40
0.4942679966022307
 40
0.744964570887864
 40
1.0
 40
1.0
 40
1.0
 40
1.0
 10
251.5650128624196
 20
96.54068312335582
 30
0.0
 10
251.2904769801979
 20
97.21665051389911
 30
0.0
 10
250.7402461477755
 20
98.57143917386978
 30
0.0
 10
250.3178204676799
 20
100.5789731938628
 30
0.0
 10
250.1519959175181
 20
102.361210225137
 30
0.0
 10
250.172446021823
 20
103.1959928942124
 30
0.0
 10
250.1827587983365
 20
103.6169651775417
 30
0.0
  0
SPLINE
  5
15F
330
1F
100
AcDbEntity
  8
0
  6
Continuous
 62
     7
370
    15
100
AcDbSpline
210
0.0
220
0.0
230
1.0
 70
     8
 71
     3
 72
    11
 73
     7
 74
     0
 42
0.00000001
 43
0.00000001
 40
0.0
 40
0.0
 40
0.0
 40
0.0
 40
0.2466137756095722
 40
0.4942682078140467
 40
0.7449646429860005
 40
1.0
 40
1.0
 40
1.0
 40
1.0
 10
126.5650165877099
 20
96.54068312335582
 30
0.0
 10
126.2904758985899
 20
97.21665013544096
 30
0.0
 10
125.7402360182426
 20
98.57143659365443
 30
0.0
 10
125.3178156189003
 20
100.5789735787841
 30
0.0
 10
125.1520036562811
 20
102.3612103806827
 30
0.0
 10
125.1724461387532
 20
103.1959929085948
 30
0.0
 10
125.1827550730462
 20
103.6169651775417
 30
0.0
  0
SPLINE
  5
160
330
1F
100
AcDbEntity
  8
0
  6
Continuous
 62
     7
370
    15
100
AcDbSpline
210
0.0
220
0.0
230
1.0
 70
     8
 71
     3
 72
    11
 73
     7
 74
     0
 42
0.00000001
 43
0.00000001
 40
0.0
 40
0.0
 40
0.0
 40
0.0
 40
0.2550353914558757
 40
0.5057319291979443
 40
0.7533864821893018
 40
1.0
 40
1.0
 40
1.0
 40
1.0
 10
229.1556482813115
 20
103.6169651775417
 30
0.0
 10
229.1659626549617
 20
103.1959928863532
 30
0.0
 10
229.1864159263872
 20
102.3612102009138
 30
0.0
 10
229.0205898486973
 20
100.5789732818146
 30
0.0
 10
228.5981654975321
 20
98.57143845531972
 30
0.0
 10
228.0479316736198
 20
97.21665040871675
 30
0.0
 10
227.7733942172284
 20
96.54068312335582
 30
0.0
  0
SPLINE
  5
161
330
1F
100
AcDbEntity
  8
0
  6
Continuous
 62
     7
370
    15
100
AcDbSpline
210
0.0
220
0.0
230
1.0
 70
     8
 71
     3
 72
    11
 73
     7
 74
     0
 42
0.00000001
 43
0.00000001
 40
0.0
 40
0.0
 40
0.0
 40
0.0
 40
0.2550639305755022
 40
0.5057757759813347
 40
0.7533888923459393
 40
1.0
 40
1.0
 40
1.0
 40
1.0
 10
354.1556520066018
 20
103.6169651775417
 30
0.0
 10
354.1659689974884
 20
103.1960600881498
 30
0.0
 10
354.186426943305
 20
102.3614316962742
 30
0.0
 10
354.0205637590946
 20
100.5787688536204
 30
0.0
 10
353.5981292529892
 20
98.57136446123916
 30
0.0
 10
353.0479315818303
 20
97.21666137738578
 30
0.0
 10
352.7733904919381
 20
96.54068312335582
 30
0.0
  0
SPLINE
  5
162
330
1F
100
AcDbEntity
  8
0
  6
Continuous
 62
     7
370
    15
100
AcDbSpline
210
0.0
220
0.0
230
1.0
 70
     8
 71
     3
 72
     9
 73
     5
 74
     0
 42
0.00000001
 43
0.00000001
 40
0.0
 40
0.0
 40
0.0
 40
0.0
 40
0.894654935849826
 40
0.9999999999999999
 40
0.9999999999999999
 40
0.9999999999999999
 40
0.9999999999999999
 10
251.2569686076398
 20
104.5618329076824
 30
0.0
 10
251.0481438324288
 20
104.761235435731
 30
0.0
 10
250.8147300693754
 20
104.9841174878589
 30
0.0
 10
250.5178227652997
 20
105.0908662992811
 30
0.0
 10
250.4865450463052
 20
105.1021117596683
 30
0.0
  0
SPLINE
  5
163
330
1F
100
AcDbEntity
  8
0
  6
Continuous
 62
     7
370
    15
100
AcDbSpline
210
0.0
220
0.0
230
1.0
 70
     8
 71
     3
 72
     9
 73
     5
 74
     0
 42
0.00000001
 43
0.00000001
 40
0.0
 40
0.0
 40
0.0
 40
0.0
 40
0.8946509668737617
 40
0.9999999999999999
 40
0.9999999999999999
 40
0.9999999999999999
 40
0.9999999999999999
 10
126.2569648823495
 20
104.5618329076824
 30
0.0
 10
126.0481433775331
 20
104.7612371660134
 30
0.0
 10
125.8147322344746
 20
104.9841221409527
 30
0.0
 10
125.5178240377566
 20
105.0908663594571
 30
0.0
 10
125.4865450463052
 20
105.1021117596683
 30
0.0
  0
SPLINE
  5
164
330
1F
100
AcDbEntity
  8
0
  6
Continuous
 62
     7
370
    15
100
AcDbSpline
210
0.0
220
0.0
230
1.0
 70
     8
 71
     3
 72
     9
 73
     5
 74
     0
 42
0.00000001
 43
0.00000001
 40
0.0
 40
0.0
 40
0.0
 40
0.0
 40
0.1053662102367382
 40
0.9999999999999999
 40
0.9999999999999999
 40
0.9999999999999999
 40
0.9999999999999999
 10
228.8518657586332
 20
105.1020819573459
 30
0.0
 10
228.8205791102157
 20
105.0908420155237
 30
0.0
 10
228.5236466463147
 20
104.9841670027564
 30
0.0
 10
228.2902463044145
 20
104.7612563287486
 30
0.0
 10
228.0814384720082
 20
104.5618329076824
 30
0.0
  0
SPLINE
  5
165
330
1F
100
AcDbEntity
  8
0
  6
Continuous
 62
     7
370
    15
100
AcDbSpline
210
0.0
220
0.0
230
1.0
 70
     8
 71
     3
 72
     9
 73
     5
 74
     0
 42
0.00000001
 43
0.00000001
 40
0.0
 40
0.0
 40
0.0
 40
0.0
 40
0.1053668764689185
 40
1.0
 40
1.0
 40
1.0
 40
1.0
 10
353.8518620333429
 20
105.1020819573459
 30
0.0
 10
353.8205753779291
 20
105.0908420256291
 30
0.0
 10
353.5236447251262
 20
104.9841677832725
 30
0.0
 10
353.2902472814018
 20
104.7612566189184
 30
0.0
 10
353.0814421972985
 20
104.5618329076824
 30
0.0
  0
SPLINE
  5
166
330
1F
100
AcDbEntity
  8
0
  6
Continuous
 62
     7
370
    15
100
AcDbSpline
210
0.0
220
0.0
230
1.0
 70
     8
 71
     3
 72
    23
 73
    19
 74
     0
 42
0.00000001
 43
0.00000001
 40
0.0
 40
0.0
 40
0.0
 40
0.0
 40
0.0624999806413587
 40
0.1249999081871012
 40
0.1874999706485594
 40
0.2500000415490918
 40
0.3124999661415115
 40
0.3749999737800366
 40
0.4374999948220591
 40
0.4999999924126267
 40
0.5624999900031943
 40
0.6250000110452169
 40
0.6875000467407268
 40
0.7499999631357482
 40
0.8125000373999882
 40
0.8750000948625245
 40
0.9375000171173897
 40
1.0
 40
1.0
 40
1.0
 40
1.0
 10
316.1692039719577
 20
102.9688913254795
 30
0.0
 10
316.1171006308601
 20
103.8851813546838
 30
0.0
 10
316.0128939929283
 20
105.7177606346765
 30
0.0
 10
315.1804138184894
 20
108.3609924716751
 30
0.0
 10
313.8865513167252
 20
110.7970105581733
 30
0.0
 10
312.1320508099227
 20
112.9322028159012
 30
0.0
 10
309.9974472967123
 20
114.6844985792503
 30
0.0
 10
307.5612755845227
 20
115.986580627378
 30
0.0
 10
304.918084086304
 20
116.7884012132583
 30
0.0
 10
302.1692044818187
 20
117.0591342024819
 30
0.0
 10
299.4203248133008
 20
116.7884012788984
 30
0.0
 10
296.77713311166
 20
115.9865802448354
 30
0.0
 10
294.3409604835444
 20
114.6844991936685
 30
0.0
 10
292.2063572418296
 20
112.9322025049303
 30
0.0
 10
290.4518564135278
 20
110.7970107827394
 30
0.0
 10
289.157994247276
 20
108.3609924700979
 30
0.0
 10
288.3255155124145
 20
105.7177604465677
 30
0.0
 10
288.2213078997303
 20
103.8851813287895
 30
0.0
 10
288.1692040681168
 20
102.9688913254795
 30
0.0
  0
SPLINE
  5
167
330
1F
100
AcDbEntity
  8
0
  6
Continuous
 62
     7
370
    15
100
AcDbSpline
210
0.0
220
0.0
230
1.0
 70
     8
 71
     3
 72
    23
 73
    19
 74
     0
 42
0.00000001
 43
0.00000001
 40
0.0
 40
0.0
 40
0.0
 40
0.0
 40
0.0624999754480874
 40
0.1250000526343665
 40
0.1875000278437157
 40
0.2500000290943057
 40
0.3124999918741191
 40
0.3750000201351
 40
0.4375000091159898
 40
0.5000000075873815
 40
0.5625000060587731
 40
0.624999995039663
 40
0.6874999952436623
 40
0.7499999662208661
 40
0.8124999641077455
 40
0.8749999443160219
 40
0.9375000267931639
 40
1.0
 40
1.0
 40
1.0
 40
1.0
 10
288.1692040681168
 20
102.9688913254795
 30
0.0
 10
288.2213082195709
 20
102.0526014142749
 30
0.0
 10
288.325516607295
 20
100.2200201003184
 30
0.0
 10
289.1579918115339
 20
97.57678559824515
 30
0.0
 10
290.4518564320029
 20
95.14076767842647
 30
0.0
 10
292.2063596099633
 20
93.00558006952586
 30
0.0
 10
294.340959134203
 20
91.25327968653151
 30
0.0
 10
296.777132588289
 20
89.95119733759633
 30
0.0
 10
299.4203256862714
 20
89.1493842652106
 30
0.0
 10
302.1692044818187
 20
88.87864139018366
 30
0.0
 10
304.9180832133334
 20
89.14938433085071
 30
0.0
 10
307.5612761078935
 20
89.95119695505473
 30
0.0
 10
309.997448646053
 20
91.25328030095032
 30
0.0
 10
312.1320484417889
 20
93.00557975855503
 30
0.0
 10
313.8865512982502
 20
95.1407679029927
 30
0.0
 10
315.1804162542327
 20
97.57678559666674
 30
0.0
 10
316.0128928980481
 20
100.2200199122102
 30
0.0
 10
316.1171003110193
 20
102.0526013883808
 30
0.0
 10
316.1692039719577
 20
102.9688913254795
 30
0.0
  0
SPLINE
  5
168
330
1F
100
AcDbEntity
  8
0
  6
Continuous
 62
     7
370
    15
100
AcDbSpline
210
0.0
220
0.0
230
1.0
 70
     8
 71
     3
 72
    23
 73
    19
 74
     0
 42
0.00000001
 43
0.00000001
 40
0.0
 40
0.0
 40
0.0
 40
0.0
 40
0.0624999748818041
 40
0.1249999131389882
 40
0.1874999140115833
 40
0.2500000102198878
 40
0.3124999987896268
 40
0.3749999300076516
 40
0.4375000306307347
 40
0.5000000055125389
 40
0.562499980394343
 40
0.6250000810174261
 40
0.6875000122354509
 40
0.7500000008051899
 40
0.8124999893749288
 40
0.8750000702301931
 40
0.9375000084873772
 40
0.9999999999999999
 40
0.9999999999999999
 40
0.9999999999999999
 40
0.9999999999999999
 10
191.1692021093126
 20
102.9688913254795
 30
0.0
 10
191.1170998724294
 20
103.8851814991384
 30
0.0
 10
191.0128954291949
 20
105.7177613095155
 30
0.0
 10
190.1804099530615
 20
108.3609904109333
 30
0.0
 10
188.8865563632638
 20
110.7970126324875
 30
0.0
 10
187.1320520333656
 20
112.9322034952415
 30
0.0
 10
184.9974465102501
 20
114.6844962711485
 30
0.0
 10
182.5612758428121
 20
115.986582620392
 30
0.0
 10
179.9180834903874
 20
116.7884002635213
 30
0.0
 10
177.1692035278428
 20
117.0591346275947
 30
0.0
 10
174.4203236371858
 20
116.7884002327881
 30
0.0
 10
171.7771310690977
 20
115.9865827433246
 30
0.0
 10
169.340961192424
 20
114.6844958101526
 30
0.0
 10
167.2063539473309
 20
112.9322062222376
 30
0.0
 10
165.4518605477353
 20
110.7970078598619
 30
0.0
 10
164.1579944866124
 20
108.3609930297448
 30
0.0
 10
163.3255141851282
 20
105.7177605182127
 30
0.0
 10
163.2213030896788
 20
103.8851813166435
 30
0.0
 10
163.1691975197549
 20
102.9688913254795
 30
0.0
  0
SPLINE
  5
169
330
1F
100
AcDbEntity
  8
0
  6
Continuous
 62
     7
370
    15
100
AcDbSpline
210
0.0
220
0.0
230
1.0
 70
     8
 71
     3
 72
    23
 73
    19
 74
     0
 42
0.00000001
 43
0.00000001
 40
0.0
 40
0.0
 40
0.0
 40
0.0
 40
0.0624999840781135
 40
0.1250000772666743
 40
0.187500075868795
 40
0.2499999914248223
 40
0.3125000263792944
 40
0.3749999501628171
 40
0.4375000187248052
 40
0.4999999944874533
 40
0.5624999702501015
 40
0.6250000388120894
 40
0.6874999625956122
 40
0.7499999975500842
 40
0.8125000207447772
 40
0.8749999393641424
 40
0.9375000325527032
 40
1.0
 40
1.0
 40
1.0
 40
1.0
 10
163.1691975197549
 20
102.9688913254795
 30
0.0
 10
163.2213034095198
 20
102.0526014264215
 30
0.0
 10
163.3255152800144
 20
100.2200200286763
 30
0.0
 10
164.1579920508644
 20
97.57678503859245
 30
0.0
 10
165.4518605662059
 20
95.14077060130474
 30
0.0
 10
167.2063563154634
 20
93.00557635221651
 30
0.0
 10
169.3409598430863
 20
91.25328307004963
 30
0.0
 10
171.7771305457288
 20
89.9511948391117
 30
0.0
 10
174.4203245101554
 20
89.14938531132249
 30
0.0
 10
177.1692035278427
 20
88.87864096507272
 30
0.0
 10
179.9180826174179
 20
89.14938528058937
 30
0.0
 10
182.5612763661809
 20
89.95119496204435
 30
0.0
 10
184.9974478595882
 20
91.25328260905289
 30
0.0
 10
187.1320496652312
 20
93.00557907921927
 30
0.0
 10
188.8865563447836
 20
95.14076582867779
 30
0.0
 10
190.180412388801
 20
97.57678765741251
 30
0.0
 10
191.0128943343158
 20
100.2200192373716
 30
0.0
 10
191.117099552588
 20
102.0526012439264
 30
0.0
 10
191.1692021093126
 20
102.9688913254795
 30
0.0
  0
CIRCLE
  5
16A
330
1F
100
AcDbEntity
  8
0
  6
Continuous
 62
     7
370
    15
100
AcDbCircle
 10
177.1692040695
 20
102.968889826
 30
0.0
 40
13.5
  0
CIRCLE
  5
16B
330
1F
100
AcDbEntity
  8
0
  6
Continuous
 62
     7
370
    15
100
AcDbCircle
 10
302.1692040695
 20
102.968889826
 30
0.0
 40
13.5
  0
SPLINE
  5
16C
330
1F
100
AcDbEntity
  8
0
  6
Continuous
 62
     7
370
    15
100
AcDbSpline
210
0.0
220
0.0
230
1.0
 70
     8
 71
     3
 72
     9
 73
     5
 74
     0
 42
0.00000001
 43
0.00000001
 40
0.0
 40
0.0
 40
0.0
 40
0.0
 40
0.5000020885240182
 40
1.0
 40
1.0
 40
1.0
 40
1.0
 10
53.9898944697137
 20
84.98634136009784
 30
0.0
 10
54.00551317085841
 20
85.11700478472056
 30
0.0
 10
54.03675044266831
 20
85.3783305423958
 30
0.0
 10
54.20481142527878
 20
85.58087040025394
 30
0.0
 10
54.28884156558467
 20
85.68213990617366
 30
0.0
  0
LINE
  5
16D
330
1F
100
AcDbEntity
  8
0
  6
Continuous
 62
     7
370
    15
100
AcDbLine
 10
381.8551672301
 20
55.9688892095
 30
0.0
 11
382.1693582139
 21
37.9688897515
 31
0.0
  0
LINE
  5
16E
330
1F
100
AcDbEntity
  8
0
  6
Continuous
 62
     7
370
    15
100
AcDbLine
 10
381.7329777083
 20
62.9688903569
 30
0.0
 11
380.7328266701
 21
62.9688903569
 31
0.0
  0
SPLINE
  5
16F
330
1F
100
AcDbEntity
  8
0
  6
Continuous
 62
     7
370
    15
100
AcDbSpline
210
0.0
220
0.0
230
1.0
 70
     8
 71
     3
 72
    13
 73
     9
 74
     0
 42
0.00000001
 43
0.00000001
 40
0.0
 40
0.0
 40
0.0
 40
0.0
 40
0.2394399882159092
 40
0.3683380153657672
 40
0.4999753293928526
 40
0.6316167432559386
 40
0.7605260954765084
 40
1.0
 40
1.0
 40
1.0
 40
1.0
 10
381.7329777083154
 20
62.96889035690398
 30
0.0
 10
381.7346137684351
 20
62.87538111862506
 30
0.0
 10
381.7371305708371
 20
62.73153293560993
 30
0.0
 10
381.7523512871013
 20
61.85864630385163
 30
0.0
 10
381.7681352014895
 20
60.95521153181863
 30
0.0
 10
381.7877049068786
 20
59.83376174550628
 30
0.0
 10
381.8161475060481
 20
58.20403948645825
 30
0.0
 10
381.8397948593101
 20
56.84945819532744
 30
0.0
 10
381.8551672301049
 20
55.96888920951456
 30
0.0
  0
LINE
  5
170
330
1F
100
AcDbEntity
  8
0
  6
Continuous
 62
     7
370
    15
100
AcDbLine
 10
52.1690470776
 20
37.9688897515
 30
0.0
 11
52.4832380614
 21
55.9688892095
 31
0.0
  0
SPLINE
  5
171
330
1F
100
AcDbEntity
  8
0
  6
Continuous
 62
     7
370
    15
100
AcDbSpline
210
0.0
220
0.0
230
1.0
 70
     8
 71
     3
 72
    13
 73
     9
 74
     0
 42
0.00000001
 43
0.00000001
 40
0.0
 40
0.0
 40
0.0
 40
0.0
 40
0.2394739164002372
 40
0.3683832582009322
 40
0.5000246721826735
 40
0.6316619788426577
 40
0.7605600115682709
 40
1.0
 40
1.0
 40
1.0
 40
1.0
 10
52.48323806140373
 20
55.96888920951456
 30
0.0
 10
52.49861592427538
 20
56.84945815486364
 30
0.0
 10
52.52227172493195
 20
58.20403932192531
 30
0.0
 10
52.55069680013202
 20
59.83376182023681
 30
0.0
 10
52.57027421619584
 20
60.95521148006009
 30
0.0
 10
52.58604125481373
 20
61.85864635952373
 30
0.0
 10
52.60128117998678
 20
62.73153290089547
 30
0.0
 10
52.60379406779761
 20
62.87538110578894
 30
0.0
 10
52.60542758319331
 20
62.96889035690398
 30
0.0
  0
LINE
  5
172
330
1F
100
AcDbEntity
  8
0
  6
Continuous
 62
     7
370
    15
100
AcDbLine
 10
52.6054275832
 20
62.9688903569
 30
0.0
 11
53.6055786214
 21
62.9688903569
 31
0.0
  0
LINE
  5
173
330
1F
100
AcDbEntity
  8
0
  6
Continuous
 62
     7
370
    15
100
AcDbLine
 10
375.5314273438
 20
351.6669917731
 30
0.0
 11
380.1603240571
 21
86.4776160448
 31
0.0
  0
LINE
  5
174
330
1F
100
AcDbEntity
  8
0
  6
Continuous
 62
     7
370
    15
100
AcDbLine
 10
380.0446612439
 20
86.4784728615
 30
0.0
 11
380.1603240571
 21
86.4776160448
 31
0.0
  0
LINE
  5
175
330
1F
100
AcDbEntity
  8
0
  6
Continuous
 62
     7
370
    15
100
AcDbLine
 10
54.1780812344
 20
86.4776160448
 30
0.0
 11
54.2937440476
 21
86.4784728615
 31
0.0
  0
LINE
  5
176
330
1F
100
AcDbEntity
  8
0
  6
Continuous
 62
     7
370
    15
100
AcDbLine
 10
54.1780812344
 20
86.4776160448
 30
0.0
 11
58.8069779477
 21
351.6669917731
 31
0.0
  0
SPLINE
  5
177
330
1F
100
AcDbEntity
  8
0
  6
Continuous
 62
     7
370
    15
100
AcDbSpline
210
0.0
220
0.0
230
1.0
 70
     8
 71
     3
 72
     9
 73
     5
 74
     0
 42
0.00000001
 43
0.00000001
 40
0.0
 40
0.0
 40
0.0
 40
0.0
 40
0.0059657071002937
 40
1.0
 40
1.0
 40
1.0
 40
1.0
 10
59.03244741771174
 20
351.7024267344532
 30
0.0
 10
59.03113352605327
 20
351.7023771263144
 30
0.0
 10
58.81089280079155
 20
351.6940615758191
 30
0.0
 10
58.80892951805478
 20
351.6804861810622
 30
0.0
 10
58.80697794768761
 20
351.6669917731342
 30
0.0
  0
LINE
  5
178
330
1F
100
AcDbEntity
  8
0
  6
Continuous
 62
     7
370
    15
100
AcDbLine
 10
355.1692066393
 20
85.9688904016
 30
0.0
 11
368.6620739898
 21
85.9688904016
 31
0.0
  0
LINE
  5
179
330
1F
100
AcDbEntity
  8
0
  6
Continuous
 62
     7
370
    15
100
AcDbLine
 10
65.6763387522
 20
85.9688904016
 30
0.0
 11
124.169207891
 21
85.9688904016
 31
0.0
  0
SPLINE
  5
17A
330
1F
100
AcDbEntity
  8
0
  6
Continuous
 62
     7
370
    15
100
AcDbSpline
210
0.0
220
0.0
230
1.0
 70
    24
 71
     3
 72
    15
 73
    11
 74
     0
 42
0.00000001
 43
0.00000001
 40
0.0
 40
0.0
 40
0.0
 40
0.0
 40
0.1165275406515302
 40
0.2400256523126501
 40
0.3686502139683319
 40
0.49999983812276
 40
0.6313497660915434
 40
0.7599744270924637
 40
0.883472479078106
 40
1.0
 40
1.0
 40
1.0
 40
1.0
 10
368.6620739898439
 20
85.96889040160747
 30
0.0
 10
369.332957236392
 20
85.96889040160747
 30
0.0
 10
370.7148553523053
 20
85.96889040160747
 30
0.0
 10
372.7647330968728
 20
85.96889040160747
 30
0.0
 10
374.7359459958225
 20
85.96889040160747
 30
0.0
 10
376.494292045215
 20
85.96889040160747
 30
0.0
 10
377.9247710405909
 20
85.96889040160747
 30
0.0
 10
378.9393690987767
 20
85.96889040160747
 30
0.0
 10
379.5512327264448
 20
85.96889040160747
 30
0.0
 10
379.624720657622
 20
85.96889040160747
 30
0.0
 10
379.6603975496049
 20
85.96889040160747
 30
0.0
  0
SPLINE
  5
17B
330
1F
100
AcDbEntity
  8
0
  6
Continuous
 62
     7
370
    15
100
AcDbSpline
210
0.0
220
0.0
230
1.0
 70
     8
 71
     3
 72
    11
 73
     7
 74
     0
 42
0.00000001
 43
0.00000001
 40
0.0
 40
0.0
 40
0.0
 40
0.0
 40
0.2499992709909415
 40
0.4999981988253987
 40
0.7499987070933465
 40
1.0
 40
1.0
 40
1.0
 40
1.0
 10
380.1603240570779
 20
86.47761604476543
 30
0.0
 10
380.1537950348999
 20
86.41124471361621
 30
0.0
 10
380.1407369995057
 20
86.27850214242105
 30
0.0
 10
380.0255707542437
 20
86.1100378788071
 30
0.0
 10
379.8591400279618
 20
85.99195256283582
 30
0.0
 10
379.7266451116974
 20
85.97657779672596
 30
0.0
 10
379.6603975496049
 20
85.96889040160747
 30
0.0
  0
SPLINE
  5
17C
330
1F
100
AcDbEntity
  8
0
  6
Continuous
 62
     7
370
    15
100
AcDbSpline
210
0.0
220
0.0
230
1.0
 70
    24
 71
     3
 72
    15
 73
    11
 74
     0
 42
0.00000001
 43
0.00000001
 40
0.0
 40
0.0
 40
0.0
 40
0.0
 40
0.1165274501453784
 40
0.2400254689391459
 40
0.3686502940616228
 40
0.4999999143779986
 40
0.6313498385085752
 40
0.7599739820476119
 40
0.8834720605168409
 40
1.0
 40
1.0
 40
1.0
 40
1.0
 10
54.67801519248436
 20
85.96889040160747
 30
0.0
 10
54.71368915620825
 20
85.96889040160747
 30
0.0
 10
54.78717106850497
 20
85.96889040160747
 30
0.0
 10
55.39903468495299
 20
85.96889040160747
 30
0.0
 10
56.4136441837893
 20
85.96889040160747
 30
0.0
 10
57.84411225732433
 20
85.96889040160747
 30
0.0
 10
59.60246555373089
 20
85.96889040160747
 30
0.0
 10
61.57367328264068
 20
85.9688904016075
 30
0.0
 10
63.62355257626773
 20
85.96889040160744
 30
0.0
 10
65.00545307478257
 20
85.96889040160747
 30
0.0
 10
65.67633875224543
 20
85.96889040160747
 30
0.0
  0
SPLINE
  5
17D
330
1F
100
AcDbEntity
  8
0
  6
Continuous
 62
     7
370
    15
100
AcDbSpline
210
0.0
220
0.0
230
1.0
 70
     8
 71
     3
 72
    11
 73
     7
 74
     0
 42
0.00000001
 43
0.00000001
 40
0.0
 40
0.0
 40
0.0
 40
0.0
 40
0.2500008676961196
 40
0.5000009507548681
 40
0.7499994533828138
 40
1.0
 40
1.0
 40
1.0
 40
1.0
 10
54.67801519248439
 20
85.96889040160747
 30
0.0
 10
54.61176767459256
 20
85.97657780499621
 30
0.0
 10
54.47927284672937
 20
85.99195258764652
 30
0.0
 10
54.3128414574415
 20
86.11003777956489
 30
0.0
 10
54.19767747041973
 20
86.27850289661897
 30
0.0
 10
54.18461333089578
 20
86.41124481450088
 30
0.0
 10
54.1780812344308
 20
86.47761604476543
 30
0.0
  0
SPLINE
  5
17E
330
1F
100
AcDbEntity
  8
0
  6
Continuous
 62
     7
370
    15
100
AcDbSpline
210
0.0
220
0.0
230
1.0
 70
     8
 71
     3
 72
    13
 73
     9
 74
     0
 42
0.00000001
 43
0.00000001
 40
0.0
 40
0.0
 40
0.0
 40
0.0
 40
0.1986208966140386
 40
0.4310111724669807
 40
0.56048648557215
 40
0.6984774276684795
 40
0.8449851057081075
 40
1.0
 40
1.0
 40
1.0
 40
1.0
 10
355.1692066392656
 20
85.96889040160747
 30
0.0
 10
355.0651805097304
 20
85.97837209397929
 30
0.0
 10
354.8394418043752
 20
85.99894754910922
 30
0.0
 10
354.5758414409862
 20
86.1475961125322
 30
0.0
 10
354.3891292206872
 20
86.33119972172865
 30
0.0
 10
354.2702380628884
 20
86.51339831807108
 30
0.0
 10
354.1860019108123
 20
86.7300277201327
 30
0.0
 10
354.1749080468844
 20
86.88778471317602
 30
0.0
 10
354.1692046127076
 20
86.96888870287509
 30
0.0
  0
SPLINE
  5
17F
330
1F
100
AcDbEntity
  8
0
  6
Continuous
 62
     7
370
    15
100
AcDbSpline
210
0.0
220
0.0
230
1.0
 70
     8
 71
     3
 72
    13
 73
     9
 74
     0
 42
0.00000001
 43
0.00000001
 40
0.0
 40
0.0
 40
0.0
 40
0.0
 40
0.1550149116837375
 40
0.3015228790446448
 40
0.4395167070426422
 40
0.5689905837050364
 40
0.8013834120726291
 40
1.0
 40
1.0
 40
1.0
 40
1.0
 10
229.1692046127076
 20
86.96888870287509
 30
0.0
 10
229.1749066771229
 20
86.88778481170652
 30
0.0
 10
229.1859978867383
 20
86.73002786754388
 30
0.0
 10
229.270232936885
 20
86.51339557742187
 30
0.0
 10
229.389133863595
 20
86.3312032905979
 30
0.0
 10
229.575840702548
 20
86.14759270603015
 30
0.0
 10
229.8394430574409
 20
85.99895003568925
 30
0.0
 10
230.0651796095039
 20
85.97837276401884
 30
0.0
 10
230.1692029139753
 20
85.96889040160747
 30
0.0
  0
SPLINE
  5
180
330
1F
100
AcDbEntity
  8
0
  6
Continuous
 62
     7
370
    15
100
AcDbSpline
210
0.0
220
0.0
230
1.0
 70
     8
 71
     3
 72
    13
 73
     9
 74
     0
 42
0.00000001
 43
0.00000001
 40
0.0
 40
0.0
 40
0.0
 40
0.0
 40
0.1986118978621717
 40
0.431001947597777
 40
0.5604743803997378
 40
0.6984710865024004
 40
0.8449815630695104
 40
0.9999999999999999
 40
0.9999999999999999
 40
0.9999999999999999
 40
0.9999999999999999
 10
124.1692078909631
 20
85.96889040160747
 30
0.0
 10
124.2732284404282
 20
85.97837180053541
 30
0.0
 10
124.4989604327823
 20
85.99894711071512
 30
0.0
 10
124.7625618454195
 20
86.1475838621865
 30
0.0
 10
124.9492608155566
 20
86.33119944587122
 30
0.0
 10
125.0681737080393
 20
86.51338613815001
 30
0.0
 10
125.1524020840627
 20
86.73002551325096
 30
0.0
 10
125.1635028992491
 20
86.88778386618937
 30
0.0
 10
125.169209917521
 20
86.96888870287509
 30
0.0
  0
SPLINE
  5
181
330
1F
100
AcDbEntity
  8
0
  6
Continuous
 62
     7
370
    15
100
AcDbSpline
210
0.0
220
0.0
230
1.0
 70
     8
 71
     3
 72
    13
 73
     9
 74
     0
 42
0.00000001
 43
0.00000001
 40
0.0
 40
0.0
 40
0.0
 40
0.0
 40
0.1986185512806591
 40
0.4310088331271176
 40
0.5604841495715505
 40
0.698477708620792
 40
0.8449853904389607
 40
1.0
 40
1.0
 40
1.0
 40
1.0
 10
235.6692028841729
 20
85.96889040160747
 30
0.0
 10
235.7732276654207
 20
85.97837230713759
 30
0.0
 10
235.9989648852969
 20
85.99894835611188
 30
0.0
 10
236.2625652237842
 20
86.14759551861503
 30
0.0
 10
236.4492758167877
 20
86.33120186172069
 30
0.0
 10
236.5681763987116
 20
86.51339577730404
 30
0.0
 10
236.652411688092
 20
86.73002781285791
 30
0.0
 10
236.6635028637654
 20
86.8877847931382
 30
0.0
 10
236.6692049107309
 20
86.96888870287509
 30
0.0
  0
SPLINE
  5
182
330
1F
100
AcDbEntity
  8
0
  6
Continuous
 62
     7
370
    15
100
AcDbSpline
210
0.0
220
0.0
230
1.0
 70
     8
 71
     3
 72
    13
 73
     9
 74
     0
 42
0.00000001
 43
0.00000001
 40
0.0
 40
0.0
 40
0.0
 40
0.0
 40
0.1986188873687401
 40
0.4310095624493822
 40
0.5604834058543208
 40
0.6984771984063752
 40
0.8449851281343456
 40
1.0
 40
1.0
 40
1.0
 40
1.0
 10
249.1692041656728
 20
85.96889040160747
 30
0.0
 10
249.2732288398093
 20
85.97837241542649
 30
0.0
 10
249.4989658272503
 20
85.99894869939135
 30
0.0
 10
249.7625670353879
 20
86.14759372934125
 30
0.0
 10
249.9492732426709
 20
86.33120323588348
 30
0.0
 10
250.0681741349864
 20
86.51339559340707
 30
0.0
 10
250.1524091950373
 20
86.73002786317046
 30
0.0
 10
250.1635004032475
 20
86.88778481022155
 30
0.0
 10
250.1692024669404
 20
86.96888870287509
 30
0.0
  0
LINE
  5
183
330
1F
100
AcDbEntity
  8
0
  6
Continuous
 62
     7
370
    15
100
AcDbLine
 10
230.169202914
 20
85.9688904016
 30
0.0
 11
235.6692028842
 21
85.9688904016
 31
0.0
  0
LINE
  5
184
330
1F
100
AcDbEntity
  8
0
  6
Continuous
 62
     7
370
    15
100
AcDbLine
 10
243.6692041955
 20
85.9688904016
 30
0.0
 11
249.1692041657
 21
85.9688904016
 31
0.0
  0
SPLINE
  5
185
330
1F
100
AcDbEntity
  8
0
  6
Continuous
 62
     7
370
    15
100
AcDbSpline
210
0.0
220
0.0
230
1.0
 70
     8
 71
     3
 72
    13
 73
     9
 74
     0
 42
0.00000001
 43
0.00000001
 40
0.0
 40
0.0
 40
0.0
 40
0.0
 40
0.1550148718656544
 40
0.3015228015936248
 40
0.4395165941456793
 40
0.5689904375506178
 40
0.8013811126312599
 40
0.9999999999999999
 40
0.9999999999999999
 40
0.9999999999999999
 40
0.9999999999999999
 10
242.6692058942075
 20
86.96888870287509
 30
0.0
 10
242.6749079579004
 20
86.88778481022158
 30
0.0
 10
242.6859991661105
 20
86.73002786317046
 30
0.0
 10
242.7702342261615
 20
86.51339559340707
 30
0.0
 10
242.889135118477
 20
86.33120323588348
 30
0.0
 10
243.07584132576
 20
86.14759372934125
 30
0.0
 10
243.3394425338976
 20
85.99894869939135
 30
0.0
 10
243.5651795213386
 20
85.97837241542649
 30
0.0
 10
243.6692041954751
 20
85.96889040160747
 30
0.0
  0
LINE
  5
186
330
1F
100
AcDbEntity
  8
0
  6
Continuous
 62
     7
370
    15
100
AcDbLine
 10
125.1692099175
 20
86.9688887029
 30
0.0
 11
125.1692099175
 21
102.6854041843
 31
0.0
  0
LINE
  5
187
330
1F
100
AcDbEntity
  8
0
  6
Continuous
 62
     7
370
    15
100
AcDbLine
 10
236.6692049107
 20
86.9688887029
 30
0.0
 11
236.6692049107
 21
96.7414464681
 31
0.0
  0
LINE
  5
188
330
1F
100
AcDbEntity
  8
0
  6
Continuous
 62
     7
370
    15
100
AcDbLine
 10
250.1692024669
 20
86.9688887029
 30
0.0
 11
250.1692024669
 21
102.6854041843
 31
0.0
  0
LINE
  5
189
330
1F
100
AcDbEntity
  8
0
  6
Continuous
 62
     7
370
    15
100
AcDbLine
 10
354.1692046127
 20
102.6854041843
 30
0.0
 11
354.1692046127
 21
86.9688887029
 31
0.0
  0
LINE
  5
18A
330
1F
100
AcDbEntity
  8
0
  6
Continuous
 62
     7
370
    15
100
AcDbLine
 10
229.1692046127
 20
102.6854041843
 30
0.0
 11
229.1692046127
 21
86.9688887029
 31
0.0
  0
LINE
  5
18B
330
1F
100
AcDbEntity
  8
0
  6
Continuous
 62
     7
370
    15
100
AcDbLine
 10
242.6692058942
 20
102.4576473861
 30
0.0
 11
242.6692058942
 21
102.1963331728
 31
0.0
  0
LINE
  5
18C
330
1F
100
AcDbEntity
  8
0
  6
Continuous
 62
     7
370
    15
100
AcDbLine
 10
242.6692058942
 20
96.3570374875
 30
0.0
 11
242.6692058942
 21
86.9688887029
 31
0.0
  0
SPLINE
  5
18D
330
1F
100
AcDbEntity
  8
0
  6
Continuous
 62
     7
370
    15
100
AcDbSpline
210
0.0
220
0.0
230
1.0
 70
     8
 71
     3
 72
    19
 73
    15
 74
     0
 42
0.00000001
 43
0.00000001
 40
0.0
 40
0.0
 40
0.0
 40
0.0
 40
0.0775545875267227
 40
0.145159061368397
 40
0.250098228027324
 40
0.3152782489976313
 40
0.3787470971201776
 40
0.4999998407948829
 40
0.6212487787572765
 40
0.6847190329186571
 40
0.7499019007188416
 40
0.8548382092729215
 40
0.9224429546032583
 40
1.0
 40
1.0
 40
1.0
 40
1.0
 10
236.6692049107309
 20
102.4576473860797
 30
0.0
 10
236.6863140301709
 20
102.7010831543741
 30
0.0
 10
236.7183371998886
 20
103.1567223210053
 30
0.0
 10
236.9973056861726
 20
103.8971801880063
 30
0.0
 10
237.4354878496058
 20
104.5152791578076
 30
0.0
 10
238.0071827810897
 20
104.979415410283
 30
0.0
 10
238.7042529799629
 20
105.3442975123665
 30
0.0
 10
239.6691916758349
 20
105.5320461423117
 30
0.0
 10
240.6341341090775
 20
105.3443037905388
 30
0.0
 10
241.3312099703568
 20
104.9794291366482
 30
0.0
 10
241.9029114826778
 20
104.5152925540742
 30
0.0
 10
242.3410913356535
 20
103.8971924730762
 30
0.0
 10
242.6200694978837
 20
103.156738798113
 30
0.0
 10
242.652095200803
 20
102.7010909372547
 30
0.0
 10
242.6692058942075
 20
102.4576473860797
 30
0.0
  0
SPLINE
  5
18E
330
1F
100
AcDbEntity
  8
0
  6
Continuous
 62
     7
370
    15
100
AcDbSpline
210
0.0
220
0.0
230
1.0
 70
     8
 71
     3
 72
    10
 73
     6
 74
     0
 42
0.00000001
 43
0.00000001
 40
0.0
 40
0.0
 40
0.0
 40
0.0
 40
0.0328123925618894
 40
0.4372147013383593
 40
1.0
 40
1.0
 40
1.0
 40
1.0
 10
352.5099454126115
 20
109.6052948265132
 30
0.0
 10
352.5524710315245
 20
109.5393498022196
 30
0.0
 10
353.1191113866041
 20
108.6606533143939
 30
0.0
 10
353.8460953704671
 20
106.3240519820009
 30
0.0
 10
354.0503520953397
 20
104.023844544541
 30
0.0
 10
354.1692046127076
 20
102.6854041843471
 30
0.0
  0
SPLINE
  5
18F
330
1F
100
AcDbEntity
  8
0
  6
Continuous
 62
     7
370
    15
100
AcDbSpline
210
0.0
220
0.0
230
1.0
 70
     8
 71
     3
 72
    11
 73
     7
 74
     0
 42
0.00000001
 43
0.00000001
 40
0.0
 40
0.0
 40
0.0
 40
0.0
 40
0.2909219098181201
 40
0.4999741954711879
 40
0.7617078490723417
 40
1.0
 40
1.0
 40
1.0
 40
1.0
 10
250.1692024669404
 20
102.6854041843471
 30
0.0
 10
250.2689732071334
 20
104.0358334186323
 30
0.0
 10
250.4404377612839
 20
106.3566616105502
 30
0.0
 10
251.7192744404467
 20
109.6690967009965
 30
0.0
 10
253.4555879479827
 20
112.4979432077426
 30
0.0
 10
255.1776157262331
 20
114.0558831831256
 30
0.0
 10
255.9982647797818
 20
114.798334601408
 30
0.0
  0
SPLINE
  5
190
330
1F
100
AcDbEntity
  8
0
  6
Continuous
 62
     7
370
    15
100
AcDbSpline
210
0.0
220
0.0
230
1.0
 70
     8
 71
     3
 72
    10
 73
     6
 74
     0
 42
0.00000001
 43
0.00000001
 40
0.0
 40
0.0
 40
0.0
 40
0.0
 40
0.5627809328767328
 40
0.9671870570493378
 40
1.0
 40
1.0
 40
1.0
 40
1.0
 10
125.169209917521
 20
102.6854041843471
 30
0.0
 10
125.2880669723671
 20
104.023830947722
 30
0.0
 10
125.4923329635736
 20
106.3240315528271
 30
0.0
 10
126.2192700365263
 20
108.6606601069348
 30
0.0
 10
126.7859409189732
 20
109.5393498600037
 30
0.0
 10
126.8284691176171
 20
109.6052948265133
 30
0.0
  0
SPLINE
  5
191
330
1F
100
AcDbEntity
  8
0
  6
Continuous
 62
     7
370
    15
100
AcDbSpline
210
0.0
220
0.0
230
1.0
 70
     8
 71
     3
 72
    11
 73
     7
 74
     0
 42
0.00000001
 43
0.00000001
 40
0.0
 40
0.0
 40
0.0
 40
0.0
 40
0.2382904959828614
 40
0.5000256915168847
 40
0.7090758246070642
 40
1.0
 40
1.0
 40
1.0
 40
1.0
 10
223.3401460251565
 20
114.798334601408
 30
0.0
 10
224.16078782075
 20
114.0558873087724
 30
0.0
 10
225.8828119394072
 20
112.497945522703
 30
0.0
 10
227.6191252721198
 20
109.6691122832013
 30
0.0
 10
228.8979672887502
 20
106.3566720592408
 30
0.0
 10
229.0694326490273
 20
104.0358437172637
 30
0.0
 10
229.1692046127076
 20
102.6854041843471
 30
0.0
  0
SPLINE
  5
192
330
1F
100
AcDbEntity
  8
0
  6
Continuous
 62
     7
370
    15
100
AcDbSpline
210
0.0
220
0.0
230
1.0
 70
     8
 71
     3
 72
    19
 73
    15
 74
     0
 42
0.00000001
 43
0.00000001
 40
0.0
 40
0.0
 40
0.0
 40
0.0
 40
0.0860849917306703
 40
0.171069040746437
 40
0.254952330441263
 40
0.3377350857497773
 40
0.4194175578927234
 40
0.4999999964084116
 40
0.5805823089609864
 40
0.6622647096525548
 40
0.7450474289622796
 40
0.8289307273112034
 40
0.9139148583061982
 40
1.0
 40
1.0
 40
1.0
 40
1.0
 10
255.9982647797818
 20
114.798334601408
 30
0.0
 10
258.2941722541655
 20
116.5087534972444
 30
0.0
 10
262.8566247954191
 20
119.9077167067754
 30
0.0
 10
270.338380292259
 20
123.9376426416031
 30
0.0
 10
278.0885901806693
 20
127.1088506036764
 30
0.0
 10
286.0493231129155
 20
129.3463904339133
 30
0.0
 10
294.0972178244193
 20
130.6759588320051
 30
0.0
 10
302.1692002321818
 20
131.1143602152034
 30
0.0
 10
310.2411805789107
 20
130.675959312708
 30
0.0
 10
318.289066405151
 20
129.3463873052985
 30
0.0
 10
326.2497995716809
 20
127.1088602892088
 30
0.0
 10
334.0000095671907
 20
123.9376472662272
 30
0.0
 10
341.481775576821
 20
119.9077243488654
 30
0.0
 10
346.0442344684716
 20
116.5087564949413
 30
0.0
 10
348.3401460251565
 20
114.798334601408
 30
0.0
  0
SPLINE
  5
193
330
1F
100
AcDbEntity
  8
0
  6
Continuous
 62
     7
370
    15
100
AcDbSpline
210
0.0
220
0.0
230
1.0
 70
     8
 71
     3
 72
    19
 73
    15
 74
     0
 42
0.00000001
 43
0.00000001
 40
0.0
 40
0.0
 40
0.0
 40
0.0
 40
0.086085098208528
 40
0.1710691961053382
 40
0.2549524595353513
 40
0.337735162826351
 40
0.4194176369795969
 40
0.4999999958945608
 40
0.5805823548095246
 40
0.6622648289627705
 40
0.7450475322537703
 40
0.8289308649165661
 40
0.9139149628133764
 40
0.9999999999999999
 40
0.9999999999999999
 40
0.9999999999999999
 40
0.9999999999999999
 10
130.9982610544915
 20
114.798334601408
 30
0.0
 10
133.2941730504944
 20
116.5087533215139
 30
0.0
 10
137.8566330773553
 20
119.9077150645007
 30
0.0
 10
145.3383931778567
 20
123.9376409780273
 30
0.0
 10
153.0886014575917
 20
127.1088502060518
 30
0.0
 10
161.0493315364953
 20
129.346391212351
 30
0.0
 10
169.0972221377669
 20
130.6759581452457
 30
0.0
 10
177.1692035464575
 20
131.1143606416749
 30
0.0
 10
185.241184915166
 20
130.675958084868
 30
0.0
 10
193.2890756385724
 20
129.3463914590922
 30
0.0
 10
201.2498074797097
 20
127.1088486382296
 30
0.0
 10
209.0000194977082
 20
123.9376427011505
 30
0.0
 10
216.4817802703947
 20
119.9077167961201
 30
0.0
 10
221.044236665311
 20
116.5087535005054
 30
0.0
 10
223.3401460251565
 20
114.798334601408
 30
0.0
  0
LINE
  5
194
330
1F
100
AcDbEntity
  8
0
  6
Continuous
 62
     7
370
    15
100
AcDbLine
 10
335.5375190875
 20
390.9688938289
 30
0.0
 11
98.8008899293
 21
390.9688938289
 31
0.0
  0
SPLINE
  5
195
330
1F
100
AcDbEntity
  8
0
  6
Continuous
 62
     7
370
    15
100
AcDbSpline
210
0.0
220
0.0
230
1.0
 70
     8
 71
     3
 72
    15
 73
    11
 74
     0
 42
0.00000001
 43
0.00000001
 40
0.0
 40
0.0
 40
0.0
 40
0.0
 40
0.0600945812231919
 40
0.1849347439219262
 40
0.3174291717743889
 40
0.4529568141922047
 40
0.5943501344655928
 40
0.7410187747603516
 40
0.8903388041403792
 40
0.9999999999999999
 40
0.9999999999999999
 40
0.9999999999999999
 40
0.9999999999999999
 10
58.92362423751307
 20
353.5252857832966
 30
0.0
 10
58.9528875296168
 20
354.1103793364361
 30
0.0
 10
59.04294222874887
 20
355.9109431180248
 30
0.0
 10
59.55855365523449
 20
358.9528402997317
 30
0.0
 10
60.46772821037958
 20
362.6208903544107
 30
0.0
 10
61.7808058611451
 20
366.2826178084911
 30
0.0
 10
63.46748844748143
 20
369.865238959729
 30
0.0
 10
65.53975532333037
 20
373.2942912125397
 30
0.0
 10
67.69755022352544
 20
376.2461342771708
 30
0.0
 10
69.26170452016558
 20
377.887774848891
 30
0.0
 10
69.92401905868006
 20
378.5828996329365
 30
0.0
  0
SPLINE
  5
196
330
1F
100
AcDbEntity
  8
0
  6
Continuous
 62
     7
370
    15
100
AcDbSpline
210
0.0
220
0.0
230
1.0
 70
     8
 71
     3
 72
    13
 73
     9
 74
     0
 42
0.00000001
 43
0.00000001
 40
0.0
 40
0.0
 40
0.0
 40
0.0
 40
0.0203380490886803
 40
0.218370854634867
 40
0.4323915271552256
 40
0.6170465962414902
 40
0.7928704050222687
 40
1.0
 40
1.0
 40
1.0
 40
1.0
 10
86.19878419253779
 20
388.9245439200458
 30
0.0
 10
86.28169945141653
 20
388.9544362809133
 30
0.0
 10
87.17196556615906
 20
389.2753923549803
 30
0.0
 10
88.9686198119865
 20
389.7608112418266
 30
0.0
 10
91.4636070321165
 20
390.3209767336868
 30
0.0
 10
93.88762145475285
 20
390.6860111461609
 30
0.0
 10
96.29304374015702
 20
390.9217822605284
 30
0.0
 10
97.92059145171719
 20
390.952356833077
 30
0.0
 10
98.80088992927027
 20
390.9688938288746
 30
0.0
  0
SPLINE
  5
197
330
1F
100
AcDbEntity
  8
0
  6
Continuous
 62
     7
370
    15
100
AcDbSpline
210
0.0
220
0.0
230
1.0
 70
     8
 71
     3
 72
    25
 73
    21
 74
     0
 42
0.00000001
 43
0.00000001
 40
0.0
 40
0.0
 40
0.0
 40
0.0
 40
0.04668158740274
 40
0.0863077350492728
 40
0.127925068072535
 40
0.1761594034153405
 40
0.2207910830193743
 40
0.261822999971779
 40
0.3325832650046736
 40
0.3979268413031114
 40
0.4671327432133329
 40
0.5322002120803703
 40
0.5982458360307307
 40
0.6611243205119183
 40
0.7228852881801322
 40
0.782425803789849
 40
0.8394953183837291
 40
0.8952885040020736
 40
0.9478576416390565
 40
1.0
 40
1.0
 40
1.0
 40
1.0
 10
335.5375190875287
 20
390.9688938288746
 30
0.0
 10
336.4177981918718
 20
390.9522971265453
 30
0.0
 10
338.0453113064451
 20
390.9216121420147
 30
0.0
 10
340.4508990205778
 20
390.686582982265
 30
0.0
 10
342.8742256652734
 20
390.3185346207607
 30
0.0
 10
345.3721643061938
 20
389.7712318588413
 30
0.0
 10
347.8305115681923
 20
389.0596748274183
 30
0.0
 10
350.6627061969393
 20
388.0471098916773
 30
0.0
 10
353.8023945712975
 20
386.630093613332
 30
0.0
 10
357.3087443346651
 20
384.6048114705782
 30
0.0
 10
360.56102655063
 20
382.2638921446741
 30
0.0
 10
363.6263486446821
 20
379.5436550742066
 30
0.0
 10
366.3695954135101
 20
376.5606953357566
 30
0.0
 10
368.8038989617837
 20
373.3017280758498
 30
0.0
 10
370.8694176212794
 20
369.863333098929
 30
0.0
 10
372.5585339758958
 20
366.283196666424
 30
0.0
 10
373.8684745505539
 20
362.6204916903581
 30
0.0
 10
374.7873852605035
 20
358.9539033703626
 30
0.0
 10
375.3727901563817
 20
355.2966964354267
 30
0.0
 10
375.478692158507
 20
352.8736013398499
 30
0.0
 10
375.5314273438211
 20
351.6669917731342
 30
0.0
  0
LINE
  5
198
330
1F
100
AcDbEntity
  8
0
  6
Continuous
 62
     7
370
    15
100
AcDbLine
 10
240.3375317952
 20
104.0390852718
 30
0.0
 11
236.0454646549
 21
102.3327756553
 31
0.0
  0
LINE
  5
199
330
1F
100
AcDbEntity
  8
0
  6
Continuous
 62
     7
370
    15
100
AcDbLine
 10
243.9612706802
 20
101.1751938491
 30
0.0
 11
240.3375317952
 21
104.0390852718
 31
0.0
  0
LINE
  5
19A
330
1F
100
AcDbEntity
  8
0
  6
Continuous
 62
     7
370
    15
100
AcDbLine
 10
243.2929424247
 20
96.6050039856
 30
0.0
 11
243.9612706802
 21
101.1751938491
 31
0.0
  0
LINE
  5
19B
330
1F
100
AcDbEntity
  8
0
  6
Continuous
 62
     7
370
    15
100
AcDbLine
 10
239.0008752844
 20
94.8986943691
 30
0.0
 11
243.2929424247
 21
96.6050039856
 31
0.0
  0
LINE
  5
19C
330
1F
100
AcDbEntity
  8
0
  6
Continuous
 62
     7
370
    15
100
AcDbLine
 10
235.3771363995
 20
97.7625820665
 30
0.0
 11
239.0008752844
 21
94.8986943691
 31
0.0
  0
LINE
  5
19D
330
1F
100
AcDbEntity
  8
0
  6
Continuous
 62
     7
370
    15
100
AcDbLine
 10
236.0454646549
 20
102.3327756553
 30
0.0
 11
235.3771363995
 21
97.7625820665
 31
0.0
  0
CIRCLE
  5
19E
330
1F
100
AcDbEntity
  8
0
  6
Continuous
 62
     7
370
    15
100
AcDbCircle
 10
239.6692040695
 20
99.468889826
 30
0.0
 40
3.500000000000001
  0
LINE
  5
19F
330
1F
100
AcDbEntity
  8
0
  6
Continuous
 62
     7
370
    15
100
AcDbLine
 10
239.4191695056
 20
98.8314274578
 30
0.0
 11
240.0656638345
 21
97.2052227585
 31
0.0
  0
LINE
  5
1A0
330
1F
100
AcDbEntity
  8
0
  6
Continuous
 62
     7
370
    15
100
AcDbLine
 10
240.0656638345
 20
97.2052227585
 30
0.0
 11
240.9949263236
 21
97.5746486216
 31
0.0
  0
LINE
  5
1A1
330
1F
100
AcDbEntity
  8
0
  6
Continuous
 62
     7
370
    15
100
AcDbLine
 10
240.9949263236
 20
97.5746486216
 30
0.0
 11
240.3484282694
 21
99.2008495956
 31
0.0
  0
LINE
  5
1A2
330
1F
100
AcDbEntity
  8
0
  6
Continuous
 62
     7
370
    15
100
AcDbLine
 10
240.3484282694
 20
99.2008495956
 30
0.0
 11
241.9447524152
 21
99.8354676991
 31
0.0
  0
LINE
  5
1A3
330
1F
100
AcDbEntity
  8
0
  6
Continuous
 62
     7
370
    15
100
AcDbLine
 10
241.9447524152
 20
99.8354676991
 30
0.0
 11
241.5753265521
 21
100.7647264628
 31
0.0
  0
LINE
  5
1A4
330
1F
100
AcDbEntity
  8
0
  6
Continuous
 62
     7
370
    15
100
AcDbLine
 10
241.5753265521
 20
100.7647264628
 30
0.0
 11
239.9790024063
 21
100.1301158099
 31
0.0
  0
LINE
  5
1A5
330
1F
100
AcDbEntity
  8
0
  6
Continuous
 62
     7
370
    15
100
AcDbLine
 10
239.9790024063
 20
100.1301158099
 30
0.0
 11
239.3325080774
 21
101.7563167839
 31
0.0
  0
LINE
  5
1A6
330
1F
100
AcDbEntity
  8
0
  6
Continuous
 62
     7
370
    15
100
AcDbLine
 10
239.3325080774
 20
101.7563167839
 30
0.0
 11
238.4032455883
 21
101.3868946462
 31
0.0
  0
LINE
  5
1A7
330
1F
100
AcDbEntity
  8
0
  6
Continuous
 62
     7
370
    15
100
AcDbLine
 10
238.4032455883
 20
101.3868946462
 30
0.0
 11
239.0497436425
 21
99.7606862216
 31
0.0
  0
LINE
  5
1A8
330
1F
100
AcDbEntity
  8
0
  6
Continuous
 62
     7
370
    15
100
AcDbLine
 10
239.0497436425
 20
99.7606862216
 30
0.0
 11
237.3936546645
 21
99.1023082166
 31
0.0
  0
LINE
  5
1A9
330
1F
100
AcDbEntity
  8
0
  6
Continuous
 62
     7
370
    15
100
AcDbLine
 10
237.3936546645
 20
99.1023082166
 30
0.0
 11
237.7630805275
 21
98.1730494528
 31
0.0
  0
LINE
  5
1AA
330
1F
100
AcDbEntity
  8
0
  6
Continuous
 62
     7
370
    15
100
AcDbLine
 10
237.7630805275
 20
98.1730494528
 30
0.0
 11
239.4191695056
 21
98.8314274578
 31
0.0
  0
ARC
  5
1AB
330
1F
100
AcDbEntity
  8
0
  6
Continuous
 62
     7
370
    15
100
AcDbCircle
 10
239.6692040695
 20
99.468889826
 30
0.0
 40
5.500000000000012
100
AcDbArc
 50
236.9442688491
 51
303.0557311509
  0
ARC
  5
1AC
330
1F
100
AcDbEntity
  8
0
  6
Continuous
 62
     7
370
    15
100
AcDbCircle
 10
239.6692040695
 20
99.468889826
 30
0.0
 40
5.500000000000023
100
AcDbArc
 50
65.074264597
 51
111.6802434214
  0
LINE
  5
1AD
330
1F
100
AcDbEntity
  8
0
  6
Continuous
 62
     7
370
    15
100
AcDbLine
 10
328.6692050895
 20
107.8763652473
 30
0.0
 11
328.6692050895
 21
98.0614099531
 31
0.0
  0
LINE
  5
1AE
330
1F
100
AcDbEntity
  8
0
  6
Continuous
 62
     7
370
    15
100
AcDbLine
 10
337.1692036888
 20
112.7838466196
 30
0.0
 11
328.6692050895
 21
107.8763652473
 31
0.0
  0
LINE
  5
1AF
330
1F
100
AcDbEntity
  8
0
  6
Continuous
 62
     7
370
    15
100
AcDbLine
 10
345.6692022881
 20
107.8763652473
 30
0.0
 11
337.1692036888
 21
112.7838466196
 31
0.0
  0
LINE
  5
1B0
330
1F
100
AcDbEntity
  8
0
  6
Continuous
 62
     7
370
    15
100
AcDbLine
 10
345.6692022881
 20
98.0614099531
 30
0.0
 11
345.6692022881
 21
107.8763652473
 31
0.0
  0
LINE
  5
1B1
330
1F
100
AcDbEntity
  8
0
  6
Continuous
 62
     7
370
    15
100
AcDbLine
 10
328.6692050895
 20
98.0614099531
 30
0.0
 11
337.1692036888
 21
93.1539360313
 31
0.0
  0
LINE
  5
1B2
330
1F
100
AcDbEntity
  8
0
  6
Continuous
 62
     7
370
    15
100
AcDbLine
 10
337.1692036888
 20
93.1539360313
 30
0.0
 11
345.6692022881
 21
98.0614099531
 31
0.0
  0
CIRCLE
  5
1B3
330
1F
100
AcDbEntity
  8
0
  6
Continuous
 62
     7
370
    15
100
AcDbCircle
 10
337.1570868416
 20
103.0173587375
 30
0.0
 40
10.00000000000006
  0
LINE
  5
1B4
330
1F
100
AcDbEntity
  8
0
  6
Continuous
 62
     7
370
    15
100
AcDbLine
 10
46.2561173043
 20
112.9567745953
 30
0.0
 11
46.2561173043
 21
92.956771317
 31
0.0
  0
LINE
  5
1B5
330
1F
100
AcDbEntity
  8
0
  6
Continuous
 62
     7
370
    15
100
AcDbLine
 10
39.2561180196
 20
94.4688890009
 30
0.0
 11
46.2561173043
 21
94.4688890009
 31
0.0
  0
LINE
  5
1B6
330
1F
100
AcDbEntity
  8
0
  6
Continuous
 62
     7
370
    15
100
AcDbLine
 10
39.2561180196
 20
94.4688890009
 30
0.0
 11
39.2561180196
 21
102.9688913255
 31
0.0
  0
LINE
  5
1B7
330
1F
100
AcDbEntity
  8
0
  6
Continuous
 62
     7
370
    15
100
AcDbLine
 10
39.2561180196
 20
102.9688913255
 30
0.0
 11
46.2561173043
 21
102.9688913255
 31
0.0
  0
LINE
  5
1B8
330
1F
100
AcDbEntity
  8
0
  6
Continuous
 62
     7
370
    15
100
AcDbLine
 10
39.2561180196
 20
111.4688861995
 30
0.0
 11
46.2561173043
 21
111.4688861995
 31
0.0
  0
LINE
  5
1B9
330
1F
100
AcDbEntity
  8
0
  6
Continuous
 62
     7
370
    15
100
AcDbLine
 10
39.2561180196
 20
102.9688913255
 30
0.0
 11
39.2561180196
 21
111.4688861995
 31
0.0
  0
LINE
  5
1BA
330
1F
100
AcDbEntity
  8
0
  6
Continuous
 62
     7
370
    15
100
AcDbLine
 10
258.6692047915
 20
107.8763652473
 30
0.0
 11
258.6692047915
 21
98.0614099531
 31
0.0
  0
LINE
  5
1BB
330
1F
100
AcDbEntity
  8
0
  6
Continuous
 62
     7
370
    15
100
AcDbLine
 10
267.1692033908
 20
112.7838466196
 30
0.0
 11
258.6692047915
 21
107.8763652473
 31
0.0
  0
LINE
  5
1BC
330
1F
100
AcDbEntity
  8
0
  6
Continuous
 62
     7
370
    15
100
AcDbLine
 10
275.6692038527
 20
107.8763652473
 30
0.0
 11
267.1692033908
 21
112.7838466196
 31
0.0
  0
LINE
  5
1BD
330
1F
100
AcDbEntity
  8
0
  6
Continuous
 62
     7
370
    15
100
AcDbLine
 10
275.6692038527
 20
98.0614099531
 30
0.0
 11
275.6692038527
 21
107.8763652473
 31
0.0
  0
LINE
  5
1BE
330
1F
100
AcDbEntity
  8
0
  6
Continuous
 62
     7
370
    15
100
AcDbLine
 10
258.6692047915
 20
98.0614099531
 30
0.0
 11
267.1692033908
 21
93.1539360313
 31
0.0
  0
LINE
  5
1BF
330
1F
100
AcDbEntity
  8
0
  6
Continuous
 62
     7
370
    15
100
AcDbLine
 10
267.1692033908
 20
93.1539360313
 30
0.0
 11
275.6692038527
 21
98.0614099531
 31
0.0
  0
CIRCLE
  5
1C0
330
1F
100
AcDbEntity
  8
0
  6
Continuous
 62
     7
370
    15
100
AcDbCircle
 10
267.1570868416
 20
103.0173587375
 30
0.0
 40
10.0
  0
LINE
  5
1C1
330
1F
100
AcDbEntity
  8
0
  6
Continuous
 62
     7
370
    15
100
AcDbLine
 10
133.6692047915
 20
107.8763652473
 30
0.0
 11
133.6692047915
 21
98.0614099531
 31
0.0
  0
LINE
  5
1C2
330
1F
100
AcDbEntity
  8
0
  6
Continuous
 62
     7
370
    15
100
AcDbLine
 10
142.1691996655
 20
112.7838466196
 30
0.0
 11
133.6692047915
 21
107.8763652473
 31
0.0
  0
LINE
  5
1C3
330
1F
100
AcDbEntity
  8
0
  6
Continuous
 62
     7
370
    15
100
AcDbLine
 10
150.6692094407
 20
107.8763652473
 30
0.0
 11
142.1691996655
 21
112.7838466196
 31
0.0
  0
LINE
  5
1C4
330
1F
100
AcDbEntity
  8
0
  6
Continuous
 62
     7
370
    15
100
AcDbLine
 10
150.6692094407
 20
98.0614099531
 30
0.0
 11
150.6692094407
 21
107.8763652473
 31
0.0
  0
LINE
  5
1C5
330
1F
100
AcDbEntity
  8
0
  6
Continuous
 62
     7
370
    15
100
AcDbLine
 10
133.6692047915
 20
98.0614099531
 30
0.0
 11
142.1691996655
 21
93.1539360313
 31
0.0
  0
LINE
  5
1C6
330
1F
100
AcDbEntity
  8
0
  6
Continuous
 62
     7
370
    15
100
AcDbLine
 10
142.1691996655
 20
93.1539360313
 30
0.0
 11
150.6692094407
 21
98.0614099531
 31
0.0
  0
CIRCLE
  5
1C7
330
1F
100
AcDbEntity
  8
0
  6
Continuous
 62
     7
370
    15
100
AcDbCircle
 10
142.1570868416
 20
103.0173587375
 30
0.0
 40
10.0
  0
LINE
  5
1C8
330
1F
100
AcDbEntity
  8
0
  6
Continuous
 62
     7
370
    15
100
AcDbLine
 10
203.6692050895
 20
107.8763652473
 30
0.0
 11
203.6692050895
 21
98.0614099531
 31
0.0
  0
LINE
  5
1C9
330
1F
100
AcDbEntity
  8
0
  6
Continuous
 62
     7
370
    15
100
AcDbLine
 10
212.1692074141
 20
112.7838466196
 30
0.0
 11
203.6692050895
 21
107.8763652473
 31
0.0
  0
LINE
  5
1CA
330
1F
100
AcDbEntity
  8
0
  6
Continuous
 62
     7
370
    15
100
AcDbLine
 10
220.6692022881
 20
107.8763652473
 30
0.0
 11
212.1692074141
 21
112.7838466196
 31
0.0
  0
LINE
  5
1CB
330
1F
100
AcDbEntity
  8
0
  6
Continuous
 62
     7
370
    15
100
AcDbLine
 10
220.6692022881
 20
98.0614099531
 30
0.0
 11
220.6692022881
 21
107.8763652473
 31
0.0
  0
LINE
  5
1CC
330
1F
100
AcDbEntity
  8
0
  6
Continuous
 62
     7
370
    15
100
AcDbLine
 10
203.6692050895
 20
98.0614099531
 30
0.0
 11
212.1692074141
 21
93.1539360313
 31
0.0
  0
LINE
  5
1CD
330
1F
100
AcDbEntity
  8
0
  6
Continuous
 62
     7
370
    15
100
AcDbLine
 10
212.1692074141
 20
93.1539360313
 30
0.0
 11
220.6692022881
 21
98.0614099531
 31
0.0
  0
CIRCLE
  5
1CE
330
1F
100
AcDbEntity
  8
0
  6
Continuous
 62
     7
370
    15
100
AcDbCircle
 10
212.1570868416
 20
103.0173587375
 30
0.0
 40
10.0
  0
CIRCLE
  5
1CF
330
1F
100
AcDbEntity
  8
0
  6
Continuous
 62
     7
370
    15
100
AcDbCircle
 10
302.1692040695
 20
102.968889826
 30
0.0
 40
21.49999999999994
  0
CIRCLE
  5
1D0
330
1F
100
AcDbEntity
  8
0
  6
Continuous
 62
     7
370
    15
100
AcDbCircle
 10
302.1692040695
 20
102.968889826
 30
0.0
 40
17.99999999999994
  0
CIRCLE
  5
1D1
330
1F
100
AcDbEntity
  8
0
  6
Continuous
 62
     7
370
    15
100
AcDbCircle
 10
302.1692040695
 20
102.968889826
 30
0.0
 40
15.00000000000006
  0
SPLINE
  5
1D2
330
1F
100
AcDbEntity
  8
0
  6
Continuous
 62
     7
370
    15
100
AcDbSpline
210
0.0
220
0.0
230
1.0
 70
     8
 71
     3
 72
    11
 73
     7
 74
     0
 42
0.00000001
 43
0.00000001
 40
0.0
 40
0.0
 40
0.0
 40
0.0
 40
0.1964759366659153
 40
0.5093186328170298
 40
0.9971815643622914
 40
1.0
 40
1.0
 40
1.0
 40
1.0
 10
322.7047880789991
 20
92.37613639522166
 30
0.0
 10
322.4298420036654
 20
92.3071340419422
 30
0.0
 10
321.7171076018673
 20
92.1282613268921
 30
0.0
 10
320.5897034239325
 20
91.49657512176952
 30
0.0
 10
319.9345344532787
 20
90.84598918806951
 30
0.0
 10
319.6097490156835
 20
90.39600237835305
 30
0.0
 10
319.607883473372
 20
90.39341768909068
 30
0.0
  0
SPLINE
  5
1D3
330
1F
100
AcDbEntity
  8
0
  6
Continuous
 62
     7
370
    15
100
AcDbSpline
210
0.0
220
0.0
230
1.0
 70
     8
 71
     3
 72
    11
 73
     7
 74
     0
 42
0.00000001
 43
0.00000001
 40
0.0
 40
0.0
 40
0.0
 40
0.0
 40
0.0028178873367934
 40
0.4906809735594718
 40
0.8035237688976674
 40
1.0
 40
1.0
 40
1.0
 40
1.0
 10
319.607883473372
 20
115.5443612365779
 30
0.0
 10
319.6097490172515
 20
115.5417777918367
 30
0.0
 10
319.9345976636335
 20
115.0919204947604
 30
0.0
 10
320.5896846449682
 20
114.441169030111
 30
0.0
 10
321.7171104715782
 20
113.8095271315245
 30
0.0
 10
322.42984265853
 20
113.6306475735491
 30
0.0
 10
322.7047880789991
 20
113.561642530447
 30
0.0
  0
SPLINE
  5
1D4
330
1F
100
AcDbEntity
  8
0
  6
Continuous
 62
     7
370
    15
100
AcDbSpline
210
0.0
220
0.0
230
1.0
 70
     8
 71
     3
 72
    11
 73
     7
 74
     0
 42
0.00000001
 43
0.00000001
 40
0.0
 40
0.0
 40
0.0
 40
0.0
 40
0.0028185834641584
 40
0.4906814737886075
 40
0.8035237210892036
 40
1.0
 40
1.0
 40
1.0
 40
1.0
 10
284.7305254689212
 20
90.39341768909068
 30
0.0
 10
284.7286594597866
 20
90.39600237795254
 30
0.0
 10
284.4038097173898
 20
90.845965615215
 30
0.0
 10
283.7487217266486
 20
91.49658117285072
 30
0.0
 10
282.6212979678798
 20
92.12826121421699
 30
0.0
 10
281.9085647067689
 20
92.30713391341719
 30
0.0
 10
281.6336185349877
 20
92.37613639522166
 30
0.0
  0
SPLINE
  5
1D5
330
1F
100
AcDbEntity
  8
0
  6
Continuous
 62
     7
370
    15
100
AcDbSpline
210
0.0
220
0.0
230
1.0
 70
     8
 71
     3
 72
    11
 73
     7
 74
     0
 42
0.00000001
 43
0.00000001
 40
0.0
 40
0.0
 40
0.0
 40
0.0
 40
0.1964765733411374
 40
0.5093189198197187
 40
0.9971819648076089
 40
1.0
 40
1.0
 40
1.0
 40
1.0
 10
281.6336185349877
 20
113.561642530447
 30
0.0
 10
281.9085640518459
 20
113.6306477021021
 30
0.0
 10
282.6212950979659
 20
113.8095272442874
 30
0.0
 10
283.7487405072959
 20
114.4411629783613
 30
0.0
 10
284.403746501296
 20
115.0919440701182
 30
0.0
 10
284.7286594582188
 20
115.5417777922373
 30
0.0
 10
284.7305254689212
 20
115.5443612365779
 30
0.0
  0
ARC
  5
1D6
330
1F
100
AcDbEntity
  8
0
  6
Continuous
 62
     7
370
    15
100
AcDbCircle
 10
338.6692040695
 20
102.968889826
 30
0.0
 40
12.49999999999998
100
AcDbArc
 50
304.3011527568
 51
55.6988472432
  0
SPLINE
  5
1D7
330
1F
100
AcDbEntity
  8
0
  6
Continuous
 62
     7
370
    15
100
AcDbSpline
210
0.0
220
0.0
230
1.0
 70
    24
 71
     3
 72
    12
 73
     8
 74
     0
 42
0.00000001
 43
0.00000001
 40
0.0
 40
0.0
 40
0.0
 40
0.0
 40
0.4090179545100063
 40
0.6622114177119198
 40
0.8095568608548844
 40
0.9044148238097676
 40
1.0
 40
1.0
 40
1.0
 40
1.0
 10
343.1413395008798
 20
113.4688902525959
 30
0.0
 10
343.4752061855987
 20
113.4688902525959
 30
0.0
 10
344.0157456122344
 20
113.4688902525959
 30
0.0
 10
344.6441952188985
 20
113.4688902525958
 30
0.0
 10
344.9622951650899
 20
113.4688902525959
 30
0.0
 10
345.1205541215467
 20
113.4688902525958
 30
0.0
 10
345.1401232982025
 20
113.4688902525959
 30
0.0
 10
345.1499452492948
 20
113.4688902525959
 30
0.0
  0
ARC
  5
1D8
330
1F
100
AcDbEntity
  8
0
  6
Continuous
 62
     7
370
    15
100
AcDbCircle
 10
345.1499447679
 20
112.468889826
 30
0.0
 40
0.9999999999999867
100
AcDbArc
 50
55.6988472432
 51
90.0
  0
ARC
  5
1D9
330
1F
100
AcDbEntity
  8
0
  6
Continuous
 62
     7
370
    15
100
AcDbCircle
 10
265.6692040695
 20
102.968889826
 30
0.0
 40
12.50000000000012
100
AcDbArc
 50
124.3011527568
 51
235.6988472432
  0
SPLINE
  5
1DA
330
1F
100
AcDbEntity
  8
0
  6
Continuous
 62
     7
370
    15
100
AcDbSpline
210
0.0
220
0.0
230
1.0
 70
    24
 71
     3
 72
    12
 73
     8
 74
     0
 42
0.00000001
 43
0.00000001
 40
0.0
 40
0.0
 40
0.0
 40
0.0
 40
0.4090174319936679
 40
0.662211041445037
 40
0.8095571550577653
 40
0.9044147685979157
 40
0.9999999999999999
 40
0.9999999999999999
 40
0.9999999999999999
 40
0.9999999999999999
 10
261.1970675787683
 20
92.46888867307277
 30
0.0
 10
260.8632013250353
 20
92.46888867307277
 30
0.0
 10
260.3226622127775
 20
92.46888867307275
 30
0.0
 10
259.6942142764437
 20
92.46888867307277
 30
0.0
 10
259.376111511021
 20
92.46888867307277
 30
0.0
 10
259.2178551989239
 20
92.46888867307277
 30
0.0
 10
259.1982857843506
 20
92.46888867307277
 30
0.0
 10
259.1884636929984
 20
92.46888867307277
 30
0.0
  0
ARC
  5
1DB
330
1F
100
AcDbEntity
  8
0
  6
Continuous
 62
     7
370
    15
100
AcDbCircle
 10
259.188463371
 20
93.468889826
 30
0.0
 40
1.0
100
AcDbArc
 50
235.6988472432
 51
270.0
  0
ARC
  5
1DC
330
1F
100
AcDbEntity
  8
0
  6
Continuous
 62
     7
370
    15
100
AcDbCircle
 10
345.1499447679
 20
93.468889826
 30
0.0
 40
1.000000000000014
100
AcDbArc
 50
270.0
 51
304.3011527568
  0
SPLINE
  5
1DD
330
1F
100
AcDbEntity
  8
0
  6
Continuous
 62
     7
370
    15
100
AcDbSpline
210
0.0
220
0.0
230
1.0
 70
    24
 71
     3
 72
    13
 73
     9
 74
     0
 42
0.00000001
 43
0.00000001
 40
0.0
 40
0.0
 40
0.0
 40
0.0
 40
0.0830616762431889
 40
0.174671515173646
 40
0.3146454041394176
 40
0.4537337212968161
 40
0.8351878734210443
 40
1.0
 40
1.0
 40
1.0
 40
1.0
 10
345.1499452492948
 20
92.46888867307277
 30
0.0
 10
345.1425641552969
 20
92.46888867307277
 30
0.0
 10
345.1270423535399
 20
92.46888867307277
 30
0.0
 10
344.9906776815912
 20
92.46888867307277
 30
0.0
 10
344.7607389520397
 20
92.46888867307275
 30
0.0
 10
344.278532334038
 20
92.46888867307277
 30
0.0
 10
343.7190912456826
 20
92.46888867307278
 30
0.0
 10
343.2752494790036
 20
92.46888867307277
 30
0.0
 10
343.1413395008798
 20
92.46888867307277
 30
0.0
  0
ARC
  5
1DE
330
1F
100
AcDbEntity
  8
0
  6
Continuous
 62
     7
370
    15
100
AcDbCircle
 10
259.188463371
 20
112.468889826
 30
0.0
 40
1.0
100
AcDbArc
 50
90.0
 51
124.3011527568
  0
SPLINE
  5
1DF
330
1F
100
AcDbEntity
  8
0
  6
Continuous
 62
     7
370
    15
100
AcDbSpline
210
0.0
220
0.0
230
1.0
 70
    24
 71
     3
 72
    13
 73
     9
 74
     0
 42
0.00000001
 43
0.00000001
 40
0.0
 40
0.0
 40
0.0
 40
0.0
 40
0.0830617086877063
 40
0.1746712101923703
 40
0.314645153832999
 40
0.4537335253193436
 40
0.8351885716618649
 40
1.0
 40
1.0
 40
1.0
 40
1.0
 10
259.1884636929984
 20
113.4688902525959
 30
0.0
 10
259.1958449077277
 20
113.4688902525959
 30
0.0
 10
259.2113669302074
 20
113.4688902525959
 30
0.0
 10
259.3477287808907
 20
113.4688902525958
 30
0.0
 10
259.5776683845125
 20
113.4688902525959
 30
0.0
 10
260.0598750748779
 20
113.4688902525959
 30
0.0
 10
260.6193165132255
 20
113.4688902525959
 30
0.0
 10
261.0631582308167
 20
113.4688902525959
 30
0.0
 10
261.1970675787683
 20
113.4688902525959
 30
0.0
  0
LINE
  5
1E0
330
1F
100
AcDbEntity
  8
0
  6
Continuous
 62
     7
370
    15
100
AcDbLine
 10
343.1413395009
 20
92.4688886731
 30
0.0
 11
323.6633909545
 21
92.4688886731
 31
0.0
  0
LINE
  5
1E1
330
1F
100
AcDbEntity
  8
0
  6
Continuous
 62
     7
370
    15
100
AcDbLine
 10
323.6633909545
 20
113.4688902526
 30
0.0
 11
343.1413395009
 21
113.4688902526
 31
0.0
  0
ARC
  5
1E2
330
1F
100
AcDbEntity
  8
0
  6
Continuous
 62
     7
370
    15
100
AcDbCircle
 10
323.6633893297
 20
87.468889826
 30
0.0
 40
4.999999999999986
100
AcDbArc
 50
90.0
 51
101.0531732713
  0
ARC
  5
1E3
330
1F
100
AcDbEntity
  8
0
  6
Continuous
 62
     7
370
    15
100
AcDbCircle
 10
323.6633893297
 20
118.468889826
 30
0.0
 40
4.999999999999985
100
AcDbArc
 50
258.9468267287
 51
270.0
  0
ARC
  5
1E4
330
1F
100
AcDbEntity
  8
0
  6
Continuous
 62
     7
370
    15
100
AcDbCircle
 10
280.6750188092
 20
87.468889826
 30
0.0
 40
4.999999999999996
100
AcDbArc
 50
78.9468267287
 51
90.0
  0
LINE
  5
1E5
330
1F
100
AcDbEntity
  8
0
  6
Continuous
 62
     7
370
    15
100
AcDbLine
 10
280.6750189191
 20
92.4688886731
 30
0.0
 11
261.1970675788
 21
92.4688886731
 31
0.0
  0
ARC
  5
1E6
330
1F
100
AcDbEntity
  8
0
  6
Continuous
 62
     7
370
    15
100
AcDbCircle
 10
280.6750188092
 20
118.468889826
 30
0.0
 40
5.0
100
AcDbArc
 50
270.0
 51
281.0531732713
  0
LINE
  5
1E7
330
1F
100
AcDbEntity
  8
0
  6
Continuous
 62
     7
370
    15
100
AcDbLine
 10
261.1970675788
 20
113.4688902526
 30
0.0
 11
280.6750189191
 21
113.4688902526
 31
0.0
  0
SPLINE
  5
1E8
330
1F
100
AcDbEntity
  8
0
  6
Continuous
 62
     7
370
    15
100
AcDbSpline
210
0.0
220
0.0
230
1.0
 70
     8
 71
     3
 72
    10
 73
     6
 74
     0
 42
0.00000001
 43
0.00000001
 40
0.0
 40
0.0
 40
0.0
 40
0.0
 40
0.5447791274561347
 40
0.9680244985499397
 40
1.0
 40
1.0
 40
1.0
 40
1.0
 10
345.431983252501
 20
92.45628601599307
 30
0.0
 10
345.3406812117141
 20
92.414032677098
 30
0.0
 10
345.1784455316102
 20
92.33895221763375
 30
0.0
 10
344.9758336654325
 20
92.35606948073125
 30
0.0
 10
344.8851441091795
 20
92.37765969790767
 30
0.0
 10
344.8787739178891
 20
92.37917623210521
 30
0.0
  0
SPLINE
  5
1E9
330
1F
100
AcDbEntity
  8
0
  6
Continuous
 62
     7
370
    15
100
AcDbSpline
210
0.0
220
0.0
230
1.0
 70
     8
 71
     3
 72
    10
 73
     6
 74
     0
 42
0.00000001
 43
0.00000001
 40
0.0
 40
0.0
 40
0.0
 40
0.0
 40
0.4959570612911176
 40
0.9680302749715468
 40
1.0
 40
1.0
 40
1.0
 40
1.0
 10
345.431983252501
 20
113.4814966349659
 30
0.0
 10
345.3495511949542
 20
113.5207786970268
 30
0.0
 10
345.1886567676712
 20
113.5974511114478
 30
0.0
 10
344.9855774202846
 20
113.5840559823823
 30
0.0
 10
344.8851440632881
 20
113.560120819346
 30
0.0
 10
344.8787739178891
 20
113.5586026935634
 30
0.0
  0
SPLINE
  5
1EA
330
1F
100
AcDbEntity
  8
0
  6
Continuous
 62
     7
370
    15
100
AcDbSpline
210
0.0
220
0.0
230
1.0
 70
     8
 71
     3
 72
    10
 73
     6
 74
     0
 42
0.00000001
 43
0.00000001
 40
0.0
 40
0.0
 40
0.0
 40
0.0
 40
0.4959560867764631
 40
0.9680290824092198
 40
1.0
 40
1.0
 40
1.0
 40
1.0
 10
258.9064256897922
 20
92.45628601599307
 30
0.0
 10
258.9888577899263
 20
92.41699907128057
 30
0.0
 10
259.1497524182643
 20
92.34031707048511
 30
0.0
 10
259.3528244442962
 20
92.3537454351642
 30
0.0
 10
259.4532642449813
 20
92.3776593973713
 30
0.0
 10
259.4596350244041
 20
92.37917623210521
 30
0.0
  0
SPLINE
  5
1EB
330
1F
100
AcDbEntity
  8
0
  6
Continuous
 62
     7
370
    15
100
AcDbSpline
210
0.0
220
0.0
230
1.0
 70
     8
 71
     3
 72
    10
 73
     6
 74
     0
 42
0.00000001
 43
0.00000001
 40
0.0
 40
0.0
 40
0.0
 40
0.0
 40
0.5447759025301249
 40
0.9680211092100197
 40
1.0
 40
1.0
 40
1.0
 40
1.0
 10
258.9064256897922
 20
113.4814966349659
 30
0.0
 10
258.99772696652
 20
113.5237449187347
 30
0.0
 10
259.1599616813082
 20
113.5988165772391
 30
0.0
 10
259.3625748300803
 20
113.581727019133
 30
0.0
 10
259.4532642150512
 20
113.56012052145
 30
0.0
 10
259.4596350244041
 20
113.5586026935634
 30
0.0
  0
SPLINE
  5
1EC
330
1F
100
AcDbEntity
  8
0
  6
Continuous
 62
     7
370
    15
100
AcDbSpline
210
0.0
220
0.0
230
1.0
 70
     8
 71
     3
 72
    10
 73
     6
 74
     0
 42
0.00000001
 43
0.00000001
 40
0.0
 40
0.0
 40
0.0
 40
0.0
 40
0.5860411982225598
 40
0.8207083552075954
 40
1.0
 40
1.0
 40
1.0
 40
1.0
 10
342.9230561158414
 20
115.2924571065959
 30
0.0
 10
343.4706774918186
 20
114.9088575286208
 30
0.0
 10
344.2375816618971
 20
114.3716540356699
 30
0.0
 10
345.0704861982917
 20
113.7554362573364
 30
0.0
 10
345.336373761973
 20
113.5554899421463
 30
0.0
 10
345.4515335759874
 20
113.4688902525959
 30
0.0
  0
SPLINE
  5
1ED
330
1F
100
AcDbEntity
  8
0
  6
Continuous
 62
     7
370
    15
100
AcDbSpline
210
0.0
220
0.0
230
1.0
 70
     8
 71
     3
 72
    10
 73
     6
 74
     0
 42
0.00000001
 43
0.00000001
 40
0.0
 40
0.0
 40
0.0
 40
0.0
 40
0.5860411982225598
 40
0.8207083552075954
 40
1.0
 40
1.0
 40
1.0
 40
1.0
 10
261.4153509638066
 20
90.64532181907268
 30
0.0
 10
260.8677295878295
 20
91.0289213970478
 30
0.0
 10
260.1008254177509
 20
91.56612488999872
 30
0.0
 10
259.2679208813563
 20
92.18234266833223
 30
0.0
 10
259.002033317675
 20
92.3822889835223
 30
0.0
 10
258.8868735036607
 20
92.46888867307277
 30
0.0
  0
SPLINE
  5
1EE
330
1F
100
AcDbEntity
  8
0
  6
Continuous
 62
     7
370
    15
100
AcDbSpline
210
0.0
220
0.0
230
1.0
 70
     8
 71
     3
 72
    11
 73
     7
 74
     0
 42
0.00000001
 43
0.00000001
 40
0.0
 40
0.0
 40
0.0
 40
0.0
 40
0.0369891319713834
 40
0.2730345860231556
 40
0.6578723789255971
 40
1.0
 40
1.0
 40
1.0
 40
1.0
 10
345.4515335759874
 20
92.46888867307277
 30
0.0
 10
345.4297260748335
 20
92.45244011324522
 30
0.0
 10
345.2687544128233
 20
92.3310253764338
 30
0.0
 10
344.7712069463594
 20
91.95931275125751
 30
0.0
 10
343.919850394986
 20
91.33881830089865
 30
0.0
 10
343.2420469279066
 20
90.8672522720563
 30
0.0
 10
342.9230561158414
 20
90.64532181907268
 30
0.0
  0
SPLINE
  5
1EF
330
1F
100
AcDbEntity
  8
0
  6
Continuous
 62
     7
370
    15
100
AcDbSpline
210
0.0
220
0.0
230
1.0
 70
     8
 71
     3
 72
    11
 73
     7
 74
     0
 42
0.00000001
 43
0.00000001
 40
0.0
 40
0.0
 40
0.0
 40
0.0
 40
0.0369897205219322
 40
0.27303542513895
 40
0.6578731574389205
 40
1.0
 40
1.0
 40
1.0
 40
1.0
 10
258.8868735036607
 20
113.4688902525959
 30
0.0
 10
258.9086823176753
 20
113.4853387689485
 30
0.0
 10
259.0696616038724
 20
113.6067516261387
 30
0.0
 10
259.5671956830099
 20
113.9784741094557
 30
0.0
 10
260.4185623305182
 20
114.5989576249992
 30
0.0
 10
261.0963622017136
 20
115.0705258628408
 30
0.0
 10
261.4153509638066
 20
115.2924571065959
 30
0.0
  0
ARC
  5
1F0
330
1F
100
AcDbEntity
  8
0
  6
Continuous
 62
     7
370
    15
100
AcDbCircle
 10
302.1692040695
 20
149.8175135767
 30
0.0
 40
71.8486237506259
100
AcDbArc
 50
235.4435251253
 51
304.5564748747
  0
ARC
  5
1F1
330
1F
100
AcDbEntity
  8
0
  6
Continuous
 62
     7
370
    15
100
AcDbCircle
 10
302.1692040695
 20
56.1202660754
 30
0.0
 40
71.84862375062592
100
AcDbArc
 50
55.4435251253
 51
124.5564748747
  0
CIRCLE
  5
1F2
330
1F
100
AcDbEntity
  8
0
  6
Continuous
 62
     7
370
    15
100
AcDbCircle
 10
177.1692040695
 20
102.968889826
 30
0.0
 40
21.5
  0
CIRCLE
  5
1F3
330
1F
100
AcDbEntity
  8
0
  6
Continuous
 62
     7
370
    15
100
AcDbCircle
 10
177.1692040695
 20
102.968889826
 30
0.0
 40
17.99999999999997
  0
CIRCLE
  5
1F4
330
1F
100
AcDbEntity
  8
0
  6
Continuous
 62
     7
370
    15
100
AcDbCircle
 10
177.1692040695
 20
102.968889826
 30
0.0
 40
15.0
  0
SPLINE
  5
1F5
330
1F
100
AcDbEntity
  8
0
  6
Continuous
 62
     7
370
    15
100
AcDbSpline
210
0.0
220
0.0
230
1.0
 70
     8
 71
     3
 72
    11
 73
     7
 74
     0
 42
0.00000001
 43
0.00000001
 40
0.0
 40
0.0
 40
0.0
 40
0.0
 40
0.0028188309629311
 40
0.4906815045436145
 40
0.8035233495841784
 40
1.0
 40
1.0
 40
1.0
 40
1.0
 10
159.7305310568566
 20
90.39341768909068
 30
0.0
 10
159.7286642696677
 20
90.39600237727616
 30
0.0
 10
159.4037075913309
 20
90.84592601736148
 30
0.0
 10
158.7487570364517
 20
91.49659220924954
 30
0.0
 10
157.6212996144602
 20
92.12826053846275
 30
0.0
 10
156.9085685765655
 20
92.30713362814433
 30
0.0
 10
156.6336227259393
 20
92.37613639522166
 30
0.0
  0
SPLINE
  5
1F6
330
1F
100
AcDbEntity
  8
0
  6
Continuous
 62
     7
370
    15
100
AcDbSpline
210
0.0
220
0.0
230
1.0
 70
     8
 71
     3
 72
    11
 73
     7
 74
     0
 42
0.00000001
 43
0.00000001
 40
0.0
 40
0.0
 40
0.0
 40
0.0
 40
0.1964766504158215
 40
0.5093184954563854
 40
0.997181169037069
 40
1.0
 40
1.0
 40
1.0
 40
1.0
 10
197.7047918042894
 20
92.37613639522166
 30
0.0
 10
197.4298459536631
 20
92.30713362814433
 30
0.0
 10
196.7171149157684
 20
92.12826053846281
 30
0.0
 10
195.5896574937776
 20
91.49659220924921
 30
0.0
 10
194.9347069388953
 20
90.84592601736263
 30
0.0
 10
194.6097502605609
 20
90.39600237727616
 30
0.0
 10
194.607883473372
 20
90.39341768909068
 30
0.0
  0
SPLINE
  5
1F7
330
1F
100
AcDbEntity
  8
0
  6
Continuous
 62
     7
370
    15
100
AcDbSpline
210
0.0
220
0.0
230
1.0
 70
     8
 71
     3
 72
    11
 73
     7
 74
     0
 42
0.00000001
 43
0.00000001
 40
0.0
 40
0.0
 40
0.0
 40
0.0
 40
0.1964769448363403
 40
0.5093188890397741
 40
0.9971817172604572
 40
1.0
 40
1.0
 40
1.0
 40
1.0
 10
156.6336227259393
 20
113.561642530447
 30
0.0
 10
156.9085679215463
 20
113.6306479874193
 30
0.0
 10
157.6212967442083
 20
113.8095279201873
 30
0.0
 10
158.7487758199173
 20
114.4411519408154
 30
0.0
 10
159.4036443657295
 20
115.0919836720528
 30
0.0
 10
159.7286642681003
 20
115.5417777929139
 30
0.0
 10
159.7305310568566
 20
115.544361236578
 30
0.0
  0
SPLINE
  5
1F8
330
1F
100
AcDbEntity
  8
0
  6
Continuous
 62
     7
370
    15
100
AcDbSpline
210
0.0
220
0.0
230
1.0
 70
     8
 71
     3
 72
    11
 73
     7
 74
     0
 42
0.00000001
 43
0.00000001
 40
0.0
 40
0.0
 40
0.0
 40
0.0
 40
0.0028182827395428
 40
0.4906811109602259
 40
0.8035230551636597
 40
1.0
 40
1.0
 40
1.0
 40
1.0
 10
194.607883473372
 20
115.5443612365779
 30
0.0
 10
194.6097502621283
 20
115.5417777929139
 30
0.0
 10
194.9347701644989
 20
115.0919836720525
 30
0.0
 10
195.5896387103114
 20
114.4411519408155
 30
0.0
 10
196.7171177860204
 20
113.8095279201873
 30
0.0
 10
197.4298466086823
 20
113.6306479874193
 30
0.0
 10
197.7047918042894
 20
113.561642530447
 30
0.0
  0
SPLINE
  5
1F9
330
1F
100
AcDbEntity
  8
0
  6
Continuous
 62
     7
370
    15
100
AcDbSpline
210
0.0
220
0.0
230
1.0
 70
    24
 71
     3
 72
    12
 73
     8
 74
     0
 42
0.00000001
 43
0.00000001
 40
0.0
 40
0.0
 40
0.0
 40
0.0
 40
0.4090151862502883
 40
0.6622116434251495
 40
0.8095583534144862
 40
0.9044147614525087
 40
1.0
 40
1.0
 40
1.0
 40
1.0
 10
136.1970675787683
 20
92.46888867307277
 30
0.0
 10
135.8632031186499
 20
92.46888867307277
 30
0.0
 10
135.322663451057
 20
92.46888867307277
 30
0.0
 10
134.6942155547222
 20
92.46888867307278
 30
0.0
 10
134.3761063169807
 20
92.46888867307277
 30
0.0
 10
134.2178581365952
 20
92.46888867307277
 30
0.0
 10
134.1982880478911
 20
92.46888867307275
 30
0.0
 10
134.1884655556436
 20
92.46888867307277
 30
0.0
  0
ARC
  5
1FA
330
1F
100
AcDbEntity
  8
0
  6
Continuous
 62
     7
370
    15
100
AcDbCircle
 10
134.188463371
 20
93.468889826
 30
0.0
 40
1.000000000000014
100
AcDbArc
 50
235.6988472432
 51
270.0
  0
ARC
  5
1FB
330
1F
100
AcDbEntity
  8
0
  6
Continuous
 62
     7
370
    15
100
AcDbCircle
 10
140.6692040695
 20
102.968889826
 30
0.0
 40
12.50000000000011
100
AcDbArc
 50
124.3011527568
 51
235.6988472432
  0
ARC
  5
1FC
330
1F
100
AcDbEntity
  8
0
  6
Continuous
 62
     7
370
    15
100
AcDbCircle
 10
213.6692040695
 20
102.968889826
 30
0.0
 40
12.5
100
AcDbArc
 50
304.3011527568
 51
55.6988472432
  0
SPLINE
  5
1FD
330
1F
100
AcDbEntity
  8
0
  6
Continuous
 62
     7
370
    15
100
AcDbSpline
210
0.0
220
0.0
230
1.0
 70
    24
 71
     3
 72
    12
 73
     8
 74
     0
 42
0.00000001
 43
0.00000001
 40
0.0
 40
0.0
 40
0.0
 40
0.0
 40
0.4090181369637286
 40
0.662211713109559
 40
0.8095583927018489
 40
0.9044147811713675
 40
1.0
 40
1.0
 40
1.0
 40
1.0
 10
218.1413395008798
 20
113.4688902525959
 30
0.0
 10
218.4752067665192
 20
113.4688902525959
 30
0.0
 10
219.0157471336811
 20
113.4688902525959
 30
0.0
 10
219.6441932142885
 20
113.4688902525958
 30
0.0
 10
219.9623007784131
 20
113.4688902525958
 30
0.0
 10
220.1205489398247
 20
113.4688902525959
 30
0.0
 10
220.1401190306782
 20
113.4688902525959
 30
0.0
 10
220.1499415240045
 20
113.4688902525959
 30
0.0
  0
ARC
  5
1FE
330
1F
100
AcDbEntity
  8
0
  6
Continuous
 62
     7
370
    15
100
AcDbCircle
 10
220.1499447679
 20
112.468889826
 30
0.0
 40
0.9999999999999858
100
AcDbArc
 50
55.6988472432
 51
90.0
  0
ARC
  5
1FF
330
1F
100
AcDbEntity
  8
0
  6
Continuous
 62
     7
370
    15
100
AcDbCircle
 10
220.1499447679
 20
93.468889826
 30
0.0
 40
1.000000000000014
100
AcDbArc
 50
270.0
 51
304.3011527568
  0
SPLINE
  5
200
330
1F
100
AcDbEntity
  8
0
  6
Continuous
 62
     7
370
    15
100
AcDbSpline
210
0.0
220
0.0
230
1.0
 70
    24
 71
     3
 72
    13
 73
     9
 74
     0
 42
0.00000001
 43
0.00000001
 40
0.0
 40
0.0
 40
0.0
 40
0.0
 40
0.0830614021709301
 40
0.1746712357184728
 40
0.3146439887681464
 40
0.4537322977528365
 40
0.8351894083399315
 40
1.0
 40
1.0
 40
1.0
 40
1.0
 10
220.1499415240045
 20
92.46888867307277
 30
0.0
 10
220.1425619730198
 20
92.46888867307277
 30
0.0
 10
220.1270433897085
 20
92.46888867307277
 30
0.0
 10
219.9906773427303
 20
92.4688886730728
 30
0.0
 10
219.7607426684706
 20
92.46888867307277
 30
0.0
 10
219.2785332292556
 20
92.46888867307277
 30
0.0
 10
218.7190912137503
 20
92.46888867307277
 30
0.0
 10
218.2752482454536
 20
92.46888867307277
 30
0.0
 10
218.1413395008798
 20
92.46888867307277
 30
0.0
  0
ARC
  5
201
330
1F
100
AcDbEntity
  8
0
  6
Continuous
 62
     7
370
    15
100
AcDbCircle
 10
134.188463371
 20
112.468889826
 30
0.0
 40
1.000000000000022
100
AcDbArc
 50
90.0
 51
124.3011527568
  0
SPLINE
  5
202
330
1F
100
AcDbEntity
  8
0
  6
Continuous
 62
     7
370
    15
100
AcDbSpline
210
0.0
220
0.0
230
1.0
 70
    24
 71
     3
 72
    13
 73
     9
 74
     0
 42
0.00000001
 43
0.00000001
 40
0.0
 40
0.0
 40
0.0
 40
0.0
 40
0.0830614391030377
 40
0.1746713133836302
 40
0.3146463840615306
 40
0.4537320548624322
 40
0.8351893350591736
 40
1.0
 40
1.0
 40
1.0
 40
1.0
 10
134.1884655556436
 20
113.4688902525959
 30
0.0
 10
134.1958451512699
 20
113.4688902525958
 30
0.0
 10
134.2113638284587
 20
113.4688902525958
 30
0.0
 10
134.3477299551688
 20
113.4688902525959
 30
0.0
 10
134.5776703251257
 20
113.4688902525959
 30
0.0
 10
135.0598730323126
 20
113.4688902525958
 30
0.0
 10
135.6193162624929
 20
113.4688902525959
 30
0.0
 10
136.0631589261155
 20
113.4688902525959
 30
0.0
 10
136.1970675787683
 20
113.4688902525959
 30
0.0
  0
LINE
  5
203
330
1F
100
AcDbEntity
  8
0
  6
Continuous
 62
     7
370
    15
100
AcDbLine
 10
218.1413395009
 20
92.4688886731
 30
0.0
 11
198.6633909545
 21
92.4688886731
 31
0.0
  0
LINE
  5
204
330
1F
100
AcDbEntity
  8
0
  6
Continuous
 62
     7
370
    15
100
AcDbLine
 10
155.6750161252
 20
92.4688886731
 30
0.0
 11
136.1970675788
 21
92.4688886731
 31
0.0
  0
ARC
  5
205
330
1F
100
AcDbEntity
  8
0
  6
Continuous
 62
     7
370
    15
100
AcDbCircle
 10
155.6750188092
 20
87.468889826
 30
0.0
 40
4.999999999999988
100
AcDbArc
 50
78.9468267287
 51
90.0
  0
ARC
  5
206
330
1F
100
AcDbEntity
  8
0
  6
Continuous
 62
     7
370
    15
100
AcDbCircle
 10
198.6633893297
 20
87.468889826
 30
0.0
 40
4.999999999999988
100
AcDbArc
 50
90.0
 51
101.0531732713
  0
ARC
  5
207
330
1F
100
AcDbEntity
  8
0
  6
Continuous
 62
     7
370
    15
100
AcDbCircle
 10
155.6750188092
 20
118.468889826
 30
0.0
 40
5.000000000000014
100
AcDbArc
 50
270.0
 51
281.0531732713
  0
ARC
  5
208
330
1F
100
AcDbEntity
  8
0
  6
Continuous
 62
     7
370
    15
100
AcDbCircle
 10
198.6633893297
 20
118.468889826
 30
0.0
 40
5.000000000000002
100
AcDbArc
 50
258.9468267287
 51
270.0
  0
LINE
  5
209
330
1F
100
AcDbEntity
  8
0
  6
Continuous
 62
     7
370
    15
100
AcDbLine
 10
198.6633909545
 20
113.4688902526
 30
0.0
 11
218.1413395009
 21
113.4688902526
 31
0.0
  0
LINE
  5
20A
330
1F
100
AcDbEntity
  8
0
  6
Continuous
 62
     7
370
    15
100
AcDbLine
 10
136.1970675788
 20
113.4688902526
 30
0.0
 11
155.6750161252
 21
113.4688902526
 31
0.0
  0
SPLINE
  5
20B
330
1F
100
AcDbEntity
  8
0
  6
Continuous
 62
     7
370
    15
100
AcDbSpline
210
0.0
220
0.0
230
1.0
 70
     8
 71
     3
 72
    10
 73
     6
 74
     0
 42
0.00000001
 43
0.00000001
 40
0.0
 40
0.0
 40
0.0
 40
0.0
 40
0.5447765847888402
 40
0.9680154448736871
 40
1.0
 40
1.0
 40
1.0
 40
1.0
 10
220.431983252501
 20
92.45628601599307
 30
0.0
 10
220.340679404687
 20
92.4140315044164
 30
0.0
 10
220.1784412738125
 20
92.33894931299358
 30
0.0
 10
219.9758429910368
 20
92.35607553462836
 30
0.0
 10
219.8851428926816
 20
92.3776597020464
 30
0.0
 10
219.8787701925988
 20
92.37917623210521
 30
0.0
  0
SPLINE
  5
20C
330
1F
100
AcDbEntity
  8
0
  6
Continuous
 62
     7
370
    15
100
AcDbSpline
210
0.0
220
0.0
230
1.0
 70
     8
 71
     3
 72
    10
 73
     6
 74
     0
 42
0.00000001
 43
0.00000001
 40
0.0
 40
0.0
 40
0.0
 40
0.0
 40
0.4959519757144106
 40
0.9680312626565769
 40
1.0
 40
1.0
 40
1.0
 40
1.0
 10
133.9064312777276
 20
92.45628601599307
 30
0.0
 10
133.9888608396387
 20
92.41699937959407
 30
0.0
 10
134.1497522097801
 20
92.34031717224111
 30
0.0
 10
134.3528291662412
 20
92.35374360630608
 30
0.0
 10
134.4532667355592
 20
92.37765939719944
 30
0.0
 10
134.4596368870492
 20
92.37917623210521
 30
0.0
  0
SPLINE
  5
20D
330
1F
100
AcDbEntity
  8
0
  6
Continuous
 62
     7
370
    15
100
AcDbSpline
210
0.0
220
0.0
230
1.0
 70
     8
 71
     3
 72
    10
 73
     6
 74
     0
 42
0.00000001
 43
0.00000001
 40
0.0
 40
0.0
 40
0.0
 40
0.0
 40
0.4959547401892002
 40
0.9680212239581791
 40
1.0
 40
1.0
 40
1.0
 40
1.0
 10
220.431983252501
 20
113.4814966349659
 30
0.0
 10
220.3495496813387
 20
113.5207796792792
 30
0.0
 10
220.1886530510911
 20
113.5974536528409
 30
0.0
 10
219.9855877440808
 20
113.5840492770607
 30
0.0
 10
219.8851428444347
 20
113.5601208168942
 30
0.0
 10
219.8787701925988
 20
113.5586026935634
 30
0.0
  0
SPLINE
  5
20E
330
1F
100
AcDbEntity
  8
0
  6
Continuous
 62
     7
370
    15
100
AcDbSpline
210
0.0
220
0.0
230
1.0
 70
     8
 71
     3
 72
    10
 73
     6
 74
     0
 42
0.00000001
 43
0.00000001
 40
0.0
 40
0.0
 40
0.0
 40
0.0
 40
0.5447805419485078
 40
0.9680232554741981
 40
0.9999999999999999
 40
0.9999999999999999
 40
0.9999999999999999
 40
0.9999999999999999
 10
133.9064312777276
 20
113.4814966349659
 30
0.0
 10
133.9977330312032
 20
113.5237447291441
 30
0.0
 10
134.1599675712141
 20
113.5988155778895
 30
0.0
 10
134.3625810594062
 20
113.5817282686019
 30
0.0
 10
134.4532667031502
 20
113.5601205227277
 30
0.0
 10
134.4596368870492
 20
113.5586026935634
 30
0.0
  0
SPLINE
  5
20F
330
1F
100
AcDbEntity
  8
0
  6
Continuous
 62
     7
370
    15
100
AcDbSpline
210
0.0
220
0.0
230
1.0
 70
     8
 71
     3
 72
    10
 73
     6
 74
     0
 42
0.00000001
 43
0.00000001
 40
0.0
 40
0.0
 40
0.0
 40
0.0
 40
0.5860408335439504
 40
0.8207081972599267
 40
1.0
 40
1.0
 40
1.0
 40
1.0
 10
217.9230598411317
 20
115.2924571065959
 30
0.0
 10
218.4706797849331
 20
114.908857327135
 30
0.0
 10
219.2375822789845
 20
114.3716533211157
 30
0.0
 10
220.0704862112686
 20
113.7554362764349
 30
0.0
 10
220.3363737658949
 20
113.5554899479182
 30
0.0
 10
220.4515335759874
 20
113.4688902525959
 30
0.0
  0
SPLINE
  5
210
330
1F
100
AcDbEntity
  8
0
  6
Continuous
 62
     7
370
    15
100
AcDbSpline
210
0.0
220
0.0
230
1.0
 70
     8
 71
     3
 72
    10
 73
     6
 74
     0
 42
0.00000001
 43
0.00000001
 40
0.0
 40
0.0
 40
0.0
 40
0.0
 40
0.5860408335439504
 40
0.8207081972599267
 40
1.0
 40
1.0
 40
1.0
 40
1.0
 10
136.4153546890969
 20
90.64532181907268
 30
0.0
 10
135.8677347452955
 20
91.02892159853363
 30
0.0
 10
135.1008322512441
 20
91.5661256045529
 30
0.0
 10
134.26792831896
 20
92.18234264923372
 30
0.0
 10
134.0020407643337
 20
92.38228897775036
 30
0.0
 10
133.8868809542413
 20
92.46888867307277
 30
0.0
  0
SPLINE
  5
211
330
1F
100
AcDbEntity
  8
0
  6
Continuous
 62
     7
370
    15
100
AcDbSpline
210
0.0
220
0.0
230
1.0
 70
     8
 71
     3
 72
    11
 73
     7
 74
     0
 42
0.00000001
 43
0.00000001
 40
0.0
 40
0.0
 40
0.0
 40
0.0
 40
0.0369891649827828
 40
0.2730348296961825
 40
0.6578729660517787
 40
1.0
 40
1.0
 40
1.0
 40
1.0
 10
220.4515335759874
 20
92.46888867307277
 30
0.0
 10
220.4297260746559
 20
92.45244011350071
 30
0.0
 10
220.2687544113346
 20
92.33102537857523
 30
0.0
 10
219.7712070116669
 20
91.95931265731751
 30
0.0
 10
218.9198508083494
 20
91.33881941624158
 30
0.0
 10
218.2420492937947
 20
90.8672524205923
 30
0.0
 10
217.9230598411317
 20
90.64532181907268
 30
0.0
  0
SPLINE
  5
212
330
1F
100
AcDbEntity
  8
0
  6
Continuous
 62
     7
370
    15
100
AcDbSpline
210
0.0
220
0.0
230
1.0
 70
     8
 71
     3
 72
    11
 73
     7
 74
     0
 42
0.00000001
 43
0.00000001
 40
0.0
 40
0.0
 40
0.0
 40
0.0
 40
0.0369879965302787
 40
0.2730340802571622
 40
0.6578731146021827
 40
1.0
 40
1.0
 40
1.0
 40
1.0
 10
133.8868809542413
 20
113.4688902525959
 30
0.0
 10
133.9086858632796
 20
113.4853388456313
 30
0.0
 10
134.0696430343312
 20
113.6067573297953
 30
0.0
 10
134.5672061614638
 20
113.9784715757986
 30
0.0
 10
135.4185624761913
 20
114.5989569924298
 30
0.0
 10
136.0963651555874
 20
115.0705259206953
 30
0.0
 10
136.4153546890969
 20
115.2924571065959
 30
0.0
  0
ARC
  5
213
330
1F
100
AcDbEntity
  8
0
  6
Continuous
 62
     7
370
    15
100
AcDbCircle
 10
177.1692040695
 20
149.8175135767
 30
0.0
 40
71.84862375062593
100
AcDbArc
 50
235.4435251253
 51
304.5564748747
  0
ARC
  5
214
330
1F
100
AcDbEntity
  8
0
  6
Continuous
 62
     7
370
    15
100
AcDbCircle
 10
177.1692040695
 20
56.1202660754
 30
0.0
 40
71.84862375062592
100
AcDbArc
 50
55.4435251253
 51
124.5564748747
  0
ENDSEC
  0
SECTION
  2
OBJECTS
  0
DICTIONARY
  5
C
330
0
100
AcDbDictionary
281
     1
  3
ACAD_GROUP
350
D
  3
ACAD_LAYOUT
350
1A
  3
ACAD_MLINESTYLE
350
17
  3
ACAD_PLOTSETTINGS
350
19
  3
ACAD_PLOTSTYLENAME
350
E
  0
DICTIONARY
  5
D
102
{ACAD_REACTORS
330
C
102
}
330
C
100
AcDbDictionary
281
     1
  0
DICTIONARY
  5
1A
102
{ACAD_REACTORS
330
C
102
}
330
C
100
AcDbDictionary
281
     1
  3
Layout1
350
1E
  3
Layout2
350
26
  3
Model
350
22
  0
DICTIONARY
  5
17
102
{ACAD_REACTORS
330
C
102
}
330
C
100
AcDbDictionary
281
     1
  3
Standard
350
18
  0
DICTIONARY
  5
19
102
{ACAD_REACTORS
330
C
102
}
330
C
100
AcDbDictionary
281
     1
  0
ACDBDICTIONARYWDFLT
  5
E
102
{ACAD_REACTORS
330
C
102
}
330
C
100
AcDbDictionary
281
     1
  3
Normal
350
F
100
AcDbDictionaryWithDefault
340
F
  0
LAYOUT
  5
1E
102
{ACAD_REACTORS
330
1A
102
}
330
1A
100
AcDbPlotSettings
  1

  2
none_device
  4

  6

 40
0.0
 41
0.0
 42
0.0
 43
0.0
 44
0.0
 45
0.0
 46
0.0
 47
0.0
 48
0.0
 49
0.0
140
0.0
141
0.0
142
1.0
143
1.0
 70
   688
 72
     0
 73
     0
 74
     5
  7

 75
    16
147
1.0
148
0.0
149
0.0
100
AcDbLayout
  1
Layout1
 70
     1
 71
     1
 10
0.0
 20
0.0
 11
420.0
 21
297.0
 12
0.0
 22
0.0
 32
0.0
 14
1.0000000000E+20
 24
1.0000000000E+20
 34
1.0000000000E+20
 15
-1.0000000000E+20
 25
-1.0000000000E+20
 35
-1.0000000000E+20
146
0.0
 13
0.0
 23
0.0
 33
0.0
 16
1.0
 26
0.0
 36
0.0
 17
0.0
 27
1.0
 37
0.0
 76
     0
330
1B
  0
LAYOUT
  5
26
102
{ACAD_REACTORS
330
1A
102
}
330
1A
100
AcDbPlotSettings
  1

  2
none_device
  4

  6

 40
0.0
 41
0.0
 42
0.0
 43
0.0
 44
0.0
 45
0.0
 46
0.0
 47
0.0
 48
0.0
 49
0.0
140
0.0
141
0.0
142
1.0
143
1.0
 70
   688
 72
     0
 73
     0
 74
     5
  7

 75
    16
147
1.0
148
0.0
149
0.0
100
AcDbLayout
  1
Layout2
 70
     1
 71
     2
 10
0.0
 20
0.0
 11
0.0
 21
0.0
 12
0.0
 22
0.0
 32
0.0
 14
0.0
 24
0.0
 34
0.0
 15
0.0
 25
0.0
 35
0.0
146
0.0
 13
0.0
 23
0.0
 33
0.0
 16
1.0
 26
0.0
 36
0.0
 17
0.0
 27
1.0
 37
0.0
 76
     0
330
23
  0
LAYOUT
  5
22
102
{ACAD_REACTORS
330
1A
102
}
330
1A
100
AcDbPlotSettings
  1

  2
none_device
  4

  6

 40
0.0
 41
0.0
 42
0.0
 43
0.0
 44
0.0
 45
0.0
 46
0.0
 47
0.0
 48
0.0
 49
0.0
140
0.0
141
0.0
142
1.0
143
1.0
 70
  1712
 72
     0
 73
     0
 74
     0
  7

 75
     0
147
1.0
148
0.0
149
0.0
100
AcDbLayout
  1
Model
 70
     1
 71
     0
 10
0.0
 20
0.0
 11
420.0
 21
297.0
 12
0.0
 22
0.0
 32
0.0
 14
0.0
 24
0.0
 34
0.0
 15
420.0
 25
297.0
 35
0.0
146
0.0
 13
0.0
 23
0.0
 33
0.0
 16
1.0
 26
0.0
 36
0.0
 17
0.0
 27
1.0
 37
0.0
 76
     0
330
1F
331
29
  0
MLINESTYLE
  5
18
102
{ACAD_REACTORS
330
17
102
}
330
17
100
AcDbMlineStyle
  2
Standard
 70
     0
  3

 62
   256
 51
90.0
 52
90.0
 71
     2
 49
0.5
 62
   256
  6
BYLAYER
 49
-0.5
 62
   256
  6
BYLAYER
  0
ACDBPLACEHOLDER
  5
F
102
{ACAD_REACTORS
330
E
102
}
330
E
  0
ENDSEC
  0
EOF
