  0
SECTION
  2
HEADER
  9
$ACADVER
  1
AC1015
  9
$ACADMAINTVER
 70
     6
  9
$DWGCODEPAGE
  3
DOS932
  9
$INSBASE
 10
0.0
 20
0.0
 30
0.0
  9
$EXTMIN
 10
0.0
 20
0.0
 30
0.0
  9
$EXTMAX
 10
420.0
 20
297.0
 30
0.0
  9
$LIMMIN
 10
0.0
 20
0.0
  9
$LIMMAX
 10
420.0
 20
297.0
  9
$ORTHOMODE
 70
     0
  9
$REGENMODE
 70
     1
  9
$FILLMODE
 70
     1
  9
$QTEXTMODE
 70
     0
  9
$MIRRTEXT
 70
     1
  9
$LTSCALE
 40
1.0
  9
$ATTMODE
 70
     1
  9
$TEXTSIZE
 40
3.5
  9
$TRACEWID
 40
1.0
  9
$TEXTSTYLE
  7
Standard
  9
$CLAYER
  8
0
  9
$CELTYPE
  6
ByLayer
  9
$CECOLOR
 62
   256
  9
$CELTSCALE
 40
1.0
  9
$DISPSILH
 70
     0
  9
$DIMSCALE
 40
1.0
  9
$DIMASZ
 40
2.0
  9
$DIMEXO
 40
1.0
  9
$DIMDLI
 40
3.75
  9
$DIMRND
 40
0.0
  9
$DIMDLE
 40
0.0
  9
$DIMEXE
 40
1.0
  9
$DIMTP
 40
0.0
  9
$DIMTM
 40
0.0
  9
$DIMTXT
 40
2.7999999523
  9
$DIMCEN
 40
2.5
  9
$DIMTSZ
 40
0.0
  9
$DIMTOL
 70
     0
  9
$DIMLIM
 70
     0
  9
$DIMTIH
 70
     1
  9
$DIMTOH
 70
     1
  9
$DIMSE1
 70
     0
  9
$DIMSE2
 70
     0
  9
$DIMTAD
 70
     1
  9
$DIMZIN
 70
     1
  9
$DIMBLK
  1

  9
$DIMASO
 70
     1
  9
$DIMSHO
 70
     1
  9
$DIMPOST
  1

  9
$DIMAPOST
  1

  9
$DIMALT
 70
     0
  9
$DIMALTD
 70
     3
  9
$DIMALTF
 40
0.0393700787
  9
$DIMLFAC
 40
1.0
  9
$DIMTOFL
 70
     1
  9
$DIMTVP
 40
0.0
  9
$DIMTIX
 70
     0
  9
$DIMSOXD
 70
     0
  9
$DIMSAH
 70
     0
  9
$DIMBLK1
  1

  9
$DIMBLK2
  1

  9
$DIMSTYLE
  2
ISO-25
  9
$DIMCLRD
 70
     0
  9
$DIMCLRE
 70
     0
  9
$DIMCLRT
 70
     0
  9
$DIMTFAC
 40
1.0
  9
$DIMGAP
 40
1.524
  9
$DIMJUST
 70
     0
  9
$DIMSD1
 70
     0
  9
$DIMSD2
 70
     0
  9
$DIMTOLJ
 70
     0
  9
$DIMTZIN
 70
     1
  9
$DIMALTZ
 70
     0
  9
$DIMALTTZ
 70
     0
  9
$DIMUPT
 70
     0
  9
$DIMDEC
 70
     3
  9
$DIMTDEC
 70
     3
  9
$DIMALTU
 70
     2
  9
$DIMALTTD
 70
     3
  9
$DIMTXSTY
  7
Standard
  9
$DIMAUNIT
 70
     0
  9
$DIMADEC
 70
     0
  9
$DIMALTRND
 40
0.0
  9
$DIMAZIN
 70
     0
  9
$DIMDSEP
 70
    44
  9
$DIMATFIT
 70
     3
  9
$DIMFRAC
 70
     0
  9
$DIMLDRBLK
  1

  9
$DIMLUNIT
 70
     2
  9
$DIMLWD
 70
    -2
  9
$DIMLWE
 70
    -2
  9
$DIMTMOVE
 70
     0
  9
$LUNITS
 70
     2
  9
$LUPREC
 70
     3
  9
$SKETCHINC
 40
1.0
  9
$FILLETRAD
 40
10.0
  9
$AUNITS
 70
     0
  9
$AUPREC
 70
     0
  9
$MENU
  1
.
  9
$ELEVATION
 40
0.0
  9
$PELEVATION
 40
0.0
  9
$THICKNESS
 40
0.0
  9
$LIMCHECK
 70
     0
  9
$CHAMFERA
 40
10.0
  9
$CHAMFERB
 40
10.0
  9
$CHAMFERC
 40
20.0
  9
$CHAMFERD
 40
0.0
  9
$SKPOLY
 70
     0
  9
$TDCREATE
 40
2456338.587258565
  9
$TDUCREATE
 40
2456338.212258565
  9
$TDUPDATE
 40
2456338.587258576
  9
$TDUUPDATE
 40
2456338.212258576
  9
$TDINDWG
 40
0.0000000116
  9
$TDUSRTIMER
 40
0.0000000116
  9
$USRTIMER
 70
     1
  9
$ANGBASE
 50
0.0
  9
$ANGDIR
 70
     0
  9
$PDMODE
 70
     0
  9
$PDSIZE
 40
-1.0
  9
$PLINEWID
 40
0.0
  9
$SPLFRAME
 70
     0
  9
$SPLINETYPE
 70
     6
  9
$SPLINESEGS
 70
     8
  9
$HANDSEED
  5
3B1
  9
$SURFTAB1
 70
     6
  9
$SURFTAB2
 70
     6
  9
$SURFTYPE
 70
     6
  9
$SURFU
 70
     6
  9
$SURFV
 70
     6
  9
$UCSBASE
  2

  9
$UCSNAME
  2

  9
$UCSORG
 10
0.0
 20
0.0
 30
0.0
  9
$UCSXDIR
 10
1.0
 20
0.0
 30
0.0
  9
$UCSYDIR
 10
0.0
 20
1.0
 30
0.0
  9
$UCSORTHOREF
  2

  9
$UCSORTHOVIEW
 70
     0
  9
$UCSORGTOP
 10
0.0
 20
0.0
 30
0.0
  9
$UCSORGBOTTOM
 10
0.0
 20
0.0
 30
0.0
  9
$UCSORGLEFT
 10
0.0
 20
0.0
 30
0.0
  9
$UCSORGRIGHT
 10
0.0
 20
0.0
 30
0.0
  9
$UCSORGFRONT
 10
0.0
 20
0.0
 30
0.0
  9
$UCSORGBACK
 10
0.0
 20
0.0
 30
0.0
  9
$PUCSBASE
  2

  9
$PUCSNAME
  2

  9
$PUCSORG
 10
0.0
 20
0.0
 30
0.0
  9
$PUCSXDIR
 10
1.0
 20
0.0
 30
0.0
  9
$PUCSYDIR
 10
0.0
 20
1.0
 30
0.0
  9
$PUCSORTHOREF
  2

  9
$PUCSORTHOVIEW
 70
     0
  9
$PUCSORGTOP
 10
0.0
 20
0.0
 30
0.0
  9
$PUCSORGBOTTOM
 10
0.0
 20
0.0
 30
0.0
  9
$PUCSORGLEFT
 10
0.0
 20
0.0
 30
0.0
  9
$PUCSORGRIGHT
 10
0.0
 20
0.0
 30
0.0
  9
$PUCSORGFRONT
 10
0.0
 20
0.0
 30
0.0
  9
$PUCSORGBACK
 10
0.0
 20
0.0
 30
0.0
  9
$USERI1
 70
     0
  9
$USERI2
 70
     0
  9
$USERI3
 70
     0
  9
$USERI4
 70
     0
  9
$USERI5
 70
     0
  9
$USERR1
 40
0.0
  9
$USERR2
 40
0.0
  9
$USERR3
 40
0.0
  9
$USERR4
 40
0.0
  9
$USERR5
 40
0.0
  9
$WORLDVIEW
 70
     1
  9
$SHADEDGE
 70
     3
  9
$SHADEDIF
 70
    70
  9
$TILEMODE
 70
     1
  9
$MAXACTVP
 70
    64
  9
$PINSBASE
 10
0.0
 20
0.0
 30
0.0
  9
$PLIMCHECK
 70
     0
  9
$PEXTMIN
 10
1.0000000000E+20
 20
1.0000000000E+20
 30
1.0000000000E+20
  9
$PEXTMAX
 10
-1.0000000000E+20
 20
-1.0000000000E+20
 30
-1.0000000000E+20
  9
$PLIMMIN
 10
0.0
 20
0.0
  9
$PLIMMAX
 10
420.0
 20
297.0
  9
$UNITMODE
 70
     0
  9
$VISRETAIN
 70
     1
  9
$PLINEGEN
 70
     0
  9
$PSLTSCALE
 70
     1
  9
$TREEDEPTH
 70
  3020
  9
$CMLSTYLE
  2
Standard
  9
$CMLJUST
 70
     0
  9
$CMLSCALE
 40
20.0
  9
$PROXYGRAPHICS
 70
     1
  9
$MEASUREMENT
 70
     1
  9
$CELWEIGHT
370
    -1
  9
$ENDCAPS
280
     0
  9
$JOINSTYLE
280
     0
  9
$LWDISPLAY
290
     1
  9
$INSUNITS
 70
     4
  9
$HYPERLINKBASE
  1

  9
$STYLESHEET
  1

  9
$XEDIT
290
     1
  9
$CEPSNTYPE
380
     0
  9
$PSTYLEMODE
290
     1
  9
$FINGERPRINTGUID
  2
{48DCC45D-600C-403E-BB4D-D69F4EC48B43}
  9
$VERSIONGUID
  2
{FAEB1C32-E019-11D5-929B-00C0DF256EC4}
  9
$EXTNAMES
290
     1
  9
$PSVPSCALE
 40
0.0
  9
$OLESTARTUP
290
     0
  0
ENDSEC
  0
SECTION
  2
CLASSES
  0
CLASS
  1
ACDBDICTIONARYWDFLT
  2
AcDbDictionaryWithDefault
  3
ObjectDBX Classes
 90
        0
280
     0
281
     0
  0
CLASS
  1
VISUALSTYLE
  2
AcDbVisualStyle
  3
ObjectDBX Classes
 90
     4095
280
     0
281
     0
  0
CLASS
  1
MATERIAL
  2
AcDbMaterial
  3
ObjectDBX Classes
 90
     1153
280
     0
281
     0
  0
CLASS
  1
ACDBPLACEHOLDER
  2
AcDbPlaceHolder
  3
ObjectDBX Classes
 90
        0
280
     0
281
     0
  0
CLASS
  1
LAYOUT
  2
AcDbLayout
  3
ObjectDBX Classes
 90
        0
280
     0
281
     0
  0
ENDSEC
  0
SECTION
  2
TABLES
  0
TABLE
  2
VPORT
  5
8
330
0
100
AcDbSymbolTable
 70
     1
  0
VPORT
  5
29
330
8
100
AcDbSymbolTableRecord
100
AcDbViewportTableRecord
  2
*Active
 70
     0
 10
0.0
 20
0.0
 11
1.0
 21
1.0
 12
210.0
 22
148.5
 13
0.0
 23
0.0
 14
10.0
 24
10.0
 15
10.0
 25
10.0
 16
0.0
 26
0.0
 36
1.0
 17
0.0
 27
0.0
 37
0.0
 40
297.0
 41
1.4141414141
 42
50.0
 43
0.0
 44
0.0
 50
0.0
 51
0.0
 71
     0
 72
  2000
 73
     1
 74
     3
 75
     0
 76
     0
 77
     0
 78
     0
281
     0
 65
     1
110
0.0
120
0.0
130
0.0
111
1.0
121
0.0
131
0.0
112
0.0
122
1.0
132
0.0
 79
     0
146
0.0
  0
ENDTAB
  0
TABLE
  2
LTYPE
  5
5
330
0
100
AcDbSymbolTable
 70
     6
  0
LTYPE
  5
14
330
5
100
AcDbSymbolTableRecord
100
AcDbLinetypeTableRecord
  2
ByBlock
 70
     0
  3

 72
    65
 73
     0
 40
0.0
  0
LTYPE
  5
15
330
5
100
AcDbSymbolTableRecord
100
AcDbLinetypeTableRecord
  2
ByLayer
 70
     0
  3

 72
    65
 73
     0
 40
0.0
  0
LTYPE
  5
16
330
5
100
AcDbSymbolTableRecord
100
AcDbLinetypeTableRecord
  2
Continuous
 70
     0
  3
Solid line
 72
    65
 73
     0
 40
0.0
  0
LTYPE
  5
3F
330
5
100
AcDbSymbolTableRecord
100
AcDbLinetypeTableRecord
  2
HIDDEN
 70
     0
  3
Hidden __ __ __ __ __ __ __ __ __ __ __ __ __ __
 72
    65
 73
     2
 40
1.905
 49
1.27
 74
     0
 49
-0.635
 74
     0
  0
LTYPE
  5
40
330
5
100
AcDbSymbolTableRecord
100
AcDbLinetypeTableRecord
  2
PHANTOM
 70
     0
  3
Phantom ______  __  __  ______  __  __  ______
 72
    65
 73
     6
 40
12.7
 49
6.35
 74
     0
 49
-1.27
 74
     0
 49
1.27
 74
     0
 49
-1.27
 74
     0
 49
1.27
 74
     0
 49
-1.27
 74
     0
  0
LTYPE
  5
41
330
5
100
AcDbSymbolTableRecord
100
AcDbLinetypeTableRecord
  2
CENTER
 70
     0
  3
Center ____ _ ____ _ ____ _ ____ _ ____ _ ____
 72
    65
 73
     4
 40
10.16
 49
6.35
 74
     0
 49
-1.27
 74
     0
 49
1.27
 74
     0
 49
-1.27
 74
     0
  0
LTYPE
  5
42
330
5
100
AcDbSymbolTableRecord
100
AcDbLinetypeTableRecord
  2
CENTERX2
 70
     0
  3
Center (2x) ________  __  ________  __  _____
 72
    65
 73
     4
 40
20.32
 49
12.7
 74
     0
 49
-2.54
 74
     0
 49
2.54
 74
     0
 49
-2.54
 74
     0
  0
LTYPE
  5
43
330
5
100
AcDbSymbolTableRecord
100
AcDbLinetypeTableRecord
  2
DOT2
 70
     0
  3
Dot (.5x) ........................................
 72
    65
 73
     2
 40
0.635
 49
0.0
 74
     0
 49
-0.635
 74
     0
  0
ENDTAB
  0
TABLE
  2
LAYER
  5
2
330
0
100
AcDbSymbolTable
 70
     2
  0
LAYER
  5
10
330
2
100
AcDbSymbolTableRecord
100
AcDbLayerTableRecord
  2
0
 70
     0
 62
     7
  6
Continuous
370
    -3
390
F
  0
LAYER
  5
44
330
2
100
AcDbSymbolTableRecord
100
AcDbLayerTableRecord
  2
SLD-0
 70
     0
 62
     3
  6
Continuous
370
    -3
390
F
  0
ENDTAB
  0
TABLE
  2
STYLE
  5
3
330
0
100
AcDbSymbolTable
 70
     1
  0
STYLE
  5
11
330
3
100
AcDbSymbolTableRecord
100
AcDbTextStyleTableRecord
  2
Standard
 70
     0
 40
0.0
 41
1.0
 50
0.0
 71
     0
 42
2.5
  3
txt
  4
bigfont
  0
ENDTAB
  0
TABLE
  2
VIEW
  5
6
330
0
100
AcDbSymbolTable
 70
     0
  0
ENDTAB
  0
TABLE
  2
UCS
  5
7
330
0
100
AcDbSymbolTable
 70
     0
  0
ENDTAB
  0
TABLE
  2
APPID
  5
9
330
0
100
AcDbSymbolTable
 70
     1
  0
APPID
  5
12
330
9
100
AcDbSymbolTableRecord
100
AcDbRegAppTableRecord
  2
ACAD
 70
     0
  0
ENDTAB
  0
TABLE
  2
DIMSTYLE
  5
A
330
0
100
AcDbSymbolTable
 70
     1
100
AcDbDimStyleTable
  0
DIMSTYLE
105
27
330
A
100
AcDbSymbolTableRecord
100
AcDbDimStyleTableRecord
  2
ISO-25
 70
     0
 41
2.5
 42
0.625
 43
3.75
 44
1.25
 73
     0
 74
     0
 77
     1
 78
     8
140
2.5
141
2.5
143
0.0393700787
147
0.625
171
     3
172
     1
178
     0
271
     2
272
     2
274
     3
278
    44
283
     0
284
     8
340
11
  0
ENDTAB
  0
TABLE
  2
BLOCK_RECORD
  5
1
330
0
100
AcDbSymbolTable
 70
     1
  0
BLOCK_RECORD
  5
1F
330
1
100
AcDbSymbolTableRecord
100
AcDbBlockTableRecord
  2
*Model_Space
340
22
  0
BLOCK_RECORD
  5
1B
330
1
100
AcDbSymbolTableRecord
100
AcDbBlockTableRecord
  2
*Paper_Space
340
1E
  0
BLOCK_RECORD
  5
23
330
1
100
AcDbSymbolTableRecord
100
AcDbBlockTableRecord
  2
*Paper_Space0
340
26
  0
ENDTAB
  0
ENDSEC
  0
SECTION
  2
BLOCKS
  0
BLOCK
  5
20
330
1F
100
AcDbEntity
  8
0
100
AcDbBlockBegin
  2
*Model_Space
 70
     0
 10
0.0
 20
0.0
 30
0.0
  3
*Model_Space
  1

  0
ENDBLK
  5
21
330
1F
100
AcDbEntity
  8
0
100
AcDbBlockEnd
  0
BLOCK
  5
1C
330
1B
100
AcDbEntity
 67
     1
  8
0
100
AcDbBlockBegin
  2
*Paper_Space
 70
     0
 10
0.0
 20
0.0
 30
0.0
  3
*Paper_Space
  1

  0
ENDBLK
  5
1D
330
1B
100
AcDbEntity
 67
     1
  8
0
100
AcDbBlockEnd
  0
BLOCK
  5
24
330
23
100
AcDbEntity
  8
0
100
AcDbBlockBegin
  2
*Paper_Space0
 70
     0
 10
0.0
 20
0.0
 30
0.0
  3
*Paper_Space0
  1

  0
ENDBLK
  5
25
330
23
100
AcDbEntity
  8
0
100
AcDbBlockEnd
  0
ENDSEC
  0
SECTION
  2
ENTITIES
  0
LINE
  5
45
330
1F
100
AcDbEntity
  8
0
  6
Continuous
 62
     7
370
    15
100
AcDbLine
 10
85.0554800911
 20
185.7451519293
 30
0.0
 11
84.0554780645
 21
185.7451519293
 31
0.0
  0
LINE
  5
46
330
1F
100
AcDbEntity
  8
0
  6
Continuous
 62
     7
370
    15
100
AcDbLine
 10
85.0554800911
 20
185.7346019072
 30
0.0
 11
84.0554780645
 21
185.7346019072
 31
0.0
  0
LINE
  5
47
330
1F
100
AcDbEntity
  8
0
  6
Continuous
 62
     7
370
    15
100
AcDbLine
 10
441.0955108089
 20
185.7461428565
 30
0.0
 11
439.0955067558
 21
185.7461428565
 31
0.0
  0
LINE
  5
48
330
1F
100
AcDbEntity
  8
0
  6
Continuous
 62
     7
370
    15
100
AcDbLine
 10
439.0955067558
 20
165.7461470288
 30
0.0
 11
441.0955108089
 21
165.7461470288
 31
0.0
  0
LINE
  5
49
330
1F
100
AcDbEntity
  8
0
  6
Continuous
 62
     7
370
    15
100
AcDbLine
 10
439.0955067558
 20
180.6966832203
 30
0.0
 11
439.0554673357
 21
180.6966832203
 31
0.0
  0
LINE
  5
4A
330
1F
100
AcDbEntity
  8
0
  6
Continuous
 62
     7
370
    15
100
AcDbLine
 10
439.0554673357
 20
170.6966853065
 30
0.0
 11
439.0955067558
 21
170.6966853065
 31
0.0
  0
LINE
  5
4B
330
1F
100
AcDbEntity
  8
0
  6
Continuous
 62
     7
370
    15
100
AcDbLine
 10
83.6541897936
 20
165.7209193629
 30
0.0
 11
85.6541789455
 21
165.7209193629
 31
0.0
  0
LINE
  5
4C
330
1F
100
AcDbEntity
  8
0
  6
Continuous
 62
     7
370
    15
100
AcDbLine
 10
85.6541789455
 20
185.7209226412
 30
0.0
 11
83.6541897936
 21
185.7209226412
 31
0.0
  0
LINE
  5
4D
330
1F
100
AcDbEntity
  8
0
  6
Continuous
 62
     7
370
    15
100
AcDbLine
 10
85.6541789455
 20
170.6966853065
 30
0.0
 11
86.0554821176
 21
170.6966853065
 31
0.0
  0
LINE
  5
4E
330
1F
100
AcDbEntity
  8
0
  6
Continuous
 62
     7
370
    15
100
AcDbLine
 10
86.0554821176
 20
180.6966832203
 30
0.0
 11
85.6541789455
 21
180.6966832203
 31
0.0
  0
LINE
  5
4F
330
1F
100
AcDbEntity
  8
0
  6
Continuous
 62
     7
370
    15
100
AcDbLine
 10
440.0554693622
 20
165.6928902787
 30
0.0
 11
441.0668111725
 21
165.6928902787
 31
0.0
  0
LINE
  5
50
330
1F
100
AcDbEntity
  8
0
  6
Continuous
 62
     7
370
    15
100
AcDbLine
 10
97.2548074407
 20
213.6966904921
 30
0.0
 11
96.1675442142
 21
213.6966904921
 31
0.0
  0
LINE
  5
51
330
1F
100
AcDbEntity
  8
0
  6
Continuous
 62
     7
370
    15
100
AcDbLine
 10
428.8735932989
 20
213.6966904921
 30
0.0
 11
427.7863151712
 21
213.6966904921
 31
0.0
  0
LINE
  5
52
330
1F
100
AcDbEntity
  8
0
  6
Continuous
 62
     7
370
    15
100
AcDbLine
 10
96.0278905315
 20
205.6966817302
 30
0.0
 11
93.2573772354
 21
205.6966817302
 31
0.0
  0
LINE
  5
53
330
1F
100
AcDbEntity
  8
0
  6
Continuous
 62
     7
370
    15
100
AcDbLine
 10
93.2573772354
 20
145.6966830713
 30
0.0
 11
96.067870347
 21
145.6966830713
 31
0.0
  0
ARC
  5
54
330
1F
100
AcDbEntity
  8
0
  6
Continuous
 62
     7
370
    15
100
AcDbCircle
 10
88.4554747267
 20
205.1966844124
 30
0.0
 40
3.0
100
AcDbArc
 50
270.0
 51
341.485666679
  0
ARC
  5
55
330
1F
100
AcDbEntity
  8
0
  6
Continuous
 62
     7
370
    15
100
AcDbCircle
 10
88.4554747267
 20
146.1966844124
 30
0.0
 40
3.000000000000012
100
AcDbArc
 50
18.5077122065
 51
90.0
  0
LINE
  5
56
330
1F
100
AcDbEntity
  8
0
  6
Continuous
 62
     7
370
    15
100
AcDbLine
 10
88.4554780407
 20
202.1966820878
 30
0.0
 11
88.0554712696
 21
202.1966820878
 31
0.0
  0
ARC
  5
57
330
1F
100
AcDbEntity
  8
0
  6
Continuous
 62
     7
370
    15
100
AcDbCircle
 10
88.0554747267
 20
200.1966844124
 30
0.0
 40
2.0
100
AcDbArc
 50
90.0
 51
180.0
  0
LINE
  5
58
330
1F
100
AcDbEntity
  8
0
  6
Continuous
 62
     7
370
    15
100
AcDbLine
 10
88.0554712696
 20
149.196686439
 30
0.0
 11
88.4554780407
 21
149.196686439
 31
0.0
  0
ARC
  5
59
330
1F
100
AcDbEntity
  8
0
  6
Continuous
 62
     7
370
    15
100
AcDbCircle
 10
88.0554747267
 20
151.1966844124
 30
0.0
 40
2.000000000000028
100
AcDbArc
 50
180.0
 51
270.0
  0
ARC
  5
5A
330
1F
100
AcDbEntity
  8
0
  6
Continuous
 62
     7
370
    15
100
AcDbCircle
 10
85.0554747267
 20
189.6966844124
 30
0.0
 40
1.0
100
AcDbArc
 50
270.0
 51
0.0
  0
ARC
  5
5B
330
1F
100
AcDbEntity
  8
0
  6
Continuous
 62
     7
370
    15
100
AcDbCircle
 10
85.0554747267
 20
161.6966844124
 30
0.0
 40
1.0
100
AcDbArc
 50
0.0
 51
90.0
  0
SPLINE
  5
5C
330
1F
100
AcDbEntity
  8
0
  6
Continuous
 62
     7
370
    15
100
AcDbSpline
210
0.0
220
0.0
230
1.0
 70
     8
 71
     3
 72
    12
 73
     8
 74
     0
 42
0.00000001
 43
0.00000001
 40
0.0
 40
0.0
 40
0.0
 40
0.0
 40
0.1750225360620969
 40
0.4613560779260996
 40
0.7353230073480628
 40
0.9652521608838579
 40
1.0
 40
1.0
 40
1.0
 40
1.0
 10
93.25545498559364
 20
205.6662684601865
 30
0.0
 10
93.10310555613727
 20
205.6681074256852
 30
0.0
 10
92.7015153562139
 20
205.6729549037812
 30
0.0
 10
92.08438587118656
 20
205.3718830447788
 30
0.0
 10
91.59963454648049
 20
204.8788677835449
 30
0.0
 10
91.37138561768678
 20
204.4511751913106
 30
0.0
 10
91.33584459875505
 20
204.2620534038481
 30
0.0
 10
91.33117863366493
 20
204.2372247499547
 30
0.0
  0
SPLINE
  5
5D
330
1F
100
AcDbEntity
  8
0
  6
Continuous
 62
     7
370
    15
100
AcDbSpline
210
0.0
220
0.0
230
1.0
 70
     8
 71
     3
 72
    11
 73
     7
 74
     0
 42
0.00000001
 43
0.00000001
 40
0.0
 40
0.0
 40
0.0
 40
0.0
 40
0.1812957111842651
 40
0.4556095421897667
 40
0.7424039852757175
 40
1.0
 40
1.0
 40
1.0
 40
1.0
 10
91.34116241166481
 20
147.160420410069
 30
0.0
 10
91.3813555292493
 20
147.0234197617034
 30
0.0
 10
91.48236380893907
 20
146.6791269912135
 30
0.0
 10
91.90842123955068
 20
146.1604921598428
 30
0.0
 10
92.54261040010392
 20
145.7663047910987
 30
0.0
 10
93.02075594375714
 20
145.7263230943116
 30
0.0
 10
93.24700602719673
 20
145.7074044567666
 30
0.0
  0
LINE
  5
5E
330
1F
100
AcDbEntity
  8
0
  6
Continuous
 62
     7
370
    15
100
AcDbLine
 10
429.0430791063
 20
145.6966830713
 30
0.0
 11
431.8535722179
 21
145.6966830713
 31
0.0
  0
LINE
  5
5F
330
1F
100
AcDbEntity
  8
0
  6
Continuous
 62
     7
370
    15
100
AcDbLine
 10
431.8535722179
 20
205.6966817302
 30
0.0
 11
429.0132320804
 21
205.6966817302
 31
0.0
  0
ARC
  5
60
330
1F
100
AcDbEntity
  8
0
  6
Continuous
 62
     7
370
    15
100
AcDbCircle
 10
436.6554747267
 20
146.1966844124
 30
0.0
 40
3.000000000000063
100
AcDbArc
 50
90.0
 51
161.485666679
  0
ARC
  5
61
330
1F
100
AcDbEntity
  8
0
  6
Continuous
 62
     7
370
    15
100
AcDbCircle
 10
436.6554747267
 20
205.1966844124
 30
0.0
 40
3.000000000000039
100
AcDbArc
 50
198.5077122065
 51
270.0
  0
ARC
  5
62
330
1F
100
AcDbEntity
  8
0
  6
Continuous
 62
     7
370
    15
100
AcDbCircle
 10
437.0554747267
 20
151.1966844124
 30
0.0
 40
2.000000000000028
100
AcDbArc
 50
270.0
 51
0.0
  0
LINE
  5
63
330
1F
100
AcDbEntity
  8
0
  6
Continuous
 62
     7
370
    15
100
AcDbLine
 10
436.6554714126
 20
149.196686439
 30
0.0
 11
437.0554781837
 21
149.196686439
 31
0.0
  0
LINE
  5
64
330
1F
100
AcDbEntity
  8
0
  6
Continuous
 62
     7
370
    15
100
AcDbLine
 10
437.0554781837
 20
202.1966820878
 30
0.0
 11
436.6554714126
 21
202.1966820878
 31
0.0
  0
ARC
  5
65
330
1F
100
AcDbEntity
  8
0
  6
Continuous
 62
     7
370
    15
100
AcDbCircle
 10
437.0554747267
 20
200.1966844124
 30
0.0
 40
2.0
100
AcDbArc
 50
0.0
 51
90.0
  0
ARC
  5
66
330
1F
100
AcDbEntity
  8
0
  6
Continuous
 62
     7
370
    15
100
AcDbCircle
 10
440.0554747267
 20
161.6966844124
 30
0.0
 40
1.0
100
AcDbArc
 50
90.0
 51
180.0
  0
ARC
  5
67
330
1F
100
AcDbEntity
  8
0
  6
Continuous
 62
     7
370
    15
100
AcDbCircle
 10
440.0554747267
 20
189.6966844124
 30
0.0
 40
1.0
100
AcDbArc
 50
180.0
 51
270.0
  0
SPLINE
  5
68
330
1F
100
AcDbEntity
  8
0
  6
Continuous
 62
     7
370
    15
100
AcDbSpline
210
0.0
220
0.0
230
1.0
 70
     8
 71
     3
 72
    12
 73
     8
 74
     0
 42
0.00000001
 43
0.00000001
 40
0.0
 40
0.0
 40
0.0
 40
0.0
 40
0.1750230383296735
 40
0.461356188444235
 40
0.7353227193119314
 40
0.9652523630292417
 40
0.9999999999999999
 40
0.9999999999999999
 40
0.9999999999999999
 40
0.9999999999999999
 10
431.8554944677104
 20
145.7271037918649
 30
0.0
 10
432.0078437748195
 20
145.7252646445694
 30
0.0
 10
432.409432595987
 20
145.7204167000112
 30
0.0
 10
433.0265636794006
 20
146.0214920410414
 30
0.0
 10
433.5113158375808
 20
146.5144955628306
 30
0.0
 10
433.7395634979296
 20
146.9422035424038
 30
0.0
 10
433.7751048438437
 20
147.1313164589713
 30
0.0
 10
433.7797708196391
 20
147.1561437768063
 30
0.0
  0
SPLINE
  5
69
330
1F
100
AcDbEntity
  8
0
  6
Continuous
 62
     7
370
    15
100
AcDbSpline
210
0.0
220
0.0
230
1.0
 70
     8
 71
     3
 72
    11
 73
     7
 74
     0
 42
0.00000001
 43
0.00000001
 40
0.0
 40
0.0
 40
0.0
 40
0.0
 40
0.1812956000984274
 40
0.4556092630228336
 40
0.7424045981014612
 40
1.0
 40
1.0
 40
1.0
 40
1.0
 10
433.7697870416392
 20
204.2329481166921
 30
0.0
 10
433.7295939675473
 20
204.3699488033373
 30
0.0
 10
433.6285857971575
 20
204.7142416700266
 30
0.0
 10
433.2025265891446
 20
205.2328762222414
 30
0.0
 10
432.5683414146316
 20
205.6270677490344
 30
0.0
 10
432.0901938239069
 20
205.6670492874076
 30
0.0
 10
431.8639434261073
 20
205.6859677952847
 30
0.0
  0
LINE
  5
6A
330
1F
100
AcDbEntity
  8
0
  6
Continuous
 62
     7
370
    15
100
AcDbLine
 10
226.5548057241
 20
185.4988580865
 30
0.0
 11
218.3162070198
 21
180.1641827745
 31
0.0
  0
LINE
  5
6B
330
1F
100
AcDbEntity
  8
0
  6
Continuous
 62
     7
370
    15
100
AcDbLine
 10
235.2940741313
 20
181.0313633007
 30
0.0
 11
226.5548057241
 21
185.4988580865
 31
0.0
  0
LINE
  5
6C
330
1F
100
AcDbEntity
  8
0
  6
Continuous
 62
     7
370
    15
100
AcDbLine
 10
218.81687486
 20
170.362005226
 30
0.0
 11
227.5561414046
 21
165.8945104403
 31
0.0
  0
LINE
  5
6D
330
1F
100
AcDbEntity
  8
0
  6
Continuous
 62
     7
370
    15
100
AcDbLine
 10
218.3162070198
 20
180.1641827745
 30
0.0
 11
218.81687486
 21
170.362005226
 31
0.0
  0
LINE
  5
6E
330
1F
100
AcDbEntity
  8
0
  6
Continuous
 62
     7
370
    15
100
AcDbLine
 10
227.5561414046
 20
165.8945104403
 30
0.0
 11
235.7947419716
 21
171.2291857523
 31
0.0
  0
LINE
  5
6F
330
1F
100
AcDbEntity
  8
0
  6
Continuous
 62
     7
370
    15
100
AcDbLine
 10
235.7947419716
 20
171.2291857523
 30
0.0
 11
235.2940741313
 21
181.0313633007
 31
0.0
  0
CIRCLE
  5
70
330
1F
100
AcDbEntity
  8
0
  6
Continuous
 62
     7
370
    15
100
AcDbCircle
 10
227.0068024204
 20
175.7079569097
 30
0.0
 40
10.00000000000008
  0
LINE
  5
71
330
1F
100
AcDbEntity
  8
0
  6
Continuous
 62
     7
370
    15
100
AcDbLine
 10
84.0554780645
 20
185.7451519293
 30
0.0
 11
84.0554780645
 21
185.7297515792
 31
0.0
  0
LINE
  5
72
330
1F
100
AcDbEntity
  8
0
  6
Continuous
 62
     7
370
    15
100
AcDbLine
 10
77.0554787798
 20
165.8817326945
 30
0.0
 11
83.6541897936
 21
165.8817326945
 31
0.0
  0
LINE
  5
73
330
1F
100
AcDbEntity
  8
0
  6
Continuous
 62
     7
370
    15
100
AcDbLine
 10
77.0554787798
 20
165.8817326945
 30
0.0
 11
77.0554787798
 21
166.1354920191
 31
0.0
  0
LINE
  5
74
330
1F
100
AcDbEntity
  8
0
  6
Continuous
 62
     7
370
    15
100
AcDbLine
 10
77.0554787798
 20
185.5116358322
 30
0.0
 11
83.6541897936
 21
185.5116358322
 31
0.0
  0
LINE
  5
75
330
1F
100
AcDbEntity
  8
0
  6
Continuous
 62
     7
370
    15
100
AcDbLine
 10
77.0554787798
 20
185.2578765077
 30
0.0
 11
77.0554787798
 21
185.5116358322
 31
0.0
  0
LINE
  5
76
330
1F
100
AcDbEntity
  8
0
  6
Continuous
 62
     7
370
    15
100
AcDbLine
 10
84.0554780645
 20
185.7346019072
 30
0.0
 11
84.0554780645
 21
185.7209226412
 31
0.0
  0
LINE
  5
77
330
1F
100
AcDbEntity
  8
0
  6
Continuous
 62
     7
370
    15
100
AcDbLine
 10
378.2463467998
 20
171.3685637635
 30
0.0
 11
386.3991744203
 21
165.9036970061
 31
0.0
  0
LINE
  5
78
330
1F
100
AcDbEntity
  8
0
  6
Continuous
 62
     7
370
    15
100
AcDbLine
 10
378.9026460929
 20
181.1615472955
 30
0.0
 11
378.2463467998
 21
171.3685637635
 31
0.0
  0
LINE
  5
79
330
1F
100
AcDbEntity
  8
0
  6
Continuous
 62
     7
370
    15
100
AcDbLine
 10
387.7117730064
 20
185.4896715206
 30
0.0
 11
378.9026460929
 21
181.1615472955
 31
0.0
  0
LINE
  5
7A
330
1F
100
AcDbEntity
  8
0
  6
Continuous
 62
     7
370
    15
100
AcDbLine
 10
395.8646006269
 20
180.0248047632
 30
0.0
 11
387.7117730064
 21
185.4896715206
 31
0.0
  0
LINE
  5
7B
330
1F
100
AcDbEntity
  8
0
  6
Continuous
 62
     7
370
    15
100
AcDbLine
 10
395.2082938833
 20
170.2318212313
 30
0.0
 11
395.8646006269
 21
180.0248047632
 31
0.0
  0
LINE
  5
7C
330
1F
100
AcDbEntity
  8
0
  6
Continuous
 62
     7
370
    15
100
AcDbLine
 10
386.3991744203
 20
165.9036970061
 30
0.0
 11
395.2082938833
 21
170.2318212313
 31
0.0
  0
CIRCLE
  5
7D
330
1F
100
AcDbEntity
  8
0
  6
Continuous
 62
     7
370
    15
100
AcDbCircle
 10
387.0084671086
 20
175.7136061864
 30
0.0
 40
10.00000000000007
  0
LINE
  5
7E
330
1F
100
AcDbEntity
  8
0
  6
Continuous
 62
     7
370
    15
100
AcDbLine
 10
439.0955067558
 20
176.777506463
 30
0.0
 11
439.0955067558
 21
185.7461428565
 31
0.0
  0
LINE
  5
7F
330
1F
100
AcDbEntity
  8
0
  6
Continuous
 62
     7
370
    15
100
AcDbLine
 10
439.0955067558
 20
165.7461470288
 30
0.0
 11
439.0955067558
 21
176.777506463
 31
0.0
  0
LINE
  5
80
330
1F
100
AcDbEntity
  8
0
  6
Continuous
 62
     7
370
    15
100
AcDbLine
 10
441.0955108089
 20
176.777506463
 30
0.0
 11
441.0955108089
 21
185.7461428565
 31
0.0
  0
LINE
  5
81
330
1F
100
AcDbEntity
  8
0
  6
Continuous
 62
     7
370
    15
100
AcDbLine
 10
441.0955108089
 20
165.7461470288
 30
0.0
 11
441.0955108089
 21
176.777506463
 31
0.0
  0
LINE
  5
82
330
1F
100
AcDbEntity
  8
0
  6
Continuous
 62
     7
370
    15
100
AcDbLine
 10
448.0955100937
 20
171.6920381707
 30
0.0
 11
441.0955108089
 21
171.6920381707
 31
0.0
  0
LINE
  5
83
330
1F
100
AcDbEntity
  8
0
  6
Continuous
 62
     7
370
    15
100
AcDbLine
 10
448.0955100937
 20
171.6920381707
 30
0.0
 11
448.0955100937
 21
165.9340730232
 31
0.0
  0
LINE
  5
84
330
1F
100
AcDbEntity
  8
0
  6
Continuous
 62
     7
370
    15
100
AcDbLine
 10
448.0955100937
 20
165.9340730232
 30
0.0
 11
441.0955108089
 21
165.9340730232
 31
0.0
  0
LINE
  5
85
330
1F
100
AcDbEntity
  8
0
  6
Continuous
 62
     7
370
    15
100
AcDbLine
 10
448.0955100937
 20
181.4546531362
 30
0.0
 11
441.0955108089
 21
181.4546531362
 31
0.0
  0
LINE
  5
86
330
1F
100
AcDbEntity
  8
0
  6
Continuous
 62
     7
370
    15
100
AcDbLine
 10
448.0955100937
 20
181.4546531362
 30
0.0
 11
448.0955100937
 21
171.6920381707
 31
0.0
  0
LINE
  5
87
330
1F
100
AcDbEntity
  8
0
  6
Continuous
 62
     7
370
    15
100
AcDbLine
 10
448.0955100937
 20
185.4592955035
 30
0.0
 11
441.0955108089
 21
185.4592955035
 31
0.0
  0
LINE
  5
88
330
1F
100
AcDbEntity
  8
0
  6
Continuous
 62
     7
370
    15
100
AcDbLine
 10
448.0955100937
 20
185.4592955035
 30
0.0
 11
448.0955100937
 21
181.4546531362
 31
0.0
  0
LINE
  5
89
330
1F
100
AcDbEntity
  8
0
  6
Continuous
 62
     7
370
    15
100
AcDbLine
 10
83.6541897936
 20
185.7209226412
 30
0.0
 11
83.6541897936
 21
165.7209193629
 31
0.0
  0
LINE
  5
8A
330
1F
100
AcDbEntity
  8
0
  6
Continuous
 62
     7
370
    15
100
AcDbLine
 10
85.6541789455
 20
185.7209226412
 30
0.0
 11
85.6541789455
 21
165.7209193629
 31
0.0
  0
LINE
  5
8B
330
1F
100
AcDbEntity
  8
0
  6
Continuous
 62
     7
370
    15
100
AcDbLine
 10
76.6541756077
 20
168.9957475585
 30
0.0
 11
83.6541897936
 21
168.9957475585
 31
0.0
  0
LINE
  5
8C
330
1F
100
AcDbEntity
  8
0
  6
Continuous
 62
     7
370
    15
100
AcDbLine
 10
76.6541756077
 20
168.9957475585
 30
0.0
 11
76.6541756077
 21
178.5569435281
 31
0.0
  0
LINE
  5
8D
330
1F
100
AcDbEntity
  8
0
  6
Continuous
 62
     7
370
    15
100
AcDbLine
 10
76.6541756077
 20
178.5569435281
 30
0.0
 11
83.6541897936
 21
178.5569435281
 31
0.0
  0
LINE
  5
8E
330
1F
100
AcDbEntity
  8
0
  6
Continuous
 62
     7
370
    15
100
AcDbLine
 10
76.6541756077
 20
185.2578765077
 30
0.0
 11
83.6541897936
 21
185.2578765077
 31
0.0
  0
LINE
  5
8F
330
1F
100
AcDbEntity
  8
0
  6
Continuous
 62
     7
370
    15
100
AcDbLine
 10
76.6541756077
 20
178.5569435281
 30
0.0
 11
76.6541756077
 21
185.2578765077
 31
0.0
  0
LINE
  5
90
330
1F
100
AcDbEntity
  8
0
  6
Continuous
 62
     7
370
    15
100
AcDbLine
 10
76.6541756077
 20
166.1354920191
 30
0.0
 11
83.6541897936
 21
166.1354920191
 31
0.0
  0
LINE
  5
91
330
1F
100
AcDbEntity
  8
0
  6
Continuous
 62
     7
370
    15
100
AcDbLine
 10
76.6541756077
 20
166.1354920191
 30
0.0
 11
76.6541756077
 21
168.9957475585
 31
0.0
  0
LINE
  5
92
330
1F
100
AcDbEntity
  8
0
  6
Continuous
 62
     7
370
    15
100
AcDbLine
 10
441.0668111725
 20
165.6928902787
 30
0.0
 11
441.0668111725
 21
165.7461470288
 31
0.0
  0
LINE
  5
93
330
1F
100
AcDbEntity
  8
0
  6
Continuous
 62
     7
370
    15
100
AcDbLine
 10
143.0225766582
 20
166.7485555929
 30
0.0
 11
152.7883357687
 21
167.7300280255
 31
0.0
  0
LINE
  5
94
330
1F
100
AcDbEntity
  8
0
  6
Continuous
 62
     7
370
    15
100
AcDbLine
 10
137.2897125168
 20
174.7152155561
 30
0.0
 11
143.0225766582
 21
166.7485555929
 31
0.0
  0
LINE
  5
95
330
1F
100
AcDbEntity
  8
0
  6
Continuous
 62
     7
370
    15
100
AcDbLine
 10
151.0883740468
 20
184.6448129338
 30
0.0
 11
141.3226149363
 21
183.6633405012
 31
0.0
  0
LINE
  5
96
330
1F
100
AcDbEntity
  8
0
  6
Continuous
 62
     7
370
    15
100
AcDbLine
 10
156.8212307377
 20
176.6781529707
 30
0.0
 11
151.0883740468
 21
184.6448129338
 31
0.0
  0
LINE
  5
97
330
1F
100
AcDbEntity
  8
0
  6
Continuous
 62
     7
370
    15
100
AcDbLine
 10
152.7883357687
 20
167.7300280255
 30
0.0
 11
156.8212307377
 21
176.6781529707
 31
0.0
  0
LINE
  5
98
330
1F
100
AcDbEntity
  8
0
  6
Continuous
 62
     7
370
    15
100
AcDbLine
 10
141.3226149363
 20
183.6633405012
 30
0.0
 11
137.2897125168
 21
174.7152155561
 31
0.0
  0
CIRCLE
  5
99
330
1F
100
AcDbEntity
  8
0
  6
Continuous
 62
     7
370
    15
100
AcDbCircle
 10
147.0084604493
 20
175.679781149
 30
0.0
 40
10.00000000000008
  0
LINE
  5
9A
330
1F
100
AcDbEntity
  8
0
  6
Continuous
 62
     7
370
    15
100
AcDbLine
 10
316.8691418452
 20
175.8555418176
 30
0.0
 11
311.8247374279
 21
184.2749959153
 31
0.0
  0
LINE
  5
9B
330
1F
100
AcDbEntity
  8
0
  6
Continuous
 62
     7
370
    15
100
AcDbLine
 10
302.2862135751
 20
167.1183726114
 30
0.0
 11
312.0998799188
 21
167.2772264403
 31
0.0
  0
LINE
  5
9C
330
1F
100
AcDbEntity
  8
0
  6
Continuous
 62
     7
370
    15
100
AcDbLine
 10
311.8247374279
 20
184.2749959153
 30
0.0
 11
302.0110673589
 21
184.1161420864
 31
0.0
  0
LINE
  5
9D
330
1F
100
AcDbEntity
  8
0
  6
Continuous
 62
     7
370
    15
100
AcDbLine
 10
297.2418054325
 20
175.5378267092
 30
0.0
 11
302.2862135751
 21
167.1183726114
 31
0.0
  0
LINE
  5
9E
330
1F
100
AcDbEntity
  8
0
  6
Continuous
 62
     7
370
    15
100
AcDbLine
 10
312.0998799188
 20
167.2772264403
 30
0.0
 11
316.8691418452
 21
175.8555418176
 31
0.0
  0
LINE
  5
9F
330
1F
100
AcDbEntity
  8
0
  6
Continuous
 62
     7
370
    15
100
AcDbLine
 10
302.0110673589
 20
184.1161420864
 30
0.0
 11
297.2418054325
 21
175.5378267092
 31
0.0
  0
CIRCLE
  5
A0
330
1F
100
AcDbEntity
  8
0
  6
Continuous
 62
     7
370
    15
100
AcDbCircle
 10
307.0201696833
 20
175.7320343276
 30
0.0
 40
10.00000000000004
  0
LINE
  5
A1
330
1F
100
AcDbEntity
  8
0
  6
Continuous
 62
     7
370
    15
100
AcDbLine
 10
275.0205642862
 20
175.1966869754
 30
0.0
 11
275.0205642862
 21
163.6966860217
 31
0.0
  0
ARC
  5
A2
330
1F
100
AcDbEntity
  8
0
  6
Continuous
 62
     7
370
    15
100
AcDbCircle
 10
267.0205645968
 20
175.1966844124
 30
0.0
 40
3.000000000000064
100
AcDbArc
 50
43.5448792397
 51
137.7885293109
  0
LINE
  5
A3
330
1F
100
AcDbEntity
  8
0
  6
Continuous
 62
     7
370
    15
100
AcDbLine
 10
264.0205645786
 20
163.6966860217
 30
0.0
 11
264.0205645786
 21
167.6098203582
 31
0.0
  0
LINE
  5
A4
330
1F
100
AcDbEntity
  8
0
  6
Continuous
 62
     7
370
    15
100
AcDbLine
 10
259.0205646904
 20
163.6966860217
 30
0.0
 11
259.0205646904
 21
175.1966869754
 31
0.0
  0
ARC
  5
A5
330
1F
100
AcDbEntity
  8
0
  6
Continuous
 62
     7
370
    15
100
AcDbCircle
 10
267.0205645968
 20
175.1966844124
 30
0.0
 40
8.000000000000028
100
AcDbArc
 50
90.0
 51
180.0
  0
ARC
  5
A6
330
1F
100
AcDbEntity
  8
0
  6
Continuous
 62
     7
370
    15
100
AcDbCircle
 10
267.0205645968
 20
175.1966844124
 30
0.0
 40
8.000000000000028
100
AcDbArc
 50
0.0
 51
90.0
  0
LINE
  5
A7
330
1F
100
AcDbEntity
  8
0
  6
Continuous
 62
     7
370
    15
100
AcDbLine
 10
270.020564398
 20
167.5643792671
 30
0.0
 11
270.020564398
 21
163.6966860217
 31
0.0
  0
LINE
  5
A8
330
1F
100
AcDbEntity
  8
0
  6
Continuous
 62
     7
370
    15
100
AcDbLine
 10
126.0205603523
 20
163.6966860217
 30
0.0
 11
126.0205603523
 21
176.6966825646
 31
0.0
  0
ARC
  5
A9
330
1F
100
AcDbEntity
  8
0
  6
Continuous
 62
     7
370
    15
100
AcDbCircle
 10
145.0205645968
 20
176.6966844124
 30
0.0
 40
18.99999999999998
100
AcDbArc
 50
136.3971810273
 51
180.0
  0
ARC
  5
AA
330
1F
100
AcDbEntity
  8
0
  6
Continuous
 62
     7
370
    15
100
AcDbCircle
 10
187.0205645968
 20
136.6966844124
 30
0.0
 40
77.00000000000001
100
AcDbArc
 50
43.6028189727
 51
136.3971810273
  0
ARC
  5
AB
330
1F
100
AcDbEntity
  8
0
  6
Continuous
 62
     7
370
    15
100
AcDbCircle
 10
229.0205645968
 20
176.6966844124
 30
0.0
 40
19.00000000000002
100
AcDbArc
 50
0.0
 51
43.6028189727
  0
LINE
  5
AC
330
1F
100
AcDbEntity
  8
0
  6
Continuous
 62
     7
370
    15
100
AcDbLine
 10
248.0205645172
 20
176.6966825646
 30
0.0
 11
248.0205645172
 21
163.6966860217
 31
0.0
  0
LINE
  5
AD
330
1F
100
AcDbEntity
  8
0
  6
Continuous
 62
     7
370
    15
100
AcDbLine
 10
243.0205646289
 20
176.6966825646
 30
0.0
 11
243.0205646289
 21
163.6966860217
 31
0.0
  0
ARC
  5
AE
330
1F
100
AcDbEntity
  8
0
  6
Continuous
 62
     7
370
    15
100
AcDbCircle
 10
229.0205645968
 20
176.6966844124
 30
0.0
 40
14.0
100
AcDbArc
 50
0.0
 51
43.6028189727
  0
ARC
  5
AF
330
1F
100
AcDbEntity
  8
0
  6
Continuous
 62
     7
370
    15
100
AcDbCircle
 10
187.0205645968
 20
136.6966844124
 30
0.0
 40
72.00000000000006
100
AcDbArc
 50
43.6028189727
 51
136.3971810273
  0
ARC
  5
B0
330
1F
100
AcDbEntity
  8
0
  6
Continuous
 62
     7
370
    15
100
AcDbCircle
 10
145.0205645968
 20
176.6966844124
 30
0.0
 40
14.00000000000005
100
AcDbArc
 50
136.3971810273
 51
180.0
  0
LINE
  5
B1
330
1F
100
AcDbEntity
  8
0
  6
Continuous
 62
     7
370
    15
100
AcDbLine
 10
131.0205704851
 20
163.6966860217
 30
0.0
 11
131.0205704851
 21
176.6966825646
 31
0.0
  0
LINE
  5
B2
330
1F
100
AcDbEntity
  8
0
  6
Continuous
 62
     7
370
    15
100
AcDbLine
 10
95.7945979519
 20
163.6966860217
 30
0.0
 11
95.7945979519
 21
176.6966825646
 31
0.0
  0
LINE
  5
B3
330
1F
100
AcDbEntity
  8
0
  6
Continuous
 62
     7
370
    15
100
AcDbLine
 10
109.7947902364
 20
163.6966860217
 30
0.0
 11
95.7945979519
 21
163.6966860217
 31
0.0
  0
LINE
  5
B4
330
1F
100
AcDbEntity
  8
0
  6
Continuous
 62
     7
370
    15
100
AcDbLine
 10
109.7947902364
 20
158.6966833395
 30
0.0
 11
95.2947832031
 21
158.6966833395
 31
0.0
  0
LINE
  5
B5
330
1F
100
AcDbEntity
  8
0
  6
Continuous
 62
     7
370
    15
100
AcDbLine
 10
95.2947832031
 20
163.6966860217
 30
0.0
 11
95.2947832031
 21
158.6966833395
 31
0.0
  0
LWPOLYLINE
  5
B6
330
1F
100
AcDbEntity
  8
0
  6
Continuous
 62
     7
370
    15
100
AcDbPolyline
 90
        9
 70
   128
 43
0.0
 10
95.6138915701
 20
181.9785705132
 10
95.5393112583
 20
177.7058413548
 10
95.4745806141
 20
173.9968305749
 10
95.4197145385
 20
170.8540937227
 10
95.3747875375
 20
168.2797989172
 10
95.3397996111
 20
166.2757268471
 10
95.3147954626
 20
164.8432558698
 10
95.2997899933
 20
163.9833769125
 10
95.2947832031
 20
163.6966860217
  0
SPLINE
  5
B7
330
1F
100
AcDbEntity
  8
0
  6
Continuous
 62
     7
370
    15
100
AcDbSpline
210
0.0
220
0.0
230
1.0
 70
     8
 71
     3
 72
     9
 73
     5
 74
     0
 42
0.00000001
 43
0.00000001
 40
0.0
 40
0.0
 40
0.0
 40
0.0
 40
0.4947668272337774
 40
0.9999999999999999
 40
0.9999999999999999
 40
0.9999999999999999
 40
0.9999999999999999
 10
95.79459795186409
 20
176.6966825646481
 30
0.0
 10
95.78514333370316
 20
177.5815104765323
 30
0.0
 10
95.76603409347015
 20
179.369884035914
 30
0.0
 10
95.66495837566342
 20
181.1029620230627
 30
0.0
 10
95.6138915700663
 20
181.9785705131612
 30
0.0
  0
LINE
  5
B8
330
1F
100
AcDbEntity
  8
0
  6
Continuous
 62
     7
370
    15
100
AcDbLine
 10
403.0205703659
 20
163.6966860217
 30
0.0
 11
403.0205703659
 21
176.6966825646
 31
0.0
  0
ARC
  5
B9
330
1F
100
AcDbEntity
  8
0
  6
Continuous
 62
     7
370
    15
100
AcDbCircle
 10
389.0205645968
 20
176.6966844124
 30
0.0
 40
14.00000000000005
100
AcDbArc
 50
0.0
 51
43.6028189727
  0
ARC
  5
BA
330
1F
100
AcDbEntity
  8
0
  6
Continuous
 62
     7
370
    15
100
AcDbCircle
 10
347.0205645968
 20
136.6966844124
 30
0.0
 40
72.00000000000003
100
AcDbArc
 50
43.6028189727
 51
136.3971810273
  0
ARC
  5
BB
330
1F
100
AcDbEntity
  8
0
  6
Continuous
 62
     7
370
    15
100
AcDbCircle
 10
305.0205645968
 20
176.6966844124
 30
0.0
 40
14.00000000000005
100
AcDbArc
 50
136.3971810273
 51
180.0
  0
LINE
  5
BC
330
1F
100
AcDbEntity
  8
0
  6
Continuous
 62
     7
370
    15
100
AcDbLine
 10
291.0205650462
 20
176.6966825646
 30
0.0
 11
291.0205650462
 21
163.6966860217
 31
0.0
  0
LINE
  5
BD
330
1F
100
AcDbEntity
  8
0
  6
Continuous
 62
     7
370
    15
100
AcDbLine
 10
286.0205642266
 20
163.6966860217
 30
0.0
 11
286.0205642266
 21
176.6966825646
 31
0.0
  0
ARC
  5
BE
330
1F
100
AcDbEntity
  8
0
  6
Continuous
 62
     7
370
    15
100
AcDbCircle
 10
305.0205645968
 20
176.6966844124
 30
0.0
 40
19.00000000000006
100
AcDbArc
 50
136.3971810273
 51
180.0
  0
ARC
  5
BF
330
1F
100
AcDbEntity
  8
0
  6
Continuous
 62
     7
370
    15
100
AcDbCircle
 10
347.0205645968
 20
136.6966844124
 30
0.0
 40
77.00000000000001
100
AcDbArc
 50
43.6028189727
 51
136.3971810273
  0
ARC
  5
C0
330
1F
100
AcDbEntity
  8
0
  6
Continuous
 62
     7
370
    15
100
AcDbCircle
 10
389.0205645968
 20
176.6966844124
 30
0.0
 40
19.00000000000002
100
AcDbArc
 50
0.0
 51
43.6028189727
  0
LINE
  5
C1
330
1F
100
AcDbEntity
  8
0
  6
Continuous
 62
     7
370
    15
100
AcDbLine
 10
408.0205655975
 20
176.6966825646
 30
0.0
 11
408.0205655975
 21
163.6966860217
 31
0.0
  0
LINE
  5
C2
330
1F
100
AcDbEntity
  8
0
  6
Continuous
 62
     7
370
    15
100
AcDbLine
 10
259.0205646904
 20
163.6966860217
 30
0.0
 11
248.0205645172
 21
163.6966860217
 31
0.0
  0
LINE
  5
C3
330
1F
100
AcDbEntity
  8
0
  6
Continuous
 62
     7
370
    15
100
AcDbLine
 10
264.0205645786
 20
163.6966860217
 30
0.0
 11
264.0205645786
 21
159.6966853661
 31
0.0
  0
ARC
  5
C4
330
1F
100
AcDbEntity
  8
0
  6
Continuous
 62
     7
370
    15
100
AcDbCircle
 10
263.0205645968
 20
159.6966844124
 30
0.0
 40
1.0
100
AcDbArc
 50
270.0
 51
0.0
  0
ARC
  5
C5
330
1F
100
AcDbEntity
  8
0
  6
Continuous
 62
     7
370
    15
100
AcDbCircle
 10
244.0205645968
 20
159.6966844124
 30
0.0
 40
1.0
100
AcDbArc
 50
180.0
 51
270.0
  0
LINE
  5
C6
330
1F
100
AcDbEntity
  8
0
  6
Continuous
 62
     7
370
    15
100
AcDbLine
 10
243.0205646289
 20
163.6966860217
 30
0.0
 11
243.0205646289
 21
159.6966853661
 31
0.0
  0
LINE
  5
C7
330
1F
100
AcDbEntity
  8
0
  6
Continuous
 62
     7
370
    15
100
AcDbLine
 10
263.0205645894
 20
158.6966833395
 30
0.0
 11
244.0205647928
 21
158.6966833395
 31
0.0
  0
LINE
  5
C8
330
1F
100
AcDbEntity
  8
0
  6
Continuous
 62
     7
370
    15
100
AcDbLine
 10
126.0205603523
 20
163.6966860217
 30
0.0
 11
109.7947902364
 21
163.6966860217
 31
0.0
  0
ARC
  5
C9
330
1F
100
AcDbEntity
  8
0
  6
Continuous
 62
     7
370
    15
100
AcDbCircle
 10
130.0205645968
 20
159.6966844124
 30
0.0
 40
1.0
100
AcDbArc
 50
270.0
 51
0.0
  0
LINE
  5
CA
330
1F
100
AcDbEntity
  8
0
  6
Continuous
 62
     7
370
    15
100
AcDbLine
 10
130.0205684585
 20
158.6966833395
 30
0.0
 11
109.7947902364
 21
158.6966833395
 31
0.0
  0
LINE
  5
CB
330
1F
100
AcDbEntity
  8
0
  6
Continuous
 62
     7
370
    15
100
AcDbLine
 10
131.0205704851
 20
159.6966853661
 30
0.0
 11
131.0205704851
 21
163.6966860217
 31
0.0
  0
LINE
  5
CC
330
1F
100
AcDbEntity
  8
0
  6
Continuous
 62
     7
370
    15
100
AcDbLine
 10
415.2463472767
 20
158.6966833395
 30
0.0
 11
404.0205574913
 21
158.6966833395
 31
0.0
  0
ARC
  5
CD
330
1F
100
AcDbEntity
  8
0
  6
Continuous
 62
     7
370
    15
100
AcDbCircle
 10
404.0205645968
 20
159.6966844124
 30
0.0
 40
1.0
100
AcDbArc
 50
180.0
 51
270.0
  0
LINE
  5
CE
330
1F
100
AcDbEntity
  8
0
  6
Continuous
 62
     7
370
    15
100
AcDbLine
 10
403.0205703659
 20
159.6966853661
 30
0.0
 11
403.0205703659
 21
163.6966860217
 31
0.0
  0
LINE
  5
CF
330
1F
100
AcDbEntity
  8
0
  6
Continuous
 62
     7
370
    15
100
AcDbLine
 10
415.2463472767
 20
163.6966860217
 30
0.0
 11
408.0205655975
 21
163.6966860217
 31
0.0
  0
LINE
  5
D0
330
1F
100
AcDbEntity
  8
0
  6
Continuous
 62
     7
370
    15
100
AcDbLine
 10
290.0205648823
 20
158.6966833395
 30
0.0
 11
271.0205645619
 21
158.6966833395
 31
0.0
  0
ARC
  5
D1
330
1F
100
AcDbEntity
  8
0
  6
Continuous
 62
     7
370
    15
100
AcDbCircle
 10
271.0205645968
 20
159.6966844124
 30
0.0
 40
1.0
100
AcDbArc
 50
180.0
 51
270.0
  0
LINE
  5
D2
330
1F
100
AcDbEntity
  8
0
  6
Continuous
 62
     7
370
    15
100
AcDbLine
 10
291.0205650462
 20
163.6966860217
 30
0.0
 11
291.0205650462
 21
159.6966853661
 31
0.0
  0
LINE
  5
D3
330
1F
100
AcDbEntity
  8
0
  6
Continuous
 62
     7
370
    15
100
AcDbLine
 10
286.0205642266
 20
163.6966860217
 30
0.0
 11
275.0205642862
 21
163.6966860217
 31
0.0
  0
ARC
  5
D4
330
1F
100
AcDbEntity
  8
0
  6
Continuous
 62
     7
370
    15
100
AcDbCircle
 10
290.0205645968
 20
159.6966844124
 30
0.0
 40
1.0
100
AcDbArc
 50
270.0
 51
0.0
  0
LINE
  5
D5
330
1F
100
AcDbEntity
  8
0
  6
Continuous
 62
     7
370
    15
100
AcDbLine
 10
270.020564398
 20
159.6966853661
 30
0.0
 11
270.020564398
 21
163.6966860217
 31
0.0
  0
LINE
  5
D6
330
1F
100
AcDbEntity
  8
0
  6
Continuous
 62
     7
370
    15
100
AcDbLine
 10
429.7463394088
 20
158.6966833395
 30
0.0
 11
428.7463522835
 21
158.6966833395
 31
0.0
  0
LINE
  5
D7
330
1F
100
AcDbEntity
  8
0
  6
Continuous
 62
     7
370
    15
100
AcDbLine
 10
428.7463522835
 20
158.6966833395
 30
0.0
 11
415.2463472767
 21
158.6966833395
 31
0.0
  0
LINE
  5
D8
330
1F
100
AcDbEntity
  8
0
  6
Continuous
 62
     7
370
    15
100
AcDbLine
 10
429.7463394088
 20
163.6966860217
 30
0.0
 11
429.7463394088
 21
158.6966833395
 31
0.0
  0
LINE
  5
D9
330
1F
100
AcDbEntity
  8
0
  6
Continuous
 62
     7
370
    15
100
AcDbLine
 10
429.7463394088
 20
163.6966860217
 30
0.0
 11
415.2463472767
 21
163.6966860217
 31
0.0
  0
SPLINE
  5
DA
330
1F
100
AcDbEntity
  8
0
  6
Continuous
 62
     7
370
    15
100
AcDbSpline
210
0.0
220
0.0
230
1.0
 70
     8
 71
     3
 72
    12
 73
     8
 74
     0
 42
0.00000001
 43
0.00000001
 40
0.0
 40
0.0
 40
0.0
 40
0.0
 40
0.2047564732690466
 40
0.414039924134409
 40
0.64774088107744
 40
0.8877002106347123
 40
1.0
 40
1.0
 40
1.0
 40
1.0
 10
97.24224576184639
 20
176.6966825646481
 30
0.0
 10
97.25096230778225
 20
177.5867878399862
 30
0.0
 10
97.26858811448011
 20
179.3866778009172
 30
0.0
 10
97.1452817343397
 20
182.1452717528632
 30
0.0
 10
96.95837770291712
 20
184.9196195159715
 30
0.0
 10
96.81672867745694
 20
187.1384441627109
 30
0.0
 10
96.81846836977186
 20
188.3453764933623
 30
0.0
 10
96.81902298161873
 20
188.7301450890622
 30
0.0
  0
LINE
  5
DB
330
1F
100
AcDbEntity
  8
0
  6
Continuous
 62
     7
370
    15
100
AcDbLine
 10
96.8190229816
 20
188.7301450891
 30
0.0
 11
101.0023749752
 21
428.3947816414
 31
0.0
  0
ELLIPSE
  5
DC
330
1F
100
AcDbEntity
  8
0
  6
Continuous
 62
     7
370
    15
100
AcDbEllipse
 10
106.0205645968
 20
-57.6460323797
 30
0.0
 11
-13.50205580228005
 21
-773.5322588489965
 31
0.0
210
0.0
220
0.0
230
0.9999999999999999
 40
0.0174497492
 41
4.404905459287457
 42
4.42249195618022
  0
LINE
  5
DD
330
1F
100
AcDbEntity
  8
0
  6
Continuous
 62
     7
370
    15
100
AcDbLine
 10
424.0387476368
 20
428.3947816414
 30
0.0
 11
428.6590761823
 21
163.6966860217
 31
0.0
  0
LINE
  5
DE
330
1F
100
AcDbEntity
  8
0
  6
Continuous
 62
     7
370
    15
100
AcDbLine
 10
140.9962869568
 20
467.6966836971
 30
0.0
 11
384.0448356552
 21
467.6966836971
 31
0.0
  0
ARC
  5
DF
330
1F
100
AcDbEntity
  8
0
  6
Continuous
 62
     7
370
    15
100
AcDbCircle
 10
140.996289924
 20
427.6966844124
 30
0.0
 40
40.0
100
AcDbArc
 50
90.0
 51
179.0
  0
ARC
  5
E0
330
1F
100
AcDbEntity
  8
0
  6
Continuous
 62
     7
370
    15
100
AcDbCircle
 10
384.0448392696
 20
427.6966844124
 30
0.0
 40
39.99999999999994
100
AcDbArc
 50
1.0
 51
90.0
  0
LWPOLYLINE
  5
E1
330
1F
100
AcDbEntity
  8
0
  6
Continuous
 62
     7
370
    15
100
AcDbPolyline
 90
        4
 70
   128
 43
0.0
 10
95.7504160089
 20
189.8001304192
 10
95.7093037052
 20
187.4443834943
 10
95.6634081287
 20
184.814872436
 10
95.6138915701
 20
181.9785705132
  0
LWPOLYLINE
  5
E2
330
1F
100
AcDbEntity
  8
0
  6
Continuous
 62
     7
370
    15
100
AcDbPolyline
 90
       13
 70
   128
 43
0.0
 10
96.1675442142
 20
213.6966904921
 10
96.164474575
 20
213.5214230341
 10
96.1553103609
 20
212.9964551252
 10
96.1400962753
 20
212.1241709513
 10
96.1188770218
 20
210.9085193199
 10
96.0917569084
 20
209.3550583643
 10
96.0588700456
 20
207.4708512348
 10
96.020350544
 20
205.2644735498
 10
95.9763921184
 20
202.7459612412
 10
95.9271884842
 20
199.9267956537
 10
95.8729482574
 20
196.8197992367
 10
95.8139396591
 20
193.439113192
 10
95.7504160089
 20
189.8001304192
  0
LINE
  5
E3
330
1F
100
AcDbEntity
  8
0
  6
Continuous
 62
     7
370
    15
100
AcDbLine
 10
429.7463394088
 20
163.6966860217
 30
0.0
 11
429.5194245262
 21
176.6966825646
 31
0.0
  0
LWPOLYLINE
  5
E4
330
1F
100
AcDbEntity
  8
0
  6
Continuous
 62
     7
370
    15
100
AcDbPolyline
 90
        6
 70
   128
 43
0.0
 10
429.5194245262
 20
176.6966825646
 10
429.4691480083
 20
179.5773824972
 10
429.4200188799
 20
182.3914742393
 10
429.3731994314
 20
185.0738918704
 10
429.3297625465
 20
187.5626316589
 10
429.290706603
 20
189.8001304192
  0
LWPOLYLINE
  5
E5
330
1F
100
AcDbEntity
  8
0
  6
Continuous
 62
     7
370
    15
100
AcDbPolyline
 90
       13
 70
   128
 43
0.0
 10
429.290706603
 20
189.8001304192
 10
429.2271829529
 20
193.439113192
 10
429.1681743545
 20
196.8197992367
 10
429.1139490289
 20
199.9267956537
 10
429.0647304935
 20
202.7459612412
 10
429.020772068
 20
205.2644735498
 10
428.9822674675
 20
207.4708512348
 10
428.9493806047
 20
209.3550583643
 10
428.9222604913
 20
210.9085193199
 10
428.9010412378
 20
212.1241709513
 10
428.8858122511
 20
212.9964551252
 10
428.8766480369
 20
213.5214230341
 10
428.8735932989
 20
213.6966904921
  0
LINE
  5
E6
330
1F
100
AcDbEntity
  8
0
  6
Continuous
 62
     7
370
    15
100
AcDbLine
 10
108.5554755611
 20
85.6966844124
 30
0.0
 11
94.56225702
 21
85.6966844124
 31
0.0
  0
LINE
  5
E7
330
1F
100
AcDbEntity
  8
0
  6
Continuous
 62
     7
370
    15
100
AcDbLine
 10
94.56225702
 20
85.6966844124
 30
0.0
 11
94.56225702
 21
87.6966845074
 31
0.0
  0
LINE
  5
E8
330
1F
100
AcDbEntity
  8
0
  6
Continuous
 62
     7
370
    15
100
AcDbLine
 10
94.56225702
 20
87.6966845074
 30
0.0
 11
108.5554755611
 21
87.6966845074
 31
0.0
  0
LINE
  5
E9
330
1F
100
AcDbEntity
  8
0
  6
Continuous
 62
     7
370
    15
100
AcDbLine
 10
108.5554755611
 20
85.6966844124
 30
0.0
 11
416.5554738922
 21
85.6966844124
 31
0.0
  0
LINE
  5
EA
330
1F
100
AcDbEntity
  8
0
  6
Continuous
 62
     7
370
    15
100
AcDbLine
 10
108.5554755611
 20
87.6966845074
 30
0.0
 11
416.5554738922
 21
87.6966845074
 31
0.0
  0
LINE
  5
EB
330
1F
100
AcDbEntity
  8
0
  6
Continuous
 62
     7
370
    15
100
AcDbLine
 10
430.5486924333
 20
85.6966844124
 30
0.0
 11
430.5486924333
 21
87.6966845074
 31
0.0
  0
LINE
  5
EC
330
1F
100
AcDbEntity
  8
0
  6
Continuous
 62
     7
370
    15
100
AcDbLine
 10
430.5486924333
 20
85.6966844124
 30
0.0
 11
416.5554738922
 21
85.6966844124
 31
0.0
  0
LINE
  5
ED
330
1F
100
AcDbEntity
  8
0
  6
Continuous
 62
     7
370
    15
100
AcDbLine
 10
416.5554738922
 20
87.6966845074
 30
0.0
 11
430.5486924333
 21
87.6966845074
 31
0.0
  0
ELLIPSE
  5
EE
330
1F
100
AcDbEntity
  8
0
  6
Continuous
 62
     7
370
    15
100
AcDbEllipse
 10
104.7554747267
 20
-130.1229824997
 30
0.0
 11
-13.50205580228007
 21
-773.5322588489964
 31
0.0
210
0.0
220
0.0
230
0.9999999999999999
 40
0.0174497492
 41
4.41682434767883
 42
4.427241852742124
  0
LINE
  5
EF
330
1F
100
AcDbEntity
  8
0
  6
Continuous
 62
     7
370
    15
100
AcDbLine
 10
95.1798356457
 20
94.8210407344
 30
0.0
 11
96.2862021608
 21
158.2054069561
 31
0.0
  0
ELLIPSE
  5
F0
330
1F
100
AcDbEntity
  8
0
  6
Continuous
 62
     7
370
    15
100
AcDbEllipse
 10
420.3554747267
 20
-130.1229824997
 30
0.0
 11
13.5020558022801
 21
-773.5322588489962
 31
0.0
210
0.0
220
0.0
230
0.9999999999999999
 40
0.0174497492
 41
1.855943454437526
 42
1.86636095950082
  0
LINE
  5
F1
330
1F
100
AcDbEntity
  8
0
  6
Continuous
 62
     7
370
    15
100
AcDbLine
 10
428.8247472925
 20
158.2054069561
 30
0.0
 11
429.9311138077
 21
94.8210407344
 31
0.0
  0
ARC
  5
F2
330
1F
100
AcDbEntity
  8
0
  6
Continuous
 62
     7
370
    15
100
AcDbCircle
 10
347.0554747267
 20
215.6966844124
 30
0.0
 40
74.99999999999999
100
AcDbArc
 50
229.6045172904
 51
310.3954827096
  0
ARC
  5
F3
330
1F
100
AcDbEntity
  8
0
  6
Continuous
 62
     7
370
    15
100
AcDbCircle
 10
187.0554747267
 20
215.6966844124
 30
0.0
 40
75.0
100
AcDbArc
 50
229.6045172904
 51
310.3954827096
  0
ARC
  5
F4
330
1F
100
AcDbEntity
  8
0
  6
Continuous
 62
     7
370
    15
100
AcDbCircle
 10
138.1269554358
 20
158.1966844124
 30
0.0
 40
0.5
100
AcDbArc
 50
49.6045172904
 51
90.0
  0
ARC
  5
F5
330
1F
100
AcDbEntity
  8
0
  6
Continuous
 62
     7
370
    15
100
AcDbCircle
 10
96.7861329681
 20
158.1966844124
 30
0.0
 40
0.5
100
AcDbArc
 50
90.0
 51
179.0
  0
LINE
  5
F6
330
1F
100
AcDbEntity
  8
0
  6
Continuous
 62
     7
370
    15
100
AcDbLine
 10
235.9839941693
 20
158.6966833395
 30
0.0
 11
244.0205647928
 21
158.6966833395
 31
0.0
  0
LINE
  5
F7
330
1F
100
AcDbEntity
  8
0
  6
Continuous
 62
     7
370
    15
100
AcDbLine
 10
263.0205645894
 20
158.6966833395
 30
0.0
 11
271.0205645619
 21
158.6966833395
 31
0.0
  0
LINE
  5
F8
330
1F
100
AcDbEntity
  8
0
  6
Continuous
 62
     7
370
    15
100
AcDbLine
 10
290.0205648823
 20
158.6966833395
 30
0.0
 11
298.1269567592
 21
158.6966833395
 31
0.0
  0
ARC
  5
F9
330
1F
100
AcDbEntity
  8
0
  6
Continuous
 62
     7
370
    15
100
AcDbCircle
 10
235.9839940176
 20
158.1966844124
 30
0.0
 40
0.5000000000000284
100
AcDbArc
 50
90.0
 51
130.3954827096
  0
LINE
  5
FA
330
1F
100
AcDbEntity
  8
0
  6
Continuous
 62
     7
370
    15
100
AcDbLine
 10
130.0205684585
 20
158.6966833395
 30
0.0
 11
138.1269566102
 21
158.6966833395
 31
0.0
  0
ARC
  5
FB
330
1F
100
AcDbEntity
  8
0
  6
Continuous
 62
     7
370
    15
100
AcDbCircle
 10
298.1269554358
 20
158.1966844124
 30
0.0
 40
0.5000000000000051
100
AcDbArc
 50
49.6045172904
 51
90.0
  0
ARC
  5
FC
330
1F
100
AcDbEntity
  8
0
  6
Continuous
 62
     7
370
    15
100
AcDbCircle
 10
395.9839940176
 20
158.1966844124
 30
0.0
 40
0.5000000000000568
100
AcDbArc
 50
90.0
 51
130.3954827096
  0
LINE
  5
FD
330
1F
100
AcDbEntity
  8
0
  6
Continuous
 62
     7
370
    15
100
AcDbLine
 10
395.9839887304
 20
158.6966833395
 30
0.0
 11
404.0205574913
 21
158.6966833395
 31
0.0
  0
ARC
  5
FE
330
1F
100
AcDbEntity
  8
0
  6
Continuous
 62
     7
370
    15
100
AcDbCircle
 10
428.3248164852
 20
158.1966844124
 30
0.0
 40
0.5000000000000063
100
AcDbArc
 50
1.0
 51
90.0
  0
ARC
  5
FF
330
1F
100
AcDbEntity
  8
0
  6
Continuous
 62
     7
370
    15
100
AcDbCircle
 10
187.0554747267
 20
215.6966844124
 30
0.0
 40
75.0
100
AcDbArc
 50
310.3954827096
 51
313.8859834266
  0
ARC
  5
100
330
1F
100
AcDbEntity
  8
0
  6
Continuous
 62
     7
370
    15
100
AcDbCircle
 10
347.0554747267
 20
215.6966844124
 30
0.0
 40
75.00000000000001
100
AcDbArc
 50
310.3954827096
 51
313.8859834266
  0
ARC
  5
101
330
1F
100
AcDbEntity
  8
0
  6
Continuous
 62
     7
370
    15
100
AcDbCircle
 10
187.0554747267
 20
215.6966844124
 30
0.0
 40
75.0
100
AcDbArc
 50
226.1140165734
 51
229.6045172904
  0
ARC
  5
102
330
1F
100
AcDbEntity
  8
0
  6
Continuous
 62
     7
370
    15
100
AcDbCircle
 10
347.0554747267
 20
215.6966844124
 30
0.0
 40
74.99999999999999
100
AcDbArc
 50
226.1140165734
 51
229.6045172904
  0
ARC
  5
103
330
1F
100
AcDbEntity
  8
0
  6
Continuous
 62
     7
370
    15
100
AcDbCircle
 10
148.5814575202
 20
175.6966844124
 30
0.0
 40
19.49999999999997
100
AcDbArc
 50
205.7684083583
 51
226.1140165734
  0
ARC
  5
104
330
1F
100
AcDbEntity
  8
0
  6
Continuous
 62
     7
370
    15
100
AcDbCircle
 10
225.5294919331
 20
175.6966844124
 30
0.0
 40
19.50000000000001
100
AcDbArc
 50
313.8859834266
 51
333.7636499369
  0
ARC
  5
105
330
1F
100
AcDbEntity
  8
0
  6
Continuous
 62
     7
370
    15
100
AcDbCircle
 10
308.5814575202
 20
175.6966844124
 30
0.0
 40
19.49999999999998
100
AcDbArc
 50
205.7684083583
 51
226.1140165734
  0
ARC
  5
106
330
1F
100
AcDbEntity
  8
0
  6
Continuous
 62
     7
370
    15
100
AcDbCircle
 10
385.5294919331
 20
175.6966844124
 30
0.0
 40
19.49999999999991
100
AcDbArc
 50
313.8859834266
 51
333.7636499369
  0
LINE
  5
107
330
1F
100
AcDbEntity
  8
0
  6
Continuous
 62
     7
370
    15
100
AcDbLine
 10
432.0554680509
 20
92.6966846285
 30
0.0
 11
432.0554680509
 21
85.6966844124
 31
0.0
  0
LINE
  5
108
330
1F
100
AcDbEntity
  8
0
  6
Continuous
 62
     7
370
    15
100
AcDbLine
 10
429.3352461738
 20
95.4169204754
 30
0.0
 11
432.0554680509
 21
92.6966846285
 31
0.0
  0
LINE
  5
109
330
1F
100
AcDbEntity
  8
0
  6
Continuous
 62
     7
370
    15
100
AcDbLine
 10
430.5486924333
 20
85.6966844124
 30
0.0
 11
432.0554680509
 21
85.6966844124
 31
0.0
  0
LINE
  5
10A
330
1F
100
AcDbEntity
  8
0
  6
Continuous
 62
     7
370
    15
100
AcDbLine
 10
93.0554814024
 20
92.6966846285
 30
0.0
 11
93.0554814024
 21
85.6966844124
 31
0.0
  0
LINE
  5
10B
330
1F
100
AcDbEntity
  8
0
  6
Continuous
 62
     7
370
    15
100
AcDbLine
 10
95.7757032795
 20
95.4169204754
 30
0.0
 11
93.0554814024
 21
92.6966846285
 31
0.0
  0
LINE
  5
10C
330
1F
100
AcDbEntity
  8
0
  6
Continuous
 62
     7
370
    15
100
AcDbLine
 10
94.56225702
 20
85.6966844124
 30
0.0
 11
93.0554814024
 21
85.6966844124
 31
0.0
  0
CIRCLE
  5
10D
330
1F
100
AcDbEntity
  8
0
  6
Continuous
 62
     7
370
    15
100
AcDbCircle
 10
187.0554747267
 20
175.6966844124
 30
0.0
 40
17.00000000000023
  0
CIRCLE
  5
10E
330
1F
100
AcDbEntity
  8
0
  6
Continuous
 62
     7
370
    15
100
AcDbCircle
 10
187.0554747267
 20
175.6966844124
 30
0.0
 40
16.0
  0
CIRCLE
  5
10F
330
1F
100
AcDbEntity
  8
0
  6
Continuous
 62
     7
370
    15
100
AcDbCircle
 10
347.0554747267
 20
175.6966844124
 30
0.0
 40
17.00000000000011
  0
CIRCLE
  5
110
330
1F
100
AcDbEntity
  8
0
  6
Continuous
 62
     7
370
    15
100
AcDbCircle
 10
347.0554747267
 20
175.6966844124
 30
0.0
 40
16.0
  0
LINE
  5
111
330
1F
100
AcDbEntity
  8
0
  6
Continuous
 62
     7
370
    15
100
AcDbLine
 10
429.7116048021
 20
107.3966848028
 30
0.0
 11
431.0554809255
 21
107.3966848028
 31
0.0
  0
LINE
  5
112
330
1F
100
AcDbEntity
  8
0
  6
Continuous
 62
     7
370
    15
100
AcDbLine
 10
431.0554809255
 20
107.3966848028
 30
0.0
 11
431.0554809255
 21
103.3966841472
 31
0.0
  0
LINE
  5
113
330
1F
100
AcDbEntity
  8
0
  6
Continuous
 62
     7
370
    15
100
AcDbLine
 10
431.0554809255
 20
103.3966841472
 30
0.0
 11
431.0554809255
 21
93.6966847924
 31
0.0
  0
LINE
  5
114
330
1F
100
AcDbEntity
  8
0
  6
Continuous
 62
     7
370
    15
100
AcDbLine
 10
94.0554685278
 20
103.3966841472
 30
0.0
 11
94.0554685278
 21
93.6966847924
 31
0.0
  0
LINE
  5
115
330
1F
100
AcDbEntity
  8
0
  6
Continuous
 62
     7
370
    15
100
AcDbLine
 10
94.0554685278
 20
107.3966848028
 30
0.0
 11
95.3993446512
 21
107.3966848028
 31
0.0
  0
LINE
  5
116
330
1F
100
AcDbEntity
  8
0
  6
Continuous
 62
     7
370
    15
100
AcDbLine
 10
94.0554685278
 20
103.3966841472
 30
0.0
 11
94.0554685278
 21
107.3966848028
 31
0.0
  0
LINE
  5
117
330
1F
100
AcDbEntity
  8
0
  6
Continuous
 62
     7
370
    15
100
AcDbLine
 10
333.0301440639
 20
183.3966842217
 30
0.0
 11
361.0808126015
 21
183.3966842217
 31
0.0
  0
LINE
  5
118
330
1F
100
AcDbEntity
  8
0
  6
Continuous
 62
     7
370
    15
100
AcDbLine
 10
362.0057276768
 20
181.3966876191
 30
0.0
 11
332.105221538
 21
181.3966876191
 31
0.0
  0
LINE
  5
119
330
1F
100
AcDbEntity
  8
0
  6
Continuous
 62
     7
370
    15
100
AcDbLine
 10
94.0554685278
 20
107.3966848028
 30
0.0
 11
94.0554685278
 21
107.6966842932
 31
0.0
  0
LINE
  5
11A
330
1F
100
AcDbEntity
  8
0
  6
Continuous
 62
     7
370
    15
100
AcDbLine
 10
95.4918510599
 20
112.6966851127
 30
0.0
 11
94.0554685278
 21
112.6966851127
 31
0.0
  0
LINE
  5
11B
330
1F
100
AcDbEntity
  8
0
  6
Continuous
 62
     7
370
    15
100
AcDbLine
 10
94.0554685278
 20
107.6966842932
 30
0.0
 11
94.0554685278
 21
112.6966851127
 31
0.0
  0
LINE
  5
11C
330
1F
100
AcDbEntity
  8
0
  6
Continuous
 62
     7
370
    15
100
AcDbLine
 10
429.6190983934
 20
112.6966851127
 30
0.0
 11
431.0554809255
 21
112.6966851127
 31
0.0
  0
LINE
  5
11D
330
1F
100
AcDbEntity
  8
0
  6
Continuous
 62
     7
370
    15
100
AcDbLine
 10
431.0554809255
 20
112.6966851127
 30
0.0
 11
431.0554809255
 21
107.6966842932
 31
0.0
  0
LINE
  5
11E
330
1F
100
AcDbEntity
  8
0
  6
Continuous
 62
     7
370
    15
100
AcDbLine
 10
431.0554809255
 20
107.6966842932
 30
0.0
 11
431.0554809255
 21
107.3966848028
 31
0.0
  0
CIRCLE
  5
11F
330
1F
100
AcDbEntity
  8
0
  6
Continuous
 62
     7
370
    15
100
AcDbCircle
 10
187.0554747267
 20
175.6966844124
 30
0.0
 40
26.50000000000003
  0
CIRCLE
  5
120
330
1F
100
AcDbEntity
  8
0
  6
Continuous
 62
     7
370
    15
100
AcDbCircle
 10
187.0554747267
 20
175.6966844124
 30
0.0
 40
21.48000000000002
  0
CIRCLE
  5
121
330
1F
100
AcDbEntity
  8
0
  6
Continuous
 62
     7
370
    15
100
AcDbCircle
 10
187.0554747267
 20
175.6966844124
 30
0.0
 40
20.65253250000001
  0
CIRCLE
  5
122
330
1F
100
AcDbEntity
  8
0
  6
Continuous
 62
     7
370
    15
100
AcDbCircle
 10
187.0554747267
 20
175.6966844124
 30
0.0
 40
19.85581373664283
  0
ARC
  5
123
330
1F
100
AcDbEntity
  8
0
  6
Continuous
 62
     7
370
    15
100
AcDbCircle
 10
145.5554747267
 20
175.4961818967
 30
0.0
 40
12.50000000000001
100
AcDbArc
 50
136.1982535581
 51
224.3566732538
  0
ARC
  5
124
330
1F
100
AcDbEntity
  8
0
  6
Continuous
 62
     7
370
    15
100
AcDbCircle
 10
139.8034906413
 20
183.1966844124
 30
0.0
 40
3.000000000000027
100
AcDbArc
 50
90.0
 51
134.8500270697
  0
ARC
  5
125
330
1F
100
AcDbEntity
  8
0
  6
Continuous
 62
     7
370
    15
100
AcDbCircle
 10
160.8257206294
 20
162.1966844124
 30
0.0
 40
3.000000000000041
100
AcDbArc
 50
27.2340954858
 51
90.0
  0
ARC
  5
126
330
1F
100
AcDbEntity
  8
0
  6
Continuous
 62
     7
370
    15
100
AcDbCircle
 10
186.6680642419
 20
215.6957463639
 30
0.0
 40
69.99999999999997
100
AcDbArc
 50
224.3566732538
 51
225.1488355033
  0
ARC
  5
127
330
1F
100
AcDbEntity
  8
0
  6
Continuous
 62
     7
370
    15
100
AcDbCircle
 10
187.0554747267
 20
135.6966844124
 30
0.0
 40
70.00000000000003
100
AcDbArc
 50
134.8500270697
 51
136.1982535581
  0
LINE
  5
128
330
1F
100
AcDbEntity
  8
0
  6
Continuous
 62
     7
370
    15
100
AcDbLine
 10
160.8257240934
 20
165.196681611
 30
0.0
 11
139.4151396436
 21
165.196681611
 31
0.0
  0
ARC
  5
129
330
1F
100
AcDbEntity
  8
0
  6
Continuous
 62
     7
370
    15
100
AcDbCircle
 10
139.4151372031
 20
168.1966844124
 30
0.0
 40
3.0
100
AcDbArc
 50
225.1488355033
 51
270.0
  0
LINE
  5
12A
330
1F
100
AcDbEntity
  8
0
  6
Continuous
 62
     7
370
    15
100
AcDbLine
 10
139.8034937067
 20
186.1966869158
 30
0.0
 11
160.8257240934
 21
186.1966869158
 31
0.0
  0
ARC
  5
12B
330
1F
100
AcDbEntity
  8
0
  6
Continuous
 62
     7
370
    15
100
AcDbCircle
 10
160.8257206294
 20
189.1966844124
 30
0.0
 40
3.000000000000067
100
AcDbArc
 50
270.0
 51
332.7659045142
  0
ARC
  5
12C
330
1F
100
AcDbEntity
  8
0
  6
Continuous
 62
     7
370
    15
100
AcDbCircle
 10
234.6958122502
 20
168.1966844124
 30
0.0
 40
2.999999999999985
100
AcDbArc
 50
270.0
 51
314.8511644967
  0
ARC
  5
12D
330
1F
100
AcDbEntity
  8
0
  6
Continuous
 62
     7
370
    15
100
AcDbCircle
 10
213.2852288239
 20
189.1966844124
 30
0.0
 40
3.000000000000028
100
AcDbArc
 50
207.2340954858
 51
270.0
  0
ARC
  5
12E
330
1F
100
AcDbEntity
  8
0
  6
Continuous
 62
     7
370
    15
100
AcDbCircle
 10
187.4428852114
 20
215.6957463639
 30
0.0
 40
70.00000000000004
100
AcDbArc
 50
314.8511644967
 51
315.6433267462
  0
ARC
  5
12F
330
1F
100
AcDbEntity
  8
0
  6
Continuous
 62
     7
370
    15
100
AcDbCircle
 10
187.0554747267
 20
135.6966844124
 30
0.0
 40
70.00000000000006
100
AcDbArc
 50
43.8017464419
 51
45.1499729303
  0
ARC
  5
130
330
1F
100
AcDbEntity
  8
0
  6
Continuous
 62
     7
370
    15
100
AcDbCircle
 10
228.5554747267
 20
175.4961818967
 30
0.0
 40
12.50000000000007
100
AcDbArc
 50
315.6433267462
 51
43.8017464419
  0
ARC
  5
131
330
1F
100
AcDbEntity
  8
0
  6
Continuous
 62
     7
370
    15
100
AcDbCircle
 10
213.2852288239
 20
162.1966844124
 30
0.0
 40
3.0
100
AcDbArc
 50
90.0
 51
152.7659045142
  0
LINE
  5
132
330
1F
100
AcDbEntity
  8
0
  6
Continuous
 62
     7
370
    15
100
AcDbLine
 10
234.6958129985
 20
165.196681611
 30
0.0
 11
213.2852285487
 21
165.196681611
 31
0.0
  0
ARC
  5
133
330
1F
100
AcDbEntity
  8
0
  6
Continuous
 62
     7
370
    15
100
AcDbCircle
 10
234.307458812
 20
183.1966844124
 30
0.0
 40
3.000000000000007
100
AcDbArc
 50
45.1499729303
 51
90.0
  0
LINE
  5
134
330
1F
100
AcDbEntity
  8
0
  6
Continuous
 62
     7
370
    15
100
AcDbLine
 10
213.2852285487
 20
186.1966869158
 30
0.0
 11
234.3074589355
 21
186.1966869158
 31
0.0
  0
ARC
  5
135
330
1F
100
AcDbEntity
  8
0
  6
Continuous
 62
     7
370
    15
100
AcDbCircle
 10
187.0554747267
 20
135.6966844124
 30
0.0
 40
70.00000000000003
100
AcDbArc
 50
45.1499729303
 51
134.8500270697
  0
ARC
  5
136
330
1F
100
AcDbEntity
  8
0
  6
Continuous
 62
     7
370
    15
100
AcDbCircle
 10
186.6680642419
 20
215.6957463639
 30
0.0
 40
70.00000000000001
100
AcDbArc
 50
225.1488355033
 51
270.3171014148
  0
ARC
  5
137
330
1F
100
AcDbEntity
  8
0
  6
Continuous
 62
     7
370
    15
100
AcDbCircle
 10
187.4428852114
 20
215.6957463639
 30
0.0
 40
70.00000000000004
100
AcDbArc
 50
269.6828985852
 51
314.8511644967
  0
CIRCLE
  5
138
330
1F
100
AcDbEntity
  8
0
  6
Continuous
 62
     7
370
    15
100
AcDbCircle
 10
347.0554747267
 20
175.6966844124
 30
0.0
 40
21.48000000000008
  0
CIRCLE
  5
139
330
1F
100
AcDbEntity
  8
0
  6
Continuous
 62
     7
370
    15
100
AcDbCircle
 10
347.0554747267
 20
175.6966844124
 30
0.0
 40
20.65253250000006
  0
CIRCLE
  5
13A
330
1F
100
AcDbEntity
  8
0
  6
Continuous
 62
     7
370
    15
100
AcDbCircle
 10
347.0554747267
 20
175.6966844124
 30
0.0
 40
26.5
  0
CIRCLE
  5
13B
330
1F
100
AcDbEntity
  8
0
  6
Continuous
 62
     7
370
    15
100
AcDbCircle
 10
347.0554747267
 20
175.6966844124
 30
0.0
 40
19.8558137366428
  0
ARC
  5
13C
330
1F
100
AcDbEntity
  8
0
  6
Continuous
 62
     7
370
    15
100
AcDbCircle
 10
388.5554747267
 20
175.4961818967
 30
0.0
 40
12.50000000000007
100
AcDbArc
 50
315.6433267462
 51
43.8017464419
  0
ARC
  5
13D
330
1F
100
AcDbEntity
  8
0
  6
Continuous
 62
     7
370
    15
100
AcDbCircle
 10
347.4428852114
 20
215.6957463639
 30
0.0
 40
70.00000000000009
100
AcDbArc
 50
314.8511644967
 51
315.6433267462
  0
LINE
  5
13E
330
1F
100
AcDbEntity
  8
0
  6
Continuous
 62
     7
370
    15
100
AcDbLine
 10
394.6958131475
 20
165.196681611
 30
0.0
 11
373.2852286978
 21
165.196681611
 31
0.0
  0
ARC
  5
13F
330
1F
100
AcDbEntity
  8
0
  6
Continuous
 62
     7
370
    15
100
AcDbCircle
 10
373.2852288239
 20
162.1966844124
 30
0.0
 40
3.000000000000041
100
AcDbArc
 50
90.0
 51
152.7659045142
  0
ARC
  5
140
330
1F
100
AcDbEntity
  8
0
  6
Continuous
 62
     7
370
    15
100
AcDbCircle
 10
373.2852288239
 20
189.1966844124
 30
0.0
 40
3.000000000000028
100
AcDbArc
 50
207.2340954858
 51
270.0
  0
LINE
  5
141
330
1F
100
AcDbEntity
  8
0
  6
Continuous
 62
     7
370
    15
100
AcDbLine
 10
373.2852286978
 20
186.1966869158
 30
0.0
 11
394.3074590845
 21
186.1966869158
 31
0.0
  0
ARC
  5
142
330
1F
100
AcDbEntity
  8
0
  6
Continuous
 62
     7
370
    15
100
AcDbCircle
 10
394.307458812
 20
183.1966844124
 30
0.0
 40
3.000000000000027
100
AcDbArc
 50
45.1499729303
 51
90.0
  0
ARC
  5
143
330
1F
100
AcDbEntity
  8
0
  6
Continuous
 62
     7
370
    15
100
AcDbCircle
 10
347.0554747267
 20
135.6966844124
 30
0.0
 40
70.00000000000006
100
AcDbArc
 50
43.8017464419
 51
45.1499729303
  0
ARC
  5
144
330
1F
100
AcDbEntity
  8
0
  6
Continuous
 62
     7
370
    15
100
AcDbCircle
 10
394.6958122502
 20
168.1966844124
 30
0.0
 40
3.000000000000005
100
AcDbArc
 50
270.0
 51
314.8511644967
  0
ARC
  5
145
330
1F
100
AcDbEntity
  8
0
  6
Continuous
 62
     7
370
    15
100
AcDbCircle
 10
305.5554747267
 20
175.4961818967
 30
0.0
 40
12.50000000000001
100
AcDbArc
 50
136.1982535581
 51
224.3566732538
  0
LINE
  5
146
330
1F
100
AcDbEntity
  8
0
  6
Continuous
 62
     7
370
    15
100
AcDbLine
 10
299.8034901304
 20
186.1966869158
 30
0.0
 11
320.8257205171
 21
186.1966869158
 31
0.0
  0
ARC
  5
147
330
1F
100
AcDbEntity
  8
0
  6
Continuous
 62
     7
370
    15
100
AcDbCircle
 10
320.8257206294
 20
162.1966844124
 30
0.0
 40
3.000000000000028
100
AcDbArc
 50
27.2340954858
 51
90.0
  0
ARC
  5
148
330
1F
100
AcDbEntity
  8
0
  6
Continuous
 62
     7
370
    15
100
AcDbCircle
 10
299.4151372031
 20
168.1966844124
 30
0.0
 40
3.000000000000025
100
AcDbArc
 50
225.1488355033
 51
270.0
  0
ARC
  5
149
330
1F
100
AcDbEntity
  8
0
  6
Continuous
 62
     7
370
    15
100
AcDbCircle
 10
346.6680642419
 20
215.6957463639
 30
0.0
 40
70.00000000000006
100
AcDbArc
 50
224.3566732538
 51
225.1488355033
  0
LINE
  5
14A
330
1F
100
AcDbEntity
  8
0
  6
Continuous
 62
     7
370
    15
100
AcDbLine
 10
320.8257205171
 20
165.196681611
 30
0.0
 11
299.4151360674
 21
165.196681611
 31
0.0
  0
ARC
  5
14B
330
1F
100
AcDbEntity
  8
0
  6
Continuous
 62
     7
370
    15
100
AcDbCircle
 10
347.0554747267
 20
135.6966844124
 30
0.0
 40
70.00000000000003
100
AcDbArc
 50
134.8500270697
 51
136.1982535581
  0
ARC
  5
14C
330
1F
100
AcDbEntity
  8
0
  6
Continuous
 62
     7
370
    15
100
AcDbCircle
 10
299.8034906413
 20
183.1966844124
 30
0.0
 40
3.000000000000047
100
AcDbArc
 50
90.0
 51
134.8500270697
  0
ARC
  5
14D
330
1F
100
AcDbEntity
  8
0
  6
Continuous
 62
     7
370
    15
100
AcDbCircle
 10
320.8257206294
 20
189.1966844124
 30
0.0
 40
3.000000000000041
100
AcDbArc
 50
270.0
 51
332.7659045142
  0
ARC
  5
14E
330
1F
100
AcDbEntity
  8
0
  6
Continuous
 62
     7
370
    15
100
AcDbCircle
 10
347.4428852114
 20
215.6957463639
 30
0.0
 40
70.00000000000004
100
AcDbArc
 50
269.6828985852
 51
314.8511644967
  0
ARC
  5
14F
330
1F
100
AcDbEntity
  8
0
  6
Continuous
 62
     7
370
    15
100
AcDbCircle
 10
346.6680642419
 20
215.6957463639
 30
0.0
 40
70.00000000000006
100
AcDbArc
 50
225.1488355033
 51
270.3171014148
  0
ARC
  5
150
330
1F
100
AcDbEntity
  8
0
  6
Continuous
 62
     7
370
    15
100
AcDbCircle
 10
347.0554747267
 20
135.6966844124
 30
0.0
 40
70.00000000000003
100
AcDbArc
 50
45.1499729303
 51
134.8500270697
  0
LINE
  5
151
330
1F
100
AcDbEntity
  8
0
  6
Continuous
 62
     7
370
    15
100
AcDbLine
 10
86.0554821176
 20
167.3236584586
 30
0.0
 11
86.0554821176
 21
184.0697100681
 31
0.0
  0
SPLINE
  5
152
330
1F
100
AcDbEntity
  8
0
  6
Continuous
 62
     7
370
    15
100
AcDbSpline
210
0.0
220
0.0
230
1.0
 70
     8
 71
     3
 72
    11
 73
     7
 74
     0
 42
0.00000001
 43
0.00000001
 40
0.0
 40
0.0
 40
0.0
 40
0.0
 40
0.0843870819803056
 40
0.1972583461639515
 40
0.4099457191527938
 40
1.0
 40
1.0
 40
1.0
 40
1.0
 10
89.12774392793068
 20
165.5853262466512
 30
0.0
 10
89.13383227725838
 20
165.5922778639546
 30
0.0
 10
89.14806404936215
 20
165.6085275611861
 30
0.0
 10
89.2008656175359
 20
165.6317145586056
 30
0.0
 10
89.33611485601908
 20
165.6609484138664
 30
0.0
 10
89.4623929667091
 20
165.6630489656075
 30
0.0
 10
89.55521353909859
 20
165.6645929736218
 30
0.0
  0
SPLINE
  5
153
330
1F
100
AcDbEntity
  8
0
  6
Continuous
 62
     7
370
    15
100
AcDbSpline
210
0.0
220
0.0
230
1.0
 70
     8
 71
     3
 72
    12
 73
     8
 74
     0
 42
0.00000001
 43
0.00000001
 40
0.0
 40
0.0
 40
0.0
 40
0.0
 40
0.3236324823783068
 40
0.6551341918022983
 40
0.7914115271838427
 40
0.9292108225465955
 40
1.0
 40
1.0
 40
1.0
 40
1.0
 10
89.55521353909856
 20
185.7287755531392
 30
0.0
 10
89.50478523977957
 20
185.7294877513431
 30
0.0
 10
89.40270246095741
 20
185.7309294650774
 30
0.0
 10
89.279426130085
 20
185.7435967750812
 30
0.0
 10
89.19241536914846
 20
185.765203535216
 30
0.0
 10
89.14720976033838
 20
185.7848648952983
 30
0.0
 10
89.13267621318421
 20
185.8021695554852
 30
0.0
 10
89.12774392793068
 20
185.8080422801099
 30
0.0
  0
LINE
  5
154
330
1F
100
AcDbEntity
  8
0
  6
Continuous
 62
     7
370
    15
100
AcDbLine
 10
89.5552135391
 20
185.7287755531
 30
0.0
 11
95.6793523712
 21
185.7287755531
 31
0.0
  0
LINE
  5
155
330
1F
100
AcDbEntity
  8
0
  6
Continuous
 62
     7
370
    15
100
AcDbLine
 10
89.5552135391
 20
165.6645929736
 30
0.0
 11
95.3291303797
 21
165.6645929736
 31
0.0
  0
SPLINE
  5
156
330
1F
100
AcDbEntity
  8
0
  6
Continuous
 62
     7
370
    15
100
AcDbSpline
210
0.0
220
0.0
230
1.0
 70
     8
 71
     3
 72
    11
 73
     7
 74
     0
 42
0.00000001
 43
0.00000001
 40
0.0
 40
0.0
 40
0.0
 40
0.0
 40
0.0587027665105806
 40
0.2451299643359015
 40
0.4878477944724574
 40
0.9999999999999999
 40
0.9999999999999999
 40
0.9999999999999999
 40
0.9999999999999999
 10
89.49101933667549
 20
186.3810738843999
 30
0.0
 10
89.59077112791611
 20
186.4218432858746
 30
0.0
 10
90.00731287684447
 20
186.5920874246698
 30
0.0
 10
90.60117328114504
 20
187.0439074774812
 30
0.0
 10
91.31391981119671
 20
187.9759807132925
 30
0.0
 10
91.39825251127168
 20
188.7032556338096
 30
0.0
 10
91.45546921918282
 20
189.1966855448804
 30
0.0
  0
SPLINE
  5
157
330
1F
100
AcDbEntity
  8
0
  6
Continuous
 62
     7
370
    15
100
AcDbSpline
210
0.0
220
0.0
230
1.0
 70
     8
 71
     3
 72
    11
 73
     7
 74
     0
 42
0.00000001
 43
0.00000001
 40
0.0
 40
0.0
 40
0.0
 40
0.0
 40
0.1349346003175086
 40
0.5512036099506898
 40
0.8149940289474674
 40
0.9999999999999999
 40
0.9999999999999999
 40
0.9999999999999999
 40
0.9999999999999999
 10
91.45546921918282
 20
162.1966829818807
 30
0.0
 10
91.45072186283775
 20
162.3233685778373
 30
0.0
 10
91.43132906107346
 20
162.8408752637114
 30
0.0
 10
91.15330073190084
 20
163.6425616867803
 30
0.0
 10
90.48366909058683
 20
164.5194871944098
 30
0.0
 10
89.78077233052387
 20
164.8684448777569
 30
0.0
 10
89.49101933667549
 20
165.0122946423612
 30
0.0
  0
SPLINE
  5
158
330
1F
100
AcDbEntity
  8
0
  6
Continuous
 62
     7
370
    15
100
AcDbSpline
210
0.0
220
0.0
230
1.0
 70
     8
 71
     3
 72
     9
 73
     5
 74
     0
 42
0.00000001
 43
0.00000001
 40
0.0
 40
0.0
 40
0.0
 40
0.0
 40
0.9528750229029382
 40
1.0
 40
1.0
 40
1.0
 40
1.0
 10
89.12774392793068
 20
165.5853262466512
 30
0.0
 10
89.04760018243871
 20
165.475731265601
 30
0.0
 10
88.9634928823566
 20
165.3607162023282
 30
0.0
 10
88.8869852079184
 20
165.3038697908461
 30
0.0
 10
88.88337978551277
 20
165.3011909050069
 30
0.0
  0
SPLINE
  5
159
330
1F
100
AcDbEntity
  8
0
  6
Continuous
 62
     7
370
    15
100
AcDbSpline
210
0.0
220
0.0
230
1.0
 70
     8
 71
     3
 72
     9
 73
     5
 74
     0
 42
0.00000001
 43
0.00000001
 40
0.0
 40
0.0
 40
0.0
 40
0.0
 40
0.9528750229029382
 40
1.0
 40
1.0
 40
1.0
 40
1.0
 10
89.12774392793068
 20
185.8080422801099
 30
0.0
 10
89.04760018243871
 20
185.9176372611601
 30
0.0
 10
88.9634928823566
 20
186.0326523244328
 30
0.0
 10
88.8869852079184
 20
186.089498735915
 30
0.0
 10
88.88337978551277
 20
186.0921776217542
 30
0.0
  0
ARC
  5
15A
330
1F
100
AcDbEntity
  8
0
  6
Continuous
 62
     7
370
    15
100
AcDbCircle
 10
88.4554747267
 20
189.1966844124
 30
0.0
 40
3.000000000000003
100
AcDbArc
 50
270.0
 51
290.1927867368
  0
ARC
  5
15B
330
1F
100
AcDbEntity
  8
0
  6
Continuous
 62
     7
370
    15
100
AcDbCircle
 10
88.4554747267
 20
162.1966844124
 30
0.0
 40
3.0
100
AcDbArc
 50
69.8072132632
 51
90.0
  0
LINE
  5
15C
330
1F
100
AcDbEntity
  8
0
  6
Continuous
 62
     7
370
    15
100
AcDbLine
 10
88.4554780407
 20
165.196681611
 30
0.0
 11
88.0554712696
 21
165.196681611
 31
0.0
  0
ARC
  5
15D
330
1F
100
AcDbEntity
  8
0
  6
Continuous
 62
     7
370
    15
100
AcDbCircle
 10
88.0554747267
 20
167.1966844124
 30
0.0
 40
2.0
100
AcDbArc
 50
180.0
 51
270.0
  0
LINE
  5
15E
330
1F
100
AcDbEntity
  8
0
  6
Continuous
 62
     7
370
    15
100
AcDbLine
 10
86.0554821176
 20
167.1966856641
 30
0.0
 11
86.0554821176
 21
167.3236584586
 31
0.0
  0
LINE
  5
15F
330
1F
100
AcDbEntity
  8
0
  6
Continuous
 62
     7
370
    15
100
AcDbLine
 10
88.0554712696
 20
186.1966869158
 30
0.0
 11
88.4554780407
 21
186.1966869158
 31
0.0
  0
ARC
  5
160
330
1F
100
AcDbEntity
  8
0
  6
Continuous
 62
     7
370
    15
100
AcDbCircle
 10
88.0554747267
 20
184.1966844124
 30
0.0
 40
2.0
100
AcDbArc
 50
90.0
 51
180.0
  0
LINE
  5
161
330
1F
100
AcDbEntity
  8
0
  6
Continuous
 62
     7
370
    15
100
AcDbLine
 10
86.0554821176
 20
184.0697100681
 30
0.0
 11
86.0554821176
 21
184.1966828627
 31
0.0
  0
LINE
  5
162
330
1F
100
AcDbEntity
  8
0
  6
Continuous
 62
     7
370
    15
100
AcDbLine
 10
91.4554692192
 20
189.1966855449
 30
0.0
 11
91.4554692192
 21
202.618556313
 31
0.0
  0
LINE
  5
163
330
1F
100
AcDbEntity
  8
0
  6
Continuous
 62
     7
370
    15
100
AcDbLine
 10
91.4554692192
 20
148.7748122138
 30
0.0
 11
91.4554692192
 21
162.1966829819
 31
0.0
  0
LINE
  5
164
330
1F
100
AcDbEntity
  8
0
  6
Continuous
 62
     7
370
    15
100
AcDbLine
 10
86.0554821176
 20
184.1966828627
 30
0.0
 11
86.0554821176
 21
187.7522414846
 31
0.0
  0
LINE
  5
165
330
1F
100
AcDbEntity
  8
0
  6
Continuous
 62
     7
370
    15
100
AcDbLine
 10
86.0554821176
 20
163.6411270422
 30
0.0
 11
86.0554821176
 21
167.1966856641
 31
0.0
  0
LINE
  5
166
330
1F
100
AcDbEntity
  8
0
  6
Continuous
 62
     7
370
    15
100
AcDbLine
 10
91.4554692192
 20
202.618556313
 30
0.0
 11
91.4452470226
 21
202.8107216877
 31
0.0
  0
LINE
  5
167
330
1F
100
AcDbEntity
  8
0
  6
Continuous
 62
     7
370
    15
100
AcDbLine
 10
91.3264847679
 20
147.1530815882
 30
0.0
 11
91.3268423958
 21
147.1552720589
 31
0.0
  0
LINE
  5
168
330
1F
100
AcDbEntity
  8
0
  6
Continuous
 62
     7
370
    15
100
AcDbLine
 10
91.4508200569
 20
148.6920884174
 30
0.0
 11
91.4554692192
 21
148.7748122138
 31
0.0
  0
LINE
  5
169
330
1F
100
AcDbEntity
  8
0
  6
Continuous
 62
     7
370
    15
100
AcDbLine
 10
86.0554821176
 20
187.7522414846
 30
0.0
 11
86.0554821176
 21
200.1966854853
 31
0.0
  0
LINE
  5
16A
330
1F
100
AcDbEntity
  8
0
  6
Continuous
 62
     7
370
    15
100
AcDbLine
 10
86.0554821176
 20
151.1966830415
 30
0.0
 11
86.0554821176
 21
163.6411270422
 31
0.0
  0
LINE
  5
16B
330
1F
100
AcDbEntity
  8
0
  6
Continuous
 62
     7
370
    15
100
AcDbLine
 10
85.0554800911
 20
185.7297515792
 30
0.0
 11
85.0554800911
 21
188.6966845316
 31
0.0
  0
LINE
  5
16C
330
1F
100
AcDbEntity
  8
0
  6
Continuous
 62
     7
370
    15
100
AcDbLine
 10
85.0554800911
 20
162.6966839952
 30
0.0
 11
85.0554800911
 21
165.7297557515
 31
0.0
  0
SPLINE
  5
16D
330
1F
100
AcDbEntity
  8
0
  6
Continuous
 62
     7
370
    15
100
AcDbSpline
210
0.0
220
0.0
230
1.0
 70
     8
 71
     3
 72
    11
 73
     7
 74
     0
 42
0.00000001
 43
0.00000001
 40
0.0
 40
0.0
 40
0.0
 40
0.0
 40
0.0843843138053309
 40
0.1972550558167731
 40
0.4099466201983963
 40
0.9999999999999999
 40
0.9999999999999999
 40
0.9999999999999999
 40
0.9999999999999999
 10
435.9832055253733
 20
185.8080422801099
 30
0.0
 10
435.97711711746
 20
185.8010906364554
 30
0.0
 10
435.9628849789425
 20
185.7848406156252
 30
0.0
 10
435.9100828994215
 20
185.7616537469782
 30
0.0
 10
435.77483746511
 20
185.732420628777
 30
0.0
 10
435.6485574005648
 20
185.7303197746986
 30
0.0
 10
435.5557359142054
 20
185.7287755531392
 30
0.0
  0
SPLINE
  5
16E
330
1F
100
AcDbEntity
  8
0
  6
Continuous
 62
     7
370
    15
100
AcDbSpline
210
0.0
220
0.0
230
1.0
 70
     8
 71
     3
 72
    12
 73
     8
 74
     0
 42
0.00000001
 43
0.00000001
 40
0.0
 40
0.0
 40
0.0
 40
0.0
 40
0.3236294615327204
 40
0.6551286670049807
 40
0.7914124618833978
 40
0.929201516296601
 40
1.0
 40
1.0
 40
1.0
 40
1.0
 10
435.5557359142055
 20
165.6645929736218
 30
0.0
 10
435.6061638046244
 20
165.6638809521179
 30
0.0
 10
435.7082458476915
 20
165.6624395947812
 30
0.0
 10
435.8315285474437
 20
165.6497699496734
 30
0.0
 10
435.9185291699105
 20
165.628167108359
 30
0.0
 10
435.9637433957761
 20
165.6085006427864
 30
0.0
 10
435.9782736778308
 20
165.5911988099828
 30
0.0
 10
435.9832055253733
 20
165.5853262466512
 30
0.0
  0
LINE
  5
16F
330
1F
100
AcDbEntity
  8
0
  6
Continuous
 62
     7
370
    15
100
AcDbLine
 10
435.5557359142
 20
165.6645929736
 30
0.0
 11
429.7119922323
 21
165.6645929736
 31
0.0
  0
LINE
  5
170
330
1F
100
AcDbEntity
  8
0
  6
Continuous
 62
     7
370
    15
100
AcDbLine
 10
435.5557359142
 20
185.7287755531
 30
0.0
 11
429.3617702408
 21
185.7287755531
 31
0.0
  0
LINE
  5
171
330
1F
100
AcDbEntity
  8
0
  6
Continuous
 62
     7
370
    15
100
AcDbLine
 10
439.0554673357
 20
184.0697100681
 30
0.0
 11
439.0554673357
 21
167.3236584586
 31
0.0
  0
SPLINE
  5
172
330
1F
100
AcDbEntity
  8
0
  6
Continuous
 62
     7
370
    15
100
AcDbSpline
210
0.0
220
0.0
230
1.0
 70
     8
 71
     3
 72
    11
 73
     7
 74
     0
 42
0.00000001
 43
0.00000001
 40
0.0
 40
0.0
 40
0.0
 40
0.0
 40
0.0587026174553739
 40
0.2451294476871403
 40
0.4878473222505249
 40
1.0
 40
1.0
 40
1.0
 40
1.0
 10
435.6199301166285
 20
165.0122946423612
 30
0.0
 10
435.5201783230061
 20
164.9715252402712
 30
0.0
 10
435.1036363843938
 20
164.8012810254463
 30
0.0
 10
434.5097753766628
 20
164.3494602729223
 30
0.0
 10
433.7970296783395
 20
163.4173875665735
 30
0.0
 10
433.712696964778
 20
162.6901128630051
 30
0.0
 10
433.6554802341212
 20
162.1966829818807
 30
0.0
  0
SPLINE
  5
173
330
1F
100
AcDbEntity
  8
0
  6
Continuous
 62
     7
370
    15
100
AcDbSpline
210
0.0
220
0.0
230
1.0
 70
     8
 71
     3
 72
    11
 73
     7
 74
     0
 42
0.00000001
 43
0.00000001
 40
0.0
 40
0.0
 40
0.0
 40
0.0
 40
0.1349345232376095
 40
0.5512034403618173
 40
0.8149939590383621
 40
1.0
 40
1.0
 40
1.0
 40
1.0
 10
433.6554802341212
 20
189.1966855448804
 30
0.0
 10
433.6602275899623
 20
189.069999946158
 30
0.0
 10
433.6796203947799
 20
188.552493112587
 30
0.0
 10
433.9576489588963
 20
187.7508064787222
 30
0.0
 10
434.6272803568871
 20
186.8738813466252
 30
0.0
 10
435.3301771210783
 20
186.5249236531708
 30
0.0
 10
435.6199301166285
 20
186.3810738843999
 30
0.0
  0
SPLINE
  5
174
330
1F
100
AcDbEntity
  8
0
  6
Continuous
 62
     7
370
    15
100
AcDbSpline
210
0.0
220
0.0
230
1.0
 70
     8
 71
     3
 72
     9
 73
     5
 74
     0
 42
0.00000001
 43
0.00000001
 40
0.0
 40
0.0
 40
0.0
 40
0.0
 40
0.9528840538939022
 40
1.0
 40
1.0
 40
1.0
 40
1.0
 10
435.9832055253734
 20
185.8080422801099
 30
0.0
 10
436.0633422948945
 20
185.9176321532172
 30
0.0
 10
436.1474414769448
 20
186.0326407659225
 30
0.0
 10
436.2239642260677
 20
186.0894987061087
 30
0.0
 10
436.2275696677912
 20
186.0921776217542
 30
0.0
  0
SPLINE
  5
175
330
1F
100
AcDbEntity
  8
0
  6
Continuous
 62
     7
370
    15
100
AcDbSpline
210
0.0
220
0.0
230
1.0
 70
     8
 71
     3
 72
     9
 73
     5
 74
     0
 42
0.00000001
 43
0.00000001
 40
0.0
 40
0.0
 40
0.0
 40
0.0
 40
0.9528840538939022
 40
1.0
 40
1.0
 40
1.0
 40
1.0
 10
435.9832055253734
 20
165.5853262466512
 30
0.0
 10
436.0633422948945
 20
165.4757363735438
 30
0.0
 10
436.1474414769448
 20
165.3607277608386
 30
0.0
 10
436.2239642260677
 20
165.3038698206524
 30
0.0
 10
436.2275696677912
 20
165.3011909050069
 30
0.0
  0
ARC
  5
176
330
1F
100
AcDbEntity
  8
0
  6
Continuous
 62
     7
370
    15
100
AcDbCircle
 10
436.6554747267
 20
162.1966844124
 30
0.0
 40
3.000000000000005
100
AcDbArc
 50
90.0
 51
110.1927867368
  0
ARC
  5
177
330
1F
100
AcDbEntity
  8
0
  6
Continuous
 62
     7
370
    15
100
AcDbCircle
 10
436.6554747267
 20
189.1966844124
 30
0.0
 40
2.999999999999969
100
AcDbArc
 50
249.8072132632
 51
270.0
  0
LINE
  5
178
330
1F
100
AcDbEntity
  8
0
  6
Continuous
 62
     7
370
    15
100
AcDbLine
 10
436.6554714126
 20
186.1966869158
 30
0.0
 11
437.0554781837
 21
186.1966869158
 31
0.0
  0
ARC
  5
179
330
1F
100
AcDbEntity
  8
0
  6
Continuous
 62
     7
370
    15
100
AcDbCircle
 10
437.0554747267
 20
184.1966844124
 30
0.0
 40
2.0
100
AcDbArc
 50
0.0
 51
90.0
  0
LINE
  5
17A
330
1F
100
AcDbEntity
  8
0
  6
Continuous
 62
     7
370
    15
100
AcDbLine
 10
439.0554673357
 20
184.1966828627
 30
0.0
 11
439.0554673357
 21
184.0697100681
 31
0.0
  0
LINE
  5
17B
330
1F
100
AcDbEntity
  8
0
  6
Continuous
 62
     7
370
    15
100
AcDbLine
 10
437.0554781837
 20
165.196681611
 30
0.0
 11
436.6554714126
 21
165.196681611
 31
0.0
  0
ARC
  5
17C
330
1F
100
AcDbEntity
  8
0
  6
Continuous
 62
     7
370
    15
100
AcDbCircle
 10
437.0554747267
 20
167.1966844124
 30
0.0
 40
2.0
100
AcDbArc
 50
270.0
 51
0.0
  0
LINE
  5
17D
330
1F
100
AcDbEntity
  8
0
  6
Continuous
 62
     7
370
    15
100
AcDbLine
 10
439.0554673357
 20
167.3236584586
 30
0.0
 11
439.0554673357
 21
167.1966856641
 31
0.0
  0
LINE
  5
17E
330
1F
100
AcDbEntity
  8
0
  6
Continuous
 62
     7
370
    15
100
AcDbLine
 10
433.6554802341
 20
162.1966829819
 30
0.0
 11
433.6554802341
 21
148.7748122138
 31
0.0
  0
LINE
  5
17F
330
1F
100
AcDbEntity
  8
0
  6
Continuous
 62
     7
370
    15
100
AcDbLine
 10
433.6554802341
 20
202.618556313
 30
0.0
 11
433.6554802341
 21
189.1966855449
 31
0.0
  0
LINE
  5
180
330
1F
100
AcDbEntity
  8
0
  6
Continuous
 62
     7
370
    15
100
AcDbLine
 10
439.0554673357
 20
167.1966856641
 30
0.0
 11
439.0554673357
 21
163.6411270422
 31
0.0
  0
LINE
  5
181
330
1F
100
AcDbEntity
  8
0
  6
Continuous
 62
     7
370
    15
100
AcDbLine
 10
439.0554673357
 20
187.7522414846
 30
0.0
 11
439.0554673357
 21
184.1966828627
 31
0.0
  0
LINE
  5
182
330
1F
100
AcDbEntity
  8
0
  6
Continuous
 62
     7
370
    15
100
AcDbLine
 10
433.6554802341
 20
148.7748122138
 30
0.0
 11
433.6657024307
 21
148.5826468391
 31
0.0
  0
LINE
  5
183
330
1F
100
AcDbEntity
  8
0
  6
Continuous
 62
     7
370
    15
100
AcDbLine
 10
433.7844646854
 20
204.2402869386
 30
0.0
 11
433.7841070575
 21
204.2380964679
 31
0.0
  0
LINE
  5
184
330
1F
100
AcDbEntity
  8
0
  6
Continuous
 62
     7
370
    15
100
AcDbLine
 10
433.6601293964
 20
202.7012801093
 30
0.0
 11
433.6554802341
 21
202.618556313
 31
0.0
  0
LINE
  5
185
330
1F
100
AcDbEntity
  8
0
  6
Continuous
 62
     7
370
    15
100
AcDbLine
 10
439.0554673357
 20
163.6411270422
 30
0.0
 11
439.0554673357
 21
151.1966830415
 31
0.0
  0
LINE
  5
186
330
1F
100
AcDbEntity
  8
0
  6
Continuous
 62
     7
370
    15
100
AcDbLine
 10
439.0554673357
 20
200.1966854853
 30
0.0
 11
439.0554673357
 21
187.7522414846
 31
0.0
  0
LINE
  5
187
330
1F
100
AcDbEntity
  8
0
  6
Continuous
 62
     7
370
    15
100
AcDbLine
 10
440.0554693622
 20
188.6966845316
 30
0.0
 11
440.0554693622
 21
185.6928861064
 31
0.0
  0
LINE
  5
188
330
1F
100
AcDbEntity
  8
0
  6
Continuous
 62
     7
370
    15
100
AcDbLine
 10
440.0554693622
 20
165.6928902787
 30
0.0
 11
440.0554693622
 21
162.6966839952
 31
0.0
  0
LINE
  5
189
330
1F
100
AcDbEntity
  8
0
  6
Continuous
 62
     7
370
    15
100
AcDbLine
 10
271.3106687499
 20
170.4003906173
 30
0.0
 11
270.7387044413
 21
174.9836450738
 31
0.0
  0
LINE
  5
18A
330
1F
100
AcDbEntity
  8
0
  6
Continuous
 62
     7
370
    15
100
AcDbLine
 10
267.6274383759
 20
167.6134338898
 30
0.0
 11
271.3106687499
 21
170.4003906173
 31
0.0
  0
LINE
  5
18B
330
1F
100
AcDbEntity
  8
0
  6
Continuous
 62
     7
370
    15
100
AcDbLine
 10
263.372244741
 20
169.4097241682
 30
0.0
 11
267.6274383759
 21
167.6134338898
 31
0.0
  0
LINE
  5
18C
330
1F
100
AcDbEntity
  8
0
  6
Continuous
 62
     7
370
    15
100
AcDbLine
 10
266.48351069
 20
176.7799353522
 30
0.0
 11
262.8002809272
 21
173.9929711742
 31
0.0
  0
LINE
  5
18D
330
1F
100
AcDbEntity
  8
0
  6
Continuous
 62
     7
370
    15
100
AcDbLine
 10
270.7387044413
 20
174.9836450738
 30
0.0
 11
266.48351069
 21
176.7799353522
 31
0.0
  0
CIRCLE
  5
18E
330
1F
100
AcDbEntity
  8
0
  6
Continuous
 62
     7
370
    15
100
AcDbCircle
 10
267.0554747267
 20
172.1966844124
 30
0.0
 40
3.401733881048854
  0
LINE
  5
18F
330
1F
100
AcDbEntity
  8
0
  6
Continuous
 62
     7
370
    15
100
AcDbLine
 10
262.8002809272
 20
173.9929711742
 30
0.0
 11
263.372244741
 21
169.4097241682
 31
0.0
  0
LINE
  5
190
330
1F
100
AcDbEntity
  8
0
  6
Continuous
 62
     7
370
    15
100
AcDbLine
 10
266.5013883581
 20
172.599012248
 30
0.0
 11
264.7648582553
 21
172.3822972101
 31
0.0
  0
LINE
  5
191
330
1F
100
AcDbEntity
  8
0
  6
Continuous
 62
     7
370
    15
100
AcDbLine
 10
264.7648582553
 20
172.3822972101
 30
0.0
 11
264.8886920271
 21
171.3899990839
 31
0.0
  0
LINE
  5
192
330
1F
100
AcDbEntity
  8
0
  6
Continuous
 62
     7
370
    15
100
AcDbLine
 10
264.8886920271
 20
171.3899990839
 30
0.0
 11
266.6252221299
 21
171.6067066712
 31
0.0
  0
LINE
  5
193
330
1F
100
AcDbEntity
  8
0
  6
Continuous
 62
     7
370
    15
100
AcDbLine
 10
266.6252221299
 20
171.6067066712
 30
0.0
 11
266.8379492445
 21
169.9020883364
 31
0.0
  0
LINE
  5
194
330
1F
100
AcDbEntity
  8
0
  6
Continuous
 62
     7
370
    15
100
AcDbLine
 10
266.8379492445
 20
169.9020883364
 30
0.0
 11
267.8302520273
 21
170.0259169859
 31
0.0
  0
LINE
  5
195
330
1F
100
AcDbEntity
  8
0
  6
Continuous
 62
     7
370
    15
100
AcDbLine
 10
267.8302520273
 20
170.0259169859
 30
0.0
 11
267.6175253784
 21
171.7305427713
 31
0.0
  0
LINE
  5
196
330
1F
100
AcDbEntity
  8
0
  6
Continuous
 62
     7
370
    15
100
AcDbLine
 10
267.6175253784
 20
171.7305427713
 30
0.0
 11
269.3540554812
 21
171.9472503585
 31
0.0
  0
LINE
  5
197
330
1F
100
AcDbEntity
  8
0
  6
Continuous
 62
     7
370
    15
100
AcDbLine
 10
267.493691141
 20
172.7228408975
 30
0.0
 11
267.2730002871
 21
174.4912809056
 31
0.0
  0
LINE
  5
198
330
1F
100
AcDbEntity
  8
0
  6
Continuous
 62
     7
370
    15
100
AcDbLine
 10
267.2730002871
 20
174.4912809056
 30
0.0
 11
266.2806972714
 21
174.3674522561
 31
0.0
  0
LINE
  5
199
330
1F
100
AcDbEntity
  8
0
  6
Continuous
 62
     7
370
    15
100
AcDbLine
 10
266.2806972714
 20
174.3674522561
 30
0.0
 11
266.5013883581
 21
172.599012248
 31
0.0
  0
LINE
  5
19A
330
1F
100
AcDbEntity
  8
0
  6
Continuous
 62
     7
370
    15
100
AcDbLine
 10
269.3540554812
 20
171.9472503585
 30
0.0
 11
269.2302217094
 21
172.9395559353
 31
0.0
  0
LINE
  5
19B
330
1F
100
AcDbEntity
  8
0
  6
Continuous
 62
     7
370
    15
100
AcDbLine
 10
269.2302217094
 20
172.9395559353
 30
0.0
 11
267.493691141
 21
172.7228408975
 31
0.0
  0
CIRCLE
  5
19C
330
1F
100
AcDbEntity
  8
0
  6
Continuous
 62
     7
370
    15
100
AcDbCircle
 10
267.0554747267
 20
172.1966844124
 30
0.0
 40
5.500000000000006
  0
LINE
  5
19D
330
1F
100
AcDbEntity
  8
0
  6
Continuous
 62
     7
370
    15
100
AcDbLine
 10
237.0068024231
 20
588.4935373513
 30
0.0
 11
237.0068024231
 21
590.4935414045
 31
0.0
  0
LINE
  5
19E
330
1F
100
AcDbEntity
  8
0
  6
Continuous
 62
     7
370
    15
100
AcDbLine
 10
217.0068010075
 20
590.4935414045
 30
0.0
 11
217.0068010075
 21
588.4935373513
 31
0.0
  0
LINE
  5
19F
330
1F
100
AcDbEntity
  8
0
  6
Continuous
 62
     7
370
    15
100
AcDbLine
 10
232.0554743839
 20
590.4935414045
 30
0.0
 11
232.0554743839
 21
590.7358342855
 31
0.0
  0
LINE
  5
1A0
330
1F
100
AcDbEntity
  8
0
  6
Continuous
 62
     7
370
    15
100
AcDbLine
 10
222.0554746074
 20
590.7358342855
 30
0.0
 11
222.0554746074
 21
590.4935414045
 31
0.0
  0
LINE
  5
1A1
330
1F
100
AcDbEntity
  8
0
  6
Continuous
 62
     7
370
    15
100
AcDbLine
 10
84.0554780645
 20
753.1479529178
 30
0.0
 11
86.0554821176
 21
753.1479529178
 31
0.0
  0
LINE
  5
1A2
330
1F
100
AcDbEntity
  8
0
  6
Continuous
 62
     7
370
    15
100
AcDbLine
 10
86.0554821176
 20
773.1479538678
 30
0.0
 11
84.0554780645
 21
773.1479538678
 31
0.0
  0
LINE
  5
1A3
330
1F
100
AcDbEntity
  8
0
  6
Continuous
 62
     7
370
    15
100
AcDbLine
 10
84.0554780645
 20
696.1683670132
 30
0.0
 11
86.0554821176
 21
696.1683670132
 31
0.0
  0
LINE
  5
1A4
330
1F
100
AcDbEntity
  8
0
  6
Continuous
 62
     7
370
    15
100
AcDbLine
 10
86.0554821176
 20
716.1683665661
 30
0.0
 11
84.0554780645
 21
716.1683665661
 31
0.0
  0
LINE
  5
1A5
330
1F
100
AcDbEntity
  8
0
  6
Continuous
 62
     7
370
    15
100
AcDbLine
 10
397.0084733648
 20
588.5586405246
 30
0.0
 11
397.0084733648
 21
590.5586445777
 31
0.0
  0
LINE
  5
1A6
330
1F
100
AcDbEntity
  8
0
  6
Continuous
 62
     7
370
    15
100
AcDbLine
 10
377.0084700865
 20
590.5586445777
 30
0.0
 11
377.0084700865
 21
588.5586405246
 31
0.0
  0
LINE
  5
1A7
330
1F
100
AcDbEntity
  8
0
  6
Continuous
 62
     7
370
    15
100
AcDbLine
 10
392.0554763956
 20
590.5586445777
 30
0.0
 11
392.0554763956
 21
590.7358342855
 31
0.0
  0
LINE
  5
1A8
330
1F
100
AcDbEntity
  8
0
  6
Continuous
 62
     7
370
    15
100
AcDbLine
 10
382.0554710312
 20
590.7358342855
 30
0.0
 11
382.0554710312
 21
590.5586445777
 31
0.0
  0
LINE
  5
1A9
330
1F
100
AcDbEntity
  8
0
  6
Continuous
 62
     7
370
    15
100
AcDbLine
 10
441.0955108089
 20
773.1287816612
 30
0.0
 11
439.0955067558
 21
773.1287816612
 31
0.0
  0
LINE
  5
1AA
330
1F
100
AcDbEntity
  8
0
  6
Continuous
 62
     7
370
    15
100
AcDbLine
 10
439.0955067558
 20
753.1287821083
 30
0.0
 11
441.0955108089
 21
753.1287821083
 31
0.0
  0
LINE
  5
1AB
330
1F
100
AcDbEntity
  8
0
  6
Continuous
 62
     7
370
    15
100
AcDbLine
 10
439.0955067558
 20
768.1358365415
 30
0.0
 11
439.0554673357
 21
768.1358365415
 31
0.0
  0
LINE
  5
1AC
330
1F
100
AcDbEntity
  8
0
  6
Continuous
 62
     7
370
    15
100
AcDbLine
 10
439.0554673357
 20
758.1358358337
 30
0.0
 11
439.0955067558
 21
758.1358358337
 31
0.0
  0
LINE
  5
1AD
330
1F
100
AcDbEntity
  8
0
  6
Continuous
 62
     7
370
    15
100
AcDbLine
 10
83.6541897936
 20
616.1795223205
 30
0.0
 11
85.6541789455
 21
616.1795223205
 31
0.0
  0
LINE
  5
1AE
330
1F
100
AcDbEntity
  8
0
  6
Continuous
 62
     7
370
    15
100
AcDbLine
 10
85.6541789455
 20
636.1795255987
 30
0.0
 11
83.6541897936
 21
636.1795255987
 31
0.0
  0
LINE
  5
1AF
330
1F
100
AcDbEntity
  8
0
  6
Continuous
 62
     7
370
    15
100
AcDbLine
 10
85.6541789455
 20
621.1358422486
 30
0.0
 11
86.0554821176
 21
621.1358422486
 31
0.0
  0
LINE
  5
1B0
330
1F
100
AcDbEntity
  8
0
  6
Continuous
 62
     7
370
    15
100
AcDbLine
 10
86.0554821176
 20
631.1358327119
 30
0.0
 11
85.6541789455
 21
631.1358327119
 31
0.0
  0
LINE
  5
1B1
330
1F
100
AcDbEntity
  8
0
  6
Continuous
 62
     7
370
    15
100
AcDbLine
 10
441.0668111725
 20
853.1856501548
 30
0.0
 11
439.0668220205
 21
853.1856501548
 31
0.0
  0
LINE
  5
1B2
330
1F
100
AcDbEntity
  8
0
  6
Continuous
 62
     7
370
    15
100
AcDbLine
 10
439.0668220205
 20
833.1856543271
 30
0.0
 11
441.0668111725
 21
833.1856543271
 31
0.0
  0
LINE
  5
1B3
330
1F
100
AcDbEntity
  8
0
  6
Continuous
 62
     7
370
    15
100
AcDbLine
 10
439.0668220205
 20
848.1358328907
 30
0.0
 11
439.0554673357
 21
848.1358328907
 31
0.0
  0
LINE
  5
1B4
330
1F
100
AcDbEntity
  8
0
  6
Continuous
 62
     7
370
    15
100
AcDbLine
 10
439.0554673357
 20
838.1358349769
 30
0.0
 11
439.0668220205
 21
838.1358349769
 31
0.0
  0
LINE
  5
1B5
330
1F
100
AcDbEntity
  8
0
  6
Continuous
 62
     7
370
    15
100
AcDbLine
 10
157.0084638281
 20
588.8953322618
 30
0.0
 11
157.0084638281
 21
590.7358342855
 31
0.0
  0
LINE
  5
1B6
330
1F
100
AcDbEntity
  8
0
  6
Continuous
 62
     7
370
    15
100
AcDbLine
 10
137.0084530992
 20
590.7358342855
 30
0.0
 11
137.0084530992
 21
588.8953322618
 31
0.0
  0
LINE
  5
1B7
330
1F
100
AcDbEntity
  8
0
  6
Continuous
 62
     7
370
    15
100
AcDbLine
 10
84.0554780645
 20
833.1732863633
 30
0.0
 11
86.0554821176
 21
833.1732863633
 31
0.0
  0
LINE
  5
1B8
330
1F
100
AcDbEntity
  8
0
  6
Continuous
 62
     7
370
    15
100
AcDbLine
 10
86.0554821176
 20
853.173282191
 30
0.0
 11
84.0554780645
 21
853.173282191
 31
0.0
  0
LINE
  5
1B9
330
1F
100
AcDbEntity
  8
0
  6
Continuous
 62
     7
370
    15
100
AcDbLine
 10
317.0201688392
 20
588.2876778094
 30
0.0
 11
317.0201688392
 21
590.2876669614
 31
0.0
  0
LINE
  5
1BA
330
1F
100
AcDbEntity
  8
0
  6
Continuous
 62
     7
370
    15
100
AcDbLine
 10
297.0201692862
 20
590.2876669614
 30
0.0
 11
297.0201692862
 21
588.2876778094
 31
0.0
  0
LINE
  5
1BB
330
1F
100
AcDbEntity
  8
0
  6
Continuous
 62
     7
370
    15
100
AcDbLine
 10
312.0554744584
 20
590.2876669614
 30
0.0
 11
312.0554744584
 21
590.7358342855
 31
0.0
  0
LINE
  5
1BC
330
1F
100
AcDbEntity
  8
0
  6
Continuous
 62
     7
370
    15
100
AcDbLine
 10
302.0554765446
 20
590.7358342855
 30
0.0
 11
302.0554765446
 21
590.2876669614
 31
0.0
  0
LWPOLYLINE
  5
1BD
330
1F
100
AcDbEntity
  8
0
  6
Continuous
 62
     7
370
    15
100
AcDbPolyline
 90
        3
 70
   128
 43
0.0
 10
424.1556621475
 20
743.3203607405
 10
424.1585529728
 20
743.3245149048
 10
424.1936750097
 20
743.3840711208
  0
LINE
  5
1BE
330
1F
100
AcDbEntity
  8
0
  6
Continuous
 62
     7
370
    15
100
AcDbLine
 10
424.1936750097
 20
743.3840711208
 30
0.0
 11
424.5240337534
 21
744.0447951274
 31
0.0
  0
LINE
  5
1BF
330
1F
100
AcDbEntity
  8
0
  6
Continuous
 62
     7
370
    15
100
AcDbLine
 10
160.555476634
 20
590.7358342855
 30
0.0
 11
160.555476634
 21
578.1358296125
 31
0.0
  0
LINE
  5
1C0
330
1F
100
AcDbEntity
  8
0
  6
Continuous
 62
     7
370
    15
100
AcDbLine
 10
213.5554760082
 20
578.1358296125
 30
0.0
 11
213.5554760082
 21
590.7358342855
 31
0.0
  0
ARC
  5
1C1
330
1F
100
AcDbEntity
  8
0
  6
Continuous
 62
     7
370
    15
100
AcDbCircle
 10
212.5554747267
 20
578.1358358113
 30
0.0
 40
1.0
100
AcDbArc
 50
270.0
 51
0.0
  0
ARC
  5
1C2
330
1F
100
AcDbEntity
  8
0
  6
Continuous
 62
     7
370
    15
100
AcDbCircle
 10
161.5554747267
 20
578.1358358113
 30
0.0
 40
1.000000000000028
100
AcDbArc
 50
180.0
 51
270.0
  0
LINE
  5
1C3
330
1F
100
AcDbEntity
  8
0
  6
Continuous
 62
     7
370
    15
100
AcDbLine
 10
241.0554739965
 20
590.7358342855
 30
0.0
 11
241.0554739965
 21
594.7269165961
 31
0.0
  0
LINE
  5
1C4
330
1F
100
AcDbEntity
  8
0
  6
Continuous
 62
     7
370
    15
100
AcDbLine
 10
133.0554730577
 20
594.7289431541
 30
0.0
 11
133.0554730577
 21
590.7358342855
 31
0.0
  0
LINE
  5
1C5
330
1F
100
AcDbEntity
  8
0
  6
Continuous
 62
     7
370
    15
100
AcDbLine
 10
320.5554730577
 20
590.7358342855
 30
0.0
 11
320.5554730577
 21
578.1358296125
 31
0.0
  0
LINE
  5
1C6
330
1F
100
AcDbEntity
  8
0
  6
Continuous
 62
     7
370
    15
100
AcDbLine
 10
373.5554761572
 20
578.1358296125
 30
0.0
 11
373.5554761572
 21
590.7358342855
 31
0.0
  0
ARC
  5
1C7
330
1F
100
AcDbEntity
  8
0
  6
Continuous
 62
     7
370
    15
100
AcDbCircle
 10
372.5554747267
 20
578.1358358113
 30
0.0
 40
1.000000000000114
100
AcDbArc
 50
270.0
 51
0.0
  0
ARC
  5
1C8
330
1F
100
AcDbEntity
  8
0
  6
Continuous
 62
     7
370
    15
100
AcDbCircle
 10
321.5554747267
 20
578.1358358113
 30
0.0
 40
1.000000000000114
100
AcDbArc
 50
180.0
 51
270.0
  0
LINE
  5
1C9
330
1F
100
AcDbEntity
  8
0
  6
Continuous
 62
     7
370
    15
100
AcDbLine
 10
401.0554797334
 20
590.7358342855
 30
0.0
 11
401.0554797334
 21
594.7269165961
 31
0.0
  0
LINE
  5
1CA
330
1F
100
AcDbEntity
  8
0
  6
Continuous
 62
     7
370
    15
100
AcDbLine
 10
293.0554750694
 20
594.7289431541
 30
0.0
 11
293.0554750694
 21
590.7358342855
 31
0.0
  0
ARC
  5
1CB
330
1F
100
AcDbEntity
  8
0
  6
Continuous
 62
     7
370
    15
100
AcDbCircle
 10
85.0554747267
 20
817.1358358113
 30
0.0
 40
1.0
100
AcDbArc
 50
270.0
 51
0.0
  0
ARC
  5
1CC
330
1F
100
AcDbEntity
  8
0
  6
Continuous
 62
     7
370
    15
100
AcDbCircle
 10
85.0554747267
 20
789.1358358113
 30
0.0
 40
1.0
100
AcDbArc
 50
0.0
 51
90.0
  0
LINE
  5
1CD
330
1F
100
AcDbEntity
  8
0
  6
Continuous
 62
     7
370
    15
100
AcDbLine
 10
95.6465549154
 20
857.1358362286
 30
0.0
 11
88.0554712696
 21
857.1358362286
 31
0.0
  0
LINE
  5
1CE
330
1F
100
AcDbEntity
  8
0
  6
Continuous
 62
     7
370
    15
100
AcDbLine
 10
88.0554712696
 20
749.1358357555
 30
0.0
 11
95.6485814733
 21
749.1358357555
 31
0.0
  0
ARC
  5
1CF
330
1F
100
AcDbEntity
  8
0
  6
Continuous
 62
     7
370
    15
100
AcDbCircle
 10
88.0554747267
 20
855.1358358113
 30
0.0
 40
2.0
100
AcDbArc
 50
90.0
 51
180.0
  0
ARC
  5
1D0
330
1F
100
AcDbEntity
  8
0
  6
Continuous
 62
     7
370
    15
100
AcDbCircle
 10
88.0554747267
 20
751.1358358113
 30
0.0
 40
2.0
100
AcDbArc
 50
180.0
 51
270.0
  0
ARC
  5
1D1
330
1F
100
AcDbEntity
  8
0
  6
Continuous
 62
     7
370
    15
100
AcDbCircle
 10
85.0554747267
 20
680.1358358113
 30
0.0
 40
1.0
100
AcDbArc
 50
270.0
 51
0.0
  0
ARC
  5
1D2
330
1F
100
AcDbEntity
  8
0
  6
Continuous
 62
     7
370
    15
100
AcDbCircle
 10
85.0554747267
 20
652.1358358113
 30
0.0
 40
1.0
100
AcDbArc
 50
0.0
 51
90.0
  0
LINE
  5
1D3
330
1F
100
AcDbEntity
  8
0
  6
Continuous
 62
     7
370
    15
100
AcDbLine
 10
95.6465549154
 20
720.1358361243
 30
0.0
 11
88.0554712696
 21
720.1358361243
 31
0.0
  0
LINE
  5
1D4
330
1F
100
AcDbEntity
  8
0
  6
Continuous
 62
     7
370
    15
100
AcDbLine
 10
88.0554712696
 20
612.1358389108
 30
0.0
 11
95.6485814733
 21
612.1358389108
 31
0.0
  0
ARC
  5
1D5
330
1F
100
AcDbEntity
  8
0
  6
Continuous
 62
     7
370
    15
100
AcDbCircle
 10
88.0554747267
 20
718.1358358113
 30
0.0
 40
2.0
100
AcDbArc
 50
90.0
 51
180.0
  0
ARC
  5
1D6
330
1F
100
AcDbEntity
  8
0
  6
Continuous
 62
     7
370
    15
100
AcDbCircle
 10
88.0554747267
 20
614.1358358113
 30
0.0
 40
2.0
100
AcDbArc
 50
180.0
 51
270.0
  0
ARC
  5
1D7
330
1F
100
AcDbEntity
  8
0
  6
Continuous
 62
     7
370
    15
100
AcDbCircle
 10
440.0554747267
 20
789.1358358113
 30
0.0
 40
1.0
100
AcDbArc
 50
90.0
 51
180.0
  0
ARC
  5
1D8
330
1F
100
AcDbEntity
  8
0
  6
Continuous
 62
     7
370
    15
100
AcDbCircle
 10
440.0554747267
 20
817.1358358113
 30
0.0
 40
1.0
100
AcDbArc
 50
180.0
 51
270.0
  0
LINE
  5
1D9
330
1F
100
AcDbEntity
  8
0
  6
Continuous
 62
     7
370
    15
100
AcDbLine
 10
429.3925560398
 20
749.1358357555
 30
0.0
 11
437.0554781837
 21
749.1358357555
 31
0.0
  0
LINE
  5
1DA
330
1F
100
AcDbEntity
  8
0
  6
Continuous
 62
     7
370
    15
100
AcDbLine
 10
437.0554781837
 20
857.1358362286
 30
0.0
 11
429.3945825977
 21
857.1358362286
 31
0.0
  0
ARC
  5
1DB
330
1F
100
AcDbEntity
  8
0
  6
Continuous
 62
     7
370
    15
100
AcDbCircle
 10
437.0554747267
 20
855.1358358113
 30
0.0
 40
2.0
100
AcDbArc
 50
0.0
 51
90.0
  0
ARC
  5
1DC
330
1F
100
AcDbEntity
  8
0
  6
Continuous
 62
     7
370
    15
100
AcDbCircle
 10
437.0554747267
 20
751.1358358113
 30
0.0
 40
2.0
100
AcDbArc
 50
270.0
 51
0.0
  0
LINE
  5
1DD
330
1F
100
AcDbEntity
  8
0
  6
Continuous
 62
     7
370
    15
100
AcDbLine
 10
272.5554745031
 20
593.4454167335
 30
0.0
 11
272.5554745031
 21
594.44541876
 31
0.0
  0
LINE
  5
1DE
330
1F
100
AcDbEntity
  8
0
  6
Continuous
 62
     7
370
    15
100
AcDbLine
 10
261.5554746792
 20
594.44541876
 30
0.0
 11
261.5554746792
 21
593.4454167335
 31
0.0
  0
LINE
  5
1DF
330
1F
100
AcDbEntity
  8
0
  6
Continuous
 62
     7
370
    15
100
AcDbLine
 10
269.5554749427
 20
594.44541876
 30
0.0
 11
269.5554749427
 21
594.6038777082
 31
0.0
  0
LINE
  5
1E0
330
1F
100
AcDbEntity
  8
0
  6
Continuous
 62
     7
370
    15
100
AcDbLine
 10
264.5554748216
 20
594.6057254522
 30
0.0
 11
264.5554748216
 21
594.44541876
 31
0.0
  0
LINE
  5
1E1
330
1F
100
AcDbEntity
  8
0
  6
Continuous
 62
     7
370
    15
100
AcDbLine
 10
261.5554746792
 20
899.8969758002
 30
0.0
 11
261.5554746792
 21
898.8969886748
 31
0.0
  0
LINE
  5
1E2
330
1F
100
AcDbEntity
  8
0
  6
Continuous
 62
     7
370
    15
100
AcDbLine
 10
272.5554745031
 20
898.8969886748
 30
0.0
 11
272.5554745031
 21
899.8969758002
 31
0.0
  0
LINE
  5
1E3
330
1F
100
AcDbEntity
  8
0
  6
Continuous
 62
     7
370
    15
100
AcDbLine
 10
264.5554748216
 20
898.8969886748
 30
0.0
 11
264.5554748216
 21
898.5961342303
 31
0.0
  0
LINE
  5
1E4
330
1F
100
AcDbEntity
  8
0
  6
Continuous
 62
     7
370
    15
100
AcDbLine
 10
269.5554749427
 20
898.5979670732
 30
0.0
 11
269.5554749427
 21
898.8969886748
 31
0.0
  0
LINE
  5
1E5
330
1F
100
AcDbEntity
  8
0
  6
Continuous
 62
     7
370
    15
100
AcDbLine
 10
217.0068010075
 20
588.4935373513
 30
0.0
 11
237.0068024231
 21
588.4935373513
 31
0.0
  0
LINE
  5
1E6
330
1F
100
AcDbEntity
  8
0
  6
Continuous
 62
     7
370
    15
100
AcDbLine
 10
217.0068010075
 20
590.4935414045
 30
0.0
 11
237.0068024231
 21
590.4935414045
 31
0.0
  0
LINE
  5
1E7
330
1F
100
AcDbEntity
  8
0
  6
Continuous
 62
     7
370
    15
100
AcDbLine
 10
226.5548057241
 20
581.4935380666
 30
0.0
 11
226.5548057241
 21
588.4935373513
 31
0.0
  0
LINE
  5
1E8
330
1F
100
AcDbEntity
  8
0
  6
Continuous
 62
     7
370
    15
100
AcDbLine
 10
226.5548057241
 20
581.4935380666
 30
0.0
 11
218.3162070198
 21
581.4935380666
 31
0.0
  0
LINE
  5
1E9
330
1F
100
AcDbEntity
  8
0
  6
Continuous
 62
     7
370
    15
100
AcDbLine
 10
218.3162070198
 20
581.4935380666
 30
0.0
 11
218.3162070198
 21
588.4935373513
 31
0.0
  0
LINE
  5
1EA
330
1F
100
AcDbEntity
  8
0
  6
Continuous
 62
     7
370
    15
100
AcDbLine
 10
235.2940741313
 20
581.4935380666
 30
0.0
 11
235.2940741313
 21
588.4935373513
 31
0.0
  0
LINE
  5
1EB
330
1F
100
AcDbEntity
  8
0
  6
Continuous
 62
     7
370
    15
100
AcDbLine
 10
235.2940741313
 20
581.4935380666
 30
0.0
 11
226.5548057241
 21
581.4935380666
 31
0.0
  0
LINE
  5
1EC
330
1F
100
AcDbEntity
  8
0
  6
Continuous
 62
     7
370
    15
100
AcDbLine
 10
235.7947419716
 20
581.4935380666
 30
0.0
 11
235.7947419716
 21
588.4935373513
 31
0.0
  0
LINE
  5
1ED
330
1F
100
AcDbEntity
  8
0
  6
Continuous
 62
     7
370
    15
100
AcDbLine
 10
235.7947419716
 20
581.4935380666
 30
0.0
 11
235.2940741313
 21
581.4935380666
 31
0.0
  0
LINE
  5
1EE
330
1F
100
AcDbEntity
  8
0
  6
Continuous
 62
     7
370
    15
100
AcDbLine
 10
84.0554780645
 20
773.1479538678
 30
0.0
 11
84.0554780645
 21
753.1479529178
 31
0.0
  0
LINE
  5
1EF
330
1F
100
AcDbEntity
  8
0
  6
Continuous
 62
     7
370
    15
100
AcDbLine
 10
86.0554821176
 20
768.4931961893
 30
0.0
 11
86.0554821176
 21
757.8027101307
 31
0.0
  0
LINE
  5
1F0
330
1F
100
AcDbEntity
  8
0
  6
Continuous
 62
     7
370
    15
100
AcDbLine
 10
77.0554787798
 20
763.1358357219
 30
0.0
 11
84.0554780645
 21
763.1358357219
 31
0.0
  0
LINE
  5
1F1
330
1F
100
AcDbEntity
  8
0
  6
Continuous
 62
     7
370
    15
100
AcDbLine
 10
77.0554787798
 20
771.6358361839
 30
0.0
 11
84.0554780645
 21
771.6358361839
 31
0.0
  0
LINE
  5
1F2
330
1F
100
AcDbEntity
  8
0
  6
Continuous
 62
     7
370
    15
100
AcDbLine
 10
77.0554787798
 20
763.1358357219
 30
0.0
 11
77.0554787798
 21
771.6358361839
 31
0.0
  0
LINE
  5
1F3
330
1F
100
AcDbEntity
  8
0
  6
Continuous
 62
     7
370
    15
100
AcDbLine
 10
77.0554787798
 20
754.6358361913
 30
0.0
 11
84.0554780645
 21
754.6358361913
 31
0.0
  0
LINE
  5
1F4
330
1F
100
AcDbEntity
  8
0
  6
Continuous
 62
     7
370
    15
100
AcDbLine
 10
77.0554787798
 20
754.6358361913
 30
0.0
 11
77.0554787798
 21
763.1358357219
 31
0.0
  0
LINE
  5
1F5
330
1F
100
AcDbEntity
  8
0
  6
Continuous
 62
     7
370
    15
100
AcDbLine
 10
84.0554780645
 20
716.1683665661
 30
0.0
 11
84.0554780645
 21
696.1683670132
 31
0.0
  0
LINE
  5
1F6
330
1F
100
AcDbEntity
  8
0
  6
Continuous
 62
     7
370
    15
100
AcDbLine
 10
86.0554821176
 20
711.4968897848
 30
0.0
 11
86.0554821176
 21
700.8398400693
 31
0.0
  0
LINE
  5
1F7
330
1F
100
AcDbEntity
  8
0
  6
Continuous
 62
     7
370
    15
100
AcDbLine
 10
77.0554787798
 20
700.7315384297
 30
0.0
 11
84.0554780645
 21
700.7315384297
 31
0.0
  0
LINE
  5
1F8
330
1F
100
AcDbEntity
  8
0
  6
Continuous
 62
     7
370
    15
100
AcDbLine
 10
77.0554787798
 20
710.5291189699
 30
0.0
 11
84.0554780645
 21
710.5291189699
 31
0.0
  0
LINE
  5
1F9
330
1F
100
AcDbEntity
  8
0
  6
Continuous
 62
     7
370
    15
100
AcDbLine
 10
77.0554787798
 20
700.7315384297
 30
0.0
 11
77.0554787798
 21
710.5291189699
 31
0.0
  0
LINE
  5
1FA
330
1F
100
AcDbEntity
  8
0
  6
Continuous
 62
     7
370
    15
100
AcDbLine
 10
77.0554787798
 20
715.933418095
 30
0.0
 11
84.0554780645
 21
715.933418095
 31
0.0
  0
LINE
  5
1FB
330
1F
100
AcDbEntity
  8
0
  6
Continuous
 62
     7
370
    15
100
AcDbLine
 10
77.0554787798
 20
710.5291189699
 30
0.0
 11
77.0554787798
 21
715.933418095
 31
0.0
  0
LINE
  5
1FC
330
1F
100
AcDbEntity
  8
0
  6
Continuous
 62
     7
370
    15
100
AcDbLine
 10
77.0554787798
 20
696.338255152
 30
0.0
 11
84.0554780645
 21
696.338255152
 31
0.0
  0
LINE
  5
1FD
330
1F
100
AcDbEntity
  8
0
  6
Continuous
 62
     7
370
    15
100
AcDbLine
 10
77.0554787798
 20
696.338255152
 30
0.0
 11
77.0554787798
 21
700.7315384297
 31
0.0
  0
LINE
  5
1FE
330
1F
100
AcDbEntity
  8
0
  6
Continuous
 62
     7
370
    15
100
AcDbLine
 10
377.0084700865
 20
588.5586405246
 30
0.0
 11
397.0084733648
 21
588.5586405246
 31
0.0
  0
LINE
  5
1FF
330
1F
100
AcDbEntity
  8
0
  6
Continuous
 62
     7
370
    15
100
AcDbLine
 10
377.0084700865
 20
590.5586445777
 30
0.0
 11
397.0084733648
 21
590.5586445777
 31
0.0
  0
LINE
  5
200
330
1F
100
AcDbEntity
  8
0
  6
Continuous
 62
     7
370
    15
100
AcDbLine
 10
387.7117730064
 20
581.5586412398
 30
0.0
 11
387.7117730064
 21
588.5586405246
 31
0.0
  0
LINE
  5
201
330
1F
100
AcDbEntity
  8
0
  6
Continuous
 62
     7
370
    15
100
AcDbLine
 10
387.7117730064
 20
581.5586412398
 30
0.0
 11
378.9026460929
 21
581.5586412398
 31
0.0
  0
LINE
  5
202
330
1F
100
AcDbEntity
  8
0
  6
Continuous
 62
     7
370
    15
100
AcDbLine
 10
378.9026460929
 20
581.5586412398
 30
0.0
 11
378.9026460929
 21
588.5586405246
 31
0.0
  0
LINE
  5
203
330
1F
100
AcDbEntity
  8
0
  6
Continuous
 62
     7
370
    15
100
AcDbLine
 10
395.8646006269
 20
581.5586412398
 30
0.0
 11
395.8646006269
 21
588.5586405246
 31
0.0
  0
LINE
  5
204
330
1F
100
AcDbEntity
  8
0
  6
Continuous
 62
     7
370
    15
100
AcDbLine
 10
395.8646006269
 20
581.5586412398
 30
0.0
 11
387.7117730064
 21
581.5586412398
 31
0.0
  0
LINE
  5
205
330
1F
100
AcDbEntity
  8
0
  6
Continuous
 62
     7
370
    15
100
AcDbLine
 10
378.2463467998
 20
581.5586412398
 30
0.0
 11
378.2463467998
 21
588.5586405246
 31
0.0
  0
LINE
  5
206
330
1F
100
AcDbEntity
  8
0
  6
Continuous
 62
     7
370
    15
100
AcDbLine
 10
378.9026460929
 20
581.5586412398
 30
0.0
 11
378.2463467998
 21
581.5586412398
 31
0.0
  0
LINE
  5
207
330
1F
100
AcDbEntity
  8
0
  6
Continuous
 62
     7
370
    15
100
AcDbLine
 10
439.0955067558
 20
753.1287821083
 30
0.0
 11
439.0955067558
 21
773.1287816612
 31
0.0
  0
LINE
  5
208
330
1F
100
AcDbEntity
  8
0
  6
Continuous
 62
     7
370
    15
100
AcDbLine
 10
441.0955108089
 20
753.1287821083
 30
0.0
 11
441.0955108089
 21
773.1287816612
 31
0.0
  0
LINE
  5
209
330
1F
100
AcDbEntity
  8
0
  6
Continuous
 62
     7
370
    15
100
AcDbLine
 10
448.0955100937
 20
764.1481163053
 30
0.0
 11
441.0955108089
 21
764.1481163053
 31
0.0
  0
LINE
  5
20A
330
1F
100
AcDbEntity
  8
0
  6
Continuous
 62
     7
370
    15
100
AcDbLine
 10
448.0955100937
 20
764.1481163053
 30
0.0
 11
448.0955100937
 21
755.187304884
 31
0.0
  0
LINE
  5
20B
330
1F
100
AcDbEntity
  8
0
  6
Continuous
 62
     7
370
    15
100
AcDbLine
 10
448.0955100937
 20
755.187304884
 30
0.0
 11
441.0955108089
 21
755.187304884
 31
0.0
  0
LINE
  5
20C
330
1F
100
AcDbEntity
  8
0
  6
Continuous
 62
     7
370
    15
100
AcDbLine
 10
448.0955100937
 20
772.0966471432
 30
0.0
 11
441.0955108089
 21
772.0966471432
 31
0.0
  0
LINE
  5
20D
330
1F
100
AcDbEntity
  8
0
  6
Continuous
 62
     7
370
    15
100
AcDbLine
 10
448.0955100937
 20
772.0966471432
 30
0.0
 11
448.0955100937
 21
764.1481163053
 31
0.0
  0
LINE
  5
20E
330
1F
100
AcDbEntity
  8
0
  6
Continuous
 62
     7
370
    15
100
AcDbLine
 10
448.0955100937
 20
754.1750243007
 30
0.0
 11
441.0955108089
 21
754.1750243007
 31
0.0
  0
LINE
  5
20F
330
1F
100
AcDbEntity
  8
0
  6
Continuous
 62
     7
370
    15
100
AcDbLine
 10
448.0955100937
 20
755.187304884
 30
0.0
 11
448.0955100937
 21
754.1750243007
 31
0.0
  0
LINE
  5
210
330
1F
100
AcDbEntity
  8
0
  6
Continuous
 62
     7
370
    15
100
AcDbLine
 10
83.6541897936
 20
636.1795255987
 30
0.0
 11
83.6541897936
 21
616.1795223205
 31
0.0
  0
LINE
  5
211
330
1F
100
AcDbEntity
  8
0
  6
Continuous
 62
     7
370
    15
100
AcDbLine
 10
85.6541789455
 20
636.1795255987
 30
0.0
 11
85.6541789455
 21
616.1795223205
 31
0.0
  0
LINE
  5
212
330
1F
100
AcDbEntity
  8
0
  6
Continuous
 62
     7
370
    15
100
AcDbLine
 10
76.6541756077
 20
623.9184180348
 30
0.0
 11
83.6541897936
 21
623.9184180348
 31
0.0
  0
LINE
  5
213
330
1F
100
AcDbEntity
  8
0
  6
Continuous
 62
     7
370
    15
100
AcDbLine
 10
76.6541756077
 20
623.9184180348
 30
0.0
 11
76.6541756077
 21
633.3073640315
 31
0.0
  0
LINE
  5
214
330
1F
100
AcDbEntity
  8
0
  6
Continuous
 62
     7
370
    15
100
AcDbLine
 10
76.6541756077
 20
633.3073640315
 30
0.0
 11
83.6541897936
 21
633.3073640315
 31
0.0
  0
LINE
  5
215
330
1F
100
AcDbEntity
  8
0
  6
Continuous
 62
     7
370
    15
100
AcDbLine
 10
76.6541756077
 20
616.7468989341
 30
0.0
 11
83.6541897936
 21
616.7468989341
 31
0.0
  0
LINE
  5
216
330
1F
100
AcDbEntity
  8
0
  6
Continuous
 62
     7
370
    15
100
AcDbLine
 10
76.6541756077
 20
616.7468989341
 30
0.0
 11
76.6541756077
 21
623.9184180348
 31
0.0
  0
LINE
  5
217
330
1F
100
AcDbEntity
  8
0
  6
Continuous
 62
     7
370
    15
100
AcDbLine
 10
76.6541756077
 20
635.5247760265
 30
0.0
 11
83.6541897936
 21
635.5247760265
 31
0.0
  0
LINE
  5
218
330
1F
100
AcDbEntity
  8
0
  6
Continuous
 62
     7
370
    15
100
AcDbLine
 10
76.6541756077
 20
633.3073640315
 30
0.0
 11
76.6541756077
 21
635.5247760265
 31
0.0
  0
LINE
  5
219
330
1F
100
AcDbEntity
  8
0
  6
Continuous
 62
     7
370
    15
100
AcDbLine
 10
439.0668220205
 20
846.3412338941
 30
0.0
 11
439.0668220205
 21
853.1856501548
 31
0.0
  0
LINE
  5
21A
330
1F
100
AcDbEntity
  8
0
  6
Continuous
 62
     7
370
    15
100
AcDbLine
 10
439.0668220205
 20
833.1856543271
 30
0.0
 11
439.0668220205
 21
846.3412338941
 31
0.0
  0
LINE
  5
21B
330
1F
100
AcDbEntity
  8
0
  6
Continuous
 62
     7
370
    15
100
AcDbLine
 10
441.0668111725
 20
846.3412338941
 30
0.0
 11
441.0668111725
 21
853.1856501548
 31
0.0
  0
LINE
  5
21C
330
1F
100
AcDbEntity
  8
0
  6
Continuous
 62
     7
370
    15
100
AcDbLine
 10
441.0668111725
 20
833.1856543271
 30
0.0
 11
441.0668111725
 21
846.3412338941
 31
0.0
  0
LINE
  5
21D
330
1F
100
AcDbEntity
  8
0
  6
Continuous
 62
     7
370
    15
100
AcDbLine
 10
448.0668253584
 20
841.1613443939
 30
0.0
 11
441.0668111725
 21
841.1613443939
 31
0.0
  0
LINE
  5
21E
330
1F
100
AcDbEntity
  8
0
  6
Continuous
 62
     7
370
    15
100
AcDbLine
 10
448.0668253584
 20
841.1613443939
 30
0.0
 11
448.0668253584
 21
833.8223660438
 31
0.0
  0
LINE
  5
21F
330
1F
100
AcDbEntity
  8
0
  6
Continuous
 62
     7
370
    15
100
AcDbLine
 10
448.0668253584
 20
833.8223660438
 30
0.0
 11
441.0668111725
 21
833.8223660438
 31
0.0
  0
LINE
  5
220
330
1F
100
AcDbEntity
  8
0
  6
Continuous
 62
     7
370
    15
100
AcDbLine
 10
448.0668253584
 20
850.4748160093
 30
0.0
 11
441.0668111725
 21
850.4748160093
 31
0.0
  0
LINE
  5
221
330
1F
100
AcDbEntity
  8
0
  6
Continuous
 62
     7
370
    15
100
AcDbLine
 10
448.0668253584
 20
850.4748160093
 30
0.0
 11
448.0668253584
 21
841.1613443939
 31
0.0
  0
LINE
  5
222
330
1F
100
AcDbEntity
  8
0
  6
Continuous
 62
     7
370
    15
100
AcDbLine
 10
448.0668253584
 20
852.4493092744
 30
0.0
 11
441.0668111725
 21
852.4493092744
 31
0.0
  0
LINE
  5
223
330
1F
100
AcDbEntity
  8
0
  6
Continuous
 62
     7
370
    15
100
AcDbLine
 10
448.0668253584
 20
852.4493092744
 30
0.0
 11
448.0668253584
 21
850.4748160093
 31
0.0
  0
LINE
  5
224
330
1F
100
AcDbEntity
  8
0
  6
Continuous
 62
     7
370
    15
100
AcDbLine
 10
137.0084530992
 20
588.8953322618
 30
0.0
 11
157.0084638281
 21
588.8953322618
 31
0.0
  0
LINE
  5
225
330
1F
100
AcDbEntity
  8
0
  6
Continuous
 62
     7
370
    15
100
AcDbLine
 10
156.8212307377
 20
581.895332977
 30
0.0
 11
156.8212307377
 21
588.8953322618
 31
0.0
  0
LINE
  5
226
330
1F
100
AcDbEntity
  8
0
  6
Continuous
 62
     7
370
    15
100
AcDbLine
 10
156.8212307377
 20
581.895332977
 30
0.0
 11
151.0883740468
 21
581.895332977
 31
0.0
  0
LINE
  5
227
330
1F
100
AcDbEntity
  8
0
  6
Continuous
 62
     7
370
    15
100
AcDbLine
 10
151.0883740468
 20
581.895332977
 30
0.0
 11
151.0883740468
 21
588.8953322618
 31
0.0
  0
LINE
  5
228
330
1F
100
AcDbEntity
  8
0
  6
Continuous
 62
     7
370
    15
100
AcDbLine
 10
141.3226149363
 20
581.895332977
 30
0.0
 11
141.3226149363
 21
588.8953322618
 31
0.0
  0
LINE
  5
229
330
1F
100
AcDbEntity
  8
0
  6
Continuous
 62
     7
370
    15
100
AcDbLine
 10
151.0883740468
 20
581.895332977
 30
0.0
 11
141.3226149363
 21
581.895332977
 31
0.0
  0
LINE
  5
22A
330
1F
100
AcDbEntity
  8
0
  6
Continuous
 62
     7
370
    15
100
AcDbLine
 10
137.2897125168
 20
581.895332977
 30
0.0
 11
137.2897125168
 21
588.8953322618
 31
0.0
  0
LINE
  5
22B
330
1F
100
AcDbEntity
  8
0
  6
Continuous
 62
     7
370
    15
100
AcDbLine
 10
141.3226149363
 20
581.895332977
 30
0.0
 11
137.2897125168
 21
581.895332977
 31
0.0
  0
LINE
  5
22C
330
1F
100
AcDbEntity
  8
0
  6
Continuous
 62
     7
370
    15
100
AcDbLine
 10
84.0554780645
 20
853.173282191
 30
0.0
 11
84.0554780645
 21
833.1732863633
 31
0.0
  0
LINE
  5
22D
330
1F
100
AcDbEntity
  8
0
  6
Continuous
 62
     7
370
    15
100
AcDbLine
 10
86.0554821176
 20
848.4941015093
 30
0.0
 11
86.0554821176
 21
837.852467045
 31
0.0
  0
LINE
  5
22E
330
1F
100
AcDbEntity
  8
0
  6
Continuous
 62
     7
370
    15
100
AcDbLine
 10
77.0554787798
 20
838.9129007308
 30
0.0
 11
84.0554780645
 21
838.9129007308
 31
0.0
  0
LINE
  5
22F
330
1F
100
AcDbEntity
  8
0
  6
Continuous
 62
     7
370
    15
100
AcDbLine
 10
77.0554787798
 20
848.6973756997
 30
0.0
 11
84.0554780645
 21
848.6973756997
 31
0.0
  0
LINE
  5
230
330
1F
100
AcDbEntity
  8
0
  6
Continuous
 62
     7
370
    15
100
AcDbLine
 10
77.0554787798
 20
838.9129007308
 30
0.0
 11
77.0554787798
 21
848.6973756997
 31
0.0
  0
LINE
  5
231
330
1F
100
AcDbEntity
  8
0
  6
Continuous
 62
     7
370
    15
100
AcDbLine
 10
77.0554787798
 20
833.3513552396
 30
0.0
 11
84.0554780645
 21
833.3513552396
 31
0.0
  0
LINE
  5
232
330
1F
100
AcDbEntity
  8
0
  6
Continuous
 62
     7
370
    15
100
AcDbLine
 10
77.0554787798
 20
833.3513552396
 30
0.0
 11
77.0554787798
 21
838.9129007308
 31
0.0
  0
LINE
  5
233
330
1F
100
AcDbEntity
  8
0
  6
Continuous
 62
     7
370
    15
100
AcDbLine
 10
77.0554787798
 20
852.920312628
 30
0.0
 11
84.0554780645
 21
852.920312628
 31
0.0
  0
LINE
  5
234
330
1F
100
AcDbEntity
  8
0
  6
Continuous
 62
     7
370
    15
100
AcDbLine
 10
77.0554787798
 20
848.6973756997
 30
0.0
 11
77.0554787798
 21
852.920312628
 31
0.0
  0
LINE
  5
235
330
1F
100
AcDbEntity
  8
0
  6
Continuous
 62
     7
370
    15
100
AcDbLine
 10
297.0201692862
 20
588.2876778094
 30
0.0
 11
317.0201688392
 21
588.2876778094
 31
0.0
  0
LINE
  5
236
330
1F
100
AcDbEntity
  8
0
  6
Continuous
 62
     7
370
    15
100
AcDbLine
 10
297.0201692862
 20
590.2876669614
 30
0.0
 11
317.0201688392
 21
590.2876669614
 31
0.0
  0
LINE
  5
237
330
1F
100
AcDbEntity
  8
0
  6
Continuous
 62
     7
370
    15
100
AcDbLine
 10
311.8247374279
 20
581.2876785247
 30
0.0
 11
311.8247374279
 21
588.2876778094
 31
0.0
  0
LINE
  5
238
330
1F
100
AcDbEntity
  8
0
  6
Continuous
 62
     7
370
    15
100
AcDbLine
 10
311.8247374279
 20
581.2876785247
 30
0.0
 11
302.0110673589
 21
581.2876785247
 31
0.0
  0
LINE
  5
239
330
1F
100
AcDbEntity
  8
0
  6
Continuous
 62
     7
370
    15
100
AcDbLine
 10
302.0110673589
 20
581.2876785247
 30
0.0
 11
302.0110673589
 21
588.2876778094
 31
0.0
  0
LINE
  5
23A
330
1F
100
AcDbEntity
  8
0
  6
Continuous
 62
     7
370
    15
100
AcDbLine
 10
316.8691418452
 20
581.2876785247
 30
0.0
 11
316.8691418452
 21
588.2876778094
 31
0.0
  0
LINE
  5
23B
330
1F
100
AcDbEntity
  8
0
  6
Continuous
 62
     7
370
    15
100
AcDbLine
 10
316.8691418452
 20
581.2876785247
 30
0.0
 11
311.8247374279
 21
581.2876785247
 31
0.0
  0
LINE
  5
23C
330
1F
100
AcDbEntity
  8
0
  6
Continuous
 62
     7
370
    15
100
AcDbLine
 10
297.2418054325
 20
581.2876785247
 30
0.0
 11
297.2418054325
 21
588.2876778094
 31
0.0
  0
LINE
  5
23D
330
1F
100
AcDbEntity
  8
0
  6
Continuous
 62
     7
370
    15
100
AcDbLine
 10
302.0110673589
 20
581.2876785247
 30
0.0
 11
297.2418054325
 21
581.2876785247
 31
0.0
  0
ELLIPSE
  5
23E
330
1F
100
AcDbEntity
  8
0
  6
Continuous
 62
     7
370
    15
100
AcDbEllipse
 10
109.8841160898
 20
884.2373741885
 30
0.0
 11
-9.548849553789339
 21
9.548849553789294
 31
0.0
210
0.0
220
0.0
230
1.0
 40
0.9996954599
 41
5.497939437029729
 42
7.06843117732946
  0
ELLIPSE
  5
23F
330
1F
100
AcDbEntity
  8
0
  6
Continuous
 62
     7
370
    15
100
AcDbEllipse
 10
415.1570131038
 20
884.2373741885
 30
0.0
 11
9.548849553789296
 21
9.548849553789296
 31
0.0
210
0.0
220
0.0
230
0.9999999999999998
 40
0.9996954599
 41
5.497939437029729
 42
7.068431177329449
  0
SPLINE
  5
240
330
1F
100
AcDbEntity
  8
0
  6
Continuous
 62
     7
370
    15
100
AcDbSpline
210
0.0
220
0.0
230
1.0
 70
     8
 71
     3
 72
    12
 73
     8
 74
     0
 42
0.00000001
 43
0.00000001
 40
0.0
 40
0.0
 40
0.0
 40
0.0
 40
0.2047564732690466
 40
0.414039924134409
 40
0.64774088107744
 40
0.8877002106347123
 40
1.0
 40
1.0
 40
1.0
 40
1.0
 10
97.24224576184639
 20
605.1009262053644
 30
0.0
 10
97.25096230778225
 20
605.1372339763749
 30
0.0
 10
97.26858811448011
 20
605.2106522498714
 30
0.0
 10
97.1452817343397
 20
605.8269256830778
 30
0.0
 10
96.95837770291712
 20
606.8824274435275
 30
0.0
 10
96.81672867745694
 20
608.1558751994364
 30
0.0
 10
96.81846836977186
 20
609.0972190913483
 30
0.0
 10
96.81902298161873
 20
609.3973184077417
 30
0.0
  0
ELLIPSE
  5
241
330
1F
100
AcDbEntity
  8
0
  6
Continuous
 62
     7
370
    15
100
AcDbEllipse
 10
109.8841160898
 20
608.9644771745
 30
0.0
 11
-9.548849553789339
 21
-9.548849553789294
 31
0.0
210
0.0
220
0.0
230
1.0
 40
0.9996954599
 41
5.787836461234268
 42
7.068431177329455
  0
ELLIPSE
  5
242
330
1F
100
AcDbEntity
  8
0
  6
Continuous
 62
     7
370
    15
100
AcDbEllipse
 10
415.1570131038
 20
608.9644771745
 30
0.0
 11
9.548849553789351
 21
-9.548849553789296
 31
0.0
210
0.0
220
0.0
230
1.0
 40
0.9996954599
 41
5.497939437029732
 42
7.068431177329448
  0
ELLIPSE
  5
243
330
1F
100
AcDbEntity
  8
0
  6
Continuous
 62
     7
370
    15
100
AcDbEllipse
 10
267.0205645968
 20
897.5386973704
 30
0.0
 11
8.0
 21
0.0
 31
0.0
210
0.0
220
0.0
230
1.0
 40
0.0174550649
 41
3.141592653589786
 42
4.71238898038469
  0
ELLIPSE
  5
244
330
1F
100
AcDbEntity
  8
0
  6
Continuous
 62
     7
370
    15
100
AcDbEllipse
 10
267.0205645968
 20
897.5386973704
 30
0.0
 11
7.999999999999943
 21
0.0
 31
0.0
210
0.0
220
0.0
230
1.0
 40
0.0174550649
 41
4.71238898038469
 42
6.283185307179586
  0
LINE
  5
245
330
1F
100
AcDbEntity
  8
0
  6
Continuous
 62
     7
370
    15
100
AcDbLine
 10
275.0205642862
 20
897.739436671
 30
0.0
 11
286.0205642266
 21
897.739436671
 31
0.0
  0
ELLIPSE
  5
246
330
1F
100
AcDbEntity
  8
0
  6
Continuous
 62
     7
370
    15
100
AcDbEllipse
 10
305.0205645968
 20
897.512514773
 30
0.0
 11
19.0
 21
0.0
 31
0.0
210
0.0
220
0.0
230
1.0
 40
0.0174550649
 41
3.141592653589786
 42
3.90260540781468
  0
ELLIPSE
  5
247
330
1F
100
AcDbEntity
  8
0
  6
Continuous
 62
     7
370
    15
100
AcDbEllipse
 10
347.0205645968
 20
898.2107173701
 30
0.0
 11
77.0
 21
0.0
 31
0.0
210
0.0
220
0.0
230
1.0
 40
0.0174550649
 41
3.902605407814896
 42
5.522172552955314
  0
ELLIPSE
  5
248
330
1F
100
AcDbEntity
  8
0
  6
Continuous
 62
     7
370
    15
100
AcDbEllipse
 10
389.0205645968
 20
897.512514773
 30
0.0
 11
19.0
 21
0.0
 31
0.0
210
0.0
220
0.0
230
1.0
 40
0.0174550649
 41
5.522172552955529
 42
6.283185307179586
  0
LINE
  5
249
330
1F
100
AcDbEntity
  8
0
  6
Continuous
 62
     7
370
    15
100
AcDbLine
 10
408.0205655975
 20
897.739436671
 30
0.0
 11
415.1611275358
 21
897.739436671
 31
0.0
  0
LINE
  5
24A
330
1F
100
AcDbEntity
  8
0
  6
Continuous
 62
     7
370
    15
100
AcDbLine
 10
109.8800099773
 20
897.739436671
 30
0.0
 11
143.5205660147
 21
897.739436671
 31
0.0
  0
ELLIPSE
  5
24B
330
1F
100
AcDbEntity
  8
0
  6
Continuous
 62
     7
370
    15
100
AcDbEllipse
 10
154.0205645968
 20
897.3903293185
 30
0.0
 11
10.5
 21
0.0
 31
0.0
210
0.0
220
0.0
230
1.0
 40
0.0174550649
 41
3.141592653589786
 42
6.283185307179586
  0
LINE
  5
24C
330
1F
100
AcDbEntity
  8
0
  6
Continuous
 62
     7
370
    15
100
AcDbLine
 10
164.520563869
 20
897.739436671
 30
0.0
 11
259.0205646904
 21
897.739436671
 31
0.0
  0
ELLIPSE
  5
24D
330
1F
100
AcDbEntity
  8
0
  6
Continuous
 62
     7
370
    15
100
AcDbEllipse
 10
427.6379482341
 20
701.6009256815
 30
0.0
 11
0.0
 21
2.149999999999977
 31
0.0
210
0.0
220
0.0
230
1.0
 40
0.0174550649
 41
0.0
 42
6.283185307179586
  0
LINE
  5
24E
330
1F
100
AcDbEntity
  8
0
  6
Continuous
 62
     7
370
    15
100
AcDbLine
 10
428.6590761823
 20
884.2414880244
 30
0.0
 11
428.6590761823
 21
864.1009220926
 31
0.0
  0
ELLIPSE
  5
24F
330
1F
100
AcDbEntity
  8
0
  6
Continuous
 62
     7
370
    15
100
AcDbEllipse
 10
428.4321536883
 20
845.1009256815
 30
0.0
 11
0.0
 21
19.0
 31
0.0
210
0.0
220
0.0
230
1.0
 40
0.0174550649
 41
0.0
 42
0.7610127542248858
  0
ELLIPSE
  5
250
330
1F
100
AcDbEntity
  8
0
  6
Continuous
 62
     7
370
    15
100
AcDbEllipse
 10
429.1303562855
 20
803.1009256815
 30
0.0
 11
-5.684341886080801E-14
 21
77.0
 31
0.0
210
0.0
220
0.0
230
1.0
 40
0.0174550649
 41
0.7610127542247017
 42
2.380579899365042
  0
ELLIPSE
  5
251
330
1F
100
AcDbEntity
  8
0
  6
Continuous
 62
     7
370
    15
100
AcDbEllipse
 10
428.4321536883
 20
761.1009256815
 30
0.0
 11
0.0
 21
19.00000000000011
 31
0.0
210
0.0
220
0.0
230
1.0
 40
0.0174550649
 41
2.380579899364899
 42
3.141592653589786
  0
LINE
  5
252
330
1F
100
AcDbEntity
  8
0
  6
Continuous
 62
     7
370
    15
100
AcDbLine
 10
428.6590761823
 20
742.100925844
 30
0.0
 11
428.6590761823
 21
608.9603716581
 31
0.0
  0
ELLIPSE
  5
253
330
1F
100
AcDbEntity
  8
0
  6
Continuous
 62
     7
370
    15
100
AcDbEllipse
 10
424.251665638
 20
748.6009256815
 30
0.0
 11
0.0
 21
5.5
 31
0.0
210
0.0
220
0.0
230
1.0
 40
0.0174550649
 41
0.0
 42
1.570796326794897
  0
LINE
  5
254
330
1F
100
AcDbEntity
  8
0
  6
Continuous
 62
     7
370
    15
100
AcDbLine
 10
424.1556621475
 20
654.6009222119
 30
0.0
 11
424.1556621475
 21
748.6009257453
 31
0.0
  0
ELLIPSE
  5
255
330
1F
100
AcDbEntity
  8
0
  6
Continuous
 62
     7
370
    15
100
AcDbEllipse
 10
424.251665638
 20
654.6009256815
 30
0.0
 11
0.0
 21
5.500000000000113
 31
0.0
210
0.0
220
0.0
230
1.0
 40
0.0174550649
 41
1.570796326794897
 42
3.141592653591771
  0
LINE
  5
256
330
1F
100
AcDbEntity
  8
0
  6
Continuous
 62
     7
370
    15
100
AcDbLine
 10
427.4284935875
 20
649.1009259669
 30
0.0
 11
424.2516703291
 21
649.1009259669
 31
0.0
  0
ELLIPSE
  5
257
330
1F
100
AcDbEntity
  8
0
  6
Continuous
 62
     7
370
    15
100
AcDbEllipse
 10
427.428487455
 20
654.6009256815
 30
0.0
 11
0.0
 21
5.500000000000113
 31
0.0
210
0.0
220
0.0
230
1.0
 40
0.0174550649
 41
3.141592653591771
 42
4.71238898038469
  0
LINE
  5
258
330
1F
100
AcDbEntity
  8
0
  6
Continuous
 62
     7
370
    15
100
AcDbLine
 10
427.5244868679
 20
748.6009257453
 30
0.0
 11
427.5244868679
 21
654.6009222119
 31
0.0
  0
ELLIPSE
  5
259
330
1F
100
AcDbEntity
  8
0
  6
Continuous
 62
     7
370
    15
100
AcDbEllipse
 10
427.428487455
 20
748.6009256815
 30
0.0
 11
0.0
 21
5.499999999999886
 31
0.0
210
0.0
220
0.0
230
1.0
 40
0.0174550649
 41
4.71238898038469
 42
6.283185307179586
  0
LINE
  5
25A
330
1F
100
AcDbEntity
  8
0
  6
Continuous
 62
     7
370
    15
100
AcDbLine
 10
424.2516703291
 20
754.1009254827
 30
0.0
 11
427.4284935875
 21
754.1009254827
 31
0.0
  0
ELLIPSE
  5
25B
330
1F
100
AcDbEntity
  8
0
  6
Continuous
 62
     7
370
    15
100
AcDbEllipse
 10
96.6089755053
 20
761.1009256815
 30
0.0
 11
0.0
 21
19.00000000000011
 31
0.0
210
0.0
220
0.0
230
1.0
 40
0.0174550649
 41
3.141592653589786
 42
3.90260540781495
  0
ELLIPSE
  5
25C
330
1F
100
AcDbEntity
  8
0
  6
Continuous
 62
     7
370
    15
100
AcDbEllipse
 10
95.9107729081
 20
803.1009256815
 30
0.0
 11
0.0
 21
76.99999999999989
 31
0.0
210
0.0
220
0.0
230
1.0
 40
0.0174550649
 41
3.902605407814953
 42
5.522172552955256
  0
ELLIPSE
  5
25D
330
1F
100
AcDbEntity
  8
0
  6
Continuous
 62
     7
370
    15
100
AcDbEllipse
 10
96.6089755053
 20
845.1009256815
 30
0.0
 11
0.0
 21
18.99999999999989
 31
0.0
210
0.0
220
0.0
230
1.0
 40
0.0174550649
 41
5.522172552955292
 42
6.283185307179586
  0
LINE
  5
25E
330
1F
100
AcDbEntity
  8
0
  6
Continuous
 62
     7
370
    15
100
AcDbLine
 10
96.3820613308
 20
864.1009220926
 30
0.0
 11
96.3820613308
 21
884.2414880244
 31
0.0
  0
ELLIPSE
  5
25F
330
1F
100
AcDbEntity
  8
0
  6
Continuous
 62
     7
370
    15
100
AcDbEllipse
 10
96.6089755053
 20
624.1009256815
 30
0.0
 11
0.0
 21
19.0
 31
0.0
210
0.0
220
0.0
230
1.0
 40
0.0174550649
 41
3.827454164286435
 42
3.902605407814947
  0
ELLIPSE
  5
260
330
1F
100
AcDbEntity
  8
0
  6
Continuous
 62
     7
370
    15
100
AcDbEllipse
 10
95.9107729081
 20
666.1009256815
 30
0.0
 11
0.0
 21
76.99999999999989
 31
0.0
210
0.0
220
0.0
230
1.0
 40
0.0174550649
 41
3.902605407814953
 42
5.522172552955256
  0
ELLIPSE
  5
261
330
1F
100
AcDbEntity
  8
0
  6
Continuous
 62
     7
370
    15
100
AcDbEllipse
 10
96.6089755053
 20
708.1009256815
 30
0.0
 11
0.0
 21
18.99999999999989
 31
0.0
210
0.0
220
0.0
230
1.0
 40
0.0174550649
 41
5.522172552955212
 42
6.283185307179586
  0
LINE
  5
262
330
1F
100
AcDbEntity
  8
0
  6
Continuous
 62
     7
370
    15
100
AcDbLine
 10
96.3820613308
 20
727.1009257136
 30
0.0
 11
96.3820613308
 21
742.100925844
 31
0.0
  0
ELLIPSE
  5
263
330
1F
100
AcDbEntity
  8
0
  6
Continuous
 62
     7
370
    15
100
AcDbEllipse
 10
347.0205645968
 20
594.9911339928
 30
0.0
 11
77.0
 21
0.0
 31
0.0
210
0.0
220
0.0
230
1.0
 40
0.0174550649
 41
0.7610127542246626
 42
2.380579899365135
  0
ELLIPSE
  5
264
330
1F
100
AcDbEntity
  8
0
  6
Continuous
 62
     7
370
    15
100
AcDbEllipse
 10
305.0205645968
 20
595.68933659
 30
0.0
 11
18.99999999999994
 21
0.0
 31
0.0
210
0.0
220
0.0
230
1.0
 40
0.0174550649
 41
2.380579899364916
 42
3.141592653589786
  0
LINE
  5
265
330
1F
100
AcDbEntity
  8
0
  6
Continuous
 62
     7
370
    15
100
AcDbLine
 10
286.0205642266
 20
595.4624230115
 30
0.0
 11
275.0205642862
 21
595.4624230115
 31
0.0
  0
ELLIPSE
  5
266
330
1F
100
AcDbEntity
  8
0
  6
Continuous
 62
     7
370
    15
100
AcDbEllipse
 10
267.0205645968
 20
595.6631539926
 30
0.0
 11
7.999999999999943
 21
0.0
 31
0.0
210
0.0
220
0.0
230
1.0
 40
0.0174550649
 41
0.0
 42
1.570796326794897
  0
ELLIPSE
  5
267
330
1F
100
AcDbEntity
  8
0
  6
Continuous
 62
     7
370
    15
100
AcDbEllipse
 10
267.0205645968
 20
595.6631539926
 30
0.0
 11
8.0
 21
0.0
 31
0.0
210
0.0
220
0.0
230
1.0
 40
0.0174550649
 41
1.570796326794897
 42
3.141592653589786
  0
LINE
  5
268
330
1F
100
AcDbEntity
  8
0
  6
Continuous
 62
     7
370
    15
100
AcDbLine
 10
259.0205646904
 20
595.4624230115
 30
0.0
 11
248.0205645172
 21
595.4624230115
 31
0.0
  0
ELLIPSE
  5
269
330
1F
100
AcDbEntity
  8
0
  6
Continuous
 62
     7
370
    15
100
AcDbEllipse
 10
229.0205645968
 20
595.68933659
 30
0.0
 11
19.00000000000003
 21
0.0
 31
0.0
210
0.0
220
0.0
230
1.0
 40
0.0174550649
 41
0.0
 42
0.7610127542248845
  0
ELLIPSE
  5
26A
330
1F
100
AcDbEntity
  8
0
  6
Continuous
 62
     7
370
    15
100
AcDbEllipse
 10
187.0205645968
 20
594.9911339928
 30
0.0
 11
76.99999999999997
 21
0.0
 31
0.0
210
0.0
220
0.0
230
1.0
 40
0.0174550649
 41
0.7610127542246623
 42
2.380579899365135
  0
ELLIPSE
  5
26B
330
1F
100
AcDbEntity
  8
0
  6
Continuous
 62
     7
370
    15
100
AcDbEllipse
 10
145.0205645968
 20
595.68933659
 30
0.0
 11
19.00000000000003
 21
0.0
 31
0.0
210
0.0
220
0.0
230
1.0
 40
0.0174550649
 41
2.380579899364901
 42
3.141592653589786
  0
LINE
  5
26C
330
1F
100
AcDbEntity
  8
0
  6
Continuous
 62
     7
370
    15
100
AcDbLine
 10
126.0205603523
 20
595.4624230115
 30
0.0
 11
109.8800099773
 21
595.4624230115
 31
0.0
  0
LINE
  5
26D
330
1F
100
AcDbEntity
  8
0
  6
Continuous
 62
     7
370
    15
100
AcDbLine
 10
415.1611275358
 20
595.4624230115
 30
0.0
 11
408.0205655975
 21
595.4624230115
 31
0.0
  0
ELLIPSE
  5
26E
330
1F
100
AcDbEntity
  8
0
  6
Continuous
 62
     7
370
    15
100
AcDbEllipse
 10
389.0205645968
 20
595.68933659
 30
0.0
 11
19.0
 21
0.0
 31
0.0
210
0.0
220
0.0
230
1.0
 40
0.0174550649
 41
0.0
 42
0.7610127542248838
  0
ELLIPSE
  5
26F
330
1F
100
AcDbEntity
  8
0
  6
Continuous
 62
     7
370
    15
100
AcDbEllipse
 10
424.4280304708
 20
748.6009256815
 30
0.0
 11
0.0
 21
5.499999999999886
 31
0.0
210
0.0
220
0.0
230
1.0
 40
0.0174550649
 41
4.71238898038469
 42
6.283185307179586
  0
ELLIPSE
  5
270
330
1F
100
AcDbEntity
  8
0
  6
Continuous
 62
     7
370
    15
100
AcDbEllipse
 10
424.4280304708
 20
654.6009256815
 30
0.0
 11
0.0
 21
5.500000000000113
 31
0.0
210
0.0
220
0.0
230
1.0
 40
0.0174550649
 41
3.141592653589786
 42
4.71238898038469
  0
LINE
  5
271
330
1F
100
AcDbEntity
  8
0
  6
Continuous
 62
     7
370
    15
100
AcDbLine
 10
424.5240337534
 20
748.6009257453
 30
0.0
 11
424.5240337534
 21
654.6009222119
 31
0.0
  0
LINE
  5
272
330
1F
100
AcDbEntity
  8
0
  6
Continuous
 62
     7
370
    15
100
AcDbLine
 10
286.0205642266
 20
898.5997850148
 30
0.0
 11
286.0205642266
 21
898.8266998975
 31
0.0
  0
LINE
  5
273
330
1F
100
AcDbEntity
  8
0
  6
Continuous
 62
     7
370
    15
100
AcDbLine
 10
291.0205650462
 20
898.8266998975
 30
0.0
 11
286.0205642266
 21
898.8266998975
 31
0.0
  0
LINE
  5
274
330
1F
100
AcDbEntity
  8
0
  6
Continuous
 62
     7
370
    15
100
AcDbLine
 10
291.0205650462
 20
898.8266998975
 30
0.0
 11
291.0205650462
 21
898.5997850148
 31
0.0
  0
ELLIPSE
  5
275
330
1F
100
AcDbEntity
  8
0
  6
Continuous
 62
     7
370
    15
100
AcDbEllipse
 10
305.0205645968
 20
898.5997900977
 30
0.0
 11
14.0
 21
0.0
 31
0.0
210
0.0
220
0.0
230
1.0
 40
0.0174550649
 41
3.141592653589786
 42
3.902605407814492
  0
ELLIPSE
  5
276
330
1F
100
AcDbEntity
  8
0
  6
Continuous
 62
     7
370
    15
100
AcDbEllipse
 10
347.0205645968
 20
899.2979926948
 30
0.0
 11
72.00000000000006
 21
0.0
 31
0.0
210
0.0
220
0.0
230
1.0
 40
0.0174550649
 41
3.902605407814964
 42
5.522172552955245
  0
ELLIPSE
  5
277
330
1F
100
AcDbEntity
  8
0
  6
Continuous
 62
     7
370
    15
100
AcDbEllipse
 10
389.0205645968
 20
898.5997900977
 30
0.0
 11
14.0
 21
0.0
 31
0.0
210
0.0
220
0.0
230
1.0
 40
0.0174550649
 41
5.522172552955744
 42
6.283185307179586
  0
LINE
  5
278
330
1F
100
AcDbEntity
  8
0
  6
Continuous
 62
     7
370
    15
100
AcDbLine
 10
403.0205703659
 20
898.5997850148
 30
0.0
 11
403.0205703659
 21
898.8266998975
 31
0.0
  0
LINE
  5
279
330
1F
100
AcDbEntity
  8
0
  6
Continuous
 62
     7
370
    15
100
AcDbLine
 10
408.0205655975
 20
898.8266998975
 30
0.0
 11
403.0205703659
 21
898.8266998975
 31
0.0
  0
LINE
  5
27A
330
1F
100
AcDbEntity
  8
0
  6
Continuous
 62
     7
370
    15
100
AcDbLine
 10
408.0205655975
 20
898.8266998975
 30
0.0
 11
408.0205655975
 21
898.5997850148
 31
0.0
  0
ELLIPSE
  5
27B
330
1F
100
AcDbEntity
  8
0
  6
Continuous
 62
     7
370
    15
100
AcDbEllipse
 10
389.0205645968
 20
898.5997900977
 30
0.0
 11
19.0
 21
0.0
 31
0.0
210
0.0
220
0.0
230
1.0
 40
0.0174550649
 41
5.522172552955358
 42
6.283185307179586
  0
ELLIPSE
  5
27C
330
1F
100
AcDbEntity
  8
0
  6
Continuous
 62
     7
370
    15
100
AcDbEllipse
 10
347.0205645968
 20
899.2979926948
 30
0.0
 11
77.0
 21
0.0
 31
0.0
210
0.0
220
0.0
230
1.0
 40
0.0174550649
 41
3.902605407814938
 42
5.522172552955271
  0
ELLIPSE
  5
27D
330
1F
100
AcDbEntity
  8
0
  6
Continuous
 62
     7
370
    15
100
AcDbEllipse
 10
305.0205645968
 20
898.5997900977
 30
0.0
 11
19.0
 21
0.0
 31
0.0
210
0.0
220
0.0
230
1.0
 40
0.0174550649
 41
3.141592653589786
 42
3.902605407814851
  0
LINE
  5
27E
330
1F
100
AcDbEntity
  8
0
  6
Continuous
 62
     7
370
    15
100
AcDbLine
 10
429.7463394088
 20
859.100926861
 30
0.0
 11
429.5194245262
 21
859.100926861
 31
0.0
  0
ELLIPSE
  5
27F
330
1F
100
AcDbEntity
  8
0
  6
Continuous
 62
     7
370
    15
100
AcDbEllipse
 10
429.519429013
 20
845.1009256815
 30
0.0
 11
0.0
 21
13.99999999999989
 31
0.0
210
0.0
220
0.0
230
1.0
 40
0.0174550649
 41
0.0
 42
0.7610127542245092
  0
ELLIPSE
  5
280
330
1F
100
AcDbEntity
  8
0
  6
Continuous
 62
     7
370
    15
100
AcDbEllipse
 10
430.2176316101
 20
803.1009256815
 30
0.0
 11
0.0
 21
71.99999999999989
 31
0.0
210
0.0
220
0.0
230
1.0
 40
0.0174550649
 41
0.7610127542246947
 42
2.380579899365106
  0
ELLIPSE
  5
281
330
1F
100
AcDbEntity
  8
0
  6
Continuous
 62
     7
370
    15
100
AcDbEllipse
 10
429.519429013
 20
761.1009256815
 30
0.0
 11
0.0
 21
14.0
 31
0.0
210
0.0
220
0.0
230
1.0
 40
0.0174550649
 41
2.380579899365282
 42
3.141592653589786
  0
LINE
  5
282
330
1F
100
AcDbEntity
  8
0
  6
Continuous
 62
     7
370
    15
100
AcDbLine
 10
429.5194245262
 20
747.100925674
 30
0.0
 11
429.7463394088
 21
747.100925674
 31
0.0
  0
LINE
  5
283
330
1F
100
AcDbEntity
  8
0
  6
Continuous
 62
     7
370
    15
100
AcDbLine
 10
429.7463394088
 20
742.100925844
 30
0.0
 11
429.7463394088
 21
747.100925674
 31
0.0
  0
LINE
  5
284
330
1F
100
AcDbEntity
  8
0
  6
Continuous
 62
     7
370
    15
100
AcDbLine
 10
429.7463394088
 20
742.100925844
 30
0.0
 11
429.5194245262
 21
742.100925844
 31
0.0
  0
ELLIPSE
  5
285
330
1F
100
AcDbEntity
  8
0
  6
Continuous
 62
     7
370
    15
100
AcDbEllipse
 10
429.519429013
 20
761.1009256815
 30
0.0
 11
0.0
 21
19.00000000000011
 31
0.0
210
0.0
220
0.0
230
1.0
 40
0.0174550649
 41
2.380579899365117
 42
3.141592653589786
  0
ELLIPSE
  5
286
330
1F
100
AcDbEntity
  8
0
  6
Continuous
 62
     7
370
    15
100
AcDbEllipse
 10
430.2176316101
 20
803.1009256815
 30
0.0
 11
0.0
 21
77.0
 31
0.0
210
0.0
220
0.0
230
1.0
 40
0.0174550649
 41
0.7610127542247239
 42
2.380579899365068
  0
ELLIPSE
  5
287
330
1F
100
AcDbEntity
  8
0
  6
Continuous
 62
     7
370
    15
100
AcDbEllipse
 10
429.519429013
 20
845.1009256815
 30
0.0
 11
0.0
 21
19.0
 31
0.0
210
0.0
220
0.0
230
1.0
 40
0.0174550649
 41
0.0
 42
0.7610127542246762
  0
LINE
  5
288
330
1F
100
AcDbEntity
  8
0
  6
Continuous
 62
     7
370
    15
100
AcDbLine
 10
429.5194245262
 20
864.1009220926
 30
0.0
 11
429.7463394088
 21
864.1009220926
 31
0.0
  0
LINE
  5
289
330
1F
100
AcDbEntity
  8
0
  6
Continuous
 62
     7
370
    15
100
AcDbLine
 10
429.7463394088
 20
859.100926861
 30
0.0
 11
429.7463394088
 21
864.1009220926
 31
0.0
  0
ELLIPSE
  5
28A
330
1F
100
AcDbEntity
  8
0
  6
Continuous
 62
     7
370
    15
100
AcDbEllipse
 10
94.8234975835
 20
803.1009256815
 30
0.0
 11
0.0
 21
76.99999999999989
 31
0.0
210
0.0
220
0.0
230
1.0
 40
0.0174550649
 41
3.902605407814947
 42
5.522172552955261
  0
LINE
  5
28B
330
1F
100
AcDbEntity
  8
0
  6
Continuous
 62
     7
370
    15
100
AcDbLine
 10
95.2947832031
 20
747.100925674
 30
0.0
 11
95.5216980858
 21
747.100925674
 31
0.0
  0
ELLIPSE
  5
28C
330
1F
100
AcDbEntity
  8
0
  6
Continuous
 62
     7
370
    15
100
AcDbEllipse
 10
95.5217001806
 20
761.1009256815
 30
0.0
 11
0.0
 21
14.0
 31
0.0
210
0.0
220
0.0
230
1.0
 40
0.0174550649
 41
3.141592653589786
 42
3.902605407814844
  0
ELLIPSE
  5
28D
330
1F
100
AcDbEntity
  8
0
  6
Continuous
 62
     7
370
    15
100
AcDbEllipse
 10
94.8234975835
 20
803.1009256815
 30
0.0
 11
0.0
 21
71.99999999999989
 31
0.0
210
0.0
220
0.0
230
1.0
 40
0.0174550649
 41
3.902605407814938
 42
5.522172552955285
  0
ELLIPSE
  5
28E
330
1F
100
AcDbEntity
  8
0
  6
Continuous
 62
     7
370
    15
100
AcDbEllipse
 10
95.5217001806
 20
845.1009256815
 30
0.0
 11
0.0
 21
13.99999999999989
 31
0.0
210
0.0
220
0.0
230
1.0
 40
0.0174550649
 41
5.522172552955382
 42
6.283185307179586
  0
LINE
  5
28F
330
1F
100
AcDbEntity
  8
0
  6
Continuous
 62
     7
370
    15
100
AcDbLine
 10
95.5216980858
 20
859.100926861
 30
0.0
 11
95.2947832031
 21
859.100926861
 31
0.0
  0
LINE
  5
290
330
1F
100
AcDbEntity
  8
0
  6
Continuous
 62
     7
370
    15
100
AcDbLine
 10
95.2947832031
 20
859.100926861
 30
0.0
 11
95.2947832031
 21
864.1009220926
 31
0.0
  0
LINE
  5
291
330
1F
100
AcDbEntity
  8
0
  6
Continuous
 62
     7
370
    15
100
AcDbLine
 10
95.2947832031
 20
864.1009220926
 30
0.0
 11
95.5216980858
 21
864.1009220926
 31
0.0
  0
ELLIPSE
  5
292
330
1F
100
AcDbEntity
  8
0
  6
Continuous
 62
     7
370
    15
100
AcDbEllipse
 10
95.5217001806
 20
845.1009256815
 30
0.0
 11
0.0
 21
18.99999999999989
 31
0.0
210
0.0
220
0.0
230
1.0
 40
0.0174550649
 41
5.522172552955297
 42
6.283185307179586
  0
ELLIPSE
  5
293
330
1F
100
AcDbEntity
  8
0
  6
Continuous
 62
     7
370
    15
100
AcDbEllipse
 10
95.5217001806
 20
761.1009256815
 30
0.0
 11
0.0
 21
19.00000000000011
 31
0.0
210
0.0
220
0.0
230
1.0
 40
0.0174550649
 41
3.141592653589786
 42
3.902605407814931
  0
LINE
  5
294
330
1F
100
AcDbEntity
  8
0
  6
Continuous
 62
     7
370
    15
100
AcDbLine
 10
95.5216980858
 20
742.100925844
 30
0.0
 11
95.2947832031
 21
742.100925844
 31
0.0
  0
LINE
  5
295
330
1F
100
AcDbEntity
  8
0
  6
Continuous
 62
     7
370
    15
100
AcDbLine
 10
95.2947832031
 20
742.100925844
 30
0.0
 11
95.2947832031
 21
747.100925674
 31
0.0
  0
ARC
  5
296
330
1F
100
AcDbEntity
  8
0
  6
Continuous
 62
     7
370
    15
100
AcDbCircle
 10
109.7947843366
 20
608.8751454212
 30
0.0
 40
14.50000000000003
100
AcDbArc
 50
180.0
 51
192.0427193113
  0
LINE
  5
297
330
1F
100
AcDbEntity
  8
0
  6
Continuous
 62
     7
370
    15
100
AcDbLine
 10
95.2947832031
 20
608.8751519172
 30
0.0
 11
95.2947832031
 21
610.100921437
 31
0.0
  0
LINE
  5
298
330
1F
100
AcDbEntity
  8
0
  6
Continuous
 62
     7
370
    15
100
AcDbLine
 10
95.2947832031
 20
610.100921437
 30
0.0
 11
95.5216980858
 21
610.100921437
 31
0.0
  0
ELLIPSE
  5
299
330
1F
100
AcDbEntity
  8
0
  6
Continuous
 62
     7
370
    15
100
AcDbEllipse
 10
95.5217001806
 20
624.1009256815
 30
0.0
 11
0.0
 21
13.99999999999989
 31
0.0
210
0.0
220
0.0
230
1.0
 40
0.0174550649
 41
3.141592653589786
 42
3.902605407815014
  0
ELLIPSE
  5
29A
330
1F
100
AcDbEntity
  8
0
  6
Continuous
 62
     7
370
    15
100
AcDbEllipse
 10
94.8234975835
 20
666.1009256815
 30
0.0
 11
0.0
 21
71.99999999999989
 31
0.0
210
0.0
220
0.0
230
1.0
 40
0.0174550649
 41
3.902605407814938
 42
5.522172552955285
  0
ELLIPSE
  5
29B
330
1F
100
AcDbEntity
  8
0
  6
Continuous
 62
     7
370
    15
100
AcDbEllipse
 10
95.5217001806
 20
708.1009256815
 30
0.0
 11
0.0
 21
13.99999999999989
 31
0.0
210
0.0
220
0.0
230
1.0
 40
0.0174550649
 41
5.522172552955195
 42
6.283185307179586
  0
LINE
  5
29C
330
1F
100
AcDbEntity
  8
0
  6
Continuous
 62
     7
370
    15
100
AcDbLine
 10
95.5216980858
 20
722.1009248941
 30
0.0
 11
95.2947832031
 21
722.1009248941
 31
0.0
  0
LINE
  5
29D
330
1F
100
AcDbEntity
  8
0
  6
Continuous
 62
     7
370
    15
100
AcDbLine
 10
95.2947832031
 20
722.1009248941
 30
0.0
 11
95.2947832031
 21
727.1009257136
 31
0.0
  0
LINE
  5
29E
330
1F
100
AcDbEntity
  8
0
  6
Continuous
 62
     7
370
    15
100
AcDbLine
 10
95.2947832031
 20
727.1009257136
 30
0.0
 11
95.5216980858
 21
727.1009257136
 31
0.0
  0
ELLIPSE
  5
29F
330
1F
100
AcDbEntity
  8
0
  6
Continuous
 62
     7
370
    15
100
AcDbEllipse
 10
95.5217001806
 20
708.1009256815
 30
0.0
 11
0.0
 21
18.99999999999989
 31
0.0
210
0.0
220
0.0
230
1.0
 40
0.0174550649
 41
5.522172552955297
 42
6.283185307179586
  0
ELLIPSE
  5
2A0
330
1F
100
AcDbEntity
  8
0
  6
Continuous
 62
     7
370
    15
100
AcDbEllipse
 10
94.8234975835
 20
666.1009256815
 30
0.0
 11
0.0
 21
76.99999999999989
 31
0.0
210
0.0
220
0.0
230
1.0
 40
0.0174550649
 41
3.902605407814947
 42
5.522172552955261
  0
ELLIPSE
  5
2A1
330
1F
100
AcDbEntity
  8
0
  6
Continuous
 62
     7
370
    15
100
AcDbEllipse
 10
95.5217001806
 20
624.1009256815
 30
0.0
 11
0.0
 21
19.0
 31
0.0
210
0.0
220
0.0
230
1.0
 40
0.0174550649
 41
3.423297741955495
 42
3.902605407814928
  0
LINE
  5
2A2
330
1F
100
AcDbEntity
  8
0
  6
Continuous
 62
     7
370
    15
100
AcDbLine
 10
131.0205704851
 20
594.3751448838
 30
0.0
 11
126.0205603523
 21
594.3751448838
 31
0.0
  0
LINE
  5
2A3
330
1F
100
AcDbEntity
  8
0
  6
Continuous
 62
     7
370
    15
100
AcDbLine
 10
126.0205603523
 20
594.3751448838
 30
0.0
 11
126.0205603523
 21
594.6020597665
 31
0.0
  0
ELLIPSE
  5
2A4
330
1F
100
AcDbEntity
  8
0
  6
Continuous
 62
     7
370
    15
100
AcDbEllipse
 10
145.0205645968
 20
594.6020612653
 30
0.0
 11
19.00000000000003
 21
0.0
 31
0.0
210
0.0
220
0.0
230
1.0
 40
0.0174550649
 41
2.380579899364901
 42
3.141592653589786
  0
ELLIPSE
  5
2A5
330
1F
100
AcDbEntity
  8
0
  6
Continuous
 62
     7
370
    15
100
AcDbEllipse
 10
187.0205645968
 20
593.9038586682
 30
0.0
 11
76.99999999999997
 21
0.0
 31
0.0
210
0.0
220
0.0
230
1.0
 40
0.0174550649
 41
0.7610127542246623
 42
2.380579899365068
  0
ELLIPSE
  5
2A6
330
1F
100
AcDbEntity
  8
0
  6
Continuous
 62
     7
370
    15
100
AcDbEllipse
 10
229.0205645968
 20
594.6020612653
 30
0.0
 11
19.00000000000003
 21
0.0
 31
0.0
210
0.0
220
0.0
230
1.0
 40
0.0174550649
 41
0.0
 42
0.7610127542246363
  0
LINE
  5
2A7
330
1F
100
AcDbEntity
  8
0
  6
Continuous
 62
     7
370
    15
100
AcDbLine
 10
248.0205645172
 20
594.6020597665
 30
0.0
 11
248.0205645172
 21
594.3751448838
 31
0.0
  0
LINE
  5
2A8
330
1F
100
AcDbEntity
  8
0
  6
Continuous
 62
     7
370
    15
100
AcDbLine
 10
248.0205645172
 20
594.3751448838
 30
0.0
 11
243.0205646289
 21
594.3751448838
 31
0.0
  0
LINE
  5
2A9
330
1F
100
AcDbEntity
  8
0
  6
Continuous
 62
     7
370
    15
100
AcDbLine
 10
243.0205646289
 20
594.6020597665
 30
0.0
 11
243.0205646289
 21
594.3751448838
 31
0.0
  0
ELLIPSE
  5
2AA
330
1F
100
AcDbEntity
  8
0
  6
Continuous
 62
     7
370
    15
100
AcDbEllipse
 10
229.0205645968
 20
594.6020612653
 30
0.0
 11
14.0
 21
0.0
 31
0.0
210
0.0
220
0.0
230
1.0
 40
0.0174550649
 41
0.0
 42
0.7610127542250795
  0
ELLIPSE
  5
2AB
330
1F
100
AcDbEntity
  8
0
  6
Continuous
 62
     7
370
    15
100
AcDbEllipse
 10
187.0205645968
 20
593.9038586682
 30
0.0
 11
72.0
 21
0.0
 31
0.0
210
0.0
220
0.0
230
1.0
 40
0.0174550649
 41
0.7610127542247505
 42
2.380579899365042
  0
ELLIPSE
  5
2AC
330
1F
100
AcDbEntity
  8
0
  6
Continuous
 62
     7
370
    15
100
AcDbEllipse
 10
145.0205645968
 20
594.6020612653
 30
0.0
 11
14.00000000000003
 21
0.0
 31
0.0
210
0.0
220
0.0
230
1.0
 40
0.0174550649
 41
2.380579899364715
 42
3.141592653589786
  0
LINE
  5
2AD
330
1F
100
AcDbEntity
  8
0
  6
Continuous
 62
     7
370
    15
100
AcDbLine
 10
131.0205704851
 20
594.3751448838
 30
0.0
 11
131.0205704851
 21
594.6020597665
 31
0.0
  0
LINE
  5
2AE
330
1F
100
AcDbEntity
  8
0
  6
Continuous
 62
     7
370
    15
100
AcDbLine
 10
403.0205703659
 20
594.3751448838
 30
0.0
 11
403.0205703659
 21
594.6020597665
 31
0.0
  0
ELLIPSE
  5
2AF
330
1F
100
AcDbEntity
  8
0
  6
Continuous
 62
     7
370
    15
100
AcDbEllipse
 10
389.0205645968
 20
594.6020612653
 30
0.0
 11
14.0
 21
0.0
 31
0.0
210
0.0
220
0.0
230
1.0
 40
0.0174550649
 41
0.0
 42
0.7610127542248444
  0
ELLIPSE
  5
2B0
330
1F
100
AcDbEntity
  8
0
  6
Continuous
 62
     7
370
    15
100
AcDbEllipse
 10
347.0205645968
 20
593.9038586682
 30
0.0
 11
72.00000000000006
 21
0.0
 31
0.0
210
0.0
220
0.0
230
1.0
 40
0.0174550649
 41
0.7610127542247508
 42
2.380579899365042
  0
ELLIPSE
  5
2B1
330
1F
100
AcDbEntity
  8
0
  6
Continuous
 62
     7
370
    15
100
AcDbEllipse
 10
305.0205645968
 20
594.6020612653
 30
0.0
 11
14.0
 21
0.0
 31
0.0
210
0.0
220
0.0
230
1.0
 40
0.0174550649
 41
2.380579899364948
 42
3.141592653589786
  0
LINE
  5
2B2
330
1F
100
AcDbEntity
  8
0
  6
Continuous
 62
     7
370
    15
100
AcDbLine
 10
291.0205650462
 20
594.6020597665
 30
0.0
 11
291.0205650462
 21
594.3751448838
 31
0.0
  0
LINE
  5
2B3
330
1F
100
AcDbEntity
  8
0
  6
Continuous
 62
     7
370
    15
100
AcDbLine
 10
291.0205650462
 20
594.3751448838
 30
0.0
 11
286.0205642266
 21
594.3751448838
 31
0.0
  0
LINE
  5
2B4
330
1F
100
AcDbEntity
  8
0
  6
Continuous
 62
     7
370
    15
100
AcDbLine
 10
286.0205642266
 20
594.3751448838
 30
0.0
 11
286.0205642266
 21
594.6020597665
 31
0.0
  0
ELLIPSE
  5
2B5
330
1F
100
AcDbEntity
  8
0
  6
Continuous
 62
     7
370
    15
100
AcDbEllipse
 10
305.0205645968
 20
594.6020612653
 30
0.0
 11
18.99999999999994
 21
0.0
 31
0.0
210
0.0
220
0.0
230
1.0
 40
0.0174550649
 41
2.380579899364916
 42
3.141592653589786
  0
ELLIPSE
  5
2B6
330
1F
100
AcDbEntity
  8
0
  6
Continuous
 62
     7
370
    15
100
AcDbEllipse
 10
347.0205645968
 20
593.9038586682
 30
0.0
 11
77.0
 21
0.0
 31
0.0
210
0.0
220
0.0
230
1.0
 40
0.0174550649
 41
0.7610127542246626
 42
2.380579899365068
  0
ELLIPSE
  5
2B7
330
1F
100
AcDbEntity
  8
0
  6
Continuous
 62
     7
370
    15
100
AcDbEllipse
 10
389.0205645968
 20
594.6020612653
 30
0.0
 11
19.0
 21
0.0
 31
0.0
210
0.0
220
0.0
230
1.0
 40
0.0174550649
 41
0.0
 42
0.7610127542246355
  0
LINE
  5
2B8
330
1F
100
AcDbEntity
  8
0
  6
Continuous
 62
     7
370
    15
100
AcDbLine
 10
408.0205655975
 20
594.6020597665
 30
0.0
 11
408.0205655975
 21
594.3751448838
 31
0.0
  0
LINE
  5
2B9
330
1F
100
AcDbEntity
  8
0
  6
Continuous
 62
     7
370
    15
100
AcDbLine
 10
408.0205655975
 20
594.3751448838
 30
0.0
 11
403.0205703659
 21
594.3751448838
 31
0.0
  0
LINE
  5
2BA
330
1F
100
AcDbEntity
  8
0
  6
Continuous
 62
     7
370
    15
100
AcDbLine
 10
143.5205660147
 20
897.3903322665
 30
0.0
 11
143.5205660147
 21
898.4776103942
 31
0.0
  0
ELLIPSE
  5
2BB
330
1F
100
AcDbEntity
  8
0
  6
Continuous
 62
     7
370
    15
100
AcDbEllipse
 10
154.0205645968
 20
898.4776046431
 30
0.0
 11
10.5
 21
0.0
 31
0.0
210
0.0
220
0.0
230
1.0
 40
0.0174550649
 41
3.141592653442783
 42
6.283185307179586
  0
LINE
  5
2BC
330
1F
100
AcDbEntity
  8
0
  6
Continuous
 62
     7
370
    15
100
AcDbLine
 10
164.520563869
 20
897.3903322665
 30
0.0
 11
164.520563869
 21
898.4776103942
 31
0.0
  0
LINE
  5
2BD
330
1F
100
AcDbEntity
  8
0
  6
Continuous
 62
     7
370
    15
100
AcDbLine
 10
164.520563869
 20
898.8266998975
 30
0.0
 11
164.520563869
 21
898.4776103942
 31
0.0
  0
LINE
  5
2BE
330
1F
100
AcDbEntity
  8
0
  6
Continuous
 62
     7
370
    15
100
AcDbLine
 10
143.5205660147
 20
898.4776103942
 30
0.0
 11
143.5205660147
 21
898.8266998975
 31
0.0
  0
LINE
  5
2BF
330
1F
100
AcDbEntity
  8
0
  6
Continuous
 62
     7
370
    15
100
AcDbLine
 10
148.5205612464
 20
898.8266998975
 30
0.0
 11
143.5205660147
 21
898.8266998975
 31
0.0
  0
LINE
  5
2C0
330
1F
100
AcDbEntity
  8
0
  6
Continuous
 62
     7
370
    15
100
AcDbLine
 10
148.5205612464
 20
898.4776103942
 30
0.0
 11
148.5205612464
 21
898.8266998975
 31
0.0
  0
ELLIPSE
  5
2C1
330
1F
100
AcDbEntity
  8
0
  6
Continuous
 62
     7
370
    15
100
AcDbEllipse
 10
154.0205645968
 20
898.4776046432
 30
0.0
 11
5.5
 21
0.0
 31
0.0
210
0.0
220
0.0
230
1.0
 40
0.0174550649
 41
3.141592653589786
 42
6.283185307179586
  0
LINE
  5
2C2
330
1F
100
AcDbEntity
  8
0
  6
Continuous
 62
     7
370
    15
100
AcDbLine
 10
159.5205611868
 20
898.8266998975
 30
0.0
 11
159.5205611868
 21
898.4776103942
 31
0.0
  0
LINE
  5
2C3
330
1F
100
AcDbEntity
  8
0
  6
Continuous
 62
     7
370
    15
100
AcDbLine
 10
164.520563869
 20
898.8266998975
 30
0.0
 11
159.5205611868
 21
898.8266998975
 31
0.0
  0
LINE
  5
2C4
330
1F
100
AcDbEntity
  8
0
  6
Continuous
 62
     7
370
    15
100
AcDbLine
 10
286.0205642266
 20
898.5997850148
 30
0.0
 11
286.0205642266
 21
897.5125217883
 31
0.0
  0
LINE
  5
2C5
330
1F
100
AcDbEntity
  8
0
  6
Continuous
 62
     7
370
    15
100
AcDbLine
 10
408.0205655975
 20
898.5997850148
 30
0.0
 11
408.0205655975
 21
897.5125217883
 31
0.0
  0
LINE
  5
2C6
330
1F
100
AcDbEntity
  8
0
  6
Continuous
 62
     7
370
    15
100
AcDbLine
 10
428.4321463985
 20
864.1009220926
 30
0.0
 11
429.5194245262
 21
864.1009220926
 31
0.0
  0
LINE
  5
2C7
330
1F
100
AcDbEntity
  8
0
  6
Continuous
 62
     7
370
    15
100
AcDbLine
 10
96.6089762134
 20
864.1009220926
 30
0.0
 11
95.5216980858
 21
864.1009220926
 31
0.0
  0
LINE
  5
2C8
330
1F
100
AcDbEntity
  8
0
  6
Continuous
 62
     7
370
    15
100
AcDbLine
 10
428.4321463985
 20
742.100925844
 30
0.0
 11
429.5194245262
 21
742.100925844
 31
0.0
  0
LINE
  5
2C9
330
1F
100
AcDbEntity
  8
0
  6
Continuous
 62
     7
370
    15
100
AcDbLine
 10
96.6089762134
 20
742.100925844
 30
0.0
 11
95.5216980858
 21
742.100925844
 31
0.0
  0
LINE
  5
2CA
330
1F
100
AcDbEntity
  8
0
  6
Continuous
 62
     7
370
    15
100
AcDbLine
 10
95.5216980858
 20
727.1009257136
 30
0.0
 11
96.6089762134
 21
727.1009257136
 31
0.0
  0
LINE
  5
2CB
330
1F
100
AcDbEntity
  8
0
  6
Continuous
 62
     7
370
    15
100
AcDbLine
 10
408.0205655975
 20
595.6893378942
 30
0.0
 11
408.0205655975
 21
594.6020597665
 31
0.0
  0
LINE
  5
2CC
330
1F
100
AcDbEntity
  8
0
  6
Continuous
 62
     7
370
    15
100
AcDbLine
 10
248.0205645172
 20
595.6893378942
 30
0.0
 11
248.0205645172
 21
594.6020597665
 31
0.0
  0
LINE
  5
2CD
330
1F
100
AcDbEntity
  8
0
  6
Continuous
 62
     7
370
    15
100
AcDbLine
 10
95.7945979519
 20
605.1009262054
 30
0.0
 11
97.2422457618
 21
605.1009262054
 31
0.0
  0
SPLINE
  5
2CE
330
1F
100
AcDbEntity
  8
0
  6
Continuous
 62
     7
370
    15
100
AcDbSpline
210
0.0
220
0.0
230
1.0
 70
     8
 71
     3
 72
     9
 73
     5
 74
     0
 42
0.00000001
 43
0.00000001
 40
0.0
 40
0.0
 40
0.0
 40
0.0
 40
0.4947668272337774
 40
0.9999999999999999
 40
0.9999999999999999
 40
0.9999999999999999
 40
0.9999999999999999
 10
95.79459795186409
 20
605.1009262053644
 30
0.0
 10
95.78514333370316
 20
605.1320268165058
 30
0.0
 10
95.76603409347015
 20
605.194885944138
 30
0.0
 10
95.66495837566342
 20
605.630016284526
 30
0.0
 10
95.6138915700663
 20
605.8498585669672
 30
0.0
  0
LINE
  5
2CF
330
1F
100
AcDbEntity
  8
0
  6
Continuous
 62
     7
370
    15
100
AcDbLine
 10
126.0205603523
 20
595.6893378942
 30
0.0
 11
126.0205603523
 21
594.6020597665
 31
0.0
  0
LINE
  5
2D0
330
1F
100
AcDbEntity
  8
0
  6
Continuous
 62
     7
370
    15
100
AcDbLine
 10
286.0205642266
 20
595.6893378942
 30
0.0
 11
286.0205642266
 21
594.6020597665
 31
0.0
  0
ELLIPSE
  5
2D1
330
1F
100
AcDbEntity
  8
0
  6
Continuous
 62
     7
370
    15
100
AcDbEllipse
 10
267.0205645968
 20
898.6259726951
 30
0.0
 11
7.999999999999943
 21
0.0
 31
0.0
210
0.0
220
0.0
230
1.0
 40
0.0174550649
 41
4.71238898038469
 42
6.283185307179586
  0
LINE
  5
2D2
330
1F
100
AcDbEntity
  8
0
  6
Continuous
 62
     7
370
    15
100
AcDbLine
 10
275.0205642862
 20
898.6259663551
 30
0.0
 11
275.0205642862
 21
897.5387031285
 31
0.0
  0
LINE
  5
2D3
330
1F
100
AcDbEntity
  8
0
  6
Continuous
 62
     7
370
    15
100
AcDbLine
 10
259.0205646904
 20
897.5387031285
 30
0.0
 11
259.0205646904
 21
898.6259663551
 31
0.0
  0
ELLIPSE
  5
2D4
330
1F
100
AcDbEntity
  8
0
  6
Continuous
 62
     7
370
    15
100
AcDbEllipse
 10
267.0205645968
 20
898.6259726951
 30
0.0
 11
8.0
 21
0.0
 31
0.0
210
0.0
220
0.0
230
1.0
 40
0.0174550649
 41
3.141592653589786
 42
4.71238898038469
  0
ELLIPSE
  5
2D5
330
1F
100
AcDbEntity
  8
0
  6
Continuous
 62
     7
370
    15
100
AcDbEllipse
 10
267.0205645968
 20
898.6259726951
 30
0.0
 11
3.0
 21
0.0
 31
0.0
210
0.0
220
0.0
230
1.0
 40
0.0174550649
 41
3.141592653589786
 42
6.283185307179586
  0
LINE
  5
2D6
330
1F
100
AcDbEntity
  8
0
  6
Continuous
 62
     7
370
    15
100
AcDbLine
 10
270.020564398
 20
898.8266998975
 30
0.0
 11
270.020564398
 21
898.6259663551
 31
0.0
  0
LINE
  5
2D7
330
1F
100
AcDbEntity
  8
0
  6
Continuous
 62
     7
370
    15
100
AcDbLine
 10
275.0205642862
 20
898.8266998975
 30
0.0
 11
270.020564398
 21
898.8266998975
 31
0.0
  0
LINE
  5
2D8
330
1F
100
AcDbEntity
  8
0
  6
Continuous
 62
     7
370
    15
100
AcDbLine
 10
275.0205642862
 20
898.8266998975
 30
0.0
 11
275.0205642862
 21
898.6259663551
 31
0.0
  0
LINE
  5
2D9
330
1F
100
AcDbEntity
  8
0
  6
Continuous
 62
     7
370
    15
100
AcDbLine
 10
259.0205646904
 20
898.6259663551
 30
0.0
 11
259.0205646904
 21
898.8266998975
 31
0.0
  0
LINE
  5
2DA
330
1F
100
AcDbEntity
  8
0
  6
Continuous
 62
     7
370
    15
100
AcDbLine
 10
264.0205645786
 20
898.8266998975
 30
0.0
 11
259.0205646904
 21
898.8266998975
 31
0.0
  0
LINE
  5
2DB
330
1F
100
AcDbEntity
  8
0
  6
Continuous
 62
     7
370
    15
100
AcDbLine
 10
264.0205645786
 20
898.6259663551
 30
0.0
 11
264.0205645786
 21
898.8266998975
 31
0.0
  0
LINE
  5
2DC
330
1F
100
AcDbEntity
  8
0
  6
Continuous
 62
     7
370
    15
100
AcDbLine
 10
275.0205642862
 20
594.5758784263
 30
0.0
 11
275.0205642862
 21
594.3751448838
 31
0.0
  0
LINE
  5
2DD
330
1F
100
AcDbEntity
  8
0
  6
Continuous
 62
     7
370
    15
100
AcDbLine
 10
275.0205642862
 20
594.3751448838
 30
0.0
 11
272.5554745031
 21
594.3751448838
 31
0.0
  0
LINE
  5
2DE
330
1F
100
AcDbEntity
  8
0
  6
Continuous
 62
     7
370
    15
100
AcDbLine
 10
270.020564398
 20
594.5758784263
 30
0.0
 11
270.020564398
 21
594.44541876
 31
0.0
  0
ELLIPSE
  5
2DF
330
1F
100
AcDbEntity
  8
0
  6
Continuous
 62
     7
370
    15
100
AcDbEllipse
 10
267.0205645968
 20
594.5758786679
 30
0.0
 11
3.0
 21
0.0
 31
0.0
210
0.0
220
0.0
230
1.0
 40
0.0174550649
 41
0.0
 42
3.141592653589786
  0
LINE
  5
2E0
330
1F
100
AcDbEntity
  8
0
  6
Continuous
 62
     7
370
    15
100
AcDbLine
 10
264.0205645786
 20
594.44541876
 30
0.0
 11
264.0205645786
 21
594.5758784263
 31
0.0
  0
LINE
  5
2E1
330
1F
100
AcDbEntity
  8
0
  6
Continuous
 62
     7
370
    15
100
AcDbLine
 10
261.5554746792
 20
594.3751448838
 30
0.0
 11
259.0205646904
 21
594.3751448838
 31
0.0
  0
LINE
  5
2E2
330
1F
100
AcDbEntity
  8
0
  6
Continuous
 62
     7
370
    15
100
AcDbLine
 10
259.0205646904
 20
594.3751448838
 30
0.0
 11
259.0205646904
 21
594.5758784263
 31
0.0
  0
ELLIPSE
  5
2E3
330
1F
100
AcDbEntity
  8
0
  6
Continuous
 62
     7
370
    15
100
AcDbEllipse
 10
267.0205645968
 20
594.5758786679
 30
0.0
 11
8.0
 21
0.0
 31
0.0
210
0.0
220
0.0
230
1.0
 40
0.0174550649
 41
1.570796326794897
 42
3.141592653589786
  0
ELLIPSE
  5
2E4
330
1F
100
AcDbEntity
  8
0
  6
Continuous
 62
     7
370
    15
100
AcDbEllipse
 10
267.0205645968
 20
594.5758786679
 30
0.0
 11
7.999999999999943
 21
0.0
 31
0.0
210
0.0
220
0.0
230
1.0
 40
0.0174550649
 41
0.0
 42
1.570796326794897
  0
LINE
  5
2E5
330
1F
100
AcDbEntity
  8
0
  6
Continuous
 62
     7
370
    15
100
AcDbLine
 10
275.0205642862
 20
595.663156554
 30
0.0
 11
275.0205642862
 21
594.5758784263
 31
0.0
  0
LINE
  5
2E6
330
1F
100
AcDbEntity
  8
0
  6
Continuous
 62
     7
370
    15
100
AcDbLine
 10
259.0205646904
 20
594.5758784263
 30
0.0
 11
259.0205646904
 21
595.663156554
 31
0.0
  0
LINE
  5
2E7
330
1F
100
AcDbEntity
  8
0
  6
Continuous
 62
     7
370
    15
100
AcDbLine
 10
408.0205655975
 20
898.8266998975
 30
0.0
 11
415.2463472767
 21
898.8266998975
 31
0.0
  0
ARC
  5
2E8
330
1F
100
AcDbEntity
  8
0
  6
Continuous
 62
     7
370
    15
100
AcDbCircle
 10
415.246344857
 20
884.3267059417
 30
0.0
 40
14.50000000000011
100
AcDbArc
 50
0.0
 51
90.0
  0
LINE
  5
2E9
330
1F
100
AcDbEntity
  8
0
  6
Continuous
 62
     7
370
    15
100
AcDbLine
 10
429.7463394088
 20
884.3267077653
 30
0.0
 11
429.7463394088
 21
864.1009220926
 31
0.0
  0
LINE
  5
2EA
330
1F
100
AcDbEntity
  8
0
  6
Continuous
 62
     7
370
    15
100
AcDbLine
 10
275.0205642862
 20
898.8266998975
 30
0.0
 11
286.0205642266
 21
898.8266998975
 31
0.0
  0
LINE
  5
2EB
330
1F
100
AcDbEntity
  8
0
  6
Continuous
 62
     7
370
    15
100
AcDbLine
 10
164.520563869
 20
898.8266998975
 30
0.0
 11
259.0205646904
 21
898.8266998975
 31
0.0
  0
LINE
  5
2EC
330
1F
100
AcDbEntity
  8
0
  6
Continuous
 62
     7
370
    15
100
AcDbLine
 10
95.2947832031
 20
864.1009220926
 30
0.0
 11
95.2947832031
 21
884.3267077653
 31
0.0
  0
ARC
  5
2ED
330
1F
100
AcDbEntity
  8
0
  6
Continuous
 62
     7
370
    15
100
AcDbCircle
 10
109.7947843366
 20
884.3267059417
 30
0.0
 40
14.5
100
AcDbArc
 50
90.0
 51
180.0
  0
LINE
  5
2EE
330
1F
100
AcDbEntity
  8
0
  6
Continuous
 62
     7
370
    15
100
AcDbLine
 10
109.7947902364
 20
898.8266998975
 30
0.0
 11
143.5205660147
 21
898.8266998975
 31
0.0
  0
LINE
  5
2EF
330
1F
100
AcDbEntity
  8
0
  6
Continuous
 62
     7
370
    15
100
AcDbLine
 10
95.2947832031
 20
727.1009257136
 30
0.0
 11
95.2947832031
 21
742.100925844
 31
0.0
  0
ARC
  5
2F0
330
1F
100
AcDbEntity
  8
0
  6
Continuous
 62
     7
370
    15
100
AcDbCircle
 10
415.246344857
 20
608.8751454212
 30
0.0
 40
14.5
100
AcDbArc
 50
270.0
 51
0.0
  0
LINE
  5
2F1
330
1F
100
AcDbEntity
  8
0
  6
Continuous
 62
     7
370
    15
100
AcDbLine
 10
415.2463472767
 20
594.3751448838
 30
0.0
 11
408.0205655975
 21
594.3751448838
 31
0.0
  0
LINE
  5
2F2
330
1F
100
AcDbEntity
  8
0
  6
Continuous
 62
     7
370
    15
100
AcDbLine
 10
429.7463394088
 20
742.100925844
 30
0.0
 11
429.7463394088
 21
608.8751519172
 31
0.0
  0
LINE
  5
2F3
330
1F
100
AcDbEntity
  8
0
  6
Continuous
 62
     7
370
    15
100
AcDbLine
 10
126.0205603523
 20
594.3751448838
 30
0.0
 11
109.7947902364
 21
594.3751448838
 31
0.0
  0
ARC
  5
2F4
330
1F
100
AcDbEntity
  8
0
  6
Continuous
 62
     7
370
    15
100
AcDbCircle
 10
109.7947843366
 20
608.8751454212
 30
0.0
 40
14.50000000000011
100
AcDbArc
 50
195.0873307316
 51
270.0
  0
LINE
  5
2F5
330
1F
100
AcDbEntity
  8
0
  6
Continuous
 62
     7
370
    15
100
AcDbLine
 10
286.0205642266
 20
594.3751448838
 30
0.0
 11
275.0205642862
 21
594.3751448838
 31
0.0
  0
LINE
  5
2F6
330
1F
100
AcDbEntity
  8
0
  6
Continuous
 62
     7
370
    15
100
AcDbLine
 10
259.0205646904
 20
594.3751448838
 30
0.0
 11
248.0205645172
 21
594.3751448838
 31
0.0
  0
ELLIPSE
  5
2F7
330
1F
100
AcDbEntity
  8
0
  6
Continuous
 62
     7
370
    15
100
AcDbEllipse
 10
416.5534182981
 20
885.6337793828
 30
0.0
 11
9.548849553789351
 21
9.548849553789408
 31
0.0
210
0.0
220
0.0
230
1.0
 40
0.9996954599
 41
5.783086564672359
 42
7.06843117732945
  0
ELLIPSE
  5
2F8
330
1F
100
AcDbEntity
  8
0
  6
Continuous
 62
     7
370
    15
100
AcDbEllipse
 10
416.1891960489
 20
885.2695571336
 30
0.0
 11
12.69708199822657
 21
5.389591547595501
 31
0.0
210
0.0
220
0.0
230
0.9999999999999996
 40
0.9751955544
 41
5.95911837059302
 42
6.186279298058155
  0
ELLIPSE
  5
2F9
330
1F
100
AcDbEntity
  8
0
  6
Continuous
 62
     7
370
    15
100
AcDbEllipse
 10
416.5534182981
 20
885.6337793828
 30
0.0
 11
9.548849553789351
 21
9.548849553789408
 31
0.0
210
0.0
220
0.0
230
1.0
 40
0.9996954599
 41
5.497939437029737
 42
5.557072379998405
  0
ELLIPSE
  5
2FA
330
1F
100
AcDbEntity
  8
0
  6
Continuous
 62
     7
370
    15
100
AcDbEllipse
 10
108.5575311552
 20
885.6337793828
 30
0.0
 11
-9.548849553789339
 21
9.54884955378941
 31
0.0
210
0.0
220
0.0
230
1.0
 40
0.9996954599
 41
0.7261129271811956
 42
0.7852458701498716
  0
ELLIPSE
  5
2FB
330
1F
100
AcDbEntity
  8
0
  6
Continuous
 62
     7
370
    15
100
AcDbEllipse
 10
108.9217534044
 20
885.2695571336
 30
0.0
 11
12.69708199822658
 21
-5.389591547595501
 31
0.0
210
0.0
220
0.0
230
0.9999999999999998
 40
0.9751955544
 41
3.238498662711236
 42
3.465659590176386
  0
ELLIPSE
  5
2FC
330
1F
100
AcDbEntity
  8
0
  6
Continuous
 62
     7
370
    15
100
AcDbEllipse
 10
108.5575311552
 20
885.6337793828
 30
0.0
 11
-9.548849553789339
 21
9.54884955378941
 31
0.0
210
0.0
220
0.0
230
1.0
 40
0.9996954599
 41
5.497939437029735
 42
6.783284049686825
  0
ELLIPSE
  5
2FD
330
1F
100
AcDbEntity
  8
0
  6
Continuous
 62
     7
370
    15
100
AcDbEllipse
 10
416.5534182981
 20
607.6378922399
 30
0.0
 11
9.54884955378941
 21
-9.548849553789296
 31
0.0
210
0.0
220
0.0
230
0.9999999999999998
 40
0.9996954599
 41
0.7261129271811864
 42
0.7852458701498622
  0
ELLIPSE
  5
2FE
330
1F
100
AcDbEntity
  8
0
  6
Continuous
 62
     7
370
    15
100
AcDbEllipse
 10
416.1891960489
 20
608.0021144891
 30
0.0
 11
12.69708199822662
 21
-5.389591547595387
 31
0.0
210
0.0
220
0.0
230
1.0
 40
0.9751955544
 41
0.0969060091214251
 42
0.3240669365865698
  0
ELLIPSE
  5
2FF
330
1F
100
AcDbEntity
  8
0
  6
Continuous
 62
     7
370
    15
100
AcDbEllipse
 10
416.5534182981
 20
607.6378922399
 30
0.0
 11
9.54884955378941
 21
-9.548849553789296
 31
0.0
210
0.0
220
0.0
230
0.9999999999999998
 40
0.9996954599
 41
5.49793943702973
 42
6.783284049686818
  0
ELLIPSE
  5
300
330
1F
100
AcDbEntity
  8
0
  6
Continuous
 62
     7
370
    15
100
AcDbEllipse
 10
108.5575311552
 20
607.6378922399
 30
0.0
 11
-9.548849553789339
 21
-9.548849553789294
 31
0.0
210
0.0
220
0.0
230
1.0
 40
0.9996954599
 41
5.78308656467236
 42
7.068431177329455
  0
ELLIPSE
  5
301
330
1F
100
AcDbEntity
  8
0
  6
Continuous
 62
     7
370
    15
100
AcDbEllipse
 10
108.9217534044
 20
608.0021144891
 30
0.0
 11
12.69708199822658
 21
5.389591547595501
 31
0.0
210
0.0
220
0.0
230
0.9999999999999998
 40
0.9751955544
 41
2.817525717003214
 42
3.044686644468365
  0
ELLIPSE
  5
302
330
1F
100
AcDbEntity
  8
0
  6
Continuous
 62
     7
370
    15
100
AcDbEllipse
 10
108.5575311552
 20
607.6378922399
 30
0.0
 11
-9.548849553789339
 21
-9.548849553789294
 31
0.0
210
0.0
220
0.0
230
1.0
 40
0.9996954599
 41
5.497939437029729
 42
5.557072379998405
  0
LINE
  5
303
330
1F
100
AcDbEntity
  8
0
  6
Continuous
 62
     7
370
    15
100
AcDbLine
 10
416.5575302524
 20
899.1358393876
 30
0.0
 11
272.5554745031
 21
899.1358393876
 31
0.0
  0
LINE
  5
304
330
1F
100
AcDbEntity
  8
0
  6
Continuous
 62
     7
370
    15
100
AcDbLine
 10
261.5554746792
 20
899.1358393876
 30
0.0
 11
108.5534192009
 21
899.1358393876
 31
0.0
  0
LINE
  5
305
330
1F
100
AcDbEntity
  8
0
  6
Continuous
 62
     7
370
    15
100
AcDbLine
 10
95.0554705543
 20
612.1358389108
 30
0.0
 11
95.0554705543
 21
607.6337808816
 31
0.0
  0
LINE
  5
306
330
1F
100
AcDbEntity
  8
0
  6
Continuous
 62
     7
370
    15
100
AcDbLine
 10
95.4918510599
 20
749.1358357555
 30
0.0
 11
95.4918510599
 21
747.100925674
 31
0.0
  0
LINE
  5
307
330
1F
100
AcDbEntity
  8
0
  6
Continuous
 62
     7
370
    15
100
AcDbLine
 10
95.4918510599
 20
722.1009248941
 30
0.0
 11
95.4918510599
 21
720.1358361243
 31
0.0
  0
LINE
  5
308
330
1F
100
AcDbEntity
  8
0
  6
Continuous
 62
     7
370
    15
100
AcDbLine
 10
95.3993446512
 20
859.100926861
 30
0.0
 11
95.3993446512
 21
857.1358362286
 31
0.0
  0
LINE
  5
309
330
1F
100
AcDbEntity
  8
0
  6
Continuous
 62
     7
370
    15
100
AcDbLine
 10
95.0554705543
 20
885.6378907411
 30
0.0
 11
95.0554705543
 21
873.1358314006
 31
0.0
  0
LINE
  5
30A
330
1F
100
AcDbEntity
  8
0
  6
Continuous
 62
     7
370
    15
100
AcDbLine
 10
430.055478899
 20
873.1358314006
 30
0.0
 11
430.055478899
 21
885.6378907411
 31
0.0
  0
ELLIPSE
  5
30B
330
1F
100
AcDbEntity
  8
0
  6
Continuous
 62
     7
370
    15
100
AcDbEllipse
 10
429.7814302073
 20
869.1358358113
 30
0.0
 11
0.0
 21
4.0
 31
0.0
210
0.0
220
0.0
230
1.0
 40
0.0174550649
 41
0.0
 42
0.5264990354483735
  0
LINE
  5
30C
330
1F
100
AcDbEntity
  8
0
  6
Continuous
 62
     7
370
    15
100
AcDbLine
 10
429.7116048021
 20
859.100926861
 30
0.0
 11
429.7116048021
 21
857.1358362286
 31
0.0
  0
LINE
  5
30D
330
1F
100
AcDbEntity
  8
0
  6
Continuous
 62
     7
370
    15
100
AcDbLine
 10
429.6190983934
 20
747.100925674
 30
0.0
 11
429.6190983934
 21
749.1358357555
 31
0.0
  0
LINE
  5
30E
330
1F
100
AcDbEntity
  8
0
  6
Continuous
 62
     7
370
    15
100
AcDbLine
 10
430.055478899
 20
656.1358386724
 30
0.0
 11
430.055478899
 21
694.6358347385
 31
0.0
  0
ELLIPSE
  5
30F
330
1F
100
AcDbEntity
  8
0
  6
Continuous
 62
     7
370
    15
100
AcDbEllipse
 10
429.7814302073
 20
652.1358358113
 30
0.0
 11
0.0
 21
4.0
 31
0.0
210
0.0
220
0.0
230
1.0
 40
0.0174550649
 41
0.0
 42
0.5264990354485448
  0
ELLIPSE
  5
310
330
1F
100
AcDbEntity
  8
0
  6
Continuous
 62
     7
370
    15
100
AcDbEllipse
 10
429.7814302073
 20
624.1358358113
 30
0.0
 11
0.0
 21
4.0
 31
0.0
210
0.0
220
0.0
230
1.0
 40
0.0174550649
 41
2.615093618141225
 42
3.141592653589786
  0
LINE
  5
311
330
1F
100
AcDbEntity
  8
0
  6
Continuous
 62
     7
370
    15
100
AcDbLine
 10
430.055478899
 20
607.6337808816
 30
0.0
 11
430.055478899
 21
620.1358402221
 31
0.0
  0
LINE
  5
312
330
1F
100
AcDbEntity
  8
0
  6
Continuous
 62
     7
370
    15
100
AcDbLine
 10
108.5534192009
 20
594.1358322351
 30
0.0
 11
133.0554730577
 21
594.1358322351
 31
0.0
  0
LINE
  5
313
330
1F
100
AcDbEntity
  8
0
  6
Continuous
 62
     7
370
    15
100
AcDbLine
 10
241.0554739965
 20
594.1358322351
 30
0.0
 11
261.5554746792
 21
594.1358322351
 31
0.0
  0
LINE
  5
314
330
1F
100
AcDbEntity
  8
0
  6
Continuous
 62
     7
370
    15
100
AcDbLine
 10
272.5554745031
 20
594.1358322351
 30
0.0
 11
293.0554750694
 21
594.1358322351
 31
0.0
  0
LINE
  5
315
330
1F
100
AcDbEntity
  8
0
  6
Continuous
 62
     7
370
    15
100
AcDbLine
 10
401.0554797334
 20
594.1358322351
 30
0.0
 11
416.5575302524
 21
594.1358322351
 31
0.0
  0
LINE
  5
316
330
1F
100
AcDbEntity
  8
0
  6
Continuous
 62
     7
370
    15
100
AcDbLine
 10
94.0554685278
 20
720.1358361243
 30
0.0
 11
94.0554685278
 21
749.1358357555
 31
0.0
  0
LINE
  5
317
330
1F
100
AcDbEntity
  8
0
  6
Continuous
 62
     7
370
    15
100
AcDbLine
 10
431.0554809255
 20
749.1358357555
 30
0.0
 11
431.0554809255
 21
699.6358374207
 31
0.0
  0
LINE
  5
318
330
1F
100
AcDbEntity
  8
0
  6
Continuous
 62
     7
370
    15
100
AcDbLine
 10
429.7463394088
 20
694.6358347385
 30
0.0
 11
431.0554809255
 21
694.6358347385
 31
0.0
  0
LINE
  5
319
330
1F
100
AcDbEntity
  8
0
  6
Continuous
 62
     7
370
    15
100
AcDbLine
 10
431.0554809255
 20
699.6358374207
 30
0.0
 11
431.0554809255
 21
694.6358347385
 31
0.0
  0
LINE
  5
31A
330
1F
100
AcDbEntity
  8
0
  6
Continuous
 62
     7
370
    15
100
AcDbLine
 10
94.0554685278
 20
873.1358314006
 30
0.0
 11
95.2947832031
 21
873.1358314006
 31
0.0
  0
LINE
  5
31B
330
1F
100
AcDbEntity
  8
0
  6
Continuous
 62
     7
370
    15
100
AcDbLine
 10
94.0554685278
 20
869.1358381955
 30
0.0
 11
94.0554685278
 21
873.1358314006
 31
0.0
  0
LINE
  5
31C
330
1F
100
AcDbEntity
  8
0
  6
Continuous
 62
     7
370
    15
100
AcDbLine
 10
429.7814316435
 20
873.1358314006
 30
0.0
 11
431.0554809255
 21
873.1358314006
 31
0.0
  0
LINE
  5
31D
330
1F
100
AcDbEntity
  8
0
  6
Continuous
 62
     7
370
    15
100
AcDbLine
 10
431.0554809255
 20
873.1358314006
 30
0.0
 11
431.0554809255
 21
869.1358381955
 31
0.0
  0
LINE
  5
31E
330
1F
100
AcDbEntity
  8
0
  6
Continuous
 62
     7
370
    15
100
AcDbLine
 10
431.0554809255
 20
857.1358362286
 30
0.0
 11
431.0554809255
 21
869.1358381955
 31
0.0
  0
LINE
  5
31F
330
1F
100
AcDbEntity
  8
0
  6
Continuous
 62
     7
370
    15
100
AcDbLine
 10
94.0554685278
 20
857.1358362286
 30
0.0
 11
94.0554685278
 21
869.1358381955
 31
0.0
  0
LINE
  5
320
330
1F
100
AcDbEntity
  8
0
  6
Continuous
 62
     7
370
    15
100
AcDbLine
 10
429.7814316435
 20
656.1358386724
 30
0.0
 11
431.0554809255
 21
656.1358386724
 31
0.0
  0
LINE
  5
321
330
1F
100
AcDbEntity
  8
0
  6
Continuous
 62
     7
370
    15
100
AcDbLine
 10
431.0554809255
 20
656.1358386724
 30
0.0
 11
431.0554809255
 21
652.1358380167
 31
0.0
  0
LINE
  5
322
330
1F
100
AcDbEntity
  8
0
  6
Continuous
 62
     7
370
    15
100
AcDbLine
 10
431.0554809255
 20
652.1358380167
 30
0.0
 11
431.0554809255
 21
624.1358334272
 31
0.0
  0
LINE
  5
323
330
1F
100
AcDbEntity
  8
0
  6
Continuous
 62
     7
370
    15
100
AcDbLine
 10
431.0554809255
 20
620.1358402221
 30
0.0
 11
429.7814316435
 21
620.1358402221
 31
0.0
  0
LINE
  5
324
330
1F
100
AcDbEntity
  8
0
  6
Continuous
 62
     7
370
    15
100
AcDbLine
 10
431.0554809255
 20
624.1358334272
 30
0.0
 11
431.0554809255
 21
620.1358402221
 31
0.0
  0
LINE
  5
325
330
1F
100
AcDbEntity
  8
0
  6
Continuous
 62
     7
370
    15
100
AcDbLine
 10
95.2119625492
 20
886.4358330218
 30
0.0
 11
93.0554814024
 21
886.4358330218
 31
0.0
  0
LINE
  5
326
330
1F
100
AcDbEntity
  8
0
  6
Continuous
 62
     7
370
    15
100
AcDbLine
 10
93.0554814024
 20
889.4358391015
 30
0.0
 11
93.0554814024
 21
886.4358330218
 31
0.0
  0
LINE
  5
327
330
1F
100
AcDbEntity
  8
0
  6
Continuous
 62
     7
370
    15
100
AcDbLine
 10
95.7757032795
 20
889.4358391015
 30
0.0
 11
93.0554814024
 21
889.4358391015
 31
0.0
  0
LINE
  5
328
330
1F
100
AcDbEntity
  8
0
  6
Continuous
 62
     7
370
    15
100
AcDbLine
 10
432.0554680509
 20
889.4358391015
 30
0.0
 11
432.0554680509
 21
886.4358330218
 31
0.0
  0
LINE
  5
329
330
1F
100
AcDbEntity
  8
0
  6
Continuous
 62
     7
370
    15
100
AcDbLine
 10
429.8989869041
 20
886.4358330218
 30
0.0
 11
432.0554680509
 21
886.4358330218
 31
0.0
  0
LINE
  5
32A
330
1F
100
AcDbEntity
  8
0
  6
Continuous
 62
     7
370
    15
100
AcDbLine
 10
429.3352461738
 20
889.4358391015
 30
0.0
 11
432.0554680509
 21
889.4358391015
 31
0.0
  0
LINE
  5
32B
330
1F
100
AcDbEntity
  8
0
  6
Continuous
 62
     7
370
    15
100
AcDbLine
 10
93.0554814024
 20
603.8358325212
 30
0.0
 11
93.0554814024
 21
606.8358386008
 31
0.0
  0
LINE
  5
32C
330
1F
100
AcDbEntity
  8
0
  6
Continuous
 62
     7
370
    15
100
AcDbLine
 10
95.2119625492
 20
606.8358386008
 30
0.0
 11
93.0554814024
 21
606.8358386008
 31
0.0
  0
LINE
  5
32D
330
1F
100
AcDbEntity
  8
0
  6
Continuous
 62
     7
370
    15
100
AcDbLine
 10
95.7757032795
 20
603.8358325212
 30
0.0
 11
93.0554814024
 21
603.8358325212
 31
0.0
  0
LINE
  5
32E
330
1F
100
AcDbEntity
  8
0
  6
Continuous
 62
     7
370
    15
100
AcDbLine
 10
429.8989869041
 20
606.8358386008
 30
0.0
 11
432.0554680509
 21
606.8358386008
 31
0.0
  0
LINE
  5
32F
330
1F
100
AcDbEntity
  8
0
  6
Continuous
 62
     7
370
    15
100
AcDbLine
 10
432.0554680509
 20
603.8358325212
 30
0.0
 11
432.0554680509
 21
606.8358386008
 31
0.0
  0
LINE
  5
330
330
1F
100
AcDbEntity
  8
0
  6
Continuous
 62
     7
370
    15
100
AcDbLine
 10
429.3352461738
 20
603.8358325212
 30
0.0
 11
432.0554680509
 21
603.8358325212
 31
0.0
  0
ARC
  5
331
330
1F
100
AcDbEntity
  8
0
  6
Continuous
 62
     7
370
    15
100
AcDbCircle
 10
108.5554747267
 20
885.6358358113
 30
0.0
 40
14.49999999999999
100
AcDbArc
 50
90.0
 51
164.807137275
  0
LINE
  5
332
330
1F
100
AcDbEntity
  8
0
  6
Continuous
 62
     7
370
    15
100
AcDbLine
 10
416.5554738922
 20
900.1358414142
 30
0.0
 11
271.4284223823
 21
900.1358414142
 31
0.0
  0
LINE
  5
333
330
1F
100
AcDbEntity
  8
0
  6
Continuous
 62
     7
370
    15
100
AcDbLine
 10
262.6825269019
 20
900.1358414142
 30
0.0
 11
108.5554755611
 21
900.1358414142
 31
0.0
  0
ARC
  5
334
330
1F
100
AcDbEntity
  8
0
  6
Continuous
 62
     7
370
    15
100
AcDbCircle
 10
416.5554747267
 20
885.6358358113
 30
0.0
 40
14.5
100
AcDbArc
 50
15.192862725
 51
90.0
  0
ARC
  5
335
330
1F
100
AcDbEntity
  8
0
  6
Continuous
 62
     7
370
    15
100
AcDbCircle
 10
108.5554747267
 20
885.6358358113
 30
0.0
 40
14.50000000000001
100
AcDbArc
 50
176.8372475908
 51
180.0
  0
LINE
  5
336
330
1F
100
AcDbEntity
  8
0
  6
Continuous
 62
     7
370
    15
100
AcDbLine
 10
94.0554685278
 20
885.6358343808
 30
0.0
 11
94.0554685278
 21
873.1358314006
 31
0.0
  0
ARC
  5
337
330
1F
100
AcDbEntity
  8
0
  6
Continuous
 62
     7
370
    15
100
AcDbCircle
 10
416.5554747267
 20
885.6358358113
 30
0.0
 40
14.50000000000006
100
AcDbArc
 50
0.0
 51
3.1627524092
  0
LINE
  5
338
330
1F
100
AcDbEntity
  8
0
  6
Continuous
 62
     7
370
    15
100
AcDbLine
 10
431.0554809255
 20
873.1358314006
 30
0.0
 11
431.0554809255
 21
885.6358343808
 31
0.0
  0
LINE
  5
339
330
1F
100
AcDbEntity
  8
0
  6
Continuous
 62
     7
370
    15
100
AcDbLine
 10
431.0554809255
 20
656.1358386724
 30
0.0
 11
431.0554809255
 21
694.6358347385
 31
0.0
  0
ARC
  5
33A
330
1F
100
AcDbEntity
  8
0
  6
Continuous
 62
     7
370
    15
100
AcDbCircle
 10
108.5554747267
 20
607.6358358113
 30
0.0
 40
14.49999999999999
100
AcDbArc
 50
180.0
 51
183.1627524092
  0
LINE
  5
33B
330
1F
100
AcDbEntity
  8
0
  6
Continuous
 62
     7
370
    15
100
AcDbLine
 10
94.0554685278
 20
612.1358389108
 30
0.0
 11
94.0554685278
 21
607.6358372419
 31
0.0
  0
ARC
  5
33C
330
1F
100
AcDbEntity
  8
0
  6
Continuous
 62
     7
370
    15
100
AcDbCircle
 10
416.5554747267
 20
607.6358358113
 30
0.0
 40
14.5
100
AcDbArc
 50
356.8372475908
 51
0.0
  0
LINE
  5
33D
330
1F
100
AcDbEntity
  8
0
  6
Continuous
 62
     7
370
    15
100
AcDbLine
 10
431.0554809255
 20
607.6358372419
 30
0.0
 11
431.0554809255
 21
620.1358402221
 31
0.0
  0
LINE
  5
33E
330
1F
100
AcDbEntity
  8
0
  6
Continuous
 62
     7
370
    15
100
AcDbLine
 10
108.5554755611
 20
593.1358302085
 30
0.0
 11
133.0554730577
 21
593.1358302085
 31
0.0
  0
LINE
  5
33F
330
1F
100
AcDbEntity
  8
0
  6
Continuous
 62
     7
370
    15
100
AcDbLine
 10
241.0554739965
 20
593.1358302085
 30
0.0
 11
262.8002809272
 21
593.1358302085
 31
0.0
  0
LINE
  5
340
330
1F
100
AcDbEntity
  8
0
  6
Continuous
 62
     7
370
    15
100
AcDbLine
 10
271.3106687499
 20
593.1358302085
 30
0.0
 11
293.0554750694
 21
593.1358302085
 31
0.0
  0
LINE
  5
341
330
1F
100
AcDbEntity
  8
0
  6
Continuous
 62
     7
370
    15
100
AcDbLine
 10
401.0554797334
 20
593.1358302085
 30
0.0
 11
416.5554738922
 21
593.1358302085
 31
0.0
  0
ARC
  5
342
330
1F
100
AcDbEntity
  8
0
  6
Continuous
 62
     7
370
    15
100
AcDbCircle
 10
108.5554747267
 20
607.6358358113
 30
0.0
 40
14.49999999999996
100
AcDbArc
 50
195.192862725
 51
270.0
  0
ARC
  5
343
330
1F
100
AcDbEntity
  8
0
  6
Continuous
 62
     7
370
    15
100
AcDbCircle
 10
416.5554747267
 20
607.6358358113
 30
0.0
 40
14.49999999999994
100
AcDbArc
 50
270.0
 51
344.807137275
  0
LINE
  5
344
330
1F
100
AcDbEntity
  8
0
  6
Continuous
 62
     7
370
    15
100
AcDbLine
 10
137.6877299828
 20
590.7358342855
 30
0.0
 11
136.5337319059
 21
590.7358342855
 31
0.0
  0
LINE
  5
345
330
1F
100
AcDbEntity
  8
0
  6
Continuous
 62
     7
370
    15
100
AcDbLine
 10
237.5772132857
 20
590.7358342855
 30
0.0
 11
236.423218934
 21
590.7358342855
 31
0.0
  0
LINE
  5
346
330
1F
100
AcDbEntity
  8
0
  6
Continuous
 62
     7
370
    15
100
AcDbLine
 10
212.5554739816
 20
577.1358424871
 30
0.0
 11
161.55547121
 21
577.1358424871
 31
0.0
  0
LINE
  5
347
330
1F
100
AcDbEntity
  8
0
  6
Continuous
 62
     7
370
    15
100
AcDbLine
 10
213.2852285487
 20
590.7358342855
 30
0.0
 11
210.6177977605
 21
590.7358342855
 31
0.0
  0
LINE
  5
348
330
1F
100
AcDbEntity
  8
0
  6
Continuous
 62
     7
370
    15
100
AcDbLine
 10
163.4931511564
 20
590.7358342855
 30
0.0
 11
160.8257240934
 21
590.7358342855
 31
0.0
  0
LINE
  5
349
330
1F
100
AcDbEntity
  8
0
  6
Continuous
 62
     7
370
    15
100
AcDbLine
 10
236.423218934
 20
590.7358342855
 30
0.0
 11
234.3074589355
 21
590.7358342855
 31
0.0
  0
LINE
  5
34A
330
1F
100
AcDbEntity
  8
0
  6
Continuous
 62
     7
370
    15
100
AcDbLine
 10
139.8034937067
 20
590.7358342855
 30
0.0
 11
160.8257240934
 21
590.7358342855
 31
0.0
  0
LINE
  5
34B
330
1F
100
AcDbEntity
  8
0
  6
Continuous
 62
     7
370
    15
100
AcDbLine
 10
213.2852285487
 20
590.7358342855
 30
0.0
 11
234.3074589355
 21
590.7358342855
 31
0.0
  0
LINE
  5
34C
330
1F
100
AcDbEntity
  8
0
  6
Continuous
 62
     7
370
    15
100
AcDbLine
 10
139.8034937067
 20
590.7358342855
 30
0.0
 11
137.6877299828
 21
590.7358342855
 31
0.0
  0
LINE
  5
34D
330
1F
100
AcDbEntity
  8
0
  6
Continuous
 62
     7
370
    15
100
AcDbLine
 10
241.0554739965
 20
590.7358342855
 30
0.0
 11
237.5772132857
 21
590.7358342855
 31
0.0
  0
LINE
  5
34E
330
1F
100
AcDbEntity
  8
0
  6
Continuous
 62
     7
370
    15
100
AcDbLine
 10
136.5337319059
 20
590.7358342855
 30
0.0
 11
133.0554730577
 21
590.7358342855
 31
0.0
  0
LINE
  5
34F
330
1F
100
AcDbEntity
  8
0
  6
Continuous
 62
     7
370
    15
100
AcDbLine
 10
297.6877301318
 20
590.7358342855
 30
0.0
 11
296.5337357802
 21
590.7358342855
 31
0.0
  0
LINE
  5
350
330
1F
100
AcDbEntity
  8
0
  6
Continuous
 62
     7
370
    15
100
AcDbLine
 10
397.5772208853
 20
590.7358342855
 30
0.0
 11
396.4232153578
 21
590.7358342855
 31
0.0
  0
LINE
  5
351
330
1F
100
AcDbEntity
  8
0
  6
Continuous
 62
     7
370
    15
100
AcDbLine
 10
372.5554741306
 20
577.1358424871
 30
0.0
 11
321.5554750843
 21
577.1358424871
 31
0.0
  0
LINE
  5
352
330
1F
100
AcDbEntity
  8
0
  6
Continuous
 62
     7
370
    15
100
AcDbLine
 10
373.2852286978
 20
590.7358342855
 30
0.0
 11
370.6177941842
 21
590.7358342855
 31
0.0
  0
LINE
  5
353
330
1F
100
AcDbEntity
  8
0
  6
Continuous
 62
     7
370
    15
100
AcDbLine
 10
323.4931550307
 20
590.7358342855
 30
0.0
 11
320.8257205171
 21
590.7358342855
 31
0.0
  0
LINE
  5
354
330
1F
100
AcDbEntity
  8
0
  6
Continuous
 62
     7
370
    15
100
AcDbLine
 10
396.4232153578
 20
590.7358342855
 30
0.0
 11
394.3074590845
 21
590.7358342855
 31
0.0
  0
LINE
  5
355
330
1F
100
AcDbEntity
  8
0
  6
Continuous
 62
     7
370
    15
100
AcDbLine
 10
299.8034901304
 20
590.7358342855
 30
0.0
 11
297.6877301318
 21
590.7358342855
 31
0.0
  0
LINE
  5
356
330
1F
100
AcDbEntity
  8
0
  6
Continuous
 62
     7
370
    15
100
AcDbLine
 10
299.8034901304
 20
590.7358342855
 30
0.0
 11
320.8257205171
 21
590.7358342855
 31
0.0
  0
LINE
  5
357
330
1F
100
AcDbEntity
  8
0
  6
Continuous
 62
     7
370
    15
100
AcDbLine
 10
373.2852286978
 20
590.7358342855
 30
0.0
 11
394.3074590845
 21
590.7358342855
 31
0.0
  0
LINE
  5
358
330
1F
100
AcDbEntity
  8
0
  6
Continuous
 62
     7
370
    15
100
AcDbLine
 10
401.0554797334
 20
590.7358342855
 30
0.0
 11
397.5772208853
 21
590.7358342855
 31
0.0
  0
LINE
  5
359
330
1F
100
AcDbEntity
  8
0
  6
Continuous
 62
     7
370
    15
100
AcDbLine
 10
296.5337357802
 20
590.7358342855
 30
0.0
 11
293.0554750694
 21
590.7358342855
 31
0.0
  0
LINE
  5
35A
330
1F
100
AcDbEntity
  8
0
  6
Continuous
 62
     7
370
    15
100
AcDbLine
 10
89.5552135391
 20
852.0928585975
 30
0.0
 11
95.7444555444
 21
852.0928585975
 31
0.0
  0
LINE
  5
35B
330
1F
100
AcDbEntity
  8
0
  6
Continuous
 62
     7
370
    15
100
AcDbLine
 10
89.5552135391
 20
754.1788138522
 30
0.0
 11
95.7455880327
 21
754.1788138522
 31
0.0
  0
LINE
  5
35C
330
1F
100
AcDbEntity
  8
0
  6
Continuous
 62
     7
370
    15
100
AcDbLine
 10
91.4554692192
 20
791.0750472991
 30
0.0
 11
91.4449639005
 21
791.9623220412
 31
0.0
  0
LINE
  5
35D
330
1F
100
AcDbEntity
  8
0
  6
Continuous
 62
     7
370
    15
100
AcDbLine
 10
91.4554692192
 20
815.1966223566
 30
0.0
 11
91.4554692192
 21
845.1090419738
 31
0.0
  0
LINE
  5
35E
330
1F
100
AcDbEntity
  8
0
  6
Continuous
 62
     7
370
    15
100
AcDbLine
 10
91.4554692192
 20
761.1626304759
 30
0.0
 11
91.4554692192
 21
791.0750472991
 31
0.0
  0
LINE
  5
35F
330
1F
100
AcDbEntity
  8
0
  6
Continuous
 62
     7
370
    15
100
AcDbLine
 10
86.0554821176
 20
781.8071322589
 30
0.0
 11
86.0554821176
 21
824.4645411222
 31
0.0
  0
LINE
  5
360
330
1F
100
AcDbEntity
  8
0
  6
Continuous
 62
     7
370
    15
100
AcDbLine
 10
85.0554800911
 20
790.1358345596
 30
0.0
 11
85.0554800911
 21
816.1358350961
 31
0.0
  0
LINE
  5
361
330
1F
100
AcDbEntity
  8
0
  6
Continuous
 62
     7
370
    15
100
AcDbLine
 10
86.0554821176
 20
824.4645411222
 30
0.0
 11
86.0554821176
 21
830.5584529488
 31
0.0
  0
LINE
  5
362
330
1F
100
AcDbEntity
  8
0
  6
Continuous
 62
     7
370
    15
100
AcDbLine
 10
86.0554821176
 20
775.713216707
 30
0.0
 11
86.0554821176
 21
781.8071322589
 31
0.0
  0
SPLINE
  5
363
330
1F
100
AcDbEntity
  8
0
  6
Continuous
 62
     7
370
    15
100
AcDbSpline
210
0.0
220
0.0
230
1.0
 70
     8
 71
     3
 72
    11
 73
     7
 74
     0
 42
0.00000001
 43
0.00000001
 40
0.0
 40
0.0
 40
0.0
 40
0.0
 40
0.0843867898378516
 40
0.197257663268703
 40
0.4099491133624761
 40
1.0
 40
1.0
 40
1.0
 40
1.0
 10
89.12774392793068
 20
851.9850188939249
 30
0.0
 10
89.133832263673
 20
851.9945623586048
 30
0.0
 10
89.14806400402037
 20
852.016870607868
 30
0.0
 10
89.20086658898855
 20
852.0484511987648
 30
0.0
 10
89.33611151807139
 20
852.0880172102827
 30
0.0
 10
89.46239190584964
 20
852.0908075645223
 30
0.0
 10
89.55521353909859
 20
852.0928585974848
 30
0.0
  0
SPLINE
  5
364
330
1F
100
AcDbEntity
  8
0
  6
Continuous
 62
     7
370
    15
100
AcDbSpline
210
0.0
220
0.0
230
1.0
 70
     8
 71
     3
 72
     9
 73
     5
 74
     0
 42
0.00000001
 43
0.00000001
 40
0.0
 40
0.0
 40
0.0
 40
0.0
 40
0.9528841320529152
 40
1.0
 40
1.0
 40
1.0
 40
1.0
 10
89.12774392793068
 20
851.9850188939249
 30
0.0
 10
89.04760721879548
 20
851.8006198695246
 30
0.0
 10
88.96350810701514
 20
851.6071031362751
 30
0.0
 10
88.88698522740351
 20
851.3892884491114
 30
0.0
 10
88.88337978551277
 20
851.3790259210741
 30
0.0
  0
SPLINE
  5
365
330
1F
100
AcDbEntity
  8
0
  6
Continuous
 62
     7
370
    15
100
AcDbSpline
210
0.0
220
0.0
230
1.0
 70
     8
 71
     3
 72
    12
 73
     8
 74
     0
 42
0.00000001
 43
0.00000001
 40
0.0
 40
0.0
 40
0.0
 40
0.0
 40
0.3236294615327204
 40
0.6551286670049807
 40
0.7914124618833978
 40
0.929201516296601
 40
1.0
 40
1.0
 40
1.0
 40
1.0
 10
89.55521353909856
 20
754.1788138522184
 30
0.0
 10
89.50478564867967
 20
754.1797723881896
 30
0.0
 10
89.40270360561244
 20
754.1817127689884
 30
0.0
 10
89.2794209058603
 20
754.1987676735331
 30
0.0
 10
89.1924202833935
 20
754.2280650810113
 30
0.0
 10
89.14720605752788
 20
754.2548194071011
 30
0.0
 10
89.13267577547315
 20
754.2785861994632
 30
0.0
 10
89.12774392793068
 20
754.2866530901169
 30
0.0
  0
SPLINE
  5
366
330
1F
100
AcDbEntity
  8
0
  6
Continuous
 62
     7
370
    15
100
AcDbSpline
210
0.0
220
0.0
230
1.0
 70
     8
 71
     3
 72
     9
 73
     5
 74
     0
 42
0.00000001
 43
0.00000001
 40
0.0
 40
0.0
 40
0.0
 40
0.0
 40
0.9528840538939022
 40
1.0
 40
1.0
 40
1.0
 40
1.0
 10
89.12774392793065
 20
754.2866530901169
 30
0.0
 10
89.04760715840948
 20
754.4710515994475
 30
0.0
 10
88.96350797635918
 20
754.6645678080324
 30
0.0
 10
88.88698522723631
 20
754.8823821377631
 30
0.0
 10
88.88337978551277
 20
754.8926446659839
 30
0.0
  0
LINE
  5
367
330
1F
100
AcDbEntity
  8
0
  6
Continuous
 62
     7
370
    15
100
AcDbLine
 10
86.0554821176
 20
850.4839727728
 30
0.0
 11
86.0554821176
 21
850.9716356246
 31
0.0
  0
LINE
  5
368
330
1F
100
AcDbEntity
  8
0
  6
Continuous
 62
     7
370
    15
100
AcDbLine
 10
86.0554821176
 20
830.5584529488
 30
0.0
 11
86.0554821176
 21
837.852467045
 31
0.0
  0
LINE
  5
369
330
1F
100
AcDbEntity
  8
0
  6
Continuous
 62
     7
370
    15
100
AcDbLine
 10
86.0554821176
 20
848.4941015093
 30
0.0
 11
86.0554821176
 21
850.4839727728
 31
0.0
  0
LINE
  5
36A
330
1F
100
AcDbEntity
  8
0
  6
Continuous
 62
     7
370
    15
100
AcDbLine
 10
86.0554821176
 20
755.7877024709
 30
0.0
 11
86.0554821176
 21
757.8027101307
 31
0.0
  0
LINE
  5
36B
330
1F
100
AcDbEntity
  8
0
  6
Continuous
 62
     7
370
    15
100
AcDbLine
 10
86.0554821176
 20
768.4931961893
 30
0.0
 11
86.0554821176
 21
775.713216707
 31
0.0
  0
LINE
  5
36C
330
1F
100
AcDbEntity
  8
0
  6
Continuous
 62
     7
370
    15
100
AcDbLine
 10
86.0554821176
 20
755.3000340311
 30
0.0
 11
86.0554821176
 21
755.7877024709
 31
0.0
  0
LINE
  5
36D
330
1F
100
AcDbEntity
  8
0
  6
Continuous
 62
     7
370
    15
100
AcDbLine
 10
86.0554821176
 20
850.9716356246
 30
0.0
 11
86.0554821176
 21
855.1358321755
 31
0.0
  0
LINE
  5
36E
330
1F
100
AcDbEntity
  8
0
  6
Continuous
 62
     7
370
    15
100
AcDbLine
 10
86.0554821176
 20
751.1358356176
 30
0.0
 11
86.0554821176
 21
755.3000340311
 31
0.0
  0
LINE
  5
36F
330
1F
100
AcDbEntity
  8
0
  6
Continuous
 62
     7
370
    15
100
AcDbLine
 10
89.5552135391
 20
715.0928566305
 30
0.0
 11
95.7444555444
 21
715.0928566305
 31
0.0
  0
LINE
  5
370
330
1F
100
AcDbEntity
  8
0
  6
Continuous
 62
     7
370
    15
100
AcDbLine
 10
89.5552135391
 20
617.1788090913
 30
0.0
 11
95.7455880327
 21
617.1788090913
 31
0.0
  0
LINE
  5
371
330
1F
100
AcDbEntity
  8
0
  6
Continuous
 62
     7
370
    15
100
AcDbLine
 10
91.4554692192
 20
654.0750453322
 30
0.0
 11
91.4449639005
 21
654.9623200743
 31
0.0
  0
LINE
  5
372
330
1F
100
AcDbEntity
  8
0
  6
Continuous
 62
     7
370
    15
100
AcDbLine
 10
91.4554692192
 20
678.1966278402
 30
0.0
 11
91.4554692192
 21
708.1090400068
 31
0.0
  0
LINE
  5
373
330
1F
100
AcDbEntity
  8
0
  6
Continuous
 62
     7
370
    15
100
AcDbLine
 10
91.4554692192
 20
624.1626331656
 30
0.0
 11
91.4554692192
 21
654.0750453322
 31
0.0
  0
LINE
  5
374
330
1F
100
AcDbEntity
  8
0
  6
Continuous
 62
     7
370
    15
100
AcDbLine
 10
86.0554821176
 20
644.8071340172
 30
0.0
 11
86.0554821176
 21
687.4645391552
 31
0.0
  0
LINE
  5
375
330
1F
100
AcDbEntity
  8
0
  6
Continuous
 62
     7
370
    15
100
AcDbLine
 10
85.0554800911
 20
653.1358325927
 30
0.0
 11
85.0554800911
 21
679.1358331291
 31
0.0
  0
LINE
  5
376
330
1F
100
AcDbEntity
  8
0
  6
Continuous
 62
     7
370
    15
100
AcDbLine
 10
86.0554821176
 20
687.4645391552
 30
0.0
 11
86.0554821176
 21
693.5584547071
 31
0.0
  0
LINE
  5
377
330
1F
100
AcDbEntity
  8
0
  6
Continuous
 62
     7
370
    15
100
AcDbLine
 10
86.0554821176
 20
638.71321474
 30
0.0
 11
86.0554821176
 21
644.8071340172
 31
0.0
  0
SPLINE
  5
378
330
1F
100
AcDbEntity
  8
0
  6
Continuous
 62
     7
370
    15
100
AcDbSpline
210
0.0
220
0.0
230
1.0
 70
     8
 71
     3
 72
    11
 73
     7
 74
     0
 42
0.00000001
 43
0.00000001
 40
0.0
 40
0.0
 40
0.0
 40
0.0
 40
0.0843867898378516
 40
0.197257663268703
 40
0.4099491133624761
 40
1.0
 40
1.0
 40
1.0
 40
1.0
 10
89.12774392793068
 20
714.9850169269716
 30
0.0
 10
89.133832263673
 20
714.9945603916515
 30
0.0
 10
89.14806400402037
 20
715.0168686409146
 30
0.0
 10
89.20086658898855
 20
715.0484492318116
 30
0.0
 10
89.33611151807139
 20
715.0880152433294
 30
0.0
 10
89.46239190584964
 20
715.090805597569
 30
0.0
 10
89.55521353909859
 20
715.0928566305315
 30
0.0
  0
SPLINE
  5
379
330
1F
100
AcDbEntity
  8
0
  6
Continuous
 62
     7
370
    15
100
AcDbSpline
210
0.0
220
0.0
230
1.0
 70
     8
 71
     3
 72
     9
 73
     5
 74
     0
 42
0.00000001
 43
0.00000001
 40
0.0
 40
0.0
 40
0.0
 40
0.0
 40
0.9528839236284238
 40
0.9999999999999999
 40
0.9999999999999999
 40
0.9999999999999999
 40
0.9999999999999999
 10
89.12774392793068
 20
714.9850169269716
 30
0.0
 10
89.0476070577663
 20
714.800619276091
 30
0.0
 10
88.96350775859958
 20
714.6071039419477
 30
0.0
 10
88.88698522695776
 20
714.3892902079375
 30
0.0
 10
88.88337978551277
 20
714.3790276794111
 30
0.0
  0
SPLINE
  5
37A
330
1F
100
AcDbEntity
  8
0
  6
Continuous
 62
     7
370
    15
100
AcDbSpline
210
0.0
220
0.0
230
1.0
 70
     8
 71
     3
 72
    12
 73
     8
 74
     0
 42
0.00000001
 43
0.00000001
 40
0.0
 40
0.0
 40
0.0
 40
0.0
 40
0.3236324823783068
 40
0.6551341918022983
 40
0.7914115271838427
 40
0.9292108225465955
 40
1.0
 40
1.0
 40
1.0
 40
1.0
 10
89.55521353909856
 20
617.1788090912974
 30
0.0
 10
89.50478523977957
 20
617.1797701539438
 30
0.0
 10
89.40270246095741
 20
617.1817156477814
 30
0.0
 10
89.279426130085
 20
617.1987828131231
 30
0.0
 10
89.19241536914846
 20
617.228053940728
 30
0.0
 10
89.14720976033838
 20
617.2548229225619
 30
0.0
 10
89.13267621318421
 20
617.278584701973
 30
0.0
 10
89.12774392793068
 20
617.2866487948572
 30
0.0
  0
SPLINE
  5
37B
330
1F
100
AcDbEntity
  8
0
  6
Continuous
 62
     7
370
    15
100
AcDbSpline
210
0.0
220
0.0
230
1.0
 70
     8
 71
     3
 72
     9
 73
     5
 74
     0
 42
0.00000001
 43
0.00000001
 40
0.0
 40
0.0
 40
0.0
 40
0.0
 40
0.9528750229029382
 40
1.0
 40
1.0
 40
1.0
 40
1.0
 10
89.12774392793068
 20
617.2866487948572
 30
0.0
 10
89.04760018243871
 20
617.4710439884803
 30
0.0
 10
88.9634928823566
 20
617.6645585514513
 30
0.0
 10
88.8869852079184
 20
617.8823841900581
 30
0.0
 10
88.88337978551277
 20
617.8926492182886
 30
0.0
  0
LINE
  5
37C
330
1F
100
AcDbEntity
  8
0
  6
Continuous
 62
     7
370
    15
100
AcDbLine
 10
86.0554821176
 20
693.5584547071
 30
0.0
 11
86.0554821176
 21
700.8398400693
 31
0.0
  0
LINE
  5
37D
330
1F
100
AcDbEntity
  8
0
  6
Continuous
 62
     7
370
    15
100
AcDbLine
 10
86.0554821176
 20
711.4968897848
 30
0.0
 11
86.0554821176
 21
713.4839708059
 31
0.0
  0
LINE
  5
37E
330
1F
100
AcDbEntity
  8
0
  6
Continuous
 62
     7
370
    15
100
AcDbLine
 10
86.0554821176
 20
713.4839708059
 30
0.0
 11
86.0554821176
 21
713.971637383
 31
0.0
  0
LINE
  5
37F
330
1F
100
AcDbEntity
  8
0
  6
Continuous
 62
     7
370
    15
100
AcDbLine
 10
86.0554821176
 20
618.7877023666
 30
0.0
 11
86.0554821176
 21
638.71321474
 31
0.0
  0
LINE
  5
380
330
1F
100
AcDbEntity
  8
0
  6
Continuous
 62
     7
370
    15
100
AcDbLine
 10
86.0554821176
 20
618.3000320642
 30
0.0
 11
86.0554821176
 21
618.7877023666
 31
0.0
  0
LINE
  5
381
330
1F
100
AcDbEntity
  8
0
  6
Continuous
 62
     7
370
    15
100
AcDbLine
 10
86.0554821176
 20
713.971637383
 30
0.0
 11
86.0554821176
 21
718.1358357964
 31
0.0
  0
LINE
  5
382
330
1F
100
AcDbEntity
  8
0
  6
Continuous
 62
     7
370
    15
100
AcDbLine
 10
86.0554821176
 20
614.1358429639
 30
0.0
 11
86.0554821176
 21
618.3000320642
 31
0.0
  0
LINE
  5
383
330
1F
100
AcDbEntity
  8
0
  6
Continuous
 62
     7
370
    15
100
AcDbLine
 10
435.5557359142
 20
754.1788138522
 30
0.0
 11
429.2955494804
 21
754.1788138522
 31
0.0
  0
LINE
  5
384
330
1F
100
AcDbEntity
  8
0
  6
Continuous
 62
     7
370
    15
100
AcDbLine
 10
435.5557359142
 20
852.0928585975
 30
0.0
 11
429.2966670675
 21
852.0928585975
 31
0.0
  0
LINE
  5
385
330
1F
100
AcDbEntity
  8
0
  6
Continuous
 62
     7
370
    15
100
AcDbLine
 10
433.6554802341
 20
815.1966223566
 30
0.0
 11
433.6659855528
 21
814.3093476145
 31
0.0
  0
LINE
  5
386
330
1F
100
AcDbEntity
  8
0
  6
Continuous
 62
     7
370
    15
100
AcDbLine
 10
433.6554802341
 20
845.1090419738
 30
0.0
 11
433.6554802341
 21
815.1966223566
 31
0.0
  0
LINE
  5
387
330
1F
100
AcDbEntity
  8
0
  6
Continuous
 62
     7
370
    15
100
AcDbLine
 10
433.6554802341
 20
791.0750472991
 30
0.0
 11
433.6554802341
 21
761.1626304759
 31
0.0
  0
LINE
  5
388
330
1F
100
AcDbEntity
  8
0
  6
Continuous
 62
     7
370
    15
100
AcDbLine
 10
439.0554673357
 20
824.4645411222
 30
0.0
 11
439.0554673357
 21
781.8071322589
 31
0.0
  0
LINE
  5
389
330
1F
100
AcDbEntity
  8
0
  6
Continuous
 62
     7
370
    15
100
AcDbLine
 10
440.0554693622
 20
816.1358350961
 30
0.0
 11
440.0554693622
 21
790.1358345596
 31
0.0
  0
LINE
  5
38A
330
1F
100
AcDbEntity
  8
0
  6
Continuous
 62
     7
370
    15
100
AcDbLine
 10
439.0554673357
 20
830.5584529488
 30
0.0
 11
439.0554673357
 21
824.4645411222
 31
0.0
  0
LINE
  5
38B
330
1F
100
AcDbEntity
  8
0
  6
Continuous
 62
     7
370
    15
100
AcDbLine
 10
439.0554673357
 20
781.8071322589
 30
0.0
 11
439.0554673357
 21
775.713216707
 31
0.0
  0
SPLINE
  5
38C
330
1F
100
AcDbEntity
  8
0
  6
Continuous
 62
     7
370
    15
100
AcDbSpline
210
0.0
220
0.0
230
1.0
 70
     8
 71
     3
 72
    12
 73
     8
 74
     0
 42
0.00000001
 43
0.00000001
 40
0.0
 40
0.0
 40
0.0
 40
0.0
 40
0.3236294331321034
 40
0.655128649337157
 40
0.7914101238931867
 40
0.9292001465804434
 40
1.0
 40
1.0
 40
1.0
 40
1.0
 10
435.5557359142054
 20
852.0928585974848
 30
0.0
 10
435.6061639110894
 20
852.091899828467
 30
0.0
 10
435.7082461758811
 20
852.08995897579
 30
0.0
 10
435.8315272014954
 20
852.0729000947981
 30
0.0
 10
435.9185300320246
 20
852.0436097082122
 30
0.0
 10
435.9637435487141
 20
852.016853530725
 30
0.0
 10
435.9782736866223
 20
851.9930860752881
 30
0.0
 10
435.9832055253733
 20
851.9850188939249
 30
0.0
  0
SPLINE
  5
38D
330
1F
100
AcDbEntity
  8
0
  6
Continuous
 62
     7
370
    15
100
AcDbSpline
210
0.0
220
0.0
230
1.0
 70
     8
 71
     3
 72
     9
 73
     5
 74
     0
 42
0.00000001
 43
0.00000001
 40
0.0
 40
0.0
 40
0.0
 40
0.0
 40
0.9528841320529152
 40
1.0
 40
1.0
 40
1.0
 40
1.0
 10
435.9832055253733
 20
851.9850188939249
 30
0.0
 10
436.0633422345085
 20
851.8006198695246
 30
0.0
 10
436.1474413462889
 20
851.6071031362751
 30
0.0
 10
436.2239642259005
 20
851.3892884491114
 30
0.0
 10
436.2275696677912
 20
851.3790259210741
 30
0.0
  0
SPLINE
  5
38E
330
1F
100
AcDbEntity
  8
0
  6
Continuous
 62
     7
370
    15
100
AcDbSpline
210
0.0
220
0.0
230
1.0
 70
     8
 71
     3
 72
    11
 73
     7
 74
     0
 42
0.00000001
 43
0.00000001
 40
0.0
 40
0.0
 40
0.0
 40
0.0
 40
0.0843843138053309
 40
0.1972550558167731
 40
0.4099466201983963
 40
0.9999999999999999
 40
0.9999999999999999
 40
0.9999999999999999
 40
0.9999999999999999
 10
435.9832055253733
 20
754.2866530901169
 30
0.0
 10
435.97711711746
 20
754.2771103231469
 30
0.0
 10
435.9628849789425
 20
754.2548033451503
 30
0.0
 10
435.9100828994215
 20
754.223223030123
 30
0.0
 10
435.77483746511
 20
754.1836591567163
 30
0.0
 10
435.6485574005648
 20
754.1808665458826
 30
0.0
 10
435.5557359142054
 20
754.1788138522184
 30
0.0
  0
SPLINE
  5
38F
330
1F
100
AcDbEntity
  8
0
  6
Continuous
 62
     7
370
    15
100
AcDbSpline
210
0.0
220
0.0
230
1.0
 70
     8
 71
     3
 72
     9
 73
     5
 74
     0
 42
0.00000001
 43
0.00000001
 40
0.0
 40
0.0
 40
0.0
 40
0.0
 40
0.9528840538939022
 40
1.0
 40
1.0
 40
1.0
 40
1.0
 10
435.9832055253734
 20
754.2866530901169
 30
0.0
 10
436.0633422948945
 20
754.4710515994475
 30
0.0
 10
436.1474414769448
 20
754.6645678080324
 30
0.0
 10
436.2239642260677
 20
754.8823821377631
 30
0.0
 10
436.2275696677912
 20
754.8926446659839
 30
0.0
  0
LINE
  5
390
330
1F
100
AcDbEntity
  8
0
  6
Continuous
 62
     7
370
    15
100
AcDbLine
 10
439.0554673357
 20
850.9716356246
 30
0.0
 11
439.0554673357
 21
850.4839727728
 31
0.0
  0
LINE
  5
391
330
1F
100
AcDbEntity
  8
0
  6
Continuous
 62
     7
370
    15
100
AcDbLine
 10
439.0554673357
 20
850.4839727728
 30
0.0
 11
439.0554673357
 21
830.5584529488
 31
0.0
  0
LINE
  5
392
330
1F
100
AcDbEntity
  8
0
  6
Continuous
 62
     7
370
    15
100
AcDbLine
 10
439.0554673357
 20
775.713216707
 30
0.0
 11
439.0554673357
 21
755.7877024709
 31
0.0
  0
LINE
  5
393
330
1F
100
AcDbEntity
  8
0
  6
Continuous
 62
     7
370
    15
100
AcDbLine
 10
439.0554673357
 20
755.7877024709
 30
0.0
 11
439.0554673357
 21
755.3000340311
 31
0.0
  0
LINE
  5
394
330
1F
100
AcDbEntity
  8
0
  6
Continuous
 62
     7
370
    15
100
AcDbLine
 10
439.0554673357
 20
855.1358321755
 30
0.0
 11
439.0554673357
 21
850.9716356246
 31
0.0
  0
LINE
  5
395
330
1F
100
AcDbEntity
  8
0
  6
Continuous
 62
     7
370
    15
100
AcDbLine
 10
439.0554673357
 20
755.3000340311
 30
0.0
 11
439.0554673357
 21
751.1358356176
 31
0.0
  0
LINE
  5
396
330
1F
100
AcDbEntity
  8
0
  6
Continuous
 62
     7
370
    15
100
AcDbLine
 10
272.5554745031
 20
593.4454167335
 30
0.0
 11
261.5554746792
 21
593.4454167335
 31
0.0
  0
LINE
  5
397
330
1F
100
AcDbEntity
  8
0
  6
Continuous
 62
     7
370
    15
100
AcDbLine
 10
272.5554745031
 20
594.44541876
 30
0.0
 11
261.5554746792
 21
594.44541876
 31
0.0
  0
LINE
  5
398
330
1F
100
AcDbEntity
  8
0
  6
Continuous
 62
     7
370
    15
100
AcDbLine
 10
270.7387044413
 20
590.445425555
 30
0.0
 11
270.7387044413
 21
593.4454167335
 31
0.0
  0
LINE
  5
399
330
1F
100
AcDbEntity
  8
0
  6
Continuous
 62
     7
370
    15
100
AcDbLine
 10
266.48351069
 20
590.445425555
 30
0.0
 11
266.48351069
 21
593.4454167335
 31
0.0
  0
LINE
  5
39A
330
1F
100
AcDbEntity
  8
0
  6
Continuous
 62
     7
370
    15
100
AcDbLine
 10
270.7387044413
 20
590.445425555
 30
0.0
 11
266.48351069
 21
590.445425555
 31
0.0
  0
LINE
  5
39B
330
1F
100
AcDbEntity
  8
0
  6
Continuous
 62
     7
370
    15
100
AcDbLine
 10
262.8002809272
 20
590.445425555
 30
0.0
 11
262.8002809272
 21
593.4454167335
 31
0.0
  0
LINE
  5
39C
330
1F
100
AcDbEntity
  8
0
  6
Continuous
 62
     7
370
    15
100
AcDbLine
 10
266.48351069
 20
590.445425555
 30
0.0
 11
262.8002809272
 21
590.445425555
 31
0.0
  0
LINE
  5
39D
330
1F
100
AcDbEntity
  8
0
  6
Continuous
 62
     7
370
    15
100
AcDbLine
 10
271.3106687499
 20
590.445425555
 30
0.0
 11
271.3106687499
 21
593.4454167335
 31
0.0
  0
LINE
  5
39E
330
1F
100
AcDbEntity
  8
0
  6
Continuous
 62
     7
370
    15
100
AcDbLine
 10
271.3106687499
 20
590.445425555
 30
0.0
 11
270.7387044413
 21
590.445425555
 31
0.0
  0
LINE
  5
39F
330
1F
100
AcDbEntity
  8
0
  6
Continuous
 62
     7
370
    15
100
AcDbLine
 10
263.4311191125
 20
899.8969758002
 30
0.0
 11
272.5554745031
 21
899.8969758002
 31
0.0
  0
LINE
  5
3A0
330
1F
100
AcDbEntity
  8
0
  6
Continuous
 62
     7
370
    15
100
AcDbLine
 10
261.5554746792
 20
899.8969758002
 30
0.0
 11
263.4311191125
 21
899.8969758002
 31
0.0
  0
LINE
  5
3A1
330
1F
100
AcDbEntity
  8
0
  6
Continuous
 62
     7
370
    15
100
AcDbLine
 10
263.4311191125
 20
898.8969886748
 30
0.0
 11
272.5554745031
 21
898.8969886748
 31
0.0
  0
LINE
  5
3A2
330
1F
100
AcDbEntity
  8
0
  6
Continuous
 62
     7
370
    15
100
AcDbLine
 10
261.5554746792
 20
898.8969886748
 30
0.0
 11
263.4311191125
 21
898.8969886748
 31
0.0
  0
LINE
  5
3A3
330
1F
100
AcDbEntity
  8
0
  6
Continuous
 62
     7
370
    15
100
AcDbLine
 10
266.1566325316
 20
902.8969818799
 30
0.0
 11
266.1566325316
 21
899.8969758002
 31
0.0
  0
LINE
  5
3A4
330
1F
100
AcDbEntity
  8
0
  6
Continuous
 62
     7
370
    15
100
AcDbLine
 10
270.5295806138
 20
902.8969818799
 30
0.0
 11
270.5295806138
 21
899.8969758002
 31
0.0
  0
LINE
  5
3A5
330
1F
100
AcDbEntity
  8
0
  6
Continuous
 62
     7
370
    15
100
AcDbLine
 10
266.1566325316
 20
902.8969818799
 30
0.0
 11
270.5295806138
 21
902.8969818799
 31
0.0
  0
LINE
  5
3A6
330
1F
100
AcDbEntity
  8
0
  6
Continuous
 62
     7
370
    15
100
AcDbLine
 10
262.6825269019
 20
902.8969818799
 30
0.0
 11
262.6825269019
 21
899.8969758002
 31
0.0
  0
LINE
  5
3A7
330
1F
100
AcDbEntity
  8
0
  6
Continuous
 62
     7
370
    15
100
AcDbLine
 10
262.6825269019
 20
902.8969818799
 30
0.0
 11
266.1566325316
 21
902.8969818799
 31
0.0
  0
LINE
  5
3A8
330
1F
100
AcDbEntity
  8
0
  6
Continuous
 62
     7
370
    15
100
AcDbLine
 10
271.4284223823
 20
902.8969818799
 30
0.0
 11
271.4284223823
 21
899.8969758002
 31
0.0
  0
LINE
  5
3A9
330
1F
100
AcDbEntity
  8
0
  6
Continuous
 62
     7
370
    15
100
AcDbLine
 10
270.5295806138
 20
902.8969818799
 30
0.0
 11
271.4284223823
 21
902.8969818799
 31
0.0
  0
LINE
  5
3AA
330
1F
100
AcDbEntity
  8
SLD-0
 62
     5
370
     0
100
AcDbLine
 10
187.0554747267
 20
577.1358358113
 30
0.0
 11
187.0554747267
 21
580.6546543965
 31
0.0
  0
LINE
  5
3AB
330
1F
100
AcDbEntity
  8
SLD-0
 62
     5
370
     0
100
AcDbLine
 10
347.0554747267
 20
577.1358358113
 30
0.0
 11
347.0554747267
 21
579.7435171809
 31
0.0
  0
LINE
  5
3AC
330
1F
100
AcDbEntity
  8
SLD-0
 62
     5
370
     0
100
AcDbLine
 10
94.0554747267
 20
607.3075306711
 30
0.0
 11
94.0554747267
 21
606.9234115447
 31
0.0
  0
LINE
  5
3AD
330
1F
100
AcDbEntity
  8
SLD-0
 62
     5
370
     0
100
AcDbLine
 10
85.0554747267
 20
666.1358358113
 30
0.0
 11
83.2318853127
 21
666.1358358113
 31
0.0
  0
LINE
  5
3AE
330
1F
100
AcDbEntity
  8
SLD-0
 62
     5
370
     0
100
AcDbLine
 10
85.0554747267
 20
803.1358358113
 30
0.0
 11
83.2318853127
 21
803.1358358113
 31
0.0
  0
LINE
  5
3AF
330
1F
100
AcDbEntity
  8
SLD-0
 62
     5
370
     0
100
AcDbLine
 10
440.0554747267
 20
803.1358358113
 30
0.0
 11
442.0667517657
 21
803.1358358113
 31
0.0
  0
LINE
  5
3B0
330
1F
100
AcDbEntity
  8
SLD-0
 62
     5
370
     0
100
AcDbLine
 10
347.0554747267
 20
896.9014351841
 30
0.0
 11
347.0554747267
 21
898.7207886933
 31
0.0
  0
ENDSEC
  0
SECTION
  2
OBJECTS
  0
DICTIONARY
  5
C
330
0
100
AcDbDictionary
281
     1
  3
ACAD_GROUP
350
D
  3
ACAD_LAYOUT
350
1A
  3
ACAD_MLINESTYLE
350
17
  3
ACAD_PLOTSETTINGS
350
19
  3
ACAD_PLOTSTYLENAME
350
E
  0
DICTIONARY
  5
D
102
{ACAD_REACTORS
330
C
102
}
330
C
100
AcDbDictionary
281
     1
  0
DICTIONARY
  5
1A
102
{ACAD_REACTORS
330
C
102
}
330
C
100
AcDbDictionary
281
     1
  3
Layout1
350
1E
  3
Layout2
350
26
  3
Model
350
22
  0
DICTIONARY
  5
17
102
{ACAD_REACTORS
330
C
102
}
330
C
100
AcDbDictionary
281
     1
  3
Standard
350
18
  0
DICTIONARY
  5
19
102
{ACAD_REACTORS
330
C
102
}
330
C
100
AcDbDictionary
281
     1
  0
ACDBDICTIONARYWDFLT
  5
E
102
{ACAD_REACTORS
330
C
102
}
330
C
100
AcDbDictionary
281
     1
  3
Normal
350
F
100
AcDbDictionaryWithDefault
340
F
  0
LAYOUT
  5
1E
102
{ACAD_REACTORS
330
1A
102
}
330
1A
100
AcDbPlotSettings
  1

  2
none_device
  4

  6

 40
0.0
 41
0.0
 42
0.0
 43
0.0
 44
0.0
 45
0.0
 46
0.0
 47
0.0
 48
0.0
 49
0.0
140
0.0
141
0.0
142
1.0
143
1.0
 70
   688
 72
     0
 73
     0
 74
     5
  7

 75
    16
147
1.0
148
0.0
149
0.0
100
AcDbLayout
  1
Layout1
 70
     1
 71
     1
 10
0.0
 20
0.0
 11
420.0
 21
297.0
 12
0.0
 22
0.0
 32
0.0
 14
1.0000000000E+20
 24
1.0000000000E+20
 34
1.0000000000E+20
 15
-1.0000000000E+20
 25
-1.0000000000E+20
 35
-1.0000000000E+20
146
0.0
 13
0.0
 23
0.0
 33
0.0
 16
1.0
 26
0.0
 36
0.0
 17
0.0
 27
1.0
 37
0.0
 76
     0
330
1B
  0
LAYOUT
  5
26
102
{ACAD_REACTORS
330
1A
102
}
330
1A
100
AcDbPlotSettings
  1

  2
none_device
  4

  6

 40
0.0
 41
0.0
 42
0.0
 43
0.0
 44
0.0
 45
0.0
 46
0.0
 47
0.0
 48
0.0
 49
0.0
140
0.0
141
0.0
142
1.0
143
1.0
 70
   688
 72
     0
 73
     0
 74
     5
  7

 75
    16
147
1.0
148
0.0
149
0.0
100
AcDbLayout
  1
Layout2
 70
     1
 71
     2
 10
0.0
 20
0.0
 11
0.0
 21
0.0
 12
0.0
 22
0.0
 32
0.0
 14
0.0
 24
0.0
 34
0.0
 15
0.0
 25
0.0
 35
0.0
146
0.0
 13
0.0
 23
0.0
 33
0.0
 16
1.0
 26
0.0
 36
0.0
 17
0.0
 27
1.0
 37
0.0
 76
     0
330
23
  0
LAYOUT
  5
22
102
{ACAD_REACTORS
330
1A
102
}
330
1A
100
AcDbPlotSettings
  1

  2
none_device
  4

  6

 40
0.0
 41
0.0
 42
0.0
 43
0.0
 44
0.0
 45
0.0
 46
0.0
 47
0.0
 48
0.0
 49
0.0
140
0.0
141
0.0
142
1.0
143
1.0
 70
  1712
 72
     0
 73
     0
 74
     0
  7

 75
     0
147
1.0
148
0.0
149
0.0
100
AcDbLayout
  1
Model
 70
     1
 71
     0
 10
0.0
 20
0.0
 11
420.0
 21
297.0
 12
0.0
 22
0.0
 32
0.0
 14
0.0
 24
0.0
 34
0.0
 15
420.0
 25
297.0
 35
0.0
146
0.0
 13
0.0
 23
0.0
 33
0.0
 16
1.0
 26
0.0
 36
0.0
 17
0.0
 27
1.0
 37
0.0
 76
     0
330
1F
331
29
  0
MLINESTYLE
  5
18
102
{ACAD_REACTORS
330
17
102
}
330
17
100
AcDbMlineStyle
  2
Standard
 70
     0
  3

 62
   256
 51
90.0
 52
90.0
 71
     2
 49
0.5
 62
   256
  6
BYLAYER
 49
-0.5
 62
   256
  6
BYLAYER
  0
ACDBPLACEHOLDER
  5
F
102
{ACAD_REACTORS
330
E
102
}
330
E
  0
ENDSEC
  0
EOF
