  0
SECTION
  2
HEADER
  9
$ACADVER
  1
AC1015
  9
$ACADMAINTVER
 70
     6
  9
$DWGCODEPAGE
  3
DOS932
  9
$INSBASE
 10
0.0
 20
0.0
 30
0.0
  9
$EXTMIN
 10
0.0
 20
0.0
 30
0.0
  9
$EXTMAX
 10
44.0
 20
34.0
 30
0.0
  9
$LIMMIN
 10
0.0
 20
0.0
  9
$LIMMAX
 10
44.0
 20
34.0
  9
$ORTHOMODE
 70
     0
  9
$REGENMODE
 70
     1
  9
$FILLMODE
 70
     1
  9
$QTEXTMODE
 70
     0
  9
$MIRRTEXT
 70
     1
  9
$LTSCALE
 40
1.0
  9
$ATTMODE
 70
     1
  9
$TEXTSIZE
 40
0.1377952756
  9
$TRACEWID
 40
0.05
  9
$TEXTSTYLE
  7
STANDARD
  9
$CLAYER
  8
0
  9
$CELTYPE
  6
ByLayer
  9
$CECOLOR
 62
   256
  9
$CELTSCALE
 40
1.0
  9
$DISPSILH
 70
     0
  9
$DIMSCALE
 40
1.0
  9
$DIMASZ
 40
0.14
  9
$DIMEXO
 40
0.0393700787
  9
$DIMDLI
 40
0.38
  9
$DIMRND
 40
0.0
  9
$DIMDLE
 40
0.0
  9
$DIMEXE
 40
0.0393700787
  9
$DIMTP
 40
0.0
  9
$DIMTM
 40
0.0
  9
$DIMTXT
 40
0.1377952756
  9
$DIMCEN
 40
0.09
  9
$DIMTSZ
 40
0.0
  9
$DIMTOL
 70
     0
  9
$DIMLIM
 70
     0
  9
$DIMTIH
 70
     1
  9
$DIMTOH
 70
     1
  9
$DIMSE1
 70
     0
  9
$DIMSE2
 70
     0
  9
$DIMTAD
 70
     1
  9
$DIMZIN
 70
     1
  9
$DIMBLK
  1

  9
$DIMASO
 70
     1
  9
$DIMSHO
 70
     1
  9
$DIMPOST
  1

  9
$DIMAPOST
  1

  9
$DIMALT
 70
     0
  9
$DIMALTD
 70
     2
  9
$DIMALTF
 40
25.4
  9
$DIMLFAC
 40
1.0
  9
$DIMTOFL
 70
     0
  9
$DIMTVP
 40
0.0
  9
$DIMTIX
 70
     0
  9
$DIMSOXD
 70
     0
  9
$DIMSAH
 70
     0
  9
$DIMBLK1
  1

  9
$DIMBLK2
  1

  9
$DIMSTYLE
  2
Standard
  9
$DIMCLRD
 70
     0
  9
$DIMCLRE
 70
     0
  9
$DIMCLRT
 70
     0
  9
$DIMTFAC
 40
1.0
  9
$DIMGAP
 40
0.06
  9
$DIMJUST
 70
     0
  9
$DIMSD1
 70
     0
  9
$DIMSD2
 70
     0
  9
$DIMTOLJ
 70
     1
  9
$DIMTZIN
 70
     1
  9
$DIMALTZ
 70
     0
  9
$DIMALTTZ
 70
     0
  9
$DIMUPT
 70
     0
  9
$DIMDEC
 70
     4
  9
$DIMTDEC
 70
     4
  9
$DIMALTU
 70
     2
  9
$DIMALTTD
 70
     2
  9
$DIMTXSTY
  7
STANDARD
  9
$DIMAUNIT
 70
     0
  9
$DIMADEC
 70
     0
  9
$DIMALTRND
 40
0.0
  9
$DIMAZIN
 70
     0
  9
$DIMDSEP
 70
    46
  9
$DIMATFIT
 70
     3
  9
$DIMFRAC
 70
     0
  9
$DIMLDRBLK
  1

  9
$DIMLUNIT
 70
     2
  9
$DIMLWD
 70
    -2
  9
$DIMLWE
 70
    -2
  9
$DIMTMOVE
 70
     0
  9
$LUNITS
 70
     2
  9
$LUPREC
 70
     3
  9
$SKETCHINC
 40
0.1
  9
$FILLETRAD
 40
0.5
  9
$AUNITS
 70
     0
  9
$AUPREC
 70
     0
  9
$MENU
  1
.
  9
$ELEVATION
 40
0.0
  9
$PELEVATION
 40
0.0
  9
$THICKNESS
 40
0.0
  9
$LIMCHECK
 70
     0
  9
$CHAMFERA
 40
0.0
  9
$CHAMFERB
 40
0.0
  9
$CHAMFERC
 40
0.0
  9
$CHAMFERD
 40
0.0
  9
$SKPOLY
 70
     0
  9
$TDCREATE
 40
2460104.777270683
  9
$TDUCREATE
 40
2460104.402270683
  9
$TDUPDATE
 40
2460104.777272488
  9
$TDUUPDATE
 40
2460104.402272488
  9
$TDINDWG
 40
0.0000000116
  9
$TDUSRTIMER
 40
0.0000000116
  9
$USRTIMER
 70
     1
  9
$ANGBASE
 50
0.0
  9
$ANGDIR
 70
     0
  9
$PDMODE
 70
     0
  9
$PDSIZE
 40
-1.0
  9
$PLINEWID
 40
0.0
  9
$SPLFRAME
 70
     0
  9
$SPLINETYPE
 70
     6
  9
$SPLINESEGS
 70
     8
  9
$HANDSEED
  5
22B
  9
$SURFTAB1
 70
     6
  9
$SURFTAB2
 70
     6
  9
$SURFTYPE
 70
     6
  9
$SURFU
 70
     6
  9
$SURFV
 70
     6
  9
$UCSBASE
  2

  9
$UCSNAME
  2

  9
$UCSORG
 10
0.0
 20
0.0
 30
0.0
  9
$UCSXDIR
 10
1.0
 20
0.0
 30
0.0
  9
$UCSYDIR
 10
0.0
 20
1.0
 30
0.0
  9
$UCSORTHOREF
  2

  9
$UCSORTHOVIEW
 70
     0
  9
$UCSORGTOP
 10
0.0
 20
0.0
 30
0.0
  9
$UCSORGBOTTOM
 10
0.0
 20
0.0
 30
0.0
  9
$UCSORGLEFT
 10
0.0
 20
0.0
 30
0.0
  9
$UCSORGRIGHT
 10
0.0
 20
0.0
 30
0.0
  9
$UCSORGFRONT
 10
0.0
 20
0.0
 30
0.0
  9
$UCSORGBACK
 10
0.0
 20
0.0
 30
0.0
  9
$PUCSBASE
  2

  9
$PUCSNAME
  2

  9
$PUCSORG
 10
0.0
 20
0.0
 30
0.0
  9
$PUCSXDIR
 10
1.0
 20
0.0
 30
0.0
  9
$PUCSYDIR
 10
0.0
 20
1.0
 30
0.0
  9
$PUCSORTHOREF
  2

  9
$PUCSORTHOVIEW
 70
     0
  9
$PUCSORGTOP
 10
0.0
 20
0.0
 30
0.0
  9
$PUCSORGBOTTOM
 10
0.0
 20
0.0
 30
0.0
  9
$PUCSORGLEFT
 10
0.0
 20
0.0
 30
0.0
  9
$PUCSORGRIGHT
 10
0.0
 20
0.0
 30
0.0
  9
$PUCSORGFRONT
 10
0.0
 20
0.0
 30
0.0
  9
$PUCSORGBACK
 10
0.0
 20
0.0
 30
0.0
  9
$USERI1
 70
     0
  9
$USERI2
 70
     0
  9
$USERI3
 70
     0
  9
$USERI4
 70
     0
  9
$USERI5
 70
     0
  9
$USERR1
 40
0.0
  9
$USERR2
 40
0.0
  9
$USERR3
 40
0.0
  9
$USERR4
 40
0.0
  9
$USERR5
 40
0.0
  9
$WORLDVIEW
 70
     1
  9
$SHADEDGE
 70
     3
  9
$SHADEDIF
 70
    70
  9
$TILEMODE
 70
     0
  9
$MAXACTVP
 70
    64
  9
$PINSBASE
 10
0.0
 20
0.0
 30
0.0
  9
$PLIMCHECK
 70
     0
  9
$PEXTMIN
 10
0.0
 20
0.0
 30
0.0
  9
$PEXTMAX
 10
44.0
 20
34.0
 30
0.0
  9
$PLIMMIN
 10
0.0
 20
0.0
  9
$PLIMMAX
 10
44.0
 20
34.0
  9
$UNITMODE
 70
     0
  9
$VISRETAIN
 70
     1
  9
$PLINEGEN
 70
     0
  9
$PSLTSCALE
 70
     1
  9
$TREEDEPTH
 70
  3020
  9
$CMLSTYLE
  2
Standard
  9
$CMLJUST
 70
     0
  9
$CMLSCALE
 40
1.0
  9
$PROXYGRAPHICS
 70
     1
  9
$MEASUREMENT
 70
     0
  9
$CELWEIGHT
370
    -1
  9
$ENDCAPS
280
     0
  9
$JOINSTYLE
280
     0
  9
$LWDISPLAY
290
     1
  9
$INSUNITS
 70
     1
  9
$HYPERLINKBASE
  1

  9
$STYLESHEET
  1

  9
$XEDIT
290
     1
  9
$CEPSNTYPE
380
     0
  9
$PSTYLEMODE
290
     1
  9
$FINGERPRINTGUID
  2
{465addbc-f49b-4678-9d1a-9b8a64fdd0c6}
  9
$VERSIONGUID
  2
{FAEB1C32-E019-11D5-929B-00C0DF256EC4}
  9
$EXTNAMES
290
     1
  9
$PSVPSCALE
 40
0.0
  9
$OLESTARTUP
290
     0
  0
ENDSEC
  0
SECTION
  2
CLASSES
  0
CLASS
  1
ACDBDICTIONARYWDFLT
  2
AcDbDictionaryWithDefault
  3
ObjectDBX Classes
 90
        0
280
     0
281
     0
  0
CLASS
  1
VISUALSTYLE
  2
AcDbVisualStyle
  3
ObjectDBX Classes
 90
     4095
280
     0
281
     0
  0
CLASS
  1
MATERIAL
  2
AcDbMaterial
  3
ObjectDBX Classes
 90
     1153
280
     0
281
     0
  0
CLASS
  1
SCALE
  2
AcDbScale
  3
ObjectDBX Classes
 90
     1153
280
     0
281
     0
  0
CLASS
  1
TABLESTYLE
  2
AcDbTableStyle
  3
ObjectDBX Classes
 90
     4095
280
     0
281
     0
  0
CLASS
  1
MLEADERSTYLE
  2
AcDbMLeaderStyle
  3
ACDB_MLEADERSTYLE_CLASS
 90
     4095
280
     0
281
     0
  0
CLASS
  1
SUN
  2
AcDbSun
  3
SCENEOE
 90
     1153
280
     0
281
     0
  0
CLASS
  1
ACDBPLACEHOLDER
  2
AcDbPlaceHolder
  3
ObjectDBX Classes
 90
        0
280
     0
281
     0
  0
CLASS
  1
LAYOUT
  2
AcDbLayout
  3
ObjectDBX Classes
 90
        0
280
     0
281
     0
  0
ENDSEC
  0
SECTION
  2
TABLES
  0
TABLE
  2
VPORT
  5
8
330
0
100
AcDbSymbolTable
 70
     1
  0
VPORT
  5
29
330
8
100
AcDbSymbolTableRecord
100
AcDbViewportTableRecord
  2
*Active
 70
     0
 10
0.0
 20
0.0
 11
1.0
 21
1.0
 12
22.0
 22
17.0
 13
0.0
 23
0.0
 14
0.5
 24
0.5
 15
0.5
 25
0.5
 16
0.0
 26
0.0
 36
1.0
 17
0.0
 27
0.0
 37
0.0
 40
34.0
 41
1.2941176471
 42
50.0
 43
0.0
 44
0.0
 50
0.0
 51
0.0
 71
     0
 72
  2000
 73
     1
 74
     3
 75
     0
 76
     0
 77
     0
 78
     0
281
     0
 65
     1
110
0.0
120
0.0
130
0.0
111
1.0
121
0.0
131
0.0
112
0.0
122
1.0
132
0.0
 79
     0
146
0.0
  0
ENDTAB
  0
TABLE
  2
LTYPE
  5
5
330
0
100
AcDbSymbolTable
 70
     8
  0
LTYPE
  5
14
330
5
100
AcDbSymbolTableRecord
100
AcDbLinetypeTableRecord
  2
ByBlock
 70
     0
  3

 72
    65
 73
     0
 40
0.0
  0
LTYPE
  5
15
330
5
100
AcDbSymbolTableRecord
100
AcDbLinetypeTableRecord
  2
ByLayer
 70
     0
  3

 72
    65
 73
     0
 40
0.0
  0
LTYPE
  5
16
330
5
100
AcDbSymbolTableRecord
100
AcDbLinetypeTableRecord
  2
Continuous
 70
     0
  3
Solid line
 72
    65
 73
     0
 40
0.0
  0
LTYPE
  5
6E
330
5
100
AcDbSymbolTableRecord
100
AcDbLinetypeTableRecord
  2
SLD-実線
 70
     0
  3
SolidWorks Line Style
 72
    65
 73
     0
 40
0.0
  0
LTYPE
  5
6F
330
5
100
AcDbSymbolTableRecord
100
AcDbLinetypeTableRecord
  2
SLD-破線
 70
     0
  3
SolidWorks Line Style
 72
    65
 73
     2
 40
0.075
 49
0.05
 74
     0
 49
-0.025
 74
     0
  0
LTYPE
  5
70
330
5
100
AcDbSymbolTableRecord
100
AcDbLinetypeTableRecord
  2
SLD-2点鎖線
 70
     0
  3
SolidWorks Line Style
 72
    65
 73
     6
 40
0.5
 49
0.25
 74
     0
 49
-0.05
 74
     0
 49
0.05
 74
     0
 49
-0.05
 74
     0
 49
0.05
 74
     0
 49
-0.05
 74
     0
  0
LTYPE
  5
71
330
5
100
AcDbSymbolTableRecord
100
AcDbLinetypeTableRecord
  2
SLD-鎖線
 70
     0
  3
SolidWorks Line Style
 72
    65
 73
     4
 40
0.4
 49
0.25
 74
     0
 49
-0.05
 74
     0
 49
0.05
 74
     0
 49
-0.05
 74
     0
  0
LTYPE
  5
72
330
5
100
AcDbSymbolTableRecord
100
AcDbLinetypeTableRecord
  2
SLD-1点鎖線(中心線)
 70
     0
  3
SolidWorks Line Style
 72
    65
 73
     4
 40
1.35
 49
1.2
 74
     0
 49
-0.05
 74
     0
 49
0.05
 74
     0
 49
-0.05
 74
     0
  0
LTYPE
  5
73
330
5
100
AcDbSymbolTableRecord
100
AcDbLinetypeTableRecord
  2
SLD-点線
 70
     0
  3
SolidWorks Line Style
 72
    65
 73
     2
 40
0.025
 49
0.0
 74
     0
 49
-0.025
 74
     0
  0
LTYPE
  5
74
330
5
100
AcDbSymbolTableRecord
100
AcDbLinetypeTableRecord
  2
SLD-細-太鎖線(切断面)
 70
     0
  3
SolidWorks Line Style
 72
    65
 73
     4
 40
0.4
 49
0.25
 74
     0
 49
-0.05
 74
     0
 49
0.05
 74
     0
 49
-0.05
 74
     0
  0
ENDTAB
  0
TABLE
  2
LAYER
  5
2
330
0
100
AcDbSymbolTable
 70
     4
  0
LAYER
  5
10
330
2
100
AcDbSymbolTableRecord
100
AcDbLayerTableRecord
  2
0
 70
     0
 62
     7
  6
Continuous
370
    -3
390
F
  0
LAYER
  5
75
330
2
100
AcDbSymbolTableRecord
100
AcDbLayerTableRecord
  2
SLD-0
 70
     0
 62
   179
  6
SLD-実線
370
    -3
390
F
  0
LAYER
  5
76
330
2
100
AcDbSymbolTableRecord
100
AcDbLayerTableRecord
  2
100
 70
     0
 62
   179
  6
SLD-実線
370
    -3
390
F
  0
LAYER
  5
77
330
2
100
AcDbSymbolTableRecord
100
AcDbLayerTableRecord
  2
1
 70
     0
 62
   179
  6
SLD-実線
370
    -3
390
F
  0
ENDTAB
  0
TABLE
  2
STYLE
  5
3
330
0
100
AcDbSymbolTable
 70
     4
  0
STYLE
  5
11
330
3
100
AcDbSymbolTableRecord
100
AcDbTextStyleTableRecord
  2
STANDARD
 70
     0
 40
0.0
 41
1.0
 50
0.0
 71
     0
 42
0.1377952756
  3
GOTHIC.TTF
  4

1001
ACAD
1000
CENTURY GOTHIC
1071
       34
  0
STYLE
  5
81
330
3
100
AcDbSymbolTableRecord
100
AcDbTextStyleTableRecord
  2
SLDTEXTSTYLE0
 70
     0
 40
0.0
 41
0.5952377551
 50
0.0
 71
     0
 42
0.1377952756
  3
SWMONO.TTF
  4
bigfont
1001
ACAD
1000
SWMONO
1071
      258
  0
STYLE
  5
87
330
3
100
AcDbSymbolTableRecord
100
AcDbTextStyleTableRecord
  2
SLDTEXTSTYLE1
 70
     0
 40
0.0
 41
0.7142857143
 50
0.0
 71
     0
 42
0.1377952756
  3
SWMONO.TTF
  4

1001
ACAD
1000
SWMONO
1071
      258
  0
STYLE
  5
A3
330
3
100
AcDbSymbolTableRecord
100
AcDbTextStyleTableRecord
  2
SLDTEXTSTYLE2
 70
     0
 40
0.0
 41
0.6696428571
 50
0.0
 71
     0
 42
0.1377952756
  3
SWMONO.TTF
  4

1001
ACAD
1000
SWMONO
1071
      258
  0
ENDTAB
  0
TABLE
  2
VIEW
  5
6
330
0
100
AcDbSymbolTable
 70
     0
  0
ENDTAB
  0
TABLE
  2
UCS
  5
7
330
0
100
AcDbSymbolTable
 70
     0
  0
ENDTAB
  0
TABLE
  2
APPID
  5
9
330
0
100
AcDbSymbolTable
 70
     1
  0
APPID
  5
12
330
9
100
AcDbSymbolTableRecord
100
AcDbRegAppTableRecord
  2
ACAD
 70
     0
  0
ENDTAB
  0
TABLE
  2
DIMSTYLE
  5
A
330
0
100
AcDbSymbolTable
 70
     1
100
AcDbDimStyleTable
  0
DIMSTYLE
105
27
330
A
100
AcDbSymbolTableRecord
100
AcDbDimStyleTableRecord
  2
Standard
 70
     0
178
     0
340
11
  0
ENDTAB
  0
TABLE
  2
BLOCK_RECORD
  5
1
330
0
100
AcDbSymbolTable
 70
    23
  0
BLOCK_RECORD
  5
1F
330
1
100
AcDbSymbolTableRecord
100
AcDbBlockTableRecord
  2
*Model_Space
340
22
  0
BLOCK_RECORD
  5
1B
330
1
100
AcDbSymbolTableRecord
100
AcDbBlockTableRecord
  2
*Paper_Space
340
1E
  0
BLOCK_RECORD
  5
78
330
1
100
AcDbSymbolTableRecord
100
AcDbBlockTableRecord
  2
ZU_DIM_00037
340
0
  0
BLOCK_RECORD
  5
7E
330
1
100
AcDbSymbolTableRecord
100
AcDbBlockTableRecord
  2
SW_NOTE_0
340
0
102
{BLKREFS
331
83
102
}
  0
BLOCK_RECORD
  5
84
330
1
100
AcDbSymbolTableRecord
100
AcDbBlockTableRecord
  2
SW_NOTE_0_1
340
0
102
{BLKREFS
331
89
102
}
  0
BLOCK_RECORD
  5
8A
330
1
100
AcDbSymbolTableRecord
100
AcDbBlockTableRecord
  2
ZU_DIM_00031
340
0
  0
BLOCK_RECORD
  5
90
330
1
100
AcDbSymbolTableRecord
100
AcDbBlockTableRecord
  2
SW_NOTE_0_2
340
0
102
{BLKREFS
331
94
102
}
  0
BLOCK_RECORD
  5
95
330
1
100
AcDbSymbolTableRecord
100
AcDbBlockTableRecord
  2
SW_NOTE_0_3
340
0
102
{BLKREFS
331
99
102
}
  0
BLOCK_RECORD
  5
9A
330
1
100
AcDbSymbolTableRecord
100
AcDbBlockTableRecord
  2
ZU_DIM_00035
340
0
  0
BLOCK_RECORD
  5
A0
330
1
100
AcDbSymbolTableRecord
100
AcDbBlockTableRecord
  2
SW_NOTE_0_4
340
0
102
{BLKREFS
331
A5
102
}
  0
BLOCK_RECORD
  5
A6
330
1
100
AcDbSymbolTableRecord
100
AcDbBlockTableRecord
  2
ZU_DIM_00032
340
0
  0
BLOCK_RECORD
  5
AC
330
1
100
AcDbSymbolTableRecord
100
AcDbBlockTableRecord
  2
SW_NOTE_0_5
340
0
102
{BLKREFS
331
B0
102
}
  0
BLOCK_RECORD
  5
B1
330
1
100
AcDbSymbolTableRecord
100
AcDbBlockTableRecord
  2
SW_NOTE_0_6
340
0
102
{BLKREFS
331
B5
102
}
  0
BLOCK_RECORD
  5
B6
330
1
100
AcDbSymbolTableRecord
100
AcDbBlockTableRecord
  2
ZU_DIM_00036
340
0
  0
BLOCK_RECORD
  5
BC
330
1
100
AcDbSymbolTableRecord
100
AcDbBlockTableRecord
  2
SW_NOTE_0_7
340
0
102
{BLKREFS
331
C0
102
}
  0
BLOCK_RECORD
  5
C1
330
1
100
AcDbSymbolTableRecord
100
AcDbBlockTableRecord
  2
SW_NOTE_0_8
340
0
102
{BLKREFS
331
C5
102
}
  0
BLOCK_RECORD
  5
C6
330
1
100
AcDbSymbolTableRecord
100
AcDbBlockTableRecord
  2
ZU_DIM_00034
340
0
  0
BLOCK_RECORD
  5
CC
330
1
100
AcDbSymbolTableRecord
100
AcDbBlockTableRecord
  2
SW_NOTE_0_9
340
0
102
{BLKREFS
331
D0
102
}
  0
BLOCK_RECORD
  5
D1
330
1
100
AcDbSymbolTableRecord
100
AcDbBlockTableRecord
  2
ZU_DIM_00033
340
0
  0
BLOCK_RECORD
  5
D7
330
1
100
AcDbSymbolTableRecord
100
AcDbBlockTableRecord
  2
SW_NOTE_0_10
340
0
102
{BLKREFS
331
DB
102
}
  0
BLOCK_RECORD
  5
DC
330
1
100
AcDbSymbolTableRecord
100
AcDbBlockTableRecord
  2
SW_NOTE_0_11
340
0
102
{BLKREFS
331
E0
102
}
  0
BLOCK_RECORD
  5
E1
330
1
100
AcDbSymbolTableRecord
100
AcDbBlockTableRecord
  2
ZU_DIM_00038
340
0
  0
BLOCK_RECORD
  5
E7
330
1
100
AcDbSymbolTableRecord
100
AcDbBlockTableRecord
  2
SW_NOTE_0_12
340
0
102
{BLKREFS
331
EB
102
}
  0
BLOCK_RECORD
  5
EC
330
1
100
AcDbSymbolTableRecord
100
AcDbBlockTableRecord
  2
SW_NOTE_0_13
340
0
102
{BLKREFS
331
F0
102
}
  0
BLOCK_RECORD
  5
F1
330
1
100
AcDbSymbolTableRecord
100
AcDbBlockTableRecord
  2
_OPEN30
340
0
102
{BLKREFS
331
F7
331
F8
331
F9
331
FA
331
FB
331
FC
331
FD
331
FE
331
FF
331
100
331
101
331
102
331
103
331
104
331
105
331
106
102
}
  0
ENDTAB
  0
ENDSEC
  0
SECTION
  2
BLOCKS
  0
BLOCK
  5
20
330
1F
100
AcDbEntity
  8
0
100
AcDbBlockBegin
  2
*Model_Space
 70
     0
 10
0.0
 20
0.0
 30
0.0
  3
*Model_Space
  1

  0
ENDBLK
  5
21
330
1F
100
AcDbEntity
  8
0
100
AcDbBlockEnd
  0
BLOCK
  5
1C
330
1B
100
AcDbEntity
 67
     1
  8
0
100
AcDbBlockBegin
  2
*Paper_Space
 70
     0
 10
0.0
 20
0.0
 30
0.0
  3
*Paper_Space
  1

  0
ENDBLK
  5
1D
330
1B
100
AcDbEntity
 67
     1
  8
0
100
AcDbBlockEnd
  0
BLOCK
  5
79
330
78
100
AcDbEntity
  8
0
100
AcDbBlockBegin
  2
ZU_DIM_00037
 70
     0
 10
0.0
 20
0.0
 30
0.0
  3
ZU_DIM_00037
  1

  0
ARC
  5
7B
330
78
100
AcDbEntity
  8
SLD-0
  6
SLD-実線
370
    18
100
AcDbCircle
 10
-43.06477
 20
-21.484648
 30
0.0
 40
23.74998900000001
100
AcDbArc
 50
204.070932
 51
212.112442
  0
ARC
  5
7C
330
78
100
AcDbEntity
  8
SLD-0
  6
SLD-実線
370
    18
100
AcDbCircle
 10
-43.06477
 20
-21.484648
 30
0.0
 40
23.75001499999999
100
AcDbArc
 50
24.0709
 51
32.112404
  0
LINE
  5
7D
330
78
100
AcDbEntity
  8
SLD-0
  6
SLD-実線
370
    18
100
AcDbLine
 10
-64.016884
 20
-32.668133
 30
0.0
 11
-12.154201
 21
-4.985723
 31
0.0
  0
INSERT
  5
83
330
78
100
AcDbEntity
  8
SLD-0
 62
   179
100
AcDbBlockReference
  2
SW_NOTE_0
 10
-19.2750263209
 20
-10.333206531
 30
0.0
  0
INSERT
  5
89
330
78
100
AcDbEntity
  8
SLD-0
 62
   179
100
AcDbBlockReference
  2
SW_NOTE_0_1
 10
-18.7809983209
 20
-10.069511531
 30
0.0
  0
INSERT
  5
F7
330
78
100
AcDbEntity
  8
0
  6
Continuous
 62
     7
100
AcDbBlockReference
  2
_OPEN30
 10
-22.112612
 20
-10.301161
 30
0.0
 41
2.0
 42
2.0
 43
2.0
 50
28.091673
  0
INSERT
  5
F8
330
78
100
AcDbEntity
  8
0
  6
Continuous
 62
     7
100
AcDbBlockReference
  2
_OPEN30
 10
-64.016884
 20
-32.668133
 30
0.0
 41
2.0
 42
2.0
 43
2.0
 50
208.091675
  0
ENDBLK
  5
7A
330
78
100
AcDbEntity
  8
0
100
AcDbBlockEnd
  0
BLOCK
  5
7F
330
7E
100
AcDbEntity
  8
0
100
AcDbBlockBegin
  2
SW_NOTE_0
 70
     0
 10
0.0
 20
0.0
 30
0.0
  3
SW_NOTE_0
  1

  0
MTEXT
  5
82
330
7E
100
AcDbEntity
  8
SLD-0
 62
     0
100
AcDbMText
 10
-2.056146068
 20
3.8521685058
 30
0.0
 40
3.2
 41
0.0
 71
     1
 72
     1
  1
φ
  7
SLDTEXTSTYLE0
 11
0.8821954009412215
 21
0.4708835042323711
 31
0.0
 73
     1
 44
1.0
  0
ENDBLK
  5
80
330
7E
100
AcDbEntity
  8
0
100
AcDbBlockEnd
  0
BLOCK
  5
85
330
84
100
AcDbEntity
  8
0
100
AcDbBlockBegin
  2
SW_NOTE_0_1
 70
     0
 10
0.0
 20
0.0
 30
0.0
  3
SW_NOTE_0_1
  1

  0
MTEXT
  5
88
330
84
100
AcDbEntity
  8
SLD-0
 62
     0
100
AcDbMText
 10
-2.056146068
 20
3.8521685058
 30
0.0
 40
3.2
 41
0.0
 71
     1
 72
     1
  1
190
  7
SLDTEXTSTYLE1
 11
0.8821954009412215
 21
0.4708835042323711
 31
0.0
 73
     1
 44
1.0
  0
ENDBLK
  5
86
330
84
100
AcDbEntity
  8
0
100
AcDbBlockEnd
  0
BLOCK
  5
8B
330
8A
100
AcDbEntity
  8
0
100
AcDbBlockBegin
  2
ZU_DIM_00031
 70
     0
 10
0.0
 20
0.0
 30
0.0
  3
ZU_DIM_00031
  1

  0
ARC
  5
8D
330
8A
100
AcDbEntity
  8
SLD-0
  6
SLD-実線
370
    18
100
AcDbCircle
 10
266.82135
 20
-108.384232
 30
0.0
 40
21.24997900000001
100
AcDbArc
 50
225.708227
 51
237.963972
  0
ARC
  5
8E
330
8A
100
AcDbEntity
  8
SLD-0
  6
SLD-実線
370
    18
100
AcDbCircle
 10
266.82135
 20
-108.384232
 30
0.0
 40
21.250011
100
AcDbArc
 50
45.708138
 51
57.963867
  0
LINE
  5
8F
330
8A
100
AcDbEntity
  8
SLD-0
  6
SLD-実線
370
    18
100
AcDbLine
 10
253.690689
 20
-125.091949
 30
0.0
 11
279.952026
 21
-91.676514
 31
0.0
  0
INSERT
  5
94
330
8A
100
AcDbEntity
  8
SLD-0
 62
   179
100
AcDbBlockReference
  2
SW_NOTE_0_2
 10
270.6666962403
 20
-105.478841759
 30
0.0
  0
INSERT
  5
99
330
8A
100
AcDbEntity
  8
SLD-0
 62
   179
100
AcDbBlockReference
  2
SW_NOTE_0_3
 10
271.0127042403
 20
-105.038549759
 30
0.0
  0
INSERT
  5
F9
330
8A
100
AcDbEntity
  8
0
  6
Continuous
 62
     7
100
AcDbBlockReference
  2
_OPEN30
 10
253.690689
 20
-125.091949
 30
0.0
 41
2.0
 42
2.0
 43
2.0
 50
231.83604
  0
INSERT
  5
FA
330
8A
100
AcDbEntity
  8
0
  6
Continuous
 62
     7
100
AcDbBlockReference
  2
_OPEN30
 10
279.952026
 20
-91.676514
 30
0.0
 41
2.0
 42
2.0
 43
2.0
 50
51.83604
  0
ENDBLK
  5
8C
330
8A
100
AcDbEntity
  8
0
100
AcDbBlockEnd
  0
BLOCK
  5
91
330
90
100
AcDbEntity
  8
0
100
AcDbBlockBegin
  2
SW_NOTE_0_2
 70
     0
 10
0.0
 20
0.0
 30
0.0
  3
SW_NOTE_0_2
  1

  0
MTEXT
  5
93
330
90
100
AcDbEntity
  8
SLD-0
 62
     0
100
AcDbMText
 10
-3.4331966317
 20
2.6981659952
 30
0.0
 40
3.2
 41
0.0
 71
     1
 72
     1
  1
φ
  7
SLDTEXTSTYLE0
 11
0.6179142029760814
 21
0.7862455327443419
 31
0.0
 73
     1
 44
1.0
  0
ENDBLK
  5
92
330
90
100
AcDbEntity
  8
0
100
AcDbBlockEnd
  0
BLOCK
  5
96
330
95
100
AcDbEntity
  8
0
100
AcDbBlockBegin
  2
SW_NOTE_0_3
 70
     0
 10
0.0
 20
0.0
 30
0.0
  3
SW_NOTE_0_3
  1

  0
MTEXT
  5
98
330
95
100
AcDbEntity
  8
SLD-0
 62
     0
100
AcDbMText
 10
-3.4331966317
 20
2.6981659952
 30
0.0
 40
3.2
 41
0.0
 71
     1
 72
     1
  1
170
  7
SLDTEXTSTYLE1
 11
0.6179142029760814
 21
0.7862455327443419
 31
0.0
 73
     1
 44
1.0
  0
ENDBLK
  5
97
330
95
100
AcDbEntity
  8
0
100
AcDbBlockEnd
  0
BLOCK
  5
9B
330
9A
100
AcDbEntity
  8
0
100
AcDbBlockBegin
  2
ZU_DIM_00035
 70
     0
 10
0.0
 20
0.0
 30
0.0
  3
ZU_DIM_00035
  1

  0
ARC
  5
9D
330
9A
100
AcDbEntity
  8
SLD-0
  6
SLD-実線
370
    18
100
AcDbCircle
 10
-43.06477
 20
-21.484652
 30
0.0
 40
29.318988
100
AcDbArc
 50
315.000016
 51
0.0
  0
LINE
  5
9E
330
9A
100
AcDbEntity
  8
SLD-0
  6
SLD-実線
370
    18
100
AcDbLine
 10
-23.724817
 20
-40.824591
 30
0.0
 11
-20.726038
 21
-43.823364
 31
0.0
  0
LINE
  5
9F
330
9A
100
AcDbEntity
  8
SLD-0
  6
SLD-実線
370
    18
100
AcDbLine
 10
-16.709772
 20
-21.484652
 30
0.0
 11
-11.473048
 21
-21.484652
 31
0.0
  0
INSERT
  5
A5
330
9A
100
AcDbEntity
  8
SLD-0
 62
   179
100
AcDbBlockReference
  2
SW_NOTE_0_4
 10
-15.2232264348
 20
-33.9261921638
 30
0.0
  0
INSERT
  5
FB
330
9A
100
AcDbEntity
  8
0
  6
Continuous
 62
     7
100
AcDbBlockReference
  2
_OPEN30
 10
-13.745769
 20
-21.484652
 30
0.0
 41
2.0
 42
2.0
 43
2.0
 50
90.0
  0
INSERT
  5
FC
330
9A
100
AcDbEntity
  8
0
  6
Continuous
 62
     7
100
AcDbBlockReference
  2
_OPEN30
 10
-22.333109
 20
-42.216301
 30
0.0
 41
2.0
 42
2.0
 43
2.0
 50
225.000016
  0
ENDBLK
  5
9C
330
9A
100
AcDbEntity
  8
0
100
AcDbBlockEnd
  0
BLOCK
  5
A1
330
A0
100
AcDbEntity
  8
0
100
AcDbBlockBegin
  2
SW_NOTE_0_4
 70
     0
 10
0.0
 20
0.0
 30
0.0
  3
SW_NOTE_0_4
  1

  0
MTEXT
  5
A4
330
A0
100
AcDbEntity
  8
SLD-0
 62
     0
100
AcDbMText
 10
-4.0341858802
 20
1.6710126074
 30
0.0
 40
3.2
 41
0.0
 71
     1
 72
     1
  1
45°
  7
SLDTEXTSTYLE2
 11
0.3826830614960453
 21
0.9238796861301877
 31
0.0
 73
     1
 44
1.0
  0
ENDBLK
  5
A2
330
A0
100
AcDbEntity
  8
0
100
AcDbBlockEnd
  0
BLOCK
  5
A7
330
A6
100
AcDbEntity
  8
0
100
AcDbBlockBegin
  2
ZU_DIM_00032
 70
     0
 10
0.0
 20
0.0
 30
0.0
  3
ZU_DIM_00032
  1

  0
ARC
  5
A9
330
A6
100
AcDbEntity
  8
SLD-0
  6
SLD-実線
370
    18
100
AcDbCircle
 10
266.82135
 20
-108.384232
 30
0.0
 40
20.00000700000002
100
AcDbArc
 50
319.578299
 51
332.600094
  0
ARC
  5
AA
330
A6
100
AcDbEntity
  8
SLD-0
  6
SLD-実線
370
    18
100
AcDbCircle
 10
266.82135
 20
-108.384232
 30
0.0
 40
19.99997199999999
100
AcDbArc
 50
139.578214
 51
152.600034
  0
LINE
  5
AB
330
A6
100
AcDbEntity
  8
SLD-0
  6
SLD-実線
370
    18
100
AcDbLine
 10
283.419525
 20
-119.542282
 30
0.0
 11
250.223251
 21
-97.226181
 31
0.0
  0
INSERT
  5
B0
330
A6
100
AcDbEntity
  8
SLD-0
 62
   179
100
AcDbBlockReference
  2
SW_NOTE_0_5
 10
254.4078749971
 20
-101.5190773229
 30
0.0
  0
INSERT
  5
B5
330
A6
100
AcDbEntity
  8
SLD-0
 62
   179
100
AcDbBlockReference
  2
SW_NOTE_0_6
 10
254.8726279971
 20
-101.8315003229
 30
0.0
  0
INSERT
  5
FD
330
A6
100
AcDbEntity
  8
0
  6
Continuous
 62
     7
100
AcDbBlockReference
  2
_OPEN30
 10
283.419525
 20
-119.542282
 30
0.0
 41
2.0
 42
2.0
 43
2.0
 50
326.089144
  0
INSERT
  5
FE
330
A6
100
AcDbEntity
  8
0
  6
Continuous
 62
     7
100
AcDbBlockReference
  2
_OPEN30
 10
250.223251
 20
-97.226181
 30
0.0
 41
2.0
 42
2.0
 43
2.0
 50
146.089144
  0
ENDBLK
  5
A8
330
A6
100
AcDbEntity
  8
0
100
AcDbBlockEnd
  0
BLOCK
  5
AD
330
AC
100
AcDbEntity
  8
0
100
AcDbBlockBegin
  2
SW_NOTE_0_5
 70
     0
 10
0.0
 20
0.0
 30
0.0
  3
SW_NOTE_0_5
  1

  0
MTEXT
  5
AF
330
AC
100
AcDbEntity
  8
SLD-0
 62
     0
100
AcDbMText
 10
2.436118924
 20
3.6238464976
 30
0.0
 40
3.2
 41
0.0
 71
     1
 72
     1
  1
φ
  7
SLDTEXTSTYLE0
 11
0.8299067678598613
 21
-0.5579021031152315
 31
0.0
 73
     1
 44
1.0
  0
ENDBLK
  5
AE
330
AC
100
AcDbEntity
  8
0
100
AcDbBlockEnd
  0
BLOCK
  5
B2
330
B1
100
AcDbEntity
  8
0
100
AcDbBlockBegin
  2
SW_NOTE_0_6
 70
     0
 10
0.0
 20
0.0
 30
0.0
  3
SW_NOTE_0_6
  1

  0
MTEXT
  5
B4
330
B1
100
AcDbEntity
  8
SLD-0
 62
     0
100
AcDbMText
 10
2.436118924
 20
3.6238464976
 30
0.0
 40
3.2
 41
0.0
 71
     1
 72
     1
  1
160
  7
SLDTEXTSTYLE1
 11
0.8299067678598613
 21
-0.5579021031152315
 31
0.0
 73
     1
 44
1.0
  0
ENDBLK
  5
B3
330
B1
100
AcDbEntity
  8
0
100
AcDbBlockEnd
  0
BLOCK
  5
B7
330
B6
100
AcDbEntity
  8
0
100
AcDbBlockBegin
  2
ZU_DIM_00036
 70
     0
 10
0.0
 20
0.0
 30
0.0
  3
ZU_DIM_00036
  1

  0
ARC
  5
B9
330
B6
100
AcDbEntity
  8
SLD-0
  6
SLD-実線
370
    18
100
AcDbCircle
 10
-43.06477
 20
-21.484648
 30
0.0
 40
21.249984
100
AcDbArc
 50
228.003118
 51
236.990668
  0
ARC
  5
BA
330
B6
100
AcDbEntity
  8
SLD-0
  6
SLD-実線
370
    18
100
AcDbCircle
 10
-43.06477
 20
-21.484648
 30
0.0
 40
21.250003
100
AcDbArc
 50
48.003075
 51
56.990652
  0
LINE
  5
BB
330
B6
100
AcDbEntity
  8
SLD-0
  6
SLD-実線
370
    18
100
AcDbLine
 10
-56.001858
 20
-38.342693
 30
0.0
 11
-30.127665
 21
-4.626597
 31
0.0
  0
INSERT
  5
C0
330
B6
100
AcDbEntity
  8
SLD-0
 62
   179
100
AcDbBlockReference
  2
SW_NOTE_0_7
 10
-37.0946676655
 20
-15.9463331024
 30
0.0
  0
INSERT
  5
C5
330
B6
100
AcDbEntity
  8
SLD-0
 62
   179
100
AcDbBlockReference
  2
SW_NOTE_0_8
 10
-36.7537376655
 20
-15.5020731024
 30
0.0
  0
INSERT
  5
FF
330
B6
100
AcDbEntity
  8
0
  6
Continuous
 62
     7
100
AcDbBlockReference
  2
_OPEN30
 10
-56.001858
 20
-38.342693
 30
0.0
 41
2.0
 42
2.0
 43
2.0
 50
232.496874
  0
INSERT
  5
100
330
B6
100
AcDbEntity
  8
0
  6
Continuous
 62
     7
100
AcDbBlockReference
  2
_OPEN30
 10
-30.127665
 20
-4.626597
 30
0.0
 41
2.0
 42
2.0
 43
2.0
 50
52.496874
  0
ENDBLK
  5
B8
330
B6
100
AcDbEntity
  8
0
100
AcDbBlockEnd
  0
BLOCK
  5
BD
330
BC
100
AcDbEntity
  8
0
100
AcDbBlockBegin
  2
SW_NOTE_0_7
 70
     0
 10
0.0
 20
0.0
 30
0.0
  3
SW_NOTE_0_7
  1

  0
MTEXT
  5
BF
330
BC
100
AcDbEntity
  8
SLD-0
 62
     0
100
AcDbMText
 10
-3.4640888054
 20
2.658388158
 30
0.0
 40
3.2
 41
0.0
 71
     1
 72
     1
  1
φ
  7
SLDTEXTSTYLE0
 11
0.6088045742010399
 21
0.7933202319567367
 31
0.0
 73
     1
 44
1.0
  0
ENDBLK
  5
BE
330
BC
100
AcDbEntity
  8
0
100
AcDbBlockEnd
  0
BLOCK
  5
C2
330
C1
100
AcDbEntity
  8
0
100
AcDbBlockBegin
  2
SW_NOTE_0_8
 70
     0
 10
0.0
 20
0.0
 30
0.0
  3
SW_NOTE_0_8
  1

  0
MTEXT
  5
C4
330
C1
100
AcDbEntity
  8
SLD-0
 62
     0
100
AcDbMText
 10
-3.4640888054
 20
2.658388158
 30
0.0
 40
3.2
 41
0.0
 71
     1
 72
     1
  1
170
  7
SLDTEXTSTYLE1
 11
0.6088045742010399
 21
0.7933202319567367
 31
0.0
 73
     1
 44
1.0
  0
ENDBLK
  5
C3
330
C1
100
AcDbEntity
  8
0
100
AcDbBlockEnd
  0
BLOCK
  5
C7
330
C6
100
AcDbEntity
  8
0
100
AcDbBlockBegin
  2
ZU_DIM_00034
 70
     0
 10
0.0
 20
0.0
 30
0.0
  3
ZU_DIM_00034
  1

  0
ARC
  5
C9
330
C6
100
AcDbEntity
  8
SLD-0
  6
SLD-実線
370
    18
100
AcDbCircle
 10
266.821381
 20
-108.384232
 30
0.0
 40
27.83551000000003
100
AcDbArc
 50
315.0
 51
0.0
  0
LINE
  5
CA
330
C6
100
AcDbEntity
  8
SLD-0
  6
SLD-実線
370
    18
100
AcDbLine
 10
285.137617
 20
-126.700455
 30
0.0
 11
288.111115
 21
-129.673965
 31
0.0
  0
LINE
  5
CB
330
C6
100
AcDbEntity
  8
SLD-0
  6
SLD-実線
370
    18
100
AcDbLine
 10
290.834381
 20
-108.384232
 30
0.0
 11
296.929596
 21
-108.384232
 31
0.0
  0
INSERT
  5
D0
330
C6
100
AcDbEntity
  8
SLD-0
 62
   179
100
AcDbBlockReference
  2
SW_NOTE_0_9
 10
293.0976533552
 20
-120.1774136708
 30
0.0
  0
INSERT
  5
101
330
C6
100
AcDbEntity
  8
0
  6
Continuous
 62
     7
100
AcDbBlockReference
  2
_OPEN30
 10
286.504059
 20
-128.06691
 30
0.0
 41
2.0
 42
2.0
 43
2.0
 50
225.0
  0
INSERT
  5
102
330
C6
100
AcDbEntity
  8
0
  6
Continuous
 62
     7
100
AcDbBlockReference
  2
_OPEN30
 10
294.656891
 20
-108.384232
 30
0.0
 41
2.0
 42
2.0
 43
2.0
 50
90.0
  0
ENDBLK
  5
C8
330
C6
100
AcDbEntity
  8
0
100
AcDbBlockEnd
  0
BLOCK
  5
CD
330
CC
100
AcDbEntity
  8
0
100
AcDbBlockBegin
  2
SW_NOTE_0_9
 70
     0
 10
0.0
 20
0.0
 30
0.0
  3
SW_NOTE_0_9
  1

  0
MTEXT
  5
CF
330
CC
100
AcDbEntity
  8
SLD-0
 62
     0
100
AcDbMText
 10
-4.0341850927
 20
1.6710145085
 30
0.0
 40
3.2
 41
0.0
 71
     1
 72
     1
  1
45°
  7
SLDTEXTSTYLE2
 11
0.3826834968640478
 21
0.9238795057949409
 31
0.0
 73
     1
 44
1.0
  0
ENDBLK
  5
CE
330
CC
100
AcDbEntity
  8
0
100
AcDbBlockEnd
  0
BLOCK
  5
D2
330
D1
100
AcDbEntity
  8
0
100
AcDbBlockBegin
  2
ZU_DIM_00033
 70
     0
 10
0.0
 20
0.0
 30
0.0
  3
ZU_DIM_00033
  1

  0
ARC
  5
D4
330
D1
100
AcDbEntity
  8
SLD-0
  6
SLD-実線
370
    18
100
AcDbCircle
 10
266.82135
 20
-108.384232
 30
0.0
 40
23.74997700000005
100
AcDbArc
 50
211.77517
 51
222.740894
  0
ARC
  5
D5
330
D1
100
AcDbEntity
  8
SLD-0
  6
SLD-実線
370
    18
100
AcDbCircle
 10
266.82135
 20
-108.384232
 30
0.0
 40
23.75004199999998
100
AcDbArc
 50
31.775073
 51
42.740769
  0
LINE
  5
D6
330
D1
100
AcDbEntity
  8
SLD-0
  6
SLD-実線
370
    18
100
AcDbLine
 10
243.396072
 20
-126.202393
 30
0.0
 11
296.023193
 21
-86.172226
 31
0.0
  0
INSERT
  5
DB
330
D1
100
AcDbEntity
  8
SLD-0
 62
   179
100
AcDbBlockReference
  2
SW_NOTE_0_10
 10
287.2156910989
 20
-94.4145420913
 30
0.0
  0
INSERT
  5
E0
330
D1
100
AcDbEntity
  8
SLD-0
 62
   179
100
AcDbBlockReference
  2
SW_NOTE_0_11
 10
287.6614000989
 20
-94.0755150913
 30
0.0
  0
INSERT
  5
103
330
D1
100
AcDbEntity
  8
0
  6
Continuous
 62
     7
100
AcDbBlockReference
  2
_OPEN30
 10
247.91832
 20
-122.762589
 30
0.0
 41
2.0
 42
2.0
 43
2.0
 50
37.257974
  0
INSERT
  5
104
330
D1
100
AcDbEntity
  8
0
  6
Continuous
 62
     7
100
AcDbBlockReference
  2
_OPEN30
 10
285.724426
 20
-94.005875
 30
0.0
 41
2.0
 42
2.0
 43
2.0
 50
217.257967
  0
ENDBLK
  5
D3
330
D1
100
AcDbEntity
  8
0
100
AcDbBlockEnd
  0
BLOCK
  5
D8
330
D7
100
AcDbEntity
  8
0
100
AcDbBlockBegin
  2
SW_NOTE_0_10
 70
     0
 10
0.0
 20
0.0
 30
0.0
  3
SW_NOTE_0_10
  1

  0
MTEXT
  5
DA
330
D7
100
AcDbEntity
  8
SLD-0
 62
     0
100
AcDbMText
 10
-2.6435422213
 20
3.475431394
 30
0.0
 40
3.2
 41
0.0
 71
     1
 72
     1
  1
φ
  7
SLDTEXTSTYLE0
 11
0.7959178284795796
 21
0.6054046665729877
 31
0.0
 73
     1
 44
1.0
  0
ENDBLK
  5
D9
330
D7
100
AcDbEntity
  8
0
100
AcDbBlockEnd
  0
BLOCK
  5
DD
330
DC
100
AcDbEntity
  8
0
100
AcDbBlockBegin
  2
SW_NOTE_0_11
 70
     0
 10
0.0
 20
0.0
 30
0.0
  3
SW_NOTE_0_11
  1

  0
MTEXT
  5
DF
330
DC
100
AcDbEntity
  8
SLD-0
 62
     0
100
AcDbMText
 10
-2.6435422213
 20
3.475431394
 30
0.0
 40
3.2
 41
0.0
 71
     1
 72
     1
  1
190
  7
SLDTEXTSTYLE1
 11
0.7959178284795796
 21
0.6054046665729877
 31
0.0
 73
     1
 44
1.0
  0
ENDBLK
  5
DE
330
DC
100
AcDbEntity
  8
0
100
AcDbBlockEnd
  0
BLOCK
  5
E2
330
E1
100
AcDbEntity
  8
0
100
AcDbBlockBegin
  2
ZU_DIM_00038
 70
     0
 10
0.0
 20
0.0
 30
0.0
  3
ZU_DIM_00038
  1

  0
ARC
  5
E4
330
E1
100
AcDbEntity
  8
SLD-0
  6
SLD-実線
370
    18
100
AcDbCircle
 10
-43.06477
 20
-21.484648
 30
0.0
 40
20.000003
100
AcDbArc
 50
321.526855
 51
331.076142
  0
ARC
  5
E5
330
E1
100
AcDbEntity
  8
SLD-0
  6
SLD-実線
370
    18
100
AcDbCircle
 10
-43.06477
 20
-21.484648
 30
0.0
 40
19.99998800000001
100
AcDbArc
 50
141.526795
 51
151.076079
  0
LINE
  5
E6
330
E1
100
AcDbEntity
  8
SLD-0
  6
SLD-実線
370
    18
100
AcDbLine
 10
-26.425386
 20
-32.581104
 30
0.0
 11
-59.704113
 21
-10.388186
 31
0.0
  0
INSERT
  5
EB
330
E1
100
AcDbEntity
  8
SLD-0
 62
   179
100
AcDbBlockReference
  2
SW_NOTE_0_12
 10
-56.0855548572
 20
-14.4413557937
 30
0.0
  0
INSERT
  5
F0
330
E1
100
AcDbEntity
  8
SLD-0
 62
   179
100
AcDbBlockReference
  2
SW_NOTE_0_13
 10
-55.6196508572
 20
-14.7520577937
 30
0.0
  0
INSERT
  5
105
330
E1
100
AcDbEntity
  8
0
  6
Continuous
 62
     7
100
AcDbBlockReference
  2
_OPEN30
 10
-59.704113
 20
-10.388186
 30
0.0
 41
2.0
 42
2.0
 43
2.0
 50
146.30147
  0
INSERT
  5
106
330
E1
100
AcDbEntity
  8
0
  6
Continuous
 62
     7
100
AcDbBlockReference
  2
_OPEN30
 10
-26.425386
 20
-32.581104
 30
0.0
 41
2.0
 42
2.0
 43
2.0
 50
326.30147
  0
ENDBLK
  5
E3
330
E1
100
AcDbEntity
  8
0
100
AcDbBlockEnd
  0
BLOCK
  5
E8
330
E7
100
AcDbEntity
  8
0
100
AcDbBlockBegin
  2
SW_NOTE_0_12
 70
     0
 10
0.0
 20
0.0
 30
0.0
  3
SW_NOTE_0_12
  1

  0
MTEXT
  5
EA
330
E7
100
AcDbEntity
  8
SLD-0
 62
     0
100
AcDbMText
 10
2.4226749234
 20
3.6328480653
 30
0.0
 40
3.2
 41
0.0
 71
     1
 72
     1
  1
φ
  7
SLDTEXTSTYLE0
 11
0.8319682409320523
 21
-0.5548232566145966
 31
0.0
 73
     1
 44
1.0
  0
ENDBLK
  5
E9
330
E7
100
AcDbEntity
  8
0
100
AcDbBlockEnd
  0
BLOCK
  5
ED
330
EC
100
AcDbEntity
  8
0
100
AcDbBlockBegin
  2
SW_NOTE_0_13
 70
     0
 10
0.0
 20
0.0
 30
0.0
  3
SW_NOTE_0_13
  1

  0
MTEXT
  5
EF
330
EC
100
AcDbEntity
  8
SLD-0
 62
     0
100
AcDbMText
 10
2.4226749234
 20
3.6328480653
 30
0.0
 40
3.2
 41
0.0
 71
     1
 72
     1
  1
160
  7
SLDTEXTSTYLE1
 11
0.8319682409320523
 21
-0.5548232566145966
 31
0.0
 73
     1
 44
1.0
  0
ENDBLK
  5
EE
330
EC
100
AcDbEntity
  8
0
100
AcDbBlockEnd
  0
BLOCK
  5
F2
330
F1
100
AcDbEntity
  8
0
100
AcDbBlockBegin
  2
_OPEN30
 70
     0
 10
0.0
 20
0.0
 30
0.0
  3
_OPEN30
  1

  0
LINE
  5
F4
330
F1
100
AcDbEntity
  8
SLD-0
  6
SLD-実線
370
    18
100
AcDbLine
 10
-1.0
 20
0.267949
 30
0.0
 11
0.0
 21
0.0
 31
0.0
  0
LINE
  5
F5
330
F1
100
AcDbEntity
  8
SLD-0
  6
SLD-実線
370
    18
100
AcDbLine
 10
0.0
 20
0.0
 30
0.0
 11
-1.0
 21
-0.267949
 31
0.0
  0
LINE
  5
F6
330
F1
100
AcDbEntity
  8
SLD-0
  6
SLD-実線
370
    18
100
AcDbLine
 10
0.0
 20
0.0
 30
0.0
 11
-1.0
 21
0.0
 31
0.0
  0
ENDBLK
  5
F3
330
F1
100
AcDbEntity
  8
0
100
AcDbBlockEnd
  0
ENDSEC
  0
SECTION
  2
ENTITIES
  0
VIEWPORT
  5
107
330
1B
100
AcDbEntity
 67
     1
  8
0
100
AcDbViewport
 10
22.0
 20
17.0
 30
0.0
 40
46.552
 41
35.972
 68
     1
 69
     1
 12
22.0
 22
17.0
 13
0.0
 23
0.0
 14
0.5
 24
0.5
 15
0.5
 25
0.5
 16
0.0
 26
0.0
 36
1.0
 17
0.0
 27
0.0
 37
0.0
 42
50.0
 43
0.0
 44
0.0
 45
35.972
 50
0.0
 51
0.0
 72
   100
 90
   557152
  1

281
     0
 71
     1
 74
     0
110
0.0
120
0.0
130
0.0
111
1.0
121
0.0
131
0.0
112
0.0
122
1.0
132
0.0
 79
     0
146
0.0
  0
LINE
  5
109
330
1B
100
AcDbEntity
 67
     1
  8
1
  6
SLD-実線
 62
   179
370
    18
100
AcDbLine
 10
21.0214029935
 20
27.8294731892
 30
0.0
 11
23.0292770098
 21
27.8294731892
 31
0.0
  0
LINE
  5
10A
330
1B
100
AcDbEntity
 67
     1
  8
1
  6
SLD-実線
 62
   179
370
    18
100
AcDbLine
 10
23.4111667736
 20
24.3731788576
 30
0.0
 11
23.4111667736
 21
27.4475834253
 31
0.0
  0
LINE
  5
10B
330
1B
100
AcDbEntity
 67
     1
  8
1
  6
SLD-実線
 62
   179
370
    18
100
AcDbLine
 10
21.0214029935
 20
23.9912890937
 30
0.0
 11
23.0292770098
 21
23.9912890937
 31
0.0
  0
LINE
  5
10C
330
1B
100
AcDbEntity
 67
     1
  8
1
  6
SLD-実線
 62
   179
370
    18
100
AcDbLine
 10
20.6395132296
 20
24.3731788576
 30
0.0
 11
20.6395132296
 21
27.4475834253
 31
0.0
  0
LINE
  5
10D
330
1B
100
AcDbEntity
 67
     1
  8
SLD-0
  6
SLD-実線
 62
   179
370
    18
100
AcDbLine
 10
23.4111667736
 20
12.6084786972
 30
0.0
 11
23.4111667736
 21
13.6458928707
 31
0.0
  0
LINE
  5
10E
330
1B
100
AcDbEntity
 67
     1
  8
SLD-0
  6
SLD-実線
 62
   179
370
    18
100
AcDbLine
 10
20.6395132296
 20
12.6084786972
 30
0.0
 11
20.6395132296
 21
13.6458928707
 31
0.0
  0
LINE
  5
10F
330
1B
100
AcDbEntity
 67
     1
  8
SLD-0
  6
SLD-鎖線
 62
   179
370
    18
100
AcDbLine
 10
22.0253400016
 20
11.1602823189
 30
0.0
 11
22.0253400016
 21
28.3551585436
 31
0.0
  0
LINE
  5
110
330
1B
100
AcDbEntity
 67
     1
  8
SLD-0
  6
SLD-実線
 62
   179
370
    18
100
AcDbLine
 10
24.4269148054
 20
23.4407985424
 30
0.0
 11
24.4269148054
 21
23.0864678337
 31
0.0
  0
LINE
  5
111
330
1B
100
AcDbEntity
 67
     1
  8
SLD-0
  6
SLD-実線
 62
   179
370
    18
100
AcDbLine
 10
24.1256968366
 20
26.899535262
 30
0.0
 11
24.0059313567
 21
27.008850171
 31
0.0
  0
LINE
  5
112
330
1B
100
AcDbEntity
 67
     1
  8
SLD-0
  6
SLD-実線
 62
   179
370
    18
100
AcDbLine
 10
24.2000593697
 20
27.0087375572
 30
0.0
 11
24.3382497686
 21
26.8996480333
 31
0.0
  0
LINE
  5
113
330
1B
100
AcDbEntity
 67
     1
  8
SLD-0
  6
SLD-実線
 62
   179
370
    18
100
AcDbLine
 10
24.1850836242
 20
27.0396393307
 30
0.0
 11
24.1850836242
 21
27.0628457874
 31
0.0
  0
LINE
  5
114
330
1B
100
AcDbEntity
 67
     1
  8
SLD-0
  6
SLD-実線
 62
   179
370
    18
100
AcDbLine
 10
24.0832277187
 20
27.0628457874
 30
0.0
 11
24.0832277187
 21
26.9382987008
 31
0.0
  0
LINE
  5
115
330
1B
100
AcDbEntity
 67
     1
  8
SLD-0
  6
SLD-実線
 62
   179
370
    18
100
AcDbLine
 10
24.353225514
 20
23.4407985424
 30
0.0
 11
24.353225514
 21
26.8687462598
 31
0.0
  0
LINE
  5
116
330
1B
100
AcDbEntity
 67
     1
  8
SLD-0
  6
SLD-実線
 62
   179
370
    18
100
AcDbLine
 10
23.9931025218
 20
27.0379287795
 30
0.0
 11
23.9931025218
 21
27.0628457874
 31
0.0
  0
LINE
  5
117
330
1B
100
AcDbEntity
 67
     1
  8
SLD-0
  6
SLD-実線
 62
   179
370
    18
100
AcDbLine
 10
23.8856639391
 20
27.0628457874
 30
0.0
 11
23.8856639391
 21
23.4407985424
 31
0.0
  0
LINE
  5
118
330
1B
100
AcDbEntity
 67
     1
  8
SLD-0
  6
SLD-実線
 62
   179
370
    18
100
AcDbLine
 10
24.1385256715
 20
26.8704566535
 30
0.0
 11
24.1385256715
 21
23.4407985424
 31
0.0
  0
LINE
  5
119
330
1B
100
AcDbEntity
 67
     1
  8
SLD-0
  6
SLD-実線
 62
   179
370
    18
100
AcDbLine
 10
23.5554996871
 20
27.8243912994
 30
0.0
 11
23.5554996871
 21
23.4407985424
 31
0.0
  0
LINE
  5
11A
330
1B
100
AcDbEntity
 67
     1
  8
SLD-0
  6
SLD-実線
 62
   179
370
    18
100
AcDbLine
 10
23.7086993721
 20
27.8130431104
 30
0.0
 11
23.7086993721
 21
23.4407985424
 31
0.0
  0
LINE
  5
11B
330
1B
100
AcDbEntity
 67
     1
  8
SLD-0
  6
SLD-実線
 62
   179
370
    18
100
AcDbLine
 10
23.8200548052
 20
27.8047946065
 30
0.0
 11
23.8200548052
 21
23.4407985424
 31
0.0
  0
LINE
  5
11C
330
1B
100
AcDbEntity
 67
     1
  8
SLD-0
  6
SLD-実線
 62
   179
370
    18
100
AcDbLine
 10
22.8476124428
 20
23.9912890937
 30
0.0
 11
22.8476124428
 21
23.4407985424
 31
0.0
  0
LINE
  5
11D
330
1B
100
AcDbEntity
 67
     1
  8
SLD-0
  6
SLD-実線
 62
   179
370
    18
100
AcDbLine
 10
22.9886198444
 20
23.9912890937
 30
0.0
 11
22.9886198444
 21
23.4407985424
 31
0.0
  0
LINE
  5
11E
330
1B
100
AcDbEntity
 67
     1
  8
SLD-0
  6
SLD-実線
 62
   179
370
    18
100
AcDbLine
 10
23.3967856713
 20
23.4407985424
 30
0.0
 11
23.3967856713
 21
24.2693651568
 31
0.0
  0
LINE
  5
11F
330
1B
100
AcDbEntity
 67
     1
  8
SLD-0
  6
SLD-実線
 62
   179
370
    18
100
AcDbLine
 10
23.2143548051
 20
23.4407985424
 30
0.0
 11
23.2143548051
 21
24.0391339756
 31
0.0
  0
LINE
  5
120
330
1B
100
AcDbEntity
 67
     1
  8
SLD-0
  6
SLD-実線
 62
   179
370
    18
100
AcDbLine
 10
24.3678596873
 20
27.0121105118
 30
0.0
 11
24.5259667739
 21
26.9208273622
 31
0.0
  0
LINE
  5
121
330
1B
100
AcDbEntity
 67
     1
  8
SLD-0
  6
SLD-実線
 62
   179
370
    18
100
AcDbLine
 10
22.7340014191
 20
23.0864678337
 30
0.0
 11
22.7340014191
 21
23.9912890937
 31
0.0
  0
LINE
  5
122
330
1B
100
AcDbEntity
 67
     1
  8
SLD-0
  6
SLD-実線
 62
   179
370
    18
100
AcDbLine
 10
24.7775965378
 20
23.5589087787
 30
0.0
 11
24.6335116558
 21
23.7265076763
 31
0.0
  0
LINE
  5
123
330
1B
100
AcDbEntity
 67
     1
  8
SLD-0
  6
SLD-実線
 62
   179
370
    18
100
AcDbLine
 10
24.7775965378
 20
23.5589087787
 30
0.0
 11
24.7775965378
 21
23.0864678337
 31
0.0
  0
LINE
  5
124
330
1B
100
AcDbEntity
 67
     1
  8
SLD-0
  6
SLD-実線
 62
   179
370
    18
100
AcDbLine
 10
24.5456365377
 20
26.8878259448
 30
0.0
 11
24.64279827
 21
23.3924215345
 31
0.0
  0
LINE
  5
125
330
1B
100
AcDbEntity
 67
     1
  8
SLD-0
  6
SLD-実線
 62
   179
370
    18
100
AcDbLine
 10
24.2887617345
 20
27.0628457874
 30
0.0
 11
24.292221577
 21
26.9359832677
 31
0.0
  0
LINE
  5
126
330
1B
100
AcDbEntity
 67
     1
  8
SLD-0
  6
SLD-実線
 62
   179
370
    18
100
AcDbLine
 10
22.7340014191
 20
23.4407985424
 30
0.0
 11
24.4269148054
 21
23.4407985424
 31
0.0
  0
LINE
  5
127
330
1B
100
AcDbEntity
 67
     1
  8
SLD-0
  6
SLD-実線
 62
   179
370
    18
100
AcDbLine
 10
20.8363251982
 20
23.4407985424
 30
0.0
 11
20.8363251982
 21
24.0391339756
 31
0.0
  0
LINE
  5
128
330
1B
100
AcDbEntity
 67
     1
  8
SLD-0
  6
SLD-実線
 62
   179
370
    18
100
AcDbLine
 10
20.4951804737
 20
27.8243912994
 30
0.0
 11
20.4951804737
 21
23.4407985424
 31
0.0
  0
LINE
  5
129
330
1B
100
AcDbEntity
 67
     1
  8
SLD-0
  6
SLD-実線
 62
   179
370
    18
100
AcDbLine
 10
20.2306253555
 20
27.8047946065
 30
0.0
 11
20.2306253555
 21
23.4407985424
 31
0.0
  0
LINE
  5
12A
330
1B
100
AcDbEntity
 67
     1
  8
SLD-0
  6
SLD-実線
 62
   179
370
    18
100
AcDbLine
 10
20.3419807886
 20
27.8130431104
 30
0.0
 11
20.3419807886
 21
23.4407985424
 31
0.0
  0
LINE
  5
12B
330
1B
100
AcDbEntity
 67
     1
  8
SLD-0
  6
SLD-実線
 62
   179
370
    18
100
AcDbLine
 10
20.6538944895
 20
23.4407985424
 30
0.0
 11
20.6538944895
 21
24.2693651568
 31
0.0
  0
LINE
  5
12C
330
1B
100
AcDbEntity
 67
     1
  8
SLD-0
  6
SLD-実線
 62
   179
370
    18
100
AcDbLine
 10
19.7025053554
 20
27.0462061024
 30
0.0
 11
19.7025053554
 21
27.0628457874
 31
0.0
  0
LINE
  5
12D
330
1B
100
AcDbEntity
 67
     1
  8
SLD-0
  6
SLD-実線
 62
   179
370
    18
100
AcDbLine
 10
19.7619184263
 20
27.0628457874
 30
0.0
 11
19.6787370089
 21
24.0128594874
 31
0.0
  0
LINE
  5
12E
330
1B
100
AcDbEntity
 67
     1
  8
SLD-0
  6
SLD-実線
 62
   179
370
    18
100
AcDbLine
 10
21.3166785841
 20
23.0864678337
 30
0.0
 11
21.3166785841
 21
23.9912890937
 31
0.0
  0
LINE
  5
12F
330
1B
100
AcDbEntity
 67
     1
  8
SLD-0
  6
SLD-実線
 62
   179
370
    18
100
AcDbLine
 10
19.6787370089
 20
24.0128594874
 30
0.0
 11
19.2931103947
 21
23.5813199598
 31
0.0
  0
LINE
  5
130
330
1B
100
AcDbEntity
 67
     1
  8
SLD-0
  6
SLD-実線
 62
   179
370
    18
100
AcDbLine
 10
19.966453072
 20
24.0313497237
 30
0.0
 11
19.5643033081
 21
23.5813199598
 31
0.0
  0
LINE
  5
131
330
1B
100
AcDbEntity
 67
     1
  8
SLD-0
  6
SLD-実線
 62
   179
370
    18
100
AcDbLine
 10
19.966453072
 20
24.3640054718
 30
0.0
 11
19.966453072
 21
23.0864678337
 31
0.0
  0
LINE
  5
132
330
1B
100
AcDbEntity
 67
     1
  8
SLD-0
  6
SLD-実線
 62
   179
370
    18
100
AcDbLine
 10
19.5050434656
 20
26.8878259448
 30
0.0
 11
19.4169859852
 21
23.7199442118
 31
0.0
  0
LINE
  5
133
330
1B
100
AcDbEntity
 67
     1
  8
SLD-0
  6
SLD-実線
 62
   179
370
    18
100
AcDbLine
 10
19.682820316
 20
27.0121105118
 30
0.0
 11
19.5247133868
 21
26.9208273622
 31
0.0
  0
LINE
  5
134
330
1B
100
AcDbEntity
 67
     1
  8
SLD-0
  6
SLD-実線
 62
   179
370
    18
100
AcDbLine
 10
19.6928604735
 20
24.5307216923
 30
0.0
 11
19.6787370089
 21
24.0128594874
 31
0.0
  0
LINE
  5
135
330
1B
100
AcDbEntity
 67
     1
  8
SLD-0
  6
SLD-実線
 62
   179
370
    18
100
AcDbLine
 10
21.3166785841
 20
23.4407985424
 30
0.0
 11
19.966453072
 21
23.4407985424
 31
0.0
  0
LINE
  5
136
330
1B
100
AcDbEntity
 67
     1
  8
SLD-0
  6
SLD-実線
 62
   179
370
    18
100
AcDbLine
 10
19.273083623
 20
23.5288533456
 30
0.0
 11
19.273083623
 21
23.0864678337
 31
0.0
  0
LINE
  5
137
330
1B
100
AcDbEntity
 67
     1
  8
SLD-0
  6
SLD-実線
 62
   179
370
    18
100
AcDbLine
 10
19.5442765364
 20
23.5288533456
 30
0.0
 11
19.5442765364
 21
23.0864678337
 31
0.0
  0
LINE
  5
138
330
1B
100
AcDbEntity
 67
     1
  8
SLD-0
  6
SLD-実線
 62
   179
370
    18
100
AcDbLine
 10
19.5502384262
 20
23.5589087787
 30
0.0
 11
19.2790453553
 21
23.5589087787
 31
0.0
  0
LINE
  5
139
330
1B
100
AcDbEntity
 67
     1
  8
SLD-0
  6
SLD-実線
 62
   179
370
    18
100
AcDbLine
 10
24.2887617345
 20
27.0628457874
 30
0.0
 11
24.292221577
 21
26.9359832677
 31
0.0
  0
LINE
  5
13A
330
1B
100
AcDbEntity
 67
     1
  8
SLD-0
  6
SLD-実線
 62
   179
370
    18
100
AcDbLine
 10
24.1850836242
 20
27.0396393307
 30
0.0
 11
24.1850836242
 21
27.0628457874
 31
0.0
  0
LINE
  5
13B
330
1B
100
AcDbEntity
 67
     1
  8
SLD-0
  6
SLD-実線
 62
   179
370
    18
100
AcDbLine
 10
24.0832277187
 20
27.0628457874
 30
0.0
 11
24.0832277187
 21
26.9382987008
 31
0.0
  0
LINE
  5
13C
330
1B
100
AcDbEntity
 67
     1
  8
SLD-0
  6
SLD-実線
 62
   179
370
    18
100
AcDbLine
 10
23.9931025218
 20
27.0379287795
 30
0.0
 11
23.9931025218
 21
27.0628457874
 31
0.0
  0
LINE
  5
13D
330
1B
100
AcDbEntity
 67
     1
  8
SLD-0
  6
SLD-実線
 62
   179
370
    18
100
AcDbLine
 10
24.2000593697
 20
27.0087375572
 30
0.0
 11
24.3382497686
 21
26.8996480333
 31
0.0
  0
LINE
  5
13E
330
1B
100
AcDbEntity
 67
     1
  8
SLD-0
  6
SLD-実線
 62
   179
370
    18
100
AcDbLine
 10
24.1256968366
 20
26.899535262
 30
0.0
 11
24.0059313567
 21
27.008850171
 31
0.0
  0
LINE
  5
13F
330
1B
100
AcDbEntity
 67
     1
  8
SLD-0
  6
SLD-実線
 62
   179
370
    18
100
AcDbLine
 10
24.3678596873
 20
27.0121105118
 30
0.0
 11
24.5259667739
 21
26.9208273622
 31
0.0
  0
LINE
  5
140
330
1B
100
AcDbEntity
 67
     1
  8
SLD-0
  6
SLD-実線
 62
   179
370
    18
100
AcDbLine
 10
21.0620603164
 20
23.9912890937
 30
0.0
 11
21.0620603164
 21
23.4407985424
 31
0.0
  0
LINE
  5
141
330
1B
100
AcDbEntity
 67
     1
  8
SLD-0
  6
SLD-実線
 62
   179
370
    18
100
AcDbLine
 10
21.203067718
 20
23.9912890937
 30
0.0
 11
21.203067718
 21
23.4407985424
 31
0.0
  0
LINE
  5
142
330
1B
100
AcDbEntity
 67
     1
  8
SLD-0
  6
SLD-鎖線
 62
   179
370
    18
100
AcDbLine
 10
21.2957711826
 20
12.8106892484
 30
0.0
 11
22.7268229939
 21
12.8106892484
 31
0.0
  0
LINE
  5
143
330
1B
100
AcDbEntity
 67
     1
  8
SLD-0
  6
SLD-実線
 62
   179
370
    18
100
AcDbLine
 10
20.7261274029
 20
13.7325070439
 30
0.0
 11
22.0253400016
 21
13.7325070439
 31
0.0
  0
LINE
  5
144
330
1B
100
AcDbEntity
 67
     1
  8
SLD-0
  6
SLD-実線
 62
   179
370
    18
100
AcDbLine
 10
22.0253400016
 20
13.809266099
 30
0.0
 11
21.1395132298
 21
13.809266099
 31
0.0
  0
LINE
  5
145
330
1B
100
AcDbEntity
 67
     1
  8
SLD-0
  6
SLD-実線
 62
   179
370
    18
100
AcDbLine
 10
21.0135289778
 20
13.5401561777
 30
0.0
 11
21.0135289778
 21
12.6084786972
 31
0.0
  0
LINE
  5
146
330
1B
100
AcDbEntity
 67
     1
  8
SLD-0
  6
SLD-実線
 62
   179
370
    18
100
AcDbLine
 10
21.0135289778
 20
13.5401561777
 30
0.0
 11
22.0253400016
 21
13.5401561777
 31
0.0
  0
LINE
  5
147
330
1B
100
AcDbEntity
 67
     1
  8
SLD-0
  6
SLD-実線
 62
   179
370
    18
100
AcDbLine
 10
23.3245526004
 20
13.7325070439
 30
0.0
 11
22.0253400016
 21
13.7325070439
 31
0.0
  0
LINE
  5
148
330
1B
100
AcDbEntity
 67
     1
  8
SLD-0
  6
SLD-実線
 62
   179
370
    18
100
AcDbLine
 10
22.0253400016
 20
13.809266099
 30
0.0
 11
22.9111667735
 21
13.809266099
 31
0.0
  0
LINE
  5
149
330
1B
100
AcDbEntity
 67
     1
  8
SLD-0
  6
SLD-実線
 62
   179
370
    18
100
AcDbLine
 10
23.0371510255
 20
13.5401561777
 30
0.0
 11
23.0371510255
 21
12.6084786972
 31
0.0
  0
LINE
  5
14A
330
1B
100
AcDbEntity
 67
     1
  8
SLD-0
  6
SLD-実線
 62
   179
370
    18
100
AcDbLine
 10
23.0371510255
 20
13.5401561777
 30
0.0
 11
22.0253400016
 21
13.5401561777
 31
0.0
  0
LINE
  5
14B
330
1B
100
AcDbEntity
 67
     1
  8
SLD-0
  6
SLD-鎖線
 62
   179
370
    18
100
AcDbLine
 10
21.1051714975
 20
27.5196972836
 30
0.0
 11
20.8344125998
 21
27.5196972836
 31
0.0
  0
LINE
  5
14C
330
1B
100
AcDbEntity
 67
     1
  8
SLD-0
  6
SLD-鎖線
 62
   179
370
    18
100
AcDbLine
 10
20.9623478754
 20
27.3648358662
 30
0.0
 11
20.9623478754
 21
27.6656353939
 31
0.0
  0
LINE
  5
14D
330
1B
100
AcDbEntity
 67
     1
  8
SLD-0
  6
SLD-実線
 62
   179
370
    18
100
AcDbLine
 10
21.0607730723
 20
24.5904048419
 30
0.0
 11
21.0607730723
 21
27.230357441
 31
0.0
  0
LINE
  5
14E
330
1B
100
AcDbEntity
 67
     1
  8
SLD-0
  6
SLD-実線
 62
   179
370
    18
100
AcDbLine
 10
22.7930565373
 20
27.4272078347
 30
0.0
 11
21.257623466
 21
27.4272078347
 31
0.0
  0
LINE
  5
14F
330
1B
100
AcDbEntity
 67
     1
  8
SLD-0
  6
SLD-鎖線
 62
   179
370
    18
100
AcDbLine
 10
23.23115575
 20
27.5196972836
 30
0.0
 11
22.9603968523
 21
27.5196972836
 31
0.0
  0
LINE
  5
150
330
1B
100
AcDbEntity
 67
     1
  8
SLD-0
  6
SLD-鎖線
 62
   179
370
    18
100
AcDbLine
 10
23.0883321279
 20
27.3648358662
 30
0.0
 11
23.0883321279
 21
27.6656353939
 31
0.0
  0
LINE
  5
151
330
1B
100
AcDbEntity
 67
     1
  8
SLD-0
  6
SLD-実線
 62
   179
370
    18
100
AcDbLine
 10
22.989906931
 20
24.5904048419
 30
0.0
 11
22.989906931
 21
27.230357441
 31
0.0
  0
LINE
  5
152
330
1B
100
AcDbEntity
 67
     1
  8
SLD-0
  6
SLD-実線
 62
   179
370
    18
100
AcDbLine
 10
21.257623466
 20
24.3935544482
 30
0.0
 11
22.7930565373
 21
24.3935544482
 31
0.0
  0
LINE
  5
153
330
1B
100
AcDbEntity
 67
     1
  8
SLD-0
  6
SLD-鎖線
 62
   179
370
    18
100
AcDbLine
 10
20.9623478754
 20
24.1277057867
 30
0.0
 11
20.9623478754
 21
24.4285053143
 31
0.0
  0
LINE
  5
154
330
1B
100
AcDbEntity
 67
     1
  8
SLD-0
  6
SLD-鎖線
 62
   179
370
    18
100
AcDbLine
 10
21.1051714975
 20
24.282567204
 30
0.0
 11
20.8344125998
 21
24.282567204
 31
0.0
  0
LINE
  5
155
330
1B
100
AcDbEntity
 67
     1
  8
SLD-0
  6
SLD-鎖線
 62
   179
370
    18
100
AcDbLine
 10
23.0883321279
 20
24.1277057867
 30
0.0
 11
23.0883321279
 21
24.4285053143
 31
0.0
  0
LINE
  5
156
330
1B
100
AcDbEntity
 67
     1
  8
SLD-0
  6
SLD-鎖線
 62
   179
370
    18
100
AcDbLine
 10
23.23115575
 20
24.282567204
 30
0.0
 11
22.9603968523
 21
24.282567204
 31
0.0
  0
LINE
  5
157
330
1B
100
AcDbEntity
 67
     1
  8
SLD-0
  6
SLD-実線
 62
   179
370
    18
100
AcDbLine
 10
22.0253400016
 20
27.9289875199
 30
0.0
 11
20.8836077179
 21
27.9289875199
 31
0.0
  0
LINE
  5
158
330
1B
100
AcDbEntity
 67
     1
  8
SLD-0
  6
SLD-実線
 62
   179
370
    18
100
AcDbLine
 10
20.8442376391
 20
27.8868089372
 30
0.0
 11
20.8442376391
 21
27.8896174412
 31
0.0
  0
LINE
  5
159
330
1B
100
AcDbEntity
 67
     1
  8
SLD-0
  6
SLD-実線
 62
   179
370
    18
100
AcDbLine
 10
22.0253400016
 20
27.8502473624
 30
0.0
 11
20.81947071
 21
27.8502473624
 31
0.0
  0
LINE
  5
15A
330
1B
100
AcDbEntity
 67
     1
  8
SLD-0
  6
SLD-実線
 62
   179
370
    18
100
AcDbLine
 10
19.8522001586
 20
27.7767631104
 30
0.0
 11
20.8077759068
 21
27.847546575
 31
0.0
  0
LINE
  5
15B
330
1B
100
AcDbEntity
 67
     1
  8
SLD-0
  6
SLD-実線
 62
   179
370
    18
100
AcDbLine
 10
19.7025053554
 20
27.0462061024
 30
0.0
 11
19.7025053554
 21
27.2990662599
 31
0.0
  0
LINE
  5
15C
330
1B
100
AcDbEntity
 67
     1
  8
SLD-0
  6
SLD-実線
 62
   179
370
    18
100
AcDbLine
 10
19.7793058037
 20
27.7003847318
 30
0.0
 11
19.6787370089
 21
24.0128594874
 31
0.0
  0
LINE
  5
15D
330
1B
100
AcDbEntity
 67
     1
  8
SLD-0
  6
SLD-実線
 62
   179
370
    18
100
AcDbLine
 10
24.1984799777
 20
27.7767630911
 30
0.0
 11
23.2429040964
 21
27.847546575
 31
0.0
  0
LINE
  5
15E
330
1B
100
AcDbEntity
 67
     1
  8
SLD-0
  6
SLD-実線
 62
   179
370
    18
100
AcDbLine
 10
23.2064423641
 20
27.8868089372
 30
0.0
 11
23.2064423641
 21
27.8896174412
 31
0.0
  0
LINE
  5
15F
330
1B
100
AcDbEntity
 67
     1
  8
SLD-0
  6
SLD-実線
 62
   179
370
    18
100
AcDbLine
 10
22.0253400016
 20
27.8502473624
 30
0.0
 11
23.2312094508
 21
27.8502473624
 31
0.0
  0
LINE
  5
160
330
1B
100
AcDbEntity
 67
     1
  8
SLD-0
  6
SLD-実線
 62
   179
370
    18
100
AcDbLine
 10
22.0253400016
 20
27.9289875199
 30
0.0
 11
23.1670722854
 21
27.9289875199
 31
0.0
  0
LINE
  5
161
330
1B
100
AcDbEntity
 67
     1
  8
SLD-0
  6
SLD-実線
 62
   179
370
    18
100
AcDbLine
 10
24.0832277187
 20
27.3770681497
 30
0.0
 11
24.1063434667
 21
27.3770681497
 31
0.0
  0
LINE
  5
162
330
1B
100
AcDbEntity
 67
     1
  8
SLD-0
  6
SLD-実線
 62
   179
370
    18
100
AcDbLine
 10
24.1850836242
 20
27.0396393307
 30
0.0
 11
24.1850836242
 21
27.2983279922
 31
0.0
  0
LINE
  5
163
330
1B
100
AcDbEntity
 67
     1
  8
SLD-0
  6
SLD-実線
 62
   179
370
    18
100
AcDbLine
 10
24.0832277187
 20
27.3770681497
 30
0.0
 11
24.0832277187
 21
26.9382987008
 31
0.0
  0
LINE
  5
164
330
1B
100
AcDbEntity
 67
     1
  8
SLD-0
  6
SLD-実線
 62
   179
370
    18
100
AcDbLine
 10
24.3481746479
 20
27.0462061024
 30
0.0
 11
24.3481746479
 21
27.2990662599
 31
0.0
  0
LINE
  5
165
330
1B
100
AcDbEntity
 67
     1
  8
SLD-0
  6
SLD-実線
 62
   179
370
    18
100
AcDbLine
 10
24.2713741996
 20
27.7003847318
 30
0.0
 11
24.292221577
 21
26.9359832677
 31
0.0
  0
LINE
  5
166
330
1B
100
AcDbEntity
 67
     1
  8
SLD-0
  6
SLD-実線
 62
   179
370
    18
100
AcDbLine
 10
23.9931025218
 20
27.0379287795
 30
0.0
 11
23.9931025218
 21
27.2983279922
 31
0.0
  0
LINE
  5
167
330
1B
100
AcDbEntity
 67
     1
  8
SLD-0
  6
SLD-実線
 62
   179
370
    18
100
AcDbLine
 10
23.9143623643
 20
27.3770681497
 30
0.0
 11
23.8856639391
 21
27.3770681497
 31
0.0
  0
LINE
  5
168
330
1B
100
AcDbEntity
 67
     1
  8
SLD-0
  6
SLD-実線
 62
   179
370
    18
100
AcDbLine
 10
23.8856639391
 20
27.3770681497
 30
0.0
 11
23.8856639391
 21
23.4407985424
 31
0.0
  0
LINE
  5
169
330
1B
100
AcDbEntity
 67
     1
  8
SLD-0
  6
SLD-実線
 62
   179
370
    18
100
AcDbLine
 10
19.682820316
 20
27.0121105118
 30
0.0
 11
19.5247133868
 21
26.9208273622
 31
0.0
  0
LINE
  5
16A
330
1B
100
AcDbEntity
 67
     1
  8
SLD-0
  6
SLD-実線
 62
   179
370
    18
100
AcDbLine
 10
24.1256968366
 20
26.899535262
 30
0.0
 11
24.0059313567
 21
27.008850171
 31
0.0
  0
LINE
  5
16B
330
1B
100
AcDbEntity
 67
     1
  8
SLD-0
  6
SLD-実線
 62
   179
370
    18
100
AcDbLine
 10
24.2000593697
 20
27.0087375572
 30
0.0
 11
24.3382497686
 21
26.8996480333
 31
0.0
  0
LINE
  5
16C
330
1B
100
AcDbEntity
 67
     1
  8
SLD-0
  6
SLD-実線
 62
   179
370
    18
100
AcDbLine
 10
24.3678596873
 20
27.0121105118
 30
0.0
 11
24.5259667739
 21
26.9208273622
 31
0.0
  0
LINE
  5
16D
330
1B
100
AcDbEntity
 67
     1
  8
SLD-0
  6
SLD-実線
 62
   179
370
    18
100
AcDbLine
 10
23.2143548051
 20
23.4407985424
 30
0.0
 11
23.2143548051
 21
23.452609566
 31
0.0
  0
LINE
  5
16E
330
1B
100
AcDbEntity
 67
     1
  8
SLD-0
  6
SLD-実線
 62
   179
370
    18
100
AcDbLine
 10
23.3967856713
 20
23.4407985424
 30
0.0
 11
23.3967856713
 21
23.452609566
 31
0.0
  0
LINE
  5
16F
330
1B
100
AcDbEntity
 67
     1
  8
SLD-0
  6
SLD-実線
 62
   179
370
    18
100
AcDbLine
 10
20.6538944895
 20
23.4407985424
 30
0.0
 11
20.6538944895
 21
23.452609566
 31
0.0
  0
LINE
  5
170
330
1B
100
AcDbEntity
 67
     1
  8
SLD-0
  6
SLD-実線
 62
   179
370
    18
100
AcDbLine
 10
20.4951804737
 20
23.452609566
 30
0.0
 11
20.4951804737
 21
23.4407985424
 31
0.0
  0
LINE
  5
171
330
1B
100
AcDbEntity
 67
     1
  8
SLD-0
  6
SLD-実線
 62
   179
370
    18
100
AcDbLine
 10
20.8363251982
 20
23.4407985424
 30
0.0
 11
20.8363251982
 21
23.452609566
 31
0.0
  0
LINE
  5
172
330
1B
100
AcDbEntity
 67
     1
  8
SLD-0
  6
SLD-実線
 62
   179
370
    18
100
AcDbLine
 10
22.0253400016
 20
23.0864678337
 30
0.0
 11
19.273083623
 21
23.0864678337
 31
0.0
  0
LINE
  5
173
330
1B
100
AcDbEntity
 67
     1
  8
SLD-0
  6
SLD-実線
 62
   179
370
    18
100
AcDbLine
 10
19.7418754341
 20
23.0864678337
 30
0.0
 11
19.6237651979
 21
23.0864678337
 31
0.0
  0
LINE
  5
174
330
1B
100
AcDbEntity
 67
     1
  8
SLD-0
  6
SLD-実線
 62
   179
370
    18
100
AcDbLine
 10
22.0253400016
 20
23.0864678337
 30
0.0
 11
24.7775965378
 21
23.0864678337
 31
0.0
  0
LINE
  5
175
330
1B
100
AcDbEntity
 67
     1
  8
SLD-0
  6
SLD-鎖線
 62
   179
370
    18
100
AcDbLine
 10
23.9072474037
 20
6.9867593257
 30
0.0
 11
23.4320092933
 21
7.6408684597
 31
0.0
  0
LINE
  5
176
330
1B
100
AcDbEntity
 67
     1
  8
SLD-0
  6
SLD-鎖線
 62
   179
370
    18
100
AcDbLine
 10
20.1504559067
 20
6.9964259399
 30
0.0
 11
20.6539957493
 21
7.6894889322
 31
0.0
  0
LINE
  5
177
330
1B
100
AcDbEntity
 67
     1
  8
SLD-0
  6
SLD-鎖線
 62
   179
370
    18
100
AcDbLine
 10
19.0871211033
 20
10.5316678305
 30
0.0
 11
19.7818338593
 21
10.3059420037
 31
0.0
  0
LINE
  5
178
330
1B
100
AcDbEntity
 67
     1
  8
SLD-0
  6
SLD-鎖線
 62
   179
370
    18
100
AcDbLine
 10
24.3302607896
 20
10.3258966494
 30
0.0
 11
24.9795555929
 21
10.5368654683
 31
0.0
  0
LINE
  5
179
330
1B
100
AcDbEntity
 67
     1
  8
SLD-0
  6
SLD-鎖線
 62
   179
370
    18
100
AcDbLine
 10
20.1961628358
 20
11.4061597992
 30
0.0
 11
19.3093755915
 21
12.2929470436
 31
0.0
  0
LINE
  5
17A
330
1B
100
AcDbEntity
 67
     1
  8
SLD-0
  6
SLD-鎖線
 62
   179
370
    18
100
AcDbLine
 10
24.9596458291
 20
6.6426768059
 30
0.0
 11
23.8296751202
 21
7.7726475149
 31
0.0
  0
LINE
  5
17B
330
1B
100
AcDbEntity
 67
     1
  8
SLD-0
  6
SLD-鎖線
 62
   179
370
    18
100
AcDbLine
 10
26.6425053571
 20
9.5769826334
 30
0.0
 11
17.3481582682
 21
9.5769826334
 31
0.0
  0
LINE
  5
17C
330
1B
100
AcDbEntity
 67
     1
  8
SLD-0
  6
SLD-実線
 62
   179
370
    18
100
AcDbLine
 10
19.8347215759
 20
12.6084786972
 30
0.0
 11
24.2159585849
 21
12.6084786972
 31
0.0
  0
LINE
  5
17D
330
1B
100
AcDbEntity
 67
     1
  8
SLD-0
  6
SLD-実線
 62
   179
370
    18
100
AcDbLine
 10
19.8347215759
 20
6.5454865697
 30
0.0
 11
24.2159585849
 21
6.5454865697
 31
0.0
  0
LINE
  5
17E
330
1B
100
AcDbEntity
 67
     1
  8
SLD-0
  6
SLD-実線
 62
   179
370
    18
100
AcDbLine
 10
25.0568360654
 20
7.3863640502
 30
0.0
 11
25.0568360654
 21
8.7158415308
 31
0.0
  0
LINE
  5
17F
330
1B
100
AcDbEntity
 67
     1
  8
SLD-0
  6
SLD-実線
 62
   179
370
    18
100
AcDbLine
 10
18.9938439379
 20
7.3863640502
 30
0.0
 11
18.9938439379
 21
8.7158415308
 31
0.0
  0
LINE
  5
180
330
1B
100
AcDbEntity
 67
     1
  8
SLD-0
  6
SLD-実線
 62
   179
370
    18
100
AcDbLine
 10
25.1749463016
 20
8.8683212159
 30
0.0
 11
25.1749463016
 21
10.2856440509
 31
0.0
  0
LINE
  5
181
330
1B
100
AcDbEntity
 67
     1
  8
SLD-0
  6
SLD-実線
 62
   179
370
    18
100
AcDbLine
 10
18.8757337016
 20
8.8683212159
 30
0.0
 11
18.8757337016
 21
10.2856440509
 31
0.0
  0
LINE
  5
182
330
1B
100
AcDbEntity
 67
     1
  8
SLD-0
  6
SLD-実線
 62
   179
370
    18
100
AcDbLine
 10
25.0568360654
 20
10.4381235785
 30
0.0
 11
25.0568360654
 21
11.7676010592
 31
0.0
  0
LINE
  5
183
330
1B
100
AcDbEntity
 67
     1
  8
SLD-0
  6
SLD-実線
 62
   179
370
    18
100
AcDbLine
 10
18.9938439379
 20
10.4381235785
 30
0.0
 11
18.9938439379
 21
11.7676010592
 31
0.0
  0
LINE
  5
184
330
1B
100
AcDbEntity
 67
     1
  8
SLD-0
  6
SLD-実線
 62
   179
370
    18
100
AcDbLine
 10
23.1080171673
 20
6.5454865697
 30
0.0
 11
23.1080171673
 21
6.6635968059
 31
0.0
  0
LINE
  5
185
330
1B
100
AcDbEntity
 67
     1
  8
SLD-0
  6
SLD-実線
 62
   179
370
    18
100
AcDbLine
 10
24.9387258291
 20
10.659659799
 30
0.0
 11
25.0568360654
 21
10.659659799
 31
0.0
  0
LINE
  5
186
330
1B
100
AcDbEntity
 67
     1
  8
SLD-0
  6
SLD-実線
 62
   179
370
    18
100
AcDbLine
 10
24.9387258291
 20
8.4943054678
 30
0.0
 11
25.0568360654
 21
8.4943054678
 31
0.0
  0
LINE
  5
187
330
1B
100
AcDbEntity
 67
     1
  8
SLD-0
  6
SLD-実線
 62
   179
370
    18
100
AcDbLine
 10
23.1867573248
 20
12.4116283034
 30
0.0
 11
24.1513242541
 21
12.4116283034
 31
0.0
  0
LINE
  5
188
330
1B
100
AcDbEntity
 67
     1
  8
SLD-0
  6
SLD-実線
 62
   179
370
    18
100
AcDbLine
 10
24.8599856716
 20
10.7383999565
 30
0.0
 11
24.8599856585
 21
11.7029669034
 31
0.0
  0
LINE
  5
189
330
1B
100
AcDbEntity
 67
     1
  8
SLD-0
  6
SLD-実線
 62
   179
370
    18
100
AcDbLine
 10
24.8599856716
 20
7.4509983809
 30
0.0
 11
24.8599856716
 21
8.4155653103
 31
0.0
  0
LINE
  5
18A
330
1B
100
AcDbEntity
 67
     1
  8
SLD-0
  6
SLD-実線
 62
   179
370
    18
100
AcDbLine
 10
23.1867573248
 20
6.7423369634
 30
0.0
 11
24.1513242717
 21
6.7423369766
 31
0.0
  0
LINE
  5
18B
330
1B
100
AcDbEntity
 67
     1
  8
SLD-0
  6
SLD-実線
 62
   179
370
    18
100
AcDbLine
 10
23.1080171673
 20
12.4903684609
 30
0.0
 11
23.1080171673
 21
12.6084786972
 31
0.0
  0
LINE
  5
18C
330
1B
100
AcDbEntity
 67
     1
  8
SLD-0
  6
SLD-実線
 62
   179
370
    18
100
AcDbLine
 10
19.1906943316
 20
10.7383999565
 30
0.0
 11
19.1906943316
 21
11.7029668859
 31
0.0
  0
LINE
  5
18D
330
1B
100
AcDbEntity
 67
     1
  8
SLD-0
  6
SLD-実線
 62
   179
370
    18
100
AcDbLine
 10
19.1119541741
 20
10.659659799
 30
0.0
 11
18.9938439379
 21
10.659659799
 31
0.0
  0
LINE
  5
18E
330
1B
100
AcDbEntity
 67
     1
  8
SLD-0
  6
SLD-実線
 62
   179
370
    18
100
AcDbLine
 10
20.8639226785
 20
12.4116283034
 30
0.0
 11
19.8993557316
 21
12.4116282903
 31
0.0
  0
LINE
  5
18F
330
1B
100
AcDbEntity
 67
     1
  8
SLD-0
  6
SLD-実線
 62
   179
370
    18
100
AcDbLine
 10
20.942662836
 20
12.4903684609
 30
0.0
 11
20.942662836
 21
12.6084786972
 31
0.0
  0
LINE
  5
190
330
1B
100
AcDbEntity
 67
     1
  8
SLD-0
  6
SLD-実線
 62
   179
370
    18
100
AcDbLine
 10
19.1119541741
 20
8.4943054678
 30
0.0
 11
18.9938439379
 21
8.4943054678
 31
0.0
  0
LINE
  5
191
330
1B
100
AcDbEntity
 67
     1
  8
SLD-0
  6
SLD-実線
 62
   179
370
    18
100
AcDbLine
 10
19.1906943316
 20
7.4509983809
 30
0.0
 11
19.1906943316
 21
8.4155653103
 31
0.0
  0
LINE
  5
192
330
1B
100
AcDbEntity
 67
     1
  8
SLD-0
  6
SLD-実線
 62
   179
370
    18
100
AcDbLine
 10
20.942662836
 20
6.5454865697
 30
0.0
 11
20.942662836
 21
6.6635968059
 31
0.0
  0
LINE
  5
193
330
1B
100
AcDbEntity
 67
     1
  8
SLD-0
  6
SLD-実線
 62
   179
370
    18
100
AcDbLine
 10
20.8639226785
 20
6.7423369634
 30
0.0
 11
19.8993557316
 21
6.7423369766
 31
0.0
  0
LINE
  5
194
330
1B
100
AcDbEntity
 67
     1
  8
SLD-0
  6
SLD-鎖線
 62
   179
370
    18
100
AcDbLine
 10
23.8545171674
 20
11.4061597992
 30
0.0
 11
24.9772803173
 21
12.5289227916
 31
0.0
  0
LINE
  5
195
330
1B
100
AcDbEntity
 67
     1
  8
SLD-0
  6
SLD-鎖線
 62
   179
370
    18
100
AcDbLine
 10
19.0910343316
 20
6.6426768059
 30
0.0
 11
20.2210050406
 21
7.7726475149
 31
0.0
  0
LINE
  5
196
330
1B
100
AcDbEntity
 67
     1
  8
SLD-0
  6
SLD-破線
 62
   179
370
    18
100
AcDbLine
 10
18.8757337016
 20
10.0966676729
 30
0.0
 11
19.4662848829
 21
10.0966676729
 31
0.0
  0
LINE
  5
197
330
1B
100
AcDbEntity
 67
     1
  8
SLD-0
  6
SLD-破線
 62
   179
370
    18
100
AcDbLine
 10
18.8757337016
 20
9.0572975939
 30
0.0
 11
19.4662848829
 21
9.0572975939
 31
0.0
  0
LINE
  5
198
330
1B
100
AcDbEntity
 67
     1
  8
SLD-0
  6
SLD-破線
 62
   179
370
    18
100
AcDbLine
 10
18.8757337016
 20
10.029738539
 30
0.0
 11
19.4662848829
 21
10.029738539
 31
0.0
  0
LINE
  5
199
330
1B
100
AcDbEntity
 67
     1
  8
SLD-0
  6
SLD-破線
 62
   179
370
    18
100
AcDbLine
 10
18.8757337016
 20
9.1242267278
 30
0.0
 11
19.4662848829
 21
9.1242267278
 31
0.0
  0
LINE
  5
19A
330
1B
100
AcDbEntity
 67
     1
  8
SLD-0
  6
SLD-破線
 62
   179
370
    18
100
AcDbLine
 10
24.5843951204
 20
10.0966676729
 30
0.0
 11
25.1749463016
 21
10.0966676729
 31
0.0
  0
LINE
  5
19B
330
1B
100
AcDbEntity
 67
     1
  8
SLD-0
  6
SLD-破線
 62
   179
370
    18
100
AcDbLine
 10
24.5843951204
 20
10.029738539
 30
0.0
 11
25.1749463016
 21
10.029738539
 31
0.0
  0
LINE
  5
19C
330
1B
100
AcDbEntity
 67
     1
  8
SLD-0
  6
SLD-破線
 62
   179
370
    18
100
AcDbLine
 10
24.5843951204
 20
9.1242267278
 30
0.0
 11
25.1749463016
 21
9.1242267278
 31
0.0
  0
LINE
  5
19D
330
1B
100
AcDbEntity
 67
     1
  8
SLD-0
  6
SLD-破線
 62
   179
370
    18
100
AcDbLine
 10
24.5843951204
 20
9.0572975939
 30
0.0
 11
25.1749463016
 21
9.0572975939
 31
0.0
  0
LINE
  5
19E
330
1B
100
AcDbEntity
 67
     1
  8
SLD-0
  6
SLD-実線
 62
   179
370
    18
100
AcDbLine
 10
18.8757337016
 20
19.3069402737
 30
0.0
 11
25.1749463016
 21
19.3069402737
 31
0.0
  0
LINE
  5
19F
330
1B
100
AcDbEntity
 67
     1
  8
SLD-0
  6
SLD-実線
 62
   179
370
    18
100
AcDbLine
 10
25.0568360654
 20
19.7400111399
 30
0.0
 11
25.0568360654
 21
19.3069402737
 31
0.0
  0
LINE
  5
1A0
330
1B
100
AcDbEntity
 67
     1
  8
SLD-0
  6
SLD-実線
 62
   179
370
    18
100
AcDbLine
 10
18.9938439379
 20
19.7400111399
 30
0.0
 11
18.9938439379
 21
19.3069402737
 31
0.0
  0
LINE
  5
1A1
330
1B
100
AcDbEntity
 67
     1
  8
SLD-0
  6
SLD-実線
 62
   179
370
    18
100
AcDbLine
 10
18.8757337016
 20
22.8108772824
 30
0.0
 11
18.8757337016
 21
19.3069402737
 31
0.0
  0
LINE
  5
1A2
330
1B
100
AcDbEntity
 67
     1
  8
SLD-0
  6
SLD-実線
 62
   179
370
    18
100
AcDbLine
 10
25.1749463016
 20
22.8108772824
 30
0.0
 11
25.1749463016
 21
19.3069402737
 31
0.0
  0
LINE
  5
1A3
330
1B
100
AcDbEntity
 67
     1
  8
SLD-0
  6
SLD-実線
 62
   179
370
    18
100
AcDbLine
 10
19.0725840954
 20
19.8187512974
 30
0.0
 11
24.9780959079
 21
19.8187512974
 31
0.0
  0
LINE
  5
1A4
330
1B
100
AcDbEntity
 67
     1
  8
SLD-0
  6
SLD-実線
 62
   179
370
    18
100
AcDbLine
 10
18.9544738591
 20
22.8896174399
 30
0.0
 11
19.273083623
 21
22.8896174399
 31
0.0
  0
LINE
  5
1A5
330
1B
100
AcDbEntity
 67
     1
  8
SLD-0
  6
SLD-鎖線
 62
   179
370
    18
100
AcDbLine
 10
18.3628428354
 20
22.1022158649
 30
0.0
 11
19.6885710247
 21
22.1022158649
 31
0.0
  0
LINE
  5
1A6
330
1B
100
AcDbEntity
 67
     1
  8
SLD-0
  6
SLD-破線
 62
   179
370
    18
100
AcDbLine
 10
24.5843951204
 20
21.6494599593
 30
0.0
 11
25.1749463016
 21
21.6494599593
 31
0.0
  0
LINE
  5
1A7
330
1B
100
AcDbEntity
 67
     1
  8
SLD-0
  6
SLD-破線
 62
   179
370
    18
100
AcDbLine
 10
24.5843951204
 20
21.5825308254
 30
0.0
 11
25.1749463016
 21
21.5825308254
 31
0.0
  0
LINE
  5
1A8
330
1B
100
AcDbEntity
 67
     1
  8
SLD-0
  6
SLD-破線
 62
   179
370
    18
100
AcDbLine
 10
24.5843951204
 20
22.5549717705
 30
0.0
 11
25.1749463016
 21
22.5549717705
 31
0.0
  0
LINE
  5
1A9
330
1B
100
AcDbEntity
 67
     1
  8
SLD-0
  6
SLD-破線
 62
   179
370
    18
100
AcDbLine
 10
24.5843951204
 20
22.6219009044
 30
0.0
 11
25.1749463016
 21
22.6219009044
 31
0.0
  0
LINE
  5
1AA
330
1B
100
AcDbEntity
 67
     1
  8
SLD-0
  6
SLD-破線
 62
   179
370
    18
100
AcDbLine
 10
18.8757337016
 20
21.6494599593
 30
0.0
 11
19.4662848829
 21
21.6494599593
 31
0.0
  0
LINE
  5
1AB
330
1B
100
AcDbEntity
 67
     1
  8
SLD-0
  6
SLD-破線
 62
   179
370
    18
100
AcDbLine
 10
18.8757337016
 20
21.5825308254
 30
0.0
 11
19.4662848829
 21
21.5825308254
 31
0.0
  0
LINE
  5
1AC
330
1B
100
AcDbEntity
 67
     1
  8
SLD-0
  6
SLD-破線
 62
   179
370
    18
100
AcDbLine
 10
18.8757337016
 20
22.6219009044
 30
0.0
 11
19.4662848829
 21
22.6219009044
 31
0.0
  0
LINE
  5
1AD
330
1B
100
AcDbEntity
 67
     1
  8
SLD-0
  6
SLD-破線
 62
   179
370
    18
100
AcDbLine
 10
18.8757337016
 20
22.5549717705
 30
0.0
 11
19.4662848829
 21
22.5549717705
 31
0.0
  0
LINE
  5
1AE
330
1B
100
AcDbEntity
 67
     1
  8
SLD-0
  6
SLD-鎖線
 62
   179
370
    18
100
AcDbLine
 10
24.2309314983
 20
22.1022158649
 30
0.0
 11
25.6288598451
 21
22.1022158649
 31
0.0
  0
LINE
  5
1AF
330
1B
100
AcDbEntity
 67
     1
  8
SLD-0
  6
SLD-実線
 62
   179
370
    18
100
AcDbLine
 10
24.4269148054
 20
23.0864678337
 30
0.0
 11
24.9387258291
 21
19.8187512974
 31
0.0
  0
LINE
  5
1B0
330
1B
100
AcDbEntity
 67
     1
  8
SLD-0
  6
SLD-実線
 62
   179
370
    18
100
AcDbLine
 10
19.1119541741
 20
19.8187512974
 30
0.0
 11
19.273083623
 21
20.8475001166
 31
0.0
  0
LINE
  5
1B1
330
1B
100
AcDbEntity
 67
     1
  8
SLD-0
  6
SLD-実線
 62
   179
370
    18
100
AcDbLine
 10
24.5587977975
 20
22.8896174399
 30
0.0
 11
25.0962061441
 21
22.8896174399
 31
0.0
  0
LINE
  5
1B2
330
1B
100
AcDbEntity
 67
     1
  8
SLD-0
  6
SLD-実線
 62
   179
370
    18
100
AcDbLine
 10
19.4546420482
 20
19.8187512974
 30
0.0
 11
19.9602866153
 21
23.0470977549
 31
0.0
  0
LINE
  5
1B3
330
1B
100
AcDbEntity
 67
     1
  8
SLD-0
  6
SLD-実線
 62
   179
370
    18
100
AcDbLine
 10
19.6175988987
 20
23.0470977549
 30
0.0
 11
19.6237651979
 21
23.0864678337
 31
0.0
  0
LINE
  5
1B4
330
1B
100
AcDbEntity
 67
     1
  8
SLD-0
  6
SLD-実線
 62
   179
370
    18
100
AcDbLine
 10
24.071153388
 20
21.0755653135
 30
0.0
 11
24.0496825218
 21
21.0755653135
 31
0.0
  0
LINE
  5
1B5
330
1B
100
AcDbEntity
 67
     1
  8
SLD-0
  6
SLD-実線
 62
   179
370
    18
100
AcDbLine
 10
19.9795266153
 20
21.0755653135
 30
0.0
 11
20.0009976389
 21
21.0755653135
 31
0.0
  0
LINE
  5
1B6
330
1B
100
AcDbEntity
 67
     1
  8
SLD-0
  6
SLD-実線
 62
   179
370
    18
100
AcDbLine
 10
19.5442765364
 20
20.3910333448
 30
0.0
 11
19.5442765364
 21
23.0470977549
 31
0.0
  0
LINE
  5
1B7
330
1B
100
AcDbEntity
 67
     1
  8
SLD-0
  6
SLD-実線
 62
   179
370
    18
100
AcDbLine
 10
19.273083623
 20
19.8187512974
 30
0.0
 11
19.273083623
 21
23.0470977549
 31
0.0
  0
LINE
  5
1B8
330
1B
100
AcDbEntity
 67
     1
  8
SLD-0
  6
SLD-実線
 62
   179
370
    18
100
AcDbLine
 10
19.9602866153
 20
23.0470977549
 30
0.0
 11
19.273083623
 21
23.0470977549
 31
0.0
  0
LINE
  5
1B9
330
1B
100
AcDbEntity
 67
     1
  8
SLD-0
  6
SLD-実線
 62
   179
370
    18
100
AcDbLine
 10
24.4330812621
 20
23.0470977549
 30
0.0
 11
24.7775965378
 21
23.0470977549
 31
0.0
  0
LINE
  5
1BA
330
1B
100
AcDbEntity
 67
     1
  8
SLD-0
  6
SLD-実線
 62
   179
370
    18
100
AcDbLine
 10
24.5064036243
 20
22.9018746053
 30
0.0
 11
24.5064036243
 21
23.0470977549
 31
0.0
  0
LINE
  5
1BB
330
1B
100
AcDbEntity
 67
     1
  8
SLD-0
  6
SLD-実線
 62
   179
370
    18
100
AcDbLine
 10
24.7775965378
 20
22.8896174399
 30
0.0
 11
24.7775965378
 21
23.0470977549
 31
0.0
  0
LINE
  5
1BC
330
1B
100
AcDbEntity
 67
     1
  8
SLD-0
  6
SLD-鎖線
 62
   179
370
    18
100
AcDbLine
 10
22.0253400016
 20
21.7872552349
 30
0.0
 11
22.3242766946
 21
21.7872552349
 31
0.0
  0
LINE
  5
1BD
330
1B
100
AcDbEntity
 67
     1
  8
SLD-0
  6
SLD-鎖線
 62
   179
370
    18
100
AcDbLine
 10
22.0253400016
 20
21.7872552349
 30
0.0
 11
21.7264033086
 21
21.7872552349
 31
0.0
  0
ARC
  5
1BE
330
1B
100
AcDbEntity
 67
     1
  8
1
  6
SLD-実線
 62
   179
370
    18
100
AcDbCircle
 10
21.0214029935
 20
27.4475834253
 30
0.0
 40
0.3818897638750016
100
AcDbArc
 50
90.0
 51
180.0
  0
ARC
  5
1BF
330
1B
100
AcDbEntity
 67
     1
  8
1
  6
SLD-実線
 62
   179
370
    18
100
AcDbCircle
 10
23.0292770098
 20
27.4475834253
 30
0.0
 40
0.3818897638750016
100
AcDbArc
 50
0.0
 51
90.0
  0
ARC
  5
1C0
330
1B
100
AcDbEntity
 67
     1
  8
1
  6
SLD-実線
 62
   179
370
    18
100
AcDbCircle
 10
23.0292770098
 20
24.3731788576
 30
0.0
 40
0.3818897638750052
100
AcDbArc
 50
270.0
 51
0.0
  0
ARC
  5
1C1
330
1B
100
AcDbEntity
 67
     1
  8
1
  6
SLD-実線
 62
   179
370
    18
100
AcDbCircle
 10
21.0214029935
 20
24.3731788576
 30
0.0
 40
0.3818897638750052
100
AcDbArc
 50
180.0
 51
270.0
  0
ARC
  5
1C2
330
1B
100
AcDbEntity
 67
     1
  8
SLD-0
  6
SLD-実線
 62
   179
370
    18
100
AcDbCircle
 10
22.0253400016
 20
12.8106892484
 30
0.0
 40
0.4330708662500006
100
AcDbArc
 50
332.165263
 51
207.834737
  0
ARC
  5
1C3
330
1B
100
AcDbEntity
 67
     1
  8
SLD-0
  6
SLD-実線
 62
   179
370
    18
100
AcDbCircle
 10
24.3138554353
 20
26.8687462598
 30
0.0
 40
0.0393700787500043
100
AcDbArc
 50
0.0
 51
51.711897
  0
ARC
  5
1C4
330
1B
100
AcDbEntity
 67
     1
  8
SLD-0
  6
SLD-実線
 62
   179
370
    18
100
AcDbCircle
 10
24.224453703
 20
27.0396393307
 30
0.0
 40
0.0393700787500038
100
AcDbArc
 50
180.0
 51
231.711897
  0
ARC
  5
1C5
330
1B
100
AcDbEntity
 67
     1
  8
SLD-0
  6
SLD-実線
 62
   179
370
    18
100
AcDbCircle
 10
24.0991555927
 20
26.8704566535
 30
0.0
 40
0.0393700787500005
100
AcDbArc
 50
0.0
 51
47.612009
  0
ARC
  5
1C6
330
1B
100
AcDbEntity
 67
     1
  8
SLD-0
  6
SLD-実線
 62
   179
370
    18
100
AcDbCircle
 10
24.0324726006
 20
27.0379287795
 30
0.0
 40
0.0393700787499981
100
AcDbArc
 50
180.0
 51
227.612009
  0
ARC
  5
1C7
330
1B
100
AcDbEntity
 67
     1
  8
SLD-0
  6
SLD-実線
 62
   179
370
    18
100
AcDbCircle
 10
24.3875447266
 20
27.0462061024
 30
0.0
 40
0.0393700787499984
100
AcDbArc
 50
180.0
 51
240.0
  0
ARC
  5
1C8
330
1B
100
AcDbEntity
 67
     1
  8
SLD-0
  6
SLD-実線
 62
   179
370
    18
100
AcDbCircle
 10
24.5062817345
 20
26.8867319291
 30
0.0
 40
0.0393700548186501
100
AcDbArc
 50
1.59224
 51
59.9999597845
  0
ARC
  5
1C9
330
1B
100
AcDbEntity
 67
     1
  8
SLD-0
  6
SLD-実線
 62
   179
370
    18
100
AcDbCircle
 10
19.6631352766
 20
27.0462061024
 30
0.0
 40
0.0393700787500002
100
AcDbArc
 50
300.0
 51
0.0
  0
ARC
  5
1CA
330
1B
100
AcDbEntity
 67
     1
  8
SLD-0
  6
SLD-実線
 62
   179
370
    18
100
AcDbCircle
 10
19.5443984262
 20
26.8867319291
 30
0.0
 40
0.0393700548186501
100
AcDbArc
 50
120.0000402155
 51
178.40776
  0
ARC
  5
1CB
330
1B
100
AcDbEntity
 67
     1
  8
SLD-0
  6
SLD-実線
 62
   179
370
    18
100
AcDbCircle
 10
19.6230166939
 20
23.5288533456
 30
0.0
 40
0.0787401575000004
100
AcDbArc
 50
138.215806
 51
180.0
  0
ARC
  5
1CC
330
1B
100
AcDbEntity
 67
     1
  8
SLD-0
  6
SLD-実線
 62
   179
370
    18
100
AcDbCircle
 10
19.3518237805
 20
23.5288533456
 30
0.0
 40
0.0787401575000004
100
AcDbArc
 50
138.215806
 51
180.0
  0
ARC
  5
1CD
330
1B
100
AcDbEntity
 67
     1
  8
SLD-0
  6
SLD-実線
 62
   179
370
    18
100
AcDbCircle
 10
24.224453703
 20
27.0396393307
 30
0.0
 40
0.0393700787500038
100
AcDbArc
 50
180.0
 51
231.711897
  0
ARC
  5
1CE
330
1B
100
AcDbEntity
 67
     1
  8
SLD-0
  6
SLD-実線
 62
   179
370
    18
100
AcDbCircle
 10
24.0324726006
 20
27.0379287795
 30
0.0
 40
0.0393700787499981
100
AcDbArc
 50
180.0
 51
227.612009
  0
ARC
  5
1CF
330
1B
100
AcDbEntity
 67
     1
  8
SLD-0
  6
SLD-実線
 62
   179
370
    18
100
AcDbCircle
 10
24.0991555927
 20
26.8704566535
 30
0.0
 40
0.0393700787500005
100
AcDbArc
 50
0.0
 51
47.612009
  0
ARC
  5
1D0
330
1B
100
AcDbEntity
 67
     1
  8
SLD-0
  6
SLD-実線
 62
   179
370
    18
100
AcDbCircle
 10
24.3138554353
 20
26.8687462598
 30
0.0
 40
0.0393700787500043
100
AcDbArc
 50
0.0
 51
51.711897
  0
ARC
  5
1D1
330
1B
100
AcDbEntity
 67
     1
  8
SLD-0
  6
SLD-実線
 62
   179
370
    18
100
AcDbCircle
 10
24.3875447266
 20
27.0462061024
 30
0.0
 40
0.0393700787499984
100
AcDbArc
 50
180.0
 51
240.0
  0
ARC
  5
1D2
330
1B
100
AcDbEntity
 67
     1
  8
SLD-0
  6
SLD-実線
 62
   179
370
    18
100
AcDbCircle
 10
20.7261274029
 20
13.6458928707
 30
0.0
 40
0.0866141732499983
100
AcDbArc
 50
90.0
 51
180.0
  0
ARC
  5
1D3
330
1B
100
AcDbEntity
 67
     1
  8
SLD-0
  6
SLD-実線
 62
   179
370
    18
100
AcDbCircle
 10
21.1395132298
 20
13.683281847
 30
0.0
 40
0.1259842520000003
100
AcDbArc
 50
90.0
 51
157.000387
  0
ARC
  5
1D4
330
1B
100
AcDbEntity
 67
     1
  8
SLD-0
  6
SLD-実線
 62
   179
370
    18
100
AcDbCircle
 10
23.3245526004
 20
13.6458928707
 30
0.0
 40
0.0866141732499983
100
AcDbArc
 50
0.0
 51
90.0
  0
ARC
  5
1D5
330
1B
100
AcDbEntity
 67
     1
  8
SLD-0
  6
SLD-実線
 62
   179
370
    18
100
AcDbCircle
 10
22.9111667735
 20
13.683281847
 30
0.0
 40
0.1259842520000003
100
AcDbArc
 50
22.999613
 51
90.0
  0
ARC
  5
1D6
330
1B
100
AcDbEntity
 67
     1
  8
SLD-0
  6
SLD-破線
 62
   179
370
    18
100
AcDbCircle
 10
22.0253400016
 20
12.8106892484
 30
0.0
 40
0.4330708662500006
100
AcDbArc
 50
207.834737
 51
332.165263
  0
ARC
  5
1D7
330
1B
100
AcDbEntity
 67
     1
  8
SLD-0
  6
SLD-実線
 62
   179
370
    18
100
AcDbCircle
 10
21.257623466
 20
27.230357441
 30
0.0
 40
0.196850393750001
100
AcDbArc
 50
90.0
 51
180.0
  0
ARC
  5
1D8
330
1B
100
AcDbEntity
 67
     1
  8
SLD-0
  6
SLD-実線
 62
   179
370
    18
100
AcDbCircle
 10
22.7930565373
 20
27.230357441
 30
0.0
 40
0.196850393750001
100
AcDbArc
 50
0.0
 51
90.0
  0
ARC
  5
1D9
330
1B
100
AcDbEntity
 67
     1
  8
SLD-0
  6
SLD-実線
 62
   179
370
    18
100
AcDbCircle
 10
21.257623466
 20
24.5904048419
 30
0.0
 40
0.196850393750001
100
AcDbArc
 50
180.0
 51
270.0
  0
ARC
  5
1DA
330
1B
100
AcDbEntity
 67
     1
  8
SLD-0
  6
SLD-実線
 62
   179
370
    18
100
AcDbCircle
 10
22.7930565373
 20
24.5904048419
 30
0.0
 40
0.196850393750001
100
AcDbArc
 50
270.0
 51
0.0
  0
ARC
  5
1DB
330
1B
100
AcDbEntity
 67
     1
  8
SLD-0
  6
SLD-実線
 62
   179
370
    18
100
AcDbCircle
 10
20.8836077179
 20
27.8896174412
 30
0.0
 40
0.0393700787500038
100
AcDbArc
 50
90.0
 51
180.0
  0
ARC
  5
1DC
330
1B
100
AcDbEntity
 67
     1
  8
SLD-0
  6
SLD-実線
 62
   179
370
    18
100
AcDbCircle
 10
20.8048675604
 20
27.8868089372
 30
0.0
 40
0.0393700787500005
100
AcDbArc
 50
274.236395
 51
0.0
  0
ARC
  5
1DD
330
1B
100
AcDbEntity
 67
     1
  8
SLD-0
  6
SLD-実線
 62
   179
370
    18
100
AcDbCircle
 10
19.858016694
 20
27.698238071
 30
0.0
 40
0.078740157500001
100
AcDbArc
 50
94.236395
 51
178.437775
  0
ARC
  5
1DE
330
1B
100
AcDbEntity
 67
     1
  8
SLD-0
  6
SLD-実線
 62
   179
370
    18
100
AcDbCircle
 10
19.7812455129
 20
27.2990662599
 30
0.0
 40
0.0787401575000019
100
AcDbArc
 50
97.85227
 51
180.0
  0
ARC
  5
1DF
330
1B
100
AcDbEntity
 67
     1
  8
SLD-0
  6
SLD-実線
 62
   179
370
    18
100
AcDbCircle
 10
24.1926633093
 20
27.698238071
 30
0.0
 40
0.078740157500001
100
AcDbArc
 50
1.562225
 51
85.763605
  0
ARC
  5
1E0
330
1B
100
AcDbEntity
 67
     1
  8
SLD-0
  6
SLD-実線
 62
   179
370
    18
100
AcDbCircle
 10
23.2458124429
 20
27.8868089372
 30
0.0
 40
0.03937007875
100
AcDbArc
 50
180.0
 51
265.763605
  0
ARC
  5
1E1
330
1B
100
AcDbEntity
 67
     1
  8
SLD-0
  6
SLD-実線
 62
   179
370
    18
100
AcDbCircle
 10
23.1670722854
 20
27.8896174412
 30
0.0
 40
0.0393700787500038
100
AcDbArc
 50
0.0
 51
90.0
  0
ARC
  5
1E2
330
1B
100
AcDbEntity
 67
     1
  8
SLD-0
  6
SLD-実線
 62
   179
370
    18
100
AcDbCircle
 10
24.1063434667
 20
27.2983279922
 30
0.0
 40
0.0787401575000004
100
AcDbArc
 50
0.0
 51
90.0
  0
ARC
  5
1E3
330
1B
100
AcDbEntity
 67
     1
  8
SLD-0
  6
SLD-実線
 62
   179
370
    18
100
AcDbCircle
 10
24.2694344904
 20
27.2990662599
 30
0.0
 40
0.0787401575000014
100
AcDbArc
 50
0.0
 51
82.14773
  0
ARC
  5
1E4
330
1B
100
AcDbEntity
 67
     1
  8
SLD-0
  6
SLD-実線
 62
   179
370
    18
100
AcDbCircle
 10
23.9143623643
 20
27.2983279922
 30
0.0
 40
0.0787401575000004
100
AcDbArc
 50
0.0
 51
90.0
  0
ARC
  5
1E5
330
1B
100
AcDbEntity
 67
     1
  8
SLD-0
  6
SLD-実線
 62
   179
370
    18
100
AcDbCircle
 10
19.6631352766
 20
27.0462061024
 30
0.0
 40
0.0393700787500002
100
AcDbArc
 50
300.0
 51
0.0
  0
ARC
  5
1E6
330
1B
100
AcDbEntity
 67
     1
  8
SLD-0
  6
SLD-実線
 62
   179
370
    18
100
AcDbCircle
 10
24.224453703
 20
27.0396393307
 30
0.0
 40
0.0393700787500038
100
AcDbArc
 50
180.0
 51
231.711897
  0
ARC
  5
1E7
330
1B
100
AcDbEntity
 67
     1
  8
SLD-0
  6
SLD-実線
 62
   179
370
    18
100
AcDbCircle
 10
24.0324726006
 20
27.0379287795
 30
0.0
 40
0.0393700787499981
100
AcDbArc
 50
180.0
 51
227.612009
  0
ARC
  5
1E8
330
1B
100
AcDbEntity
 67
     1
  8
SLD-0
  6
SLD-実線
 62
   179
370
    18
100
AcDbCircle
 10
24.3875447266
 20
27.0462061024
 30
0.0
 40
0.0393700787499984
100
AcDbArc
 50
180.0
 51
240.0
  0
ARC
  5
1E9
330
1B
100
AcDbEntity
 67
     1
  8
SLD-0
  6
SLD-実線
 62
   179
370
    18
100
AcDbCircle
 10
24.5062817345
 20
26.8867319291
 30
0.0
 40
0.0393700548186501
100
AcDbArc
 50
1.59224
 51
59.9999597845
  0
ARC
  5
1EA
330
1B
100
AcDbEntity
 67
     1
  8
SLD-0
  6
SLD-実線
 62
   179
370
    18
100
AcDbCircle
 10
24.3138554353
 20
26.8687462598
 30
0.0
 40
0.0393700787500043
100
AcDbArc
 50
0.0
 51
51.711897
  0
ARC
  5
1EB
330
1B
100
AcDbEntity
 67
     1
  8
SLD-0
  6
SLD-実線
 62
   179
370
    18
100
AcDbCircle
 10
24.0991555927
 20
26.8704566535
 30
0.0
 40
0.0393700787500005
100
AcDbArc
 50
0.0
 51
47.612009
  0
ARC
  5
1EC
330
1B
100
AcDbEntity
 67
     1
  8
SLD-0
  6
SLD-実線
 62
   179
370
    18
100
AcDbCircle
 10
19.5443984262
 20
26.8867319291
 30
0.0
 40
0.0393700548186501
100
AcDbArc
 50
120.0000402155
 51
178.40776
  0
ARC
  5
1ED
330
1B
100
AcDbEntity
 67
     1
  8
SLD-0
  6
SLD-実線
 62
   179
370
    18
100
AcDbCircle
 10
22.0253400016
 20
9.5769826334
 30
0.0
 40
1.9685039375
100
AcDbArc
 50
153.925155
 51
45.258778
  0
ARC
  5
1EE
330
1B
100
AcDbEntity
 67
     1
  8
SLD-0
  6
SLD-実線
 62
   179
370
    18
100
AcDbCircle
 10
22.0253400016
 20
9.5769826334
 30
0.0
 40
1.476377953124997
100
AcDbArc
 50
155.13534
 51
45.258778
  0
ARC
  5
1EF
330
1B
100
AcDbEntity
 67
     1
  8
SLD-0
  6
SLD-鎖線
 62
   179
370
    18
100
AcDbCircle
 10
22.0253400016
 20
9.5769826334
 30
0.0
 40
2.716535433749999
100
AcDbArc
 50
7.925346
 51
27.451767
  0
ARC
  5
1F0
330
1B
100
AcDbEntity
 67
     1
  8
SLD-0
  6
SLD-鎖線
 62
   179
370
    18
100
AcDbCircle
 10
22.0253400016
 20
9.5769826334
 30
0.0
 40
2.716535433749998
100
AcDbArc
 50
81.172733
 51
99.831934
  0
ARC
  5
1F1
330
1B
100
AcDbEntity
 67
     1
  8
SLD-0
  6
SLD-鎖線
 62
   179
370
    18
100
AcDbCircle
 10
22.0253400016
 20
9.5769826334
 30
0.0
 40
2.716535433750002
100
AcDbArc
 50
152.629309
 51
172.683716
  0
ARC
  5
1F2
330
1B
100
AcDbEntity
 67
     1
  8
SLD-0
  6
SLD-鎖線
 62
   179
370
    18
100
AcDbCircle
 10
22.0253400016
 20
9.5769826334
 30
0.0
 40
2.716535433750002
100
AcDbArc
 50
223.689215
 51
244.339546
  0
CIRCLE
  5
1F3
330
1B
100
AcDbEntity
 67
     1
  8
SLD-0
  6
SLD-実線
 62
   179
370
    18
100
AcDbCircle
 10
23.6220795296
 20
7.3792591683
 30
0.0
 40
0.1889763779999996
  0
CIRCLE
  5
1F4
330
1B
100
AcDbEntity
 67
     1
  8
SLD-0
  6
SLD-実線
 62
   179
370
    18
100
AcDbCircle
 10
20.4286006312
 20
7.3792591683
 30
0.0
 40
0.1889763779999996
  0
CIRCLE
  5
1F5
330
1B
100
AcDbEntity
 67
     1
  8
SLD-0
  6
SLD-実線
 62
   179
370
    18
100
AcDbCircle
 10
19.4417612608
 20
10.4164382242
 30
0.0
 40
0.1889763780000031
  0
CIRCLE
  5
1F6
330
1B
100
AcDbEntity
 67
     1
  8
SLD-0
  6
SLD-実線
 62
   179
370
    18
100
AcDbCircle
 10
22.0253400016
 20
12.2935180672
 30
0.0
 40
0.1889763780000031
  0
CIRCLE
  5
1F7
330
1B
100
AcDbEntity
 67
     1
  8
SLD-0
  6
SLD-実線
 62
   179
370
    18
100
AcDbCircle
 10
24.6089187424
 20
10.4164382242
 30
0.0
 40
0.1889763779999996
  0
ARC
  5
1F8
330
1B
100
AcDbEntity
 67
     1
  8
SLD-0
  6
SLD-実線
 62
   179
370
    18
100
AcDbCircle
 10
22.0253400016
 20
9.5769826334
 30
0.0
 40
1.968503937499997
100
AcDbArc
 50
73.17105
 51
119.052803
  0
ARC
  5
1F9
330
1B
100
AcDbEntity
 67
     1
  8
SLD-0
  6
SLD-実線
 62
   179
370
    18
100
AcDbCircle
 10
22.0253400016
 20
9.5769826334
 30
0.0
 40
1.476377953125001
100
AcDbArc
 50
73.721663
 51
113.361269
  0
CIRCLE
  5
1FA
330
1B
100
AcDbEntity
 67
     1
  8
SLD-0
  6
SLD-実線
 62
   179
370
    18
100
AcDbCircle
 10
22.0253400016
 20
9.5769826334
 30
0.0
 40
2.913385827499997
  0
ARC
  5
1FB
330
1B
100
AcDbEntity
 67
     1
  8
SLD-0
  6
SLD-鎖線
 62
   179
370
    18
100
AcDbCircle
 10
22.0253400016
 20
9.5769826334
 30
0.0
 40
2.716535433750001
100
AcDbArc
 50
296.634723
 51
315.593124
  0
CIRCLE
  5
1FC
330
1B
100
AcDbEntity
 67
     1
  8
SLD-0
  6
SLD-実線
 62
   179
370
    18
100
AcDbCircle
 10
22.0253400016
 20
9.5769826334
 30
0.0
 40
0.4921259843750008
  0
ARC
  5
1FD
330
1B
100
AcDbEntity
 67
     1
  8
SLD-0
  6
SLD-実線
 62
   179
370
    18
100
AcDbCircle
 10
22.0253400016
 20
9.5769826334
 30
0.0
 40
3.740157493091164
100
AcDbArc
 50
35.852614
 51
54.1473853053
  0
ARC
  5
1FE
330
1B
100
AcDbEntity
 67
     1
  8
SLD-0
  6
SLD-実線
 62
   179
370
    18
100
AcDbCircle
 10
22.0253400016
 20
9.5769826334
 30
0.0
 40
3.740157504932335
100
AcDbArc
 50
305.8526146947
 51
324.1473853053
  0
ARC
  5
1FF
330
1B
100
AcDbEntity
 67
     1
  8
SLD-0
  6
SLD-実線
 62
   179
370
    18
100
AcDbCircle
 10
22.0253400016
 20
9.5769826334
 30
0.0
 40
3.740157493091169
100
AcDbArc
 50
215.8526146947
 51
234.147386
  0
ARC
  5
200
330
1B
100
AcDbEntity
 67
     1
  8
SLD-0
  6
SLD-実線
 62
   179
370
    18
100
AcDbCircle
 10
22.0253400016
 20
9.5769826334
 30
0.0
 40
3.74015748125
100
AcDbArc
 50
125.852614
 51
144.147386
  0
ARC
  5
201
330
1B
100
AcDbEntity
 67
     1
  8
SLD-0
  6
SLD-実線
 62
   179
370
    18
100
AcDbCircle
 10
25.0962061441
 20
10.2856440509
 30
0.0
 40
0.0787401574999995
100
AcDbArc
 50
0.0
 51
75.522488
  0
ARC
  5
202
330
1B
100
AcDbEntity
 67
     1
  8
SLD-0
  6
SLD-実線
 62
   179
370
    18
100
AcDbCircle
 10
25.1355762229
 20
10.4381235785
 30
0.0
 40
0.0787401574999987
100
AcDbArc
 50
180.0
 51
255.522488
  0
ARC
  5
203
330
1B
100
AcDbEntity
 67
     1
  8
SLD-0
  6
SLD-実線
 62
   179
370
    18
100
AcDbCircle
 10
25.0962061441
 20
8.8683212159
 30
0.0
 40
0.0787401574999995
100
AcDbArc
 50
284.477512
 51
0.0
  0
ARC
  5
204
330
1B
100
AcDbEntity
 67
     1
  8
SLD-0
  6
SLD-実線
 62
   179
370
    18
100
AcDbCircle
 10
25.1355762229
 20
8.7158415308
 30
0.0
 40
0.0787401699612609
100
AcDbArc
 50
104.4775076894
 51
180.0
  0
ARC
  5
205
330
1B
100
AcDbEntity
 67
     1
  8
SLD-0
  6
SLD-実線
 62
   179
370
    18
100
AcDbCircle
 10
18.9544738591
 20
10.2856440509
 30
0.0
 40
0.0787401575000004
100
AcDbArc
 50
104.477512
 51
180.0
  0
ARC
  5
206
330
1B
100
AcDbEntity
 67
     1
  8
SLD-0
  6
SLD-実線
 62
   179
370
    18
100
AcDbCircle
 10
18.9544738591
 20
8.8683212159
 30
0.0
 40
0.0787401575000004
100
AcDbArc
 50
180.0
 51
255.522488
  0
ARC
  5
207
330
1B
100
AcDbEntity
 67
     1
  8
SLD-0
  6
SLD-実線
 62
   179
370
    18
100
AcDbCircle
 10
18.9151037804
 20
8.7158415308
 30
0.0
 40
0.0787401699612592
100
AcDbArc
 50
0.0
 51
75.5224923106
  0
ARC
  5
208
330
1B
100
AcDbEntity
 67
     1
  8
SLD-0
  6
SLD-実線
 62
   179
370
    18
100
AcDbCircle
 10
18.9151037804
 20
10.4381235785
 30
0.0
 40
0.0787401575000004
100
AcDbArc
 50
284.477512
 51
0.0
  0
ARC
  5
209
330
1B
100
AcDbEntity
 67
     1
  8
SLD-0
  6
SLD-実線
 62
   179
370
    18
100
AcDbCircle
 10
22.0253400016
 20
9.5769826334
 30
0.0
 40
3.543307087499999
100
AcDbArc
 50
36.869898
 51
53.1301023542
  0
ARC
  5
20A
330
1B
100
AcDbEntity
 67
     1
  8
SLD-0
  6
SLD-実線
 62
   179
370
    18
100
AcDbCircle
 10
22.0253400016
 20
9.5769826334
 30
0.0
 40
3.543307087500001
100
AcDbArc
 50
306.869898
 51
323.1301023542
  0
ARC
  5
20B
330
1B
100
AcDbEntity
 67
     1
  8
SLD-0
  6
SLD-実線
 62
   179
370
    18
100
AcDbCircle
 10
23.1867573248
 20
6.6635968059
 30
0.0
 40
0.0787401574999995
100
AcDbArc
 50
90.0
 51
180.0
  0
ARC
  5
20C
330
1B
100
AcDbEntity
 67
     1
  8
SLD-0
  6
SLD-実線
 62
   179
370
    18
100
AcDbCircle
 10
24.9387258291
 20
8.4155653103
 30
0.0
 40
0.0787401575000022
100
AcDbArc
 50
90.0
 51
180.0
  0
ARC
  5
20D
330
1B
100
AcDbEntity
 67
     1
  8
SLD-0
  6
SLD-実線
 62
   179
370
    18
100
AcDbCircle
 10
24.9387258291
 20
10.7383999565
 30
0.0
 40
0.0787401575000004
100
AcDbArc
 50
180.0
 51
270.0
  0
ARC
  5
20E
330
1B
100
AcDbEntity
 67
     1
  8
SLD-0
  6
SLD-実線
 62
   179
370
    18
100
AcDbCircle
 10
23.1867573248
 20
12.4903684609
 30
0.0
 40
0.0787401575000022
100
AcDbArc
 50
180.0
 51
270.0
  0
ARC
  5
20F
330
1B
100
AcDbEntity
 67
     1
  8
SLD-0
  6
SLD-実線
 62
   179
370
    18
100
AcDbCircle
 10
19.1119541741
 20
10.7383999565
 30
0.0
 40
0.0787401575000004
100
AcDbArc
 50
270.0
 51
0.0
  0
ARC
  5
210
330
1B
100
AcDbEntity
 67
     1
  8
SLD-0
  6
SLD-実線
 62
   179
370
    18
100
AcDbCircle
 10
22.0253400016
 20
9.5769826334
 30
0.0
 40
3.543307087499998
100
AcDbArc
 50
126.869898
 51
143.1301023542
  0
ARC
  5
211
330
1B
100
AcDbEntity
 67
     1
  8
SLD-0
  6
SLD-実線
 62
   179
370
    18
100
AcDbCircle
 10
20.8639226785
 20
12.4903684609
 30
0.0
 40
0.078740157500004
100
AcDbArc
 50
270.0
 51
0.0
  0
ARC
  5
212
330
1B
100
AcDbEntity
 67
     1
  8
SLD-0
  6
SLD-実線
 62
   179
370
    18
100
AcDbCircle
 10
19.1119541741
 20
8.4155653103
 30
0.0
 40
0.0787401575000022
100
AcDbArc
 50
0.0
 51
90.0
  0
ARC
  5
213
330
1B
100
AcDbEntity
 67
     1
  8
SLD-0
  6
SLD-実線
 62
   179
370
    18
100
AcDbCircle
 10
22.0253400016
 20
9.5769826334
 30
0.0
 40
3.543307087500002
100
AcDbArc
 50
216.8698976458
 51
233.130102
  0
ARC
  5
214
330
1B
100
AcDbEntity
 67
     1
  8
SLD-0
  6
SLD-実線
 62
   179
370
    18
100
AcDbCircle
 10
20.8639226785
 20
6.6635968059
 30
0.0
 40
0.078740157500004
100
AcDbArc
 50
0.0
 51
90.0
  0
CIRCLE
  5
215
330
1B
100
AcDbEntity
 67
     1
  8
SLD-0
  6
SLD-実線
 62
   179
370
    18
100
AcDbCircle
 10
24.391642207
 20
11.9432848387
 30
0.0
 40
0.196850393750001
  0
CIRCLE
  5
216
330
1B
100
AcDbEntity
 67
     1
  8
SLD-0
  6
SLD-実線
 62
   179
370
    18
100
AcDbCircle
 10
19.6590377963
 20
7.2106804281
 30
0.0
 40
0.196850393750001
  0
CIRCLE
  5
217
330
1B
100
AcDbEntity
 67
     1
  8
SLD-0
  6
SLD-実線
 62
   179
370
    18
100
AcDbCircle
 10
19.7982321271
 20
11.804090508
 30
0.0
 40
0.1968503937499939
  0
CIRCLE
  5
218
330
1B
100
AcDbEntity
 67
     1
  8
SLD-0
  6
SLD-実線
 62
   179
370
    18
100
AcDbCircle
 10
24.2524480337
 20
7.3498746014
 30
0.0
 40
0.196850393750001
  0
ARC
  5
219
330
1B
100
AcDbEntity
 67
     1
  8
SLD-0
  6
SLD-鎖線
 62
   179
370
    18
100
AcDbCircle
 10
22.0253400016
 20
9.5769826334
 30
0.0
 40
3.149606299999997
100
AcDbArc
 50
125.46502
 51
142.54371
  0
ARC
  5
21A
330
1B
100
AcDbEntity
 67
     1
  8
SLD-0
  6
SLD-鎖線
 62
   179
370
    18
100
AcDbCircle
 10
22.0253400016
 20
9.5769826334
 30
0.0
 40
3.346456693749998
100
AcDbArc
 50
38.30879
 51
51.608
  0
ARC
  5
21B
330
1B
100
AcDbEntity
 67
     1
  8
SLD-0
  6
SLD-鎖線
 62
   179
370
    18
100
AcDbCircle
 10
22.0253400016
 20
9.5769826334
 30
0.0
 40
3.1496063
100
AcDbArc
 50
305.598024
 51
322.998913
  0
ARC
  5
21C
330
1B
100
AcDbEntity
 67
     1
  8
SLD-0
  6
SLD-鎖線
 62
   179
370
    18
100
AcDbCircle
 10
22.0253400016
 20
9.5769826334
 30
0.0
 40
3.346456693750004
100
AcDbArc
 50
218.002234
 51
232.029228
  0
ARC
  5
21D
330
1B
100
AcDbEntity
 67
     1
  8
SLD-0
  6
SLD-実線
 62
   179
370
    18
100
AcDbCircle
 10
24.9780959079
 20
19.7400111399
 30
0.0
 40
0.078740157500004
100
AcDbArc
 50
0.0
 51
90.0
  0
ARC
  5
21E
330
1B
100
AcDbEntity
 67
     1
  8
SLD-0
  6
SLD-実線
 62
   179
370
    18
100
AcDbCircle
 10
19.0725840954
 20
19.7400111399
 30
0.0
 40
0.0787401575000004
100
AcDbArc
 50
90.0
 51
180.0
  0
ARC
  5
21F
330
1B
100
AcDbEntity
 67
     1
  8
SLD-0
  6
SLD-実線
 62
   179
370
    18
100
AcDbCircle
 10
25.0962061441
 20
22.8108772824
 30
0.0
 40
0.0787401575000004
100
AcDbArc
 50
0.0
 51
90.0
  0
ARC
  5
220
330
1B
100
AcDbEntity
 67
     1
  8
SLD-0
  6
SLD-実線
 62
   179
370
    18
100
AcDbCircle
 10
18.9544738591
 20
22.8108772824
 30
0.0
 40
0.0787401575000004
100
AcDbArc
 50
90.0
 51
180.0
  0
ARC
  5
221
330
1B
100
AcDbEntity
 67
     1
  8
SLD-0
  6
SLD-実線
 62
   179
370
    18
100
AcDbCircle
 10
24.5587977975
 20
23.0077276762
 30
0.0
 40
0.1181102362500042
100
AcDbArc
 50
188.901716
 51
270.0
  0
ARC
  5
222
330
1B
100
AcDbEntity
 67
     1
  8
SLD-0
  6
SLD-実線
 62
   179
370
    18
100
AcDbCircle
 10
24.071153388
 20
21.0361952347
 30
0.0
 40
0.0393700787499993
100
AcDbArc
 50
17.636423
 51
90.0
  0
ARC
  5
223
330
1B
100
AcDbEntity
 67
     1
  8
SLD-0
  6
SLD-実線
 62
   179
370
    18
100
AcDbCircle
 10
19.3302247254
 20
19.5289664154
 30
0.0
 40
5.014120788655107
100
AcDbArc
 50
3.313186
 51
17.636423
  0
ARC
  5
224
330
1B
100
AcDbEntity
 67
     1
  8
SLD-0
  6
SLD-実線
 62
   179
370
    18
100
AcDbCircle
 10
24.0496825218
 20
21.0361952347
 30
0.0
 40
0.0393700787500007
100
AcDbArc
 50
90.0
 51
162.088043
  0
ARC
  5
225
330
1B
100
AcDbEntity
 67
     1
  8
SLD-0
  6
SLD-実線
 62
   179
370
    18
100
AcDbCircle
 10
28.6080077198
 20
19.5628457855
 30
0.0
 40
4.829890552388576
100
AcDbArc
 50
162.088043
 51
176.962835
  0
ARC
  5
226
330
1B
100
AcDbEntity
 67
     1
  8
SLD-0
  6
SLD-実線
 62
   179
370
    18
100
AcDbCircle
 10
19.9795266153
 20
21.0361952347
 30
0.0
 40
0.0393700787500026
100
AcDbArc
 50
90.0
 51
162.363577
  0
ARC
  5
227
330
1B
100
AcDbEntity
 67
     1
  8
SLD-0
  6
SLD-実線
 62
   179
370
    18
100
AcDbCircle
 10
24.7204554354
 20
19.5289664154
 30
0.0
 40
5.014120788655107
100
AcDbArc
 50
162.363577
 51
176.686814
  0
ARC
  5
228
330
1B
100
AcDbEntity
 67
     1
  8
SLD-0
  6
SLD-実線
 62
   179
370
    18
100
AcDbCircle
 10
20.0009976389
 20
21.0361952347
 30
0.0
 40
0.0393700787500007
100
AcDbArc
 50
17.911957
 51
90.0
  0
ARC
  5
229
330
1B
100
AcDbEntity
 67
     1
  8
SLD-0
  6
SLD-実線
 62
   179
370
    18
100
AcDbCircle
 10
15.4426724409
 20
19.5628457855
 30
0.0
 40
4.829890552388577
100
AcDbArc
 50
3.037165
 51
17.911957
  0
CIRCLE
  5
22A
330
1B
100
AcDbEntity
 67
     1
  8
SLD-0
  6
SLD-破線
 62
   179
370
    18
100
AcDbCircle
 10
22.0253400016
 20
21.7872552349
 30
0.0
 40
0.1574803149999973
  0
ENDSEC
  0
SECTION
  2
OBJECTS
  0
DICTIONARY
  5
C
330
0
100
AcDbDictionary
281
     1
  3
ACAD_GROUP
350
D
  3
ACAD_LAYOUT
350
1A
  3
ACAD_MLINESTYLE
350
17
  3
ACAD_PLOTSETTINGS
350
19
  3
ACAD_PLOTSTYLENAME
350
E
  3
ACAD_SCALELIST
350
47
  0
DICTIONARY
  5
D
102
{ACAD_REACTORS
330
C
102
}
330
C
100
AcDbDictionary
281
     1
  0
DICTIONARY
  5
1A
102
{ACAD_REACTORS
330
C
102
}
330
C
100
AcDbDictionary
281
     1
  3
Model
350
22
  3
SW_Model_3
350
1E
  0
DICTIONARY
  5
17
102
{ACAD_REACTORS
330
C
102
}
330
C
100
AcDbDictionary
281
     1
  3
Standard
350
18
  0
DICTIONARY
  5
19
102
{ACAD_REACTORS
330
C
102
}
330
C
100
AcDbDictionary
281
     1
  0
ACDBDICTIONARYWDFLT
  5
E
102
{ACAD_REACTORS
330
C
102
}
330
C
100
AcDbDictionary
281
     1
  3
Normal
350
F
100
AcDbDictionaryWithDefault
340
F
  0
DICTIONARY
  5
47
102
{ACAD_REACTORS
330
C
102
}
330
C
100
AcDbDictionary
281
     1
  3
A0
350
48
  3
A1
350
49
  3
A2
350
4A
  3
A3
350
4B
  3
A4
350
4C
  3
A5
350
4D
  3
A6
350
4E
  3
A7
350
4F
  3
A8
350
50
  3
A9
350
51
  3
B0
350
52
  3
B1
350
53
  3
B2
350
54
  3
B3
350
55
  3
B4
350
56
  3
B5
350
57
  3
B6
350
58
  3
B7
350
59
  3
B8
350
5A
  3
B9
350
5B
  3
C0
350
5C
  3
C1
350
5D
  3
C2
350
5E
  3
C3
350
5F
  3
C4
350
60
  3
C5
350
61
  3
C6
350
62
  3
C7
350
63
  3
C8
350
64
  3
C9
350
65
  3
D0
350
66
  3
D1
350
67
  3
D2
350
68
  0
LAYOUT
  5
22
102
{ACAD_REACTORS
330
1A
102
}
330
1A
100
AcDbPlotSettings
  1

  2
none_device
  4
Letter_(8.50_x_11.00_Inches)
  6

 40
6.35
 41
6.35
 42
6.35000508
 43
6.35000508
 44
215.9
 45
279.4
 46
0.0
 47
0.0
 48
0.0
 49
0.0
140
0.0
141
0.0
142
1.0
143
1.0
 70
  1712
 72
     0
 73
     0
 74
     0
  7

 75
     0
147
1.0
148
0.0
149
0.0
100
AcDbLayout
  1
Model
 70
     1
 71
     0
 10
0.0
 20
0.0
 11
44.0
 21
34.0
 12
0.0
 22
0.0
 32
0.0
 14
0.0
 24
0.0
 34
0.0
 15
44.0
 25
34.0
 35
0.0
146
0.0
 13
0.0
 23
0.0
 33
0.0
 16
1.0
 26
0.0
 36
0.0
 17
0.0
 27
1.0
 37
0.0
 76
     0
330
1F
331
29
  0
LAYOUT
  5
1E
102
{ACAD_REACTORS
330
1A
102
}
330
1A
100
AcDbPlotSettings
  1

  2
none_device
  4
ANSI_E_(44.00_x_34.00_Inches)
  6

 40
6.35
 41
19.05
 42
6.3499746
 43
19.0499873
 44
1117.6
 45
863.6
 46
0.0
 47
0.0
 48
0.0
 49
0.0
140
0.0
141
0.0
142
1.0
143
1.0
 70
  4832
 72
     0
 73
     0
 74
     1
  7

 75
     0
147
1.0
148
0.0
149
0.0
100
AcDbLayout
  1
SW_Model_3
 70
     1
 71
     1
 10
0.0
 20
0.0
 11
44.0
 21
34.0
 12
0.0
 22
0.0
 32
0.0
 14
0.0
 24
0.0
 34
0.0
 15
44.0
 25
34.0
 35
0.0
146
0.0
 13
0.0
 23
0.0
 33
0.0
 16
1.0
 26
0.0
 36
0.0
 17
0.0
 27
1.0
 37
0.0
 76
     0
330
1B
331
107
  0
MLINESTYLE
  5
18
102
{ACAD_REACTORS
330
17
102
}
330
17
100
AcDbMlineStyle
  2
Standard
 70
     0
  3

 62
   256
 51
90.0
 52
90.0
 71
     2
 49
0.5
 62
   256
  6
BYLAYER
 49
-0.5
 62
   256
  6
BYLAYER
  0
ACDBPLACEHOLDER
  5
F
102
{ACAD_REACTORS
330
E
102
}
330
E
  0
SCALE
  5
48
102
{ACAD_REACTORS
330
47
102
}
330
47
100
AcDbScale
 70
     0
300
1:1
140
1.0
141
1.0
290
     1
  0
SCALE
  5
49
102
{ACAD_REACTORS
330
47
102
}
330
47
100
AcDbScale
 70
     0
300
1:2
140
1.0
141
2.0
290
     0
  0
SCALE
  5
4A
102
{ACAD_REACTORS
330
47
102
}
330
47
100
AcDbScale
 70
     0
300
1:4
140
1.0
141
4.0
290
     0
  0
SCALE
  5
4B
102
{ACAD_REACTORS
330
47
102
}
330
47
100
AcDbScale
 70
     0
300
1:5
140
1.0
141
5.0
290
     0
  0
SCALE
  5
4C
102
{ACAD_REACTORS
330
47
102
}
330
47
100
AcDbScale
 70
     0
300
1:8
140
1.0
141
8.0
290
     0
  0
SCALE
  5
4D
102
{ACAD_REACTORS
330
47
102
}
330
47
100
AcDbScale
 70
     0
300
1:10
140
1.0
141
10.0
290
     0
  0
SCALE
  5
4E
102
{ACAD_REACTORS
330
47
102
}
330
47
100
AcDbScale
 70
     0
300
1:16
140
1.0
141
16.0
290
     0
  0
SCALE
  5
4F
102
{ACAD_REACTORS
330
47
102
}
330
47
100
AcDbScale
 70
     0
300
1:20
140
1.0
141
20.0
290
     0
  0
SCALE
  5
50
102
{ACAD_REACTORS
330
47
102
}
330
47
100
AcDbScale
 70
     0
300
1:30
140
1.0
141
30.0
290
     0
  0
SCALE
  5
51
102
{ACAD_REACTORS
330
47
102
}
330
47
100
AcDbScale
 70
     0
300
1:40
140
1.0
141
40.0
290
     0
  0
SCALE
  5
52
102
{ACAD_REACTORS
330
47
102
}
330
47
100
AcDbScale
 70
     0
300
1:50
140
1.0
141
50.0
290
     0
  0
SCALE
  5
53
102
{ACAD_REACTORS
330
47
102
}
330
47
100
AcDbScale
 70
     0
300
1:100
140
1.0
141
100.0
290
     0
  0
SCALE
  5
54
102
{ACAD_REACTORS
330
47
102
}
330
47
100
AcDbScale
 70
     0
300
2:1
140
2.0
141
1.0
290
     0
  0
SCALE
  5
55
102
{ACAD_REACTORS
330
47
102
}
330
47
100
AcDbScale
 70
     0
300
4:1
140
4.0
141
1.0
290
     0
  0
SCALE
  5
56
102
{ACAD_REACTORS
330
47
102
}
330
47
100
AcDbScale
 70
     0
300
8:1
140
8.0
141
1.0
290
     0
  0
SCALE
  5
57
102
{ACAD_REACTORS
330
47
102
}
330
47
100
AcDbScale
 70
     0
300
10:1
140
10.0
141
1.0
290
     0
  0
SCALE
  5
58
102
{ACAD_REACTORS
330
47
102
}
330
47
100
AcDbScale
 70
     0
300
100:1
140
100.0
141
1.0
290
     0
  0
SCALE
  5
59
102
{ACAD_REACTORS
330
47
102
}
330
47
100
AcDbScale
 70
     0
300
1/128" = 1'-0"
140
0.0078125
141
12.0
290
     0
  0
SCALE
  5
5A
102
{ACAD_REACTORS
330
47
102
}
330
47
100
AcDbScale
 70
     0
300
1/64" = 1'-0"
140
0.015625
141
12.0
290
     0
  0
SCALE
  5
5B
102
{ACAD_REACTORS
330
47
102
}
330
47
100
AcDbScale
 70
     0
300
1/32" = 1'-0"
140
0.03125
141
12.0
290
     0
  0
SCALE
  5
5C
102
{ACAD_REACTORS
330
47
102
}
330
47
100
AcDbScale
 70
     0
300
1/16" = 1'-0"
140
0.0625
141
12.0
290
     0
  0
SCALE
  5
5D
102
{ACAD_REACTORS
330
47
102
}
330
47
100
AcDbScale
 70
     0
300
3/32" = 1'-0"
140
0.09375
141
12.0
290
     0
  0
SCALE
  5
5E
102
{ACAD_REACTORS
330
47
102
}
330
47
100
AcDbScale
 70
     0
300
1/8" = 1'-0"
140
0.125
141
12.0
290
     0
  0
SCALE
  5
5F
102
{ACAD_REACTORS
330
47
102
}
330
47
100
AcDbScale
 70
     0
300
3/16" = 1'-0"
140
0.1875
141
12.0
290
     0
  0
SCALE
  5
60
102
{ACAD_REACTORS
330
47
102
}
330
47
100
AcDbScale
 70
     0
300
1/4" = 1'-0"
140
0.25
141
12.0
290
     0
  0
SCALE
  5
61
102
{ACAD_REACTORS
330
47
102
}
330
47
100
AcDbScale
 70
     0
300
3/8" = 1'-0"
140
0.375
141
12.0
290
     0
  0
SCALE
  5
62
102
{ACAD_REACTORS
330
47
102
}
330
47
100
AcDbScale
 70
     0
300
1/2" = 1'-0"
140
0.5
141
12.0
290
     0
  0
SCALE
  5
63
102
{ACAD_REACTORS
330
47
102
}
330
47
100
AcDbScale
 70
     0
300
3/4" = 1'-0"
140
0.75
141
12.0
290
     0
  0
SCALE
  5
64
102
{ACAD_REACTORS
330
47
102
}
330
47
100
AcDbScale
 70
     0
300
1" = 1'-0"
140
1.0
141
12.0
290
     0
  0
SCALE
  5
65
102
{ACAD_REACTORS
330
47
102
}
330
47
100
AcDbScale
 70
     0
300
1-1/2" = 1'-0"
140
1.5
141
12.0
290
     0
  0
SCALE
  5
66
102
{ACAD_REACTORS
330
47
102
}
330
47
100
AcDbScale
 70
     0
300
3" = 1'-0"
140
3.0
141
12.0
290
     0
  0
SCALE
  5
67
102
{ACAD_REACTORS
330
47
102
}
330
47
100
AcDbScale
 70
     0
300
6" = 1'-0"
140
6.0
141
12.0
290
     0
  0
SCALE
  5
68
102
{ACAD_REACTORS
330
47
102
}
330
47
100
AcDbScale
 70
     0
300
1'-0" = 1'-0"
140
12.0
141
12.0
290
     0
  0
ENDSEC
  0
EOF
