  0
SECTION
  2
HEADER
  9
$ACADVER
  1
AC1015
  9
$ACADMAINTVER
 70
     6
  9
$DWGCODEPAGE
  3
DOS932
  9
$INSBASE
 10
0.0
 20
0.0
 30
0.0
  9
$EXTMIN
 10
0.0
 20
0.0
 30
0.0
  9
$EXTMAX
 10
44.0
 20
34.0
 30
0.0
  9
$LIMMIN
 10
0.0
 20
0.0
  9
$LIMMAX
 10
44.0
 20
34.0
  9
$ORTHOMODE
 70
     0
  9
$REGENMODE
 70
     1
  9
$FILLMODE
 70
     1
  9
$QTEXTMODE
 70
     0
  9
$MIRRTEXT
 70
     1
  9
$LTSCALE
 40
1.0
  9
$ATTMODE
 70
     1
  9
$TEXTSIZE
 40
0.1377952756
  9
$TRACEWID
 40
0.05
  9
$TEXTSTYLE
  7
STANDARD
  9
$CLAYER
  8
0
  9
$CELTYPE
  6
ByLayer
  9
$CECOLOR
 62
   256
  9
$CELTSCALE
 40
1.0
  9
$DISPSILH
 70
     0
  9
$DIMSCALE
 40
1.0
  9
$DIMASZ
 40
0.14
  9
$DIMEXO
 40
0.0393700787
  9
$DIMDLI
 40
0.38
  9
$DIMRND
 40
0.0
  9
$DIMDLE
 40
0.0
  9
$DIMEXE
 40
0.0393700787
  9
$DIMTP
 40
0.0
  9
$DIMTM
 40
0.0
  9
$DIMTXT
 40
0.1377952756
  9
$DIMCEN
 40
0.09
  9
$DIMTSZ
 40
0.0
  9
$DIMTOL
 70
     0
  9
$DIMLIM
 70
     0
  9
$DIMTIH
 70
     1
  9
$DIMTOH
 70
     1
  9
$DIMSE1
 70
     0
  9
$DIMSE2
 70
     0
  9
$DIMTAD
 70
     1
  9
$DIMZIN
 70
     1
  9
$DIMBLK
  1

  9
$DIMASO
 70
     1
  9
$DIMSHO
 70
     1
  9
$DIMPOST
  1

  9
$DIMAPOST
  1

  9
$DIMALT
 70
     0
  9
$DIMALTD
 70
     2
  9
$DIMALTF
 40
25.4
  9
$DIMLFAC
 40
1.0
  9
$DIMTOFL
 70
     0
  9
$DIMTVP
 40
0.0
  9
$DIMTIX
 70
     0
  9
$DIMSOXD
 70
     0
  9
$DIMSAH
 70
     0
  9
$DIMBLK1
  1

  9
$DIMBLK2
  1

  9
$DIMSTYLE
  2
Standard
  9
$DIMCLRD
 70
     0
  9
$DIMCLRE
 70
     0
  9
$DIMCLRT
 70
     0
  9
$DIMTFAC
 40
1.0
  9
$DIMGAP
 40
0.06
  9
$DIMJUST
 70
     0
  9
$DIMSD1
 70
     0
  9
$DIMSD2
 70
     0
  9
$DIMTOLJ
 70
     1
  9
$DIMTZIN
 70
     1
  9
$DIMALTZ
 70
     0
  9
$DIMALTTZ
 70
     0
  9
$DIMUPT
 70
     0
  9
$DIMDEC
 70
     0
  9
$DIMTDEC
 70
     4
  9
$DIMALTU
 70
     2
  9
$DIMALTTD
 70
     2
  9
$DIMTXSTY
  7
STANDARD
  9
$DIMAUNIT
 70
     0
  9
$DIMADEC
 70
     0
  9
$DIMALTRND
 40
0.0
  9
$DIMAZIN
 70
     0
  9
$DIMDSEP
 70
    46
  9
$DIMATFIT
 70
     3
  9
$DIMFRAC
 70
     0
  9
$DIMLDRBLK
  1

  9
$DIMLUNIT
 70
     2
  9
$DIMLWD
 70
    -2
  9
$DIMLWE
 70
    -2
  9
$DIMTMOVE
 70
     0
  9
$LUNITS
 70
     2
  9
$LUPREC
 70
     3
  9
$SKETCHINC
 40
0.1
  9
$FILLETRAD
 40
0.5
  9
$AUNITS
 70
     0
  9
$AUPREC
 70
     0
  9
$MENU
  1
.
  9
$ELEVATION
 40
0.0
  9
$PELEVATION
 40
0.0
  9
$THICKNESS
 40
0.0
  9
$LIMCHECK
 70
     0
  9
$CHAMFERA
 40
0.0
  9
$CHAMFERB
 40
0.0
  9
$CHAMFERC
 40
0.0
  9
$CHAMFERD
 40
0.0
  9
$SKPOLY
 70
     0
  9
$TDCREATE
 40
2460020.314553982
  9
$TDUCREATE
 40
2460019.939553982
  9
$TDUPDATE
 40
2460020.314556516
  9
$TDUUPDATE
 40
2460019.939556516
  9
$TDINDWG
 40
0.0000000116
  9
$TDUSRTIMER
 40
0.0000000116
  9
$USRTIMER
 70
     1
  9
$ANGBASE
 50
0.0
  9
$ANGDIR
 70
     0
  9
$PDMODE
 70
     0
  9
$PDSIZE
 40
-1.0
  9
$PLINEWID
 40
0.0
  9
$SPLFRAME
 70
     0
  9
$SPLINETYPE
 70
     6
  9
$SPLINESEGS
 70
     8
  9
$HANDSEED
  5
1C0
  9
$SURFTAB1
 70
     6
  9
$SURFTAB2
 70
     6
  9
$SURFTYPE
 70
     6
  9
$SURFU
 70
     6
  9
$SURFV
 70
     6
  9
$UCSBASE
  2

  9
$UCSNAME
  2

  9
$UCSORG
 10
0.0
 20
0.0
 30
0.0
  9
$UCSXDIR
 10
1.0
 20
0.0
 30
0.0
  9
$UCSYDIR
 10
0.0
 20
1.0
 30
0.0
  9
$UCSORTHOREF
  2

  9
$UCSORTHOVIEW
 70
     0
  9
$UCSORGTOP
 10
0.0
 20
0.0
 30
0.0
  9
$UCSORGBOTTOM
 10
0.0
 20
0.0
 30
0.0
  9
$UCSORGLEFT
 10
0.0
 20
0.0
 30
0.0
  9
$UCSORGRIGHT
 10
0.0
 20
0.0
 30
0.0
  9
$UCSORGFRONT
 10
0.0
 20
0.0
 30
0.0
  9
$UCSORGBACK
 10
0.0
 20
0.0
 30
0.0
  9
$PUCSBASE
  2

  9
$PUCSNAME
  2

  9
$PUCSORG
 10
0.0
 20
0.0
 30
0.0
  9
$PUCSXDIR
 10
1.0
 20
0.0
 30
0.0
  9
$PUCSYDIR
 10
0.0
 20
1.0
 30
0.0
  9
$PUCSORTHOREF
  2

  9
$PUCSORTHOVIEW
 70
     0
  9
$PUCSORGTOP
 10
0.0
 20
0.0
 30
0.0
  9
$PUCSORGBOTTOM
 10
0.0
 20
0.0
 30
0.0
  9
$PUCSORGLEFT
 10
0.0
 20
0.0
 30
0.0
  9
$PUCSORGRIGHT
 10
0.0
 20
0.0
 30
0.0
  9
$PUCSORGFRONT
 10
0.0
 20
0.0
 30
0.0
  9
$PUCSORGBACK
 10
0.0
 20
0.0
 30
0.0
  9
$USERI1
 70
     0
  9
$USERI2
 70
     0
  9
$USERI3
 70
     0
  9
$USERI4
 70
     0
  9
$USERI5
 70
     0
  9
$USERR1
 40
0.0
  9
$USERR2
 40
0.0
  9
$USERR3
 40
0.0
  9
$USERR4
 40
0.0
  9
$USERR5
 40
0.0
  9
$WORLDVIEW
 70
     1
  9
$SHADEDGE
 70
     3
  9
$SHADEDIF
 70
    70
  9
$TILEMODE
 70
     0
  9
$MAXACTVP
 70
    64
  9
$PINSBASE
 10
0.0
 20
0.0
 30
0.0
  9
$PLIMCHECK
 70
     0
  9
$PEXTMIN
 10
0.0
 20
0.0
 30
0.0
  9
$PEXTMAX
 10
44.0
 20
34.0
 30
0.0
  9
$PLIMMIN
 10
0.0
 20
0.0
  9
$PLIMMAX
 10
44.0
 20
34.0
  9
$UNITMODE
 70
     0
  9
$VISRETAIN
 70
     1
  9
$PLINEGEN
 70
     0
  9
$PSLTSCALE
 70
     1
  9
$TREEDEPTH
 70
  3020
  9
$CMLSTYLE
  2
Standard
  9
$CMLJUST
 70
     0
  9
$CMLSCALE
 40
1.0
  9
$PROXYGRAPHICS
 70
     1
  9
$MEASUREMENT
 70
     0
  9
$CELWEIGHT
370
    -1
  9
$ENDCAPS
280
     0
  9
$JOINSTYLE
280
     0
  9
$LWDISPLAY
290
     1
  9
$INSUNITS
 70
     1
  9
$HYPERLINKBASE
  1

  9
$STYLESHEET
  1

  9
$XEDIT
290
     1
  9
$CEPSNTYPE
380
     0
  9
$PSTYLEMODE
290
     1
  9
$FINGERPRINTGUID
  2
{e1fc2588-56c3-4a92-8683-d7d98c4620a5}
  9
$VERSIONGUID
  2
{FAEB1C32-E019-11D5-929B-00C0DF256EC4}
  9
$EXTNAMES
290
     1
  9
$PSVPSCALE
 40
0.0
  9
$OLESTARTUP
290
     0
  0
ENDSEC
  0
SECTION
  2
CLASSES
  0
CLASS
  1
ACDBDICTIONARYWDFLT
  2
AcDbDictionaryWithDefault
  3
ObjectDBX Classes
 90
        0
280
     0
281
     0
  0
CLASS
  1
VISUALSTYLE
  2
AcDbVisualStyle
  3
ObjectDBX Classes
 90
     4095
280
     0
281
     0
  0
CLASS
  1
MATERIAL
  2
AcDbMaterial
  3
ObjectDBX Classes
 90
     1153
280
     0
281
     0
  0
CLASS
  1
SCALE
  2
AcDbScale
  3
ObjectDBX Classes
 90
     1153
280
     0
281
     0
  0
CLASS
  1
TABLESTYLE
  2
AcDbTableStyle
  3
ObjectDBX Classes
 90
     4095
280
     0
281
     0
  0
CLASS
  1
MLEADERSTYLE
  2
AcDbMLeaderStyle
  3
ACDB_MLEADERSTYLE_CLASS
 90
     4095
280
     0
281
     0
  0
CLASS
  1
SUN
  2
AcDbSun
  3
SCENEOE
 90
     1153
280
     0
281
     0
  0
CLASS
  1
ACDBPLACEHOLDER
  2
AcDbPlaceHolder
  3
ObjectDBX Classes
 90
        0
280
     0
281
     0
  0
CLASS
  1
LAYOUT
  2
AcDbLayout
  3
ObjectDBX Classes
 90
        0
280
     0
281
     0
  0
ENDSEC
  0
SECTION
  2
TABLES
  0
TABLE
  2
VPORT
  5
8
330
0
100
AcDbSymbolTable
 70
     1
  0
VPORT
  5
29
330
8
100
AcDbSymbolTableRecord
100
AcDbViewportTableRecord
  2
*Active
 70
     0
 10
0.0
 20
0.0
 11
1.0
 21
1.0
 12
22.0
 22
17.0
 13
0.0
 23
0.0
 14
0.5
 24
0.5
 15
0.5
 25
0.5
 16
0.0
 26
0.0
 36
1.0
 17
0.0
 27
0.0
 37
0.0
 40
34.0
 41
1.2941176471
 42
50.0
 43
0.0
 44
0.0
 50
0.0
 51
0.0
 71
     0
 72
  2000
 73
     1
 74
     3
 75
     0
 76
     0
 77
     0
 78
     0
281
     0
 65
     1
110
0.0
120
0.0
130
0.0
111
1.0
121
0.0
131
0.0
112
0.0
122
1.0
132
0.0
 79
     0
146
0.0
  0
ENDTAB
  0
TABLE
  2
LTYPE
  5
5
330
0
100
AcDbSymbolTable
 70
     8
  0
LTYPE
  5
14
330
5
100
AcDbSymbolTableRecord
100
AcDbLinetypeTableRecord
  2
ByBlock
 70
     0
  3

 72
    65
 73
     0
 40
0.0
  0
LTYPE
  5
15
330
5
100
AcDbSymbolTableRecord
100
AcDbLinetypeTableRecord
  2
ByLayer
 70
     0
  3

 72
    65
 73
     0
 40
0.0
  0
LTYPE
  5
16
330
5
100
AcDbSymbolTableRecord
100
AcDbLinetypeTableRecord
  2
Continuous
 70
     0
  3
Solid line
 72
    65
 73
     0
 40
0.0
  0
LTYPE
  5
6E
330
5
100
AcDbSymbolTableRecord
100
AcDbLinetypeTableRecord
  2
SLD-実線
 70
     0
  3
SolidWorks Line Style
 72
    65
 73
     0
 40
0.0
  0
LTYPE
  5
6F
330
5
100
AcDbSymbolTableRecord
100
AcDbLinetypeTableRecord
  2
SLD-破線
 70
     0
  3
SolidWorks Line Style
 72
    65
 73
     2
 40
0.075
 49
0.05
 74
     0
 49
-0.025
 74
     0
  0
LTYPE
  5
70
330
5
100
AcDbSymbolTableRecord
100
AcDbLinetypeTableRecord
  2
SLD-2点鎖線
 70
     0
  3
SolidWorks Line Style
 72
    65
 73
     6
 40
0.5
 49
0.25
 74
     0
 49
-0.05
 74
     0
 49
0.05
 74
     0
 49
-0.05
 74
     0
 49
0.05
 74
     0
 49
-0.05
 74
     0
  0
LTYPE
  5
71
330
5
100
AcDbSymbolTableRecord
100
AcDbLinetypeTableRecord
  2
SLD-鎖線
 70
     0
  3
SolidWorks Line Style
 72
    65
 73
     4
 40
0.4
 49
0.25
 74
     0
 49
-0.05
 74
     0
 49
0.05
 74
     0
 49
-0.05
 74
     0
  0
LTYPE
  5
72
330
5
100
AcDbSymbolTableRecord
100
AcDbLinetypeTableRecord
  2
SLD-1点鎖線(中心線)
 70
     0
  3
SolidWorks Line Style
 72
    65
 73
     4
 40
1.35
 49
1.2
 74
     0
 49
-0.05
 74
     0
 49
0.05
 74
     0
 49
-0.05
 74
     0
  0
LTYPE
  5
73
330
5
100
AcDbSymbolTableRecord
100
AcDbLinetypeTableRecord
  2
SLD-点線
 70
     0
  3
SolidWorks Line Style
 72
    65
 73
     2
 40
0.025
 49
0.0
 74
     0
 49
-0.025
 74
     0
  0
LTYPE
  5
74
330
5
100
AcDbSymbolTableRecord
100
AcDbLinetypeTableRecord
  2
SLD-細-太鎖線(切断面)
 70
     0
  3
SolidWorks Line Style
 72
    65
 73
     4
 40
0.4
 49
0.25
 74
     0
 49
-0.05
 74
     0
 49
0.05
 74
     0
 49
-0.05
 74
     0
  0
ENDTAB
  0
TABLE
  2
LAYER
  5
2
330
0
100
AcDbSymbolTable
 70
     4
  0
LAYER
  5
10
330
2
100
AcDbSymbolTableRecord
100
AcDbLayerTableRecord
  2
0
 70
     0
 62
     7
  6
Continuous
370
    -3
390
F
  0
LAYER
  5
75
330
2
100
AcDbSymbolTableRecord
100
AcDbLayerTableRecord
  2
SLD-0
 70
     0
 62
   179
  6
SLD-実線
370
    -3
390
F
  0
LAYER
  5
76
330
2
100
AcDbSymbolTableRecord
100
AcDbLayerTableRecord
  2
100
 70
     0
 62
   179
  6
SLD-実線
370
    -3
390
F
  0
LAYER
  5
77
330
2
100
AcDbSymbolTableRecord
100
AcDbLayerTableRecord
  2
1
 70
     0
 62
   179
  6
SLD-実線
370
    -3
390
F
  0
ENDTAB
  0
TABLE
  2
STYLE
  5
3
330
0
100
AcDbSymbolTable
 70
     1
  0
STYLE
  5
11
330
3
100
AcDbSymbolTableRecord
100
AcDbTextStyleTableRecord
  2
STANDARD
 70
     0
 40
0.0
 41
1.0
 50
0.0
 71
     0
 42
0.1377952756
  3
GOTHIC.TTF
  4

1001
ACAD
1000
CENTURY GOTHIC
1071
       34
  0
ENDTAB
  0
TABLE
  2
VIEW
  5
6
330
0
100
AcDbSymbolTable
 70
     0
  0
ENDTAB
  0
TABLE
  2
UCS
  5
7
330
0
100
AcDbSymbolTable
 70
     0
  0
ENDTAB
  0
TABLE
  2
APPID
  5
9
330
0
100
AcDbSymbolTable
 70
     1
  0
APPID
  5
12
330
9
100
AcDbSymbolTableRecord
100
AcDbRegAppTableRecord
  2
ACAD
 70
     0
  0
ENDTAB
  0
TABLE
  2
DIMSTYLE
  5
A
330
0
100
AcDbSymbolTable
 70
     1
100
AcDbDimStyleTable
  0
DIMSTYLE
105
27
330
A
100
AcDbSymbolTableRecord
100
AcDbDimStyleTableRecord
  2
Standard
 70
     0
178
     0
340
11
  0
ENDTAB
  0
TABLE
  2
BLOCK_RECORD
  5
1
330
0
100
AcDbSymbolTable
 70
     0
  0
BLOCK_RECORD
  5
1F
330
1
100
AcDbSymbolTableRecord
100
AcDbBlockTableRecord
  2
*Model_Space
340
22
  0
BLOCK_RECORD
  5
1B
330
1
100
AcDbSymbolTableRecord
100
AcDbBlockTableRecord
  2
*Paper_Space
340
1E
  0
ENDTAB
  0
ENDSEC
  0
SECTION
  2
BLOCKS
  0
BLOCK
  5
20
330
1F
100
AcDbEntity
  8
0
100
AcDbBlockBegin
  2
*Model_Space
 70
     0
 10
0.0
 20
0.0
 30
0.0
  3
*Model_Space
  1

  0
ENDBLK
  5
21
330
1F
100
AcDbEntity
  8
0
100
AcDbBlockEnd
  0
BLOCK
  5
1C
330
1B
100
AcDbEntity
 67
     1
  8
0
100
AcDbBlockBegin
  2
*Paper_Space
 70
     0
 10
0.0
 20
0.0
 30
0.0
  3
*Paper_Space
  1

  0
ENDBLK
  5
1D
330
1B
100
AcDbEntity
 67
     1
  8
0
100
AcDbBlockEnd
  0
ENDSEC
  0
SECTION
  2
ENTITIES
  0
VIEWPORT
  5
78
330
1B
100
AcDbEntity
 67
     1
  8
0
100
AcDbViewport
 10
22.0
 20
17.0
 30
0.0
 40
46.552
 41
35.972
 68
     1
 69
     1
 12
22.0
 22
17.0
 13
0.0
 23
0.0
 14
0.5
 24
0.5
 15
0.5
 25
0.5
 16
0.0
 26
0.0
 36
1.0
 17
0.0
 27
0.0
 37
0.0
 42
50.0
 43
0.0
 44
0.0
 45
35.972
 50
0.0
 51
0.0
 72
   100
 90
   557152
  1

281
     0
 71
     1
 74
     0
110
0.0
120
0.0
130
0.0
111
1.0
121
0.0
131
0.0
112
0.0
122
1.0
132
0.0
 79
     0
146
0.0
  0
LINE
  5
7A
330
1B
100
AcDbEntity
 67
     1
  8
1
  6
SLD-実線
 62
     7
370
    18
100
AcDbLine
 10
19.8263297475
 20
27.6616817982
 30
0.0
 11
19.8263297475
 21
30.7360863575
 31
0.0
  0
LINE
  5
7B
330
1B
100
AcDbEntity
 67
     1
  8
1
  6
SLD-実線
 62
     7
370
    18
100
AcDbLine
 10
20.2082195041
 20
31.1179761141
 30
0.0
 11
22.2160934821
 21
31.1179761141
 31
0.0
  0
LINE
  5
7C
330
1B
100
AcDbEntity
 67
     1
  8
1
  6
SLD-実線
 62
     7
370
    18
100
AcDbLine
 10
22.5979832387
 20
27.6616817982
 30
0.0
 11
22.5979832387
 21
30.7360863575
 31
0.0
  0
LINE
  5
7D
330
1B
100
AcDbEntity
 67
     1
  8
1
  6
SLD-実線
 62
     7
370
    18
100
AcDbLine
 10
20.2082195041
 20
27.2797920416
 30
0.0
 11
22.2160934821
 21
27.2797920416
 31
0.0
  0
LINE
  5
7E
330
1B
100
AcDbEntity
 67
     1
  8
SLD-0
  6
SLD-鎖線
 62
     7
370
    18
100
AcDbLine
 10
17.3086365236
 20
4.6410383513
 30
0.0
 11
24.667347373
 21
4.6410383513
 31
0.0
  0
LINE
  5
7F
330
1B
100
AcDbEntity
 67
     1
  8
SLD-0
  6
SLD-鎖線
 62
     7
370
    18
100
AcDbLine
 10
21.2121564931
 20
14.4487854826
 30
0.0
 11
21.2121564931
 21
31.6436615015
 31
0.0
  0
LINE
  5
80
330
1B
100
AcDbEntity
 67
     1
  8
SLD-0
  6
SLD-実線
 62
     7
370
    18
100
AcDbLine
 10
23.6137312511
 20
26.7293015366
 30
0.0
 11
23.6137312511
 21
26.3749708346
 31
0.0
  0
LINE
  5
81
330
1B
100
AcDbEntity
 67
     1
  8
SLD-0
  6
SLD-実線
 62
     7
370
    18
100
AcDbLine
 10
23.3125132897
 20
30.1880382289
 30
0.0
 11
23.1927477229
 21
30.2973531875
 31
0.0
  0
LINE
  5
82
330
1B
100
AcDbEntity
 67
     1
  8
SLD-0
  6
SLD-実線
 62
     7
370
    18
100
AcDbLine
 10
23.3868758509
 20
30.2972404459
 30
0.0
 11
23.5250660774
 21
30.1881507915
 31
0.0
  0
LINE
  5
83
330
1B
100
AcDbEntity
 67
     1
  8
SLD-0
  6
SLD-実線
 62
     7
370
    18
100
AcDbLine
 10
23.3719000101
 20
30.3281421991
 30
0.0
 11
23.3719000101
 21
30.3513487126
 31
0.0
  0
LINE
  5
84
330
1B
100
AcDbEntity
 67
     1
  8
SLD-0
  6
SLD-実線
 62
     7
370
    18
100
AcDbLine
 10
23.2700440708
 20
30.3513487126
 30
0.0
 11
23.2700440708
 21
30.2268016498
 31
0.0
  0
LINE
  5
85
330
1B
100
AcDbEntity
 67
     1
  8
SLD-0
  6
SLD-実線
 62
     7
370
    18
100
AcDbLine
 10
23.5400419182
 20
26.7293015366
 30
0.0
 11
23.5400419182
 21
30.1572490384
 31
0.0
  0
LINE
  5
86
330
1B
100
AcDbEntity
 67
     1
  8
SLD-0
  6
SLD-実線
 62
     7
370
    18
100
AcDbLine
 10
23.179918983
 20
30.3264317481
 30
0.0
 11
23.179918983
 21
30.3513487126
 31
0.0
  0
LINE
  5
87
330
1B
100
AcDbEntity
 67
     1
  8
SLD-0
  6
SLD-実線
 62
     7
370
    18
100
AcDbLine
 10
23.0724803665
 20
30.3513487126
 30
0.0
 11
23.0724803665
 21
26.7293015366
 31
0.0
  0
LINE
  5
88
330
1B
100
AcDbEntity
 67
     1
  8
SLD-0
  6
SLD-実線
 62
     7
370
    18
100
AcDbLine
 10
23.3253422086
 20
30.1589594893
 30
0.0
 11
23.3253422086
 21
26.7293015366
 31
0.0
  0
LINE
  5
89
330
1B
100
AcDbEntity
 67
     1
  8
SLD-0
  6
SLD-実線
 62
     7
370
    18
100
AcDbLine
 10
22.7423160921
 20
31.1128941528
 30
0.0
 11
22.7423160921
 21
26.7293015366
 31
0.0
  0
LINE
  5
8A
330
1B
100
AcDbEntity
 67
     1
  8
SLD-0
  6
SLD-実線
 62
     7
370
    18
100
AcDbLine
 10
22.8955158029
 20
31.1015460857
 30
0.0
 11
22.8955158029
 21
26.7293015366
 31
0.0
  0
LINE
  5
8B
330
1B
100
AcDbEntity
 67
     1
  8
SLD-0
  6
SLD-実線
 62
     7
370
    18
100
AcDbLine
 10
23.0068712053
 20
31.0932975175
 30
0.0
 11
23.0068712053
 21
26.7293015366
 31
0.0
  0
LINE
  5
8C
330
1B
100
AcDbEntity
 67
     1
  8
SLD-0
  6
SLD-実線
 62
     7
370
    18
100
AcDbLine
 10
22.034428847
 20
27.2797920416
 30
0.0
 11
22.034428847
 21
26.7293015366
 31
0.0
  0
LINE
  5
8D
330
1B
100
AcDbEntity
 67
     1
  8
SLD-0
  6
SLD-実線
 62
     7
370
    18
100
AcDbLine
 10
22.1754361815
 20
27.2797920416
 30
0.0
 11
22.1754361815
 21
26.7293015366
 31
0.0
  0
LINE
  5
8E
330
1B
100
AcDbEntity
 67
     1
  8
SLD-0
  6
SLD-実線
 62
     7
370
    18
100
AcDbLine
 10
22.583602065
 20
26.7293015366
 30
0.0
 11
22.583602065
 21
27.5578680922
 31
0.0
  0
LINE
  5
8F
330
1B
100
AcDbEntity
 67
     1
  8
SLD-0
  6
SLD-実線
 62
     7
370
    18
100
AcDbLine
 10
22.401171324
 20
26.7293015366
 30
0.0
 11
22.401171324
 21
27.3276368868
 31
0.0
  0
LINE
  5
90
330
1B
100
AcDbEntity
 67
     1
  8
SLD-0
  6
SLD-実線
 62
     7
370
    18
100
AcDbLine
 10
21.9208178971
 20
26.3749708346
 30
0.0
 11
21.9208178971
 21
27.2797920416
 31
0.0
  0
LINE
  5
91
330
1B
100
AcDbEntity
 67
     1
  8
SLD-0
  6
SLD-実線
 62
     7
370
    18
100
AcDbLine
 10
23.9644128838
 20
26.8474117706
 30
0.0
 11
23.8203280618
 21
27.0150107295
 31
0.0
  0
LINE
  5
92
330
1B
100
AcDbEntity
 67
     1
  8
SLD-0
  6
SLD-実線
 62
     7
370
    18
100
AcDbLine
 10
23.9644128838
 20
26.8474117706
 30
0.0
 11
23.9644128838
 21
26.3749708346
 31
0.0
  0
LINE
  5
93
330
1B
100
AcDbEntity
 67
     1
  8
SLD-0
  6
SLD-実線
 62
     7
370
    18
100
AcDbLine
 10
23.7324529839
 20
30.1763288476
 30
0.0
 11
23.8296147573
 21
26.6809244752
 31
0.0
  0
LINE
  5
94
330
1B
100
AcDbEntity
 67
     1
  8
SLD-0
  6
SLD-実線
 62
     7
370
    18
100
AcDbLine
 10
23.4755780683
 20
30.3513487126
 30
0.0
 11
23.4790379824
 21
30.2244861523
 31
0.0
  0
LINE
  5
95
330
1B
100
AcDbEntity
 67
     1
  8
SLD-0
  6
SLD-実線
 62
     7
370
    18
100
AcDbLine
 10
21.9208178971
 20
26.7293015366
 30
0.0
 11
23.6137312511
 21
26.7293015366
 31
0.0
  0
LINE
  5
96
330
1B
100
AcDbEntity
 67
     1
  8
SLD-0
  6
SLD-実線
 62
     7
370
    18
100
AcDbLine
 10
23.6137312511
 20
26.5324511466
 30
0.0
 11
23.8099449196
 21
26.6457351459
 31
0.0
  0
LINE
  5
97
330
1B
100
AcDbEntity
 67
     1
  8
SLD-0
  6
SLD-実線
 62
     7
370
    18
100
AcDbLine
 10
21.2121564931
 20
26.3749708346
 30
0.0
 11
23.9644128838
 21
26.3749708346
 31
0.0
  0
LINE
  5
98
330
1B
100
AcDbEntity
 67
     1
  8
SLD-0
  6
SLD-実線
 62
     7
370
    18
100
AcDbLine
 10
20.0231416622
 20
26.7293015366
 30
0.0
 11
20.0231416622
 21
27.3276368868
 31
0.0
  0
LINE
  5
99
330
1B
100
AcDbEntity
 67
     1
  8
SLD-0
  6
SLD-実線
 62
     7
370
    18
100
AcDbLine
 10
19.6819968941
 20
31.1128941528
 30
0.0
 11
19.6819968941
 21
26.7293015366
 31
0.0
  0
LINE
  5
9A
330
1B
100
AcDbEntity
 67
     1
  8
SLD-0
  6
SLD-実線
 62
     7
370
    18
100
AcDbLine
 10
19.417441781
 20
31.0932975175
 30
0.0
 11
19.417441781
 21
26.7293015366
 31
0.0
  0
LINE
  5
9B
330
1B
100
AcDbEntity
 67
     1
  8
SLD-0
  6
SLD-実線
 62
     7
370
    18
100
AcDbLine
 10
19.5287971833
 20
31.1015460857
 30
0.0
 11
19.5287971833
 21
26.7293015366
 31
0.0
  0
LINE
  5
9C
330
1B
100
AcDbEntity
 67
     1
  8
SLD-0
  6
SLD-実線
 62
     7
370
    18
100
AcDbLine
 10
19.8407109212
 20
26.7293015366
 30
0.0
 11
19.8407109212
 21
27.5578680922
 31
0.0
  0
LINE
  5
9D
330
1B
100
AcDbEntity
 67
     1
  8
SLD-0
  6
SLD-実線
 62
     7
370
    18
100
AcDbLine
 10
18.8893218911
 20
30.3347089491
 30
0.0
 11
18.8893218911
 21
30.3513487126
 31
0.0
  0
LINE
  5
9E
330
1B
100
AcDbEntity
 67
     1
  8
SLD-0
  6
SLD-実線
 62
     7
370
    18
100
AcDbLine
 10
18.9487349179
 20
30.3513487126
 30
0.0
 11
18.8655534592
 21
27.3013623705
 31
0.0
  0
LINE
  5
9F
330
1B
100
AcDbEntity
 67
     1
  8
SLD-0
  6
SLD-実線
 62
     7
370
    18
100
AcDbLine
 10
20.5034950891
 20
26.3749708346
 30
0.0
 11
20.5034950891
 21
27.2797920416
 31
0.0
  0
LINE
  5
A0
330
1B
100
AcDbEntity
 67
     1
  8
SLD-0
  6
SLD-実線
 62
     7
370
    18
100
AcDbLine
 10
18.8655534592
 20
27.3013623705
 30
0.0
 11
18.4799267664
 21
26.8698228296
 31
0.0
  0
LINE
  5
A1
330
1B
100
AcDbEntity
 67
     1
  8
SLD-0
  6
SLD-実線
 62
     7
370
    18
100
AcDbLine
 10
19.1532694524
 20
27.3198527066
 30
0.0
 11
18.7511198536
 21
26.8698228296
 31
0.0
  0
LINE
  5
A2
330
1B
100
AcDbEntity
 67
     1
  8
SLD-0
  6
SLD-実線
 62
     7
370
    18
100
AcDbLine
 10
19.1532694524
 20
27.6525083911
 30
0.0
 11
19.1532694524
 21
26.3749708346
 31
0.0
  0
LINE
  5
A3
330
1B
100
AcDbEntity
 67
     1
  8
SLD-0
  6
SLD-実線
 62
     7
370
    18
100
AcDbLine
 10
18.6918600098
 20
30.176328852
 30
0.0
 11
18.6038025669
 21
27.0084472007
 31
0.0
  0
LINE
  5
A4
330
1B
100
AcDbEntity
 67
     1
  8
SLD-0
  6
SLD-実線
 62
     7
370
    18
100
AcDbLine
 10
18.8696368521
 20
30.3006133878
 30
0.0
 11
18.7115298401
 21
30.2093302829
 31
0.0
  0
LINE
  5
A5
330
1B
100
AcDbEntity
 67
     1
  8
SLD-0
  6
SLD-実線
 62
     7
370
    18
100
AcDbLine
 10
18.8796769378
 20
27.8192245655
 30
0.0
 11
18.8655534592
 21
27.3013623705
 31
0.0
  0
LINE
  5
A6
330
1B
100
AcDbEntity
 67
     1
  8
SLD-0
  6
SLD-実線
 62
     7
370
    18
100
AcDbLine
 10
21.2121564931
 20
26.3749708346
 30
0.0
 11
18.4599001025
 21
26.3749708346
 31
0.0
  0
LINE
  5
A7
330
1B
100
AcDbEntity
 67
     1
  8
SLD-0
  6
SLD-実線
 62
     7
370
    18
100
AcDbLine
 10
20.5034950891
 20
26.7293015366
 30
0.0
 11
19.1532694524
 21
26.7293015366
 31
0.0
  0
LINE
  5
A8
330
1B
100
AcDbEntity
 67
     1
  8
SLD-0
  6
SLD-実線
 62
     7
370
    18
100
AcDbLine
 10
18.4599001025
 20
26.8173562951
 30
0.0
 11
18.4599001025
 21
26.3749708346
 31
0.0
  0
LINE
  5
A9
330
1B
100
AcDbEntity
 67
     1
  8
SLD-0
  6
SLD-実線
 62
     7
370
    18
100
AcDbLine
 10
18.7310930108
 20
26.8173562951
 30
0.0
 11
18.7310930108
 21
26.3749708346
 31
0.0
  0
LINE
  5
AA
330
1B
100
AcDbEntity
 67
     1
  8
SLD-0
  6
SLD-実線
 62
     7
370
    18
100
AcDbLine
 10
18.7370548933
 20
26.8474117706
 30
0.0
 11
18.465861985
 21
26.8474117706
 31
0.0
  0
LINE
  5
AB
330
1B
100
AcDbEntity
 67
     1
  8
SLD-0
  6
SLD-実線
 62
     7
370
    18
100
AcDbLine
 10
19.8145187241
 20
15.9064670944
 30
0.0
 11
19.8145187241
 21
24.1702464666
 31
0.0
  0
LINE
  5
AC
330
1B
100
AcDbEntity
 67
     1
  8
SLD-0
  6
SLD-実線
 62
     7
370
    18
100
AcDbLine
 10
22.6097942621
 20
15.9064670944
 30
0.0
 11
22.6097942621
 21
24.1702464666
 31
0.0
  0
LINE
  5
AD
330
1B
100
AcDbEntity
 67
     1
  8
SLD-0
  6
SLD-実線
 62
     7
370
    18
100
AcDbLine
 10
21.5468021561
 20
15.7096167044
 30
0.0
 11
21.5468021561
 21
24.0521362326
 31
0.0
  0
LINE
  5
AE
330
1B
100
AcDbEntity
 67
     1
  8
SLD-0
  6
SLD-実線
 62
     7
370
    18
100
AcDbLine
 10
20.8775108301
 20
15.7096167044
 30
0.0
 11
20.8775108301
 21
24.0521362326
 31
0.0
  0
LINE
  5
AF
330
1B
100
AcDbEntity
 67
     1
  8
SLD-0
  6
SLD-鎖線
 62
     7
370
    18
100
AcDbLine
 10
18.1450672523
 20
1.7428512189
 30
0.0
 11
19.0371474073
 21
2.634931374
 31
0.0
  0
LINE
  5
B0
330
1B
100
AcDbEntity
 67
     1
  8
SLD-0
  6
SLD-破線
 62
     7
370
    18
100
AcDbLine
 10
18.4139047562
 20
25.1151283386
 30
0.0
 11
17.8656998631
 21
25.1151283386
 31
0.0
  0
LINE
  5
B1
330
1B
100
AcDbEntity
 67
     1
  8
SLD-0
  6
SLD-破線
 62
     7
370
    18
100
AcDbLine
 10
18.4139047562
 20
25.8237897426
 30
0.0
 11
17.8656998631
 21
25.8237897426
 31
0.0
  0
LINE
  5
B2
330
1B
100
AcDbEntity
 67
     1
  8
SLD-0
  6
SLD-破線
 62
     7
370
    18
100
AcDbLine
 10
17.6967975757
 20
4.9953690533
 30
0.0
 11
18.2873487457
 21
4.9953690533
 31
0.0
  0
LINE
  5
B3
330
1B
100
AcDbEntity
 67
     1
  8
SLD-0
  6
SLD-破線
 62
     7
370
    18
100
AcDbLine
 10
17.6967975757
 20
4.2867076493
 30
0.0
 11
18.2873487457
 21
4.2867076493
 31
0.0
  0
LINE
  5
B4
330
1B
100
AcDbEntity
 67
     1
  8
SLD-0
  6
SLD-破線
 62
     7
370
    18
100
AcDbLine
 10
17.6967975757
 20
4.2473375713
 30
0.0
 11
18.2873487457
 21
4.2473375713
 31
0.0
  0
LINE
  5
B5
330
1B
100
AcDbEntity
 67
     1
  8
SLD-0
  6
SLD-破線
 62
     7
370
    18
100
AcDbLine
 10
17.6967975757
 20
5.0347391313
 30
0.0
 11
18.2873487457
 21
5.0347391313
 31
0.0
  0
LINE
  5
B6
330
1B
100
AcDbEntity
 67
     1
  8
SLD-0
  6
SLD-実線
 62
     7
370
    18
100
AcDbLine
 10
19.1662637256
 20
14.654498614
 30
0.0
 11
19.1662637256
 21
14.831663965
 31
0.0
  0
LINE
  5
B7
330
1B
100
AcDbEntity
 67
     1
  8
SLD-0
  6
SLD-実線
 62
     7
370
    18
100
AcDbLine
 10
18.8906731796
 20
14.654498614
 30
0.0
 11
19.1662637256
 21
14.654498614
 31
0.0
  0
LINE
  5
B8
330
1B
100
AcDbEntity
 67
     1
  8
SLD-0
  6
SLD-実線
 62
     7
370
    18
100
AcDbLine
 10
18.8906731796
 20
14.654498614
 30
0.0
 11
18.8906731796
 21
14.831663965
 31
0.0
  0
LINE
  5
B9
330
1B
100
AcDbEntity
 67
     1
  8
SLD-0
  6
SLD-鎖線
 62
     7
370
    18
100
AcDbLine
 10
19.0284684526
 20
14.5692357308
 30
0.0
 11
19.0284684526
 21
15.005087369
 31
0.0
  0
LINE
  5
BA
330
1B
100
AcDbEntity
 67
     1
  8
SLD-0
  6
SLD-鎖線
 62
     7
370
    18
100
AcDbLine
 10
23.3958445337
 20
14.5692357308
 30
0.0
 11
23.3958445337
 21
15.005087369
 31
0.0
  0
LINE
  5
BB
330
1B
100
AcDbEntity
 67
     1
  8
SLD-0
  6
SLD-実線
 62
     7
370
    18
100
AcDbLine
 10
23.2580492607
 20
14.654498614
 30
0.0
 11
23.2580492607
 21
14.831663965
 31
0.0
  0
LINE
  5
BC
330
1B
100
AcDbEntity
 67
     1
  8
SLD-0
  6
SLD-実線
 62
     7
370
    18
100
AcDbLine
 10
23.5336398067
 20
14.654498614
 30
0.0
 11
23.5336398067
 21
14.831663965
 31
0.0
  0
LINE
  5
BD
330
1B
100
AcDbEntity
 67
     1
  8
SLD-0
  6
SLD-実線
 62
     7
370
    18
100
AcDbLine
 10
23.2580492607
 20
14.654498614
 30
0.0
 11
23.5336398067
 21
14.654498614
 31
0.0
  0
LINE
  5
BE
330
1B
100
AcDbEntity
 67
     1
  8
SLD-0
  6
SLD-実線
 62
     7
370
    18
100
AcDbLine
 10
23.6137312511
 20
25.8631598206
 30
0.0
 11
23.8856727278
 21
25.8631598206
 31
0.0
  0
LINE
  5
BF
330
1B
100
AcDbEntity
 67
     1
  8
SLD-0
  6
SLD-実線
 62
     7
370
    18
100
AcDbLine
 10
19.1532694524
 20
25.8631598206
 30
0.0
 11
18.5386402585
 21
25.8631598206
 31
0.0
  0
LINE
  5
C0
330
1B
100
AcDbEntity
 67
     1
  8
SLD-0
  6
SLD-実線
 62
     7
370
    18
100
AcDbLine
 10
23.9644128838
 20
26.3749708346
 30
0.0
 11
23.9644128838
 21
25.9418999766
 31
0.0
  0
LINE
  5
C1
330
1B
100
AcDbEntity
 67
     1
  8
SLD-0
  6
SLD-実線
 62
     7
370
    18
100
AcDbLine
 10
18.4599001025
 20
26.3749708346
 30
0.0
 11
18.4599001025
 21
25.9418999766
 31
0.0
  0
LINE
  5
C2
330
1B
100
AcDbEntity
 67
     1
  8
SLD-0
  6
SLD-実線
 62
     7
370
    18
100
AcDbLine
 10
18.7310930108
 20
26.3749708346
 30
0.0
 11
18.7310930108
 21
25.8631598206
 31
0.0
  0
LINE
  5
C3
330
1B
100
AcDbEntity
 67
     1
  8
SLD-0
  6
SLD-実線
 62
     7
370
    18
100
AcDbLine
 10
19.1532694524
 20
26.3749708346
 30
0.0
 11
19.1532694524
 21
25.8631598206
 31
0.0
  0
LINE
  5
C4
330
1B
100
AcDbEntity
 67
     1
  8
SLD-0
  6
SLD-鎖線
 62
     7
370
    18
100
AcDbLine
 10
18.6378591185
 20
3.9056351797
 30
0.0
 11
19.0535493397
 21
4.0327244758
 31
0.0
  0
LINE
  5
C5
330
1B
100
AcDbEntity
 67
     1
  8
SLD-0
  6
SLD-鎖線
 62
     7
370
    18
100
AcDbLine
 10
21.7835913428
 20
2.2195051112
 30
0.0
 11
21.6252717323
 21
2.7373447579
 31
0.0
  0
LINE
  5
C6
330
1B
100
AcDbEntity
 67
     1
  8
SLD-0
  6
SLD-鎖線
 62
     7
370
    18
100
AcDbLine
 10
23.073871204
 20
5.2618602795
 30
0.0
 11
23.4433733445
 21
5.3748284234
 31
0.0
  0
LINE
  5
C7
330
1B
100
AcDbEntity
 67
     1
  8
SLD-0
  6
SLD-鎖線
 62
     7
370
    18
100
AcDbLine
 10
20.4220219339
 20
6.6729976903
 30
0.0
 11
20.3141400461
 21
7.0258634675
 31
0.0
  0
LINE
  5
C8
330
1B
100
AcDbEntity
 67
     1
  8
SLD-0
  6
SLD-鎖線
 62
     7
370
    18
100
AcDbLine
 10
23.0761036664
 20
6.673887633
 30
0.0
 11
23.8666698648
 21
7.4644540104
 31
0.0
  0
LINE
  5
C9
330
1B
100
AcDbEntity
 67
     1
  8
SLD-0
  6
SLD-鎖線
 62
     7
370
    18
100
AcDbLine
 10
19.1454004475
 20
6.5388921094
 30
0.0
 11
18.2746332842
 21
7.4096592727
 31
0.0
  0
LINE
  5
CA
330
1B
100
AcDbEntity
 67
     1
  8
SLD-0
  6
SLD-鎖線
 62
     7
370
    18
100
AcDbLine
 10
23.816343631
 20
1.867948926
 30
0.0
 11
22.95957432
 21
2.7247184159
 31
0.0
  0
LINE
  5
CB
330
1B
100
AcDbEntity
 67
     1
  8
SLD-0
  6
SLD-実線
 62
     7
370
    18
100
AcDbLine
 10
17.7755377317
 20
3.8536367913
 30
0.0
 11
18.2873487457
 21
3.8536367913
 31
0.0
  0
LINE
  5
CC
330
1B
100
AcDbEntity
 67
     1
  8
SLD-0
  6
SLD-実線
 62
     7
370
    18
100
AcDbLine
 10
17.7755377317
 20
5.4284399113
 30
0.0
 11
18.2873487457
 21
5.4284399113
 31
0.0
  0
LINE
  5
CD
330
1B
100
AcDbEntity
 67
     1
  8
SLD-0
  6
SLD-実線
 62
     7
370
    18
100
AcDbLine
 10
17.6967975757
 20
3.9323769473
 30
0.0
 11
17.6967975757
 21
5.3496997553
 31
0.0
  0
LINE
  5
CE
330
1B
100
AcDbEntity
 67
     1
  8
SLD-0
  6
SLD-実線
 62
     7
370
    18
100
AcDbLine
 10
23.571843231
 20
1.8851328592
 30
0.0
 11
18.5146653126
 21
1.8851328592
 31
0.0
  0
LINE
  5
CF
330
1B
100
AcDbEntity
 67
     1
  8
SLD-0
  6
SLD-実線
 62
     7
370
    18
100
AcDbLine
 10
18.5146653126
 20
7.3969438113
 30
0.0
 11
23.571843231
 21
7.3969438113
 31
0.0
  0
LINE
  5
D0
330
1B
100
AcDbEntity
 67
     1
  8
SLD-0
  6
SLD-実線
 62
     7
370
    18
100
AcDbLine
 10
18.2873487297
 20
2.112449326
 30
0.0
 11
18.2873487297
 21
7.1696273766
 31
0.0
  0
LINE
  5
D1
330
1B
100
AcDbEntity
 67
     1
  8
SLD-0
  6
SLD-実線
 62
     7
370
    18
100
AcDbLine
 10
23.7991596817
 20
2.11244931
 30
0.0
 11
23.7991596817
 21
7.1696273605
 31
0.0
  0
LINE
  5
D2
330
1B
100
AcDbEntity
 67
     1
  8
SLD-0
  6
SLD-実線
 62
     7
370
    18
100
AcDbLine
 10
18.7515266181
 20
14.831663965
 30
0.0
 11
18.7515266181
 21
15.1584356124
 31
0.0
  0
LINE
  5
D3
330
1B
100
AcDbEntity
 67
     1
  8
SLD-0
  6
SLD-実線
 62
     7
370
    18
100
AcDbLine
 10
20.7494521353
 20
14.674183653
 30
0.0
 11
21.2121564931
 21
14.674183653
 31
0.0
  0
LINE
  5
D4
330
1B
100
AcDbEntity
 67
     1
  8
SLD-0
  6
SLD-実線
 62
     7
370
    18
100
AcDbLine
 10
20.7494521353
 20
14.674183653
 30
0.0
 11
20.5919718233
 21
14.831663965
 31
0.0
  0
LINE
  5
D5
330
1B
100
AcDbEntity
 67
     1
  8
SLD-0
  6
SLD-実線
 62
     7
370
    18
100
AcDbLine
 10
21.2121564931
 20
14.831663965
 30
0.0
 11
18.7515266181
 21
14.831663965
 31
0.0
  0
LINE
  5
D6
330
1B
100
AcDbEntity
 67
     1
  8
SLD-0
  6
SLD-実線
 62
     7
370
    18
100
AcDbLine
 10
21.2121564931
 20
14.9222151444
 30
0.0
 11
18.7515266181
 21
14.9222151444
 31
0.0
  0
LINE
  5
D7
330
1B
100
AcDbEntity
 67
     1
  8
SLD-0
  6
SLD-実線
 62
     7
370
    18
100
AcDbLine
 10
21.2121564931
 20
15.2371757684
 30
0.0
 11
18.8302667741
 21
15.2371757684
 31
0.0
  0
LINE
  5
D8
330
1B
100
AcDbEntity
 67
     1
  8
SLD-0
  6
SLD-実線
 62
     7
370
    18
100
AcDbLine
 10
20.4838100501
 20
15.7096167044
 30
0.0
 11
20.4838100501
 21
15.8277269384
 31
0.0
  0
LINE
  5
D9
330
1B
100
AcDbEntity
 67
     1
  8
SLD-0
  6
SLD-実線
 62
     7
370
    18
100
AcDbLine
 10
20.4838100501
 20
15.8277269384
 30
0.0
 11
20.2869596601
 21
15.8277269384
 31
0.0
  0
LINE
  5
DA
330
1B
100
AcDbEntity
 67
     1
  8
SLD-0
  6
SLD-実線
 62
     7
370
    18
100
AcDbLine
 10
20.2869596601
 20
15.7489867824
 30
0.0
 11
20.2869596601
 21
15.8277269384
 31
0.0
  0
LINE
  5
DB
330
1B
100
AcDbEntity
 67
     1
  8
SLD-0
  6
SLD-実線
 62
     7
370
    18
100
AcDbLine
 10
21.2121564931
 20
15.7096167044
 30
0.0
 11
19.0664872421
 21
15.7096167044
 31
0.0
  0
LINE
  5
DC
330
1B
100
AcDbEntity
 67
     1
  8
SLD-0
  6
SLD-実線
 62
     7
370
    18
100
AcDbLine
 10
20.0310541531
 20
15.7489867824
 30
0.0
 11
20.0310541531
 21
16.1820576404
 31
0.0
  0
LINE
  5
DD
330
1B
100
AcDbEntity
 67
     1
  8
SLD-0
  6
SLD-実線
 62
     7
370
    18
100
AcDbLine
 10
20.5428651671
 20
16.4182781084
 30
0.0
 11
20.5428651671
 21
16.4970182644
 31
0.0
  0
LINE
  5
DE
330
1B
100
AcDbEntity
 67
     1
  8
SLD-0
  6
SLD-実線
 62
     7
370
    18
100
AcDbLine
 10
20.5034950891
 20
16.3789080304
 30
0.0
 11
20.2279045431
 21
16.3789080304
 31
0.0
  0
LINE
  5
DF
330
1B
100
AcDbEntity
 67
     1
  8
SLD-0
  6
SLD-破線
 62
     7
370
    18
100
AcDbLine
 10
20.5428651671
 20
16.5363883424
 30
0.0
 11
20.2279045431
 21
16.8513489664
 31
0.0
  0
LINE
  5
E0
330
1B
100
AcDbEntity
 67
     1
  8
SLD-0
  6
SLD-破線
 62
     7
370
    18
100
AcDbLine
 10
20.2279045431
 20
16.8513489664
 30
0.0
 11
19.8145187241
 21
16.8513489664
 31
0.0
  0
LINE
  5
E1
330
1B
100
AcDbEntity
 67
     1
  8
SLD-0
  6
SLD-実線
 62
     7
370
    18
100
AcDbLine
 10
18.7515266181
 20
14.9222151444
 30
0.0
 11
18.7515266181
 21
24.3277267786
 31
0.0
  0
LINE
  5
E2
330
1B
100
AcDbEntity
 67
     1
  8
SLD-0
  6
SLD-実線
 62
     7
370
    18
100
AcDbLine
 10
19.4995581001
 20
15.9064670944
 30
0.0
 11
19.4995581001
 21
24.1702464666
 31
0.0
  0
LINE
  5
E3
330
1B
100
AcDbEntity
 67
     1
  8
SLD-0
  6
SLD-実線
 62
     7
370
    18
100
AcDbLine
 10
23.3578257441
 20
15.3552860024
 30
0.0
 11
23.3578257441
 21
15.3946560804
 31
0.0
  0
LINE
  5
E4
330
1B
100
AcDbEntity
 67
     1
  8
SLD-0
  6
SLD-実線
 62
     7
370
    18
100
AcDbLine
 10
23.6727863681
 20
14.831663965
 30
0.0
 11
23.6727863797
 21
15.1584356124
 31
0.0
  0
LINE
  5
E5
330
1B
100
AcDbEntity
 67
     1
  8
SLD-0
  6
SLD-実線
 62
     7
370
    18
100
AcDbLine
 10
23.4759359707
 20
15.422538143
 30
0.0
 11
23.4759359707
 21
24.170246461
 31
0.0
  0
LINE
  5
E6
330
1B
100
AcDbEntity
 67
     1
  8
SLD-0
  6
SLD-実線
 62
     7
370
    18
100
AcDbLine
 10
22.9247548861
 20
15.9064670944
 30
0.0
 11
22.9247548861
 21
24.1702464666
 31
0.0
  0
LINE
  5
E7
330
1B
100
AcDbEntity
 67
     1
  8
SLD-0
  6
SLD-実線
 62
     7
370
    18
100
AcDbLine
 10
21.2121564931
 20
14.9222151444
 30
0.0
 11
23.6727863681
 21
14.9222151444
 31
0.0
  0
LINE
  5
E8
330
1B
100
AcDbEntity
 67
     1
  8
SLD-0
  6
SLD-破線
 62
     7
370
    18
100
AcDbLine
 10
18.4139047562
 20
25.0757582606
 30
0.0
 11
17.8656998631
 21
25.0757582606
 31
0.0
  0
LINE
  5
E9
330
1B
100
AcDbEntity
 67
     1
  8
SLD-0
  6
SLD-破線
 62
     7
370
    18
100
AcDbLine
 10
18.4139047562
 20
25.8631598206
 30
0.0
 11
17.8656998631
 21
25.8631598206
 31
0.0
  0
LINE
  5
EA
330
1B
100
AcDbEntity
 67
     1
  8
SLD-0
  6
SLD-実線
 62
     7
370
    18
100
AcDbLine
 10
23.7318414851
 20
24.3670968566
 30
0.0
 11
23.7318414851
 21
24.4852070906
 31
0.0
  0
LINE
  5
EB
330
1B
100
AcDbEntity
 67
     1
  8
SLD-0
  6
SLD-実線
 62
     7
370
    18
100
AcDbLine
 10
23.9680619531
 20
24.4852070906
 30
0.0
 11
23.9680619531
 21
24.8001677146
 31
0.0
  0
LINE
  5
EC
330
1B
100
AcDbEntity
 67
     1
  8
SLD-0
  6
SLD-実線
 62
     7
370
    18
100
AcDbLine
 10
21.2121564931
 20
24.4852070906
 30
0.0
 11
23.9680619531
 21
24.4852070906
 31
0.0
  0
LINE
  5
ED
330
1B
100
AcDbEntity
 67
     1
  8
SLD-0
  6
SLD-実線
 62
     7
370
    18
100
AcDbLine
 10
21.2121564931
 20
24.8001677146
 30
0.0
 11
23.9680619531
 21
24.8001677146
 31
0.0
  0
LINE
  5
EE
330
1B
100
AcDbEntity
 67
     1
  8
SLD-0
  6
SLD-実線
 62
     7
370
    18
100
AcDbLine
 10
21.2121564931
 20
24.3670968566
 30
0.0
 11
23.7318414851
 21
24.3670968566
 31
0.0
  0
LINE
  5
EF
330
1B
100
AcDbEntity
 67
     1
  8
SLD-0
  6
SLD-実線
 62
     7
370
    18
100
AcDbLine
 10
18.8105817351
 20
24.8001677146
 30
0.0
 11
18.8105817351
 21
25.8631598206
 31
0.0
  0
LINE
  5
F0
330
1B
100
AcDbEntity
 67
     1
  8
SLD-0
  6
SLD-実線
 62
     7
370
    18
100
AcDbLine
 10
18.6924715011
 20
24.3670968566
 30
0.0
 11
18.6924715011
 21
24.4852070906
 31
0.0
  0
LINE
  5
F1
330
1B
100
AcDbEntity
 67
     1
  8
SLD-0
  6
SLD-実線
 62
     7
370
    18
100
AcDbLine
 10
21.2121564931
 20
24.8001677146
 30
0.0
 11
18.4562510331
 21
24.8001677146
 31
0.0
  0
LINE
  5
F2
330
1B
100
AcDbEntity
 67
     1
  8
SLD-0
  6
SLD-実線
 62
     7
370
    18
100
AcDbLine
 10
21.2121564931
 20
24.3670968566
 30
0.0
 11
18.6924715011
 21
24.3670968566
 31
0.0
  0
LINE
  5
F3
330
1B
100
AcDbEntity
 67
     1
  8
SLD-0
  6
SLD-実線
 62
     7
370
    18
100
AcDbLine
 10
18.4562510331
 20
24.4852070906
 30
0.0
 11
18.4562510331
 21
24.8001677146
 31
0.0
  0
LINE
  5
F4
330
1B
100
AcDbEntity
 67
     1
  8
SLD-0
  6
SLD-鎖線
 62
     7
370
    18
100
AcDbLine
 10
18.4139047562
 20
25.4694590406
 30
0.0
 11
17.4829022683
 21
25.4694590406
 31
0.0
  0
LINE
  5
F5
330
1B
100
AcDbEntity
 67
     1
  8
SLD-0
  6
SLD-実線
 62
     7
370
    18
100
AcDbLine
 10
17.8656998631
 20
24.7607976366
 30
0.0
 11
17.8656998631
 21
26.1781204446
 31
0.0
  0
LINE
  5
F6
330
1B
100
AcDbEntity
 67
     1
  8
SLD-0
  6
SLD-実線
 62
     7
370
    18
100
AcDbLine
 10
18.4599001025
 20
26.2568606006
 30
0.0
 11
17.9444400191
 21
26.2568606006
 31
0.0
  0
LINE
  5
F7
330
1B
100
AcDbEntity
 67
     1
  8
SLD-0
  6
SLD-実線
 62
     7
370
    18
100
AcDbLine
 10
18.4562510331
 20
24.6820574806
 30
0.0
 11
17.9444400191
 21
24.6820574806
 31
0.0
  0
LINE
  5
F8
330
1B
100
AcDbEntity
 67
     1
  8
SLD-0
  6
SLD-実線
 62
     7
370
    18
100
AcDbLine
 10
21.2121564931
 20
24.4852070906
 30
0.0
 11
18.4562510331
 21
24.4852070906
 31
0.0
  0
LINE
  5
F9
330
1B
100
AcDbEntity
 67
     1
  8
SLD-0
  6
SLD-実線
 62
     7
370
    18
100
AcDbLine
 10
20.8873533496
 20
24.0521362326
 30
0.0
 11
20.8873533496
 21
24.0915063106
 31
0.0
  0
LINE
  5
FA
330
1B
100
AcDbEntity
 67
     1
  8
SLD-0
  6
SLD-実線
 62
     7
370
    18
100
AcDbLine
 10
20.8775108301
 20
24.2883567006
 30
0.0
 11
20.8775108301
 21
24.3670968566
 31
0.0
  0
LINE
  5
FB
330
1B
100
AcDbEntity
 67
     1
  8
SLD-0
  6
SLD-実線
 62
     7
370
    18
100
AcDbLine
 10
20.8775108301
 20
24.2883567006
 30
0.0
 11
21.2121564931
 21
24.2883567006
 31
0.0
  0
LINE
  5
FC
330
1B
100
AcDbEntity
 67
     1
  8
SLD-0
  6
SLD-実線
 62
     7
370
    18
100
AcDbLine
 10
20.7594005961
 20
24.0915063106
 30
0.0
 11
20.7594005961
 21
24.1899315056
 31
0.0
  0
LINE
  5
FD
330
1B
100
AcDbEntity
 67
     1
  8
SLD-0
  6
SLD-実線
 62
     7
370
    18
100
AcDbLine
 10
20.7594005961
 20
24.0915063106
 30
0.0
 11
21.2121564931
 21
24.0915063106
 31
0.0
  0
LINE
  5
FE
330
1B
100
AcDbEntity
 67
     1
  8
SLD-0
  6
SLD-実線
 62
     7
370
    18
100
AcDbLine
 10
20.6216053231
 20
24.1899315056
 30
0.0
 11
20.6216053231
 21
24.2489866226
 31
0.0
  0
LINE
  5
FF
330
1B
100
AcDbEntity
 67
     1
  8
SLD-0
  6
SLD-実線
 62
     7
370
    18
100
AcDbLine
 10
20.6216053231
 20
24.1899315056
 30
0.0
 11
21.2121564931
 21
24.1899315056
 31
0.0
  0
LINE
  5
100
330
1B
100
AcDbEntity
 67
     1
  8
SLD-0
  6
SLD-実線
 62
     7
370
    18
100
AcDbLine
 10
20.6216053231
 20
24.2489866226
 30
0.0
 11
21.2121564931
 21
24.2489866226
 31
0.0
  0
LINE
  5
101
330
1B
100
AcDbEntity
 67
     1
  8
SLD-0
  6
SLD-実線
 62
     7
370
    18
100
AcDbLine
 10
20.8873533496
 20
24.2489866226
 30
0.0
 11
20.8873533496
 21
24.2883567006
 31
0.0
  0
LINE
  5
102
330
1B
100
AcDbEntity
 67
     1
  8
SLD-0
  6
SLD-実線
 62
     7
370
    18
100
AcDbLine
 10
21.2121564931
 20
26.3749708346
 30
0.0
 11
18.4599001025
 21
26.3749708346
 31
0.0
  0
LINE
  5
103
330
1B
100
AcDbEntity
 67
     1
  8
SLD-0
  6
SLD-実線
 62
     7
370
    18
100
AcDbLine
 10
21.6748608509
 20
14.674183653
 30
0.0
 11
21.8323411629
 21
14.831663965
 31
0.0
  0
LINE
  5
104
330
1B
100
AcDbEntity
 67
     1
  8
SLD-0
  6
SLD-実線
 62
     7
370
    18
100
AcDbLine
 10
21.6748608509
 20
14.674183653
 30
0.0
 11
21.2121564931
 21
14.674183653
 31
0.0
  0
LINE
  5
105
330
1B
100
AcDbEntity
 67
     1
  8
SLD-0
  6
SLD-実線
 62
     7
370
    18
100
AcDbLine
 10
21.2121564931
 20
14.831663965
 30
0.0
 11
23.6727863681
 21
14.831663965
 31
0.0
  0
LINE
  5
106
330
1B
100
AcDbEntity
 67
     1
  8
SLD-0
  6
SLD-実線
 62
     7
370
    18
100
AcDbLine
 10
21.5369596366
 20
24.2489866226
 30
0.0
 11
21.5369596366
 21
24.2883567006
 31
0.0
  0
LINE
  5
107
330
1B
100
AcDbEntity
 67
     1
  8
SLD-0
  6
SLD-実線
 62
     7
370
    18
100
AcDbLine
 10
21.8027076631
 20
24.2489866226
 30
0.0
 11
21.2121564931
 21
24.2489866226
 31
0.0
  0
LINE
  5
108
330
1B
100
AcDbEntity
 67
     1
  8
SLD-0
  6
SLD-実線
 62
     7
370
    18
100
AcDbLine
 10
21.8027076631
 20
24.1899315056
 30
0.0
 11
21.2121564931
 21
24.1899315056
 31
0.0
  0
LINE
  5
109
330
1B
100
AcDbEntity
 67
     1
  8
SLD-0
  6
SLD-実線
 62
     7
370
    18
100
AcDbLine
 10
21.8027076631
 20
24.1899315056
 30
0.0
 11
21.8027076631
 21
24.2489866226
 31
0.0
  0
LINE
  5
10A
330
1B
100
AcDbEntity
 67
     1
  8
SLD-0
  6
SLD-実線
 62
     7
370
    18
100
AcDbLine
 10
21.6649123901
 20
24.0915063106
 30
0.0
 11
21.2121564931
 21
24.0915063106
 31
0.0
  0
LINE
  5
10B
330
1B
100
AcDbEntity
 67
     1
  8
SLD-0
  6
SLD-実線
 62
     7
370
    18
100
AcDbLine
 10
21.6649123901
 20
24.0915063106
 30
0.0
 11
21.6649123901
 21
24.1899315056
 31
0.0
  0
LINE
  5
10C
330
1B
100
AcDbEntity
 67
     1
  8
SLD-0
  6
SLD-実線
 62
     7
370
    18
100
AcDbLine
 10
22.1373533261
 20
15.7489867824
 30
0.0
 11
22.1373533261
 21
15.8277269384
 31
0.0
  0
LINE
  5
10D
330
1B
100
AcDbEntity
 67
     1
  8
SLD-0
  6
SLD-実線
 62
     7
370
    18
100
AcDbLine
 10
21.9405029361
 20
15.8277269384
 30
0.0
 11
22.1373533261
 21
15.8277269384
 31
0.0
  0
LINE
  5
10E
330
1B
100
AcDbEntity
 67
     1
  8
SLD-0
  6
SLD-実線
 62
     7
370
    18
100
AcDbLine
 10
21.9405029361
 20
15.7096167044
 30
0.0
 11
21.9405029361
 21
15.8277269384
 31
0.0
  0
LINE
  5
10F
330
1B
100
AcDbEntity
 67
     1
  8
SLD-0
  6
SLD-破線
 62
     7
370
    18
100
AcDbLine
 10
21.8814478191
 20
16.5363883424
 30
0.0
 11
22.1964084431
 21
16.8513489664
 31
0.0
  0
LINE
  5
110
330
1B
100
AcDbEntity
 67
     1
  8
SLD-0
  6
SLD-破線
 62
     7
370
    18
100
AcDbLine
 10
22.1964084431
 20
16.8513489664
 30
0.0
 11
22.6097942621
 21
16.8513489664
 31
0.0
  0
LINE
  5
111
330
1B
100
AcDbEntity
 67
     1
  8
SLD-0
  6
SLD-実線
 62
     7
370
    18
100
AcDbLine
 10
22.3932588331
 20
15.7489867824
 30
0.0
 11
22.3932588331
 21
16.1820576404
 31
0.0
  0
LINE
  5
112
330
1B
100
AcDbEntity
 67
     1
  8
SLD-0
  6
SLD-実線
 62
     7
370
    18
100
AcDbLine
 10
21.9208178971
 20
16.3789080304
 30
0.0
 11
22.1964084431
 21
16.3789080304
 31
0.0
  0
LINE
  5
113
330
1B
100
AcDbEntity
 67
     1
  8
SLD-0
  6
SLD-実線
 62
     7
370
    18
100
AcDbLine
 10
21.8814478191
 20
16.4182781084
 30
0.0
 11
21.8814478191
 21
16.4970182644
 31
0.0
  0
LINE
  5
114
330
1B
100
AcDbEntity
 67
     1
  8
SLD-0
  6
SLD-実線
 62
     7
370
    18
100
AcDbLine
 10
21.5468021561
 20
24.0521362326
 30
0.0
 11
21.2121564931
 21
24.0521362326
 31
0.0
  0
LINE
  5
115
330
1B
100
AcDbEntity
 67
     1
  8
SLD-0
  6
SLD-実線
 62
     7
370
    18
100
AcDbLine
 10
21.5468021561
 20
24.2883567006
 30
0.0
 11
21.2121564931
 21
24.2883567006
 31
0.0
  0
LINE
  5
116
330
1B
100
AcDbEntity
 67
     1
  8
SLD-0
  6
SLD-実線
 62
     7
370
    18
100
AcDbLine
 10
21.5468021561
 20
24.2883567006
 30
0.0
 11
21.5468021561
 21
24.3670968566
 31
0.0
  0
LINE
  5
117
330
1B
100
AcDbEntity
 67
     1
  8
SLD-0
  6
SLD-実線
 62
     7
370
    18
100
AcDbLine
 10
21.5369596366
 20
24.0521362326
 30
0.0
 11
21.5369596366
 21
24.0915063106
 31
0.0
  0
LINE
  5
118
330
1B
100
AcDbEntity
 67
     1
  8
SLD-0
  6
SLD-実線
 62
     7
370
    18
100
AcDbLine
 10
21.2121564931
 20
15.7096167044
 30
0.0
 11
23.0428651201
 21
15.7096167044
 31
0.0
  0
LINE
  5
119
330
1B
100
AcDbEntity
 67
     1
  8
SLD-0
  6
SLD-実線
 62
     7
370
    18
100
AcDbLine
 10
20.8775108301
 20
24.0521362326
 30
0.0
 11
21.2121564931
 21
24.0521362326
 31
0.0
  0
LINE
  5
11A
330
1B
100
AcDbEntity
 67
     1
  8
SLD-0
  6
SLD-実線
 62
     7
370
    18
100
AcDbLine
 10
21.2121564931
 20
15.2371757684
 30
0.0
 11
23.5940462121
 21
15.2371757684
 31
0.0
  0
LINE
  5
11B
330
1B
100
AcDbEntity
 67
     1
  8
SLD-0
  6
SLD-実線
 62
     7
370
    18
100
AcDbLine
 10
18.9286919691
 20
26.3749708346
 30
0.0
 11
18.8105817351
 21
26.3749708346
 31
0.0
  0
LINE
  5
11C
330
1B
100
AcDbEntity
 67
     1
  8
SLD-0
  6
SLD-実線
 62
     7
370
    18
100
AcDbLine
 10
21.2121564931
 20
26.3749708346
 30
0.0
 11
23.9644128838
 21
26.3749708346
 31
0.0
  0
LINE
  5
11D
330
1B
100
AcDbEntity
 67
     1
  8
SLD-0
  6
SLD-実線
 62
     7
370
    18
100
AcDbLine
 10
23.6137312511
 20
26.3749708346
 30
0.0
 11
23.6137312511
 21
24.8001677146
 31
0.0
  0
LINE
  5
11E
330
1B
100
AcDbEntity
 67
     1
  8
SLD-0
  6
SLD-実線
 62
     7
370
    18
100
AcDbLine
 10
23.4755780683
 20
30.3513487126
 30
0.0
 11
23.4790379824
 21
30.2244861523
 31
0.0
  0
LINE
  5
11F
330
1B
100
AcDbEntity
 67
     1
  8
SLD-0
  6
SLD-実線
 62
     7
370
    18
100
AcDbLine
 10
23.3719000101
 20
30.3281421991
 30
0.0
 11
23.3719000101
 21
30.3513487126
 31
0.0
  0
LINE
  5
120
330
1B
100
AcDbEntity
 67
     1
  8
SLD-0
  6
SLD-実線
 62
     7
370
    18
100
AcDbLine
 10
23.2700440708
 20
30.3513487126
 30
0.0
 11
23.2700440708
 21
30.2268016498
 31
0.0
  0
LINE
  5
121
330
1B
100
AcDbEntity
 67
     1
  8
SLD-0
  6
SLD-実線
 62
     7
370
    18
100
AcDbLine
 10
23.179918983
 20
30.3264317481
 30
0.0
 11
23.179918983
 21
30.3513487126
 31
0.0
  0
LINE
  5
122
330
1B
100
AcDbEntity
 67
     1
  8
SLD-0
  6
SLD-実線
 62
     7
370
    18
100
AcDbLine
 10
23.3868758509
 20
30.2972404459
 30
0.0
 11
23.5250660774
 21
30.1881507915
 31
0.0
  0
LINE
  5
123
330
1B
100
AcDbEntity
 67
     1
  8
SLD-0
  6
SLD-実線
 62
     7
370
    18
100
AcDbLine
 10
23.3125132897
 20
30.1880382289
 30
0.0
 11
23.1927477229
 21
30.2973531875
 31
0.0
  0
LINE
  5
124
330
1B
100
AcDbEntity
 67
     1
  8
SLD-0
  6
SLD-実線
 62
     7
370
    18
100
AcDbLine
 10
23.5546761341
 20
30.3006133878
 30
0.0
 11
23.7127831462
 21
30.2093302829
 31
0.0
  0
LINE
  5
125
330
1B
100
AcDbEntity
 67
     1
  8
SLD-0
  6
SLD-実線
 62
     7
370
    18
100
AcDbLine
 10
20.2488768047
 20
27.2797920416
 30
0.0
 11
20.2488768047
 21
26.7293015366
 31
0.0
  0
LINE
  5
126
330
1B
100
AcDbEntity
 67
     1
  8
SLD-0
  6
SLD-実線
 62
     7
370
    18
100
AcDbLine
 10
20.3898841392
 20
27.2797920416
 30
0.0
 11
20.3898841392
 21
26.7293015366
 31
0.0
  0
LINE
  5
127
330
1B
100
AcDbEntity
 67
     1
  8
SLD-0
  6
SLD-破線
 62
     7
370
    18
100
AcDbLine
 10
20.5428651671
 20
16.4970182644
 30
0.0
 11
20.5428651671
 21
16.5363883424
 31
0.0
  0
LINE
  5
128
330
1B
100
AcDbEntity
 67
     1
  8
SLD-0
  6
SLD-破線
 62
     7
370
    18
100
AcDbLine
 10
21.8814478191
 20
16.4970182644
 30
0.0
 11
21.8814478191
 21
16.5363883424
 31
0.0
  0
LINE
  5
129
330
1B
100
AcDbEntity
 67
     1
  8
SLD-0
  6
SLD-鎖線
 62
     7
370
    18
100
AcDbLine
 10
20.8787823047
 20
25.1938684946
 30
0.0
 11
21.5832151834
 21
25.1938684946
 31
0.0
  0
LINE
  5
12A
330
1B
100
AcDbEntity
 67
     1
  8
SLD-0
  6
SLD-鎖線
 62
     7
370
    18
100
AcDbLine
 10
21.0432542057
 20
1.396265506
 30
0.0
 11
21.0432542057
 21
9.1357653605
 31
0.0
  0
LINE
  5
12B
330
1B
100
AcDbEntity
 67
     1
  8
SLD-0
  6
SLD-鎖線
 62
     7
370
    18
100
AcDbLine
 10
20.3136855007
 20
7.8747449834
 30
0.0
 11
21.7447371918
 21
7.8747449834
 31
0.0
  0
LINE
  5
12C
330
1B
100
AcDbEntity
 67
     1
  8
SLD-0
  6
SLD-実線
 62
     7
370
    18
100
AcDbLine
 10
19.6574274601
 20
7.587343414
 30
0.0
 11
19.6574274601
 21
8.7099484394
 31
0.0
  0
LINE
  5
12D
330
1B
100
AcDbEntity
 67
     1
  8
SLD-0
  6
SLD-実線
 62
     7
370
    18
100
AcDbLine
 10
19.7440416317
 20
8.796562611
 30
0.0
 11
21.0432542057
 21
8.796562611
 31
0.0
  0
LINE
  5
12E
330
1B
100
AcDbEntity
 67
     1
  8
SLD-0
  6
SLD-実線
 62
     7
370
    18
100
AcDbLine
 10
21.0432542057
 20
8.8733217363
 30
0.0
 11
20.1574274507
 21
8.8733217363
 31
0.0
  0
LINE
  5
12F
330
1B
100
AcDbEntity
 67
     1
  8
SLD-0
  6
SLD-実線
 62
     7
370
    18
100
AcDbLine
 10
20.0314432011
 20
8.604211863
 30
0.0
 11
20.0314432011
 21
7.3969438113
 31
0.0
  0
LINE
  5
130
330
1B
100
AcDbEntity
 67
     1
  8
SLD-0
  6
SLD-実線
 62
     7
370
    18
100
AcDbLine
 10
20.0314432011
 20
8.604211863
 30
0.0
 11
21.0432542057
 21
8.604211863
 31
0.0
  0
LINE
  5
131
330
1B
100
AcDbEntity
 67
     1
  8
SLD-0
  6
SLD-実線
 62
     7
370
    18
100
AcDbLine
 10
22.4290809513
 20
7.587343414
 30
0.0
 11
22.4290809513
 21
8.7099484394
 31
0.0
  0
LINE
  5
132
330
1B
100
AcDbEntity
 67
     1
  8
SLD-0
  6
SLD-実線
 62
     7
370
    18
100
AcDbLine
 10
22.3424667797
 20
8.796562611
 30
0.0
 11
21.0432542057
 21
8.796562611
 31
0.0
  0
LINE
  5
133
330
1B
100
AcDbEntity
 67
     1
  8
SLD-0
  6
SLD-実線
 62
     7
370
    18
100
AcDbLine
 10
21.0432542057
 20
8.8733217363
 30
0.0
 11
21.9290809607
 21
8.8733217363
 31
0.0
  0
LINE
  5
134
330
1B
100
AcDbEntity
 67
     1
  8
SLD-0
  6
SLD-実線
 62
     7
370
    18
100
AcDbLine
 10
22.0550652103
 20
8.604211863
 30
0.0
 11
22.0550652103
 21
7.3969438113
 31
0.0
  0
LINE
  5
135
330
1B
100
AcDbEntity
 67
     1
  8
SLD-0
  6
SLD-実線
 62
     7
370
    18
100
AcDbLine
 10
22.0550652103
 20
8.604211863
 30
0.0
 11
21.0432542057
 21
8.604211863
 31
0.0
  0
LINE
  5
136
330
1B
100
AcDbEntity
 67
     1
  8
SLD-0
  6
SLD-鎖線
 62
     7
370
    18
100
AcDbLine
 10
20.2919881139
 20
30.8082001714
 30
0.0
 11
20.0212289922
 21
30.8082001714
 31
0.0
  0
LINE
  5
137
330
1B
100
AcDbEntity
 67
     1
  8
SLD-0
  6
SLD-鎖線
 62
     7
370
    18
100
AcDbLine
 10
20.1491643871
 20
30.6533386854
 30
0.0
 11
20.1491643871
 21
30.9541382503
 31
0.0
  0
LINE
  5
138
330
1B
100
AcDbEntity
 67
     1
  8
SLD-0
  6
SLD-実線
 62
     7
370
    18
100
AcDbLine
 10
20.2475895821
 20
27.8789078142
 30
0.0
 11
20.2475895821
 21
30.5188603415
 31
0.0
  0
LINE
  5
139
330
1B
100
AcDbEntity
 67
     1
  8
SLD-0
  6
SLD-実線
 62
     7
370
    18
100
AcDbLine
 10
21.9798730141
 20
30.7157107315
 30
0.0
 11
20.4444399721
 21
30.7157107315
 31
0.0
  0
LINE
  5
13A
330
1B
100
AcDbEntity
 67
     1
  8
SLD-0
  6
SLD-鎖線
 62
     7
370
    18
100
AcDbLine
 10
22.4179723259
 20
30.8082001714
 30
0.0
 11
22.1472132042
 21
30.8082001714
 31
0.0
  0
LINE
  5
13B
330
1B
100
AcDbEntity
 67
     1
  8
SLD-0
  6
SLD-鎖線
 62
     7
370
    18
100
AcDbLine
 10
22.2751485991
 20
30.6533386854
 30
0.0
 11
22.2751485991
 21
30.9541382503
 31
0.0
  0
LINE
  5
13C
330
1B
100
AcDbEntity
 67
     1
  8
SLD-0
  6
SLD-実線
 62
     7
370
    18
100
AcDbLine
 10
22.1767234041
 20
27.8789078142
 30
0.0
 11
22.1767234041
 21
30.5188603415
 31
0.0
  0
LINE
  5
13D
330
1B
100
AcDbEntity
 67
     1
  8
SLD-0
  6
SLD-実線
 62
     7
370
    18
100
AcDbLine
 10
20.4444399721
 20
27.6820574242
 30
0.0
 11
21.9798730141
 21
27.6820574242
 31
0.0
  0
LINE
  5
13E
330
1B
100
AcDbEntity
 67
     1
  8
SLD-0
  6
SLD-鎖線
 62
     7
370
    18
100
AcDbLine
 10
20.1491643871
 20
27.4162086461
 30
0.0
 11
20.1491643871
 21
27.7170082109
 31
0.0
  0
LINE
  5
13F
330
1B
100
AcDbEntity
 67
     1
  8
SLD-0
  6
SLD-鎖線
 62
     7
370
    18
100
AcDbLine
 10
20.2919881139
 20
27.5710701321
 30
0.0
 11
20.0212289922
 21
27.5710701321
 31
0.0
  0
LINE
  5
140
330
1B
100
AcDbEntity
 67
     1
  8
SLD-0
  6
SLD-鎖線
 62
     7
370
    18
100
AcDbLine
 10
22.2751485991
 20
27.4162086461
 30
0.0
 11
22.2751485991
 21
27.7170082109
 31
0.0
  0
LINE
  5
141
330
1B
100
AcDbEntity
 67
     1
  8
SLD-0
  6
SLD-鎖線
 62
     7
370
    18
100
AcDbLine
 10
22.4179723259
 20
27.5710701321
 30
0.0
 11
22.1472132042
 21
27.5710701321
 31
0.0
  0
LINE
  5
142
330
1B
100
AcDbEntity
 67
     1
  8
SLD-0
  6
SLD-実線
 62
     7
370
    18
100
AcDbLine
 10
21.2121564931
 20
31.2174904286
 30
0.0
 11
20.0704242311
 21
31.2174904286
 31
0.0
  0
LINE
  5
143
330
1B
100
AcDbEntity
 67
     1
  8
SLD-0
  6
SLD-実線
 62
     7
370
    18
100
AcDbLine
 10
20.0310541531
 20
31.1753118324
 30
0.0
 11
20.0310541531
 21
31.1781203506
 31
0.0
  0
LINE
  5
144
330
1B
100
AcDbEntity
 67
     1
  8
SLD-0
  6
SLD-実線
 62
     7
370
    18
100
AcDbLine
 10
21.2121564931
 20
31.1387502726
 30
0.0
 11
20.0062871529
 21
31.1387502726
 31
0.0
  0
LINE
  5
145
330
1B
100
AcDbEntity
 67
     1
  8
SLD-0
  6
SLD-実線
 62
     7
370
    18
100
AcDbLine
 10
19.0390165912
 20
31.065266022
 30
0.0
 11
19.9945924093
 21
31.1360493231
 31
0.0
  0
LINE
  5
146
330
1B
100
AcDbEntity
 67
     1
  8
SLD-0
  6
SLD-実線
 62
     7
370
    18
100
AcDbLine
 10
18.8893218911
 20
30.3347089491
 30
0.0
 11
18.8893218911
 21
30.5875691806
 31
0.0
  0
LINE
  5
147
330
1B
100
AcDbEntity
 67
     1
  8
SLD-0
  6
SLD-実線
 62
     7
370
    18
100
AcDbLine
 10
18.966122355
 20
30.9888875338
 30
0.0
 11
18.8655534592
 21
27.3013623705
 31
0.0
  0
LINE
  5
148
330
1B
100
AcDbEntity
 67
     1
  8
SLD-0
  6
SLD-実線
 62
     7
370
    18
100
AcDbLine
 10
23.385296395
 20
31.065266022
 30
0.0
 11
22.429720577
 21
31.1360493231
 31
0.0
  0
LINE
  5
149
330
1B
100
AcDbEntity
 67
     1
  8
SLD-0
  6
SLD-実線
 62
     7
370
    18
100
AcDbLine
 10
22.3932588331
 20
31.1753118324
 30
0.0
 11
22.3932588331
 21
31.1781203506
 31
0.0
  0
LINE
  5
14A
330
1B
100
AcDbEntity
 67
     1
  8
SLD-0
  6
SLD-実線
 62
     7
370
    18
100
AcDbLine
 10
21.2121564931
 20
31.1387502726
 30
0.0
 11
22.4180258334
 21
31.1387502726
 31
0.0
  0
LINE
  5
14B
330
1B
100
AcDbEntity
 67
     1
  8
SLD-0
  6
SLD-実線
 62
     7
370
    18
100
AcDbLine
 10
21.2121564931
 20
31.2174904286
 30
0.0
 11
22.3538887551
 21
31.2174904286
 31
0.0
  0
LINE
  5
14C
330
1B
100
AcDbEntity
 67
     1
  8
SLD-0
  6
SLD-実線
 62
     7
370
    18
100
AcDbLine
 10
23.2700440708
 20
30.6655709687
 30
0.0
 11
23.2931598541
 21
30.6655709687
 31
0.0
  0
LINE
  5
14D
330
1B
100
AcDbEntity
 67
     1
  8
SLD-0
  6
SLD-実線
 62
     7
370
    18
100
AcDbLine
 10
23.3719000101
 20
30.3281421991
 30
0.0
 11
23.3719000101
 21
30.5868308127
 31
0.0
  0
LINE
  5
14E
330
1B
100
AcDbEntity
 67
     1
  8
SLD-0
  6
SLD-実線
 62
     7
370
    18
100
AcDbLine
 10
23.2700440708
 20
30.6655709687
 30
0.0
 11
23.2700440708
 21
30.2268016498
 31
0.0
  0
LINE
  5
14F
330
1B
100
AcDbEntity
 67
     1
  8
SLD-0
  6
SLD-実線
 62
     7
370
    18
100
AcDbLine
 10
23.5349910951
 20
30.3347089491
 30
0.0
 11
23.5349910951
 21
30.5875691806
 31
0.0
  0
LINE
  5
150
330
1B
100
AcDbEntity
 67
     1
  8
SLD-0
  6
SLD-実線
 62
     7
370
    18
100
AcDbLine
 10
23.4581906313
 20
30.9888875338
 30
0.0
 11
23.4790379824
 21
30.2244861523
 31
0.0
  0
LINE
  5
151
330
1B
100
AcDbEntity
 67
     1
  8
SLD-0
  6
SLD-実線
 62
     7
370
    18
100
AcDbLine
 10
23.179918983
 20
30.3264317481
 30
0.0
 11
23.179918983
 21
30.5868308127
 31
0.0
  0
LINE
  5
152
330
1B
100
AcDbEntity
 67
     1
  8
SLD-0
  6
SLD-実線
 62
     7
370
    18
100
AcDbLine
 10
23.101178827
 20
30.6655709687
 30
0.0
 11
23.0724803665
 21
30.6655709687
 31
0.0
  0
LINE
  5
153
330
1B
100
AcDbEntity
 67
     1
  8
SLD-0
  6
SLD-実線
 62
     7
370
    18
100
AcDbLine
 10
23.0724803665
 20
30.6655709687
 30
0.0
 11
23.0724803665
 21
26.7293015366
 31
0.0
  0
LINE
  5
154
330
1B
100
AcDbEntity
 67
     1
  8
SLD-0
  6
SLD-実線
 62
     7
370
    18
100
AcDbLine
 10
18.8696368521
 20
30.3006133878
 30
0.0
 11
18.7115298401
 21
30.2093302829
 31
0.0
  0
LINE
  5
155
330
1B
100
AcDbEntity
 67
     1
  8
SLD-0
  6
SLD-実線
 62
     7
370
    18
100
AcDbLine
 10
23.3125132897
 20
30.1880382289
 30
0.0
 11
23.1927477229
 21
30.2973531875
 31
0.0
  0
LINE
  5
156
330
1B
100
AcDbEntity
 67
     1
  8
SLD-0
  6
SLD-実線
 62
     7
370
    18
100
AcDbLine
 10
23.3868758509
 20
30.2972404459
 30
0.0
 11
23.5250660774
 21
30.1881507915
 31
0.0
  0
LINE
  5
157
330
1B
100
AcDbEntity
 67
     1
  8
SLD-0
  6
SLD-実線
 62
     7
370
    18
100
AcDbLine
 10
23.5546761341
 20
30.3006133878
 30
0.0
 11
23.7127831462
 21
30.2093302829
 31
0.0
  0
ARC
  5
158
330
1B
100
AcDbEntity
 67
     1
  8
1
  6
SLD-実線
 62
     7
370
    18
100
AcDbCircle
 10
20.2082195041
 20
30.7360863575
 30
0.0
 40
0.3818897566000068
100
AcDbArc
 50
90.0
 51
180.0
  0
ARC
  5
159
330
1B
100
AcDbEntity
 67
     1
  8
1
  6
SLD-実線
 62
     7
370
    18
100
AcDbCircle
 10
22.2160934821
 20
30.7360863575
 30
0.0
 40
0.3818897566000068
100
AcDbArc
 50
0.0
 51
90.0
  0
ARC
  5
15A
330
1B
100
AcDbEntity
 67
     1
  8
1
  6
SLD-実線
 62
     7
370
    18
100
AcDbCircle
 10
20.2082195041
 20
27.6616817982
 30
0.0
 40
0.3818897566000068
100
AcDbArc
 50
180.0
 51
270.0
  0
ARC
  5
15B
330
1B
100
AcDbEntity
 67
     1
  8
1
  6
SLD-実線
 62
     7
370
    18
100
AcDbCircle
 10
22.2160934821
 20
27.6616817982
 30
0.0
 40
0.3818897566000032
100
AcDbArc
 50
270.0
 51
0.0
  0
ARC
  5
15C
330
1B
100
AcDbEntity
 67
     1
  8
SLD-0
  6
SLD-実線
 62
     7
370
    18
100
AcDbCircle
 10
23.5006718402
 20
30.1572490384
 30
0.0
 40
0.039370078000002
100
AcDbArc
 50
0.0
 51
51.711897
  0
ARC
  5
15D
330
1B
100
AcDbEntity
 67
     1
  8
SLD-0
  6
SLD-実線
 62
     7
370
    18
100
AcDbCircle
 10
23.4112700881
 20
30.3281421991
 30
0.0
 40
0.039370078000001
100
AcDbArc
 50
180.0
 51
231.711897
  0
ARC
  5
15E
330
1B
100
AcDbEntity
 67
     1
  8
SLD-0
  6
SLD-実線
 62
     7
370
    18
100
AcDbCircle
 10
23.2859721306
 20
30.1589594893
 30
0.0
 40
0.0393700780000046
100
AcDbArc
 50
0.0
 51
47.612009
  0
ARC
  5
15F
330
1B
100
AcDbEntity
 67
     1
  8
SLD-0
  6
SLD-実線
 62
     7
370
    18
100
AcDbCircle
 10
23.219289061
 20
30.3264317481
 30
0.0
 40
0.0393700779999983
100
AcDbArc
 50
180.0
 51
227.612009
  0
ARC
  5
160
330
1B
100
AcDbEntity
 67
     1
  8
SLD-0
  6
SLD-実線
 62
     7
370
    18
100
AcDbCircle
 10
23.5743611731
 20
30.3347089491
 30
0.0
 40
0.039370078000001
100
AcDbArc
 50
180.0
 51
240.0
  0
ARC
  5
161
330
1B
100
AcDbEntity
 67
     1
  8
SLD-0
  6
SLD-実線
 62
     7
370
    18
100
AcDbCircle
 10
23.7902598806
 20
26.6798305282
 30
0.0
 40
0.0393700780000011
100
AcDbArc
 50
300.0
 51
1.59224
  0
ARC
  5
162
330
1B
100
AcDbEntity
 67
     1
  8
SLD-0
  6
SLD-実線
 62
     7
370
    18
100
AcDbCircle
 10
23.6930981072
 20
30.1752349006
 30
0.0
 40
0.0393700780000011
100
AcDbArc
 50
1.59224
 51
60.0
  0
ARC
  5
163
330
1B
100
AcDbEntity
 67
     1
  8
SLD-0
  6
SLD-実線
 62
     7
370
    18
100
AcDbCircle
 10
18.8499518131
 20
30.3347089491
 30
0.0
 40
0.039370078000001
100
AcDbArc
 50
300.0
 51
0.0
  0
ARC
  5
164
330
1B
100
AcDbEntity
 67
     1
  8
SLD-0
  6
SLD-実線
 62
     7
370
    18
100
AcDbCircle
 10
18.7312148791
 20
30.1752349006
 30
0.0
 40
0.0393700706772913
100
AcDbArc
 50
120.0
 51
178.407753305
  0
ARC
  5
165
330
1B
100
AcDbEntity
 67
     1
  8
SLD-0
  6
SLD-実線
 62
     7
370
    18
100
AcDbCircle
 10
18.8098331668
 20
26.8173562951
 30
0.0
 40
0.0787401560000003
100
AcDbArc
 50
138.215806
 51
180.0
  0
ARC
  5
166
330
1B
100
AcDbEntity
 67
     1
  8
SLD-0
  6
SLD-実線
 62
     7
370
    18
100
AcDbCircle
 10
18.5386402585
 20
26.8173562951
 30
0.0
 40
0.0787401560000003
100
AcDbArc
 50
138.215806
 51
180.0
  0
ARC
  5
167
330
1B
100
AcDbEntity
 67
     1
  8
SLD-0
  6
SLD-実線
 62
     7
370
    18
100
AcDbCircle
 10
21.0432542057
 20
4.594384272
 30
0.0
 40
1.161417301000002
100
AcDbArc
 50
159.755652
 51
40.279667
  0
ARC
  5
168
330
1B
100
AcDbEntity
 67
     1
  8
SLD-0
  6
SLD-実線
 62
     7
370
    18
100
AcDbCircle
 10
21.0432542057
 20
4.6410383513
 30
0.0
 40
1.673228315000002
100
AcDbArc
 50
155.967734
 51
40.633466
  0
ARC
  5
169
330
1B
100
AcDbEntity
 67
     1
  8
SLD-0
  6
SLD-実線
 62
     7
370
    18
100
AcDbCircle
 10
23.8856727278
 20
25.9418999766
 30
0.0
 40
0.0787401559999985
100
AcDbArc
 50
270.0
 51
0.0
  0
ARC
  5
16A
330
1B
100
AcDbEntity
 67
     1
  8
SLD-0
  6
SLD-実線
 62
     7
370
    18
100
AcDbCircle
 10
18.5386402585
 20
25.9418999766
 30
0.0
 40
0.0787401559999985
100
AcDbArc
 50
180.0
 51
270.0
  0
CIRCLE
  5
16B
330
1B
100
AcDbEntity
 67
     1
  8
SLD-0
  6
SLD-実線
 62
     7
370
    18
100
AcDbCircle
 10
21.0432542057
 20
4.6410383513
 30
0.0
 40
0.4921259750000004
  0
CIRCLE
  5
16C
330
1B
100
AcDbEntity
 67
     1
  8
SLD-0
  6
SLD-実線
 62
     7
370
    18
100
AcDbCircle
 10
20.3756339605
 20
6.8247263918
 30
0.0
 40
0.1082677145000055
  0
CIRCLE
  5
16D
330
1B
100
AcDbEntity
 67
     1
  8
SLD-0
  6
SLD-実線
 62
     7
370
    18
100
AcDbCircle
 10
18.8595663441
 20
3.9734179272
 30
0.0
 40
0.1082677145000019
  0
CIRCLE
  5
16E
330
1B
100
AcDbEntity
 67
     1
  8
SLD-0
  6
SLD-実線
 62
     7
370
    18
100
AcDbCircle
 10
21.7108746298
 20
2.4573503107
 30
0.0
 40
0.1082677145000019
  0
CIRCLE
  5
16F
330
1B
100
AcDbEntity
 67
     1
  8
SLD-0
  6
SLD-実線
 62
     7
370
    18
100
AcDbCircle
 10
23.2269422462
 20
5.3086587754
 30
0.0
 40
0.1082677145000019
  0
ARC
  5
170
330
1B
100
AcDbEntity
 67
     1
  8
SLD-0
  6
SLD-鎖線
 62
     7
370
    18
100
AcDbCircle
 10
21.0432542057
 20
4.6410383513
 30
0.0
 40
2.283464523999997
100
AcDbArc
 50
191.193536
 51
201.097383
  0
ARC
  5
171
330
1B
100
AcDbEntity
 67
     1
  8
SLD-0
  6
SLD-鎖線
 62
     7
370
    18
100
AcDbCircle
 10
21.0432542057
 20
4.6410383513
 30
0.0
 40
2.283464523999997
100
AcDbArc
 50
282.964176
 51
292.076148
  0
ARC
  5
172
330
1B
100
AcDbEntity
 67
     1
  8
SLD-0
  6
SLD-鎖線
 62
     7
370
    18
100
AcDbCircle
 10
21.0432542057
 20
4.6410383513
 30
0.0
 40
2.283464524000007
100
AcDbArc
 50
12.473302
 51
23.024259
  0
ARC
  5
173
330
1B
100
AcDbEntity
 67
     1
  8
SLD-0
  6
SLD-鎖線
 62
     7
370
    18
100
AcDbCircle
 10
21.0432542057
 20
4.6410383513
 30
0.0
 40
2.283464524000002
100
AcDbArc
 50
103.804241
 51
110.255042
  0
ARC
  5
174
330
1B
100
AcDbEntity
 67
     1
  8
SLD-0
  6
SLD-鎖線
 62
     7
370
    18
100
AcDbCircle
 10
21.0432542057
 20
4.6410383513
 30
0.0
 40
3.346456630000006
100
AcDbArc
 50
38.590482
 51
51.361831
  0
ARC
  5
175
330
1B
100
AcDbEntity
 67
     1
  8
SLD-0
  6
SLD-鎖線
 62
     7
370
    18
100
AcDbCircle
 10
21.0432542057
 20
4.6410383513
 30
0.0
 40
3.346456630000002
100
AcDbArc
 50
217.691821
 51
232.061751
  0
ARC
  5
176
330
1B
100
AcDbEntity
 67
     1
  8
SLD-0
  6
SLD-鎖線
 62
     7
370
    18
100
AcDbCircle
 10
21.0432542057
 20
4.6410383513
 30
0.0
 40
3.149606240000002
100
AcDbArc
 50
307.209999
 51
325.119526
  0
CIRCLE
  5
177
330
1B
100
AcDbEntity
 67
     1
  8
SLD-0
  6
SLD-実線
 62
     7
370
    18
100
AcDbCircle
 10
21.0432542057
 20
4.6410383513
 30
0.0
 40
2.460629875000002
  0
CIRCLE
  5
178
330
1B
100
AcDbEntity
 67
     1
  8
SLD-0
  6
SLD-実線
 62
     7
370
    18
100
AcDbCircle
 10
23.409556416
 20
7.0073405616
 30
0.0
 40
0.1968503900000016
  0
CIRCLE
  5
179
330
1B
100
AcDbEntity
 67
     1
  8
SLD-0
  6
SLD-実線
 62
     7
370
    18
100
AcDbCircle
 10
18.6769521743
 20
2.2747361409
 30
0.0
 40
0.196850389999998
  0
CIRCLE
  5
17A
330
1B
100
AcDbEntity
 67
     1
  8
SLD-0
  6
SLD-実線
 62
     7
370
    18
100
AcDbCircle
 10
23.2703622526
 20
2.4139304833
 30
0.0
 40
0.1968503900000016
  0
CIRCLE
  5
17B
330
1B
100
AcDbEntity
 67
     1
  8
SLD-0
  6
SLD-実線
 62
     7
370
    18
100
AcDbCircle
 10
18.8161463377
 20
6.8681462192
 30
0.0
 40
0.1968503900000087
  0
ARC
  5
17C
330
1B
100
AcDbEntity
 67
     1
  8
SLD-0
  6
SLD-鎖線
 62
     7
370
    18
100
AcDbCircle
 10
21.0432542057
 20
4.6410383513
 30
0.0
 40
3.149606239999999
100
AcDbArc
 50
125.562086
 51
141.908698
  0
ARC
  5
17D
330
1B
100
AcDbEntity
 67
     1
  8
SLD-0
  6
SLD-実線
 62
     7
370
    18
100
AcDbCircle
 10
21.0432542057
 20
4.6410383353
 30
0.0
 40
3.74015741
100
AcDbArc
 50
312.536898
 51
317.463102
  0
ARC
  5
17E
330
1B
100
AcDbEntity
 67
     1
  8
SLD-0
  6
SLD-実線
 62
     7
370
    18
100
AcDbCircle
 10
21.0432542057
 20
4.6410383513
 30
0.0
 40
3.740157409999995
100
AcDbArc
 50
222.536898
 51
227.463102
  0
ARC
  5
17F
330
1B
100
AcDbEntity
 67
     1
  8
SLD-0
  6
SLD-実線
 62
     7
370
    18
100
AcDbCircle
 10
21.0432542057
 20
4.6410383513
 30
0.0
 40
3.740157409999999
100
AcDbArc
 50
132.536898
 51
137.463102
  0
ARC
  5
180
330
1B
100
AcDbEntity
 67
     1
  8
SLD-0
  6
SLD-実線
 62
     7
370
    18
100
AcDbCircle
 10
21.0432542057
 20
4.6410383353
 30
0.0
 40
3.740157410000002
100
AcDbArc
 50
42.536898
 51
47.463102
  0
ARC
  5
181
330
1B
100
AcDbEntity
 67
     1
  8
SLD-0
  6
SLD-実線
 62
     7
370
    18
100
AcDbCircle
 10
17.7755377317
 20
3.9323769473
 30
0.0
 40
0.0787401560000021
100
AcDbArc
 50
180.0
 51
270.0
  0
ARC
  5
182
330
1B
100
AcDbEntity
 67
     1
  8
SLD-0
  6
SLD-実線
 62
     7
370
    18
100
AcDbCircle
 10
17.7755377317
 20
5.3496997553
 30
0.0
 40
0.0787401560000021
100
AcDbArc
 50
90.0
 51
180.0
  0
ARC
  5
183
330
1B
100
AcDbEntity
 67
     1
  8
SLD-0
  6
SLD-実線
 62
     7
370
    18
100
AcDbCircle
 10
19.0664872421
 20
15.3946560804
 30
0.0
 40
0.3149606240000047
100
AcDbArc
 50
90.0
 51
180.0
  0
ARC
  5
184
330
1B
100
AcDbEntity
 67
     1
  8
SLD-0
  6
SLD-実線
 62
     7
370
    18
100
AcDbCircle
 10
18.8302667741
 20
15.1584356124
 30
0.0
 40
0.0787401560000056
100
AcDbArc
 50
90.0
 51
180.0
  0
ARC
  5
185
330
1B
100
AcDbEntity
 67
     1
  8
SLD-0
  6
SLD-実線
 62
     7
370
    18
100
AcDbCircle
 10
19.3027077101
 20
15.9064670944
 30
0.0
 40
0.1968503900000034
100
AcDbArc
 50
270.0
 51
0.0
  0
ARC
  5
186
330
1B
100
AcDbEntity
 67
     1
  8
SLD-0
  6
SLD-実線
 62
     7
370
    18
100
AcDbCircle
 10
20.0704242311
 20
15.7489867824
 30
0.0
 40
0.039370078000001
100
AcDbArc
 50
180.0
 51
270.0
  0
ARC
  5
187
330
1B
100
AcDbEntity
 67
     1
  8
SLD-0
  6
SLD-実線
 62
     7
370
    18
100
AcDbCircle
 10
20.0113691141
 20
15.9064670944
 30
0.0
 40
0.1968503900000087
100
AcDbArc
 50
180.0
 51
270.0
  0
ARC
  5
188
330
1B
100
AcDbEntity
 67
     1
  8
SLD-0
  6
SLD-実線
 62
     7
370
    18
100
AcDbCircle
 10
20.2475895821
 20
15.7489867824
 30
0.0
 40
0.039370078000001
100
AcDbArc
 50
270.0
 51
0.0
  0
ARC
  5
189
330
1B
100
AcDbEntity
 67
     1
  8
SLD-0
  6
SLD-実線
 62
     7
370
    18
100
AcDbCircle
 10
20.5034950891
 20
16.4182781084
 30
0.0
 40
0.039370078000001
100
AcDbArc
 50
270.0
 51
0.0
  0
ARC
  5
18A
330
1B
100
AcDbEntity
 67
     1
  8
SLD-0
  6
SLD-実線
 62
     7
370
    18
100
AcDbCircle
 10
20.2279045431
 20
16.1820576404
 30
0.0
 40
0.1968503900000016
100
AcDbArc
 50
90.0
 51
180.0
  0
ARC
  5
18B
330
1B
100
AcDbEntity
 67
     1
  8
SLD-0
  6
SLD-実線
 62
     7
370
    18
100
AcDbCircle
 10
18.7121565401
 20
24.3277267786
 30
0.0
 40
0.039370078000001
100
AcDbArc
 50
0.0
 51
90.0
  0
ARC
  5
18C
330
1B
100
AcDbEntity
 67
     1
  8
SLD-0
  6
SLD-実線
 62
     7
370
    18
100
AcDbCircle
 10
19.3027077101
 20
24.1702464666
 30
0.0
 40
0.1968503900000016
100
AcDbArc
 50
0.0
 51
90.0
  0
ARC
  5
18D
330
1B
100
AcDbEntity
 67
     1
  8
SLD-0
  6
SLD-実線
 62
     7
370
    18
100
AcDbCircle
 10
20.0113691141
 20
24.1702464666
 30
0.0
 40
0.1968503900000087
100
AcDbArc
 50
90.0
 51
180.0
  0
ARC
  5
18E
330
1B
100
AcDbEntity
 67
     1
  8
SLD-0
  6
SLD-実線
 62
     7
370
    18
100
AcDbCircle
 10
23.4759359781
 20
15.3552860024
 30
0.0
 40
0.1181102340000013
100
AcDbArc
 50
180.0
 51
270.0
  0
ARC
  5
18F
330
1B
100
AcDbEntity
 67
     1
  8
SLD-0
  6
SLD-実線
 62
     7
370
    18
100
AcDbCircle
 10
23.0428651201
 20
15.3946560804
 30
0.0
 40
0.3149606240000047
100
AcDbArc
 50
0.0
 51
90.0
  0
ARC
  5
190
330
1B
100
AcDbEntity
 67
     1
  8
SLD-0
  6
SLD-実線
 62
     7
370
    18
100
AcDbCircle
 10
23.6727863607
 20
15.422538143
 30
0.0
 40
0.1968503900000024
100
AcDbArc
 50
180.0
 51
253.39845
  0
ARC
  5
191
330
1B
100
AcDbEntity
 67
     1
  8
SLD-0
  6
SLD-実線
 62
     7
370
    18
100
AcDbCircle
 10
23.5940462063
 20
15.1584356124
 30
0.0
 40
0.0787401733446096
100
AcDbArc
 50
0.0
 51
73.3984564205
  0
ARC
  5
192
330
1B
100
AcDbEntity
 67
     1
  8
SLD-0
  6
SLD-実線
 62
     7
370
    18
100
AcDbCircle
 10
23.1216052761
 20
15.9064670944
 30
0.0
 40
0.1968503900000034
100
AcDbArc
 50
180.0
 51
270.0
  0
ARC
  5
193
330
1B
100
AcDbEntity
 67
     1
  8
SLD-0
  6
SLD-実線
 62
     7
370
    18
100
AcDbCircle
 10
22.4129438721
 20
15.9064670944
 30
0.0
 40
0.1968503900000034
100
AcDbArc
 50
270.0
 51
0.0
  0
ARC
  5
194
330
1B
100
AcDbEntity
 67
     1
  8
SLD-0
  6
SLD-実線
 62
     7
370
    18
100
AcDbCircle
 10
23.6727863607
 20
24.170246461
 30
0.0
 40
0.196850389999998
100
AcDbArc
 50
90.0
 51
180.0
  0
ARC
  5
195
330
1B
100
AcDbEntity
 67
     1
  8
SLD-0
  6
SLD-実線
 62
     7
370
    18
100
AcDbCircle
 10
23.1216052761
 20
24.1702464666
 30
0.0
 40
0.1968503900000016
100
AcDbArc
 50
90.0
 51
180.0
  0
ARC
  5
196
330
1B
100
AcDbEntity
 67
     1
  8
SLD-0
  6
SLD-実線
 62
     7
370
    18
100
AcDbCircle
 10
22.4129438721
 20
24.1702464666
 30
0.0
 40
0.1968503900000016
100
AcDbArc
 50
0.0
 51
90.0
  0
ARC
  5
197
330
1B
100
AcDbEntity
 67
     1
  8
SLD-0
  6
SLD-実線
 62
     7
370
    18
100
AcDbCircle
 10
17.9444400191
 20
24.7607976366
 30
0.0
 40
0.0787401560000056
100
AcDbArc
 50
180.0
 51
270.0
  0
ARC
  5
198
330
1B
100
AcDbEntity
 67
     1
  8
SLD-0
  6
SLD-実線
 62
     7
370
    18
100
AcDbCircle
 10
17.9444400191
 20
26.1781204446
 30
0.0
 40
0.0787401560000021
100
AcDbArc
 50
90.0
 51
180.0
  0
ARC
  5
199
330
1B
100
AcDbEntity
 67
     1
  8
SLD-0
  6
SLD-実線
 62
     7
370
    18
100
AcDbCircle
 10
22.1767234041
 20
15.7489867824
 30
0.0
 40
0.039370078000001
100
AcDbArc
 50
180.0
 51
270.0
  0
ARC
  5
19A
330
1B
100
AcDbEntity
 67
     1
  8
SLD-0
  6
SLD-実線
 62
     7
370
    18
100
AcDbCircle
 10
21.9208178971
 20
16.4182781084
 30
0.0
 40
0.039370078000001
100
AcDbArc
 50
180.0
 51
270.0
  0
ARC
  5
19B
330
1B
100
AcDbEntity
 67
     1
  8
SLD-0
  6
SLD-実線
 62
     7
370
    18
100
AcDbCircle
 10
22.1964084431
 20
16.1820576404
 30
0.0
 40
0.1968503900000016
100
AcDbArc
 50
0.0
 51
90.0
  0
ARC
  5
19C
330
1B
100
AcDbEntity
 67
     1
  8
SLD-0
  6
SLD-実線
 62
     7
370
    18
100
AcDbCircle
 10
22.3538887551
 20
15.7489867824
 30
0.0
 40
0.0393700779999975
100
AcDbArc
 50
270.0
 51
0.0
  0
ARC
  5
19D
330
1B
100
AcDbEntity
 67
     1
  8
SLD-0
  6
SLD-実線
 62
     7
370
    18
100
AcDbCircle
 10
23.4112700881
 20
30.3281421991
 30
0.0
 40
0.039370078000001
100
AcDbArc
 50
180.0
 51
231.711897
  0
ARC
  5
19E
330
1B
100
AcDbEntity
 67
     1
  8
SLD-0
  6
SLD-実線
 62
     7
370
    18
100
AcDbCircle
 10
23.219289061
 20
30.3264317481
 30
0.0
 40
0.0393700779999983
100
AcDbArc
 50
180.0
 51
227.612009
  0
ARC
  5
19F
330
1B
100
AcDbEntity
 67
     1
  8
SLD-0
  6
SLD-実線
 62
     7
370
    18
100
AcDbCircle
 10
23.2859721306
 20
30.1589594893
 30
0.0
 40
0.0393700780000046
100
AcDbArc
 50
0.0
 51
47.612009
  0
ARC
  5
1A0
330
1B
100
AcDbEntity
 67
     1
  8
SLD-0
  6
SLD-実線
 62
     7
370
    18
100
AcDbCircle
 10
23.5006718402
 20
30.1572490384
 30
0.0
 40
0.039370078000002
100
AcDbArc
 50
0.0
 51
51.711897
  0
ARC
  5
1A1
330
1B
100
AcDbEntity
 67
     1
  8
SLD-0
  6
SLD-実線
 62
     7
370
    18
100
AcDbCircle
 10
23.5743611731
 20
30.3347089491
 30
0.0
 40
0.039370078000001
100
AcDbArc
 50
180.0
 51
240.0
  0
CIRCLE
  5
1A2
330
1B
100
AcDbEntity
 67
     1
  8
SLD-0
  6
SLD-破線
 62
     7
370
    18
100
AcDbCircle
 10
21.2121564931
 20
25.1938684946
 30
0.0
 40
0.157480311999997
  0
ARC
  5
1A3
330
1B
100
AcDbEntity
 67
     1
  8
SLD-0
  6
SLD-実線
 62
     7
370
    18
100
AcDbCircle
 10
20.0393172167
 20
7.587343414
 30
0.0
 40
0.3818897566000012
100
AcDbArc
 50
180.0
 51
209.90559
  0
ARC
  5
1A4
330
1B
100
AcDbEntity
 67
     1
  8
SLD-0
  6
SLD-実線
 62
     7
370
    18
100
AcDbCircle
 10
22.0471911947
 20
7.587343414
 30
0.0
 40
0.3818897566000012
100
AcDbArc
 50
330.09441
 51
0.0
  0
ARC
  5
1A5
330
1B
100
AcDbEntity
 67
     1
  8
SLD-0
  6
SLD-実線
 62
     7
370
    18
100
AcDbCircle
 10
19.7440416317
 20
8.7099484394
 30
0.0
 40
0.0866141716000026
100
AcDbArc
 50
90.0
 51
180.0
  0
ARC
  5
1A6
330
1B
100
AcDbEntity
 67
     1
  8
SLD-0
  6
SLD-実線
 62
     7
370
    18
100
AcDbCircle
 10
20.1574274507
 20
8.7473374867
 30
0.0
 40
0.1259842496000001
100
AcDbArc
 50
90.0
 51
157.000387
  0
ARC
  5
1A7
330
1B
100
AcDbEntity
 67
     1
  8
SLD-0
  6
SLD-実線
 62
     7
370
    18
100
AcDbCircle
 10
22.3424667797
 20
8.7099484394
 30
0.0
 40
0.0866141716000044
100
AcDbArc
 50
0.0
 51
90.0
  0
ARC
  5
1A8
330
1B
100
AcDbEntity
 67
     1
  8
SLD-0
  6
SLD-実線
 62
     7
370
    18
100
AcDbCircle
 10
21.9290809607
 20
8.7473374867
 30
0.0
 40
0.1259842496000023
100
AcDbArc
 50
22.999613
 51
90.0
  0
CIRCLE
  5
1A9
330
1B
100
AcDbEntity
 67
     1
  8
SLD-0
  6
SLD-実線
 62
     7
370
    18
100
AcDbCircle
 10
21.0432542057
 20
7.8747449834
 30
0.0
 40
0.4330708580000007
  0
ARC
  5
1AA
330
1B
100
AcDbEntity
 67
     1
  8
SLD-0
  6
SLD-実線
 62
     7
370
    18
100
AcDbCircle
 10
20.4444399721
 20
30.5188603415
 30
0.0
 40
0.196850389999998
100
AcDbArc
 50
90.0
 51
180.0
  0
ARC
  5
1AB
330
1B
100
AcDbEntity
 67
     1
  8
SLD-0
  6
SLD-実線
 62
     7
370
    18
100
AcDbCircle
 10
21.9798730141
 20
30.5188603415
 30
0.0
 40
0.1968503900000016
100
AcDbArc
 50
0.0
 51
90.0
  0
ARC
  5
1AC
330
1B
100
AcDbEntity
 67
     1
  8
SLD-0
  6
SLD-実線
 62
     7
370
    18
100
AcDbCircle
 10
20.4444399721
 20
27.8789078142
 30
0.0
 40
0.196850389999998
100
AcDbArc
 50
180.0
 51
270.0
  0
ARC
  5
1AD
330
1B
100
AcDbEntity
 67
     1
  8
SLD-0
  6
SLD-実線
 62
     7
370
    18
100
AcDbCircle
 10
21.9798730141
 20
27.8789078142
 30
0.0
 40
0.1968503900000016
100
AcDbArc
 50
270.0
 51
0.0
  0
ARC
  5
1AE
330
1B
100
AcDbEntity
 67
     1
  8
SLD-0
  6
SLD-実線
 62
     7
370
    18
100
AcDbCircle
 10
20.0704242311
 20
31.1781203506
 30
0.0
 40
0.039370078000001
100
AcDbArc
 50
90.0
 51
180.0
  0
ARC
  5
1AF
330
1B
100
AcDbEntity
 67
     1
  8
SLD-0
  6
SLD-実線
 62
     7
370
    18
100
AcDbCircle
 10
19.9916840751
 20
31.1753118324
 30
0.0
 40
0.039370078000002
100
AcDbArc
 50
274.236395
 51
0.0
  0
ARC
  5
1B0
330
1B
100
AcDbEntity
 67
     1
  8
SLD-0
  6
SLD-実線
 62
     7
370
    18
100
AcDbCircle
 10
19.0448331624
 20
30.9867409698
 30
0.0
 40
0.0787401560000064
100
AcDbArc
 50
94.236395
 51
178.437775
  0
ARC
  5
1B1
330
1B
100
AcDbEntity
 67
     1
  8
SLD-0
  6
SLD-実線
 62
     7
370
    18
100
AcDbCircle
 10
18.9680620471
 20
30.5875691806
 30
0.0
 40
0.0787401560000056
100
AcDbArc
 50
97.85227
 51
180.0
  0
ARC
  5
1B2
330
1B
100
AcDbEntity
 67
     1
  8
SLD-0
  6
SLD-実線
 62
     7
370
    18
100
AcDbCircle
 10
23.3794798239
 20
30.9867409698
 30
0.0
 40
0.078740156000004
100
AcDbArc
 50
1.562225
 51
85.763605
  0
ARC
  5
1B3
330
1B
100
AcDbEntity
 67
     1
  8
SLD-0
  6
SLD-実線
 62
     7
370
    18
100
AcDbCircle
 10
22.4326289111
 20
31.1753118324
 30
0.0
 40
0.0393700780000018
100
AcDbArc
 50
180.0
 51
265.763605
  0
ARC
  5
1B4
330
1B
100
AcDbEntity
 67
     1
  8
SLD-0
  6
SLD-実線
 62
     7
370
    18
100
AcDbCircle
 10
22.3538887551
 20
31.1781203506
 30
0.0
 40
0.039370078000001
100
AcDbArc
 50
0.0
 51
90.0
  0
ARC
  5
1B5
330
1B
100
AcDbEntity
 67
     1
  8
SLD-0
  6
SLD-実線
 62
     7
370
    18
100
AcDbCircle
 10
23.2931598541
 20
30.5868308127
 30
0.0
 40
0.0787401559999985
100
AcDbArc
 50
0.0
 51
90.0
  0
ARC
  5
1B6
330
1B
100
AcDbEntity
 67
     1
  8
SLD-0
  6
SLD-実線
 62
     7
370
    18
100
AcDbCircle
 10
23.4562509391
 20
30.5875691806
 30
0.0
 40
0.0787401560000003
100
AcDbArc
 50
0.0
 51
82.14773
  0
ARC
  5
1B7
330
1B
100
AcDbEntity
 67
     1
  8
SLD-0
  6
SLD-実線
 62
     7
370
    18
100
AcDbCircle
 10
23.101178827
 20
30.5868308127
 30
0.0
 40
0.0787401560000021
100
AcDbArc
 50
0.0
 51
90.0
  0
ARC
  5
1B8
330
1B
100
AcDbEntity
 67
     1
  8
SLD-0
  6
SLD-実線
 62
     7
370
    18
100
AcDbCircle
 10
18.8499518131
 20
30.3347089491
 30
0.0
 40
0.039370078000001
100
AcDbArc
 50
300.0
 51
0.0
  0
ARC
  5
1B9
330
1B
100
AcDbEntity
 67
     1
  8
SLD-0
  6
SLD-実線
 62
     7
370
    18
100
AcDbCircle
 10
23.4112700881
 20
30.3281421991
 30
0.0
 40
0.039370078000001
100
AcDbArc
 50
180.0
 51
231.711897
  0
ARC
  5
1BA
330
1B
100
AcDbEntity
 67
     1
  8
SLD-0
  6
SLD-実線
 62
     7
370
    18
100
AcDbCircle
 10
23.219289061
 20
30.3264317481
 30
0.0
 40
0.0393700779999983
100
AcDbArc
 50
180.0
 51
227.612009
  0
ARC
  5
1BB
330
1B
100
AcDbEntity
 67
     1
  8
SLD-0
  6
SLD-実線
 62
     7
370
    18
100
AcDbCircle
 10
23.5743611731
 20
30.3347089491
 30
0.0
 40
0.039370078000001
100
AcDbArc
 50
180.0
 51
240.0
  0
ARC
  5
1BC
330
1B
100
AcDbEntity
 67
     1
  8
SLD-0
  6
SLD-実線
 62
     7
370
    18
100
AcDbCircle
 10
23.6930981072
 20
30.1752349006
 30
0.0
 40
0.0393700780000011
100
AcDbArc
 50
1.59224
 51
60.0
  0
ARC
  5
1BD
330
1B
100
AcDbEntity
 67
     1
  8
SLD-0
  6
SLD-実線
 62
     7
370
    18
100
AcDbCircle
 10
23.5006718402
 20
30.1572490384
 30
0.0
 40
0.039370078000002
100
AcDbArc
 50
0.0
 51
51.711897
  0
ARC
  5
1BE
330
1B
100
AcDbEntity
 67
     1
  8
SLD-0
  6
SLD-実線
 62
     7
370
    18
100
AcDbCircle
 10
23.2859721306
 20
30.1589594893
 30
0.0
 40
0.0393700780000046
100
AcDbArc
 50
0.0
 51
47.612009
  0
ARC
  5
1BF
330
1B
100
AcDbEntity
 67
     1
  8
SLD-0
  6
SLD-実線
 62
     7
370
    18
100
AcDbCircle
 10
18.7312148791
 20
30.1752349006
 30
0.0
 40
0.0393700706772913
100
AcDbArc
 50
120.0
 51
178.407753305
  0
ENDSEC
  0
SECTION
  2
OBJECTS
  0
DICTIONARY
  5
C
330
0
100
AcDbDictionary
281
     1
  3
ACAD_GROUP
350
D
  3
ACAD_LAYOUT
350
1A
  3
ACAD_MLINESTYLE
350
17
  3
ACAD_PLOTSETTINGS
350
19
  3
ACAD_PLOTSTYLENAME
350
E
  3
ACAD_SCALELIST
350
47
  0
DICTIONARY
  5
D
102
{ACAD_REACTORS
330
C
102
}
330
C
100
AcDbDictionary
281
     1
  0
DICTIONARY
  5
1A
102
{ACAD_REACTORS
330
C
102
}
330
C
100
AcDbDictionary
281
     1
  3
Model
350
22
  3
SW_Model_5
350
1E
  0
DICTIONARY
  5
17
102
{ACAD_REACTORS
330
C
102
}
330
C
100
AcDbDictionary
281
     1
  3
Standard
350
18
  0
DICTIONARY
  5
19
102
{ACAD_REACTORS
330
C
102
}
330
C
100
AcDbDictionary
281
     1
  0
ACDBDICTIONARYWDFLT
  5
E
102
{ACAD_REACTORS
330
C
102
}
330
C
100
AcDbDictionary
281
     1
  3
Normal
350
F
100
AcDbDictionaryWithDefault
340
F
  0
DICTIONARY
  5
47
102
{ACAD_REACTORS
330
C
102
}
330
C
100
AcDbDictionary
281
     1
  3
A0
350
48
  3
A1
350
49
  3
A2
350
4A
  3
A3
350
4B
  3
A4
350
4C
  3
A5
350
4D
  3
A6
350
4E
  3
A7
350
4F
  3
A8
350
50
  3
A9
350
51
  3
B0
350
52
  3
B1
350
53
  3
B2
350
54
  3
B3
350
55
  3
B4
350
56
  3
B5
350
57
  3
B6
350
58
  3
B7
350
59
  3
B8
350
5A
  3
B9
350
5B
  3
C0
350
5C
  3
C1
350
5D
  3
C2
350
5E
  3
C3
350
5F
  3
C4
350
60
  3
C5
350
61
  3
C6
350
62
  3
C7
350
63
  3
C8
350
64
  3
C9
350
65
  3
D0
350
66
  3
D1
350
67
  3
D2
350
68
  0
LAYOUT
  5
22
102
{ACAD_REACTORS
330
1A
102
}
330
1A
100
AcDbPlotSettings
  1

  2
none_device
  4
Letter_(8.50_x_11.00_Inches)
  6

 40
6.35
 41
6.35
 42
6.35000508
 43
6.35000508
 44
215.9
 45
279.4
 46
0.0
 47
0.0
 48
0.0
 49
0.0
140
0.0
141
0.0
142
1.0
143
1.0
 70
  1712
 72
     0
 73
     0
 74
     0
  7

 75
     0
147
1.0
148
0.0
149
0.0
100
AcDbLayout
  1
Model
 70
     1
 71
     0
 10
0.0
 20
0.0
 11
44.0
 21
34.0
 12
0.0
 22
0.0
 32
0.0
 14
0.0
 24
0.0
 34
0.0
 15
44.0
 25
34.0
 35
0.0
146
0.0
 13
0.0
 23
0.0
 33
0.0
 16
1.0
 26
0.0
 36
0.0
 17
0.0
 27
1.0
 37
0.0
 76
     0
330
1F
331
29
  0
LAYOUT
  5
1E
102
{ACAD_REACTORS
330
1A
102
}
330
1A
100
AcDbPlotSettings
  1

  2
none_device
  4
ANSI_E_(44.00_x_34.00_Inches)
  6

 40
6.35
 41
19.05
 42
6.3499746
 43
19.0499873
 44
1117.6
 45
863.6
 46
0.0
 47
0.0
 48
0.0
 49
0.0
140
0.0
141
0.0
142
1.0
143
1.0
 70
  4832
 72
     0
 73
     0
 74
     1
  7

 75
     0
147
1.0
148
0.0
149
0.0
100
AcDbLayout
  1
SW_Model_5
 70
     1
 71
     1
 10
0.0
 20
0.0
 11
44.0
 21
34.0
 12
0.0
 22
0.0
 32
0.0
 14
0.0
 24
0.0
 34
0.0
 15
44.0
 25
34.0
 35
0.0
146
0.0
 13
0.0
 23
0.0
 33
0.0
 16
1.0
 26
0.0
 36
0.0
 17
0.0
 27
1.0
 37
0.0
 76
     0
330
1B
331
78
  0
MLINESTYLE
  5
18
102
{ACAD_REACTORS
330
17
102
}
330
17
100
AcDbMlineStyle
  2
Standard
 70
     0
  3

 62
   256
 51
90.0
 52
90.0
 71
     2
 49
0.5
 62
   256
  6
BYLAYER
 49
-0.5
 62
   256
  6
BYLAYER
  0
ACDBPLACEHOLDER
  5
F
102
{ACAD_REACTORS
330
E
102
}
330
E
  0
SCALE
  5
48
102
{ACAD_REACTORS
330
47
102
}
330
47
100
AcDbScale
 70
     0
300
1:1
140
1.0
141
1.0
290
     1
  0
SCALE
  5
49
102
{ACAD_REACTORS
330
47
102
}
330
47
100
AcDbScale
 70
     0
300
1:2
140
1.0
141
2.0
290
     0
  0
SCALE
  5
4A
102
{ACAD_REACTORS
330
47
102
}
330
47
100
AcDbScale
 70
     0
300
1:4
140
1.0
141
4.0
290
     0
  0
SCALE
  5
4B
102
{ACAD_REACTORS
330
47
102
}
330
47
100
AcDbScale
 70
     0
300
1:5
140
1.0
141
5.0
290
     0
  0
SCALE
  5
4C
102
{ACAD_REACTORS
330
47
102
}
330
47
100
AcDbScale
 70
     0
300
1:8
140
1.0
141
8.0
290
     0
  0
SCALE
  5
4D
102
{ACAD_REACTORS
330
47
102
}
330
47
100
AcDbScale
 70
     0
300
1:10
140
1.0
141
10.0
290
     0
  0
SCALE
  5
4E
102
{ACAD_REACTORS
330
47
102
}
330
47
100
AcDbScale
 70
     0
300
1:16
140
1.0
141
16.0
290
     0
  0
SCALE
  5
4F
102
{ACAD_REACTORS
330
47
102
}
330
47
100
AcDbScale
 70
     0
300
1:20
140
1.0
141
20.0
290
     0
  0
SCALE
  5
50
102
{ACAD_REACTORS
330
47
102
}
330
47
100
AcDbScale
 70
     0
300
1:30
140
1.0
141
30.0
290
     0
  0
SCALE
  5
51
102
{ACAD_REACTORS
330
47
102
}
330
47
100
AcDbScale
 70
     0
300
1:40
140
1.0
141
40.0
290
     0
  0
SCALE
  5
52
102
{ACAD_REACTORS
330
47
102
}
330
47
100
AcDbScale
 70
     0
300
1:50
140
1.0
141
50.0
290
     0
  0
SCALE
  5
53
102
{ACAD_REACTORS
330
47
102
}
330
47
100
AcDbScale
 70
     0
300
1:100
140
1.0
141
100.0
290
     0
  0
SCALE
  5
54
102
{ACAD_REACTORS
330
47
102
}
330
47
100
AcDbScale
 70
     0
300
2:1
140
2.0
141
1.0
290
     0
  0
SCALE
  5
55
102
{ACAD_REACTORS
330
47
102
}
330
47
100
AcDbScale
 70
     0
300
4:1
140
4.0
141
1.0
290
     0
  0
SCALE
  5
56
102
{ACAD_REACTORS
330
47
102
}
330
47
100
AcDbScale
 70
     0
300
8:1
140
8.0
141
1.0
290
     0
  0
SCALE
  5
57
102
{ACAD_REACTORS
330
47
102
}
330
47
100
AcDbScale
 70
     0
300
10:1
140
10.0
141
1.0
290
     0
  0
SCALE
  5
58
102
{ACAD_REACTORS
330
47
102
}
330
47
100
AcDbScale
 70
     0
300
100:1
140
100.0
141
1.0
290
     0
  0
SCALE
  5
59
102
{ACAD_REACTORS
330
47
102
}
330
47
100
AcDbScale
 70
     0
300
1/128" = 1'-0"
140
0.0078125
141
12.0
290
     0
  0
SCALE
  5
5A
102
{ACAD_REACTORS
330
47
102
}
330
47
100
AcDbScale
 70
     0
300
1/64" = 1'-0"
140
0.015625
141
12.0
290
     0
  0
SCALE
  5
5B
102
{ACAD_REACTORS
330
47
102
}
330
47
100
AcDbScale
 70
     0
300
1/32" = 1'-0"
140
0.03125
141
12.0
290
     0
  0
SCALE
  5
5C
102
{ACAD_REACTORS
330
47
102
}
330
47
100
AcDbScale
 70
     0
300
1/16" = 1'-0"
140
0.0625
141
12.0
290
     0
  0
SCALE
  5
5D
102
{ACAD_REACTORS
330
47
102
}
330
47
100
AcDbScale
 70
     0
300
3/32" = 1'-0"
140
0.09375
141
12.0
290
     0
  0
SCALE
  5
5E
102
{ACAD_REACTORS
330
47
102
}
330
47
100
AcDbScale
 70
     0
300
1/8" = 1'-0"
140
0.125
141
12.0
290
     0
  0
SCALE
  5
5F
102
{ACAD_REACTORS
330
47
102
}
330
47
100
AcDbScale
 70
     0
300
3/16" = 1'-0"
140
0.1875
141
12.0
290
     0
  0
SCALE
  5
60
102
{ACAD_REACTORS
330
47
102
}
330
47
100
AcDbScale
 70
     0
300
1/4" = 1'-0"
140
0.25
141
12.0
290
     0
  0
SCALE
  5
61
102
{ACAD_REACTORS
330
47
102
}
330
47
100
AcDbScale
 70
     0
300
3/8" = 1'-0"
140
0.375
141
12.0
290
     0
  0
SCALE
  5
62
102
{ACAD_REACTORS
330
47
102
}
330
47
100
AcDbScale
 70
     0
300
1/2" = 1'-0"
140
0.5
141
12.0
290
     0
  0
SCALE
  5
63
102
{ACAD_REACTORS
330
47
102
}
330
47
100
AcDbScale
 70
     0
300
3/4" = 1'-0"
140
0.75
141
12.0
290
     0
  0
SCALE
  5
64
102
{ACAD_REACTORS
330
47
102
}
330
47
100
AcDbScale
 70
     0
300
1" = 1'-0"
140
1.0
141
12.0
290
     0
  0
SCALE
  5
65
102
{ACAD_REACTORS
330
47
102
}
330
47
100
AcDbScale
 70
     0
300
1-1/2" = 1'-0"
140
1.5
141
12.0
290
     0
  0
SCALE
  5
66
102
{ACAD_REACTORS
330
47
102
}
330
47
100
AcDbScale
 70
     0
300
3" = 1'-0"
140
3.0
141
12.0
290
     0
  0
SCALE
  5
67
102
{ACAD_REACTORS
330
47
102
}
330
47
100
AcDbScale
 70
     0
300
6" = 1'-0"
140
6.0
141
12.0
290
     0
  0
SCALE
  5
68
102
{ACAD_REACTORS
330
47
102
}
330
47
100
AcDbScale
 70
     0
300
1'-0" = 1'-0"
140
12.0
141
12.0
290
     0
  0
ENDSEC
  0
EOF
