  0
SECTION
  2
HEADER
  9
$ACADVER
  1
AC1015
  9
$ACADMAINTVER
 70
     6
  9
$DWGCODEPAGE
  3
DOS932
  9
$INSBASE
 10
0.0
 20
0.0
 30
0.0
  9
$EXTMIN
 10
0.0
 20
0.0
 30
0.0
  9
$EXTMAX
 10
44.0
 20
34.0
 30
0.0
  9
$LIMMIN
 10
0.0
 20
0.0
  9
$LIMMAX
 10
44.0
 20
34.0
  9
$ORTHOMODE
 70
     0
  9
$REGENMODE
 70
     1
  9
$FILLMODE
 70
     1
  9
$QTEXTMODE
 70
     0
  9
$MIRRTEXT
 70
     1
  9
$LTSCALE
 40
1.0
  9
$ATTMODE
 70
     1
  9
$TEXTSIZE
 40
0.1377952756
  9
$TRACEWID
 40
0.05
  9
$TEXTSTYLE
  7
STANDARD
  9
$CLAYER
  8
0
  9
$CELTYPE
  6
ByLayer
  9
$CECOLOR
 62
   256
  9
$CELTSCALE
 40
1.0
  9
$DISPSILH
 70
     0
  9
$DIMSCALE
 40
1.0
  9
$DIMASZ
 40
0.14
  9
$DIMEXO
 40
0.0393700787
  9
$DIMDLI
 40
0.38
  9
$DIMRND
 40
0.0
  9
$DIMDLE
 40
0.0
  9
$DIMEXE
 40
0.0393700787
  9
$DIMTP
 40
0.0
  9
$DIMTM
 40
0.0
  9
$DIMTXT
 40
0.1377952756
  9
$DIMCEN
 40
0.09
  9
$DIMTSZ
 40
0.0
  9
$DIMTOL
 70
     0
  9
$DIMLIM
 70
     0
  9
$DIMTIH
 70
     1
  9
$DIMTOH
 70
     1
  9
$DIMSE1
 70
     0
  9
$DIMSE2
 70
     0
  9
$DIMTAD
 70
     1
  9
$DIMZIN
 70
     1
  9
$DIMBLK
  1

  9
$DIMASO
 70
     1
  9
$DIMSHO
 70
     1
  9
$DIMPOST
  1

  9
$DIMAPOST
  1

  9
$DIMALT
 70
     0
  9
$DIMALTD
 70
     2
  9
$DIMALTF
 40
25.4
  9
$DIMLFAC
 40
1.0
  9
$DIMTOFL
 70
     0
  9
$DIMTVP
 40
0.0
  9
$DIMTIX
 70
     0
  9
$DIMSOXD
 70
     0
  9
$DIMSAH
 70
     0
  9
$DIMBLK1
  1

  9
$DIMBLK2
  1

  9
$DIMSTYLE
  2
Standard
  9
$DIMCLRD
 70
     0
  9
$DIMCLRE
 70
     0
  9
$DIMCLRT
 70
     0
  9
$DIMTFAC
 40
1.0
  9
$DIMGAP
 40
0.06
  9
$DIMJUST
 70
     0
  9
$DIMSD1
 70
     0
  9
$DIMSD2
 70
     0
  9
$DIMTOLJ
 70
     1
  9
$DIMTZIN
 70
     1
  9
$DIMALTZ
 70
     0
  9
$DIMALTTZ
 70
     0
  9
$DIMUPT
 70
     0
  9
$DIMDEC
 70
     0
  9
$DIMTDEC
 70
     4
  9
$DIMALTU
 70
     2
  9
$DIMALTTD
 70
     2
  9
$DIMTXSTY
  7
STANDARD
  9
$DIMAUNIT
 70
     0
  9
$DIMADEC
 70
     0
  9
$DIMALTRND
 40
0.0
  9
$DIMAZIN
 70
     0
  9
$DIMDSEP
 70
    46
  9
$DIMATFIT
 70
     3
  9
$DIMFRAC
 70
     0
  9
$DIMLDRBLK
  1

  9
$DIMLUNIT
 70
     2
  9
$DIMLWD
 70
    -2
  9
$DIMLWE
 70
    -2
  9
$DIMTMOVE
 70
     0
  9
$LUNITS
 70
     2
  9
$LUPREC
 70
     3
  9
$SKETCHINC
 40
0.1
  9
$FILLETRAD
 40
0.5
  9
$AUNITS
 70
     0
  9
$AUPREC
 70
     0
  9
$MENU
  1
.
  9
$ELEVATION
 40
0.0
  9
$PELEVATION
 40
0.0
  9
$THICKNESS
 40
0.0
  9
$LIMCHECK
 70
     0
  9
$CHAMFERA
 40
0.0
  9
$CHAMFERB
 40
0.0
  9
$CHAMFERC
 40
0.0
  9
$CHAMFERD
 40
0.0
  9
$SKPOLY
 70
     0
  9
$TDCREATE
 40
2460020.326914491
  9
$TDUCREATE
 40
2460019.951914491
  9
$TDUPDATE
 40
2460020.326916886
  9
$TDUUPDATE
 40
2460019.951916886
  9
$TDINDWG
 40
0.0000000116
  9
$TDUSRTIMER
 40
0.0000000116
  9
$USRTIMER
 70
     1
  9
$ANGBASE
 50
0.0
  9
$ANGDIR
 70
     0
  9
$PDMODE
 70
     0
  9
$PDSIZE
 40
-1.0
  9
$PLINEWID
 40
0.0
  9
$SPLFRAME
 70
     0
  9
$SPLINETYPE
 70
     6
  9
$SPLINESEGS
 70
     8
  9
$HANDSEED
  5
21B
  9
$SURFTAB1
 70
     6
  9
$SURFTAB2
 70
     6
  9
$SURFTYPE
 70
     6
  9
$SURFU
 70
     6
  9
$SURFV
 70
     6
  9
$UCSBASE
  2

  9
$UCSNAME
  2

  9
$UCSORG
 10
0.0
 20
0.0
 30
0.0
  9
$UCSXDIR
 10
1.0
 20
0.0
 30
0.0
  9
$UCSYDIR
 10
0.0
 20
1.0
 30
0.0
  9
$UCSORTHOREF
  2

  9
$UCSORTHOVIEW
 70
     0
  9
$UCSORGTOP
 10
0.0
 20
0.0
 30
0.0
  9
$UCSORGBOTTOM
 10
0.0
 20
0.0
 30
0.0
  9
$UCSORGLEFT
 10
0.0
 20
0.0
 30
0.0
  9
$UCSORGRIGHT
 10
0.0
 20
0.0
 30
0.0
  9
$UCSORGFRONT
 10
0.0
 20
0.0
 30
0.0
  9
$UCSORGBACK
 10
0.0
 20
0.0
 30
0.0
  9
$PUCSBASE
  2

  9
$PUCSNAME
  2

  9
$PUCSORG
 10
0.0
 20
0.0
 30
0.0
  9
$PUCSXDIR
 10
1.0
 20
0.0
 30
0.0
  9
$PUCSYDIR
 10
0.0
 20
1.0
 30
0.0
  9
$PUCSORTHOREF
  2

  9
$PUCSORTHOVIEW
 70
     0
  9
$PUCSORGTOP
 10
0.0
 20
0.0
 30
0.0
  9
$PUCSORGBOTTOM
 10
0.0
 20
0.0
 30
0.0
  9
$PUCSORGLEFT
 10
0.0
 20
0.0
 30
0.0
  9
$PUCSORGRIGHT
 10
0.0
 20
0.0
 30
0.0
  9
$PUCSORGFRONT
 10
0.0
 20
0.0
 30
0.0
  9
$PUCSORGBACK
 10
0.0
 20
0.0
 30
0.0
  9
$USERI1
 70
     0
  9
$USERI2
 70
     0
  9
$USERI3
 70
     0
  9
$USERI4
 70
     0
  9
$USERI5
 70
     0
  9
$USERR1
 40
0.0
  9
$USERR2
 40
0.0
  9
$USERR3
 40
0.0
  9
$USERR4
 40
0.0
  9
$USERR5
 40
0.0
  9
$WORLDVIEW
 70
     1
  9
$SHADEDGE
 70
     3
  9
$SHADEDIF
 70
    70
  9
$TILEMODE
 70
     0
  9
$MAXACTVP
 70
    64
  9
$PINSBASE
 10
0.0
 20
0.0
 30
0.0
  9
$PLIMCHECK
 70
     0
  9
$PEXTMIN
 10
0.0
 20
0.0
 30
0.0
  9
$PEXTMAX
 10
44.0
 20
34.0
 30
0.0
  9
$PLIMMIN
 10
0.0
 20
0.0
  9
$PLIMMAX
 10
44.0
 20
34.0
  9
$UNITMODE
 70
     0
  9
$VISRETAIN
 70
     1
  9
$PLINEGEN
 70
     0
  9
$PSLTSCALE
 70
     1
  9
$TREEDEPTH
 70
  3020
  9
$CMLSTYLE
  2
Standard
  9
$CMLJUST
 70
     0
  9
$CMLSCALE
 40
1.0
  9
$PROXYGRAPHICS
 70
     1
  9
$MEASUREMENT
 70
     0
  9
$CELWEIGHT
370
    -1
  9
$ENDCAPS
280
     0
  9
$JOINSTYLE
280
     0
  9
$LWDISPLAY
290
     1
  9
$INSUNITS
 70
     1
  9
$HYPERLINKBASE
  1

  9
$STYLESHEET
  1

  9
$XEDIT
290
     1
  9
$CEPSNTYPE
380
     0
  9
$PSTYLEMODE
290
     1
  9
$FINGERPRINTGUID
  2
{4ea9d6dd-cf20-46b9-83aa-56d47337345b}
  9
$VERSIONGUID
  2
{FAEB1C32-E019-11D5-929B-00C0DF256EC4}
  9
$EXTNAMES
290
     1
  9
$PSVPSCALE
 40
0.0
  9
$OLESTARTUP
290
     0
  0
ENDSEC
  0
SECTION
  2
CLASSES
  0
CLASS
  1
ACDBDICTIONARYWDFLT
  2
AcDbDictionaryWithDefault
  3
ObjectDBX Classes
 90
        0
280
     0
281
     0
  0
CLASS
  1
VISUALSTYLE
  2
AcDbVisualStyle
  3
ObjectDBX Classes
 90
     4095
280
     0
281
     0
  0
CLASS
  1
MATERIAL
  2
AcDbMaterial
  3
ObjectDBX Classes
 90
     1153
280
     0
281
     0
  0
CLASS
  1
SCALE
  2
AcDbScale
  3
ObjectDBX Classes
 90
     1153
280
     0
281
     0
  0
CLASS
  1
TABLESTYLE
  2
AcDbTableStyle
  3
ObjectDBX Classes
 90
     4095
280
     0
281
     0
  0
CLASS
  1
MLEADERSTYLE
  2
AcDbMLeaderStyle
  3
ACDB_MLEADERSTYLE_CLASS
 90
     4095
280
     0
281
     0
  0
CLASS
  1
SUN
  2
AcDbSun
  3
SCENEOE
 90
     1153
280
     0
281
     0
  0
CLASS
  1
ACDBPLACEHOLDER
  2
AcDbPlaceHolder
  3
ObjectDBX Classes
 90
        0
280
     0
281
     0
  0
CLASS
  1
LAYOUT
  2
AcDbLayout
  3
ObjectDBX Classes
 90
        0
280
     0
281
     0
  0
ENDSEC
  0
SECTION
  2
TABLES
  0
TABLE
  2
VPORT
  5
8
330
0
100
AcDbSymbolTable
 70
     1
  0
VPORT
  5
29
330
8
100
AcDbSymbolTableRecord
100
AcDbViewportTableRecord
  2
*Active
 70
     0
 10
0.0
 20
0.0
 11
1.0
 21
1.0
 12
22.0
 22
17.0
 13
0.0
 23
0.0
 14
0.5
 24
0.5
 15
0.5
 25
0.5
 16
0.0
 26
0.0
 36
1.0
 17
0.0
 27
0.0
 37
0.0
 40
34.0
 41
1.2941176471
 42
50.0
 43
0.0
 44
0.0
 50
0.0
 51
0.0
 71
     0
 72
  2000
 73
     1
 74
     3
 75
     0
 76
     0
 77
     0
 78
     0
281
     0
 65
     1
110
0.0
120
0.0
130
0.0
111
1.0
121
0.0
131
0.0
112
0.0
122
1.0
132
0.0
 79
     0
146
0.0
  0
ENDTAB
  0
TABLE
  2
LTYPE
  5
5
330
0
100
AcDbSymbolTable
 70
     8
  0
LTYPE
  5
14
330
5
100
AcDbSymbolTableRecord
100
AcDbLinetypeTableRecord
  2
ByBlock
 70
     0
  3

 72
    65
 73
     0
 40
0.0
  0
LTYPE
  5
15
330
5
100
AcDbSymbolTableRecord
100
AcDbLinetypeTableRecord
  2
ByLayer
 70
     0
  3

 72
    65
 73
     0
 40
0.0
  0
LTYPE
  5
16
330
5
100
AcDbSymbolTableRecord
100
AcDbLinetypeTableRecord
  2
Continuous
 70
     0
  3
Solid line
 72
    65
 73
     0
 40
0.0
  0
LTYPE
  5
6E
330
5
100
AcDbSymbolTableRecord
100
AcDbLinetypeTableRecord
  2
SLD-実線
 70
     0
  3
SolidWorks Line Style
 72
    65
 73
     0
 40
0.0
  0
LTYPE
  5
6F
330
5
100
AcDbSymbolTableRecord
100
AcDbLinetypeTableRecord
  2
SLD-破線
 70
     0
  3
SolidWorks Line Style
 72
    65
 73
     2
 40
0.075
 49
0.05
 74
     0
 49
-0.025
 74
     0
  0
LTYPE
  5
70
330
5
100
AcDbSymbolTableRecord
100
AcDbLinetypeTableRecord
  2
SLD-2点鎖線
 70
     0
  3
SolidWorks Line Style
 72
    65
 73
     6
 40
0.5
 49
0.25
 74
     0
 49
-0.05
 74
     0
 49
0.05
 74
     0
 49
-0.05
 74
     0
 49
0.05
 74
     0
 49
-0.05
 74
     0
  0
LTYPE
  5
71
330
5
100
AcDbSymbolTableRecord
100
AcDbLinetypeTableRecord
  2
SLD-鎖線
 70
     0
  3
SolidWorks Line Style
 72
    65
 73
     4
 40
0.4
 49
0.25
 74
     0
 49
-0.05
 74
     0
 49
0.05
 74
     0
 49
-0.05
 74
     0
  0
LTYPE
  5
72
330
5
100
AcDbSymbolTableRecord
100
AcDbLinetypeTableRecord
  2
SLD-1点鎖線(中心線)
 70
     0
  3
SolidWorks Line Style
 72
    65
 73
     4
 40
1.35
 49
1.2
 74
     0
 49
-0.05
 74
     0
 49
0.05
 74
     0
 49
-0.05
 74
     0
  0
LTYPE
  5
73
330
5
100
AcDbSymbolTableRecord
100
AcDbLinetypeTableRecord
  2
SLD-点線
 70
     0
  3
SolidWorks Line Style
 72
    65
 73
     2
 40
0.025
 49
0.0
 74
     0
 49
-0.025
 74
     0
  0
LTYPE
  5
74
330
5
100
AcDbSymbolTableRecord
100
AcDbLinetypeTableRecord
  2
SLD-細-太鎖線(切断面)
 70
     0
  3
SolidWorks Line Style
 72
    65
 73
     4
 40
0.4
 49
0.25
 74
     0
 49
-0.05
 74
     0
 49
0.05
 74
     0
 49
-0.05
 74
     0
  0
ENDTAB
  0
TABLE
  2
LAYER
  5
2
330
0
100
AcDbSymbolTable
 70
     4
  0
LAYER
  5
10
330
2
100
AcDbSymbolTableRecord
100
AcDbLayerTableRecord
  2
0
 70
     0
 62
     7
  6
Continuous
370
    -3
390
F
  0
LAYER
  5
75
330
2
100
AcDbSymbolTableRecord
100
AcDbLayerTableRecord
  2
SLD-0
 70
     0
 62
   179
  6
SLD-実線
370
    -3
390
F
  0
LAYER
  5
76
330
2
100
AcDbSymbolTableRecord
100
AcDbLayerTableRecord
  2
100
 70
     0
 62
   179
  6
SLD-実線
370
    -3
390
F
  0
LAYER
  5
77
330
2
100
AcDbSymbolTableRecord
100
AcDbLayerTableRecord
  2
1
 70
     0
 62
   179
  6
SLD-実線
370
    -3
390
F
  0
ENDTAB
  0
TABLE
  2
STYLE
  5
3
330
0
100
AcDbSymbolTable
 70
     4
  0
STYLE
  5
11
330
3
100
AcDbSymbolTableRecord
100
AcDbTextStyleTableRecord
  2
STANDARD
 70
     0
 40
0.0
 41
1.0
 50
0.0
 71
     0
 42
0.1377952756
  3
GOTHIC.TTF
  4

1001
ACAD
1000
CENTURY GOTHIC
1071
       34
  0
STYLE
  5
80
330
3
100
AcDbSymbolTableRecord
100
AcDbTextStyleTableRecord
  2
SLDTEXTSTYLE0
 70
     0
 40
0.0
 41
0.5952377551
 50
0.0
 71
     0
 42
0.1377952756
  3
SWMONO.TTF
  4
bigfont
1001
ACAD
1000
SWMONO
1071
      258
  0
STYLE
  5
86
330
3
100
AcDbSymbolTableRecord
100
AcDbTextStyleTableRecord
  2
SLDTEXTSTYLE1
 70
     0
 40
0.0
 41
0.7142857143
 50
0.0
 71
     0
 42
0.1377952756
  3
SWMONO.TTF
  4

1001
ACAD
1000
SWMONO
1071
      258
  0
STYLE
  5
98
330
3
100
AcDbSymbolTableRecord
100
AcDbTextStyleTableRecord
  2
SLDTEXTSTYLE2
 70
     0
 40
0.0
 41
0.6696428571
 50
0.0
 71
     0
 42
0.1377952756
  3
SWMONO.TTF
  4

1001
ACAD
1000
SWMONO
1071
      258
  0
ENDTAB
  0
TABLE
  2
VIEW
  5
6
330
0
100
AcDbSymbolTable
 70
     0
  0
ENDTAB
  0
TABLE
  2
UCS
  5
7
330
0
100
AcDbSymbolTable
 70
     0
  0
ENDTAB
  0
TABLE
  2
APPID
  5
9
330
0
100
AcDbSymbolTable
 70
     1
  0
APPID
  5
12
330
9
100
AcDbSymbolTableRecord
100
AcDbRegAppTableRecord
  2
ACAD
 70
     0
  0
ENDTAB
  0
TABLE
  2
DIMSTYLE
  5
A
330
0
100
AcDbSymbolTable
 70
     1
100
AcDbDimStyleTable
  0
DIMSTYLE
105
27
330
A
100
AcDbSymbolTableRecord
100
AcDbDimStyleTableRecord
  2
Standard
 70
     0
178
     0
340
11
  0
ENDTAB
  0
TABLE
  2
BLOCK_RECORD
  5
1
330
0
100
AcDbSymbolTable
 70
    17
  0
BLOCK_RECORD
  5
1F
330
1
100
AcDbSymbolTableRecord
100
AcDbBlockTableRecord
  2
*Model_Space
340
22
  0
BLOCK_RECORD
  5
1B
330
1
100
AcDbSymbolTableRecord
100
AcDbBlockTableRecord
  2
*Paper_Space
340
1E
  0
BLOCK_RECORD
  5
78
330
1
100
AcDbSymbolTableRecord
100
AcDbBlockTableRecord
  2
ZU_DIM_00033
340
0
  0
BLOCK_RECORD
  5
7D
330
1
100
AcDbSymbolTableRecord
100
AcDbBlockTableRecord
  2
SW_NOTE_0
340
0
102
{BLKREFS
331
82
102
}
  0
BLOCK_RECORD
  5
83
330
1
100
AcDbSymbolTableRecord
100
AcDbBlockTableRecord
  2
SW_NOTE_0_1
340
0
102
{BLKREFS
331
88
102
}
  0
BLOCK_RECORD
  5
89
330
1
100
AcDbSymbolTableRecord
100
AcDbBlockTableRecord
  2
_OPEN30
340
0
102
{BLKREFS
331
D3
331
D4
331
D5
331
D6
331
D7
331
D8
331
D9
331
DA
331
DB
331
DC
331
DD
331
DE
102
}
  0
BLOCK_RECORD
  5
8F
330
1
100
AcDbSymbolTableRecord
100
AcDbBlockTableRecord
  2
ZU_DIM_00029
340
0
  0
BLOCK_RECORD
  5
95
330
1
100
AcDbSymbolTableRecord
100
AcDbBlockTableRecord
  2
SW_NOTE_0_2
340
0
102
{BLKREFS
331
9A
102
}
  0
BLOCK_RECORD
  5
9B
330
1
100
AcDbSymbolTableRecord
100
AcDbBlockTableRecord
  2
ZU_DIM_00034
340
0
  0
BLOCK_RECORD
  5
A1
330
1
100
AcDbSymbolTableRecord
100
AcDbBlockTableRecord
  2
SW_NOTE_0_3
340
0
102
{BLKREFS
331
A5
102
}
  0
BLOCK_RECORD
  5
A6
330
1
100
AcDbSymbolTableRecord
100
AcDbBlockTableRecord
  2
ZU_DIM_00031
340
0
  0
BLOCK_RECORD
  5
AB
330
1
100
AcDbSymbolTableRecord
100
AcDbBlockTableRecord
  2
SW_NOTE_0_4
340
0
102
{BLKREFS
331
AF
102
}
  0
BLOCK_RECORD
  5
B0
330
1
100
AcDbSymbolTableRecord
100
AcDbBlockTableRecord
  2
SW_NOTE_0_5
340
0
102
{BLKREFS
331
B4
102
}
  0
BLOCK_RECORD
  5
B5
330
1
100
AcDbSymbolTableRecord
100
AcDbBlockTableRecord
  2
ZU_DIM_00030
340
0
  0
BLOCK_RECORD
  5
BA
330
1
100
AcDbSymbolTableRecord
100
AcDbBlockTableRecord
  2
SW_NOTE_0_6
340
0
102
{BLKREFS
331
BE
102
}
  0
BLOCK_RECORD
  5
BF
330
1
100
AcDbSymbolTableRecord
100
AcDbBlockTableRecord
  2
SW_NOTE_0_7
340
0
102
{BLKREFS
331
C3
102
}
  0
BLOCK_RECORD
  5
C4
330
1
100
AcDbSymbolTableRecord
100
AcDbBlockTableRecord
  2
ZU_DIM_00032
340
0
  0
BLOCK_RECORD
  5
C9
330
1
100
AcDbSymbolTableRecord
100
AcDbBlockTableRecord
  2
SW_NOTE_0_8
340
0
102
{BLKREFS
331
CD
102
}
  0
BLOCK_RECORD
  5
CE
330
1
100
AcDbSymbolTableRecord
100
AcDbBlockTableRecord
  2
SW_NOTE_0_9
340
0
102
{BLKREFS
331
D2
102
}
  0
ENDTAB
  0
ENDSEC
  0
SECTION
  2
BLOCKS
  0
BLOCK
  5
20
330
1F
100
AcDbEntity
  8
0
100
AcDbBlockBegin
  2
*Model_Space
 70
     0
 10
0.0
 20
0.0
 30
0.0
  3
*Model_Space
  1

  0
ENDBLK
  5
21
330
1F
100
AcDbEntity
  8
0
100
AcDbBlockEnd
  0
BLOCK
  5
1C
330
1B
100
AcDbEntity
 67
     1
  8
0
100
AcDbBlockBegin
  2
*Paper_Space
 70
     0
 10
0.0
 20
0.0
 30
0.0
  3
*Paper_Space
  1

  0
ENDBLK
  5
1D
330
1B
100
AcDbEntity
 67
     1
  8
0
100
AcDbBlockEnd
  0
BLOCK
  5
79
330
78
100
AcDbEntity
  8
0
100
AcDbBlockBegin
  2
ZU_DIM_00033
 70
     0
 10
0.0
 20
0.0
 30
0.0
  3
ZU_DIM_00033
  1

  0
ARC
  5
7B
330
78
100
AcDbEntity
  8
SLD-0
  6
SLD-実線
370
    18
100
AcDbCircle
 10
-260.603052
 20
-41.680577
 30
0.0
 40
21.99999800000001
100
AcDbArc
 50
220.777012
 51
231.194419
  0
LINE
  5
7C
330
78
100
AcDbEntity
  8
SLD-0
  6
SLD-実線
370
    18
100
AcDbLine
 10
-275.88948
 20
-57.502245
 30
0.0
 11
-245.316624
 21
-25.858913
 31
0.0
  0
INSERT
  5
82
330
78
100
AcDbEntity
  8
SLD-0
 62
   179
100
AcDbBlockReference
  2
SW_NOTE_0
 10
-255.1674113963
 20
-38.0873988185
 30
0.0
  0
INSERT
  5
88
330
78
100
AcDbEntity
  8
SLD-0
 62
   179
100
AcDbBlockReference
  2
SW_NOTE_0_1
 10
-254.8250043963
 20
-37.7329938185
 30
0.0
  0
INSERT
  5
D3
330
78
100
AcDbEntity
  8
0
  6
Continuous
 62
     7
100
AcDbBlockReference
  2
_OPEN30
 10
-245.316624
 20
-25.858913
 30
0.0
 41
2.0
 42
2.0
 43
2.0
 50
45.985719
  0
INSERT
  5
D4
330
78
100
AcDbEntity
  8
0
  6
Continuous
 62
     7
100
AcDbBlockReference
  2
_OPEN30
 10
-275.88948
 20
-57.502245
 30
0.0
 41
2.0
 42
2.0
 43
2.0
 50
225.985719
  0
ENDBLK
  5
7A
330
78
100
AcDbEntity
  8
0
100
AcDbBlockEnd
  0
BLOCK
  5
7E
330
7D
100
AcDbEntity
  8
0
100
AcDbBlockBegin
  2
SW_NOTE_0
 70
     0
 10
0.0
 20
0.0
 30
0.0
  3
SW_NOTE_0
  1

  0
MTEXT
  5
81
330
7D
100
AcDbEntity
  8
SLD-0
 62
     0
100
AcDbMText
 10
-3.1402919375
 20
3.0340575798
 30
0.0
 40
3.2
 41
0.0
 71
     1
 72
     1
  1
φ
  7
SLDTEXTSTYLE0
 11
0.6948376321108802
 21
0.7191666461972115
 31
0.0
 73
     1
 44
1.0
  0
ENDBLK
  5
7F
330
7D
100
AcDbEntity
  8
0
100
AcDbBlockEnd
  0
BLOCK
  5
84
330
83
100
AcDbEntity
  8
0
100
AcDbBlockBegin
  2
SW_NOTE_0_1
 70
     0
 10
0.0
 20
0.0
 30
0.0
  3
SW_NOTE_0_1
  1

  0
MTEXT
  5
87
330
83
100
AcDbEntity
  8
SLD-0
 62
     0
100
AcDbMText
 10
-3.1402919375
 20
3.0340575798
 30
0.0
 40
3.2
 41
0.0
 71
     1
 72
     1
  1
200
  7
SLDTEXTSTYLE1
 11
0.6948376321108802
 21
0.7191666461972115
 31
0.0
 73
     1
 44
1.0
  0
ENDBLK
  5
85
330
83
100
AcDbEntity
  8
0
100
AcDbBlockEnd
  0
BLOCK
  5
8A
330
89
100
AcDbEntity
  8
0
100
AcDbBlockBegin
  2
_OPEN30
 70
     0
 10
0.0
 20
0.0
 30
0.0
  3
_OPEN30
  1

  0
LINE
  5
8C
330
89
100
AcDbEntity
  8
SLD-0
  6
SLD-実線
370
    18
100
AcDbLine
 10
-1.0
 20
0.267949
 30
0.0
 11
0.0
 21
0.0
 31
0.0
  0
LINE
  5
8D
330
89
100
AcDbEntity
  8
SLD-0
  6
SLD-実線
370
    18
100
AcDbLine
 10
0.0
 20
0.0
 30
0.0
 11
-1.0
 21
-0.267949
 31
0.0
  0
LINE
  5
8E
330
89
100
AcDbEntity
  8
SLD-0
  6
SLD-実線
370
    18
100
AcDbLine
 10
0.0
 20
0.0
 30
0.0
 11
-1.0
 21
0.0
 31
0.0
  0
ENDBLK
  5
8B
330
89
100
AcDbEntity
  8
0
100
AcDbBlockEnd
  0
BLOCK
  5
90
330
8F
100
AcDbEntity
  8
0
100
AcDbBlockBegin
  2
ZU_DIM_00029
 70
     0
 10
0.0
 20
0.0
 30
0.0
  3
ZU_DIM_00029
  1

  0
ARC
  5
92
330
8F
100
AcDbEntity
  8
SLD-0
  6
SLD-実線
370
    18
100
AcDbCircle
 10
-34.178186
 20
-41.386241
 30
0.0
 40
25.80070900000001
100
AcDbArc
 50
315.000021
 51
0.0
  0
LINE
  5
93
330
8F
100
AcDbEntity
  8
SLD-0
  6
SLD-実線
370
    18
100
AcDbLine
 10
-17.074177
 20
-58.49024
 30
0.0
 11
-14.520114
 21
-61.044307
 31
0.0
  0
LINE
  5
94
330
8F
100
AcDbEntity
  8
SLD-0
  6
SLD-実線
370
    18
100
AcDbLine
 10
-10.865801
 20
-41.386241
 30
0.0
 11
-6.377483
 21
-41.386241
 31
0.0
  0
INSERT
  5
9A
330
8F
100
AcDbEntity
  8
SLD-0
 62
   179
100
AcDbBlockReference
  2
SW_NOTE_0_2
 10
-9.5306296448
 20
-52.3956906708
 30
0.0
  0
INSERT
  5
D5
330
8F
100
AcDbEntity
  8
0
  6
Continuous
 62
     7
100
AcDbBlockReference
  2
_OPEN30
 10
-8.377464
 20
-41.386241
 30
0.0
 41
2.0
 42
2.0
 43
2.0
 50
90.0
  0
INSERT
  5
D6
330
8F
100
AcDbEntity
  8
0
  6
Continuous
 62
     7
100
AcDbBlockReference
  2
_OPEN30
 10
-15.934323
 20
-59.630091
 30
0.0
 41
2.0
 42
2.0
 43
2.0
 50
225.000021
  0
ENDBLK
  5
91
330
8F
100
AcDbEntity
  8
0
100
AcDbBlockEnd
  0
BLOCK
  5
96
330
95
100
AcDbEntity
  8
0
100
AcDbBlockBegin
  2
SW_NOTE_0_2
 70
     0
 10
0.0
 20
0.0
 30
0.0
  3
SW_NOTE_0_2
  1

  0
MTEXT
  5
99
330
95
100
AcDbEntity
  8
SLD-0
 62
     0
100
AcDbMText
 10
-4.0341850927
 20
1.6710145085
 30
0.0
 40
3.2
 41
0.0
 71
     1
 72
     1
  1
45°
  7
SLDTEXTSTYLE2
 11
0.3826834968640478
 21
0.9238795057949409
 31
0.0
 73
     1
 44
1.0
  0
ENDBLK
  5
97
330
95
100
AcDbEntity
  8
0
100
AcDbBlockEnd
  0
BLOCK
  5
9C
330
9B
100
AcDbEntity
  8
0
100
AcDbBlockBegin
  2
ZU_DIM_00034
 70
     0
 10
0.0
 20
0.0
 30
0.0
  3
ZU_DIM_00034
  1

  0
ARC
  5
9E
330
9B
100
AcDbEntity
  8
SLD-0
  6
SLD-実線
370
    18
100
AcDbCircle
 10
-260.603052
 20
-41.680577
 30
0.0
 40
25.80071200000001
100
AcDbArc
 50
315.000005
 51
0.0
  0
LINE
  5
9F
330
9B
100
AcDbEntity
  8
SLD-0
  6
SLD-実線
370
    18
100
AcDbLine
 10
-243.499041
 20
-58.78458
 30
0.0
 11
-240.944956
 21
-61.338649
 31
0.0
  0
LINE
  5
A0
330
9B
100
AcDbEntity
  8
SLD-0
  6
SLD-実線
370
    18
100
AcDbLine
 10
-237.290642
 20
-41.680577
 30
0.0
 11
-232.802324
 21
-41.680577
 31
0.0
  0
INSERT
  5
A5
330
9B
100
AcDbEntity
  8
SLD-0
 62
   179
100
AcDbBlockReference
  2
SW_NOTE_0_3
 10
-235.9555006448
 20
-52.6900266708
 30
0.0
  0
INSERT
  5
D7
330
9B
100
AcDbEntity
  8
0
  6
Continuous
 62
     7
100
AcDbBlockReference
  2
_OPEN30
 10
-242.359192
 20
-59.924434
 30
0.0
 41
2.0
 42
2.0
 43
2.0
 50
225.000005
  0
INSERT
  5
D8
330
9B
100
AcDbEntity
  8
0
  6
Continuous
 62
     7
100
AcDbBlockReference
  2
_OPEN30
 10
-234.802332
 20
-41.680577
 30
0.0
 41
2.0
 42
2.0
 43
2.0
 50
90.0
  0
ENDBLK
  5
9D
330
9B
100
AcDbEntity
  8
0
100
AcDbBlockEnd
  0
BLOCK
  5
A2
330
A1
100
AcDbEntity
  8
0
100
AcDbBlockBegin
  2
SW_NOTE_0_3
 70
     0
 10
0.0
 20
0.0
 30
0.0
  3
SW_NOTE_0_3
  1

  0
MTEXT
  5
A4
330
A1
100
AcDbEntity
  8
SLD-0
 62
     0
100
AcDbMText
 10
-4.0341850927
 20
1.6710145085
 30
0.0
 40
3.2
 41
0.0
 71
     1
 72
     1
  1
45°
  7
SLDTEXTSTYLE2
 11
0.3826834968640478
 21
0.9238795057949409
 31
0.0
 73
     1
 44
1.0
  0
ENDBLK
  5
A3
330
A1
100
AcDbEntity
  8
0
100
AcDbBlockEnd
  0
BLOCK
  5
A7
330
A6
100
AcDbEntity
  8
0
100
AcDbBlockBegin
  2
ZU_DIM_00031
 70
     0
 10
0.0
 20
0.0
 30
0.0
  3
ZU_DIM_00031
  1

  0
ARC
  5
A9
330
A6
100
AcDbEntity
  8
SLD-0
  6
SLD-実線
370
    18
100
AcDbCircle
 10
-34.178186
 20
-41.386241
 30
0.0
 40
19.799993
100
AcDbArc
 50
319.05013
 51
330.625003
  0
LINE
  5
AA
330
A6
100
AcDbEntity
  8
SLD-0
  6
SLD-実線
370
    18
100
AcDbLine
 10
-17.991239
 20
-52.788993
 30
0.0
 11
-50.365129
 21
-29.98349
 31
0.0
  0
INSERT
  5
AF
330
A6
100
AcDbEntity
  8
SLD-0
 62
   179
100
AcDbBlockReference
  2
SW_NOTE_0_4
 10
-42.9241375475
 20
-36.9529376128
 30
0.0
  0
INSERT
  5
B4
330
A6
100
AcDbEntity
  8
SLD-0
 62
   179
100
AcDbBlockReference
  2
SW_NOTE_0_5
 10
-42.5212625475
 20
-37.2367396128
 30
0.0
  0
INSERT
  5
D9
330
A6
100
AcDbEntity
  8
0
  6
Continuous
 62
     7
100
AcDbBlockReference
  2
_OPEN30
 10
-17.991239
 20
-52.788993
 30
0.0
 41
2.0
 42
2.0
 43
2.0
 50
324.837555
  0
INSERT
  5
DA
330
A6
100
AcDbEntity
  8
0
  6
Continuous
 62
     7
100
AcDbBlockReference
  2
_OPEN30
 10
-50.365129
 20
-29.98349
 30
0.0
 41
2.0
 42
2.0
 43
2.0
 50
144.837555
  0
ENDBLK
  5
A8
330
A6
100
AcDbEntity
  8
0
100
AcDbBlockEnd
  0
BLOCK
  5
AC
330
AB
100
AcDbEntity
  8
0
100
AcDbBlockBegin
  2
SW_NOTE_0_4
 70
     0
 10
0.0
 20
0.0
 30
0.0
  3
SW_NOTE_0_4
  1

  0
MTEXT
  5
AE
330
AB
100
AcDbEntity
  8
SLD-0
 62
     0
100
AcDbMText
 10
2.5146929877
 20
3.5697700245
 30
0.0
 40
3.2
 41
0.0
 71
     1
 72
     1
  1
φ
  7
SLDTEXTSTYLE0
 11
0.8175225702814356
 21
-0.5758965593580458
 31
0.0
 73
     1
 44
1.0
  0
ENDBLK
  5
AD
330
AB
100
AcDbEntity
  8
0
100
AcDbBlockEnd
  0
BLOCK
  5
B1
330
B0
100
AcDbEntity
  8
0
100
AcDbBlockBegin
  2
SW_NOTE_0_5
 70
     0
 10
0.0
 20
0.0
 30
0.0
  3
SW_NOTE_0_5
  1

  0
MTEXT
  5
B3
330
B0
100
AcDbEntity
  8
SLD-0
 62
     0
100
AcDbMText
 10
2.5146929877
 20
3.5697700245
 30
0.0
 40
3.2
 41
0.0
 71
     1
 72
     1
  1
180
  7
SLDTEXTSTYLE1
 11
0.8175225702814356
 21
-0.5758965593580458
 31
0.0
 73
     1
 44
1.0
  0
ENDBLK
  5
B2
330
B0
100
AcDbEntity
  8
0
100
AcDbBlockEnd
  0
BLOCK
  5
B6
330
B5
100
AcDbEntity
  8
0
100
AcDbBlockBegin
  2
ZU_DIM_00030
 70
     0
 10
0.0
 20
0.0
 30
0.0
  3
ZU_DIM_00030
  1

  0
ARC
  5
B8
330
B5
100
AcDbEntity
  8
SLD-0
  6
SLD-実線
370
    18
100
AcDbCircle
 10
-34.178186
 20
-41.386241
 30
0.0
 40
21.999991
100
AcDbArc
 50
220.777004
 51
231.194408
  0
LINE
  5
B9
330
B5
100
AcDbEntity
  8
SLD-0
  6
SLD-実線
370
    18
100
AcDbLine
 10
-49.464611
 20
-57.207902
 30
0.0
 11
-18.891756
 21
-25.564577
 31
0.0
  0
INSERT
  5
BE
330
B5
100
AcDbEntity
  8
SLD-0
 62
   179
100
AcDbBlockReference
  2
SW_NOTE_0_6
 10
-28.7425663963
 20
-37.7930588185
 30
0.0
  0
INSERT
  5
C3
330
B5
100
AcDbEntity
  8
SLD-0
 62
   179
100
AcDbBlockReference
  2
SW_NOTE_0_7
 10
-28.4001523963
 20
-37.4386548185
 30
0.0
  0
INSERT
  5
DB
330
B5
100
AcDbEntity
  8
0
  6
Continuous
 62
     7
100
AcDbBlockReference
  2
_OPEN30
 10
-18.891756
 20
-25.564577
 30
0.0
 41
2.0
 42
2.0
 43
2.0
 50
45.985715
  0
INSERT
  5
DC
330
B5
100
AcDbEntity
  8
0
  6
Continuous
 62
     7
100
AcDbBlockReference
  2
_OPEN30
 10
-49.464611
 20
-57.207902
 30
0.0
 41
2.0
 42
2.0
 43
2.0
 50
225.985715
  0
ENDBLK
  5
B7
330
B5
100
AcDbEntity
  8
0
100
AcDbBlockEnd
  0
BLOCK
  5
BB
330
BA
100
AcDbEntity
  8
0
100
AcDbBlockBegin
  2
SW_NOTE_0_6
 70
     0
 10
0.0
 20
0.0
 30
0.0
  3
SW_NOTE_0_6
  1

  0
MTEXT
  5
BD
330
BA
100
AcDbEntity
  8
SLD-0
 62
     0
100
AcDbMText
 10
-3.1402919375
 20
3.0340575798
 30
0.0
 40
3.2
 41
0.0
 71
     1
 72
     1
  1
φ
  7
SLDTEXTSTYLE0
 11
0.6948376321108802
 21
0.7191666461972115
 31
0.0
 73
     1
 44
1.0
  0
ENDBLK
  5
BC
330
BA
100
AcDbEntity
  8
0
100
AcDbBlockEnd
  0
BLOCK
  5
C0
330
BF
100
AcDbEntity
  8
0
100
AcDbBlockBegin
  2
SW_NOTE_0_7
 70
     0
 10
0.0
 20
0.0
 30
0.0
  3
SW_NOTE_0_7
  1

  0
MTEXT
  5
C2
330
BF
100
AcDbEntity
  8
SLD-0
 62
     0
100
AcDbMText
 10
-3.1402919375
 20
3.0340575798
 30
0.0
 40
3.2
 41
0.0
 71
     1
 72
     1
  1
200
  7
SLDTEXTSTYLE1
 11
0.6948376321108802
 21
0.7191666461972115
 31
0.0
 73
     1
 44
1.0
  0
ENDBLK
  5
C1
330
BF
100
AcDbEntity
  8
0
100
AcDbBlockEnd
  0
BLOCK
  5
C5
330
C4
100
AcDbEntity
  8
0
100
AcDbBlockBegin
  2
ZU_DIM_00032
 70
     0
 10
0.0
 20
0.0
 30
0.0
  3
ZU_DIM_00032
  1

  0
ARC
  5
C7
330
C4
100
AcDbEntity
  8
SLD-0
  6
SLD-実線
370
    18
100
AcDbCircle
 10
-260.603052
 20
-41.680577
 30
0.0
 40
19.79999800000001
100
AcDbArc
 50
319.050104
 51
330.62503
  0
LINE
  5
C8
330
C4
100
AcDbEntity
  8
SLD-0
  6
SLD-実線
370
    18
100
AcDbLine
 10
-244.416106
 20
-53.083329
 30
0.0
 11
-276.789998
 21
-30.277822
 31
0.0
  0
INSERT
  5
CD
330
C4
100
AcDbEntity
  8
SLD-0
 62
   179
100
AcDbBlockReference
  2
SW_NOTE_0_8
 10
-269.3490065475
 20
-37.2472766128
 30
0.0
  0
INSERT
  5
D2
330
C4
100
AcDbEntity
  8
SLD-0
 62
   179
100
AcDbBlockReference
  2
SW_NOTE_0_9
 10
-268.9461205475
 20
-37.5310786128
 30
0.0
  0
INSERT
  5
DD
330
C4
100
AcDbEntity
  8
0
  6
Continuous
 62
     7
100
AcDbBlockReference
  2
_OPEN30
 10
-244.416106
 20
-53.083329
 30
0.0
 41
2.0
 42
2.0
 43
2.0
 50
324.837552
  0
INSERT
  5
DE
330
C4
100
AcDbEntity
  8
0
  6
Continuous
 62
     7
100
AcDbBlockReference
  2
_OPEN30
 10
-276.789998
 20
-30.277822
 30
0.0
 41
2.0
 42
2.0
 43
2.0
 50
144.837552
  0
ENDBLK
  5
C6
330
C4
100
AcDbEntity
  8
0
100
AcDbBlockEnd
  0
BLOCK
  5
CA
330
C9
100
AcDbEntity
  8
0
100
AcDbBlockBegin
  2
SW_NOTE_0_8
 70
     0
 10
0.0
 20
0.0
 30
0.0
  3
SW_NOTE_0_8
  1

  0
MTEXT
  5
CC
330
C9
100
AcDbEntity
  8
SLD-0
 62
     0
100
AcDbMText
 10
2.5146929877
 20
3.5697700245
 30
0.0
 40
3.2
 41
0.0
 71
     1
 72
     1
  1
φ
  7
SLDTEXTSTYLE0
 11
0.8175225702814356
 21
-0.5758965593580458
 31
0.0
 73
     1
 44
1.0
  0
ENDBLK
  5
CB
330
C9
100
AcDbEntity
  8
0
100
AcDbBlockEnd
  0
BLOCK
  5
CF
330
CE
100
AcDbEntity
  8
0
100
AcDbBlockBegin
  2
SW_NOTE_0_9
 70
     0
 10
0.0
 20
0.0
 30
0.0
  3
SW_NOTE_0_9
  1

  0
MTEXT
  5
D1
330
CE
100
AcDbEntity
  8
SLD-0
 62
     0
100
AcDbMText
 10
2.5146929877
 20
3.5697700245
 30
0.0
 40
3.2
 41
0.0
 71
     1
 72
     1
  1
180
  7
SLDTEXTSTYLE1
 11
0.8175225702814356
 21
-0.5758965593580458
 31
0.0
 73
     1
 44
1.0
  0
ENDBLK
  5
D0
330
CE
100
AcDbEntity
  8
0
100
AcDbBlockEnd
  0
ENDSEC
  0
SECTION
  2
ENTITIES
  0
VIEWPORT
  5
DF
330
1B
100
AcDbEntity
 67
     1
  8
0
100
AcDbViewport
 10
22.0
 20
17.0
 30
0.0
 40
46.552
 41
35.972
 68
     1
 69
     1
 12
22.0
 22
17.0
 13
0.0
 23
0.0
 14
0.5
 24
0.5
 15
0.5
 25
0.5
 16
0.0
 26
0.0
 36
1.0
 17
0.0
 27
0.0
 37
0.0
 42
50.0
 43
0.0
 44
0.0
 45
35.972
 50
0.0
 51
0.0
 72
   100
 90
   557152
  1

281
     0
 71
     1
 74
     0
110
0.0
120
0.0
130
0.0
111
1.0
121
0.0
131
0.0
112
0.0
122
1.0
132
0.0
 79
     0
146
0.0
  0
LINE
  5
E1
330
1B
100
AcDbEntity
 67
     1
  8
1
  6
SLD-実線
 62
     7
370
    18
100
AcDbLine
 10
20.9151085948
 20
32.1839239274
 30
0.0
 11
22.9229825728
 21
32.1839239274
 31
0.0
  0
LINE
  5
E2
330
1B
100
AcDbEntity
 67
     1
  8
1
  6
SLD-実線
 62
     7
370
    18
100
AcDbLine
 10
23.3048723294
 20
28.7276296116
 30
0.0
 11
23.3048723294
 21
31.8020341708
 31
0.0
  0
LINE
  5
E3
330
1B
100
AcDbEntity
 67
     1
  8
1
  6
SLD-実線
 62
     7
370
    18
100
AcDbLine
 10
20.9151085948
 20
28.345739855
 30
0.0
 11
22.9229825728
 21
28.345739855
 31
0.0
  0
LINE
  5
E4
330
1B
100
AcDbEntity
 67
     1
  8
1
  6
SLD-実線
 62
     7
370
    18
100
AcDbLine
 10
20.5332188382
 20
28.7276296116
 30
0.0
 11
20.5332188382
 21
31.8020341708
 31
0.0
  0
LINE
  5
E5
330
1B
100
AcDbEntity
 67
     1
  8
SLD-0
  6
SLD-実線
 62
     7
370
    18
100
AcDbLine
 10
19.5174708258
 20
26.929107634
 30
0.0
 11
19.5174708258
 21
25.590524982
 31
0.0
  0
LINE
  5
E6
330
1B
100
AcDbEntity
 67
     1
  8
SLD-0
  6
SLD-実線
 62
     7
370
    18
100
AcDbLine
 10
21.9190455838
 20
27.440918648
 30
0.0
 11
24.6713019745
 21
27.440918648
 31
0.0
  0
LINE
  5
E7
330
1B
100
AcDbEntity
 67
     1
  8
SLD-0
  6
SLD-実線
 62
     7
370
    18
100
AcDbLine
 10
22.6277069878
 20
27.79524935
 30
0.0
 11
24.3206203418
 21
27.79524935
 31
0.0
  0
LINE
  5
E8
330
1B
100
AcDbEntity
 67
     1
  8
SLD-0
  6
SLD-実線
 62
     7
370
    18
100
AcDbLine
 10
24.182467159
 20
31.417296526
 30
0.0
 11
24.1859270731
 21
31.2904341447
 31
0.0
  0
LINE
  5
E9
330
1B
100
AcDbEntity
 67
     1
  8
SLD-0
  6
SLD-実線
 62
     7
370
    18
100
AcDbLine
 10
19.5865660285
 20
28.8851723789
 30
0.0
 11
19.5724425499
 21
28.3673101839
 31
0.0
  0
LINE
  5
EA
330
1B
100
AcDbEntity
 67
     1
  8
SLD-0
  6
SLD-実線
 62
     7
370
    18
100
AcDbLine
 10
19.6355810598
 20
27.440918648
 30
0.0
 11
19.5174708258
 21
27.440918648
 31
0.0
  0
LINE
  5
EB
330
1B
100
AcDbEntity
 67
     1
  8
SLD-0
  6
SLD-実線
 62
     7
370
    18
100
AcDbLine
 10
21.5843999208
 20
24.64564311
 30
0.0
 11
21.9190455838
 21
24.64564311
 31
0.0
  0
LINE
  5
EC
330
1B
100
AcDbEntity
 67
     1
  8
SLD-0
  6
SLD-実線
 62
     7
370
    18
100
AcDbLine
 10
22.2438487273
 20
24.64564311
 30
0.0
 11
22.2438487273
 21
24.685013188
 31
0.0
  0
LINE
  5
ED
330
1B
100
AcDbEntity
 67
     1
  8
SLD-0
  6
SLD-実線
 62
     7
370
    18
100
AcDbLine
 10
22.2536912468
 20
24.881863578
 30
0.0
 11
22.2536912468
 21
24.960603734
 31
0.0
  0
LINE
  5
EE
330
1B
100
AcDbEntity
 67
     1
  8
SLD-0
  6
SLD-実線
 62
     7
370
    18
100
AcDbLine
 10
22.2536912468
 20
24.881863578
 30
0.0
 11
21.9190455838
 21
24.881863578
 31
0.0
  0
LINE
  5
EF
330
1B
100
AcDbEntity
 67
     1
  8
SLD-0
  6
SLD-実線
 62
     7
370
    18
100
AcDbLine
 10
22.2536912468
 20
24.64564311
 30
0.0
 11
21.9190455838
 21
24.64564311
 31
0.0
  0
LINE
  5
F0
330
1B
100
AcDbEntity
 67
     1
  8
SLD-0
  6
SLD-実線
 62
     7
370
    18
100
AcDbLine
 10
24.3206203418
 20
27.59839896
 30
0.0
 11
24.5168338313
 21
27.7116829593
 31
0.0
  0
LINE
  5
F1
330
1B
100
AcDbEntity
 67
     1
  8
SLD-0
  6
SLD-実線
 62
     7
370
    18
100
AcDbLine
 10
24.4393420647
 20
31.2422766652
 30
0.0
 11
24.5365036592
 21
27.7468722929
 31
0.0
  0
LINE
  5
F2
330
1B
100
AcDbEntity
 67
     1
  8
SLD-0
  6
SLD-実線
 62
     7
370
    18
100
AcDbLine
 10
22.3718014808
 20
24.685013188
 30
0.0
 11
22.3718014808
 21
24.783438383
 31
0.0
  0
LINE
  5
F3
330
1B
100
AcDbEntity
 67
     1
  8
SLD-0
  6
SLD-実線
 62
     7
370
    18
100
AcDbLine
 10
22.3718014808
 20
24.685013188
 30
0.0
 11
21.9190455838
 21
24.685013188
 31
0.0
  0
LINE
  5
F4
330
1B
100
AcDbEntity
 67
     1
  8
SLD-0
  6
SLD-実線
 62
     7
370
    18
100
AcDbLine
 10
22.5095967538
 20
24.783438383
 30
0.0
 11
22.5095967538
 21
24.8424935
 31
0.0
  0
LINE
  5
F5
330
1B
100
AcDbEntity
 67
     1
  8
SLD-0
  6
SLD-実線
 62
     7
370
    18
100
AcDbLine
 10
22.5095967538
 20
24.783438383
 30
0.0
 11
21.9190455838
 21
24.783438383
 31
0.0
  0
LINE
  5
F6
330
1B
100
AcDbEntity
 67
     1
  8
SLD-0
  6
SLD-実線
 62
     7
370
    18
100
AcDbLine
 10
22.5095967538
 20
24.8424935
 30
0.0
 11
21.9190455838
 21
24.8424935
 31
0.0
  0
LINE
  5
F7
330
1B
100
AcDbEntity
 67
     1
  8
SLD-0
  6
SLD-実線
 62
     7
370
    18
100
AcDbLine
 10
22.2438487273
 20
24.8424935
 30
0.0
 11
22.2438487273
 21
24.881863578
 31
0.0
  0
LINE
  5
F8
330
1B
100
AcDbEntity
 67
     1
  8
SLD-0
  6
SLD-実線
 62
     7
370
    18
100
AcDbLine
 10
19.5765259428
 20
31.3665612012
 30
0.0
 11
19.4184189308
 21
31.2752780963
 31
0.0
  0
LINE
  5
F9
330
1B
100
AcDbEntity
 67
     1
  8
SLD-0
  6
SLD-実線
 62
     7
370
    18
100
AcDbLine
 10
19.398749093
 20
31.2422766609
 30
0.0
 11
19.3106914811
 21
28.074395014
 31
0.0
  0
LINE
  5
FA
330
1B
100
AcDbEntity
 67
     1
  8
SLD-0
  6
SLD-実線
 62
     7
370
    18
100
AcDbLine
 10
21.2103841798
 20
27.79524935
 30
0.0
 11
19.8601585431
 21
27.79524935
 31
0.0
  0
LINE
  5
FB
330
1B
100
AcDbEntity
 67
     1
  8
SLD-0
  6
SLD-実線
 62
     7
370
    18
100
AcDbLine
 10
21.9190455838
 20
27.440918648
 30
0.0
 11
19.1667890142
 21
27.440918648
 31
0.0
  0
LINE
  5
FC
330
1B
100
AcDbEntity
 67
     1
  8
SLD-0
  6
SLD-実線
 62
     7
370
    18
100
AcDbLine
 10
21.5942424403
 20
24.8424935
 30
0.0
 11
21.5942424403
 21
24.881863578
 31
0.0
  0
LINE
  5
FD
330
1B
100
AcDbEntity
 67
     1
  8
SLD-0
  6
SLD-実線
 62
     7
370
    18
100
AcDbLine
 10
21.3284944138
 20
24.8424935
 30
0.0
 11
21.9190455838
 21
24.8424935
 31
0.0
  0
LINE
  5
FE
330
1B
100
AcDbEntity
 67
     1
  8
SLD-0
  6
SLD-実線
 62
     7
370
    18
100
AcDbLine
 10
21.3284944138
 20
24.783438383
 30
0.0
 11
21.9190455838
 21
24.783438383
 31
0.0
  0
LINE
  5
FF
330
1B
100
AcDbEntity
 67
     1
  8
SLD-0
  6
SLD-実線
 62
     7
370
    18
100
AcDbLine
 10
21.3284944138
 20
24.783438383
 30
0.0
 11
21.3284944138
 21
24.8424935
 31
0.0
  0
LINE
  5
100
330
1B
100
AcDbEntity
 67
     1
  8
SLD-0
  6
SLD-実線
 62
     7
370
    18
100
AcDbLine
 10
21.4662896868
 20
24.685013188
 30
0.0
 11
21.9190455838
 21
24.685013188
 31
0.0
  0
LINE
  5
101
330
1B
100
AcDbEntity
 67
     1
  8
SLD-0
  6
SLD-実線
 62
     7
370
    18
100
AcDbLine
 10
21.4662896868
 20
24.685013188
 30
0.0
 11
21.4662896868
 21
24.783438383
 31
0.0
  0
LINE
  5
102
330
1B
100
AcDbEntity
 67
     1
  8
SLD-0
  6
SLD-実線
 62
     7
370
    18
100
AcDbLine
 10
21.5843999208
 20
24.881863578
 30
0.0
 11
21.9190455838
 21
24.881863578
 31
0.0
  0
LINE
  5
103
330
1B
100
AcDbEntity
 67
     1
  8
SLD-0
  6
SLD-実線
 62
     7
370
    18
100
AcDbLine
 10
21.5843999208
 20
24.881863578
 30
0.0
 11
21.5843999208
 21
24.960603734
 31
0.0
  0
LINE
  5
104
330
1B
100
AcDbEntity
 67
     1
  8
SLD-0
  6
SLD-実線
 62
     7
370
    18
100
AcDbLine
 10
21.5942424403
 20
24.64564311
 30
0.0
 11
21.5942424403
 21
24.685013188
 31
0.0
  0
LINE
  5
105
330
1B
100
AcDbEntity
 67
     1
  8
SLD-0
  6
SLD-実線
 62
     7
370
    18
100
AcDbLine
 10
21.9190455838
 20
25.078713968
 30
0.0
 11
19.1631401238
 21
25.078713968
 31
0.0
  0
LINE
  5
106
330
1B
100
AcDbEntity
 67
     1
  8
SLD-0
  6
SLD-実線
 62
     7
370
    18
100
AcDbLine
 10
21.9190455838
 20
24.960603734
 30
0.0
 11
18.9269196558
 21
24.960603734
 31
0.0
  0
LINE
  5
107
330
1B
100
AcDbEntity
 67
     1
  8
SLD-0
  6
SLD-実線
 62
     7
370
    18
100
AcDbLine
 10
21.9190455838
 20
25.078713968
 30
0.0
 11
18.6710141488
 21
25.078713968
 31
0.0
  0
LINE
  5
108
330
1B
100
AcDbEntity
 67
     1
  8
SLD-0
  6
SLD-実線
 62
     7
370
    18
100
AcDbLine
 10
20.9347936338
 20
16.3818637378
 30
0.0
 11
20.4426676588
 21
16.3818637378
 31
0.0
  0
LINE
  5
109
330
1B
100
AcDbEntity
 67
     1
  8
SLD-0
  6
SLD-実線
 62
     7
370
    18
100
AcDbLine
 10
21.2103841798
 20
15.9094228018
 30
0.0
 11
20.9347936338
 21
15.9094228018
 31
0.0
  0
LINE
  5
10A
330
1B
100
AcDbEntity
 67
     1
  8
SLD-0
  6
SLD-実線
 62
     7
370
    18
100
AcDbLine
 10
21.2497542578
 20
15.9487928798
 30
0.0
 11
21.2497542578
 21
16.0669031138
 31
0.0
  0
LINE
  5
10B
330
1B
100
AcDbEntity
 67
     1
  8
SLD-0
  6
SLD-実線
 62
     7
370
    18
100
AcDbLine
 10
20.7379432438
 20
15.2795015538
 30
0.0
 11
20.7379432438
 21
15.7125724118
 31
0.0
  0
LINE
  5
10C
330
1B
100
AcDbEntity
 67
     1
  8
SLD-0
  6
SLD-実線
 62
     7
370
    18
100
AcDbLine
 10
20.9938487508
 20
15.2795015538
 30
0.0
 11
20.9938487508
 21
15.3582417098
 31
0.0
  0
LINE
  5
10D
330
1B
100
AcDbEntity
 67
     1
  8
SLD-0
  6
SLD-実線
 62
     7
370
    18
100
AcDbLine
 10
21.1906991408
 20
15.3582417098
 30
0.0
 11
20.9938487508
 21
15.3582417098
 31
0.0
  0
LINE
  5
10E
330
1B
100
AcDbEntity
 67
     1
  8
SLD-0
  6
SLD-実線
 62
     7
370
    18
100
AcDbLine
 10
21.1906991408
 20
15.2401314758
 30
0.0
 11
21.1906991408
 21
15.3582417098
 31
0.0
  0
LINE
  5
10F
330
1B
100
AcDbEntity
 67
     1
  8
SLD-0
  6
SLD-実線
 62
     7
370
    18
100
AcDbLine
 10
21.9190455838
 20
14.3346196818
 30
0.0
 11
19.0056598118
 21
14.3346196818
 31
0.0
  0
LINE
  5
110
330
1B
100
AcDbEntity
 67
     1
  8
SLD-0
  6
SLD-実線
 62
     7
370
    18
100
AcDbLine
 10
21.9190455838
 20
14.2440685024
 30
0.0
 11
19.0056598118
 21
14.2440685024
 31
0.0
  0
LINE
  5
111
330
1B
100
AcDbEntity
 67
     1
  8
SLD-0
  6
SLD-実線
 62
     7
370
    18
100
AcDbLine
 10
21.456341226
 20
14.0865881904
 30
0.0
 11
21.298860914
 21
14.2440685024
 31
0.0
  0
LINE
  5
112
330
1B
100
AcDbEntity
 67
     1
  8
SLD-0
  6
SLD-実線
 62
     7
370
    18
100
AcDbLine
 10
21.456341226
 20
14.0865881904
 30
0.0
 11
21.9190455838
 21
14.0865881904
 31
0.0
  0
LINE
  5
113
330
1B
100
AcDbEntity
 67
     1
  8
SLD-0
  6
SLD-鎖線
 62
     7
370
    18
100
AcDbLine
 10
21.9190455838
 20
13.8227816456
 30
0.0
 11
21.9190455838
 21
33.7010967693
 31
0.0
  0
LINE
  5
114
330
1B
100
AcDbEntity
 67
     1
  8
SLD-0
  6
SLD-鎖線
 62
     7
370
    18
100
AcDbLine
 10
21.9190455838
 20
0.6484624587
 30
0.0
 11
21.9190455838
 21
8.6148395459
 31
0.0
  0
LINE
  5
115
330
1B
100
AcDbEntity
 67
     1
  8
SLD-0
  6
SLD-実線
 62
     7
370
    18
100
AcDbLine
 10
19.443943984
 20
27.913359584
 30
0.0
 11
19.1727508967
 21
27.913359584
 31
0.0
  0
LINE
  5
116
330
1B
100
AcDbEntity
 67
     1
  8
SLD-0
  6
SLD-実線
 62
     7
370
    18
100
AcDbLine
 10
19.8601585431
 20
28.7184562045
 30
0.0
 11
19.8601585431
 21
26.929107634
 31
0.0
  0
LINE
  5
117
330
1B
100
AcDbEntity
 67
     1
  8
SLD-0
  6
SLD-実線
 62
     7
370
    18
100
AcDbLine
 10
19.4379821015
 20
27.8833041085
 30
0.0
 11
19.4379821015
 21
26.929107634
 31
0.0
  0
LINE
  5
118
330
1B
100
AcDbEntity
 67
     1
  8
SLD-0
  6
SLD-実線
 62
     7
370
    18
100
AcDbLine
 10
19.1667890142
 20
27.8833041085
 30
0.0
 11
19.1667890142
 21
27.00784779
 31
0.0
  0
LINE
  5
119
330
1B
100
AcDbEntity
 67
     1
  8
SLD-0
  6
SLD-実線
 62
     7
370
    18
100
AcDbLine
 10
19.8601585431
 20
28.38580052
 30
0.0
 11
19.4580089443
 21
27.9357708219
 31
0.0
  0
LINE
  5
11A
330
1B
100
AcDbEntity
 67
     1
  8
SLD-0
  6
SLD-実線
 62
     7
370
    18
100
AcDbLine
 10
19.5724425499
 20
28.3673101839
 30
0.0
 11
19.1868158571
 21
27.9357708219
 31
0.0
  0
LINE
  5
11B
330
1B
100
AcDbEntity
 67
     1
  8
SLD-0
  6
SLD-実線
 62
     7
370
    18
100
AcDbLine
 10
24.6713019745
 20
27.913359584
 30
0.0
 11
24.6713019745
 21
27.00784779
 31
0.0
  0
LINE
  5
11C
330
1B
100
AcDbEntity
 67
     1
  8
SLD-0
  6
SLD-実線
 62
     7
370
    18
100
AcDbLine
 10
24.6713019745
 20
27.913359584
 30
0.0
 11
24.5272171525
 21
28.0809585429
 31
0.0
  0
LINE
  5
11D
330
1B
100
AcDbEntity
 67
     1
  8
SLD-0
  6
SLD-実線
 62
     7
370
    18
100
AcDbLine
 10
22.6277069878
 20
27.440918648
 30
0.0
 11
22.6277069878
 21
28.345739855
 31
0.0
  0
LINE
  5
11E
330
1B
100
AcDbEntity
 67
     1
  8
SLD-0
  6
SLD-実線
 62
     7
370
    18
100
AcDbLine
 10
21.2103841798
 20
27.440918648
 30
0.0
 11
21.2103841798
 21
28.345739855
 31
0.0
  0
LINE
  5
11F
330
1B
100
AcDbEntity
 67
     1
  8
SLD-0
  6
SLD-実線
 62
     7
370
    18
100
AcDbLine
 10
19.8601585431
 20
26.929107634
 30
0.0
 11
19.2455291702
 21
26.929107634
 31
0.0
  0
LINE
  5
120
330
1B
100
AcDbEntity
 67
     1
  8
SLD-0
  6
SLD-実線
 62
     7
370
    18
100
AcDbLine
 10
24.3206203418
 20
26.929107634
 30
0.0
 11
24.5925618185
 21
26.929107634
 31
0.0
  0
LINE
  5
121
330
1B
100
AcDbEntity
 67
     1
  8
SLD-0
  6
SLD-鎖線
 62
     7
370
    18
100
AcDbLine
 10
19.2025102018
 20
13.9816404472
 30
0.0
 11
19.2025102018
 21
14.4174919064
 31
0.0
  0
LINE
  5
122
330
1B
100
AcDbEntity
 67
     1
  8
SLD-0
  6
SLD-実線
 62
     7
370
    18
100
AcDbLine
 10
19.0647149288
 20
14.0669031514
 30
0.0
 11
19.0647149288
 21
14.2440685024
 31
0.0
  0
LINE
  5
123
330
1B
100
AcDbEntity
 67
     1
  8
SLD-0
  6
SLD-実線
 62
     7
370
    18
100
AcDbLine
 10
19.0647149288
 20
14.0669031514
 30
0.0
 11
19.3403054748
 21
14.0669031514
 31
0.0
  0
LINE
  5
124
330
1B
100
AcDbEntity
 67
     1
  8
SLD-0
  6
SLD-実線
 62
     7
370
    18
100
AcDbLine
 10
19.3403054748
 20
14.0669031514
 30
0.0
 11
19.3403054748
 21
14.2440685024
 31
0.0
  0
LINE
  5
125
330
1B
100
AcDbEntity
 67
     1
  8
SLD-0
  6
SLD-実線
 62
     7
370
    18
100
AcDbLine
 10
19.6556240086
 20
31.417296526
 30
0.0
 11
19.5724425499
 21
28.3673101839
 31
0.0
  0
LINE
  5
126
330
1B
100
AcDbEntity
 67
     1
  8
SLD-0
  6
SLD-実線
 62
     7
370
    18
100
AcDbLine
 10
19.5962109818
 20
31.4006567625
 30
0.0
 11
19.5962109818
 21
31.417296526
 31
0.0
  0
LINE
  5
127
330
1B
100
AcDbEntity
 67
     1
  8
SLD-0
  6
SLD-実線
 62
     7
370
    18
100
AcDbLine
 10
24.2418801858
 20
31.4006567625
 30
0.0
 11
24.2418801858
 21
31.417296526
 31
0.0
  0
LINE
  5
128
330
1B
100
AcDbEntity
 67
     1
  8
SLD-0
  6
SLD-実線
 62
     7
370
    18
100
AcDbLine
 10
24.2615652248
 20
31.3665612012
 30
0.0
 11
24.4196722369
 21
31.2752780963
 31
0.0
  0
LINE
  5
129
330
1B
100
AcDbEntity
 67
     1
  8
SLD-0
  6
SLD-実線
 62
     7
370
    18
100
AcDbLine
 10
23.1080604147
 20
27.79524935
 30
0.0
 11
23.1080604147
 21
28.3935847002
 31
0.0
  0
LINE
  5
12A
330
1B
100
AcDbEntity
 67
     1
  8
SLD-0
  6
SLD-実線
 62
     7
370
    18
100
AcDbLine
 10
23.2904909768
 20
27.79524935
 30
0.0
 11
23.2904909768
 21
28.6238160846
 31
0.0
  0
LINE
  5
12B
330
1B
100
AcDbEntity
 67
     1
  8
SLD-0
  6
SLD-実線
 62
     7
370
    18
100
AcDbLine
 10
22.8823252722
 20
28.345739855
 30
0.0
 11
22.8823252722
 21
27.79524935
 31
0.0
  0
LINE
  5
12C
330
1B
100
AcDbEntity
 67
     1
  8
SLD-0
  6
SLD-実線
 62
     7
370
    18
100
AcDbLine
 10
22.7413179377
 20
28.345739855
 30
0.0
 11
22.7413179377
 21
27.79524935
 31
0.0
  0
LINE
  5
12D
330
1B
100
AcDbEntity
 67
     1
  8
SLD-0
  6
SLD-実線
 62
     7
370
    18
100
AcDbLine
 10
23.713760296
 20
31.417296526
 30
0.0
 11
23.713760296
 21
27.79524935
 31
0.0
  0
LINE
  5
12E
330
1B
100
AcDbEntity
 67
     1
  8
SLD-0
  6
SLD-実線
 62
     7
370
    18
100
AcDbLine
 10
23.6024048936
 20
31.417296526
 30
0.0
 11
23.6024048936
 21
27.79524935
 31
0.0
  0
LINE
  5
12F
330
1B
100
AcDbEntity
 67
     1
  8
SLD-0
  6
SLD-実線
 62
     7
370
    18
100
AcDbLine
 10
23.4492051828
 20
31.417296526
 30
0.0
 11
23.4492051828
 21
27.79524935
 31
0.0
  0
LINE
  5
130
330
1B
100
AcDbEntity
 67
     1
  8
SLD-0
  6
SLD-実線
 62
     7
370
    18
100
AcDbLine
 10
24.0322311203
 20
31.2249074816
 30
0.0
 11
24.0322311203
 21
27.79524935
 31
0.0
  0
LINE
  5
131
330
1B
100
AcDbEntity
 67
     1
  8
SLD-0
  6
SLD-実線
 62
     7
370
    18
100
AcDbLine
 10
23.7793692783
 20
31.417296526
 30
0.0
 11
23.7793692783
 21
27.79524935
 31
0.0
  0
LINE
  5
132
330
1B
100
AcDbEntity
 67
     1
  8
SLD-0
  6
SLD-実線
 62
     7
370
    18
100
AcDbLine
 10
23.8868080737
 20
31.3923795615
 30
0.0
 11
23.8868080737
 21
31.417296526
 31
0.0
  0
LINE
  5
133
330
1B
100
AcDbEntity
 67
     1
  8
SLD-0
  6
SLD-実線
 62
     7
370
    18
100
AcDbLine
 10
20.5476000119
 20
27.79524935
 30
0.0
 11
20.5476000119
 21
28.6238160846
 31
0.0
  0
LINE
  5
134
330
1B
100
AcDbEntity
 67
     1
  8
SLD-0
  6
SLD-実線
 62
     7
370
    18
100
AcDbLine
 10
20.235686274
 20
31.417296526
 30
0.0
 11
20.235686274
 21
27.79524935
 31
0.0
  0
LINE
  5
135
330
1B
100
AcDbEntity
 67
     1
  8
SLD-0
  6
SLD-実線
 62
     7
370
    18
100
AcDbLine
 10
20.1243308717
 20
31.417296526
 30
0.0
 11
20.1243308717
 21
27.79524935
 31
0.0
  0
LINE
  5
136
330
1B
100
AcDbEntity
 67
     1
  8
SLD-0
  6
SLD-実線
 62
     7
370
    18
100
AcDbLine
 10
20.3888859848
 20
31.417296526
 30
0.0
 11
20.3888859848
 21
27.79524935
 31
0.0
  0
LINE
  5
137
330
1B
100
AcDbEntity
 67
     1
  8
SLD-0
  6
SLD-実線
 62
     7
370
    18
100
AcDbLine
 10
20.7300307529
 20
27.79524935
 30
0.0
 11
20.7300307529
 21
28.3935847002
 31
0.0
  0
LINE
  5
138
330
1B
100
AcDbEntity
 67
     1
  8
SLD-0
  6
SLD-実線
 62
     7
370
    18
100
AcDbLine
 10
21.0967732299
 20
28.345739855
 30
0.0
 11
21.0967732299
 21
27.79524935
 31
0.0
  0
LINE
  5
139
330
1B
100
AcDbEntity
 67
     1
  8
SLD-0
  6
SLD-実線
 62
     7
370
    18
100
AcDbLine
 10
20.9557657165
 20
28.345739855
 30
0.0
 11
20.9557657165
 21
27.79524935
 31
0.0
  0
LINE
  5
13A
330
1B
100
AcDbEntity
 67
     1
  8
SLD-0
  6
SLD-実線
 62
     7
370
    18
100
AcDbLine
 10
24.2469310089
 20
27.79524935
 30
0.0
 11
24.2469310089
 21
31.2231968517
 31
0.0
  0
LINE
  5
13B
330
1B
100
AcDbEntity
 67
     1
  8
SLD-0
  6
SLD-実線
 62
     7
370
    18
100
AcDbLine
 10
23.9769331615
 20
31.417296526
 30
0.0
 11
23.9769331615
 21
31.2927494632
 31
0.0
  0
LINE
  5
13C
330
1B
100
AcDbEntity
 67
     1
  8
SLD-0
  6
SLD-実線
 62
     7
370
    18
100
AcDbLine
 10
24.0787891008
 20
31.3940900124
 30
0.0
 11
24.0787891008
 21
31.417296526
 31
0.0
  0
LINE
  5
13D
330
1B
100
AcDbEntity
 67
     1
  8
SLD-0
  6
SLD-実線
 62
     7
370
    18
100
AcDbLine
 10
24.0937647627
 20
31.3631882593
 30
0.0
 11
24.2319551681
 21
31.2540987839
 31
0.0
  0
LINE
  5
13E
330
1B
100
AcDbEntity
 67
     1
  8
SLD-0
  6
SLD-実線
 62
     7
370
    18
100
AcDbLine
 10
24.0194023804
 20
31.2539860423
 30
0.0
 11
23.8996368136
 21
31.3633010008
 31
0.0
  0
LINE
  5
13F
330
1B
100
AcDbEntity
 67
     1
  8
SLD-0
  6
SLD-実線
 62
     7
370
    18
100
AcDbLine
 10
20.4820377368
 20
31.417296526
 30
0.0
 11
19.4269196464
 21
31.417296526
 31
0.0
  0
LINE
  5
140
330
1B
100
AcDbEntity
 67
     1
  8
SLD-0
  6
SLD-実線
 62
     7
370
    18
100
AcDbLine
 10
21.9190455838
 20
33.385800426
 30
0.0
 11
20.191880262
 21
33.385800426
 31
0.0
  0
LINE
  5
141
330
1B
100
AcDbEntity
 67
     1
  8
SLD-0
  6
SLD-実線
 62
     7
370
    18
100
AcDbLine
 10
19.4269196464
 20
31.417296526
 30
0.0
 11
19.4269196464
 21
32.7507610678
 31
0.0
  0
LINE
  5
142
330
1B
100
AcDbEntity
 67
     1
  8
SLD-0
  6
SLD-実線
 62
     7
370
    18
100
AcDbLine
 10
20.1473920738
 20
33.2385674294
 30
0.0
 11
20.1473920738
 21
33.3413122378
 31
0.0
  0
LINE
  5
143
330
1B
100
AcDbEntity
 67
     1
  8
SLD-0
  6
SLD-実線
 62
     7
370
    18
100
AcDbLine
 10
20.1389978363
 20
33.2224425192
 30
0.0
 11
19.5289028227
 21
32.795249256
 31
0.0
  0
LINE
  5
144
330
1B
100
AcDbEntity
 67
     1
  8
SLD-0
  6
SLD-実線
 62
     7
370
    18
100
AcDbLine
 10
21.9190455838
 20
32.795249256
 30
0.0
 11
19.4714078346
 21
32.795249256
 31
0.0
  0
LINE
  5
145
330
1B
100
AcDbEntity
 67
     1
  8
SLD-0
  6
SLD-実線
 62
     7
370
    18
100
AcDbLine
 10
21.9190455838
 20
33.228320114
 30
0.0
 11
20.144514479
 21
33.228320114
 31
0.0
  0
LINE
  5
146
330
1B
100
AcDbEntity
 67
     1
  8
SLD-0
  6
SLD-実線
 62
     7
370
    18
100
AcDbLine
 10
21.9190455838
 20
32.795249256
 30
0.0
 11
24.3666833331
 21
32.795249256
 31
0.0
  0
LINE
  5
147
330
1B
100
AcDbEntity
 67
     1
  8
SLD-0
  6
SLD-実線
 62
     7
370
    18
100
AcDbLine
 10
24.4111715212
 20
31.417296526
 30
0.0
 11
24.4111715212
 21
32.7507610678
 31
0.0
  0
LINE
  5
148
330
1B
100
AcDbEntity
 67
     1
  8
SLD-0
  6
SLD-実線
 62
     7
370
    18
100
AcDbLine
 10
21.9190455838
 20
33.228320114
 30
0.0
 11
23.6935765097
 21
33.228320114
 31
0.0
  0
LINE
  5
149
330
1B
100
AcDbEntity
 67
     1
  8
SLD-0
  6
SLD-実線
 62
     7
370
    18
100
AcDbLine
 10
23.6990931524
 20
33.2224425192
 30
0.0
 11
24.3091883449
 21
32.795249256
 31
0.0
  0
LINE
  5
14A
330
1B
100
AcDbEntity
 67
     1
  8
SLD-0
  6
SLD-実線
 62
     7
370
    18
100
AcDbLine
 10
23.6906990938
 20
33.2385674294
 30
0.0
 11
23.6906990938
 21
33.3413122378
 31
0.0
  0
LINE
  5
14B
330
1B
100
AcDbEntity
 67
     1
  8
SLD-0
  6
SLD-実線
 62
     7
370
    18
100
AcDbLine
 10
21.9190455838
 20
33.385800426
 30
0.0
 11
23.6462109057
 21
33.385800426
 31
0.0
  0
LINE
  5
14C
330
1B
100
AcDbEntity
 67
     1
  8
SLD-0
  6
SLD-実線
 62
     7
370
    18
100
AcDbLine
 10
23.3560534308
 20
31.417296526
 30
0.0
 11
24.4111715212
 21
31.417296526
 31
0.0
  0
LINE
  5
14D
330
1B
100
AcDbEntity
 67
     1
  8
SLD-0
  6
SLD-鎖線
 62
     7
370
    18
100
AcDbLine
 10
24.3214730619
 20
31.988162657
 30
0.0
 11
24.5365040171
 21
31.988162657
 31
0.0
  0
LINE
  5
14E
330
1B
100
AcDbEntity
 67
     1
  8
SLD-0
  6
SLD-実線
 62
     7
370
    18
100
AcDbLine
 10
21.9190455838
 20
25.472414748
 30
0.0
 11
18.7497543048
 21
25.472414748
 31
0.0
  0
LINE
  5
14F
330
1B
100
AcDbEntity
 67
     1
  8
SLD-0
  6
SLD-実線
 62
     7
370
    18
100
AcDbLine
 10
18.6710141488
 20
25.078713968
 30
0.0
 11
18.6710141488
 21
25.393674592
 31
0.0
  0
LINE
  5
150
330
1B
100
AcDbEntity
 67
     1
  8
SLD-0
  6
SLD-実線
 62
     7
370
    18
100
AcDbLine
 10
18.9269196558
 20
24.960603734
 30
0.0
 11
18.9269196558
 21
25.078713968
 31
0.0
  0
LINE
  5
151
330
1B
100
AcDbEntity
 67
     1
  8
SLD-0
  6
SLD-実線
 62
     7
370
    18
100
AcDbLine
 10
24.9111715118
 20
24.960603734
 30
0.0
 11
24.9111715118
 21
25.078713968
 31
0.0
  0
LINE
  5
152
330
1B
100
AcDbEntity
 67
     1
  8
SLD-0
  6
SLD-実線
 62
     7
370
    18
100
AcDbLine
 10
21.9190455838
 20
24.960603734
 30
0.0
 11
24.9111715118
 21
24.960603734
 31
0.0
  0
LINE
  5
153
330
1B
100
AcDbEntity
 67
     1
  8
SLD-0
  6
SLD-実線
 62
     7
370
    18
100
AcDbLine
 10
21.9190455838
 20
25.472414748
 30
0.0
 11
25.0883368628
 21
25.472414748
 31
0.0
  0
LINE
  5
154
330
1B
100
AcDbEntity
 67
     1
  8
SLD-0
  6
SLD-実線
 62
     7
370
    18
100
AcDbLine
 10
25.1670770188
 20
25.078713968
 30
0.0
 11
25.1670770188
 21
25.393674592
 31
0.0
  0
LINE
  5
155
330
1B
100
AcDbEntity
 67
     1
  8
SLD-0
  6
SLD-実線
 62
     7
370
    18
100
AcDbLine
 10
21.9190455838
 20
25.078713968
 30
0.0
 11
25.1670770188
 21
25.078713968
 31
0.0
  0
LINE
  5
156
330
1B
100
AcDbEntity
 67
     1
  8
SLD-0
  6
SLD-実線
 62
     7
370
    18
100
AcDbLine
 10
24.3206203418
 20
27.79524935
 30
0.0
 11
24.3206203418
 21
25.590524982
 31
0.0
  0
LINE
  5
157
330
1B
100
AcDbEntity
 67
     1
  8
SLD-0
  6
SLD-実線
 62
     7
370
    18
100
AcDbLine
 10
18.5922739928
 20
3.4559137302
 30
0.0
 11
18.0607779398
 21
3.4559137302
 31
0.0
  0
LINE
  5
158
330
1B
100
AcDbEntity
 67
     1
  8
SLD-0
  6
SLD-実線
 62
     7
370
    18
100
AcDbLine
 10
18.5922739928
 20
5.4244176302
 30
0.0
 11
18.0607779398
 21
5.4244176302
 31
0.0
  0
LINE
  5
159
330
1B
100
AcDbEntity
 67
     1
  8
SLD-0
  6
SLD-実線
 62
     7
370
    18
100
AcDbLine
 10
17.9820377838
 20
3.5346538862
 30
0.0
 11
17.9820377838
 21
5.3456774742
 31
0.0
  0
LINE
  5
15A
330
1B
100
AcDbEntity
 67
     1
  8
SLD-0
  6
SLD-鎖線
 62
     7
370
    18
100
AcDbLine
 10
26.536212104
 20
4.4401656802
 30
0.0
 11
17.6554110899
 21
4.4401656802
 31
0.0
  0
LINE
  5
15B
330
1B
100
AcDbEntity
 67
     1
  8
SLD-0
  6
SLD-破線
 62
     7
370
    18
100
AcDbLine
 10
18.6710141488
 20
5.0405593697
 30
0.0
 11
17.9820377838
 21
5.0405593697
 31
0.0
  0
LINE
  5
15C
330
1B
100
AcDbEntity
 67
     1
  8
SLD-0
  6
SLD-破線
 62
     7
370
    18
100
AcDbLine
 10
18.6710141488
 20
5.0946735419
 30
0.0
 11
17.9820377838
 21
5.0946735419
 31
0.0
  0
LINE
  5
15D
330
1B
100
AcDbEntity
 67
     1
  8
SLD-0
  6
SLD-破線
 62
     7
370
    18
100
AcDbLine
 10
18.6710141488
 20
3.7856578185
 30
0.0
 11
17.9820377838
 21
3.7856578185
 31
0.0
  0
LINE
  5
15E
330
1B
100
AcDbEntity
 67
     1
  8
SLD-0
  6
SLD-破線
 62
     7
370
    18
100
AcDbLine
 10
18.6710141488
 20
3.8397719907
 30
0.0
 11
17.9820377838
 21
3.8397719907
 31
0.0
  0
LINE
  5
15F
330
1B
100
AcDbEntity
 67
     1
  8
SLD-0
  6
SLD-実線
 62
     7
370
    18
100
AcDbLine
 10
19.0056598118
 20
14.2440685024
 30
0.0
 11
19.0056598118
 21
24.921233656
 31
0.0
  0
LINE
  5
160
330
1B
100
AcDbEntity
 67
     1
  8
SLD-0
  6
SLD-実線
 62
     7
370
    18
100
AcDbLine
 10
20.0095968008
 20
15.4369818658
 30
0.0
 11
20.0095968008
 21
16.732257432
 31
0.0
  0
LINE
  5
161
330
1B
100
AcDbEntity
 67
     1
  8
SLD-0
  6
SLD-実線
 62
     7
370
    18
100
AcDbLine
 10
23.8284943668
 20
15.4369818658
 30
0.0
 11
23.8284943668
 21
16.732257432
 31
0.0
  0
LINE
  5
162
330
1B
100
AcDbEntity
 67
     1
  8
SLD-0
  6
SLD-実線
 62
     7
370
    18
100
AcDbLine
 10
24.5568408098
 20
14.8464306958
 30
0.0
 11
24.5568408098
 21
24.921233656
 31
0.0
  0
LINE
  5
163
330
1B
100
AcDbEntity
 67
     1
  8
SLD-0
  6
SLD-実線
 62
     7
370
    18
100
AcDbLine
 10
21.9190455838
 20
15.2401314758
 30
0.0
 11
24.1237699518
 21
15.2401314758
 31
0.0
  0
LINE
  5
164
330
1B
100
AcDbEntity
 67
     1
  8
SLD-0
  6
SLD-実線
 62
     7
370
    18
100
AcDbLine
 10
21.9190455838
 20
15.2401314758
 30
0.0
 11
19.3206204358
 21
15.2401314758
 31
0.0
  0
LINE
  5
165
330
1B
100
AcDbEntity
 67
     1
  8
SLD-0
  6
SLD-実線
 62
     7
370
    18
100
AcDbLine
 10
22.9032975338
 20
16.3818637378
 30
0.0
 11
23.3954235088
 21
16.3818637378
 31
0.0
  0
LINE
  5
166
330
1B
100
AcDbEntity
 67
     1
  8
SLD-0
  6
SLD-実線
 62
     7
370
    18
100
AcDbLine
 10
22.5883369098
 20
15.9487928798
 30
0.0
 11
22.5883369098
 21
16.0669031138
 31
0.0
  0
LINE
  5
167
330
1B
100
AcDbEntity
 67
     1
  8
SLD-0
  6
SLD-実線
 62
     7
370
    18
100
AcDbLine
 10
22.6277069878
 20
15.9094228018
 30
0.0
 11
22.9032975338
 21
15.9094228018
 31
0.0
  0
LINE
  5
168
330
1B
100
AcDbEntity
 67
     1
  8
SLD-0
  6
SLD-実線
 62
     7
370
    18
100
AcDbLine
 10
23.1001479238
 20
15.2795015538
 30
0.0
 11
23.1001479238
 21
15.7125724118
 31
0.0
  0
LINE
  5
169
330
1B
100
AcDbEntity
 67
     1
  8
SLD-0
  6
SLD-実線
 62
     7
370
    18
100
AcDbLine
 10
22.6473920268
 20
15.2401314758
 30
0.0
 11
22.6473920268
 21
15.3582417098
 31
0.0
  0
LINE
  5
16A
330
1B
100
AcDbEntity
 67
     1
  8
SLD-0
  6
SLD-実線
 62
     7
370
    18
100
AcDbLine
 10
22.6473920268
 20
15.3582417098
 30
0.0
 11
22.8442424168
 21
15.3582417098
 31
0.0
  0
LINE
  5
16B
330
1B
100
AcDbEntity
 67
     1
  8
SLD-0
  6
SLD-実線
 62
     7
370
    18
100
AcDbLine
 10
22.8442424168
 20
15.2795015538
 30
0.0
 11
22.8442424168
 21
15.3582417098
 31
0.0
  0
LINE
  5
16C
330
1B
100
AcDbEntity
 67
     1
  8
SLD-0
  6
SLD-実線
 62
     7
370
    18
100
AcDbLine
 10
21.9190455838
 20
14.6495803058
 30
0.0
 11
19.0843999678
 21
14.6495803058
 31
0.0
  0
LINE
  5
16D
330
1B
100
AcDbEntity
 67
     1
  8
SLD-0
  6
SLD-実線
 62
     7
370
    18
100
AcDbLine
 10
19.9308566448
 20
23.818871472
 30
0.0
 11
19.9308566448
 21
23.976351784
 31
0.0
  0
LINE
  5
16E
330
1B
100
AcDbEntity
 67
     1
  8
SLD-0
  6
SLD-実線
 62
     7
370
    18
100
AcDbLine
 10
20.0095968008
 20
23.976351784
 30
0.0
 11
19.9308566448
 21
23.976351784
 31
0.0
  0
LINE
  5
16F
330
1B
100
AcDbEntity
 67
     1
  8
SLD-0
  6
SLD-実線
 62
     7
370
    18
100
AcDbLine
 10
20.0095968008
 20
23.818871472
 30
0.0
 11
19.9308566448
 21
23.818871472
 31
0.0
  0
LINE
  5
170
330
1B
100
AcDbEntity
 67
     1
  8
SLD-0
  6
SLD-実線
 62
     7
370
    18
100
AcDbLine
 10
20.0095968008
 20
23.976351784
 30
0.0
 11
20.0095968008
 21
24.763753344
 31
0.0
  0
LINE
  5
171
330
1B
100
AcDbEntity
 67
     1
  8
SLD-0
  6
SLD-実線
 62
     7
370
    18
100
AcDbLine
 10
23.8284943668
 20
23.818871472
 30
0.0
 11
23.9072345228
 21
23.818871472
 31
0.0
  0
LINE
  5
172
330
1B
100
AcDbEntity
 67
     1
  8
SLD-0
  6
SLD-実線
 62
     7
370
    18
100
AcDbLine
 10
23.9072345228
 20
23.818871472
 30
0.0
 11
23.9072345228
 21
23.976351784
 31
0.0
  0
LINE
  5
173
330
1B
100
AcDbEntity
 67
     1
  8
SLD-0
  6
SLD-実線
 62
     7
370
    18
100
AcDbLine
 10
23.8284943668
 20
23.976351784
 30
0.0
 11
23.9072345228
 21
23.976351784
 31
0.0
  0
LINE
  5
174
330
1B
100
AcDbEntity
 67
     1
  8
SLD-0
  6
SLD-実線
 62
     7
370
    18
100
AcDbLine
 10
23.8284943668
 20
23.976351784
 30
0.0
 11
23.8284943668
 21
24.763753344
 31
0.0
  0
LINE
  5
175
330
1B
100
AcDbEntity
 67
     1
  8
SLD-0
  6
SLD-実線
 62
     7
370
    18
100
AcDbLine
 10
19.9308566448
 20
16.732257432
 30
0.0
 11
19.9308566448
 21
16.889737744
 31
0.0
  0
LINE
  5
176
330
1B
100
AcDbEntity
 67
     1
  8
SLD-0
  6
SLD-実線
 62
     7
370
    18
100
AcDbLine
 10
20.0095968008
 20
16.889737744
 30
0.0
 11
19.9308566448
 21
16.889737744
 31
0.0
  0
LINE
  5
177
330
1B
100
AcDbEntity
 67
     1
  8
SLD-0
  6
SLD-実線
 62
     7
370
    18
100
AcDbLine
 10
20.0095968008
 20
16.732257432
 30
0.0
 11
19.9308566448
 21
16.732257432
 31
0.0
  0
LINE
  5
178
330
1B
100
AcDbEntity
 67
     1
  8
SLD-0
  6
SLD-実線
 62
     7
370
    18
100
AcDbLine
 10
20.0095968008
 20
16.889737744
 30
0.0
 11
20.0095968008
 21
23.818871472
 31
0.0
  0
LINE
  5
179
330
1B
100
AcDbEntity
 67
     1
  8
SLD-0
  6
SLD-鎖線
 62
     7
370
    18
100
AcDbLine
 10
20.0908469782
 20
16.810997588
 30
0.0
 11
19.8756112987
 21
16.810997588
 31
0.0
  0
LINE
  5
17A
330
1B
100
AcDbEntity
 67
     1
  8
SLD-0
  6
SLD-鎖線
 62
     7
370
    18
100
AcDbLine
 10
23.7472440104
 20
16.810997588
 30
0.0
 11
23.962479869
 21
16.810997588
 31
0.0
  0
LINE
  5
17B
330
1B
100
AcDbEntity
 67
     1
  8
SLD-0
  6
SLD-実線
 62
     7
370
    18
100
AcDbLine
 10
23.8284943668
 20
16.732257432
 30
0.0
 11
23.9072345228
 21
16.732257432
 31
0.0
  0
LINE
  5
17C
330
1B
100
AcDbEntity
 67
     1
  8
SLD-0
  6
SLD-実線
 62
     7
370
    18
100
AcDbLine
 10
23.9072345228
 20
16.732257432
 30
0.0
 11
23.9072345228
 21
16.889737744
 31
0.0
  0
LINE
  5
17D
330
1B
100
AcDbEntity
 67
     1
  8
SLD-0
  6
SLD-実線
 62
     7
370
    18
100
AcDbLine
 10
23.8284943668
 20
16.889737744
 30
0.0
 11
23.9072345228
 21
16.889737744
 31
0.0
  0
LINE
  5
17E
330
1B
100
AcDbEntity
 67
     1
  8
SLD-0
  6
SLD-実線
 62
     7
370
    18
100
AcDbLine
 10
23.8284943668
 20
16.889737744
 30
0.0
 11
23.8284943668
 21
23.818871472
 31
0.0
  0
LINE
  5
17F
330
1B
100
AcDbEntity
 67
     1
  8
SLD-0
  6
SLD-実線
 62
     7
370
    18
100
AcDbLine
 10
24.7733762388
 20
14.0669031514
 30
0.0
 11
24.4977856928
 21
14.0669031514
 31
0.0
  0
LINE
  5
180
330
1B
100
AcDbEntity
 67
     1
  8
SLD-0
  6
SLD-実線
 62
     7
370
    18
100
AcDbLine
 10
24.7733762388
 20
14.0669031514
 30
0.0
 11
24.7733762388
 21
14.2440685024
 31
0.0
  0
LINE
  5
181
330
1B
100
AcDbEntity
 67
     1
  8
SLD-0
  6
SLD-鎖線
 62
     7
370
    18
100
AcDbLine
 10
24.6355809658
 20
13.9816404472
 30
0.0
 11
24.6355809658
 21
14.4174919064
 31
0.0
  0
LINE
  5
182
330
1B
100
AcDbEntity
 67
     1
  8
SLD-0
  6
SLD-実線
 62
     7
370
    18
100
AcDbLine
 10
24.4977856928
 20
14.0669031514
 30
0.0
 11
24.4977856928
 21
14.2440685024
 31
0.0
  0
LINE
  5
183
330
1B
100
AcDbEntity
 67
     1
  8
SLD-0
  6
SLD-実線
 62
     7
370
    18
100
AcDbLine
 10
21.9190455838
 20
14.2440685024
 30
0.0
 11
24.8324313558
 21
14.2440685024
 31
0.0
  0
LINE
  5
184
330
1B
100
AcDbEntity
 67
     1
  8
SLD-0
  6
SLD-実線
 62
     7
370
    18
100
AcDbLine
 10
22.3817499416
 20
14.0865881904
 30
0.0
 11
21.9190455838
 21
14.0865881904
 31
0.0
  0
LINE
  5
185
330
1B
100
AcDbEntity
 67
     1
  8
SLD-0
  6
SLD-実線
 62
     7
370
    18
100
AcDbLine
 10
22.3817499416
 20
14.0865881904
 30
0.0
 11
22.5392302536
 21
14.2440685024
 31
0.0
  0
LINE
  5
186
330
1B
100
AcDbEntity
 67
     1
  8
SLD-0
  6
SLD-実線
 62
     7
370
    18
100
AcDbLine
 10
24.8324313558
 20
14.2440685024
 30
0.0
 11
24.8324313558
 21
14.5708401498
 31
0.0
  0
LINE
  5
187
330
1B
100
AcDbEntity
 67
     1
  8
SLD-0
  6
SLD-実線
 62
     7
370
    18
100
AcDbLine
 10
21.9190455838
 20
14.6495803058
 30
0.0
 11
24.7536911998
 21
14.6495803058
 31
0.0
  0
LINE
  5
188
330
1B
100
AcDbEntity
 67
     1
  8
SLD-0
  6
SLD-実線
 62
     7
370
    18
100
AcDbLine
 10
21.9190455838
 20
14.3346196818
 30
0.0
 11
24.8324313558
 21
14.3346196818
 31
0.0
  0
LINE
  5
189
330
1B
100
AcDbEntity
 67
     1
  8
SLD-0
  6
SLD-鎖線
 62
     7
370
    18
100
AcDbLine
 10
23.7472440104
 20
23.897611628
 30
0.0
 11
23.962479869
 21
23.897611628
 31
0.0
  0
LINE
  5
18A
330
1B
100
AcDbEntity
 67
     1
  8
SLD-0
  6
SLD-鎖線
 62
     7
370
    18
100
AcDbLine
 10
20.0908469782
 20
23.897611628
 30
0.0
 11
19.8756112987
 21
23.897611628
 31
0.0
  0
LINE
  5
18B
330
1B
100
AcDbEntity
 67
     1
  8
SLD-0
  6
SLD-実線
 62
     7
370
    18
100
AcDbLine
 10
24.3206203418
 20
14.8464306958
 30
0.0
 11
24.3206203418
 21
15.0432810858
 31
0.0
  0
LINE
  5
18C
330
1B
100
AcDbEntity
 67
     1
  8
SLD-0
  6
SLD-実線
 62
     7
370
    18
100
AcDbLine
 10
19.6941136285
 20
7.6881971152
 30
0.0
 11
24.1439775391
 21
7.6881971152
 31
0.0
  0
LINE
  5
18D
330
1B
100
AcDbEntity
 67
     1
  8
SLD-0
  6
SLD-実線
 62
     7
370
    18
100
AcDbLine
 10
19.6941136285
 20
1.1921342452
 30
0.0
 11
24.1439775391
 21
1.1921342452
 31
0.0
  0
LINE
  5
18E
330
1B
100
AcDbEntity
 67
     1
  8
SLD-0
  6
SLD-実線
 62
     7
370
    18
100
AcDbLine
 10
25.1670770188
 20
2.2152337249
 30
0.0
 11
25.1670770188
 21
6.6650976355
 31
0.0
  0
LINE
  5
18F
330
1B
100
AcDbEntity
 67
     1
  8
SLD-0
  6
SLD-実線
 62
     7
370
    18
100
AcDbLine
 10
18.6710141488
 20
2.2152337249
 30
0.0
 11
18.6710141488
 21
6.6650976355
 31
0.0
  0
LINE
  5
190
330
1B
100
AcDbEntity
 67
     1
  8
SLD-0
  6
SLD-鎖線
 62
     7
370
    18
100
AcDbLine
 10
24.8533511836
 20
1.5058599015
 30
0.0
 11
23.7233805535
 21
2.6358307106
 31
0.0
  0
LINE
  5
191
330
1B
100
AcDbEntity
 67
     1
  8
SLD-0
  6
SLD-鎖線
 62
     7
370
    18
100
AcDbLine
 10
20.0898684529
 20
6.2693428112
 30
0.0
 11
18.9671052313
 21
7.3921058538
 31
0.0
  0
LINE
  5
192
330
1B
100
AcDbEntity
 67
     1
  8
SLD-0
  6
SLD-鎖線
 62
     7
370
    18
100
AcDbLine
 10
24.2239662635
 20
3.6912514137
 30
0.0
 11
24.8732611689
 21
3.4802827348
 31
0.0
  0
LINE
  5
193
330
1B
100
AcDbEntity
 67
     1
  8
SLD-0
  6
SLD-鎖線
 62
     7
370
    18
100
AcDbLine
 10
18.9808265983
 20
3.4854804798
 30
0.0
 11
19.6755393626
 21
3.7112063167
 31
0.0
  0
LINE
  5
194
330
1B
100
AcDbEntity
 67
     1
  8
SLD-0
  6
SLD-鎖線
 62
     7
370
    18
100
AcDbLine
 10
20.0441614029
 20
7.0207221815
 30
0.0
 11
20.5477011214
 21
6.3276592024
 31
0.0
  0
LINE
  5
195
330
1B
100
AcDbEntity
 67
     1
  8
SLD-0
  6
SLD-鎖線
 62
     7
370
    18
100
AcDbLine
 10
23.8009528498
 20
7.0303887883
 30
0.0
 11
23.3257146698
 21
6.3762796381
 31
0.0
  0
LINE
  5
196
330
1B
100
AcDbEntity
 67
     1
  8
SLD-0
  6
SLD-実線
 62
     7
370
    18
100
AcDbLine
 10
18.6710141488
 20
25.275564358
 30
0.0
 11
18.0607779398
 21
25.275564358
 31
0.0
  0
LINE
  5
197
330
1B
100
AcDbEntity
 67
     1
  8
SLD-0
  6
SLD-実線
 62
     7
370
    18
100
AcDbLine
 10
19.1667890142
 20
27.244068258
 30
0.0
 11
18.0607779398
 21
27.244068258
 31
0.0
  0
LINE
  5
198
330
1B
100
AcDbEntity
 67
     1
  8
SLD-0
  6
SLD-破線
 62
     7
370
    18
100
AcDbLine
 10
18.6710141488
 20
25.6053084462
 30
0.0
 11
17.9820377838
 21
25.6053084462
 31
0.0
  0
LINE
  5
199
330
1B
100
AcDbEntity
 67
     1
  8
SLD-0
  6
SLD-破線
 62
     7
370
    18
100
AcDbLine
 10
18.6710141488
 20
25.6594226185
 30
0.0
 11
17.9820377838
 21
25.6594226185
 31
0.0
  0
LINE
  5
19A
330
1B
100
AcDbEntity
 67
     1
  8
SLD-0
  6
SLD-破線
 62
     7
370
    18
100
AcDbLine
 10
18.6710141488
 20
26.9143241697
 30
0.0
 11
17.9820377838
 21
26.9143241697
 31
0.0
  0
LINE
  5
19B
330
1B
100
AcDbEntity
 67
     1
  8
SLD-0
  6
SLD-破線
 62
     7
370
    18
100
AcDbLine
 10
18.6710141488
 20
26.8602099975
 30
0.0
 11
17.9820377838
 21
26.8602099975
 31
0.0
  0
LINE
  5
19C
330
1B
100
AcDbEntity
 67
     1
  8
SLD-0
  6
SLD-実線
 62
     7
370
    18
100
AcDbLine
 10
17.9820377838
 20
25.354304514
 30
0.0
 11
17.9820377838
 21
27.165328102
 31
0.0
  0
LINE
  5
19D
330
1B
100
AcDbEntity
 67
     1
  8
SLD-0
  6
SLD-鎖線
 62
     7
370
    18
100
AcDbLine
 10
18.8841419186
 20
26.259816308
 30
0.0
 11
17.753085748
 21
26.259816308
 31
0.0
  0
LINE
  5
19E
330
1B
100
AcDbEntity
 67
     1
  8
SLD-0
  6
SLD-実線
 62
     7
370
    18
100
AcDbLine
 10
23.5135337428
 20
15.4369818658
 30
0.0
 11
23.5135337428
 21
24.763753344
 31
0.0
  0
LINE
  5
19F
330
1B
100
AcDbEntity
 67
     1
  8
SLD-0
  6
SLD-実線
 62
     7
370
    18
100
AcDbLine
 10
20.3245574248
 20
15.4369818658
 30
0.0
 11
20.3245574248
 21
24.763753344
 31
0.0
  0
LINE
  5
1A0
330
1B
100
AcDbEntity
 67
     1
  8
SLD-0
  6
SLD-実線
 62
     7
370
    18
100
AcDbLine
 10
21.5843999208
 20
15.2401314758
 30
0.0
 11
21.5843999208
 21
24.64564311
 31
0.0
  0
LINE
  5
1A1
330
1B
100
AcDbEntity
 67
     1
  8
SLD-0
  6
SLD-実線
 62
     7
370
    18
100
AcDbLine
 10
22.2536912468
 20
15.2401314758
 30
0.0
 11
22.2536912468
 21
24.64564311
 31
0.0
  0
LINE
  5
1A2
330
1B
100
AcDbEntity
 67
     1
  8
SLD-0
  6
SLD-実線
 62
     7
370
    18
100
AcDbLine
 10
21.226132211
 20
16.0905251606
 30
0.0
 11
20.9347936338
 21
16.3818637378
 31
0.0
  0
LINE
  5
1A3
330
1B
100
AcDbEntity
 67
     1
  8
SLD-0
  6
SLD-実線
 62
     7
370
    18
100
AcDbLine
 10
22.5883369098
 20
16.0669031138
 30
0.0
 11
22.9032975338
 21
16.3818637378
 31
0.0
  0
LINE
  5
1A4
330
1B
100
AcDbEntity
 67
     1
  8
SLD-0
  6
SLD-鎖線
 62
     7
370
    18
100
AcDbLine
 10
21.5856712164
 20
25.787375372
 30
0.0
 11
22.2901040951
 21
25.787375372
 31
0.0
  0
LINE
  5
1A5
330
1B
100
AcDbEntity
 67
     1
  8
SLD-0
  6
SLD-実線
 62
     7
370
    18
100
AcDbLine
 10
22.9308565884
 20
8.403339192
 30
0.0
 11
22.9308565884
 21
7.6881971152
 31
0.0
  0
LINE
  5
1A6
330
1B
100
AcDbEntity
 67
     1
  8
SLD-0
  6
SLD-実線
 62
     7
370
    18
100
AcDbLine
 10
23.3048723294
 20
7.6881971152
 30
0.0
 11
23.3048723294
 21
8.5090757684
 31
0.0
  0
LINE
  5
1A7
330
1B
100
AcDbEntity
 67
     1
  8
SLD-0
  6
SLD-実線
 62
     7
370
    18
100
AcDbLine
 10
22.9308565884
 20
8.403339192
 30
0.0
 11
21.9190455838
 21
8.403339192
 31
0.0
  0
LINE
  5
1A8
330
1B
100
AcDbEntity
 67
     1
  8
SLD-0
  6
SLD-実線
 62
     7
370
    18
100
AcDbLine
 10
23.2182581578
 20
8.59568994
 30
0.0
 11
21.9190455838
 21
8.59568994
 31
0.0
  0
LINE
  5
1A9
330
1B
100
AcDbEntity
 67
     1
  8
SLD-0
  6
SLD-実線
 62
     7
370
    18
100
AcDbLine
 10
21.9190455838
 20
8.6724490652
 30
0.0
 11
22.8048723388
 21
8.6724490652
 31
0.0
  0
LINE
  5
1AA
330
1B
100
AcDbEntity
 67
     1
  8
SLD-0
  6
SLD-実線
 62
     7
370
    18
100
AcDbLine
 10
20.9072345792
 20
8.403339192
 30
0.0
 11
21.9190455838
 21
8.403339192
 31
0.0
  0
LINE
  5
1AB
330
1B
100
AcDbEntity
 67
     1
  8
SLD-0
  6
SLD-実線
 62
     7
370
    18
100
AcDbLine
 10
20.9072345792
 20
8.403339192
 30
0.0
 11
20.9072345792
 21
7.6881971152
 31
0.0
  0
LINE
  5
1AC
330
1B
100
AcDbEntity
 67
     1
  8
SLD-0
  6
SLD-実線
 62
     7
370
    18
100
AcDbLine
 10
21.9190455838
 20
8.6724490652
 30
0.0
 11
21.0332188288
 21
8.6724490652
 31
0.0
  0
LINE
  5
1AD
330
1B
100
AcDbEntity
 67
     1
  8
SLD-0
  6
SLD-実線
 62
     7
370
    18
100
AcDbLine
 10
20.6198330098
 20
8.59568994
 30
0.0
 11
21.9190455838
 21
8.59568994
 31
0.0
  0
LINE
  5
1AE
330
1B
100
AcDbEntity
 67
     1
  8
SLD-0
  6
SLD-実線
 62
     7
370
    18
100
AcDbLine
 10
20.5332188382
 20
7.6881971152
 30
0.0
 11
20.5332188382
 21
8.5090757684
 31
0.0
  0
LINE
  5
1AF
330
1B
100
AcDbEntity
 67
     1
  8
SLD-0
  6
SLD-鎖線
 62
     7
370
    18
100
AcDbLine
 10
21.1894766999
 20
7.6738723123
 30
0.0
 11
22.620528391
 21
7.6738723123
 31
0.0
  0
LINE
  5
1B0
330
1B
100
AcDbEntity
 67
     1
  8
SLD-0
  6
SLD-鎖線
 62
     7
370
    18
100
AcDbLine
 10
20.9988770256
 20
31.8741479848
 30
0.0
 11
20.7281180829
 21
31.8741479848
 31
0.0
  0
LINE
  5
1B1
330
1B
100
AcDbEntity
 67
     1
  8
SLD-0
  6
SLD-鎖線
 62
     7
370
    18
100
AcDbLine
 10
20.8560534778
 20
31.7192864988
 30
0.0
 11
20.8560534778
 21
32.0200860637
 31
0.0
  0
LINE
  5
1B2
330
1B
100
AcDbEntity
 67
     1
  8
SLD-0
  6
SLD-実線
 62
     7
370
    18
100
AcDbLine
 10
22.6867621048
 20
31.7816585449
 30
0.0
 11
21.1513290628
 21
31.7816585449
 31
0.0
  0
LINE
  5
1B3
330
1B
100
AcDbEntity
 67
     1
  8
SLD-0
  6
SLD-実線
 62
     7
370
    18
100
AcDbLine
 10
20.9544786728
 20
28.9448556276
 30
0.0
 11
20.9544786728
 21
31.5848081549
 31
0.0
  0
LINE
  5
1B4
330
1B
100
AcDbEntity
 67
     1
  8
SLD-0
  6
SLD-鎖線
 62
     7
370
    18
100
AcDbLine
 10
23.1248612376
 20
31.8741479848
 30
0.0
 11
22.8541022949
 21
31.8741479848
 31
0.0
  0
LINE
  5
1B5
330
1B
100
AcDbEntity
 67
     1
  8
SLD-0
  6
SLD-鎖線
 62
     7
370
    18
100
AcDbLine
 10
22.9820376898
 20
31.7192864988
 30
0.0
 11
22.9820376898
 21
32.0200860637
 31
0.0
  0
LINE
  5
1B6
330
1B
100
AcDbEntity
 67
     1
  8
SLD-0
  6
SLD-実線
 62
     7
370
    18
100
AcDbLine
 10
22.8836124948
 20
28.9448556276
 30
0.0
 11
22.8836124948
 21
31.5848081549
 31
0.0
  0
LINE
  5
1B7
330
1B
100
AcDbEntity
 67
     1
  8
SLD-0
  6
SLD-鎖線
 62
     7
370
    18
100
AcDbLine
 10
22.9820376898
 20
28.4821564594
 30
0.0
 11
22.9820376898
 21
28.7829560243
 31
0.0
  0
LINE
  5
1B8
330
1B
100
AcDbEntity
 67
     1
  8
SLD-0
  6
SLD-鎖線
 62
     7
370
    18
100
AcDbLine
 10
23.1248612376
 20
28.6370179454
 30
0.0
 11
22.8541022949
 21
28.6370179454
 31
0.0
  0
LINE
  5
1B9
330
1B
100
AcDbEntity
 67
     1
  8
SLD-0
  6
SLD-実線
 62
     7
370
    18
100
AcDbLine
 10
21.1513290628
 20
28.7480052376
 30
0.0
 11
22.6867621048
 21
28.7480052376
 31
0.0
  0
LINE
  5
1BA
330
1B
100
AcDbEntity
 67
     1
  8
SLD-0
  6
SLD-鎖線
 62
     7
370
    18
100
AcDbLine
 10
20.8560534778
 20
28.4821564594
 30
0.0
 11
20.8560534778
 21
28.7829560243
 31
0.0
  0
LINE
  5
1BB
330
1B
100
AcDbEntity
 67
     1
  8
SLD-0
  6
SLD-鎖線
 62
     7
370
    18
100
AcDbLine
 10
20.9988770256
 20
28.6370179454
 30
0.0
 11
20.7281180829
 21
28.6370179454
 31
0.0
  0
ARC
  5
1BC
330
1B
100
AcDbEntity
 67
     1
  8
1
  6
SLD-実線
 62
     7
370
    18
100
AcDbCircle
 10
20.9151085948
 20
31.8020341708
 30
0.0
 40
0.3818897566000139
100
AcDbArc
 50
90.0
 51
180.0
  0
ARC
  5
1BD
330
1B
100
AcDbEntity
 67
     1
  8
1
  6
SLD-実線
 62
     7
370
    18
100
AcDbCircle
 10
22.9229825728
 20
31.8020341708
 30
0.0
 40
0.3818897565999997
100
AcDbArc
 50
0.0
 51
90.0
  0
ARC
  5
1BE
330
1B
100
AcDbEntity
 67
     1
  8
1
  6
SLD-実線
 62
     7
370
    18
100
AcDbCircle
 10
22.9229825728
 20
28.7276296116
 30
0.0
 40
0.3818897565999961
100
AcDbArc
 50
270.0
 51
0.0
  0
ARC
  5
1BF
330
1B
100
AcDbEntity
 67
     1
  8
1
  6
SLD-実線
 62
     7
370
    18
100
AcDbCircle
 10
20.9151085948
 20
28.7276296116
 30
0.0
 40
0.3818897566000139
100
AcDbArc
 50
180.0
 51
270.0
  0
ARC
  5
1C0
330
1B
100
AcDbEntity
 67
     1
  8
SLD-0
  6
SLD-実線
 62
     7
370
    18
100
AcDbCircle
 10
24.3999871979
 20
31.2411827139
 30
0.0
 40
0.0393700731181983
100
AcDbArc
 50
1.592246695
 51
60.0
  0
ARC
  5
1C1
330
1B
100
AcDbEntity
 67
     1
  8
SLD-0
  6
SLD-実線
 62
     7
370
    18
100
AcDbCircle
 10
24.4971487923
 20
27.7457783416
 30
0.0
 40
0.039370073118195
100
AcDbArc
 50
300.0
 51
1.592246695
  0
ARC
  5
1C2
330
1B
100
AcDbEntity
 67
     1
  8
SLD-0
  6
SLD-実線
 62
     7
370
    18
100
AcDbCircle
 10
19.4381039698
 20
31.2411827139
 30
0.0
 40
0.0393700780000015
100
AcDbArc
 50
120.0
 51
178.40776
  0
ARC
  5
1C3
330
1B
100
AcDbEntity
 67
     1
  8
SLD-0
  6
SLD-実線
 62
     7
370
    18
100
AcDbCircle
 10
20.9347936338
 20
15.7125724118
 30
0.0
 40
0.1968503899999998
100
AcDbArc
 50
90.0
 51
180.0
  0
ARC
  5
1C4
330
1B
100
AcDbEntity
 67
     1
  8
SLD-0
  6
SLD-実線
 62
     7
370
    18
100
AcDbCircle
 10
21.2103841798
 20
15.9487928798
 30
0.0
 40
0.0393700780000046
100
AcDbArc
 50
270.0
 51
0.0
  0
ARC
  5
1C5
330
1B
100
AcDbEntity
 67
     1
  8
SLD-0
  6
SLD-実線
 62
     7
370
    18
100
AcDbCircle
 10
20.9544786728
 20
15.2795015538
 30
0.0
 40
0.0393700780000117
100
AcDbArc
 50
270.0
 51
0.0
  0
ARC
  5
1C6
330
1B
100
AcDbEntity
 67
     1
  8
SLD-0
  6
SLD-実線
 62
     7
370
    18
100
AcDbCircle
 10
20.7773133218
 20
15.2795015538
 30
0.0
 40
0.0393700780000028
100
AcDbArc
 50
180.0
 51
270.0
  0
CIRCLE
  5
1C7
330
1B
100
AcDbEntity
 67
     1
  8
SLD-0
  6
SLD-実線
 62
     7
370
    18
100
AcDbCircle
 10
21.9190455838
 20
4.4401656802
 30
0.0
 40
0.4921259749999969
  0
ARC
  5
1C8
330
1B
100
AcDbEntity
 67
     1
  8
SLD-0
  6
SLD-実線
 62
     7
370
    18
100
AcDbCircle
 10
19.2455291702
 20
27.00784779
 30
0.0
 40
0.0787401560000021
100
AcDbArc
 50
180.0
 51
270.0
  0
ARC
  5
1C9
330
1B
100
AcDbEntity
 67
     1
  8
SLD-0
  6
SLD-実線
 62
     7
370
    18
100
AcDbCircle
 10
19.2455291702
 20
27.8833041085
 30
0.0
 40
0.0787401464377138
100
AcDbArc
 50
138.2157566915
 51
180.0
  0
ARC
  5
1CA
330
1B
100
AcDbEntity
 67
     1
  8
SLD-0
  6
SLD-実線
 62
     7
370
    18
100
AcDbCircle
 10
19.5167222575
 20
27.8833041085
 30
0.0
 40
0.0787401464377085
100
AcDbArc
 50
138.2157566915
 51
180.0
  0
ARC
  5
1CB
330
1B
100
AcDbEntity
 67
     1
  8
SLD-0
  6
SLD-実線
 62
     7
370
    18
100
AcDbCircle
 10
24.5925618185
 20
27.00784779
 30
0.0
 40
0.0787401560000021
100
AcDbArc
 50
270.0
 51
0.0
  0
ARC
  5
1CC
330
1B
100
AcDbEntity
 67
     1
  8
SLD-0
  6
SLD-実線
 62
     7
370
    18
100
AcDbCircle
 10
19.5568409038
 20
31.4006567625
 30
0.0
 40
0.0393700780000117
100
AcDbArc
 50
300.0
 51
0.0
  0
ARC
  5
1CD
330
1B
100
AcDbEntity
 67
     1
  8
SLD-0
  6
SLD-実線
 62
     7
370
    18
100
AcDbCircle
 10
24.2812502638
 20
31.4006567625
 30
0.0
 40
0.0393700780000028
100
AcDbArc
 50
180.0
 51
240.0
  0
ARC
  5
1CE
330
1B
100
AcDbEntity
 67
     1
  8
SLD-0
  6
SLD-実線
 62
     7
370
    18
100
AcDbCircle
 10
23.9261781517
 20
31.3923795615
 30
0.0
 40
0.0393700780000109
100
AcDbArc
 50
180.0
 51
227.612009
  0
ARC
  5
1CF
330
1B
100
AcDbEntity
 67
     1
  8
SLD-0
  6
SLD-実線
 62
     7
370
    18
100
AcDbCircle
 10
23.9928610423
 20
31.2249074816
 30
0.0
 40
0.039370078000001
100
AcDbArc
 50
0.0
 51
47.612009
  0
ARC
  5
1D0
330
1B
100
AcDbEntity
 67
     1
  8
SLD-0
  6
SLD-実線
 62
     7
370
    18
100
AcDbCircle
 10
24.1181591788
 20
31.3940900124
 30
0.0
 40
0.039370078000001
100
AcDbArc
 50
180.0
 51
231.711897
  0
ARC
  5
1D1
330
1B
100
AcDbEntity
 67
     1
  8
SLD-0
  6
SLD-実線
 62
     7
370
    18
100
AcDbCircle
 10
24.2075609309
 20
31.2231968517
 30
0.0
 40
0.0393700779999959
100
AcDbArc
 50
0.0
 51
51.711897
  0
ARC
  5
1D2
330
1B
100
AcDbEntity
 67
     1
  8
SLD-0
  6
SLD-実線
 62
     7
370
    18
100
AcDbCircle
 10
20.191880262
 20
33.3413122378
 30
0.0
 40
0.0444881881400008
100
AcDbArc
 50
90.0
 51
180.0
  0
ARC
  5
1D3
330
1B
100
AcDbEntity
 67
     1
  8
SLD-0
  6
SLD-実線
 62
     7
370
    18
100
AcDbCircle
 10
19.4714078346
 20
32.7507610678
 30
0.0
 40
0.0444881881400079
100
AcDbArc
 50
90.0
 51
180.0
  0
ARC
  5
1D4
330
1B
100
AcDbEntity
 67
     1
  8
SLD-0
  6
SLD-実線
 62
     7
370
    18
100
AcDbCircle
 10
20.1277070348
 20
33.2385674294
 30
0.0
 40
0.0196850390000058
100
AcDbArc
 50
305.0
 51
0.0
  0
ARC
  5
1D5
330
1B
100
AcDbEntity
 67
     1
  8
SLD-0
  6
SLD-実線
 62
     7
370
    18
100
AcDbCircle
 10
20.4820377368
 20
31.614146916
 30
0.0
 40
0.1968503900000076
100
AcDbArc
 50
270.0
 51
285.070062
  0
ARC
  5
1D6
330
1B
100
AcDbEntity
 67
     1
  8
SLD-0
  6
SLD-実線
 62
     7
370
    18
100
AcDbCircle
 10
23.7103841328
 20
33.2385674294
 30
0.0
 40
0.0196850389999952
100
AcDbArc
 50
180.0
 51
235.0
  0
ARC
  5
1D7
330
1B
100
AcDbEntity
 67
     1
  8
SLD-0
  6
SLD-実線
 62
     7
370
    18
100
AcDbCircle
 10
24.3666833331
 20
32.7507610678
 30
0.0
 40
0.0444881881400079
100
AcDbArc
 50
0.0
 51
90.0
  0
ARC
  5
1D8
330
1B
100
AcDbEntity
 67
     1
  8
SLD-0
  6
SLD-実線
 62
     7
370
    18
100
AcDbCircle
 10
23.6462109057
 20
33.3413122378
 30
0.0
 40
0.0444881881400008
100
AcDbArc
 50
0.0
 51
90.0
  0
ARC
  5
1D9
330
1B
100
AcDbEntity
 67
     1
  8
SLD-0
  6
SLD-実線
 62
     7
370
    18
100
AcDbCircle
 10
23.3560534308
 20
31.614146916
 30
0.0
 40
0.1968503900000051
100
AcDbArc
 50
254.929938
 51
270.0
  0
ARC
  5
1DA
330
1B
100
AcDbEntity
 67
     1
  8
SLD-0
  6
SLD-実線
 62
     7
370
    18
100
AcDbCircle
 10
19.3993605918
 20
25.590524982
 30
0.0
 40
0.1181102340000066
100
AcDbArc
 50
270.0
 51
0.0
  0
ARC
  5
1DB
330
1B
100
AcDbEntity
 67
     1
  8
SLD-0
  6
SLD-実線
 62
     7
370
    18
100
AcDbCircle
 10
18.7497543048
 20
25.393674592
 30
0.0
 40
0.0787401560000021
100
AcDbArc
 50
90.0
 51
180.0
  0
ARC
  5
1DC
330
1B
100
AcDbEntity
 67
     1
  8
SLD-0
  6
SLD-実線
 62
     7
370
    18
100
AcDbCircle
 10
25.0883368628
 20
25.393674592
 30
0.0
 40
0.0787401560000021
100
AcDbArc
 50
0.0
 51
90.0
  0
ARC
  5
1DD
330
1B
100
AcDbEntity
 67
     1
  8
SLD-0
  6
SLD-実線
 62
     7
370
    18
100
AcDbCircle
 10
24.4387305758
 20
25.590524982
 30
0.0
 40
0.1181102340000031
100
AcDbArc
 50
180.0
 51
270.0
  0
ARC
  5
1DE
330
1B
100
AcDbEntity
 67
     1
  8
SLD-0
  6
SLD-実線
 62
     7
370
    18
100
AcDbCircle
 10
18.0607779398
 20
5.3456774742
 30
0.0
 40
0.0787401560000021
100
AcDbArc
 50
90.0
 51
180.0
  0
ARC
  5
1DF
330
1B
100
AcDbEntity
 67
     1
  8
SLD-0
  6
SLD-実線
 62
     7
370
    18
100
AcDbCircle
 10
18.0607779398
 20
3.5346538862
 30
0.0
 40
0.0787401560000118
100
AcDbArc
 50
180.0
 51
270.0
  0
ARC
  5
1E0
330
1B
100
AcDbEntity
 67
     1
  8
SLD-0
  6
SLD-実線
 62
     7
370
    18
100
AcDbCircle
 10
18.9662897338
 20
24.921233656
 30
0.0
 40
0.039370078000001
100
AcDbArc
 50
0.0
 51
90.0
  0
ARC
  5
1E1
330
1B
100
AcDbEntity
 67
     1
  8
SLD-0
  6
SLD-実線
 62
     7
370
    18
100
AcDbCircle
 10
20.5214078148
 20
24.763753344
 30
0.0
 40
0.196850389999998
100
AcDbArc
 50
90.0
 51
180.0
  0
ARC
  5
1E2
330
1B
100
AcDbEntity
 67
     1
  8
SLD-0
  6
SLD-実線
 62
     7
370
    18
100
AcDbCircle
 10
19.8127464108
 20
24.763753344
 30
0.0
 40
0.1968503900000087
100
AcDbArc
 50
0.0
 51
90.0
  0
ARC
  5
1E3
330
1B
100
AcDbEntity
 67
     1
  8
SLD-0
  6
SLD-実線
 62
     7
370
    18
100
AcDbCircle
 10
24.0253447568
 20
24.763753344
 30
0.0
 40
0.196850389999998
100
AcDbArc
 50
90.0
 51
180.0
  0
ARC
  5
1E4
330
1B
100
AcDbEntity
 67
     1
  8
SLD-0
  6
SLD-実線
 62
     7
370
    18
100
AcDbCircle
 10
23.3166833528
 20
24.763753344
 30
0.0
 40
0.1968503900000087
100
AcDbArc
 50
0.0
 51
90.0
  0
ARC
  5
1E5
330
1B
100
AcDbEntity
 67
     1
  8
SLD-0
  6
SLD-実線
 62
     7
370
    18
100
AcDbCircle
 10
24.5962108878
 20
24.921233656
 30
0.0
 40
0.0393700780000117
100
AcDbArc
 50
90.0
 51
180.0
  0
ARC
  5
1E6
330
1B
100
AcDbEntity
 67
     1
  8
SLD-0
  6
SLD-実線
 62
     7
370
    18
100
AcDbCircle
 10
20.4426676588
 20
16.4999739718
 30
0.0
 40
0.118110233999996
100
AcDbArc
 50
180.0
 51
270.0
  0
ARC
  5
1E7
330
1B
100
AcDbEntity
 67
     1
  8
SLD-0
  6
SLD-実線
 62
     7
370
    18
100
AcDbCircle
 10
23.3954235088
 20
16.4999739718
 30
0.0
 40
0.1181102340000066
100
AcDbArc
 50
270.0
 51
0.0
  0
ARC
  5
1E8
330
1B
100
AcDbEntity
 67
     1
  8
SLD-0
  6
SLD-実線
 62
     7
370
    18
100
AcDbCircle
 10
22.6277069878
 20
15.9487928798
 30
0.0
 40
0.039370078000001
100
AcDbArc
 50
180.0
 51
270.0
  0
ARC
  5
1E9
330
1B
100
AcDbEntity
 67
     1
  8
SLD-0
  6
SLD-実線
 62
     7
370
    18
100
AcDbCircle
 10
22.9032975338
 20
15.7125724118
 30
0.0
 40
0.1968503899999998
100
AcDbArc
 50
0.0
 51
90.0
  0
ARC
  5
1EA
330
1B
100
AcDbEntity
 67
     1
  8
SLD-0
  6
SLD-実線
 62
     7
370
    18
100
AcDbCircle
 10
23.0607778458
 20
15.2795015538
 30
0.0
 40
0.0393700780000028
100
AcDbArc
 50
270.0
 51
0.0
  0
ARC
  5
1EB
330
1B
100
AcDbEntity
 67
     1
  8
SLD-0
  6
SLD-実線
 62
     7
370
    18
100
AcDbCircle
 10
22.8836124948
 20
15.2795015538
 30
0.0
 40
0.0393700780000028
100
AcDbArc
 50
180.0
 51
270.0
  0
ARC
  5
1EC
330
1B
100
AcDbEntity
 67
     1
  8
SLD-0
  6
SLD-実線
 62
     7
370
    18
100
AcDbCircle
 10
19.3206204358
 20
14.9251708518
 30
0.0
 40
0.3149606240000029
100
AcDbArc
 50
90.0
 51
180.0
  0
ARC
  5
1ED
330
1B
100
AcDbEntity
 67
     1
  8
SLD-0
  6
SLD-実線
 62
     7
370
    18
100
AcDbCircle
 10
19.0843999678
 20
14.5708401498
 30
0.0
 40
0.0787401560000038
100
AcDbArc
 50
90.0
 51
180.0
  0
ARC
  5
1EE
330
1B
100
AcDbEntity
 67
     1
  8
SLD-0
  6
SLD-実線
 62
     7
370
    18
100
AcDbCircle
 10
20.5214078148
 20
15.4369818658
 30
0.0
 40
0.1968503899999998
100
AcDbArc
 50
180.0
 51
270.0
  0
ARC
  5
1EF
330
1B
100
AcDbEntity
 67
     1
  8
SLD-0
  6
SLD-実線
 62
     7
370
    18
100
AcDbCircle
 10
19.8127464108
 20
15.4369818658
 30
0.0
 40
0.1968503900000087
100
AcDbArc
 50
270.0
 51
0.0
  0
ARC
  5
1F0
330
1B
100
AcDbEntity
 67
     1
  8
SLD-0
  6
SLD-実線
 62
     7
370
    18
100
AcDbCircle
 10
23.3166833528
 20
15.4369818658
 30
0.0
 40
0.1968503900000087
100
AcDbArc
 50
270.0
 51
0.0
  0
ARC
  5
1F1
330
1B
100
AcDbEntity
 67
     1
  8
SLD-0
  6
SLD-実線
 62
     7
370
    18
100
AcDbCircle
 10
24.0253447568
 20
15.4369818658
 30
0.0
 40
0.1968503899999998
100
AcDbArc
 50
180.0
 51
270.0
  0
ARC
  5
1F2
330
1B
100
AcDbEntity
 67
     1
  8
SLD-0
  6
SLD-実線
 62
     7
370
    18
100
AcDbCircle
 10
24.7536911998
 20
14.5708401498
 30
0.0
 40
0.0787401560000038
100
AcDbArc
 50
0.0
 51
90.0
  0
ARC
  5
1F3
330
1B
100
AcDbEntity
 67
     1
  8
SLD-0
  6
SLD-実線
 62
     7
370
    18
100
AcDbCircle
 10
24.5174707318
 20
14.8464306958
 30
0.0
 40
0.1968503900000069
100
AcDbArc
 50
180.0
 51
270.0
  0
ARC
  5
1F4
330
1B
100
AcDbEntity
 67
     1
  8
SLD-0
  6
SLD-実線
 62
     7
370
    18
100
AcDbCircle
 10
24.1237699518
 20
15.0432810858
 30
0.0
 40
0.1968503900000051
100
AcDbArc
 50
0.0
 51
90.0
  0
ARC
  5
1F5
330
1B
100
AcDbEntity
 67
     1
  8
SLD-0
  6
SLD-実線
 62
     7
370
    18
100
AcDbCircle
 10
24.7536911998
 20
14.8464306958
 30
0.0
 40
0.1968503900000087
100
AcDbArc
 50
180.0
 51
270.0
  0
ARC
  5
1F6
330
1B
100
AcDbEntity
 67
     1
  8
SLD-0
  6
SLD-実線
 62
     7
370
    18
100
AcDbCircle
 10
21.9190455838
 20
4.4401656802
 30
0.0
 40
3.937007798887231
100
AcDbArc
 50
34.4115086461
 51
55.5884913539
  0
ARC
  5
1F7
330
1B
100
AcDbEntity
 67
     1
  8
SLD-0
  6
SLD-実線
 62
     7
370
    18
100
AcDbCircle
 10
21.9190455838
 20
4.4401656802
 30
0.0
 40
3.937007798887207
100
AcDbArc
 50
304.4115086461
 51
325.5884913539
  0
ARC
  5
1F8
330
1B
100
AcDbEntity
 67
     1
  8
SLD-0
  6
SLD-実線
 62
     7
370
    18
100
AcDbCircle
 10
21.9190455838
 20
4.4401656802
 30
0.0
 40
3.937007798887216
100
AcDbArc
 50
214.4115086461
 51
235.5884913539
  0
ARC
  5
1F9
330
1B
100
AcDbEntity
 67
     1
  8
SLD-0
  6
SLD-実線
 62
     7
370
    18
100
AcDbCircle
 10
21.9190455838
 20
4.4401656802
 30
0.0
 40
3.937007798887239
100
AcDbArc
 50
124.4115086461
 51
145.5884913539
  0
ARC
  5
1FA
330
1B
100
AcDbEntity
 67
     1
  8
SLD-0
  6
SLD-実線
 62
     7
370
    18
100
AcDbCircle
 10
18.5922739928
 20
5.5031577862
 30
0.0
 40
0.0787401560000127
100
AcDbArc
 50
270.0
 51
0.0
  0
ARC
  5
1FB
330
1B
100
AcDbEntity
 67
     1
  8
SLD-0
  6
SLD-実線
 62
     7
370
    18
100
AcDbCircle
 10
18.5922739928
 20
3.3771735742
 30
0.0
 40
0.0787401560000127
100
AcDbArc
 50
0.0
 51
90.0
  0
ARC
  5
1FC
330
1B
100
AcDbEntity
 67
     1
  8
SLD-0
  6
SLD-鎖線
 62
     7
370
    18
100
AcDbCircle
 10
21.9190455838
 20
4.4401656802
 30
0.0
 40
2.71653538200001
100
AcDbArc
 50
44.406876
 51
63.365277
  0
CIRCLE
  5
1FD
330
1B
100
AcDbEntity
 67
     1
  8
SLD-0
  6
SLD-実線
 62
     7
370
    18
100
AcDbCircle
 10
21.9190455838
 20
4.4401656802
 30
0.0
 40
2.913385771999998
  0
ARC
  5
1FE
330
1B
100
AcDbEntity
 67
     1
  8
SLD-0
  6
SLD-鎖線
 62
     7
370
    18
100
AcDbCircle
 10
21.9190455838
 20
4.4401656802
 30
0.0
 40
3.543307020000019
100
AcDbArc
 50
122.905688
 51
148.042479
  0
ARC
  5
1FF
330
1B
100
AcDbEntity
 67
     1
  8
SLD-0
  6
SLD-鎖線
 62
     7
370
    18
100
AcDbCircle
 10
21.9190455838
 20
4.4401656802
 30
0.0
 40
3.543307019999989
100
AcDbArc
 50
302.377519
 51
327.217906
  0
CIRCLE
  5
200
330
1B
100
AcDbEntity
 67
     1
  8
SLD-0
  6
SLD-実線
 62
     7
370
    18
100
AcDbCircle
 10
24.4245419576
 20
1.9346691275
 30
0.0
 40
0.196850389999998
  0
CIRCLE
  5
201
330
1B
100
AcDbEntity
 67
     1
  8
SLD-0
  6
SLD-実線
 62
     7
370
    18
100
AcDbCircle
 10
19.41354921
 20
6.945662054
 30
0.0
 40
0.1968503900000087
  0
ARC
  5
202
330
1B
100
AcDbEntity
 67
     1
  8
SLD-0
  6
SLD-実線
 62
     7
370
    18
100
AcDbCircle
 10
21.9190455838
 20
4.4401656802
 30
0.0
 40
1.476377925000008
100
AcDbArc
 50
84.301807
 51
104.456615
  0
ARC
  5
203
330
1B
100
AcDbEntity
 67
     1
  8
SLD-0
  6
SLD-実線
 62
     7
370
    18
100
AcDbCircle
 10
21.9190455838
 20
4.4401656802
 30
0.0
 40
1.968503900000014
100
AcDbArc
 50
83.610772
 51
114.299132
  0
CIRCLE
  5
204
330
1B
100
AcDbEntity
 67
     1
  8
SLD-0
  6
SLD-実線
 62
     7
370
    18
100
AcDbCircle
 10
24.5026242754
 20
3.6007100768
 30
0.0
 40
0.1889763743999957
  0
CIRCLE
  5
205
330
1B
100
AcDbEntity
 67
     1
  8
SLD-0
  6
SLD-実線
 62
     7
370
    18
100
AcDbCircle
 10
21.9190455838
 20
1.7236302982
 30
0.0
 40
0.1889763743999957
  0
CIRCLE
  5
206
330
1B
100
AcDbEntity
 67
     1
  8
SLD-0
  6
SLD-実線
 62
     7
370
    18
100
AcDbCircle
 10
19.3354668922
 20
3.6007100768
 30
0.0
 40
0.1889763743999957
  0
CIRCLE
  5
207
330
1B
100
AcDbEntity
 67
     1
  8
SLD-0
  6
SLD-実線
 62
     7
370
    18
100
AcDbCircle
 10
20.3223061722
 20
6.6378889746
 30
0.0
 40
0.1889763743999957
  0
CIRCLE
  5
208
330
1B
100
AcDbEntity
 67
     1
  8
SLD-0
  6
SLD-実線
 62
     7
370
    18
100
AcDbCircle
 10
23.5157849955
 20
6.6378889746
 30
0.0
 40
0.1889763744000028
  0
ARC
  5
209
330
1B
100
AcDbEntity
 67
     1
  8
SLD-0
  6
SLD-鎖線
 62
     7
370
    18
100
AcDbCircle
 10
21.9190455838
 20
4.4401656802
 30
0.0
 40
2.716535382000021
100
AcDbArc
 50
115.660454
 51
136.310785
  0
ARC
  5
20A
330
1B
100
AcDbEntity
 67
     1
  8
SLD-0
  6
SLD-鎖線
 62
     7
370
    18
100
AcDbCircle
 10
21.9190455838
 20
4.4401656802
 30
0.0
 40
2.716535382000006
100
AcDbArc
 50
187.316284
 51
207.370691
  0
ARC
  5
20B
330
1B
100
AcDbEntity
 67
     1
  8
SLD-0
  6
SLD-鎖線
 62
     7
370
    18
100
AcDbCircle
 10
21.9190455838
 20
4.4401656802
 30
0.0
 40
2.716535381999998
100
AcDbArc
 50
260.168066
 51
278.827267
  0
ARC
  5
20C
330
1B
100
AcDbEntity
 67
     1
  8
SLD-0
  6
SLD-鎖線
 62
     7
370
    18
100
AcDbCircle
 10
21.9190455838
 20
4.4401656802
 30
0.0
 40
2.716535381999987
100
AcDbArc
 50
332.548233
 51
352.074654
  0
ARC
  5
20D
330
1B
100
AcDbEntity
 67
     1
  8
SLD-0
  6
SLD-実線
 62
     7
370
    18
100
AcDbCircle
 10
21.9190455838
 20
4.4401656802
 30
0.0
 40
1.476377925000001
100
AcDbArc
 50
155.13534
 51
31.252849
  0
ARC
  5
20E
330
1B
100
AcDbEntity
 67
     1
  8
SLD-0
  6
SLD-実線
 62
     7
370
    18
100
AcDbCircle
 10
21.9190455838
 20
4.4401656802
 30
0.0
 40
1.968503900000007
100
AcDbArc
 50
153.925155
 51
37.175879
  0
ARC
  5
20F
330
1B
100
AcDbEntity
 67
     1
  8
SLD-0
  6
SLD-実線
 62
     7
370
    18
100
AcDbCircle
 10
18.0607779398
 20
25.354304514
 30
0.0
 40
0.0787401560000056
100
AcDbArc
 50
180.0
 51
270.0
  0
ARC
  5
210
330
1B
100
AcDbEntity
 67
     1
  8
SLD-0
  6
SLD-実線
 62
     7
370
    18
100
AcDbCircle
 10
18.0607779398
 20
27.165328102
 30
0.0
 40
0.0787401560000021
100
AcDbArc
 50
90.0
 51
180.0
  0
CIRCLE
  5
211
330
1B
100
AcDbEntity
 67
     1
  8
SLD-0
  6
SLD-破線
 62
     7
370
    18
100
AcDbCircle
 10
21.9190455838
 20
25.787375372
 30
0.0
 40
0.157480311999997
  0
ARC
  5
212
330
1B
100
AcDbEntity
 67
     1
  8
SLD-0
  6
SLD-実線
 62
     7
370
    18
100
AcDbCircle
 10
22.8048723388
 20
8.5464648156
 30
0.0
 40
0.125984249600009
100
AcDbArc
 50
22.999613
 51
90.0
  0
ARC
  5
213
330
1B
100
AcDbEntity
 67
     1
  8
SLD-0
  6
SLD-実線
 62
     7
370
    18
100
AcDbCircle
 10
23.2182581578
 20
8.5090757684
 30
0.0
 40
0.0866141716000079
100
AcDbArc
 50
0.0
 51
90.0
  0
ARC
  5
214
330
1B
100
AcDbEntity
 67
     1
  8
SLD-0
  6
SLD-実線
 62
     7
370
    18
100
AcDbCircle
 10
21.0332188288
 20
8.5464648156
 30
0.0
 40
0.125984249600009
100
AcDbArc
 50
90.0
 51
157.000387
  0
ARC
  5
215
330
1B
100
AcDbEntity
 67
     1
  8
SLD-0
  6
SLD-実線
 62
     7
370
    18
100
AcDbCircle
 10
20.6198330098
 20
8.5090757684
 30
0.0
 40
0.0866141716000186
100
AcDbArc
 50
90.0
 51
180.0
  0
ARC
  5
216
330
1B
100
AcDbEntity
 67
     1
  8
SLD-0
  6
SLD-実線
 62
     7
370
    18
100
AcDbCircle
 10
21.9190455838
 20
7.6738723123
 30
0.0
 40
0.4330708579999987
100
AcDbArc
 50
1.895526
 51
178.104474
  0
ARC
  5
217
330
1B
100
AcDbEntity
 67
     1
  8
SLD-0
  6
SLD-実線
 62
     7
370
    18
100
AcDbCircle
 10
21.1513290628
 20
31.5848081549
 30
0.0
 40
0.196850389999998
100
AcDbArc
 50
90.0
 51
180.0
  0
ARC
  5
218
330
1B
100
AcDbEntity
 67
     1
  8
SLD-0
  6
SLD-実線
 62
     7
370
    18
100
AcDbCircle
 10
22.6867621048
 20
31.5848081549
 30
0.0
 40
0.1968503899999909
100
AcDbArc
 50
0.0
 51
90.0
  0
ARC
  5
219
330
1B
100
AcDbEntity
 67
     1
  8
SLD-0
  6
SLD-実線
 62
     7
370
    18
100
AcDbCircle
 10
22.6867621048
 20
28.9448556276
 30
0.0
 40
0.1968503900000087
100
AcDbArc
 50
270.0
 51
0.0
  0
ARC
  5
21A
330
1B
100
AcDbEntity
 67
     1
  8
SLD-0
  6
SLD-実線
 62
     7
370
    18
100
AcDbCircle
 10
21.1513290628
 20
28.9448556276
 30
0.0
 40
0.1968503900000087
100
AcDbArc
 50
180.0
 51
270.0
  0
ENDSEC
  0
SECTION
  2
OBJECTS
  0
DICTIONARY
  5
C
330
0
100
AcDbDictionary
281
     1
  3
ACAD_GROUP
350
D
  3
ACAD_LAYOUT
350
1A
  3
ACAD_MLINESTYLE
350
17
  3
ACAD_PLOTSETTINGS
350
19
  3
ACAD_PLOTSTYLENAME
350
E
  3
ACAD_SCALELIST
350
47
  0
DICTIONARY
  5
D
102
{ACAD_REACTORS
330
C
102
}
330
C
100
AcDbDictionary
281
     1
  0
DICTIONARY
  5
1A
102
{ACAD_REACTORS
330
C
102
}
330
C
100
AcDbDictionary
281
     1
  3
Model
350
22
  3
SW_Model_6
350
1E
  0
DICTIONARY
  5
17
102
{ACAD_REACTORS
330
C
102
}
330
C
100
AcDbDictionary
281
     1
  3
Standard
350
18
  0
DICTIONARY
  5
19
102
{ACAD_REACTORS
330
C
102
}
330
C
100
AcDbDictionary
281
     1
  0
ACDBDICTIONARYWDFLT
  5
E
102
{ACAD_REACTORS
330
C
102
}
330
C
100
AcDbDictionary
281
     1
  3
Normal
350
F
100
AcDbDictionaryWithDefault
340
F
  0
DICTIONARY
  5
47
102
{ACAD_REACTORS
330
C
102
}
330
C
100
AcDbDictionary
281
     1
  3
A0
350
48
  3
A1
350
49
  3
A2
350
4A
  3
A3
350
4B
  3
A4
350
4C
  3
A5
350
4D
  3
A6
350
4E
  3
A7
350
4F
  3
A8
350
50
  3
A9
350
51
  3
B0
350
52
  3
B1
350
53
  3
B2
350
54
  3
B3
350
55
  3
B4
350
56
  3
B5
350
57
  3
B6
350
58
  3
B7
350
59
  3
B8
350
5A
  3
B9
350
5B
  3
C0
350
5C
  3
C1
350
5D
  3
C2
350
5E
  3
C3
350
5F
  3
C4
350
60
  3
C5
350
61
  3
C6
350
62
  3
C7
350
63
  3
C8
350
64
  3
C9
350
65
  3
D0
350
66
  3
D1
350
67
  3
D2
350
68
  0
LAYOUT
  5
22
102
{ACAD_REACTORS
330
1A
102
}
330
1A
100
AcDbPlotSettings
  1

  2
none_device
  4
Letter_(8.50_x_11.00_Inches)
  6

 40
6.35
 41
6.35
 42
6.35000508
 43
6.35000508
 44
215.9
 45
279.4
 46
0.0
 47
0.0
 48
0.0
 49
0.0
140
0.0
141
0.0
142
1.0
143
1.0
 70
  1712
 72
     0
 73
     0
 74
     0
  7

 75
     0
147
1.0
148
0.0
149
0.0
100
AcDbLayout
  1
Model
 70
     1
 71
     0
 10
0.0
 20
0.0
 11
44.0
 21
34.0
 12
0.0
 22
0.0
 32
0.0
 14
0.0
 24
0.0
 34
0.0
 15
44.0
 25
34.0
 35
0.0
146
0.0
 13
0.0
 23
0.0
 33
0.0
 16
1.0
 26
0.0
 36
0.0
 17
0.0
 27
1.0
 37
0.0
 76
     0
330
1F
331
29
  0
LAYOUT
  5
1E
102
{ACAD_REACTORS
330
1A
102
}
330
1A
100
AcDbPlotSettings
  1

  2
none_device
  4
ANSI_E_(44.00_x_34.00_Inches)
  6

 40
6.35
 41
19.05
 42
6.3499746
 43
19.0499873
 44
1117.6
 45
863.6
 46
0.0
 47
0.0
 48
0.0
 49
0.0
140
0.0
141
0.0
142
1.0
143
1.0
 70
  4832
 72
     0
 73
     0
 74
     1
  7

 75
     0
147
1.0
148
0.0
149
0.0
100
AcDbLayout
  1
SW_Model_6
 70
     1
 71
     1
 10
0.0
 20
0.0
 11
44.0
 21
34.0
 12
0.0
 22
0.0
 32
0.0
 14
0.0
 24
0.0
 34
0.0
 15
44.0
 25
34.0
 35
0.0
146
0.0
 13
0.0
 23
0.0
 33
0.0
 16
1.0
 26
0.0
 36
0.0
 17
0.0
 27
1.0
 37
0.0
 76
     0
330
1B
331
DF
  0
MLINESTYLE
  5
18
102
{ACAD_REACTORS
330
17
102
}
330
17
100
AcDbMlineStyle
  2
Standard
 70
     0
  3

 62
   256
 51
90.0
 52
90.0
 71
     2
 49
0.5
 62
   256
  6
BYLAYER
 49
-0.5
 62
   256
  6
BYLAYER
  0
ACDBPLACEHOLDER
  5
F
102
{ACAD_REACTORS
330
E
102
}
330
E
  0
SCALE
  5
48
102
{ACAD_REACTORS
330
47
102
}
330
47
100
AcDbScale
 70
     0
300
1:1
140
1.0
141
1.0
290
     1
  0
SCALE
  5
49
102
{ACAD_REACTORS
330
47
102
}
330
47
100
AcDbScale
 70
     0
300
1:2
140
1.0
141
2.0
290
     0
  0
SCALE
  5
4A
102
{ACAD_REACTORS
330
47
102
}
330
47
100
AcDbScale
 70
     0
300
1:4
140
1.0
141
4.0
290
     0
  0
SCALE
  5
4B
102
{ACAD_REACTORS
330
47
102
}
330
47
100
AcDbScale
 70
     0
300
1:5
140
1.0
141
5.0
290
     0
  0
SCALE
  5
4C
102
{ACAD_REACTORS
330
47
102
}
330
47
100
AcDbScale
 70
     0
300
1:8
140
1.0
141
8.0
290
     0
  0
SCALE
  5
4D
102
{ACAD_REACTORS
330
47
102
}
330
47
100
AcDbScale
 70
     0
300
1:10
140
1.0
141
10.0
290
     0
  0
SCALE
  5
4E
102
{ACAD_REACTORS
330
47
102
}
330
47
100
AcDbScale
 70
     0
300
1:16
140
1.0
141
16.0
290
     0
  0
SCALE
  5
4F
102
{ACAD_REACTORS
330
47
102
}
330
47
100
AcDbScale
 70
     0
300
1:20
140
1.0
141
20.0
290
     0
  0
SCALE
  5
50
102
{ACAD_REACTORS
330
47
102
}
330
47
100
AcDbScale
 70
     0
300
1:30
140
1.0
141
30.0
290
     0
  0
SCALE
  5
51
102
{ACAD_REACTORS
330
47
102
}
330
47
100
AcDbScale
 70
     0
300
1:40
140
1.0
141
40.0
290
     0
  0
SCALE
  5
52
102
{ACAD_REACTORS
330
47
102
}
330
47
100
AcDbScale
 70
     0
300
1:50
140
1.0
141
50.0
290
     0
  0
SCALE
  5
53
102
{ACAD_REACTORS
330
47
102
}
330
47
100
AcDbScale
 70
     0
300
1:100
140
1.0
141
100.0
290
     0
  0
SCALE
  5
54
102
{ACAD_REACTORS
330
47
102
}
330
47
100
AcDbScale
 70
     0
300
2:1
140
2.0
141
1.0
290
     0
  0
SCALE
  5
55
102
{ACAD_REACTORS
330
47
102
}
330
47
100
AcDbScale
 70
     0
300
4:1
140
4.0
141
1.0
290
     0
  0
SCALE
  5
56
102
{ACAD_REACTORS
330
47
102
}
330
47
100
AcDbScale
 70
     0
300
8:1
140
8.0
141
1.0
290
     0
  0
SCALE
  5
57
102
{ACAD_REACTORS
330
47
102
}
330
47
100
AcDbScale
 70
     0
300
10:1
140
10.0
141
1.0
290
     0
  0
SCALE
  5
58
102
{ACAD_REACTORS
330
47
102
}
330
47
100
AcDbScale
 70
     0
300
100:1
140
100.0
141
1.0
290
     0
  0
SCALE
  5
59
102
{ACAD_REACTORS
330
47
102
}
330
47
100
AcDbScale
 70
     0
300
1/128" = 1'-0"
140
0.0078125
141
12.0
290
     0
  0
SCALE
  5
5A
102
{ACAD_REACTORS
330
47
102
}
330
47
100
AcDbScale
 70
     0
300
1/64" = 1'-0"
140
0.015625
141
12.0
290
     0
  0
SCALE
  5
5B
102
{ACAD_REACTORS
330
47
102
}
330
47
100
AcDbScale
 70
     0
300
1/32" = 1'-0"
140
0.03125
141
12.0
290
     0
  0
SCALE
  5
5C
102
{ACAD_REACTORS
330
47
102
}
330
47
100
AcDbScale
 70
     0
300
1/16" = 1'-0"
140
0.0625
141
12.0
290
     0
  0
SCALE
  5
5D
102
{ACAD_REACTORS
330
47
102
}
330
47
100
AcDbScale
 70
     0
300
3/32" = 1'-0"
140
0.09375
141
12.0
290
     0
  0
SCALE
  5
5E
102
{ACAD_REACTORS
330
47
102
}
330
47
100
AcDbScale
 70
     0
300
1/8" = 1'-0"
140
0.125
141
12.0
290
     0
  0
SCALE
  5
5F
102
{ACAD_REACTORS
330
47
102
}
330
47
100
AcDbScale
 70
     0
300
3/16" = 1'-0"
140
0.1875
141
12.0
290
     0
  0
SCALE
  5
60
102
{ACAD_REACTORS
330
47
102
}
330
47
100
AcDbScale
 70
     0
300
1/4" = 1'-0"
140
0.25
141
12.0
290
     0
  0
SCALE
  5
61
102
{ACAD_REACTORS
330
47
102
}
330
47
100
AcDbScale
 70
     0
300
3/8" = 1'-0"
140
0.375
141
12.0
290
     0
  0
SCALE
  5
62
102
{ACAD_REACTORS
330
47
102
}
330
47
100
AcDbScale
 70
     0
300
1/2" = 1'-0"
140
0.5
141
12.0
290
     0
  0
SCALE
  5
63
102
{ACAD_REACTORS
330
47
102
}
330
47
100
AcDbScale
 70
     0
300
3/4" = 1'-0"
140
0.75
141
12.0
290
     0
  0
SCALE
  5
64
102
{ACAD_REACTORS
330
47
102
}
330
47
100
AcDbScale
 70
     0
300
1" = 1'-0"
140
1.0
141
12.0
290
     0
  0
SCALE
  5
65
102
{ACAD_REACTORS
330
47
102
}
330
47
100
AcDbScale
 70
     0
300
1-1/2" = 1'-0"
140
1.5
141
12.0
290
     0
  0
SCALE
  5
66
102
{ACAD_REACTORS
330
47
102
}
330
47
100
AcDbScale
 70
     0
300
3" = 1'-0"
140
3.0
141
12.0
290
     0
  0
SCALE
  5
67
102
{ACAD_REACTORS
330
47
102
}
330
47
100
AcDbScale
 70
     0
300
6" = 1'-0"
140
6.0
141
12.0
290
     0
  0
SCALE
  5
68
102
{ACAD_REACTORS
330
47
102
}
330
47
100
AcDbScale
 70
     0
300
1'-0" = 1'-0"
140
12.0
141
12.0
290
     0
  0
ENDSEC
  0
EOF
