  0
SECTION
  2
HEADER
  9
$ACADVER
  1
AC1015
  9
$ACADMAINTVER
 70
     6
  9
$DWGCODEPAGE
  3
DOS932
  9
$INSBASE
 10
0.0
 20
0.0
 30
0.0
  9
$EXTMIN
 10
0.0
 20
0.0
 30
0.0
  9
$EXTMAX
 10
1050.0
 20
1485.0
 30
0.0
  9
$LIMMIN
 10
0.0
 20
0.0
  9
$LIMMAX
 10
1050.0
 20
1485.0
  9
$ORTHOMODE
 70
     0
  9
$REGENMODE
 70
     1
  9
$FILLMODE
 70
     1
  9
$QTEXTMODE
 70
     0
  9
$MIRRTEXT
 70
     1
  9
$LTSCALE
 40
5.0
  9
$ATTMODE
 70
     1
  9
$TEXTSIZE
 40
17.5
  9
$TRACEWID
 40
1.0
  9
$TEXTSTYLE
  7
Standard
  9
$CLAYER
  8
0
  9
$CELTYPE
  6
ByLayer
  9
$CECOLOR
 62
   256
  9
$CELTSCALE
 40
1.0
  9
$DISPSILH
 70
     0
  9
$DIMSCALE
 40
1.0
  9
$DIMASZ
 40
12.5
  9
$DIMEXO
 40
5.0
  9
$DIMDLI
 40
3.75
  9
$DIMRND
 40
0.0
  9
$DIMDLE
 40
0.0
  9
$DIMEXE
 40
5.0
  9
$DIMTP
 40
0.0
  9
$DIMTM
 40
0.0
  9
$DIMTXT
 40
17.5
  9
$DIMCEN
 40
2.5
  9
$DIMTSZ
 40
0.0
  9
$DIMTOL
 70
     0
  9
$DIMLIM
 70
     0
  9
$DIMTIH
 70
     1
  9
$DIMTOH
 70
     1
  9
$DIMSE1
 70
     0
  9
$DIMSE2
 70
     0
  9
$DIMTAD
 70
     1
  9
$DIMZIN
 70
     1
  9
$DIMBLK
  1

  9
$DIMASO
 70
     1
  9
$DIMSHO
 70
     1
  9
$DIMPOST
  1

  9
$DIMAPOST
  1

  9
$DIMALT
 70
     0
  9
$DIMALTD
 70
     3
  9
$DIMALTF
 40
0.0393700787
  9
$DIMLFAC
 40
1.0
  9
$DIMTOFL
 70
     1
  9
$DIMTVP
 40
0.0
  9
$DIMTIX
 70
     0
  9
$DIMSOXD
 70
     0
  9
$DIMSAH
 70
     0
  9
$DIMBLK1
  1

  9
$DIMBLK2
  1

  9
$DIMSTYLE
  2
ISO-25
  9
$DIMCLRD
 70
     0
  9
$DIMCLRE
 70
     0
  9
$DIMCLRT
 70
     0
  9
$DIMTFAC
 40
1.0
  9
$DIMGAP
 40
7.62
  9
$DIMJUST
 70
     0
  9
$DIMSD1
 70
     0
  9
$DIMSD2
 70
     0
  9
$DIMTOLJ
 70
     0
  9
$DIMTZIN
 70
     1
  9
$DIMALTZ
 70
     0
  9
$DIMALTTZ
 70
     0
  9
$DIMUPT
 70
     0
  9
$DIMDEC
 70
     0
  9
$DIMTDEC
 70
     0
  9
$DIMALTU
 70
     2
  9
$DIMALTTD
 70
     3
  9
$DIMTXSTY
  7
Standard
  9
$DIMAUNIT
 70
     0
  9
$DIMADEC
 70
     0
  9
$DIMALTRND
 40
0.0
  9
$DIMAZIN
 70
     0
  9
$DIMDSEP
 70
    44
  9
$DIMATFIT
 70
     3
  9
$DIMFRAC
 70
     0
  9
$DIMLDRBLK
  1

  9
$DIMLUNIT
 70
     2
  9
$DIMLWD
 70
    -2
  9
$DIMLWE
 70
    -2
  9
$DIMTMOVE
 70
     0
  9
$LUNITS
 70
     2
  9
$LUPREC
 70
     0
  9
$SKETCHINC
 40
1.0
  9
$FILLETRAD
 40
10.0
  9
$AUNITS
 70
     0
  9
$AUPREC
 70
     0
  9
$MENU
  1
.
  9
$ELEVATION
 40
0.0
  9
$PELEVATION
 40
0.0
  9
$THICKNESS
 40
0.0
  9
$LIMCHECK
 70
     0
  9
$CHAMFERA
 40
10.0
  9
$CHAMFERB
 40
10.0
  9
$CHAMFERC
 40
20.0
  9
$CHAMFERD
 40
0.0
  9
$SKPOLY
 70
     0
  9
$TDCREATE
 40
2456954.634722454
  9
$TDUCREATE
 40
2456954.259722454
  9
$TDUPDATE
 40
2456954.634723542
  9
$TDUUPDATE
 40
2456954.259723542
  9
$TDINDWG
 40
0.0000000116
  9
$TDUSRTIMER
 40
0.0000000116
  9
$USRTIMER
 70
     1
  9
$ANGBASE
 50
0.0
  9
$ANGDIR
 70
     0
  9
$PDMODE
 70
     0
  9
$PDSIZE
 40
-1.0
  9
$PLINEWID
 40
0.0
  9
$SPLFRAME
 70
     0
  9
$SPLINETYPE
 70
     6
  9
$SPLINESEGS
 70
     8
  9
$HANDSEED
  5
3AB
  9
$SURFTAB1
 70
     6
  9
$SURFTAB2
 70
     6
  9
$SURFTYPE
 70
     6
  9
$SURFU
 70
     6
  9
$SURFV
 70
     6
  9
$UCSBASE
  2

  9
$UCSNAME
  2

  9
$UCSORG
 10
0.0
 20
0.0
 30
0.0
  9
$UCSXDIR
 10
1.0
 20
0.0
 30
0.0
  9
$UCSYDIR
 10
0.0
 20
1.0
 30
0.0
  9
$UCSORTHOREF
  2

  9
$UCSORTHOVIEW
 70
     0
  9
$UCSORGTOP
 10
0.0
 20
0.0
 30
0.0
  9
$UCSORGBOTTOM
 10
0.0
 20
0.0
 30
0.0
  9
$UCSORGLEFT
 10
0.0
 20
0.0
 30
0.0
  9
$UCSORGRIGHT
 10
0.0
 20
0.0
 30
0.0
  9
$UCSORGFRONT
 10
0.0
 20
0.0
 30
0.0
  9
$UCSORGBACK
 10
0.0
 20
0.0
 30
0.0
  9
$PUCSBASE
  2

  9
$PUCSNAME
  2

  9
$PUCSORG
 10
0.0
 20
0.0
 30
0.0
  9
$PUCSXDIR
 10
1.0
 20
0.0
 30
0.0
  9
$PUCSYDIR
 10
0.0
 20
1.0
 30
0.0
  9
$PUCSORTHOREF
  2

  9
$PUCSORTHOVIEW
 70
     0
  9
$PUCSORGTOP
 10
0.0
 20
0.0
 30
0.0
  9
$PUCSORGBOTTOM
 10
0.0
 20
0.0
 30
0.0
  9
$PUCSORGLEFT
 10
0.0
 20
0.0
 30
0.0
  9
$PUCSORGRIGHT
 10
0.0
 20
0.0
 30
0.0
  9
$PUCSORGFRONT
 10
0.0
 20
0.0
 30
0.0
  9
$PUCSORGBACK
 10
0.0
 20
0.0
 30
0.0
  9
$USERI1
 70
     0
  9
$USERI2
 70
     0
  9
$USERI3
 70
     0
  9
$USERI4
 70
     0
  9
$USERI5
 70
     0
  9
$USERR1
 40
0.0
  9
$USERR2
 40
0.0
  9
$USERR3
 40
0.0
  9
$USERR4
 40
0.0
  9
$USERR5
 40
0.0
  9
$WORLDVIEW
 70
     1
  9
$SHADEDGE
 70
     3
  9
$SHADEDIF
 70
    70
  9
$TILEMODE
 70
     1
  9
$MAXACTVP
 70
    64
  9
$PINSBASE
 10
0.0
 20
0.0
 30
0.0
  9
$PLIMCHECK
 70
     0
  9
$PEXTMIN
 10
1.0000000000E+20
 20
1.0000000000E+20
 30
1.0000000000E+20
  9
$PEXTMAX
 10
-1.0000000000E+20
 20
-1.0000000000E+20
 30
-1.0000000000E+20
  9
$PLIMMIN
 10
0.0
 20
0.0
  9
$PLIMMAX
 10
420.0
 20
297.0
  9
$UNITMODE
 70
     0
  9
$VISRETAIN
 70
     1
  9
$PLINEGEN
 70
     0
  9
$PSLTSCALE
 70
     1
  9
$TREEDEPTH
 70
  3020
  9
$CMLSTYLE
  2
Standard
  9
$CMLJUST
 70
     0
  9
$CMLSCALE
 40
20.0
  9
$PROXYGRAPHICS
 70
     1
  9
$MEASUREMENT
 70
     1
  9
$CELWEIGHT
370
    -1
  9
$ENDCAPS
280
     0
  9
$JOINSTYLE
280
     0
  9
$LWDISPLAY
290
     1
  9
$INSUNITS
 70
     4
  9
$HYPERLINKBASE
  1

  9
$STYLESHEET
  1

  9
$XEDIT
290
     1
  9
$CEPSNTYPE
380
     0
  9
$PSTYLEMODE
290
     1
  9
$FINGERPRINTGUID
  2
{18958F3F-41E9-4524-BF9D-2324E6F421E2}
  9
$VERSIONGUID
  2
{FAEB1C32-E019-11D5-929B-00C0DF256EC4}
  9
$EXTNAMES
290
     1
  9
$PSVPSCALE
 40
0.0
  9
$OLESTARTUP
290
     0
  0
ENDSEC
  0
SECTION
  2
CLASSES
  0
CLASS
  1
ACDBDICTIONARYWDFLT
  2
AcDbDictionaryWithDefault
  3
ObjectDBX Classes
 90
        0
280
     0
281
     0
  0
CLASS
  1
VISUALSTYLE
  2
AcDbVisualStyle
  3
ObjectDBX Classes
 90
     4095
280
     0
281
     0
  0
CLASS
  1
MATERIAL
  2
AcDbMaterial
  3
ObjectDBX Classes
 90
     1153
280
     0
281
     0
  0
CLASS
  1
ACDBPLACEHOLDER
  2
AcDbPlaceHolder
  3
ObjectDBX Classes
 90
        0
280
     0
281
     0
  0
CLASS
  1
LAYOUT
  2
AcDbLayout
  3
ObjectDBX Classes
 90
        0
280
     0
281
     0
  0
ENDSEC
  0
SECTION
  2
TABLES
  0
TABLE
  2
VPORT
  5
8
330
0
100
AcDbSymbolTable
 70
     1
  0
VPORT
  5
29
330
8
100
AcDbSymbolTableRecord
100
AcDbViewportTableRecord
  2
*Active
 70
     0
 10
0.0
 20
0.0
 11
1.0
 21
1.0
 12
525.0
 22
742.5
 13
0.0
 23
0.0
 14
10.0
 24
10.0
 15
10.0
 25
10.0
 16
0.0
 26
0.0
 36
1.0
 17
0.0
 27
0.0
 37
0.0
 40
1485.0
 41
0.7070707071
 42
50.0
 43
0.0
 44
0.0
 50
0.0
 51
0.0
 71
     0
 72
  2000
 73
     1
 74
     3
 75
     0
 76
     0
 77
     0
 78
     0
281
     0
 65
     1
110
0.0
120
0.0
130
0.0
111
1.0
121
0.0
131
0.0
112
0.0
122
1.0
132
0.0
 79
     0
146
0.0
  0
ENDTAB
  0
TABLE
  2
LTYPE
  5
5
330
0
100
AcDbSymbolTable
 70
     6
  0
LTYPE
  5
14
330
5
100
AcDbSymbolTableRecord
100
AcDbLinetypeTableRecord
  2
ByBlock
 70
     0
  3

 72
    65
 73
     0
 40
0.0
  0
LTYPE
  5
15
330
5
100
AcDbSymbolTableRecord
100
AcDbLinetypeTableRecord
  2
ByLayer
 70
     0
  3

 72
    65
 73
     0
 40
0.0
  0
LTYPE
  5
16
330
5
100
AcDbSymbolTableRecord
100
AcDbLinetypeTableRecord
  2
Continuous
 70
     0
  3
Solid line
 72
    65
 73
     0
 40
0.0
  0
LTYPE
  5
3F
330
5
100
AcDbSymbolTableRecord
100
AcDbLinetypeTableRecord
  2
HIDDEN
 70
     0
  3
Hidden __ __ __ __ __ __ __ __ __ __ __ __ __ __
 72
    65
 73
     2
 40
1.905
 49
1.27
 74
     0
 49
-0.635
 74
     0
  0
LTYPE
  5
40
330
5
100
AcDbSymbolTableRecord
100
AcDbLinetypeTableRecord
  2
PHANTOM
 70
     0
  3
Phantom ______  __  __  ______  __  __  ______
 72
    65
 73
     6
 40
12.7
 49
6.35
 74
     0
 49
-1.27
 74
     0
 49
1.27
 74
     0
 49
-1.27
 74
     0
 49
1.27
 74
     0
 49
-1.27
 74
     0
  0
LTYPE
  5
41
330
5
100
AcDbSymbolTableRecord
100
AcDbLinetypeTableRecord
  2
CENTER
 70
     0
  3
Center ____ _ ____ _ ____ _ ____ _ ____ _ ____
 72
    65
 73
     4
 40
10.16
 49
6.35
 74
     0
 49
-1.27
 74
     0
 49
1.27
 74
     0
 49
-1.27
 74
     0
  0
LTYPE
  5
42
330
5
100
AcDbSymbolTableRecord
100
AcDbLinetypeTableRecord
  2
CENTERX2
 70
     0
  3
Center (2x) ________  __  ________  __  _____
 72
    65
 73
     4
 40
20.32
 49
12.7
 74
     0
 49
-2.54
 74
     0
 49
2.54
 74
     0
 49
-2.54
 74
     0
  0
LTYPE
  5
43
330
5
100
AcDbSymbolTableRecord
100
AcDbLinetypeTableRecord
  2
DOT2
 70
     0
  3
Dot (.5x) ........................................
 72
    65
 73
     2
 40
0.635
 49
0.0
 74
     0
 49
-0.635
 74
     0
  0
ENDTAB
  0
TABLE
  2
LAYER
  5
2
330
0
100
AcDbSymbolTable
 70
    11
  0
LAYER
  5
10
330
2
100
AcDbSymbolTableRecord
100
AcDbLayerTableRecord
  2
0
 70
     0
 62
     7
  6
Continuous
370
    -3
390
F
  0
LAYER
  5
44
330
2
100
AcDbSymbolTableRecord
100
AcDbLayerTableRecord
  2
SLD-0
 70
     0
 62
   179
  6
Continuous
370
    -3
390
F
  0
LAYER
  5
45
330
2
100
AcDbSymbolTableRecord
100
AcDbLayerTableRecord
  2
AM_6
 70
     0
 62
     2
  6
Continuous
370
    40
390
F
  0
LAYER
  5
46
330
2
100
AcDbSymbolTableRecord
100
AcDbLayerTableRecord
  2
AM_5
 70
     0
 62
     3
  6
Continuous
370
    15
390
F
  0
LAYER
  5
47
330
2
100
AcDbSymbolTableRecord
100
AcDbLayerTableRecord
  2
AM_7
 70
     0
 62
     4
  6
Continuous
370
    15
390
F
  0
LAYER
  5
48
330
2
100
AcDbSymbolTableRecord
100
AcDbLayerTableRecord
  2
SLD-DEFPOINTS
 70
     0
 62
   179
  6
Continuous
370
    -3
390
F
  0
LAYER
  5
49
330
2
100
AcDbSymbolTableRecord
100
AcDbLayerTableRecord
  2
AM_0
 70
     0
 62
   179
  6
Continuous
370
    60
390
F
  0
LAYER
  5
4A
330
2
100
AcDbSymbolTableRecord
100
AcDbLayerTableRecord
  2
AM_CL
 70
     0
 62
     1
  6
Continuous
370
    15
390
F
  0
LAYER
  5
4B
330
2
100
AcDbSymbolTableRecord
100
AcDbLayerTableRecord
  2
6
 70
     0
 62
     2
  6
Continuous
370
    -3
390
F
  0
LAYER
  5
4C
330
2
100
AcDbSymbolTableRecord
100
AcDbLayerTableRecord
  2
AM_4
 70
     0
 62
     3
  6
Continuous
370
    15
390
F
  0
LAYER
  5
4D
330
2
100
AcDbSymbolTableRecord
100
AcDbLayerTableRecord
  2
AM_8
 70
     0
 62
     1
  6
Continuous
370
    15
390
F
  0
ENDTAB
  0
TABLE
  2
STYLE
  5
3
330
0
100
AcDbSymbolTable
 70
     1
  0
STYLE
  5
11
330
3
100
AcDbSymbolTableRecord
100
AcDbTextStyleTableRecord
  2
Standard
 70
     0
 40
0.0
 41
1.0
 50
0.0
 71
     0
 42
17.5
  3
txt
  4
bigfont
  0
ENDTAB
  0
TABLE
  2
VIEW
  5
6
330
0
100
AcDbSymbolTable
 70
     0
  0
ENDTAB
  0
TABLE
  2
UCS
  5
7
330
0
100
AcDbSymbolTable
 70
     0
  0
ENDTAB
  0
TABLE
  2
APPID
  5
9
330
0
100
AcDbSymbolTable
 70
     1
  0
APPID
  5
12
330
9
100
AcDbSymbolTableRecord
100
AcDbRegAppTableRecord
  2
ACAD
 70
     0
  0
ENDTAB
  0
TABLE
  2
DIMSTYLE
  5
A
330
0
100
AcDbSymbolTable
 70
     1
100
AcDbDimStyleTable
  0
DIMSTYLE
105
27
330
A
100
AcDbSymbolTableRecord
100
AcDbDimStyleTableRecord
  2
ISO-25
 70
     0
 41
2.5
 42
0.625
 43
3.75
 44
1.25
 73
     0
 74
     0
 77
     1
 78
     8
140
2.5
141
2.5
143
0.0393700787
147
0.625
171
     3
172
     1
178
     0
271
     2
272
     2
274
     3
278
    44
283
     0
284
     8
340
11
  0
ENDTAB
  0
TABLE
  2
BLOCK_RECORD
  5
1
330
0
100
AcDbSymbolTable
 70
     3
  0
BLOCK_RECORD
  5
1F
330
1
100
AcDbSymbolTableRecord
100
AcDbBlockTableRecord
  2
*Model_Space
340
22
  0
BLOCK_RECORD
  5
1B
330
1
100
AcDbSymbolTableRecord
100
AcDbBlockTableRecord
  2
*Paper_Space
340
1E
  0
BLOCK_RECORD
  5
23
330
1
100
AcDbSymbolTableRecord
100
AcDbBlockTableRecord
  2
*Paper_Space0
340
26
  0
BLOCK_RECORD
  5
24C
330
1
100
AcDbSymbolTableRecord
100
AcDbBlockTableRecord
  2
SW_CENTERMARKSYMBOL_0
340
0
102
{BLKREFS
331
257
102
}
  0
BLOCK_RECORD
  5
358
330
1
100
AcDbSymbolTableRecord
100
AcDbBlockTableRecord
  2
SW_CENTERMARKSYMBOL_1
340
0
102
{BLKREFS
331
3AA
102
}
  0
ENDTAB
  0
ENDSEC
  0
SECTION
  2
BLOCKS
  0
BLOCK
  5
20
330
1F
100
AcDbEntity
  8
0
100
AcDbBlockBegin
  2
*Model_Space
 70
     0
 10
0.0
 20
0.0
 30
0.0
  3
*Model_Space
  1

  0
ENDBLK
  5
21
330
1F
100
AcDbEntity
  8
0
100
AcDbBlockEnd
  0
BLOCK
  5
1C
330
1B
100
AcDbEntity
 67
     1
  8
0
100
AcDbBlockBegin
  2
*Paper_Space
 70
     0
 10
0.0
 20
0.0
 30
0.0
  3
*Paper_Space
  1

  0
ENDBLK
  5
1D
330
1B
100
AcDbEntity
 67
     1
  8
0
100
AcDbBlockEnd
  0
BLOCK
  5
24
330
23
100
AcDbEntity
  8
0
100
AcDbBlockBegin
  2
*Paper_Space0
 70
     0
 10
0.0
 20
0.0
 30
0.0
  3
*Paper_Space0
  1

  0
ENDBLK
  5
25
330
23
100
AcDbEntity
  8
0
100
AcDbBlockEnd
  0
BLOCK
  5
24D
330
24C
100
AcDbEntity
  8
0
100
AcDbBlockBegin
  2
SW_CENTERMARKSYMBOL_0
 70
     0
 10
0.0
 20
0.0
 30
0.0
  3
SW_CENTERMARKSYMBOL_0
  1

  0
LINE
  5
24F
330
24C
100
AcDbEntity
  8
SLD-0
 62
     0
100
AcDbLine
 10
0.0
 20
0.0
 30
0.0
 11
0.0
 21
2.5
 31
0.0
  0
LINE
  5
250
330
24C
100
AcDbEntity
  8
SLD-0
 62
     0
100
AcDbLine
 10
0.0
 20
0.0
 30
0.0
 11
-2.5
 21
0.0
 31
0.0
  0
LINE
  5
251
330
24C
100
AcDbEntity
  8
SLD-0
 62
     0
100
AcDbLine
 10
0.0
 20
0.0
 30
0.0
 11
0.0
 21
-2.5
 31
0.0
  0
LINE
  5
252
330
24C
100
AcDbEntity
  8
SLD-0
 62
     0
100
AcDbLine
 10
0.0
 20
0.0
 30
0.0
 11
2.5
 21
0.0
 31
0.0
  0
LINE
  5
253
330
24C
100
AcDbEntity
  8
SLD-0
 62
     0
100
AcDbLine
 10
0.0
 20
5.0
 30
0.0
 11
0.0
 21
281.9105822723
 31
0.0
  0
LINE
  5
254
330
24C
100
AcDbEntity
  8
SLD-0
 62
     0
100
AcDbLine
 10
-5.0
 20
0.0
 30
0.0
 11
-27.264147
 21
0.0
 31
0.0
  0
LINE
  5
255
330
24C
100
AcDbEntity
  8
SLD-0
 62
     0
100
AcDbLine
 10
0.0
 20
-5.0
 30
0.0
 11
0.0
 21
-237.9119843062
 31
0.0
  0
LINE
  5
256
330
24C
100
AcDbEntity
  8
SLD-0
 62
     0
100
AcDbLine
 10
5.0
 20
0.0
 30
0.0
 11
27.264147
 21
0.0
 31
0.0
  0
ENDBLK
  5
24E
330
24C
100
AcDbEntity
  8
0
100
AcDbBlockEnd
  0
BLOCK
  5
359
330
358
100
AcDbEntity
  8
0
100
AcDbBlockBegin
  2
SW_CENTERMARKSYMBOL_1
 70
     0
 10
0.0
 20
0.0
 30
0.0
  3
SW_CENTERMARKSYMBOL_1
  1

  0
ARC
  5
35B
330
358
100
AcDbEntity
  8
SLD-0
 62
     0
100
AcDbCircle
 10
76.0139789776
 20
-76.0139789776
 30
0.0
 40
107.5
100
AcDbArc
 50
135.0
 51
136.3324599887
  0
ARC
  5
35C
330
358
100
AcDbEntity
  8
SLD-0
 62
     0
100
AcDbCircle
 10
76.0139789776
 20
-76.0139789776
 30
0.0
 40
107.5
100
AcDbArc
 50
133.6675400113
 51
135.0
  0
ARC
  5
35D
330
358
100
AcDbEntity
  8
SLD-0
 62
     0
100
AcDbCircle
 10
76.0139789776
 20
-76.0139789776
 30
0.0
 40
107.4999999999999
100
AcDbArc
 50
45.0
 51
46.3324599887
  0
ARC
  5
35E
330
358
100
AcDbEntity
  8
SLD-0
 62
     0
100
AcDbCircle
 10
76.0139789776
 20
-76.0139789776
 30
0.0
 40
107.5
100
AcDbArc
 50
43.6675400113
 51
45.0
  0
ARC
  5
35F
330
358
100
AcDbEntity
  8
SLD-0
 62
     0
100
AcDbCircle
 10
76.0139789776
 20
-76.0139789776
 30
0.0
 40
107.5
100
AcDbArc
 50
315.0
 51
316.3324599887
  0
ARC
  5
360
330
358
100
AcDbEntity
  8
SLD-0
 62
     0
100
AcDbCircle
 10
76.0139789776
 20
-76.0139789776
 30
0.0
 40
107.5
100
AcDbArc
 50
313.6675400113
 51
315.0
  0
ARC
  5
361
330
358
100
AcDbEntity
  8
SLD-0
 62
     0
100
AcDbCircle
 10
76.0139789776
 20
-76.0139789776
 30
0.0
 40
107.5
100
AcDbArc
 50
225.0
 51
226.3324599887
  0
ARC
  5
362
330
358
100
AcDbEntity
  8
SLD-0
 62
     0
100
AcDbCircle
 10
76.0139789776
 20
-76.0139789776
 30
0.0
 40
107.5
100
AcDbArc
 50
223.6675400113
 51
225.0
  0
ARC
  5
363
330
358
100
AcDbEntity
  8
SLD-0
 62
     0
100
AcDbCircle
 10
76.0139789776
 20
-76.0139789776
 30
0.0
 40
105.0
100
AcDbArc
 50
122.0
 51
123.3641852265
  0
ARC
  5
364
330
358
100
AcDbEntity
  8
SLD-0
 62
     0
100
AcDbCircle
 10
76.0139789776
 20
-76.0139789776
 30
0.0
 40
105.0
100
AcDbArc
 50
120.6358147735
 51
122.0
  0
ARC
  5
365
330
358
100
AcDbEntity
  8
SLD-0
 62
     0
100
AcDbCircle
 10
76.0139789776
 20
-76.0139789776
 30
0.0
 40
105.0
100
AcDbArc
 50
302.0
 51
303.3641852265
  0
ARC
  5
366
330
358
100
AcDbEntity
  8
SLD-0
 62
     0
100
AcDbCircle
 10
76.0139789776
 20
-76.0139789776
 30
0.0
 40
105.0
100
AcDbArc
 50
300.6358147735
 51
302.0
  0
ARC
  5
367
330
358
100
AcDbEntity
  8
SLD-0
 62
     0
100
AcDbCircle
 10
76.0139789776
 20
-76.0139789776
 30
0.0
 40
121.3000000000004
100
AcDbArc
 50
15.0
 51
16.1808693222
  0
ARC
  5
368
330
358
100
AcDbEntity
  8
SLD-0
 62
     0
100
AcDbCircle
 10
76.0139789776
 20
-76.0139789776
 30
0.0
 40
121.3000000000004
100
AcDbArc
 50
13.8191306778
 51
15.0
  0
ARC
  5
369
330
358
100
AcDbEntity
  8
SLD-0
 62
     0
100
AcDbCircle
 10
76.0139789776
 20
-76.0139789776
 30
0.0
 40
121.3000000000004
100
AcDbArc
 50
17.3617386444
 51
21.3766943399
  0
ARC
  5
36A
330
358
100
AcDbEntity
  8
SLD-0
 62
     0
100
AcDbCircle
 10
76.0139789776
 20
-76.0139789776
 30
0.0
 40
121.3000000000004
100
AcDbArc
 50
8.6233056601
 51
12.6382613556
  0
ARC
  5
36B
330
358
100
AcDbEntity
  8
SLD-0
 62
     0
100
AcDbCircle
 10
76.0139789776
 20
-76.0139789776
 30
0.0
 40
38.99999999999996
100
AcDbArc
 50
90.0
 51
93.672806379
  0
ARC
  5
36C
330
358
100
AcDbEntity
  8
SLD-0
 62
     0
100
AcDbCircle
 10
76.0139789776
 20
-76.0139789776
 30
0.0
 40
38.99999999999994
100
AcDbArc
 50
86.327193621
 51
90.0
  0
ARC
  5
36D
330
358
100
AcDbEntity
  8
SLD-0
 62
     0
100
AcDbCircle
 10
76.0139789776
 20
-76.0139789776
 30
0.0
 40
38.99999999999999
100
AcDbArc
 50
330.0
 51
333.672806379
  0
ARC
  5
36E
330
358
100
AcDbEntity
  8
SLD-0
 62
     0
100
AcDbCircle
 10
76.0139789776
 20
-76.0139789776
 30
0.0
 40
39.00000000000004
100
AcDbArc
 50
326.327193621
 51
330.0
  0
ARC
  5
36F
330
358
100
AcDbEntity
  8
SLD-0
 62
     0
100
AcDbCircle
 10
76.0139789776
 20
-76.0139789776
 30
0.0
 40
39.00000000000004
100
AcDbArc
 50
210.0
 51
213.672806379
  0
ARC
  5
370
330
358
100
AcDbEntity
  8
SLD-0
 62
     0
100
AcDbCircle
 10
76.0139789776
 20
-76.0139789776
 30
0.0
 40
39.00000000000004
100
AcDbArc
 50
206.327193621
 51
210.0
  0
ARC
  5
371
330
358
100
AcDbEntity
  8
SLD-0
 62
     0
100
AcDbCircle
 10
76.0139789776
 20
-76.0139789776
 30
0.0
 40
107.5
100
AcDbArc
 50
47.6649199774
 51
132.3350800226
  0
ARC
  5
372
330
358
100
AcDbEntity
  8
SLD-0
 62
     0
100
AcDbCircle
 10
76.0139789776
 20
-76.0139789776
 30
0.0
 40
107.5
100
AcDbArc
 50
317.6649199774
 51
42.3350800226
  0
ARC
  5
373
330
358
100
AcDbEntity
  8
SLD-0
 62
     0
100
AcDbCircle
 10
76.0139789776
 20
-76.0139789776
 30
0.0
 40
107.5
100
AcDbArc
 50
137.6649199774
 51
222.3350800226
  0
ARC
  5
374
330
358
100
AcDbEntity
  8
SLD-0
 62
     0
100
AcDbCircle
 10
76.0139789776
 20
-76.0139789776
 30
0.0
 40
107.5
100
AcDbArc
 50
227.6649199774
 51
312.3350800226
  0
ARC
  5
375
330
358
100
AcDbEntity
  8
SLD-0
 62
     0
100
AcDbCircle
 10
76.0139789776
 20
-76.0139789776
 30
0.0
 40
105.0
100
AcDbArc
 50
124.728370453
 51
299.271629547
  0
ARC
  5
376
330
358
100
AcDbEntity
  8
SLD-0
 62
     0
100
AcDbCircle
 10
76.0139789776
 20
-76.0139789776
 30
0.0
 40
105.0
100
AcDbArc
 50
304.728370453
 51
119.271629547
  0
ARC
  5
377
330
358
100
AcDbEntity
  8
SLD-0
 62
     0
100
AcDbCircle
 10
76.0139789776
 20
-76.0139789776
 30
0.0
 40
38.99999999999999
100
AcDbArc
 50
337.3456127581
 51
82.6543872419
  0
ARC
  5
378
330
358
100
AcDbEntity
  8
SLD-0
 62
     0
100
AcDbCircle
 10
76.0139789776
 20
-76.0139789776
 30
0.0
 40
39.00000000000005
100
AcDbArc
 50
97.3456127581
 51
202.6543872419
  0
ARC
  5
379
330
358
100
AcDbEntity
  8
SLD-0
 62
     0
100
AcDbCircle
 10
76.0139789776
 20
-76.0139789776
 30
0.0
 40
39.00000000000005
100
AcDbArc
 50
217.3456127581
 51
322.6543872419
  0
LINE
  5
37A
330
358
100
AcDbEntity
  8
SLD-0
 62
     0
100
AcDbLine
 10
0.0
 20
0.0
 30
0.0
 11
-1.767766953
 21
1.767766953
 31
0.0
  0
LINE
  5
37B
330
358
100
AcDbEntity
  8
SLD-0
 62
     0
100
AcDbLine
 10
0.0
 20
0.0
 30
0.0
 11
1.767766953
 21
-1.767766953
 31
0.0
  0
LINE
  5
37C
330
358
100
AcDbEntity
  8
SLD-0
 62
     0
100
AcDbLine
 10
-3.5355339059
 20
3.5355339059
 30
0.0
 11
-6.0104076401
 21
6.0104076401
 31
0.0
  0
LINE
  5
37D
330
358
100
AcDbEntity
  8
SLD-0
 62
     0
100
AcDbLine
 10
3.5355339059
 20
-3.5355339059
 30
0.0
 11
6.0104076401
 21
-6.0104076401
 31
0.0
  0
LINE
  5
37E
330
358
100
AcDbEntity
  8
SLD-0
 62
     0
100
AcDbLine
 10
152.0279579551
 20
0.0
 30
0.0
 11
153.7957249081
 21
1.767766953
 31
0.0
  0
LINE
  5
37F
330
358
100
AcDbEntity
  8
SLD-0
 62
     0
100
AcDbLine
 10
152.0279579551
 20
0.0
 30
0.0
 11
150.2601910021
 21
-1.767766953
 31
0.0
  0
LINE
  5
380
330
358
100
AcDbEntity
  8
SLD-0
 62
     0
100
AcDbLine
 10
155.563491861
 20
3.5355339059
 30
0.0
 11
158.0383655952
 21
6.0104076401
 31
0.0
  0
LINE
  5
381
330
358
100
AcDbEntity
  8
SLD-0
 62
     0
100
AcDbLine
 10
148.4924240492
 20
-3.5355339059
 30
0.0
 11
146.017550315
 21
-6.0104076401
 31
0.0
  0
LINE
  5
382
330
358
100
AcDbEntity
  8
SLD-0
 62
     0
100
AcDbLine
 10
152.0279579551
 20
-152.0279579551
 30
0.0
 11
153.7957249081
 21
-153.7957249081
 31
0.0
  0
LINE
  5
383
330
358
100
AcDbEntity
  8
SLD-0
 62
     0
100
AcDbLine
 10
152.0279579551
 20
-152.0279579551
 30
0.0
 11
150.2601910021
 21
-150.2601910021
 31
0.0
  0
LINE
  5
384
330
358
100
AcDbEntity
  8
SLD-0
 62
     0
100
AcDbLine
 10
155.563491861
 20
-155.563491861
 30
0.0
 11
158.0383655952
 21
-158.0383655952
 31
0.0
  0
LINE
  5
385
330
358
100
AcDbEntity
  8
SLD-0
 62
     0
100
AcDbLine
 10
148.4924240492
 20
-148.4924240492
 30
0.0
 11
146.017550315
 21
-146.017550315
 31
0.0
  0
LINE
  5
386
330
358
100
AcDbEntity
  8
SLD-0
 62
     0
100
AcDbLine
 10
76.0139789776
 20
-76.0139789776
 30
0.0
 11
76.0139789776
 21
-73.5139789776
 31
0.0
  0
LINE
  5
387
330
358
100
AcDbEntity
  8
SLD-0
 62
     0
100
AcDbLine
 10
76.0139789776
 20
-76.0139789776
 30
0.0
 11
73.5139789776
 21
-76.0139789776
 31
0.0
  0
LINE
  5
388
330
358
100
AcDbEntity
  8
SLD-0
 62
     0
100
AcDbLine
 10
76.0139789776
 20
-76.0139789776
 30
0.0
 11
76.0139789776
 21
-78.5139789776
 31
0.0
  0
LINE
  5
389
330
358
100
AcDbEntity
  8
SLD-0
 62
     0
100
AcDbLine
 10
76.0139789776
 20
-76.0139789776
 30
0.0
 11
78.5139789776
 21
-76.0139789776
 31
0.0
  0
LINE
  5
38A
330
358
100
AcDbEntity
  8
SLD-0
 62
     0
100
AcDbLine
 10
76.0139789776
 20
-71.0139789776
 30
0.0
 11
76.0139789776
 21
2.5
 31
0.0
  0
LINE
  5
38B
330
358
100
AcDbEntity
  8
SLD-0
 62
     0
100
AcDbLine
 10
71.0139789776
 20
-76.0139789776
 30
0.0
 11
-2.5
 21
-76.0139789776
 31
0.0
  0
LINE
  5
38C
330
358
100
AcDbEntity
  8
SLD-0
 62
     0
100
AcDbLine
 10
76.0139789776
 20
-81.0139789776
 30
0.0
 11
76.0139789776
 21
-154.5279579551
 31
0.0
  0
LINE
  5
38D
330
358
100
AcDbEntity
  8
SLD-0
 62
     0
100
AcDbLine
 10
81.0139789776
 20
-76.0139789776
 30
0.0
 11
154.5279579551
 21
-76.0139789776
 31
0.0
  0
LINE
  5
38E
330
358
100
AcDbEntity
  8
SLD-0
 62
     0
100
AcDbLine
 10
0.0
 20
-152.0279579551
 30
0.0
 11
-1.767766953
 21
-153.7957249081
 31
0.0
  0
LINE
  5
38F
330
358
100
AcDbEntity
  8
SLD-0
 62
     0
100
AcDbLine
 10
0.0
 20
-152.0279579551
 30
0.0
 11
1.767766953
 21
-150.2601910021
 31
0.0
  0
LINE
  5
390
330
358
100
AcDbEntity
  8
SLD-0
 62
     0
100
AcDbLine
 10
-3.5355339059
 20
-155.563491861
 30
0.0
 11
-6.0104076401
 21
-158.0383655952
 31
0.0
  0
LINE
  5
391
330
358
100
AcDbEntity
  8
SLD-0
 62
     0
100
AcDbLine
 10
3.5355339059
 20
-148.4924240492
 30
0.0
 11
6.0104076401
 21
-146.017550315
 31
0.0
  0
LINE
  5
392
330
358
100
AcDbEntity
  8
SLD-0
 62
     0
100
AcDbLine
 10
20.3724562331
 20
13.0310711189
 30
0.0
 11
19.0476580725
 21
15.1511913593
 31
0.0
  0
LINE
  5
393
330
358
100
AcDbEntity
  8
SLD-0
 62
     0
100
AcDbLine
 10
20.3724562331
 20
13.0310711189
 30
0.0
 11
21.6972543936
 21
10.9109508785
 31
0.0
  0
LINE
  5
394
330
358
100
AcDbEntity
  8
SLD-0
 62
     0
100
AcDbLine
 10
17.7228599119
 20
17.2713115997
 30
0.0
 11
16.9279810156
 21
18.5433837439
 31
0.0
  0
LINE
  5
395
330
358
100
AcDbEntity
  8
SLD-0
 62
     0
100
AcDbLine
 10
23.0220525542
 20
8.7908306381
 30
0.0
 11
23.8169314506
 21
7.5187584939
 31
0.0
  0
LINE
  5
396
330
358
100
AcDbEntity
  8
SLD-0
 62
     0
100
AcDbLine
 10
131.655501722
 20
-165.059029074
 30
0.0
 11
132.9802998826
 21
-167.1791493144
 31
0.0
  0
LINE
  5
397
330
358
100
AcDbEntity
  8
SLD-0
 62
     0
100
AcDbLine
 10
131.655501722
 20
-165.059029074
 30
0.0
 11
130.3307035615
 21
-162.9389088336
 31
0.0
  0
LINE
  5
398
330
358
100
AcDbEntity
  8
SLD-0
 62
     0
100
AcDbLine
 10
134.3050980432
 20
-169.2992695548
 30
0.0
 11
135.0999769396
 21
-170.571341699
 31
0.0
  0
LINE
  5
399
330
358
100
AcDbEntity
  8
SLD-0
 62
     0
100
AcDbLine
 10
129.0059054009
 20
-160.8187885932
 30
0.0
 11
128.2110265045
 21
-159.546716449
 31
0.0
  0
LINE
  5
39A
330
358
100
AcDbEntity
  8
SLD-0
 62
     0
100
AcDbLine
 10
193.1807817064
 20
-44.6192288066
 30
0.0
 11
195.5955962721
 21
-43.9721811939
 31
0.0
  0
LINE
  5
39B
330
358
100
AcDbEntity
  8
SLD-0
 62
     0
100
AcDbLine
 10
193.1807817064
 20
-44.6192288066
 30
0.0
 11
190.7659671407
 21
-45.2662764194
 31
0.0
  0
LINE
  5
39C
330
358
100
AcDbEntity
  8
SLD-0
 62
     0
100
AcDbLine
 10
198.0104108379
 20
-43.3251335811
 30
0.0
 11
206.2207803613
 21
-41.1251716977
 31
0.0
  0
LINE
  5
39D
330
358
100
AcDbEntity
  8
SLD-0
 62
     0
100
AcDbLine
 10
188.351152575
 20
-45.9133240321
 30
0.0
 11
180.1407830515
 21
-48.1132859155
 31
0.0
  0
LINE
  5
39E
330
358
100
AcDbEntity
  8
SLD-0
 62
     0
100
AcDbLine
 10
76.0139789776
 20
-37.0139789776
 30
0.0
 11
76.0139789776
 21
-34.5139789776
 31
0.0
  0
LINE
  5
39F
330
358
100
AcDbEntity
  8
SLD-0
 62
     0
100
AcDbLine
 10
76.0139789776
 20
-37.0139789776
 30
0.0
 11
76.0139789776
 21
-39.5139789776
 31
0.0
  0
LINE
  5
3A0
330
358
100
AcDbEntity
  8
SLD-0
 62
     0
100
AcDbLine
 10
76.0139789776
 20
-34.5139789776
 30
0.0
 11
76.0139789776
 21
-32.0139789776
 31
0.0
  0
LINE
  5
3A1
330
358
100
AcDbEntity
  8
SLD-0
 62
     0
100
AcDbLine
 10
76.0139789776
 20
-39.5139789776
 30
0.0
 11
76.0139789776
 21
-42.0139789776
 31
0.0
  0
LINE
  5
3A2
330
358
100
AcDbEntity
  8
SLD-0
 62
     0
100
AcDbLine
 10
109.7889697251
 20
-95.5139789776
 30
0.0
 11
111.9540332346
 21
-96.7639789776
 31
0.0
  0
LINE
  5
3A3
330
358
100
AcDbEntity
  8
SLD-0
 62
     0
100
AcDbLine
 10
109.7889697251
 20
-95.5139789776
 30
0.0
 11
107.6239062157
 21
-94.2639789776
 31
0.0
  0
LINE
  5
3A4
330
358
100
AcDbEntity
  8
SLD-0
 62
     0
100
AcDbLine
 10
111.9540332346
 20
-96.7639789776
 30
0.0
 11
114.1190967441
 21
-98.0139789776
 31
0.0
  0
LINE
  5
3A5
330
358
100
AcDbEntity
  8
SLD-0
 62
     0
100
AcDbLine
 10
107.6239062157
 20
-94.2639789776
 30
0.0
 11
105.4588427062
 21
-93.0139789776
 31
0.0
  0
LINE
  5
3A6
330
358
100
AcDbEntity
  8
SLD-0
 62
     0
100
AcDbLine
 10
42.23898823
 20
-95.5139789776
 30
0.0
 11
40.0739247205
 21
-96.7639789776
 31
0.0
  0
LINE
  5
3A7
330
358
100
AcDbEntity
  8
SLD-0
 62
     0
100
AcDbLine
 10
42.23898823
 20
-95.5139789776
 30
0.0
 11
44.4040517394
 21
-94.2639789776
 31
0.0
  0
LINE
  5
3A8
330
358
100
AcDbEntity
  8
SLD-0
 62
     0
100
AcDbLine
 10
40.0739247205
 20
-96.7639789776
 30
0.0
 11
37.908861211
 21
-98.0139789776
 31
0.0
  0
LINE
  5
3A9
330
358
100
AcDbEntity
  8
SLD-0
 62
     0
100
AcDbLine
 10
44.4040517394
 20
-94.2639789776
 30
0.0
 11
46.5691152489
 21
-93.0139789776
 31
0.0
  0
ENDBLK
  5
35A
330
358
100
AcDbEntity
  8
0
100
AcDbBlockEnd
  0
ENDSEC
  0
SECTION
  2
ENTITIES
  0
ARC
  5
4E
330
1F
100
AcDbEntity
  8
0
  6
Continuous
 62
     7
370
    15
100
AcDbCircle
 10
607.7390332894
 20
1252.9291022741
 30
0.0
 40
2.0
100
AcDbArc
 50
0.0
 51
90.0
  0
ARC
  5
4F
330
1F
100
AcDbEntity
  8
0
  6
Continuous
 62
     7
370
    15
100
AcDbCircle
 10
429.7390332894
 20
1252.9291022741
 30
0.0
 40
2.0
100
AcDbArc
 50
90.0
 51
180.0
  0
LINE
  5
50
330
1F
100
AcDbEntity
  8
0
  6
Continuous
 62
     7
370
    15
100
AcDbLine
 10
427.7390351371
 20
1252.9291001284
 30
0.0
 11
427.7390351371
 21
1240.4290971481
 31
0.0
  0
LINE
  5
51
330
1F
100
AcDbEntity
  8
0
  6
Continuous
 62
     7
370
    15
100
AcDbLine
 10
609.7390314416
 20
1210.0073036873
 30
0.0
 11
609.7390314416
 21
1252.9291001284
 31
0.0
  0
LINE
  5
52
330
1F
100
AcDbEntity
  8
0
  6
Continuous
 62
     7
370
    15
100
AcDbLine
 10
605.2884047703
 20
1255.2908000671
 30
0.0
 11
588.0918836073
 21
1267.3319366896
 31
0.0
  0
LINE
  5
53
330
1F
100
AcDbEntity
  8
0
  6
Continuous
 62
     7
370
    15
100
AcDbLine
 10
449.3861829714
 20
1267.3319366896
 30
0.0
 11
432.1896618084
 21
1255.2908000671
 31
0.0
  0
ARC
  5
54
330
1F
100
AcDbEntity
  8
0
  6
Continuous
 62
     7
370
    15
100
AcDbCircle
 10
606.4355549548
 20
1256.9291022741
 30
0.0
 40
2.000000000000227
100
AcDbArc
 50
235.0
 51
270.0
  0
ARC
  5
55
330
1F
100
AcDbEntity
  8
0
  6
Continuous
 62
     7
370
    15
100
AcDbCircle
 10
431.042511624
 20
1256.9291022741
 30
0.0
 40
2.000000000000227
100
AcDbArc
 50
270.0
 51
305.0
  0
ARC
  5
56
330
1F
100
AcDbEntity
  8
0
  6
Continuous
 62
     7
370
    15
100
AcDbCircle
 10
448.2390332894
 20
1268.9702363752
 30
0.0
 40
2.000000000000204
100
AcDbArc
 50
305.0
 51
0.0
  0
ARC
  5
57
330
1F
100
AcDbEntity
  8
0
  6
Continuous
 62
     7
370
    15
100
AcDbCircle
 10
589.2390332894
 20
1268.9702363752
 30
0.0
 40
2.000000000000237
100
AcDbArc
 50
180.0
 51
235.0
  0
ARC
  5
58
330
1F
100
AcDbEntity
  8
0
  6
Continuous
 62
     7
370
    15
100
AcDbCircle
 10
585.2390332894
 20
1270.9291022741
 30
0.0
 40
2.0
100
AcDbArc
 50
0.0
 51
90.0
  0
ARC
  5
59
330
1F
100
AcDbEntity
  8
0
  6
Continuous
 62
     7
370
    15
100
AcDbCircle
 10
452.2390332894
 20
1270.9291022741
 30
0.0
 40
2.0
100
AcDbArc
 50
90.0
 51
180.0
  0
LINE
  5
5A
330
1F
100
AcDbEntity
  8
0
  6
Continuous
 62
     7
370
    15
100
AcDbLine
 10
450.2390360312
 20
1270.9291068041
 30
0.0
 11
450.2390360312
 21
1268.9702299559
 31
0.0
  0
LINE
  5
5B
330
1F
100
AcDbEntity
  8
0
  6
Continuous
 62
     7
370
    15
100
AcDbLine
 10
587.2390305476
 20
1268.9702299559
 30
0.0
 11
587.2390305476
 21
1270.9291068041
 31
0.0
  0
ARC
  5
5C
330
1F
100
AcDbEntity
  8
0
  6
Continuous
 62
     7
370
    15
100
AcDbCircle
 10
569.2597250976
 20
1236.8648498791
 30
0.0
 40
2.0
100
AcDbArc
 50
0.0
 51
16.4297328233
  0
LINE
  5
5D
330
1F
100
AcDbEntity
  8
0
  6
Continuous
 62
     7
370
    15
100
AcDbLine
 10
571.2597256379
 20
1203.9291051351
 30
0.0
 11
571.2597256379
 21
1236.8648436987
 31
0.0
  0
ARC
  5
5E
330
1F
100
AcDbEntity
  8
0
  6
Continuous
 62
     7
370
    15
100
AcDbCircle
 10
425.7390332894
 20
1240.4291022741
 30
0.0
 40
2.0
100
AcDbArc
 50
300.1821729804
 51
0.0
  0
ARC
  5
5F
330
1F
100
AcDbEntity
  8
0
  6
Continuous
 62
     7
370
    15
100
AcDbCircle
 10
427.7390369015
 20
1236.9649752435
 30
0.0
 40
2.00000581791797
100
AcDbArc
 50
119.8047760542
 51
180.0011586631
  0
LINE
  5
60
330
1F
100
AcDbEntity
  8
0
  6
Continuous
 62
     7
370
    15
100
AcDbLine
 10
601.0390331821
 20
1042.4291021791
 30
0.0
 11
601.0390331821
 21
1161.4323643171
 31
0.0
  0
LINE
  5
61
330
1F
100
AcDbEntity
  8
0
  6
Continuous
 62
     7
370
    15
100
AcDbLine
 10
601.0390331821
 20
1201.425844165
 30
0.0
 11
601.0390331821
 21
1210.9291044199
 31
0.0
  0
LINE
  5
62
330
1F
100
AcDbEntity
  8
0
  6
Continuous
 62
     7
370
    15
100
AcDbLine
 10
436.4390333967
 20
1203.9291051351
 30
0.0
 11
436.4390333967
 21
1042.4291021791
 31
0.0
  0
LINE
  5
63
330
1F
100
AcDbEntity
  8
0
  6
Continuous
 62
     7
370
    15
100
AcDbLine
 10
471.097510107
 20
974.9291029894
 30
0.0
 11
471.097510107
 21
975.7736113989
 31
0.0
  0
LINE
  5
64
330
1F
100
AcDbEntity
  8
0
  6
Continuous
 62
     7
370
    15
100
AcDbLine
 10
455.0975074844
 20
975.7736113989
 30
0.0
 11
455.0975074844
 21
974.9291029894
 31
0.0
  0
LINE
  5
65
330
1F
100
AcDbEntity
  8
0
  6
Continuous
 62
     7
370
    15
100
AcDbLine
 10
601.1325081663
 20
1161.4291009628
 30
0.0
 11
613.2829373555
 21
1161.4291009628
 31
0.0
  0
LINE
  5
66
330
1F
100
AcDbEntity
  8
0
  6
Continuous
 62
     7
370
    15
100
AcDbLine
 10
612.9820978121
 20
1201.4291075193
 30
0.0
 11
601.1325081663
 21
1201.4291075193
 31
0.0
  0
LINE
  5
67
330
1F
100
AcDbEntity
  8
0
  6
Continuous
 62
     7
370
    15
100
AcDbLine
 10
599.7455006318
 20
1200.6977585279
 30
0.0
 11
598.8489201145
 21
1199.7343239509
 31
0.0
  0
LINE
  5
68
330
1F
100
AcDbEntity
  8
0
  6
Continuous
 62
     7
370
    15
100
AcDbLine
 10
598.8489201145
 20
1163.1238770806
 30
0.0
 11
599.7455006318
 21
1162.1604425036
 31
0.0
  0
LINE
  5
69
330
1F
100
AcDbEntity
  8
0
  6
Continuous
 62
     7
370
    15
100
AcDbLine
 10
477.8457728998
 20
811.929100486
 30
0.0
 11
477.8457728998
 21
812.9291025125
 31
0.0
  0
LINE
  5
6A
330
1F
100
AcDbEntity
  8
0
  6
Continuous
 62
     7
370
    15
100
AcDbLine
 10
463.4657723682
 20
812.9291025125
 30
0.0
 11
463.4657723682
 21
811.929100486
 31
0.0
  0
LINE
  5
6B
330
1F
100
AcDbEntity
  8
0
  6
Continuous
 62
     7
370
    15
100
AcDbLine
 10
474.6557732896
 20
827.9291031086
 30
0.0
 11
474.6557732896
 21
892.4291071617
 31
0.0
  0
LINE
  5
6C
330
1F
100
AcDbEntity
  8
0
  6
Continuous
 62
     7
370
    15
100
AcDbLine
 10
466.6557719783
 20
892.4291071617
 30
0.0
 11
466.6557719783
 21
827.9291031086
 31
0.0
  0
LINE
  5
6D
330
1F
100
AcDbEntity
  8
0
  6
Continuous
 62
     7
370
    15
100
AcDbLine
 10
574.0122942106
 20
811.929100486
 30
0.0
 11
574.0122942106
 21
812.9291025125
 31
0.0
  0
LINE
  5
6E
330
1F
100
AcDbEntity
  8
0
  6
Continuous
 62
     7
370
    15
100
AcDbLine
 10
559.632293679
 20
812.9291025125
 30
0.0
 11
559.632293679
 21
811.929100486
 31
0.0
  0
LINE
  5
6F
330
1F
100
AcDbEntity
  8
0
  6
Continuous
 62
     7
370
    15
100
AcDbLine
 10
570.8222946004
 20
827.9291031086
 30
0.0
 11
570.8222946004
 21
892.4291071617
 31
0.0
  0
LINE
  5
70
330
1F
100
AcDbEntity
  8
0
  6
Continuous
 62
     7
370
    15
100
AcDbLine
 10
562.8222932891
 20
892.4291071617
 30
0.0
 11
562.8222932891
 21
827.9291031086
 31
0.0
  0
LINE
  5
71
330
1F
100
AcDbEntity
  8
0
  6
Continuous
 62
     7
370
    15
100
AcDbLine
 10
457.7390326039
 20
852.9291090691
 30
0.0
 11
457.7390326039
 21
827.9291031086
 31
0.0
  0
LINE
  5
72
330
1F
100
AcDbEntity
  8
0
  6
Continuous
 62
     7
370
    15
100
AcDbLine
 10
579.7390339748
 20
827.9291031086
 30
0.0
 11
579.7390339748
 21
852.9291090691
 31
0.0
  0
LINE
  5
73
330
1F
100
AcDbEntity
  8
0
  6
Continuous
 62
     7
370
    15
100
AcDbLine
 10
457.523882188
 20
827.9291031086
 30
0.0
 11
457.523882188
 21
814.9291065657
 31
0.0
  0
ARC
  5
74
330
1F
100
AcDbEntity
  8
0
  6
Continuous
 62
     7
370
    15
100
AcDbCircle
 10
459.5238834768
 20
814.9291022741
 30
0.0
 40
2.000000000000114
100
AcDbArc
 50
180.0
 51
270.0
  0
LINE
  5
75
330
1F
100
AcDbEntity
  8
0
  6
Continuous
 62
     7
370
    15
100
AcDbLine
 10
579.9541843907
 20
814.9291065657
 30
0.0
 11
579.9541843907
 21
827.9291031086
 31
0.0
  0
ARC
  5
76
330
1F
100
AcDbEntity
  8
0
  6
Continuous
 62
     7
370
    15
100
AcDbCircle
 10
577.954183102
 20
814.9291022741
 30
0.0
 40
2.000000000000114
100
AcDbArc
 50
270.0
 51
0.0
  0
ARC
  5
77
330
1F
100
AcDbEntity
  8
0
  6
Continuous
 62
     7
370
    15
100
AcDbCircle
 10
477.7390332894
 20
807.9291022741
 30
0.0
 40
5.000000000000083
100
AcDbArc
 50
0.0
 51
88.7767696191
  0
ARC
  5
78
330
1F
100
AcDbEntity
  8
0
  6
Continuous
 62
     7
370
    15
100
AcDbCircle
 10
559.7390332894
 20
807.9291022741
 30
0.0
 40
5.000000000000092
100
AcDbArc
 50
91.2232303809
 51
180.0
  0
LINE
  5
79
330
1F
100
AcDbEntity
  8
0
  6
Continuous
 62
     7
370
    15
100
AcDbLine
 10
482.7390348391
 20
807.9291072809
 30
0.0
 11
482.7390348391
 21
789.9291006052
 31
0.0
  0
ARC
  5
7A
330
1F
100
AcDbEntity
  8
0
  6
Continuous
 62
     7
370
    15
100
AcDbCircle
 10
484.7390332894
 20
789.9291022741
 30
0.0
 40
2.0
100
AcDbArc
 50
180.0
 51
270.0
  0
LINE
  5
7B
330
1F
100
AcDbEntity
  8
0
  6
Continuous
 62
     7
370
    15
100
AcDbLine
 10
554.7390317397
 20
789.9291006052
 30
0.0
 11
554.7390317397
 21
807.9291072809
 31
0.0
  0
ARC
  5
7C
330
1F
100
AcDbEntity
  8
0
  6
Continuous
 62
     7
370
    15
100
AcDbCircle
 10
552.7390332894
 20
789.9291022741
 30
0.0
 40
2.000000000000114
100
AcDbArc
 50
270.0
 51
0.0
  0
ARC
  5
7D
330
1F
100
AcDbEntity
  8
0
  6
Continuous
 62
     7
370
    15
100
AcDbCircle
 10
473.9640425418
 20
807.9291022741
 30
0.0
 40
5.000000000000091
100
AcDbArc
 50
0.0
 51
53.1301023542
  0
ARC
  5
7E
330
1F
100
AcDbEntity
  8
0
  6
Continuous
 62
     7
370
    15
100
AcDbCircle
 10
563.514024037
 20
807.9291022741
 30
0.0
 40
5.000000000000026
100
AcDbArc
 50
140.8779358329
 51
180.0
  0
LINE
  5
7F
330
1F
100
AcDbEntity
  8
0
  6
Continuous
 62
     7
370
    15
100
AcDbLine
 10
478.9640417175
 20
807.9291072809
 30
0.0
 11
478.9640417175
 21
789.9291006052
 31
0.0
  0
ARC
  5
80
330
1F
100
AcDbEntity
  8
0
  6
Continuous
 62
     7
370
    15
100
AcDbCircle
 10
480.9640425418
 20
789.9291022741
 30
0.0
 40
2.0
100
AcDbArc
 50
180.0
 51
270.0
  0
LINE
  5
81
330
1F
100
AcDbEntity
  8
0
  6
Continuous
 62
     7
370
    15
100
AcDbLine
 10
558.5140248613
 20
789.9291006052
 30
0.0
 11
558.5140248613
 21
807.9291072809
 31
0.0
  0
ARC
  5
82
330
1F
100
AcDbEntity
  8
0
  6
Continuous
 62
     7
370
    15
100
AcDbCircle
 10
556.514024037
 20
789.9291022741
 30
0.0
 40
2.0
100
AcDbArc
 50
270.0
 51
0.0
  0
LINE
  5
83
330
1F
100
AcDbEntity
  8
0
  6
Continuous
 62
     7
370
    15
100
AcDbLine
 10
579.7390339748
 20
852.9291090691
 30
0.0
 11
579.7390339748
 21
889.429101082
 31
0.0
  0
LINE
  5
84
330
1F
100
AcDbEntity
  8
0
  6
Continuous
 62
     7
370
    15
100
AcDbLine
 10
457.7390326039
 20
889.429101082
 30
0.0
 11
457.7390326039
 21
852.9291090691
 31
0.0
  0
ARC
  5
85
330
1F
100
AcDbEntity
  8
0
  6
Continuous
 62
     7
370
    15
100
AcDbCircle
 10
630.6502015374
 20
1205.6708110198
 30
0.0
 40
6.50000000000017
100
AcDbArc
 50
346.7717712588
 51
14.8077554718
  0
ARC
  5
86
330
1F
100
AcDbEntity
  8
0
  6
Continuous
 62
     7
370
    15
100
AcDbCircle
 10
630.6502015374
 20
1205.6708110198
 30
0.0
 40
6.500000000000117
100
AcDbArc
 50
23.9323549452
 51
54.5220217153
  0
LINE
  5
87
330
1F
100
AcDbEntity
  8
0
  6
Continuous
 62
     7
370
    15
100
AcDbLine
 10
633.9358350114
 20
1211.142474147
 30
0.0
 11
633.7549870686
 21
1211.0859987461
 31
0.0
  0
LINE
  5
88
330
1F
100
AcDbEntity
  8
0
  6
Continuous
 62
     7
370
    15
100
AcDbLine
 10
633.727941461
 20
1211.1050871336
 30
0.0
 11
632.325861402
 21
1210.5767664635
 31
0.0
  0
ARC
  5
89
330
1F
100
AcDbEntity
  8
0
  6
Continuous
 62
     7
370
    15
100
AcDbCircle
 10
615.6386969214
 20
1205.6708110198
 30
0.0
 40
6.499999999999982
100
AcDbArc
 50
346.7717712588
 51
14.8077554718
  0
ARC
  5
8A
330
1F
100
AcDbEntity
  8
0
  6
Continuous
 62
     7
370
    15
100
AcDbCircle
 10
615.6386969214
 20
1205.6708110198
 30
0.0
 40
6.500000000000013
100
AcDbArc
 50
23.9323549453
 51
54.5220217153
  0
SPLINE
  5
8B
330
1F
100
AcDbEntity
  8
0
  6
Continuous
 62
     7
370
    15
100
AcDbSpline
210
0.0
220
0.0
230
1.0
 70
     8
 71
     3
 72
    10
 73
     6
 74
     0
 42
0.00000001
 43
0.00000001
 12
1.0
 22
0.0
 32
0.0
 13
1.0
 23
0.0
 33
0.0
 40
0.0
 40
0.0
 40
0.0
 40
0.0
 40
0.1516540286385393
 40
0.5678380406835345
 40
1.0
 40
1.0
 40
1.0
 40
1.0
 10
621.5532159285134
 20
1203.661286565008
 30
0.0
 10
621.6008046252307
 20
1203.672704090851
 30
0.0
 10
621.7789909388102
 20
1203.715454722417
 30
0.0
 10
621.9337172144162
 20
1204.008301933626
 30
0.0
 10
621.9746074853255
 20
1204.261208049715
 30
0.0
 10
621.9954376892633
 20
1204.390042754355
 30
0.0
  0
SPLINE
  5
8C
330
1F
100
AcDbEntity
  8
0
  6
Continuous
 62
     7
370
    15
100
AcDbSpline
210
0.0
220
0.0
230
1.0
 70
     8
 71
     3
 72
    11
 73
     7
 74
     0
 42
0.00000001
 43
0.00000001
 12
1.0
 22
0.0
 32
0.0
 13
1.0
 23
0.0
 33
0.0
 40
0.0
 40
0.0
 40
0.0
 40
0.0
 40
0.0690562800171102
 40
0.508818715447551
 40
0.8154954352304682
 40
1.0
 40
1.0
 40
1.0
 40
1.0
 10
619.9211438970156
 20
1210.430422159376
 30
0.0
 10
619.8956574594836
 20
1210.467868241032
 30
0.0
 10
619.7078689425945
 20
1210.743777501733
 30
0.0
 10
619.4316575013562
 20
1210.967002094307
 30
0.0
 10
619.0485000848923
 20
1211.187132149529
 30
0.0
 10
618.8206189133448
 20
1211.106281094019
 30
0.0
 10
618.7350189165658
 20
1211.075910659971
 30
0.0
  0
LINE
  5
8D
330
1F
100
AcDbEntity
  8
0
  6
Continuous
 62
     7
370
    15
100
AcDbLine
 10
618.716429718
 20
1211.1050871336
 30
0.0
 11
617.3143571095
 21
1210.5767664635
 31
0.0
  0
LINE
  5
8E
330
1F
100
AcDbEntity
  8
0
  6
Continuous
 62
     7
370
    15
100
AcDbLine
 10
620.1352139787
 20
1203.0906018936
 30
0.0
 11
621.5372940378
 21
1203.6189076626
 31
0.0
  0
ARC
  5
8F
330
1F
100
AcDbEntity
  8
0
  6
Continuous
 62
     7
370
    15
100
AcDbCircle
 10
660.7135156864
 20
1120.1587825283
 30
0.0
 40
6.500000000000059
100
AcDbArc
 50
346.7717712588
 51
14.8077554718
  0
ARC
  5
90
330
1F
100
AcDbEntity
  8
0
  6
Continuous
 62
     7
370
    15
100
AcDbCircle
 10
660.7135156864
 20
1120.1587825283
 30
0.0
 40
6.500000000000012
100
AcDbArc
 50
23.9323549452
 51
54.5220217153
  0
SPLINE
  5
91
330
1F
100
AcDbEntity
  8
0
  6
Continuous
 62
     7
370
    15
100
AcDbSpline
210
0.0
220
0.0
230
1.0
 70
     8
 71
     3
 72
    10
 73
     6
 74
     0
 42
0.00000001
 43
0.00000001
 12
1.0
 22
0.0
 32
0.0
 13
1.0
 23
0.0
 33
0.0
 40
0.0
 40
0.0
 40
0.0
 40
0.0
 40
0.151651765541968
 40
0.567836013687776
 40
1.0
 40
1.0
 40
1.0
 40
1.0
 10
666.628036447007
 20
1118.149259420576
 30
0.0
 10
666.6756219795692
 20
1118.160677246674
 30
0.0
 10
666.8537984684654
 20
1118.203429487859
 30
0.0
 10
667.0085547973756
 20
1118.496263278893
 30
0.0
 10
667.0494337350444
 20
1118.749176847992
 30
0.0
 10
667.0702582077569
 20
1118.878015609923
 30
0.0
  0
SPLINE
  5
92
330
1F
100
AcDbEntity
  8
0
  6
Continuous
 62
     7
370
    15
100
AcDbSpline
210
0.0
220
0.0
230
1.0
 70
     8
 71
     3
 72
    11
 73
     7
 74
     0
 42
0.00000001
 43
0.00000001
 12
1.0
 22
0.0
 32
0.0
 13
1.0
 23
0.0
 33
0.0
 40
0.0
 40
0.0
 40
0.0
 40
0.0
 40
0.0690569849394293
 40
0.5088177723201305
 40
0.8154944241087765
 40
0.9999999999999999
 40
0.9999999999999999
 40
0.9999999999999999
 40
0.9999999999999999
 10
664.9959569649286
 20
1124.918395014944
 30
0.0
 10
664.9704705720013
 20
1124.955841166889
 30
0.0
 10
664.7826846487515
 20
1125.231747617646
 30
0.0
 10
664.5064649544614
 20
1125.45495477833
 30
0.0
 10
664.1233209558147
 20
1125.675122225755
 30
0.0
 10
663.8954397496019
 20
1125.594253314415
 30
0.0
 10
663.8098394350594
 20
1125.563876064959
 30
0.0
  0
LINE
  5
93
330
1F
100
AcDbEntity
  8
0
  6
Continuous
 62
     7
370
    15
100
AcDbLine
 10
663.7912576871
 20
1125.5930525386
 30
0.0
 11
662.389177628
 21
1125.064739319
 31
0.0
  0
LINE
  5
94
330
1F
100
AcDbEntity
  8
0
  6
Continuous
 62
     7
370
    15
100
AcDbLine
 10
665.2100419478
 20
1117.5785672986
 30
0.0
 11
666.6121071057
 21
1118.1068805181
 31
0.0
  0
ARC
  5
95
330
1F
100
AcDbEntity
  8
0
  6
Continuous
 62
     7
370
    15
100
AcDbCircle
 10
645.7020110704
 20
1120.1587825283
 30
0.0
 40
6.499999999999982
100
AcDbArc
 50
346.7717712588
 51
14.8077554718
  0
ARC
  5
96
330
1F
100
AcDbEntity
  8
0
  6
Continuous
 62
     7
370
    15
100
AcDbCircle
 10
645.7020110704
 20
1120.1587825283
 30
0.0
 40
6.500000000000012
100
AcDbArc
 50
23.9323549452
 51
54.5220217153
  0
SPLINE
  5
97
330
1F
100
AcDbEntity
  8
0
  6
Continuous
 62
     7
370
    15
100
AcDbSpline
210
0.0
220
0.0
230
1.0
 70
     8
 71
     3
 72
    10
 73
     6
 74
     0
 42
0.00000001
 43
0.00000001
 12
1.0
 22
0.0
 32
0.0
 13
1.0
 23
0.0
 33
0.0
 40
0.0
 40
0.0
 40
0.0
 40
0.0
 40
0.1516517671692296
 40
0.5678346418382894
 40
1.0
 40
1.0
 40
1.0
 40
1.0
 10
651.616532154519
 20
1118.149259420576
 30
0.0
 10
651.6641176760746
 20
1118.16067721254
 30
0.0
 10
651.8422936913868
 20
1118.203429222167
 30
0.0
 10
651.9970511472075
 20
1118.496264785462
 30
0.0
 10
652.037929615514
 20
1118.749177085332
 30
0.0
 10
652.0587539152688
 20
1118.878015609923
 30
0.0
  0
SPLINE
  5
98
330
1F
100
AcDbEntity
  8
0
  6
Continuous
 62
     7
370
    15
100
AcDbSpline
210
0.0
220
0.0
230
1.0
 70
     8
 71
     3
 72
    11
 73
     7
 74
     0
 42
0.00000001
 43
0.00000001
 12
1.0
 22
0.0
 32
0.0
 13
1.0
 23
0.0
 33
0.0
 40
0.0
 40
0.0
 40
0.0
 40
0.0
 40
0.0690572174562828
 40
0.508817230368581
 40
0.8154935441237368
 40
1.0
 40
1.0
 40
1.0
 40
1.0
 10
649.9844526724405
 20
1124.918395014944
 30
0.0
 10
649.9589662878393
 20
1124.955841159137
 30
0.0
 10
649.7711812582286
 20
1125.231746329921
 30
0.0
 10
649.4949606073418
 20
1125.454955400826
 30
0.0
 10
649.1118155351631
 20
1125.675122109577
 30
0.0
 10
648.8839353771768
 20
1125.594253363646
 30
0.0
 10
648.7983351425713
 20
1125.563876064959
 30
0.0
  0
LINE
  5
99
330
1F
100
AcDbEntity
  8
0
  6
Continuous
 62
     7
370
    15
100
AcDbLine
 10
648.7797533946
 20
1125.5930525386
 30
0.0
 11
647.3776733355
 21
1125.064739319
 31
0.0
  0
LINE
  5
9A
330
1F
100
AcDbEntity
  8
0
  6
Continuous
 62
     7
370
    15
100
AcDbLine
 10
650.1985376553
 20
1117.5785672986
 30
0.0
 11
651.6006028132
 21
1118.1068805181
 31
0.0
  0
LINE
  5
9B
330
1F
100
AcDbEntity
  8
0
  6
Continuous
 62
     7
370
    15
100
AcDbLine
 10
659.3824809269
 20
1179.3476876938
 30
0.0
 11
659.3341862635
 21
1179.3476876938
 31
0.0
  0
LINE
  5
9C
330
1F
100
AcDbEntity
  8
0
  6
Continuous
 62
     7
370
    15
100
AcDbLine
 10
615.5299132542
 20
1212.6507100784
 30
0.0
 11
614.8643752412
 21
1212.5221875631
 31
0.0
  0
LINE
  5
9D
330
1F
100
AcDbEntity
  8
0
  6
Continuous
 62
     7
370
    15
100
AcDbLine
 10
614.8415094094
 20
1212.5258383476
 30
0.0
 11
610.9385153131
 21
1211.0551533424
 31
0.0
  0
LINE
  5
9E
330
1F
100
AcDbEntity
  8
0
  6
Continuous
 62
     7
370
    15
100
AcDbLine
 10
630.8002358155
 20
1212.6507100784
 30
0.0
 11
615.5299132542
 21
1212.6507100784
 31
0.0
  0
SPLINE
  5
9F
330
1F
100
AcDbEntity
  8
0
  6
Continuous
 62
     7
370
    15
100
AcDbSpline
210
0.0
220
0.0
230
1.0
 70
     8
 71
     3
 72
    15
 73
    11
 74
     0
 42
0.00000001
 43
0.00000001
 12
1.0
 22
0.0
 32
0.0
 13
1.0
 23
0.0
 33
0.0
 40
0.0
 40
0.0
 40
0.0
 40
0.0
 40
0.0835870178727285
 40
0.2450837076261435
 40
0.4139452415947572
 40
0.610713631985165
 40
0.731586347724294
 40
0.8437223454553171
 40
0.9607153102451389
 40
1.0
 40
1.0
 40
1.0
 40
1.0
 10
665.6657492594308
 20
1198.862188788595
 30
0.0
 10
665.6631509693165
 20
1199.059570053058
 30
0.0
 10
665.6555325784356
 20
1199.638307437662
 30
0.0
 10
665.5686888405664
 20
1200.58894108482
 30
0.0
 10
665.3571071329417
 20
1201.660273557463
 30
0.0
 10
665.040512774358
 20
1202.506908004107
 30
0.0
 10
664.5248963877319
 20
1203.205569074364
 30
0.0
 10
663.9095846575291
 20
1203.659556002235
 30
0.0
 10
663.3262126422479
 20
1203.846132036933
 30
0.0
 10
662.9770596215911
 20
1203.858971395282
 30
0.0
 10
662.8892903999871
 20
1203.862198921385
 30
0.0
  0
SPLINE
  5
A0
330
1F
100
AcDbEntity
  8
0
  6
Continuous
 62
     7
370
    15
100
AcDbSpline
210
0.0
220
0.0
230
1.0
 70
     8
 71
     3
 72
    15
 73
    11
 74
     0
 42
0.00000001
 43
0.00000001
 12
1.0
 22
0.0
 32
0.0
 13
1.0
 23
0.0
 33
0.0
 40
0.0
 40
0.0
 40
0.0
 40
0.0
 40
0.0099968179619398
 40
0.1241180449075445
 40
0.2328699513151435
 40
0.3497468909933054
 40
0.4954628027597067
 40
0.701836500153073
 40
0.8970660574988012
 40
1.0
 40
1.0
 40
1.0
 40
1.0
 10
663.6559998468941
 20
1126.061358781996
 30
0.0
 10
663.676014823718
 20
1126.06500407965
 30
0.0
 10
663.9245158769219
 20
1126.110263203063
 30
0.0
 10
664.3108209726895
 20
1126.408958355557
 30
0.0
 10
664.7604961467425
 20
1126.864221805283
 30
0.0
 10
665.0870107111372
 20
1127.438295362527
 30
0.0
 10
665.3587397437772
 20
1128.189181137299
 30
0.0
 10
665.558033916518
 20
1129.19325660696
 30
0.0
 10
665.654433771796
 20
1130.244143032482
 30
0.0
 10
665.66284535721
 20
1130.883412635347
 30
0.0
 10
665.6657492594308
 20
1131.10410544509
 30
0.0
  0
LINE
  5
A1
330
1F
100
AcDbEntity
  8
0
  6
Continuous
 62
     7
370
    15
100
AcDbLine
 10
661.5443115906
 20
1125.2541107261
 30
0.0
 11
663.6653726773
 21
1126.0533494079
 31
0.0
  0
SPLINE
  5
A2
330
1F
100
AcDbEntity
  8
0
  6
Continuous
 62
     7
370
    15
100
AcDbSpline
210
0.0
220
0.0
230
1.0
 70
     8
 71
     3
 72
    10
 73
     6
 74
     0
 42
0.00000001
 43
0.00000001
 12
1.0
 22
0.0
 32
0.0
 13
1.0
 23
0.0
 33
0.0
 40
0.0
 40
0.0
 40
0.0
 40
0.0
 40
0.325805860103247
 40
0.9389643012073526
 40
1.0
 40
1.0
 40
1.0
 40
1.0
 10
661.2630819754189
 20
1125.040226908865
 30
0.0
 10
661.2604148934067
 20
1125.037688965878
 30
0.0
 10
661.2527284300726
 20
1125.030374677967
 30
0.0
 10
661.4328941418738
 20
1125.238024019097
 30
0.0
 10
661.5713951008597
 20
1125.259832797856
 30
0.0
 10
661.583933778245
 20
1125.261807175818
 30
0.0
  0
LINE
  5
A3
330
1F
100
AcDbEntity
  8
0
  6
Continuous
 62
     7
370
    15
100
AcDbLine
 10
665.6657492594
 20
1131.1041054451
 30
0.0
 11
665.6657492594
 21
1198.8621887886
 31
0.0
  0
SPLINE
  5
A4
330
1F
100
AcDbEntity
  8
0
  6
Continuous
 62
     7
370
    15
100
AcDbSpline
210
0.0
220
0.0
230
1.0
 70
     8
 71
     3
 72
    13
 73
     9
 74
     0
 42
0.00000001
 43
0.00000001
 12
1.0
 22
0.0
 32
0.0
 13
1.0
 23
0.0
 33
0.0
 40
0.0
 40
0.0
 40
0.0
 40
0.0
 40
0.0196979156605616
 40
0.2528785247495875
 40
0.4549343970034267
 40
0.6586873851761794
 40
0.895919881499791
 40
1.0
 40
1.0
 40
1.0
 40
1.0
 10
664.5023709015435
 20
1115.409971507731
 30
0.0
 10
664.5237466354173
 20
1115.413789262247
 30
0.0
 10
664.7981647078974
 20
1115.462800951944
 30
0.0
 10
665.2145155247728
 20
1115.811134558524
 30
0.0
 10
665.6184617685603
 20
1116.345332644967
 30
0.0
 10
665.8225195963948
 20
1116.940749372412
 30
0.0
 10
665.9011270227929
 20
1117.413620479973
 30
0.0
 10
665.8830286057056
 20
1117.732758397671
 30
0.0
 10
665.8775096611566
 20
1117.830076547804
 30
0.0
  0
LINE
  5
A5
330
1F
100
AcDbEntity
  8
0
  6
Continuous
 62
     7
370
    15
100
AcDbLine
 10
660.6222426371
 20
1113.9356357181
 30
0.0
 11
664.525244184
 21
1115.4063207232
 31
0.0
  0
LINE
  5
A6
330
1F
100
AcDbEntity
  8
0
  6
Continuous
 62
     7
370
    15
100
AcDbLine
 10
663.6634802298
 20
1125.5449068868
 30
0.0
 11
663.5058557467
 21
1125.9932455742
 31
0.0
  0
SPLINE
  5
A7
330
1F
100
AcDbEntity
  8
0
  6
Continuous
 62
     7
370
    15
100
AcDbSpline
210
0.0
220
0.0
230
1.0
 70
     8
 71
     3
 72
    12
 73
     8
 74
     0
 42
0.00000001
 43
0.00000001
 12
1.0
 22
0.0
 32
0.0
 13
1.0
 23
0.0
 33
0.0
 40
0.0
 40
0.0
 40
0.0
 40
0.0
 40
0.1716994638974117
 40
0.54265841351481
 40
0.7463667027939309
 40
0.9593970373428351
 40
1.0
 40
1.0
 40
1.0
 40
1.0
 10
633.2332750634737
 20
1210.918688508215
 30
0.0
 10
633.131384262779
 20
1211.07744764277
 30
0.0
 10
632.8093570473081
 20
1211.579207975232
 30
0.0
 10
632.3283309172839
 20
1212.073522065966
 30
0.0
 10
631.6496987643726
 20
1212.502756147871
 30
0.0
 10
631.1429293814247
 20
1212.642942107509
 30
0.0
 10
630.8475256160925
 20
1212.649638141763
 30
0.0
 10
630.8002358154839
 20
1212.650710078421
 30
0.0
  0
SPLINE
  5
A8
330
1F
100
AcDbEntity
  8
0
  6
Continuous
 62
     7
370
    15
100
AcDbSpline
210
0.0
220
0.0
230
1.0
 70
     8
 71
     3
 72
    11
 73
     7
 74
     0
 42
0.00000001
 43
0.00000001
 12
1.0
 22
0.0
 32
0.0
 13
1.0
 23
0.0
 33
0.0
 40
0.0
 40
0.0
 40
0.0
 40
0.0
 40
0.0694923043518035
 40
0.4501000183623817
 40
0.8101585687612025
 40
0.9999999999999999
 40
0.9999999999999999
 40
0.9999999999999999
 40
0.9999999999999999
 10
613.7064879612511
 20
1199.368634554091
 30
0.0
 10
613.683066638145
 20
1199.307980040218
 30
0.0
 10
613.5313672800869
 20
1198.915122182612
 30
0.0
 10
613.3982163121048
 20
1198.093639882124
 30
0.0
 10
613.293380471592
 20
1197.047667235718
 30
0.0
 10
613.2856173948468
 20
1196.408017564317
 30
0.0
 10
613.2829373554773
 20
1196.187191935721
 30
0.0
  0
LINE
  5
A9
330
1F
100
AcDbEntity
  8
0
  6
Continuous
 62
     7
370
    15
100
AcDbLine
 10
613.2829373555
 20
1196.1871919357
 30
0.0
 11
613.2829373555
 21
1128.4291011416
 31
0.0
  0
SPLINE
  5
AA
330
1F
100
AcDbEntity
  8
0
  6
Continuous
 62
     7
370
    15
100
AcDbSpline
210
0.0
220
0.0
230
1.0
 70
     8
 71
     3
 72
    15
 73
    11
 74
     0
 42
0.00000001
 43
0.00000001
 12
1.0
 22
0.0
 32
0.0
 13
1.0
 23
0.0
 33
0.0
 40
0.0
 40
0.0
 40
0.0
 40
0.0
 40
0.0835872068112519
 40
0.2450832409968619
 40
0.4139440784359212
 40
0.6107137255911719
 40
0.7315855678042846
 40
0.8437222353704968
 40
0.960716285513449
 40
1.0
 40
1.0
 40
1.0
 40
1.0
 10
613.2829373554773
 20
1128.429101141634
 30
0.0
 10
613.2855385767958
 20
1128.231719875469
 30
0.0
 10
613.2931655304365
 20
1127.652984895927
 30
0.0
 10
613.3800035347243
 20
1126.702356022687
 30
0.0
 10
613.5915891958999
 20
1125.631029684619
 30
0.0
 10
613.9081803114359
 20
1124.784389767902
 30
0.0
 10
614.4237927855585
 20
1124.085736102665
 30
0.0
 10
615.0391011461486
 20
1123.631740048606
 30
0.0
 10
615.6224778123469
 20
1123.445159984274
 30
0.0
 10
615.9716295552587
 20
1123.432330796997
 30
0.0
 10
616.059396214921
 20
1123.429105910006
 30
0.0
  0
LINE
  5
AB
330
1F
100
AcDbEntity
  8
0
  6
Continuous
 62
     7
370
    15
100
AcDbLine
 10
603.7390341835
 20
979.9291056716
 30
0.0
 11
603.7390341835
 21
1042.4291021791
 31
0.0
  0
LINE
  5
AC
330
1F
100
AcDbEntity
  8
0
  6
Continuous
 62
     7
370
    15
100
AcDbLine
 10
433.7390323953
 20
1042.4291021791
 30
0.0
 11
433.7390323953
 21
992.9291022145
 31
0.0
  0
LINE
  5
AD
330
1F
100
AcDbEntity
  8
0
  6
Continuous
 62
     7
370
    15
100
AcDbLine
 10
433.7390323953
 20
962.9291010224
 30
0.0
 11
433.7390323953
 21
959.9291023933
 31
0.0
  0
LINE
  5
AE
330
1F
100
AcDbEntity
  8
0
  6
Continuous
 62
     7
370
    15
100
AcDbLine
 10
603.7390341835
 20
959.9291023933
 30
0.0
 11
603.7390341835
 21
962.9291010224
 31
0.0
  0
LINE
  5
AF
330
1F
100
AcDbEntity
  8
0
  6
Continuous
 62
     7
370
    15
100
AcDbLine
 10
487.739033796
 20
914.1159889423
 30
0.0
 11
487.739033796
 21
910.7299235784
 31
0.0
  0
LINE
  5
B0
330
1F
100
AcDbEntity
  8
0
  6
Continuous
 62
     7
370
    15
100
AcDbLine
 10
549.7390327828
 20
910.7365694963
 30
0.0
 11
549.7390327828
 21
914.1159889423
 31
0.0
  0
ARC
  5
B1
330
1F
100
AcDbEntity
  8
0
  6
Continuous
 62
     7
370
    15
100
AcDbCircle
 10
608.7390332894
 20
979.9291022741
 30
0.0
 40
5.0
100
AcDbArc
 50
180.0
 51
270.0
  0
ARC
  5
B2
330
1F
100
AcDbEntity
  8
0
  6
Continuous
 62
     7
370
    15
100
AcDbCircle
 10
459.5238834768
 20
905.4291022741
 30
0.0
 40
2.0
100
AcDbArc
 50
90.0
 51
180.0
  0
LINE
  5
B3
330
1F
100
AcDbEntity
  8
0
  6
Continuous
 62
     7
370
    15
100
AcDbLine
 10
457.523882188
 20
905.4291037046
 30
0.0
 11
457.523882188
 21
894.4290963137
 31
0.0
  0
ARC
  5
B4
330
1F
100
AcDbEntity
  8
0
  6
Continuous
 62
     7
370
    15
100
AcDbCircle
 10
459.5238834768
 20
894.4291022741
 30
0.0
 40
1.999999999999943
100
AcDbArc
 50
180.0
 51
270.0
  0
ARC
  5
B5
330
1F
100
AcDbEntity
  8
0
  6
Continuous
 62
     7
370
    15
100
AcDbCircle
 10
577.954183102
 20
905.4291022741
 30
0.0
 40
2.0
100
AcDbArc
 50
0.0
 51
90.0
  0
LINE
  5
B6
330
1F
100
AcDbEntity
  8
0
  6
Continuous
 62
     7
370
    15
100
AcDbLine
 10
579.9541843907
 20
894.4290963137
 30
0.0
 11
579.9541843907
 21
905.4291037046
 31
0.0
  0
ARC
  5
B7
330
1F
100
AcDbEntity
  8
0
  6
Continuous
 62
     7
370
    15
100
AcDbCircle
 10
577.954183102
 20
894.4291022741
 30
0.0
 40
2.0
100
AcDbArc
 50
270.0
 51
0.0
  0
ARC
  5
B8
330
1F
100
AcDbEntity
  8
0
  6
Continuous
 62
     7
370
    15
100
AcDbCircle
 10
459.7390332894
 20
915.4291022741
 30
0.0
 40
2.0
100
AcDbArc
 50
90.0
 51
180.0
  0
LINE
  5
B9
330
1F
100
AcDbEntity
  8
0
  6
Continuous
 62
     7
370
    15
100
AcDbLine
 10
457.7390326039
 20
915.4291090691
 30
0.0
 11
457.7390326039
 21
906.3314882242
 31
0.0
  0
LINE
  5
BA
330
1F
100
AcDbEntity
  8
0
  6
Continuous
 62
     7
370
    15
100
AcDbLine
 10
457.7390326039
 20
893.5267117941
 30
0.0
 11
457.7390326039
 21
889.429101082
 31
0.0
  0
ARC
  5
BB
330
1F
100
AcDbEntity
  8
0
  6
Continuous
 62
     7
370
    15
100
AcDbCircle
 10
577.7390332894
 20
915.4291022741
 30
0.0
 40
2.0
100
AcDbArc
 50
0.0
 51
90.0
  0
LINE
  5
BC
330
1F
100
AcDbEntity
  8
0
  6
Continuous
 62
     7
370
    15
100
AcDbLine
 10
579.7390339748
 20
889.429101082
 30
0.0
 11
579.7390339748
 21
893.5267117941
 31
0.0
  0
LINE
  5
BD
330
1F
100
AcDbEntity
  8
0
  6
Continuous
 62
     7
370
    15
100
AcDbLine
 10
579.7390339748
 20
906.3314882242
 30
0.0
 11
579.7390339748
 21
915.4291090691
 31
0.0
  0
SPLINE
  5
BE
330
1F
100
AcDbEntity
  8
0
  6
Continuous
 62
     7
370
    15
100
AcDbSpline
210
0.0
220
0.0
230
1.0
 70
     8
 71
     3
 72
    11
 73
     7
 74
     0
 42
0.00000001
 43
0.00000001
 12
1.0
 22
0.0
 32
0.0
 13
1.0
 23
0.0
 33
0.0
 40
0.0
 40
0.0
 40
0.0
 40
0.0
 40
0.2432328602853426
 40
0.6223124467732417
 40
0.9148673776356523
 40
1.0
 40
1.0
 40
1.0
 40
1.0
 10
571.680947937209
 20
907.4571517431166
 30
0.0
 10
571.5401527472877
 20
907.4605859530128
 30
0.0
 10
571.1799275744593
 20
907.4693723956046
 30
0.0
 10
570.7516412313954
 20
907.6786872647187
 30
0.0
 10
570.5507277508115
 20
907.8692492103924
 30
0.0
 10
570.5719782099869
 20
907.8410084624064
 30
0.0
 10
570.5767681674547
 20
907.8346428596404
 30
0.0
  0
SPLINE
  5
BF
330
1F
100
AcDbEntity
  8
0
  6
Continuous
 62
     7
370
    15
100
AcDbSpline
210
0.0
220
0.0
230
1.0
 70
     8
 71
     3
 72
    11
 73
     7
 74
     0
 42
0.00000001
 43
0.00000001
 12
1.0
 22
0.0
 32
0.0
 13
1.0
 23
0.0
 33
0.0
 40
0.0
 40
0.0
 40
0.0
 40
0.0
 40
0.2467301768943
 40
0.5708826161339716
 40
0.9167736488543727
 40
1.0
 40
1.0
 40
1.0
 40
1.0
 10
466.9151266889161
 20
907.8548190318968
 30
0.0
 10
466.9021031462399
 20
907.8378014634295
 30
0.0
 10
466.8719693611961
 20
907.798426328498
 30
0.0
 10
466.4716886664452
 20
907.5458584485064
 30
0.0
 10
466.0179238189278
 20
907.4129964687417
 30
0.0
 10
465.774006662727
 20
907.4411178416606
 30
0.0
 10
465.726699479062
 20
907.446571918669
 30
0.0
  0
SPLINE
  5
C0
330
1F
100
AcDbEntity
  8
0
  6
Continuous
 62
     7
370
    15
100
AcDbSpline
210
0.0
220
0.0
230
1.0
 70
     8
 71
     3
 72
    12
 73
     8
 74
     0
 42
0.00000001
 43
0.00000001
 12
1.0
 22
0.0
 32
0.0
 13
1.0
 23
0.0
 33
0.0
 40
0.0
 40
0.0
 40
0.0
 40
0.0
 40
0.0625995933556989
 40
0.2142218244029361
 40
0.5357047111708637
 40
0.9124771010703431
 40
1.0
 40
1.0
 40
1.0
 40
1.0
 10
561.6394242124147
 20
917.4265948259261
 30
0.0
 10
561.6397872069733
 20
917.4265970938336
 30
0.0
 10
561.6410294092374
 20
917.4266048548311
 30
0.0
 10
561.5222411592026
 20
917.4486804686035
 30
0.0
 10
561.1722941078772
 20
917.604526353924
 30
0.0
 10
560.8570085186858
 20
917.8519020556741
 30
0.0
 10
560.7577446537398
 20
917.993366530669
 30
0.0
 10
560.7390327231473
 20
918.0200335704711
 30
0.0
  0
SPLINE
  5
C1
330
1F
100
AcDbEntity
  8
0
  6
Continuous
 62
     7
370
    15
100
AcDbSpline
210
0.0
220
0.0
230
1.0
 70
     8
 71
     3
 72
    11
 73
     7
 74
     0
 42
0.00000001
 43
0.00000001
 12
1.0
 22
0.0
 32
0.0
 13
1.0
 23
0.0
 33
0.0
 40
0.0
 40
0.0
 40
0.0
 40
0.0
 40
0.1533091367430831
 40
0.6066645853755988
 40
0.8826701989206356
 40
1.0
 40
1.0
 40
1.0
 40
1.0
 10
476.7390338556356
 20
918.0251595699217
 30
0.0
 10
476.7050910493617
 20
917.9797720070823
 30
0.0
 10
476.5707748635683
 20
917.8001674017985
 30
0.0
 10
476.2194688538141
 20
917.5435096104735
 30
0.0
 10
475.8621608541431
 20
917.4296026891208
 30
0.0
 10
475.8467804564598
 20
917.4278827382407
 30
0.0
 10
475.8421925680227
 20
917.4273696863081
 30
0.0
  0
LINE
  5
C2
330
1F
100
AcDbEntity
  8
0
  6
Continuous
 62
     7
370
    15
100
AcDbLine
 10
475.1390328483
 20
919.4291022741
 30
0.0
 11
476.7390338556
 21
919.4291022741
 31
0.0
  0
LINE
  5
C3
330
1F
100
AcDbEntity
  8
0
  6
Continuous
 62
     7
370
    15
100
AcDbLine
 10
476.7390338556
 20
919.4291022741
 30
0.0
 11
476.7390338556
 21
949.4291034662
 31
0.0
  0
LINE
  5
C4
330
1F
100
AcDbEntity
  8
0
  6
Continuous
 62
     7
370
    15
100
AcDbLine
 10
475.1390328483
 20
919.4291022741
 30
0.0
 11
475.1390328483
 21
949.4291034662
 31
0.0
  0
LINE
  5
C5
330
1F
100
AcDbEntity
  8
0
  6
Continuous
 62
     7
370
    15
100
AcDbLine
 10
475.1390328483
 20
949.4291034662
 30
0.0
 11
476.7390338556
 21
949.4291034662
 31
0.0
  0
LINE
  5
C6
330
1F
100
AcDbEntity
  8
0
  6
Continuous
 62
     7
370
    15
100
AcDbLine
 10
560.7390327231
 20
919.4291022741
 30
0.0
 11
562.3390337305
 21
919.4291022741
 31
0.0
  0
LINE
  5
C7
330
1F
100
AcDbEntity
  8
0
  6
Continuous
 62
     7
370
    15
100
AcDbLine
 10
562.3390337305
 20
919.4291022741
 30
0.0
 11
562.3390337305
 21
949.4291034662
 31
0.0
  0
LINE
  5
C8
330
1F
100
AcDbEntity
  8
0
  6
Continuous
 62
     7
370
    15
100
AcDbLine
 10
560.7390327231
 20
949.4291034662
 30
0.0
 11
562.3390337305
 21
949.4291034662
 31
0.0
  0
LINE
  5
C9
330
1F
100
AcDbEntity
  8
0
  6
Continuous
 62
     7
370
    15
100
AcDbLine
 10
560.7390327231
 20
919.4291022741
 30
0.0
 11
560.7390327231
 21
949.4291034662
 31
0.0
  0
SPLINE
  5
CA
330
1F
100
AcDbEntity
  8
0
  6
Continuous
 62
     7
370
    15
100
AcDbSpline
210
0.0
220
0.0
230
1.0
 70
     8
 71
     3
 72
    13
 73
     9
 74
     0
 42
0.00000001
 43
0.00000001
 12
1.0
 22
0.0
 32
0.0
 13
1.0
 23
0.0
 33
0.0
 40
0.0
 40
0.0
 40
0.0
 40
0.0
 40
0.2109633266542084
 40
0.4218783681442357
 40
0.6340849279589731
 40
0.8490902255345963
 40
0.9950609786019244
 40
1.0
 40
1.0
 40
1.0
 40
1.0
 10
501.5023795740194
 20
1252.929100128355
 30
0.0
 10
501.5100647899932
 20
1253.151684364528
 30
0.0
 10
501.5254334629533
 20
1253.596801891922
 30
0.0
 10
501.6450069509032
 20
1254.190031680459
 30
0.0
 10
501.8212736410497
 20
1254.645264159893
 30
0.0
 10
502.0187794342116
 20
1254.88239908937
 30
0.0
 10
502.152673097004
 20
1254.928687785625
 30
0.0
 10
502.2078011986613
 20
1254.929090985424
 30
0.0
 10
502.2096054480857
 20
1254.929104181471
 30
0.0
  0
LINE
  5
CB
330
1F
100
AcDbEntity
  8
0
  6
Continuous
 62
     7
370
    15
100
AcDbLine
 10
502.2096054481
 20
1254.9291041815
 30
0.0
 11
607.7390348391
 21
1254.9291041815
 31
0.0
  0
LINE
  5
CC
330
1F
100
AcDbEntity
  8
0
  6
Continuous
 62
     7
370
    15
100
AcDbLine
 10
429.7390317397
 20
1254.9291041815
 30
0.0
 11
450.9282892422
 21
1254.9291041815
 31
0.0
  0
LINE
  5
CD
330
1F
100
AcDbEntity
  8
0
  6
Continuous
 62
     7
370
    15
100
AcDbLine
 10
519.3174448532
 20
1203.9291051351
 30
0.0
 11
555.9507084863
 21
1203.9291051351
 31
0.0
  0
SPLINE
  5
CE
330
1F
100
AcDbEntity
  8
0
  6
Continuous
 62
     7
370
    15
100
AcDbSpline
210
0.0
220
0.0
230
1.0
 70
     8
 71
     3
 72
    12
 73
     8
 74
     0
 42
0.00000001
 43
0.00000001
 12
1.0
 22
0.0
 32
0.0
 13
1.0
 23
0.0
 33
0.0
 40
0.0
 40
0.0
 40
0.0
 40
0.0
 40
0.1808732622292663
 40
0.3614170475064944
 40
0.5505833832558114
 40
0.7622091569049746
 40
0.9999999999999999
 40
0.9999999999999999
 40
0.9999999999999999
 40
0.9999999999999999
 10
517.0163968896007
 20
1205.929109188261
 30
0.0
 10
517.0373966204825
 20
1205.724990082868
 30
0.0
 10
517.079357829343
 20
1205.317123693432
 30
0.0
 10
517.4011821325169
 20
1204.768524498807
 30
0.0
 10
517.8848335743139
 20
1204.32172361872
 30
0.0
 10
518.5424060152391
 20
1203.99552365192
 30
0.0
 10
519.0492621725685
 20
1203.952087590989
 30
0.0
 10
519.3174448531568
 20
1203.929105135145
 30
0.0
  0
SPLINE
  5
CF
330
1F
100
AcDbEntity
  8
0
  6
Continuous
 62
     7
370
    15
100
AcDbSpline
210
0.0
220
0.0
230
1.0
 70
     8
 71
     3
 72
    12
 73
     8
 74
     0
 42
0.00000001
 43
0.00000001
 12
1.0
 22
0.0
 32
0.0
 13
1.0
 23
0.0
 33
0.0
 40
0.0
 40
0.0
 40
0.0
 40
0.0
 40
0.25210721271271
 40
0.5047047232443936
 40
0.7406676298878004
 40
0.9463318695040578
 40
0.9999999999999999
 40
0.9999999999999999
 40
0.9999999999999999
 40
0.9999999999999999
 10
514.7481311896331
 20
1207.929098340216
 30
0.0
 10
515.0295632235583
 20
1207.902059264155
 30
0.0
 10
515.5929746201066
 20
1207.84792852647
 30
0.0
 10
516.3297247413659
 20
1207.424294053522
 30
0.0
 10
516.8333581807343
 20
1206.819007053317
 30
0.0
 10
517.0053353382004
 20
1206.277213794799
 30
0.0
 10
517.0145002383721
 20
1205.988796388165
 30
0.0
 10
517.0163968896007
 20
1205.929109188261
 30
0.0
  0
LINE
  5
D0
330
1F
100
AcDbEntity
  8
0
  6
Continuous
 62
     7
370
    15
100
AcDbLine
 10
514.7481311896
 20
1207.9290983402
 30
0.0
 11
501.502379574
 21
1207.9290983402
 31
0.0
  0
LINE
  5
D1
330
1F
100
AcDbEntity
  8
0
  6
Continuous
 62
     7
370
    15
100
AcDbLine
 10
501.502379574
 20
1252.9291001284
 30
0.0
 11
501.502379574
 21
1207.9290983402
 31
0.0
  0
LINE
  5
D2
330
1F
100
AcDbEntity
  8
0
  6
Continuous
 62
     7
370
    15
100
AcDbLine
 10
449.4044517951
 20
1207.9290983402
 30
0.0
 11
442.0019944982
 21
1207.9290983402
 31
0.0
  0
SPLINE
  5
D3
330
1F
100
AcDbEntity
  8
0
  6
Continuous
 62
     7
370
    15
100
AcDbSpline
210
0.0
220
0.0
230
1.0
 70
     8
 71
     3
 72
    12
 73
     8
 74
     0
 42
0.00000001
 43
0.00000001
 12
1.0
 22
0.0
 32
0.0
 13
1.0
 23
0.0
 33
0.0
 40
0.0
 40
0.0
 40
0.0
 40
0.0
 40
0.182929106166108
 40
0.3655011312934854
 40
0.5574142782125499
 40
0.7721369041044439
 40
0.9999999999999999
 40
0.9999999999999999
 40
0.9999999999999999
 40
0.9999999999999999
 10
440.8061614112443
 20
1205.929109188261
 30
0.0
 10
440.8170611532768
 20
1206.133764062052
 30
0.0
 10
440.8388393608413
 20
1206.542674319489
 30
0.0
 10
441.0061961342147
 20
1207.093124612089
 30
0.0
 10
441.2595554327219
 20
1207.542426902751
 30
0.0
 10
441.6008105542455
 20
1207.864292136052
 30
0.0
 10
441.865645513644
 20
1207.907072882158
 30
0.0
 10
442.0019944982118
 20
1207.929098340216
 30
0.0
  0
SPLINE
  5
D4
330
1F
100
AcDbEntity
  8
0
  6
Continuous
 62
     7
370
    15
100
AcDbSpline
210
0.0
220
0.0
230
1.0
 70
     8
 71
     3
 72
    11
 73
     7
 74
     0
 42
0.00000001
 43
0.00000001
 12
1.0
 22
0.0
 32
0.0
 13
1.0
 23
0.0
 33
0.0
 40
0.0
 40
0.0
 40
0.0
 40
0.0
 40
0.3031300492916542
 40
0.5634710457679164
 40
0.792471416757326
 40
0.9999999999999999
 40
0.9999999999999999
 40
0.9999999999999999
 40
0.9999999999999999
 10
439.6431108789033
 20
1203.929105135145
 30
0.0
 10
439.8136008137009
 20
1203.966405246959
 30
0.0
 10
440.1305147655764
 20
1204.035740283391
 30
0.0
 10
440.5168718032298
 20
1204.546913494498
 30
0.0
 10
440.761330395472
 20
1205.202287126327
 30
0.0
 10
440.7917159360388
 20
1205.694912173233
 30
0.0
 10
440.8061614112443
 20
1205.929109188261
 30
0.0
  0
LINE
  5
D5
330
1F
100
AcDbEntity
  8
0
  6
Continuous
 62
     7
370
    15
100
AcDbLine
 10
428.2150601821
 20
1203.9291051351
 30
0.0
 11
439.6431108789
 21
1203.9291051351
 31
0.0
  0
SPLINE
  5
D6
330
1F
100
AcDbEntity
  8
0
  6
Continuous
 62
     7
370
    15
100
AcDbSpline
210
0.0
220
0.0
230
1.0
 70
     8
 71
     3
 72
    12
 73
     8
 74
     0
 42
0.00000001
 43
0.00000001
 12
1.0
 22
0.0
 32
0.0
 13
1.0
 23
0.0
 33
0.0
 40
0.0
 40
0.0
 40
0.0
 40
0.0
 40
0.2038983690786379
 40
0.4076754198686034
 40
0.6146947984273274
 40
0.8293533399471787
 40
1.0
 40
1.0
 40
1.0
 40
1.0
 10
609.7266411261148
 20
1205.929109188261
 30
0.0
 10
609.7262921607911
 20
1205.71080074391
 30
0.0
 10
609.7255944377758
 20
1205.274313747402
 30
0.0
 10
609.7194457366287
 20
1204.690483281868
 30
0.0
 10
609.7078139330927
 20
1204.238800665512
 30
0.0
 10
609.6906269309234
 20
1203.972613273213
 30
0.0
 10
609.6751294567783
 20
1203.942459741828
 30
0.0
 10
609.6682658271379
 20
1203.929105135145
 30
0.0
  0
LINE
  5
D7
330
1F
100
AcDbEntity
  8
0
  6
Continuous
 62
     7
370
    15
100
AcDbLine
 10
609.7266411261
 20
1206.9290963137
 30
0.0
 11
609.7266411261
 21
1205.9291091883
 31
0.0
  0
SPLINE
  5
D8
330
1F
100
AcDbEntity
  8
0
  6
Continuous
 62
     7
370
    15
100
AcDbSpline
210
0.0
220
0.0
230
1.0
 70
     8
 71
     3
 72
    12
 73
     8
 74
     0
 42
0.00000001
 43
0.00000001
 12
1.0
 22
0.0
 32
0.0
 13
1.0
 23
0.0
 33
0.0
 40
0.0
 40
0.0
 40
0.0
 40
0.0
 40
0.2230648029069484
 40
0.4461761317397705
 40
0.6673544429891918
 40
0.8817744258243913
 40
1.0
 40
1.0
 40
1.0
 40
1.0
 10
609.7009515242166
 20
1210.92910441989
 30
0.0
 10
609.7124631448594
 20
1210.882533035268
 30
0.0
 10
609.7354887871909
 20
1210.789380552359
 30
0.0
 10
609.7410289698405
 20
1210.064740969312
 30
0.0
 10
609.7346592074144
 20
1209.004520200182
 30
0.0
 10
609.7275622334101
 20
1207.885365383995
 30
0.0
 10
609.7268826550825
 20
1207.179845257396
 30
0.0
 10
609.7266411261148
 20
1206.929096313658
 30
0.0
  0
LINE
  5
D9
330
1F
100
AcDbEntity
  8
0
  6
Continuous
 62
     7
370
    15
100
AcDbLine
 10
598.8305544333
 20
1210.9291044199
 30
0.0
 11
609.7009515242
 21
1210.9291044199
 31
0.0
  0
SPLINE
  5
DA
330
1F
100
AcDbEntity
  8
0
  6
Continuous
 62
     7
370
    15
100
AcDbSpline
210
0.0
220
0.0
230
1.0
 70
     8
 71
     3
 72
    12
 73
     8
 74
     0
 42
0.00000001
 43
0.00000001
 12
1.0
 22
0.0
 32
0.0
 13
1.0
 23
0.0
 33
0.0
 40
0.0
 40
0.0
 40
0.0
 40
0.0
 40
0.2054454996450552
 40
0.4107551978482326
 40
0.6198374078202936
 40
0.8363234739962596
 40
1.0
 40
1.0
 40
1.0
 40
1.0
 10
596.7856904344148
 20
1206.929096313658
 30
0.0
 10
596.8081835824486
 20
1207.366556345584
 30
0.0
 10
596.8531550103298
 20
1208.241187244167
 30
0.0
 10
597.1991699889902
 20
1209.411782321718
 30
0.0
 10
597.7029774253888
 20
1210.31856920121
 30
0.0
 10
598.2787769663948
 20
1210.845016778278
 30
0.0
 10
598.6644887423838
 20
1210.903796985028
 30
0.0
 10
598.8305544333047
 20
1210.92910441989
 30
0.0
  0
LINE
  5
DB
330
1F
100
AcDbEntity
  8
0
  6
Continuous
 62
     7
370
    15
100
AcDbLine
 10
596.7856904344
 20
1205.9291091883
 30
0.0
 11
596.7856904344
 21
1206.9290963137
 31
0.0
  0
SPLINE
  5
DC
330
1F
100
AcDbEntity
  8
0
  6
Continuous
 62
     7
370
    15
100
AcDbSpline
210
0.0
220
0.0
230
1.0
 70
     8
 71
     3
 72
    12
 73
     8
 74
     0
 42
0.00000001
 43
0.00000001
 12
1.0
 22
0.0
 32
0.0
 13
1.0
 23
0.0
 33
0.0
 40
0.0
 40
0.0
 40
0.0
 40
0.0
 40
0.226937668920691
 40
0.4540767404711326
 40
0.6754135350443042
 40
0.887569405725497
 40
1.0
 40
1.0
 40
1.0
 40
1.0
 10
595.6920420603342
 20
1203.929105135145
 30
0.0
 10
595.8211944481098
 20
1203.952547021914
 30
0.0
 10
596.0796138438154
 20
1203.999451599655
 30
0.0
 10
596.4161412248137
 20
1204.368399343243
 30
0.0
 10
596.6593043388459
 20
1204.906558589987
 30
0.0
 10
596.7722005006405
 20
1205.463157645606
 30
0.0
 10
596.7822199033703
 20
1205.809234671381
 30
0.0
 10
596.7856904344147
 20
1205.929109188261
 30
0.0
  0
LINE
  5
DD
330
1F
100
AcDbEntity
  8
0
  6
Continuous
 62
     7
370
    15
100
AcDbLine
 10
572.0513311998
 20
1203.9291051351
 30
0.0
 11
595.6920420603
 21
1203.9291051351
 31
0.0
  0
SPLINE
  5
DE
330
1F
100
AcDbEntity
  8
0
  6
Continuous
 62
     7
370
    15
100
AcDbSpline
210
0.0
220
0.0
230
1.0
 70
     8
 71
     3
 72
    12
 73
     8
 74
     0
 42
0.00000001
 43
0.00000001
 12
1.0
 22
0.0
 32
0.0
 13
1.0
 23
0.0
 33
0.0
 40
0.0
 40
0.0
 40
0.0
 40
0.0
 40
0.205279348997965
 40
0.4104198183925266
 40
0.6193953211435238
 40
0.8359087724833667
 40
1.0
 40
1.0
 40
1.0
 40
1.0
 10
608.9226862268038
 20
1206.929096313658
 30
0.0
 10
608.9235679732429
 20
1207.366335806146
 30
0.0
 10
608.9253308695851
 20
1208.240518981303
 30
0.0
 10
608.935810370428
 20
1209.410597662387
 30
0.0
 10
608.9412189788388
 20
1210.317400659173
 30
0.0
 10
608.9336179513734
 20
1210.84471310929
 30
0.0
 10
608.9147239140676
 20
1210.903681291891
 30
0.0
 10
608.9065780715532
 20
1210.92910441989
 30
0.0
  0
LINE
  5
DF
330
1F
100
AcDbEntity
  8
0
  6
Continuous
 62
     7
370
    15
100
AcDbLine
 10
608.9226862268
 20
1206.9290963137
 30
0.0
 11
608.9226862268
 21
1205.9291091883
 31
0.0
  0
SPLINE
  5
E0
330
1F
100
AcDbEntity
  8
0
  6
Continuous
 62
     7
370
    15
100
AcDbSpline
210
0.0
220
0.0
230
1.0
 70
     8
 71
     3
 72
    12
 73
     8
 74
     0
 42
0.00000001
 43
0.00000001
 12
1.0
 22
0.0
 32
0.0
 13
1.0
 23
0.0
 33
0.0
 40
0.0
 40
0.0
 40
0.0
 40
0.0
 40
0.227177990933749
 40
0.4545611919492278
 40
0.6760163092072575
 40
0.888105751559335
 40
1.0
 40
1.0
 40
1.0
 40
1.0
 10
608.858745344121
 20
1203.929105135145
 30
0.0
 10
608.8684173598531
 20
1203.952576510751
 30
0.0
 10
608.8877701280578
 20
1203.999540463678
 30
0.0
 10
608.9067709541677
 20
1204.368966163854
 30
0.0
 10
608.9179414943749
 20
1204.907724184882
 30
0.0
 10
608.9221874206037
 20
1205.464186404526
 30
0.0
 10
608.9225581782382
 20
1205.809758836279
 30
0.0
 10
608.9226862268038
 20
1205.929109188261
 30
0.0
  0
LINE
  5
E1
330
1F
100
AcDbEntity
  8
0
  6
Continuous
 62
     7
370
    15
100
AcDbLine
 10
608.8587453441
 20
1203.9291051351
 30
0.0
 11
601.0390331821
 21
1203.9291051351
 31
0.0
  0
SPLINE
  5
E2
330
1F
100
AcDbEntity
  8
0
  6
Continuous
 62
     7
370
    15
100
AcDbSpline
210
0.0
220
0.0
230
1.0
 70
     8
 71
     3
 72
    12
 73
     8
 74
     0
 42
0.00000001
 43
0.00000001
 12
1.0
 22
0.0
 32
0.0
 13
1.0
 23
0.0
 33
0.0
 40
0.0
 40
0.0
 40
0.0
 40
0.0
 40
0.1802405448485166
 40
0.3601423143557895
 40
0.5487771644664303
 40
0.7602334207904666
 40
0.9999999999999999
 40
0.9999999999999999
 40
0.9999999999999999
 40
0.9999999999999999
 10
441.263746269185
 20
1205.929109188261
 30
0.0
 10
441.2529933237197
 20
1205.72537490938
 30
0.0
 10
441.23150764374
 20
1205.318289285158
 30
0.0
 10
441.0673525049884
 20
1204.770696745573
 30
0.0
 10
440.8226041699945
 20
1204.324118762707
 30
0.0
 10
440.4916758841079
 20
1203.996206823477
 30
0.0
 10
440.2407456669133
 20
1203.95238876573
 30
0.0
 10
440.1074087099618
 20
1203.929105135145
 30
0.0
  0
SPLINE
  5
E3
330
1F
100
AcDbEntity
  8
0
  6
Continuous
 62
     7
370
    15
100
AcDbSpline
210
0.0
220
0.0
230
1.0
 70
     8
 71
     3
 72
    12
 73
     8
 74
     0
 42
0.00000001
 43
0.00000001
 12
1.0
 22
0.0
 32
0.0
 13
1.0
 23
0.0
 33
0.0
 40
0.0
 40
0.0
 40
0.0
 40
0.0
 40
0.2529514258816621
 40
0.506406064389561
 40
0.7427543428263284
 40
0.9480834216710717
 40
1.0
 40
1.0
 40
1.0
 40
1.0
 10
442.4534400777406
 20
1207.929098340216
 30
0.0
 10
442.3031059117238
 20
1207.901936762855
 30
0.0
 10
442.002138510214
 20
1207.847559573851
 30
0.0
 10
441.6164833523042
 20
1207.422088169991
 30
0.0
 10
441.356353120463
 20
1206.814562271185
 30
0.0
 10
441.269212303881
 20
1206.273410415332
 30
0.0
 10
441.2646641620769
 20
1205.986926539707
 30
0.0
 10
441.263746269185
 20
1205.929109188261
 30
0.0
  0
LINE
  5
E4
330
1F
100
AcDbEntity
  8
0
  6
Continuous
 62
     7
370
    15
100
AcDbLine
 10
498.5566845016
 20
1254.9291041815
 30
0.0
 11
497.6060220824
 21
1254.962616893
 31
0.0
  0
LINE
  5
E5
330
1F
100
AcDbEntity
  8
0
  6
Continuous
 62
     7
370
    15
100
AcDbLine
 10
452.2390326337
 20
1272.929095956
 30
0.0
 11
585.239033945
 21
1272.929095956
 31
0.0
  0
LINE
  5
E6
330
1F
100
AcDbEntity
  8
0
  6
Continuous
 62
     7
370
    15
100
AcDbLine
 10
498.5566845016
 20
1254.9291041815
 30
0.0
 11
502.2096054481
 21
1254.9291041815
 31
0.0
  0
LINE
  5
E7
330
1F
100
AcDbEntity
  8
0
  6
Continuous
 62
     7
370
    15
100
AcDbLine
 10
501.502379574
 20
1207.9290983402
 30
0.0
 11
450.7140477972
 21
1207.9290983402
 31
0.0
  0
LWPOLYLINE
  5
E8
330
1F
100
AcDbEntity
  8
0
  6
Continuous
 62
     7
370
    15
100
AcDbPolyline
 90
       18
 70
   128
 43
0.0
 10
565.2390343921
 20
1233.0291059935
 10
564.4256358819
 20
1232.8535256111
 10
563.7220961825
 20
1232.3505220138
 10
563.2234250979
 20
1231.5880146944
 10
562.9969721512
 20
1230.6690004789
 10
563.0733219759
 20
1229.7175762379
 10
563.4421666936
 20
1228.8622495853
 10
564.053684272
 20
1228.2185343229
 10
564.8252924757
 20
1227.8733787262
 10
565.6527763085
 20
1227.8733787262
 10
566.4243845121
 20
1228.2185343229
 10
567.0359020905
 20
1228.8622495853
 10
567.404743083
 20
1229.7175762379
 10
567.4810929076
 20
1230.6690004789
 10
567.2546436863
 20
1231.5880146944
 10
566.7559726016
 20
1232.3505220138
 10
566.052429177
 20
1232.8535256111
 10
565.2390343921
 20
1233.0291059935
  0
LINE
  5
E9
330
1F
100
AcDbEntity
  8
0
  6
Continuous
 62
     7
370
    15
100
AcDbLine
 10
570.2597236113
 20
1203.9291051351
 30
0.0
 11
560.2183414476
 21
1203.9291051351
 31
0.0
  0
LINE
  5
EA
330
1F
100
AcDbEntity
  8
0
  6
Continuous
 62
     7
370
    15
100
AcDbLine
 10
560.2183414476
 20
1203.9291051351
 30
0.0
 11
557.9934453444
 21
1203.9291051351
 31
0.0
  0
LINE
  5
EB
330
1F
100
AcDbEntity
  8
0
  6
Continuous
 62
     7
370
    15
100
AcDbLine
 10
557.9934453444
 20
1203.9291051351
 30
0.0
 11
555.9507084863
 21
1203.9291051351
 31
0.0
  0
LINE
  5
EC
330
1F
100
AcDbEntity
  8
0
  6
Continuous
 62
     7
370
    15
100
AcDbLine
 10
571.2597256379
 20
1203.9291051351
 30
0.0
 11
570.2597236113
 21
1203.9291051351
 31
0.0
  0
LINE
  5
ED
330
1F
100
AcDbEntity
  8
0
  6
Continuous
 62
     7
370
    15
100
AcDbLine
 10
572.0513311998
 20
1203.9291051351
 30
0.0
 11
571.2597256379
 21
1203.9291051351
 31
0.0
  0
LINE
  5
EE
330
1F
100
AcDbEntity
  8
0
  6
Continuous
 62
     7
370
    15
100
AcDbLine
 10
451.7140423731
 20
1254.9291041815
 30
0.0
 11
454.9213832097
 21
1254.9291041815
 31
0.0
  0
LINE
  5
EF
330
1F
100
AcDbEntity
  8
0
  6
Continuous
 62
     7
370
    15
100
AcDbLine
 10
450.9282892422
 20
1254.9291041815
 30
0.0
 11
451.7140423731
 21
1254.9291041815
 31
0.0
  0
LINE
  5
F0
330
1F
100
AcDbEntity
  8
0
  6
Continuous
 62
     7
370
    15
100
AcDbLine
 10
449.4044517951
 20
1207.9290983402
 30
0.0
 11
450.7140477972
 21
1207.9290983402
 31
0.0
  0
LINE
  5
F1
330
1F
100
AcDbEntity
  8
0
  6
Continuous
 62
     7
370
    15
100
AcDbLine
 10
440.10740871
 20
1203.9291051351
 30
0.0
 11
439.6431108789
 21
1203.9291051351
 31
0.0
  0
LINE
  5
F2
330
1F
100
AcDbEntity
  8
0
  6
Continuous
 62
     7
370
    15
100
AcDbLine
 10
428.2150601821
 20
1203.9291051351
 30
0.0
 11
426.9822796659
 21
1203.9291051351
 31
0.0
  0
LINE
  5
F3
330
1F
100
AcDbEntity
  8
0
  6
Continuous
 62
     7
370
    15
100
AcDbLine
 10
426.7503877954
 20
1238.6906829798
 30
0.0
 11
426.7504772024
 21
1238.6906382763
 31
0.0
  0
LINE
  5
F4
330
1F
100
AcDbEntity
  8
0
  6
Continuous
 62
     7
370
    15
100
AcDbLine
 10
425.739031084
 20
1203.9291051351
 30
0.0
 11
425.739031084
 21
1236.8648436987
 31
0.0
  0
LINE
  5
F5
330
1F
100
AcDbEntity
  8
0
  6
Continuous
 62
     7
370
    15
100
AcDbLine
 10
426.9822796659
 20
1203.9291051351
 30
0.0
 11
425.739031084
 21
1203.9291051351
 31
0.0
  0
LINE
  5
F6
330
1F
100
AcDbEntity
  8
0
  6
Continuous
 62
     7
370
    15
100
AcDbLine
 10
609.6682658271
 20
1203.9291051351
 30
0.0
 11
608.8587453441
 21
1203.9291051351
 31
0.0
  0
SPLINE
  5
F7
330
1F
100
AcDbEntity
  8
0
  6
Continuous
 62
     7
370
    15
100
AcDbSpline
210
0.0
220
0.0
230
1.0
 70
     8
 71
     3
 72
    12
 73
     8
 74
     0
 42
0.00000001
 43
0.00000001
 12
1.0
 22
0.0
 32
0.0
 13
1.0
 23
0.0
 33
0.0
 40
0.0
 40
0.0
 40
0.0
 40
0.0
 40
0.2142438407433857
 40
0.4284754868618181
 40
0.6429440695719042
 40
0.8577934397664005
 40
0.9999999999999999
 40
0.9999999999999999
 40
0.9999999999999999
 40
0.9999999999999999
 10
570.3383123354502
 20
1233.429097863379
 30
0.0
 10
570.3199345541618
 20
1233.65363127872
 30
0.0
 10
570.2831800376373
 20
1234.102685329103
 30
0.0
 10
569.9962322056626
 20
1234.701334833213
 30
0.0
 10
569.5723904085571
 20
1235.153772398507
 30
0.0
 10
569.0997884542029
 20
1235.394610082357
 30
0.0
 10
568.7853397412341
 20
1235.419277495112
 30
0.0
 10
568.6601025836057
 20
1235.429101916495
 30
0.0
  0
LINE
  5
F8
330
1F
100
AcDbEntity
  8
0
  6
Continuous
 62
     7
370
    15
100
AcDbLine
 10
570.3383123355
 20
1233.4290978634
 30
0.0
 11
570.3383123355
 21
1222.9290989363
 31
0.0
  0
LINE
  5
F9
330
1F
100
AcDbEntity
  8
0
  6
Continuous
 62
     7
370
    15
100
AcDbLine
 10
561.7319008188
 20
1235.4291019165
 30
0.0
 11
568.6601025836
 21
1235.4291019165
 31
0.0
  0
SPLINE
  5
FA
330
1F
100
AcDbEntity
  8
0
  6
Continuous
 62
     7
370
    15
100
AcDbSpline
210
0.0
220
0.0
230
1.0
 70
    11
 71
     3
 72
    26
 73
    22
 74
     0
 42
0.00000001
 43
0.00000001
 12
1.0
 22
0.0
 32
0.0
 13
1.0
 23
0.0
 33
0.0
 40
0.0
 40
0.0
 40
0.0
 40
0.0
 40
0.0536815750722516
 40
0.1073636052479893
 40
0.1610510716397179
 40
0.2147429139014684
 40
0.2684284632953078
 40
0.3221067647162873
 40
0.3757890899732768
 40
0.4294790990161403
 40
0.4831697596063915
 40
0.5368517380344001
 40
0.5905295558056112
 40
0.644214371441204
 40
0.697906524144798
 40
0.751595144316019
 40
0.8052738609218565
 40
0.8589539289898441
 40
0.9126417393522095
 40
0.966333797854435
 40
1.0
 40
1.0
 40
1.0
 40
1.0
 10
565.2390343920773
 20
1232.229107352438
 30
0.0
 10
565.4141075429562
 20
1232.209209551012
 30
0.0
 10
565.764255328955
 20
1232.16941377947
 30
0.0
 10
566.2280361628115
 20
1231.859184881507
 30
0.0
 10
566.5796929416518
 20
1231.402320919549
 30
0.0
 10
566.7803467371522
 20
1230.831792309278
 30
0.0
 10
566.808130110199
 20
1230.216933435996
 30
0.0
 10
566.6600434779391
 20
1229.625761503699
 30
0.0
 10
566.3522455068473
 20
1229.125207570864
 30
0.0
 10
565.918421798287
 20
1228.771588367128
 30
0.0
 10
565.4065243800057
 20
1228.604829797171
 30
0.0
 10
564.8737971442864
 20
1228.643743061602
 30
0.0
 10
564.3804112969793
 20
1228.88386988935
 30
0.0
 10
563.9826591282695
 20
1229.298191966004
 30
0.0
 10
563.7263818544905
 20
1229.840024079712
 30
0.0
 10
563.6413738486817
 20
1230.448333369216
 30
0.0
 10
563.7374987441738
 20
1231.054202195652
 30
0.0
 10
564.0035905348461
 20
1231.590404859446
 30
0.0
 10
564.4085439570963
 20
1231.992723627827
 30
0.0
 10
564.8449384513402
 20
1232.200522288417
 30
0.0
 10
565.1294060301796
 20
1232.22115564977
 30
0.0
 10
565.2390343920773
 20
1232.229107352438
 30
0.0
  0
LINE
  5
FB
330
1F
100
AcDbEntity
  8
0
  6
Continuous
 62
     7
370
    15
100
AcDbLine
 10
570.3383123355
 20
1222.9290989363
 30
0.0
 11
565.2390343921
 21
1222.9290989363
 31
0.0
  0
SPLINE
  5
FC
330
1F
100
AcDbEntity
  8
0
  6
Continuous
 62
     7
370
    15
100
AcDbSpline
210
0.0
220
0.0
230
1.0
 70
     8
 71
     3
 72
    12
 73
     8
 74
     0
 42
0.00000001
 43
0.00000001
 12
1.0
 22
0.0
 32
0.0
 13
1.0
 23
0.0
 33
0.0
 40
0.0
 40
0.0
 40
0.0
 40
0.0
 40
0.2104259200340188
 40
0.4207854192729142
 40
0.6329758673104505
 40
0.8486392814489726
 40
1.0
 40
1.0
 40
1.0
 40
1.0
 10
592.8004419283455
 20
1181.429096790495
 30
0.0
 10
592.8124412441668
 20
1181.706510407924
 30
0.0
 10
592.8364360882337
 20
1182.261250077367
 30
0.0
 10
593.0218347587687
 20
1183.003520401277
 30
0.0
 10
593.2915481609833
 20
1183.565071018758
 30
0.0
 10
593.5920517271675
 20
1183.894048458913
 30
0.0
 10
593.7902429409049
 20
1183.897075257136
 30
0.0
 10
593.8719769792147
 20
1183.898323508444
 30
0.0
  0
SPLINE
  5
FD
330
1F
100
AcDbEntity
  8
0
  6
Continuous
 62
     7
370
    15
100
AcDbSpline
210
0.0
220
0.0
230
1.0
 70
     8
 71
     3
 72
    12
 73
     8
 74
     0
 42
0.00000001
 43
0.00000001
 12
1.0
 22
0.0
 32
0.0
 13
1.0
 23
0.0
 33
0.0
 40
0.0
 40
0.0
 40
0.0
 40
0.0
 40
0.2171355546642088
 40
0.4358328141133981
 40
0.6535279454210751
 40
0.8682063068251132
 40
1.0
 40
1.0
 40
1.0
 40
1.0
 10
593.8720812873429
 20
1178.929427000227
 30
0.0
 10
593.7543926270102
 20
1178.957241989405
 30
0.0
 10
593.5181688537949
 20
1179.0130720216
 30
0.0
 10
593.1936470711055
 20
1179.451749562187
 30
0.0
 10
592.9459715876919
 20
1180.098071720048
 30
0.0
 10
592.8177709092598
 20
1180.800447148175
 30
0.0
 10
592.8052172031888
 20
1181.255862436031
 30
0.0
 10
592.8004419283455
 20
1181.429096790495
 30
0.0
  0
LINE
  5
FE
330
1F
100
AcDbEntity
  8
0
  6
Continuous
 62
     7
370
    15
100
AcDbLine
 10
478.0228061454
 20
1207.9290983402
 30
0.0
 11
478.0228061454
 21
1042.4291021791
 31
0.0
  0
LINE
  5
FF
330
1F
100
AcDbEntity
  8
0
  6
Continuous
 62
     7
370
    15
100
AcDbLine
 10
477.1567804591
 20
1042.4291021791
 30
0.0
 11
477.1567804591
 21
1207.9290983402
 31
0.0
  0
LINE
  5
100
330
1F
100
AcDbEntity
  8
0
  6
Continuous
 62
     7
370
    15
100
AcDbLine
 10
477.7067897694
 20
1042.4291021791
 30
0.0
 11
477.8067914621
 21
1042.629102305
 31
0.0
  0
LINE
  5
101
330
1F
100
AcDbEntity
  8
0
  6
Continuous
 62
     7
370
    15
100
AcDbLine
 10
477.8067914621
 20
1042.629102305
 30
0.0
 11
477.8067914621
 21
1046.4291023691
 31
0.0
  0
LINE
  5
102
330
1F
100
AcDbEntity
  8
0
  6
Continuous
 62
     7
370
    15
100
AcDbLine
 10
478.0228061454
 20
1046.4291023691
 30
0.0
 11
477.8067914621
 21
1046.4291023691
 31
0.0
  0
LINE
  5
103
330
1F
100
AcDbEntity
  8
0
  6
Continuous
 62
     7
370
    15
100
AcDbLine
 10
462.2497072296
 20
974.9291029894
 30
0.0
 11
463.9453140871
 21
974.9291029894
 31
0.0
  0
ARC
  5
104
330
1F
100
AcDbEntity
  8
0
  6
Continuous
 62
     7
370
    15
100
AcDbCircle
 10
463.0975105449
 20
991.9291022741
 30
0.0
 40
10.50000000000005
100
AcDbArc
 50
297.2660444507
 51
242.7339555493
  0
ARC
  5
105
330
1F
100
AcDbEntity
  8
0
  6
Continuous
 62
     7
370
    15
100
AcDbCircle
 10
463.0975105449
 20
991.9291022741
 30
0.0
 40
16.99999999999999
100
AcDbArc
 50
301.7568638593
 51
238.2431361407
  0
SPLINE
  5
106
330
1F
100
AcDbEntity
  8
0
  6
Continuous
 62
     7
370
    15
100
AcDbSpline
210
0.0
220
0.0
230
1.0
 70
     8
 71
     3
 72
    11
 73
     7
 74
     0
 42
0.00000001
 43
0.00000001
 12
1.0
 22
0.0
 32
0.0
 13
1.0
 23
0.0
 33
0.0
 40
0.0
 40
0.0
 40
0.0
 40
0.0
 40
0.2447166804051064
 40
0.5563131980195593
 40
0.8818541210740086
 40
1.0
 40
1.0
 40
1.0
 40
1.0
 10
458.2872202472276
 20
982.5957690500643
 30
0.0
 10
459.035834193082
 20
982.2721007438092
 30
0.0
 10
460.7376545087664
 20
981.5363072120718
 30
0.0
 10
463.7246879830548
 20
981.2996046527855
 30
0.0
 10
466.2150671594251
 20
981.7958870494023
 30
0.0
 10
467.5518418268122
 20
982.4275645913048
 30
0.0
 10
467.907801069457
 20
982.5957690500643
 30
0.0
  0
ARC
  5
107
330
1F
100
AcDbEntity
  8
0
  6
Continuous
 62
     7
370
    15
100
AcDbCircle
 10
473.0975105449
 20
975.7736078527
 30
0.0
 40
2.00000000000007
100
AcDbArc
 50
121.7568638593
 51
180.0
  0
ARC
  5
108
330
1F
100
AcDbEntity
  8
0
  6
Continuous
 62
     7
370
    15
100
AcDbCircle
 10
453.0975105449
 20
975.7736078527
 30
0.0
 40
2.00000000000004
100
AcDbArc
 50
0.0
 51
58.2431361407
  0
SPLINE
  5
109
330
1F
100
AcDbEntity
  8
0
  6
Continuous
 62
     7
370
    15
100
AcDbSpline
210
0.0
220
0.0
230
1.0
 70
     8
 71
     3
 72
    11
 73
     7
 74
     0
 42
0.00000001
 43
0.00000001
 12
1.0
 22
0.0
 32
0.0
 13
1.0
 23
0.0
 33
0.0
 40
0.0
 40
0.0
 40
0.0
 40
0.0
 40
0.2447166503817836
 40
0.55631321122828
 40
0.881854104682016
 40
1.0
 40
1.0
 40
1.0
 40
1.0
 10
467.907801069457
 20
982.5957690500643
 30
0.0
 10
467.1591870557783
 20
982.2721007455997
 30
0.0
 10
465.4573663367126
 20
981.5363071101906
 30
0.0
 10
462.4703339315482
 20
981.2996046248448
 30
0.0
 10
459.9799538456025
 20
981.7958871625625
 30
0.0
 10
458.6431794717054
 20
982.4275645927165
 30
0.0
 10
458.2872202472275
 20
982.5957690500643
 30
0.0
  0
ARC
  5
10A
330
1F
100
AcDbEntity
  8
0
  6
Continuous
 62
     7
370
    15
100
AcDbCircle
 10
677.8857771201
 20
1181.1781836904
 30
0.0
 40
65.25057648235695
100
AcDbArc
 50
179.7796755544
 51
188.0798748585
  0
ARC
  5
10B
330
1F
100
AcDbEntity
  8
0
  6
Continuous
 62
     7
370
    15
100
AcDbCircle
 10
677.8857866138
 20
1181.6800237427
 30
0.0
 40
65.25058602930382
100
AcDbArc
 50
171.9201254013
 51
180.2203365769
  0
ARC
  5
10C
330
1F
100
AcDbEntity
  8
0
  6
Continuous
 62
     7
370
    15
100
AcDbCircle
 10
664.1237504406
 20
1182.8355478363
 30
0.0
 40
52.73156840979067
100
AcDbArc
 50
164.6642191788
 51
181.5283684691
  0
ARC
  5
10D
330
1F
100
AcDbEntity
  8
0
  6
Continuous
 62
     7
370
    15
100
AcDbCircle
 10
667.3729580729
 20
1180.4228250795
 30
0.0
 40
55.97106266798789
100
AcDbArc
 50
178.9698564632
 51
194.8963185599
  0
LWPOLYLINE
  5
10E
330
1F
100
AcDbEntity
  8
0
  6
Continuous
 62
     7
370
    15
100
AcDbPolyline
 90
       13
 70
   128
 43
0.0
 10
595.9561278896
 20
1181.4290967905
 10
596.0023140387
 20
1178.7633684599
 10
596.1400454716
 20
1176.1451897346
 10
596.3668709473
 20
1173.6213204586
 10
596.6787373499
 20
1171.2367621385
 10
597.0700865464
 20
1169.0341022932
 10
597.5339224414
 20
1167.052627834
 10
598.0619823412
 20
1165.3276992165
 10
598.6448338108
 20
1163.8901022398
 10
599.2720758395
 20
1162.7654892527
 10
599.9325176553
 20
1161.9739321196
 10
600.6143724398
 20
1161.5295496904
 10
601.1325081663
 20
1161.4291009628
  0
LWPOLYLINE
  5
10F
330
1F
100
AcDbEntity
  8
0
  6
Continuous
 62
     7
370
    15
100
AcDbPolyline
 90
       13
 70
   128
 43
0.0
 10
601.1325081663
 20
1201.4291075193
 10
600.6143724398
 20
1201.3286587917
 10
599.9325176553
 20
1200.8842763626
 10
599.2720758395
 20
1200.0927117788
 10
598.6448338108
 20
1198.9681062424
 10
598.0619823412
 20
1197.530501815
 10
597.5339224414
 20
1195.8055731975
 10
597.0700865464
 20
1193.824106189
 10
596.6787373499
 20
1191.6214314424
 10
596.3668709473
 20
1189.2368880236
 10
596.1400454716
 20
1186.7130038463
 10
596.0023140387
 20
1184.0948400223
 10
595.9561278896
 20
1181.4290967905
  0
LWPOLYLINE
  5
110
330
1F
100
AcDbEntity
  8
0
  6
Continuous
 62
     7
370
    15
100
AcDbPolyline
 90
       11
 70
   128
 43
0.0
 10
595.2490156369
 20
1181.4290967905
 10
595.2948218064
 20
1184.0162661993
 10
595.4313760476
 20
1186.5552452528
 10
595.6561377124
 20
1188.9987227642
 10
595.9649195747
 20
1191.3011905872
 10
596.3519697861
 20
1193.4197780811
 10
596.8100836353
 20
1195.3149822676
 10
597.3307227568
 20
1196.951532098
 10
597.9041790442
 20
1198.2989248955
 10
598.5197907166
 20
1199.3320671045
 10
598.8489201145
 20
1199.7343239509
  0
LWPOLYLINE
  5
111
330
1F
100
AcDbEntity
  8
0
  6
Continuous
 62
     7
370
    15
100
AcDbPolyline
 90
       11
 70
   128
 43
0.0
 10
598.8489201145
 20
1163.1238770806
 10
598.5197907166
 20
1163.5261413776
 10
597.9041790442
 20
1164.5592835867
 10
597.3307227568
 20
1165.9066763842
 10
596.8100836353
 20
1167.543218764
 10
596.3519697861
 20
1169.438430401
 10
595.9649195747
 20
1171.5570029938
 10
595.6561377124
 20
1173.859485718
 10
595.4313760476
 20
1176.3029632294
 10
595.2948218064
 20
1178.8419422829
 10
595.2490156369
 20
1181.4290967905
  0
LINE
  5
112
330
1F
100
AcDbEntity
  8
0
  6
Continuous
 62
     7
370
    15
100
AcDbLine
 10
476.7814127581
 20
811.929100486
 30
0.0
 11
477.8457728998
 21
811.929100486
 31
0.0
  0
LINE
  5
113
330
1F
100
AcDbEntity
  8
0
  6
Continuous
 62
     7
370
    15
100
AcDbLine
 10
470.4583024458
 20
811.929100486
 30
0.0
 11
476.7814127581
 21
811.929100486
 31
0.0
  0
LINE
  5
114
330
1F
100
AcDbEntity
  8
0
  6
Continuous
 62
     7
370
    15
100
AcDbLine
 10
464.3326623218
 20
811.929100486
 30
0.0
 11
470.4583024458
 21
811.929100486
 31
0.0
  0
LINE
  5
115
330
1F
100
AcDbEntity
  8
0
  6
Continuous
 62
     7
370
    15
100
AcDbLine
 10
463.4657723682
 20
811.929100486
 30
0.0
 11
464.3326623218
 21
811.929100486
 31
0.0
  0
LINE
  5
116
330
1F
100
AcDbEntity
  8
0
  6
Continuous
 62
     7
370
    15
100
AcDbLine
 10
470.4583024458
 20
811.929100486
 30
0.0
 11
470.4583024458
 21
806.629100176
 31
0.0
  0
LINE
  5
117
330
1F
100
AcDbEntity
  8
0
  6
Continuous
 62
     7
370
    15
100
AcDbLine
 10
476.7814127581
 20
811.929100486
 30
0.0
 11
476.7814127581
 21
806.629100176
 31
0.0
  0
LINE
  5
118
330
1F
100
AcDbEntity
  8
0
  6
Continuous
 62
     7
370
    15
100
AcDbLine
 10
470.4583024458
 20
806.629100176
 30
0.0
 11
476.7814127581
 21
806.629100176
 31
0.0
  0
LINE
  5
119
330
1F
100
AcDbEntity
  8
0
  6
Continuous
 62
     7
370
    15
100
AcDbLine
 10
464.3326623218
 20
811.929100486
 30
0.0
 11
464.3326623218
 21
806.629100176
 31
0.0
  0
LINE
  5
11A
330
1F
100
AcDbEntity
  8
0
  6
Continuous
 62
     7
370
    15
100
AcDbLine
 10
464.3326623218
 20
806.629100176
 30
0.0
 11
470.4583024458
 21
806.629100176
 31
0.0
  0
LINE
  5
11B
330
1F
100
AcDbEntity
  8
0
  6
Continuous
 62
     7
370
    15
100
AcDbLine
 10
476.9788792209
 20
811.929100486
 30
0.0
 11
476.9788792209
 21
806.629100176
 31
0.0
  0
LINE
  5
11C
330
1F
100
AcDbEntity
  8
0
  6
Continuous
 62
     7
370
    15
100
AcDbLine
 10
476.7814127581
 20
806.629100176
 30
0.0
 11
476.9788792209
 21
806.629100176
 31
0.0
  0
LINE
  5
11D
330
1F
100
AcDbEntity
  8
0
  6
Continuous
 62
     7
370
    15
100
AcDbLine
 10
574.0095821993
 20
811.929100486
 30
0.0
 11
574.0122942106
 21
811.929100486
 31
0.0
  0
LINE
  5
11E
330
1F
100
AcDbEntity
  8
0
  6
Continuous
 62
     7
370
    15
100
AcDbLine
 10
570.244923033
 20
811.929100486
 30
0.0
 11
574.0095821993
 21
811.929100486
 31
0.0
  0
LINE
  5
11F
330
1F
100
AcDbEntity
  8
0
  6
Continuous
 62
     7
370
    15
100
AcDbLine
 10
563.0576347785
 20
811.929100486
 30
0.0
 11
570.244923033
 21
811.929100486
 31
0.0
  0
LINE
  5
120
330
1F
100
AcDbEntity
  8
0
  6
Continuous
 62
     7
370
    15
100
AcDbLine
 10
559.632293679
 20
811.929100486
 30
0.0
 11
563.0576347785
 21
811.929100486
 31
0.0
  0
LINE
  5
121
330
1F
100
AcDbEntity
  8
0
  6
Continuous
 62
     7
370
    15
100
AcDbLine
 10
570.244923033
 20
811.929100486
 30
0.0
 11
570.244923033
 21
806.629100176
 31
0.0
  0
LINE
  5
122
330
1F
100
AcDbEntity
  8
0
  6
Continuous
 62
     7
370
    15
100
AcDbLine
 10
574.0095821993
 20
811.929100486
 30
0.0
 11
574.0095821993
 21
806.629100176
 31
0.0
  0
LINE
  5
123
330
1F
100
AcDbEntity
  8
0
  6
Continuous
 62
     7
370
    15
100
AcDbLine
 10
570.244923033
 20
806.629100176
 30
0.0
 11
574.0095821993
 21
806.629100176
 31
0.0
  0
LINE
  5
124
330
1F
100
AcDbEntity
  8
0
  6
Continuous
 62
     7
370
    15
100
AcDbLine
 10
563.0576347785
 20
811.929100486
 30
0.0
 11
563.0576347785
 21
806.629100176
 31
0.0
  0
LINE
  5
125
330
1F
100
AcDbEntity
  8
0
  6
Continuous
 62
     7
370
    15
100
AcDbLine
 10
563.0576347785
 20
806.629100176
 30
0.0
 11
570.244923033
 21
806.629100176
 31
0.0
  0
LINE
  5
126
330
1F
100
AcDbEntity
  8
0
  6
Continuous
 62
     7
370
    15
100
AcDbLine
 10
559.6350056903
 20
811.929100486
 30
0.0
 11
559.6350056903
 21
806.629100176
 31
0.0
  0
LINE
  5
127
330
1F
100
AcDbEntity
  8
0
  6
Continuous
 62
     7
370
    15
100
AcDbLine
 10
559.6350056903
 20
806.629100176
 30
0.0
 11
563.0576347785
 21
806.629100176
 31
0.0
  0
LINE
  5
128
330
1F
100
AcDbEntity
  8
0
  6
Continuous
 62
     7
370
    15
100
AcDbLine
 10
477.8430608885
 20
811.0839811289
 30
0.0
 11
477.8430608885
 21
806.629100176
 31
0.0
  0
LINE
  5
129
330
1F
100
AcDbEntity
  8
0
  6
Continuous
 62
     7
370
    15
100
AcDbLine
 10
476.9788792209
 20
806.629100176
 30
0.0
 11
477.8430608885
 21
806.629100176
 31
0.0
  0
LINE
  5
12A
330
1F
100
AcDbEntity
  8
0
  6
Continuous
 62
     7
370
    15
100
AcDbLine
 10
463.4684843795
 20
811.929100486
 30
0.0
 11
463.4684843795
 21
806.629100176
 31
0.0
  0
LINE
  5
12B
330
1F
100
AcDbEntity
  8
0
  6
Continuous
 62
     7
370
    15
100
AcDbLine
 10
463.4684843795
 20
806.629100176
 30
0.0
 11
464.3326623218
 21
806.629100176
 31
0.0
  0
LINE
  5
12C
330
1F
100
AcDbEntity
  8
0
  6
Continuous
 62
     7
370
    15
100
AcDbLine
 10
466.6675103681
 20
827.9291031086
 30
0.0
 11
468.9213519768
 21
827.9291031086
 31
0.0
  0
LINE
  5
12D
330
1F
100
AcDbEntity
  8
0
  6
Continuous
 62
     7
370
    15
100
AcDbLine
 10
568.556714602
 20
827.9291031086
 30
0.0
 11
570.8105562107
 21
827.9291031086
 31
0.0
  0
LINE
  5
12E
330
1F
100
AcDbEntity
  8
0
  6
Continuous
 62
     7
370
    15
100
AcDbLine
 10
551.2570327
 20
827.9291031086
 30
0.0
 11
551.2570327
 21
817.9290977442
 31
0.0
  0
LINE
  5
12F
330
1F
100
AcDbEntity
  8
0
  6
Continuous
 62
     7
370
    15
100
AcDbLine
 10
486.2210338788
 20
827.9291031086
 30
0.0
 11
486.2210338788
 21
817.9290977442
 31
0.0
  0
LINE
  5
130
330
1F
100
AcDbEntity
  8
0
  6
Continuous
 62
     7
370
    15
100
AcDbLine
 10
457.7390326039
 20
852.9291090691
 30
0.0
 11
466.6557719783
 21
852.9291090691
 31
0.0
  0
LINE
  5
131
330
1F
100
AcDbEntity
  8
0
  6
Continuous
 62
     7
370
    15
100
AcDbLine
 10
474.6557732896
 20
852.9291090691
 30
0.0
 11
562.8222932891
 21
852.9291090691
 31
0.0
  0
LINE
  5
132
330
1F
100
AcDbEntity
  8
0
  6
Continuous
 62
     7
370
    15
100
AcDbLine
 10
570.8222946004
 20
852.9291090691
 30
0.0
 11
579.7390339748
 21
852.9291090691
 31
0.0
  0
SPLINE
  5
133
330
1F
100
AcDbEntity
  8
0
  6
Continuous
 62
     7
370
    15
100
AcDbSpline
210
0.0
220
0.0
230
1.0
 70
     8
 71
     3
 72
    10
 73
     6
 74
     0
 42
0.00000001
 43
0.00000001
 12
1.0
 22
0.0
 32
0.0
 13
1.0
 23
0.0
 33
0.0
 40
0.0
 40
0.0
 40
0.0
 40
0.0
 40
0.4643027904215974
 40
0.9277613024743488
 40
1.0
 40
1.0
 40
1.0
 40
1.0
 10
551.2570327000207
 20
817.9290977441694
 30
0.0
 10
551.211190359717
 20
817.4213003171587
 30
0.0
 10
551.119589037851
 20
816.406628831233
 30
0.0
 10
550.6191860275834
 20
815.4362794345192
 30
0.0
 10
550.2897469076063
 20
814.989371976926
 30
0.0
 10
550.2453220860548
 20
814.929106565657
 30
0.0
  0
SPLINE
  5
134
330
1F
100
AcDbEntity
  8
0
  6
Continuous
 62
     7
370
    15
100
AcDbSpline
210
0.0
220
0.0
230
1.0
 70
     8
 71
     3
 72
    12
 73
     8
 74
     0
 42
0.00000001
 43
0.00000001
 12
1.0
 22
0.0
 32
0.0
 13
1.0
 23
0.0
 33
0.0
 40
0.0
 40
0.0
 40
0.0
 40
0.0
 40
0.0033602817940632
 40
0.2260387729836999
 40
0.5243422968517046
 40
0.7836115747513811
 40
0.9999999999999999
 40
0.9999999999999999
 40
0.9999999999999999
 40
0.9999999999999999
 10
548.1509303526468
 20
812.929102512541
 30
0.0
 10
548.1529643500494
 20
812.9291097725821
 30
0.0
 10
548.2897868861698
 20
812.9295981395973
 30
0.0
 10
548.607523762359
 20
813.0149363905025
 30
0.0
 10
549.1056712048314
 20
813.4329988708153
 30
0.0
 10
549.6520041436232
 20
814.1284036746222
 30
0.0
 10
550.0598039103633
 20
814.6787434315052
 30
0.0
 10
550.2453220860548
 20
814.929106565657
 30
0.0
  0
LINE
  5
135
330
1F
100
AcDbEntity
  8
0
  6
Continuous
 62
     7
370
    15
100
AcDbLine
 10
548.1509303526
 20
812.9291025125
 30
0.0
 11
489.3271362261
 21
812.9291025125
 31
0.0
  0
SPLINE
  5
136
330
1F
100
AcDbEntity
  8
0
  6
Continuous
 62
     7
370
    15
100
AcDbSpline
210
0.0
220
0.0
230
1.0
 70
     8
 71
     3
 72
    12
 73
     8
 74
     0
 42
0.00000001
 43
0.00000001
 12
1.0
 22
0.0
 32
0.0
 13
1.0
 23
0.0
 33
0.0
 40
0.0
 40
0.0
 40
0.0
 40
0.0
 40
0.2163884252486189
 40
0.4756577031482953
 40
0.7739612270163
 40
0.9966397182059367
 40
0.9999999999999999
 40
0.9999999999999999
 40
0.9999999999999999
 40
0.9999999999999999
 10
487.2327444927282
 20
814.929106565657
 30
0.0
 10
487.4182626684196
 20
814.6787434315052
 30
0.0
 10
487.8260624351597
 20
814.1284036746222
 30
0.0
 10
488.3723953739515
 20
813.4329988708148
 30
0.0
 10
488.870542816424
 20
813.0149363905044
 30
0.0
 10
489.1882796926126
 20
812.9295981395935
 30
0.0
 10
489.3251022287335
 20
812.9291097725821
 30
0.0
 10
489.3271362261361
 20
812.929102512541
 30
0.0
  0
SPLINE
  5
137
330
1F
100
AcDbEntity
  8
0
  6
Continuous
 62
     7
370
    15
100
AcDbSpline
210
0.0
220
0.0
230
1.0
 70
     8
 71
     3
 72
     9
 73
     5
 74
     0
 42
0.00000001
 43
0.00000001
 12
1.0
 22
0.0
 32
0.0
 13
1.0
 23
0.0
 33
0.0
 40
0.0
 40
0.0
 40
0.0
 40
0.0
 40
0.4706075346408108
 40
0.9999999999999999
 40
0.9999999999999999
 40
0.9999999999999999
 40
0.9999999999999999
 10
487.2327444927282
 20
814.9291065656568
 30
0.0
 10
486.9600541815349
 20
815.3484233954454
 30
0.0
 10
486.380611033857
 20
816.2394351173648
 30
0.0
 10
486.2762708081077
 20
817.3442284683689
 30
0.0
 10
486.2210338787622
 20
817.9290977441694
 30
0.0
  0
LINE
  5
138
330
1F
100
AcDbEntity
  8
0
  6
Continuous
 62
     7
370
    15
100
AcDbLine
 10
468.9213519768
 20
827.9291031086
 30
0.0
 11
486.2210338788
 21
827.9291031086
 31
0.0
  0
LINE
  5
139
330
1F
100
AcDbEntity
  8
0
  6
Continuous
 62
     7
370
    15
100
AcDbLine
 10
489.3271362261
 20
812.9291025125
 30
0.0
 11
467.9692981617
 21
812.9291025125
 31
0.0
  0
LINE
  5
13A
330
1F
100
AcDbEntity
  8
0
  6
Continuous
 62
     7
370
    15
100
AcDbLine
 10
551.2570327
 20
827.9291031086
 30
0.0
 11
568.556714602
 21
827.9291031086
 31
0.0
  0
LINE
  5
13B
330
1F
100
AcDbEntity
  8
0
  6
Continuous
 62
     7
370
    15
100
AcDbLine
 10
569.5087684171
 20
812.9291025125
 30
0.0
 11
548.1509303526
 21
812.9291025125
 31
0.0
  0
LINE
  5
13C
330
1F
100
AcDbEntity
  8
0
  6
Continuous
 62
     7
370
    15
100
AcDbLine
 10
458.0055473225
 20
827.9291031086
 30
0.0
 11
466.6675103681
 21
827.9291031086
 31
0.0
  0
LINE
  5
13D
330
1F
100
AcDbEntity
  8
0
  6
Continuous
 62
     7
370
    15
100
AcDbLine
 10
467.9692981617
 20
812.9291025125
 30
0.0
 11
459.5238825159
 21
812.9291025125
 31
0.0
  0
LINE
  5
13E
330
1F
100
AcDbEntity
  8
0
  6
Continuous
 62
     7
370
    15
100
AcDbLine
 10
570.8105562107
 20
827.9291031086
 30
0.0
 11
579.4725192563
 21
827.9291031086
 31
0.0
  0
LINE
  5
13F
330
1F
100
AcDbEntity
  8
0
  6
Continuous
 62
     7
370
    15
100
AcDbLine
 10
577.9541840629
 20
812.9291025125
 30
0.0
 11
569.5087684171
 21
812.9291025125
 31
0.0
  0
LINE
  5
140
330
1F
100
AcDbEntity
  8
0
  6
Continuous
 62
     7
370
    15
100
AcDbLine
 10
457.523882188
 20
827.9291031086
 30
0.0
 11
458.0055473225
 21
827.9291031086
 31
0.0
  0
LINE
  5
141
330
1F
100
AcDbEntity
  8
0
  6
Continuous
 62
     7
370
    15
100
AcDbLine
 10
579.4725192563
 20
827.9291031086
 30
0.0
 11
579.9541843907
 21
827.9291031086
 31
0.0
  0
LINE
  5
142
330
1F
100
AcDbEntity
  8
0
  6
Continuous
 62
     7
370
    15
100
AcDbLine
 10
522.7348988728
 20
787.9290965521
 30
0.0
 11
514.743167706
 21
787.9290965521
 31
0.0
  0
LINE
  5
143
330
1F
100
AcDbEntity
  8
0
  6
Continuous
 62
     7
370
    15
100
AcDbLine
 10
514.743167706
 20
787.9290965521
 30
0.0
 11
509.626510352
 21
787.9290965521
 31
0.0
  0
LINE
  5
144
330
1F
100
AcDbEntity
  8
0
  6
Continuous
 62
     7
370
    15
100
AcDbLine
 10
527.8515562267
 20
787.9290965521
 30
0.0
 11
522.7348988728
 21
787.9290965521
 31
0.0
  0
LINE
  5
145
330
1F
100
AcDbEntity
  8
0
  6
Continuous
 62
     7
370
    15
100
AcDbLine
 10
509.626510352
 20
787.9290965521
 30
0.0
 11
484.7390314416
 21
787.9290965521
 31
0.0
  0
LINE
  5
146
330
1F
100
AcDbEntity
  8
0
  6
Continuous
 62
     7
370
    15
100
AcDbLine
 10
552.7390351371
 20
787.9290965521
 30
0.0
 11
527.8515562267
 21
787.9290965521
 31
0.0
  0
LINE
  5
147
330
1F
100
AcDbEntity
  8
0
  6
Continuous
 62
     7
370
    15
100
AcDbLine
 10
484.7390314416
 20
787.9290965521
 30
0.0
 11
482.8086493389
 21
787.9290965521
 31
0.0
  0
LINE
  5
148
330
1F
100
AcDbEntity
  8
0
  6
Continuous
 62
     7
370
    15
100
AcDbLine
 10
554.6694172399
 20
787.9290965521
 30
0.0
 11
552.7390351371
 21
787.9290965521
 31
0.0
  0
LINE
  5
149
330
1F
100
AcDbEntity
  8
0
  6
Continuous
 62
     7
370
    15
100
AcDbLine
 10
482.8086493389
 20
787.9290965521
 30
0.0
 11
480.9640420453
 21
787.9290965521
 31
0.0
  0
LINE
  5
14A
330
1F
100
AcDbEntity
  8
0
  6
Continuous
 62
     7
370
    15
100
AcDbLine
 10
556.5140245335
 20
787.9290965521
 30
0.0
 11
554.6694172399
 21
787.9290965521
 31
0.0
  0
LINE
  5
14B
330
1F
100
AcDbEntity
  8
0
  6
Continuous
 62
     7
370
    15
100
AcDbLine
 10
579.7390339748
 20
889.429101082
 30
0.0
 11
570.8222946004
 21
889.429101082
 31
0.0
  0
LINE
  5
14C
330
1F
100
AcDbEntity
  8
0
  6
Continuous
 62
     7
370
    15
100
AcDbLine
 10
562.8222932891
 20
889.429101082
 30
0.0
 11
474.6557732896
 21
889.429101082
 31
0.0
  0
LINE
  5
14D
330
1F
100
AcDbEntity
  8
0
  6
Continuous
 62
     7
370
    15
100
AcDbLine
 10
466.6557719783
 20
889.429101082
 30
0.0
 11
457.7390326039
 21
889.429101082
 31
0.0
  0
ARC
  5
14E
330
1F
100
AcDbEntity
  8
0
  6
Continuous
 62
     7
370
    15
100
AcDbCircle
 10
636.8571382908
 20
1207.3016815822
 30
0.0
 40
0.0829505980327644
100
AcDbArc
 50
21.4780543982
 51
78.7747416384
  0
ARC
  5
14F
330
1F
100
AcDbEntity
  8
0
  6
Continuous
 62
     7
370
    15
100
AcDbCircle
 10
630.623508267
 20
1205.6221126728
 30
0.0
 40
6.527565117115896
100
AcDbArc
 50
14.8632220677
 51
23.8778108181
  0
LWPOLYLINE
  5
150
330
1F
100
AcDbEntity
  8
0
  6
Continuous
 62
     7
370
    15
100
AcDbPolyline
 90
        9
 70
   128
 43
0.0
 10
636.5923842268
 20
1208.2643893682
 10
636.5954240636
 20
1208.2788881981
 10
636.5954687671
 20
1208.2923439466
 10
636.5925183372
 20
1208.3047566139
 10
636.5865802245
 20
1208.3161112987
 10
636.5776618795
 20
1208.3264229023
 10
636.5657484011
 20
1208.3356616222
 10
636.5508695917
 20
1208.3438274586
 10
636.53301055
 20
1208.3509353125
  0
ARC
  5
151
330
1F
100
AcDbEntity
  8
0
  6
Continuous
 62
     7
370
    15
100
AcDbCircle
 10
634.7804454531
 20
1207.482967787
 30
0.0
 40
1.9557228954998
100
AcDbArc
 50
26.347167444
 51
37.830120048
  0
ARC
  5
152
330
1F
100
AcDbEntity
  8
0
  6
Continuous
 62
     7
370
    15
100
AcDbCircle
 10
630.5177677856
 20
1205.7396391179
 30
0.0
 40
6.510432992103328
100
AcDbArc
 50
26.8730760169
 51
36.8635809
  0
ARC
  5
153
330
1F
100
AcDbEntity
  8
0
  6
Continuous
 62
     7
370
    15
100
AcDbCircle
 10
635.5932539181
 20
1209.0641925719
 30
0.0
 40
0.5962222631312435
100
AcDbArc
 50
77.0818400087
 51
102.9181599913
  0
ARC
  5
154
330
1F
100
AcDbEntity
  8
0
  6
Continuous
 62
     7
370
    15
100
AcDbCircle
 10
630.2511860118
 20
1205.7396391179
 30
0.0
 40
6.510432992103328
100
AcDbArc
 50
26.8730760169
 51
36.8635809
  0
ARC
  5
155
330
1F
100
AcDbEntity
  8
0
  6
Continuous
 62
     7
370
    15
100
AcDbCircle
 10
637.2513716145
 20
1208.6065576834
 30
0.0
 40
1.195226310721971
100
AcDbArc
 50
176.3591823731
 51
192.3492077636
  0
ARC
  5
156
330
1F
100
AcDbEntity
  8
0
  6
Continuous
 62
     7
370
    15
100
AcDbCircle
 10
636.9818112487
 20
1201.3712836736
 30
0.0
 40
7.037184162918708
100
AcDbArc
 50
97.3314725296
 51
101.6139909917
  0
ARC
  5
157
330
1F
100
AcDbEntity
  8
0
  6
Continuous
 62
     7
370
    15
100
AcDbCircle
 10
627.8296265986
 20
1205.0010773128
 30
0.0
 40
8.395644188092243
100
AcDbArc
 50
15.8671683864
 51
22.8730794261
  0
ARC
  5
158
330
1F
100
AcDbEntity
  8
0
  6
Continuous
 62
     7
370
    15
100
AcDbCircle
 10
637.3227714823
 20
1200.398101903
 30
0.0
 40
7.042520029369284
100
AcDbArc
 50
97.3315041938
 51
101.6107564703
  0
ARC
  5
159
330
1F
100
AcDbEntity
  8
0
  6
Continuous
 62
     7
370
    15
100
AcDbCircle
 10
638.1779418864
 20
1208.251774733
 30
0.0
 40
1.957227058825663
100
AcDbArc
 50
206.3502499164
 51
217.8247194836
  0
ARC
  5
15A
330
1F
100
AcDbEntity
  8
0
  6
Continuous
 62
     7
370
    15
100
AcDbCircle
 10
630.0800739695
 20
1205.6716967278
 30
0.0
 40
6.695589637546588
100
AcDbArc
 50
2.0874207552
 51
11.8926018324
  0
ARC
  5
15B
330
1F
100
AcDbEntity
  8
0
  6
Continuous
 62
     7
370
    15
100
AcDbCircle
 10
636.904515125
 20
1209.6352920441
 30
0.0
 40
3.722100626748451
100
AcDbArc
 50
267.9477040408
 51
272.0522959592
  0
ARC
  5
15C
330
1F
100
AcDbEntity
  8
0
  6
Continuous
 62
     7
370
    15
100
AcDbCircle
 10
630.3454264418
 20
1205.6715021107
 30
0.0
 40
6.696832659378678
100
AcDbArc
 50
2.0886993131
 51
11.8920637499
  0
ARC
  5
15D
330
1F
100
AcDbEntity
  8
0
  6
Continuous
 62
     7
370
    15
100
AcDbCircle
 10
635.706192686
 20
1207.1274559103
 30
0.0
 40
1.19475218014821
100
AcDbArc
 50
356.3554341107
 51
12.3525661253
  0
LWPOLYLINE
  5
15E
330
1F
100
AcDbEntity
  8
0
  6
Continuous
 62
     7
370
    15
100
AcDbPolyline
 90
        3
 70
   128
 43
0.0
 10
636.8308773117
 20
1203.897201749
 10
636.9204481916
 20
1204.0173498117
 10
636.9777357058
 20
1204.1834083521
  0
LINE
  5
15F
330
1F
100
AcDbEntity
  8
0
  6
Continuous
 62
     7
370
    15
100
AcDbLine
 10
634.422737904
 20
1210.9640178406
 30
0.0
 11
634.1284772234
 21
1211.0821840488
 31
0.0
  0
LWPOLYLINE
  5
160
330
1F
100
AcDbEntity
  8
0
  6
Continuous
 62
     7
370
    15
100
AcDbPolyline
 90
       10
 70
   128
 43
0.0
 10
632.325861402
 20
1210.5767664635
 10
632.1683859305
 20
1210.4254600727
 10
632.0612540321
 20
1209.9393245899
 10
632.1029623823
 20
1209.177234503
 10
632.2897931413
 20
1208.2069155895
 10
632.6051538663
 20
1207.114571067
 10
633.0210229234
 20
1205.9972670996
 10
633.5004454331
 20
1204.9542901241
 10
634.000826426
 20
1204.0783104622
 10
634.1469621138
 20
1203.8621989214
  0
SPLINE
  5
161
330
1F
100
AcDbEntity
  8
0
  6
Continuous
 62
     7
370
    15
100
AcDbSpline
210
0.0
220
0.0
230
1.0
 70
     8
 71
     3
 72
     9
 73
     5
 74
     0
 42
0.00000001
 43
0.00000001
 12
1.0
 22
0.0
 32
0.0
 13
1.0
 23
0.0
 33
0.0
 40
0.0
 40
0.0
 40
0.0
 40
0.0
 40
0.5300808579803521
 40
1.0
 40
1.0
 40
1.0
 40
1.0
 10
635.6002872662134
 20
1208.164313169661
 30
0.0
 10
635.6856582637073
 20
1208.19728241978
 30
0.0
 10
635.8467110468982
 20
1208.259479063223
 30
0.0
 10
636.0080050194409
 20
1208.321697621112
 30
0.0
 10
636.0838001446314
 20
1208.350935312453
 30
0.0
  0
LINE
  5
162
330
1F
100
AcDbEntity
  8
0
  6
Continuous
 62
     7
370
    15
100
AcDbLine
 10
637.0378097372
 20
1205.9155789339
 30
0.0
 11
636.769991167
 21
1205.9471693956
 31
0.0
  0
LINE
  5
163
330
1F
100
AcDbEntity
  8
0
  6
Continuous
 62
     7
370
    15
100
AcDbLine
 10
635.726544805
 20
1209.6453246796
 30
0.0
 11
635.5778088646
 21
1209.4830510342
 31
0.0
  0
LINE
  5
164
330
1F
100
AcDbEntity
  8
0
  6
Continuous
 62
     7
370
    15
100
AcDbLine
 10
636.8985285835
 20
1207.0515093529
 30
0.0
 11
636.712256618
 21
1206.9986251318
 31
0.0
  0
SPLINE
  5
165
330
1F
100
AcDbEntity
  8
0
  6
Continuous
 62
     7
370
    15
100
AcDbSpline
210
0.0
220
0.0
230
1.0
 70
     8
 71
     3
 72
     9
 73
     5
 74
     0
 42
0.00000001
 43
0.00000001
 12
1.0
 22
0.0
 32
0.0
 13
1.0
 23
0.0
 33
0.0
 40
0.0
 40
0.0
 40
0.0
 40
0.0
 40
0.3523862356259919
 40
1.0
 40
1.0
 40
1.0
 40
1.0
 10
636.5054657535143
 20
1207.247638436499
 30
0.0
 10
636.5486908934288
 20
1207.263536443422
 30
0.0
 10
636.6713549919226
 20
1207.308651732602
 30
0.0
 10
636.7939146772486
 20
1207.35380403545
 30
0.0
 10
636.8732860164231
 20
1207.383045288267
 30
0.0
  0
SPLINE
  5
166
330
1F
100
AcDbEntity
  8
0
  6
Continuous
 62
     7
370
    15
100
AcDbSpline
210
0.0
220
0.0
230
1.0
 70
     8
 71
     3
 72
     9
 73
     5
 74
     0
 42
0.00000001
 43
0.00000001
 12
1.0
 22
0.0
 32
0.0
 13
1.0
 23
0.0
 33
0.0
 40
0.0
 40
0.0
 40
0.0
 40
0.0
 40
0.2695298487086941
 40
1.0
 40
1.0
 40
1.0
 40
1.0
 10
636.533010549981
 20
1208.350935312453
 30
0.0
 10
636.4536303686983
 20
1208.321697992673
 30
0.0
 10
636.1591168605918
 20
1208.213222735037
 30
0.0
 10
635.8643656951871
 20
1208.10479874703
 30
0.0
 10
635.6490587668009
 20
1208.025598260107
 30
0.0
  0
SPLINE
  5
167
330
1F
100
AcDbEntity
  8
0
  6
Continuous
 62
     7
370
    15
100
AcDbSpline
210
0.0
220
0.0
230
1.0
 70
     8
 71
     3
 72
     9
 73
     5
 74
     0
 42
0.00000001
 43
0.00000001
 12
1.0
 22
0.0
 32
0.0
 13
1.0
 23
0.0
 33
0.0
 40
0.0
 40
0.0
 40
0.0
 40
0.0
 40
0.133868323772693
 40
1.0
 40
1.0
 40
1.0
 40
1.0
 10
636.0644435362404
 20
1208.558419080916
 30
0.0
 10
636.0760629887125
 20
1208.563984361397
 30
0.0
 10
636.1628606130087
 20
1208.605557157143
 30
0.0
 10
636.2498205742941
 20
1208.646764961785
 30
0.0
 10
636.3251393513268
 20
1208.682456346693
 30
0.0
  0
LINE
  5
168
330
1F
100
AcDbEntity
  8
0
  6
Continuous
 62
     7
370
    15
100
AcDbLine
 10
636.5923842268
 20
1208.2643893682
 30
0.0
 11
635.6847321467
 21
1207.964950534
 31
0.0
  0
ARC
  5
169
330
1F
100
AcDbEntity
  8
0
  6
Continuous
 62
     7
370
    15
100
AcDbCircle
 10
615.068569677
 20
1205.6716967278
 30
0.0
 40
6.695589637536248
100
AcDbArc
 50
2.0874207552
 51
11.8926018324
  0
ARC
  5
16A
330
1F
100
AcDbEntity
  8
0
  6
Continuous
 62
     7
370
    15
100
AcDbCircle
 10
621.8930108325
 20
1209.6352920441
 30
0.0
 40
3.72210062674822
100
AcDbArc
 50
267.9477040408
 51
272.0522959592
  0
ARC
  5
16B
330
1F
100
AcDbEntity
  8
0
  6
Continuous
 62
     7
370
    15
100
AcDbCircle
 10
615.3339221493
 20
1205.6715021107
 30
0.0
 40
6.696832659368233
100
AcDbArc
 50
2.0886993131
 51
11.89206375
  0
ARC
  5
16C
330
1F
100
AcDbEntity
  8
0
  6
Continuous
 62
     7
370
    15
100
AcDbCircle
 10
620.6946883935
 20
1207.1274559103
 30
0.0
 40
1.19475218014821
100
AcDbArc
 50
356.3554341107
 51
12.3525661253
  0
ARC
  5
16D
330
1F
100
AcDbEntity
  8
0
  6
Continuous
 62
     7
370
    15
100
AcDbCircle
 10
621.8456339983
 20
1207.3016815822
 30
0.0
 40
0.0829505980327866
100
AcDbArc
 50
21.4780543982
 51
78.7747416383
  0
ARC
  5
16E
330
1F
100
AcDbEntity
  8
0
  6
Continuous
 62
     7
370
    15
100
AcDbCircle
 10
615.6120039745
 20
1205.6221126728
 30
0.0
 40
6.527565117115896
100
AcDbArc
 50
14.8632220677
 51
23.8778108181
  0
LWPOLYLINE
  5
16F
330
1F
100
AcDbEntity
  8
0
  6
Continuous
 62
     7
370
    15
100
AcDbPolyline
 90
        9
 70
   128
 43
0.0
 10
621.5808799343
 20
1208.2643893682
 10
621.5839197712
 20
1208.2788881981
 10
621.5839644746
 20
1208.2923439466
 10
621.5810140447
 20
1208.3047566139
 10
621.575075932
 20
1208.3161112987
 10
621.566157587
 20
1208.3264229023
 10
621.5542441086
 20
1208.3356616222
 10
621.5393652992
 20
1208.3438274586
 10
621.5215062575
 20
1208.3509353125
  0
ARC
  5
170
330
1F
100
AcDbEntity
  8
0
  6
Continuous
 62
     7
370
    15
100
AcDbCircle
 10
619.7689411606
 20
1207.482967787
 30
0.0
 40
1.955722895523279
100
AcDbArc
 50
26.3471674441
 51
37.830120048
  0
ARC
  5
171
330
1F
100
AcDbEntity
  8
0
  6
Continuous
 62
     7
370
    15
100
AcDbCircle
 10
615.5062634931
 20
1205.7396391179
 30
0.0
 40
6.510432992119496
100
AcDbArc
 50
26.8730760169
 51
36.8635809
  0
ARC
  5
172
330
1F
100
AcDbEntity
  8
0
  6
Continuous
 62
     7
370
    15
100
AcDbCircle
 10
620.5817496256
 20
1209.0641925719
 30
0.0
 40
0.5962222631312435
100
AcDbArc
 50
77.0818400087
 51
102.9181599913
  0
ARC
  5
173
330
1F
100
AcDbEntity
  8
0
  6
Continuous
 62
     7
370
    15
100
AcDbCircle
 10
615.2396817193
 20
1205.7396391179
 30
0.0
 40
6.510432992119496
100
AcDbArc
 50
26.8730760169
 51
36.8635809
  0
ARC
  5
174
330
1F
100
AcDbEntity
  8
0
  6
Continuous
 62
     7
370
    15
100
AcDbCircle
 10
622.2396091084
 20
1208.6065380226
 30
0.0
 40
1.194969867280153
100
AcDbArc
 50
176.3574553969
 51
192.3509347398
  0
ARC
  5
175
330
1F
100
AcDbEntity
  8
0
  6
Continuous
 62
     7
370
    15
100
AcDbCircle
 10
621.9703069563
 20
1201.3712836736
 30
0.0
 40
7.037184162912757
100
AcDbArc
 50
97.3314725296
 51
101.6139909917
  0
ARC
  5
176
330
1F
100
AcDbEntity
  8
0
  6
Continuous
 62
     7
370
    15
100
AcDbCircle
 10
612.8181223061
 20
1205.0010773128
 30
0.0
 40
8.395644188126669
100
AcDbArc
 50
15.8671683864
 51
22.8730794261
  0
ARC
  5
177
330
1F
100
AcDbEntity
  8
0
  6
Continuous
 62
     7
370
    15
100
AcDbCircle
 10
622.3112671898
 20
1200.398101903
 30
0.0
 40
7.042520029369266
100
AcDbArc
 50
97.3315041938
 51
101.6107564703
  0
ARC
  5
178
330
1F
100
AcDbEntity
  8
0
  6
Continuous
 62
     7
370
    15
100
AcDbCircle
 10
623.1664375939
 20
1208.251774733
 30
0.0
 40
1.957227058825663
100
AcDbArc
 50
206.3502499164
 51
217.8247194836
  0
LWPOLYLINE
  5
179
330
1F
100
AcDbEntity
  8
0
  6
Continuous
 62
     7
370
    15
100
AcDbPolyline
 90
       13
 70
   128
 43
0.0
 10
617.3143571095
 20
1210.5767664635
 10
617.2060852723
 20
1210.4982075416
 10
617.062728651
 20
1210.0888726437
 10
617.0670499878
 20
1209.3902913057
 10
617.2186693029
 20
1208.4645417654
 10
617.5041159467
 20
1207.3938933336
 10
617.8980281429
 20
1206.2734601223
 10
618.3653956132
 20
1205.2028116905
 10
618.8646962719
 20
1204.2770621502
 10
619.3515693621
 20
1203.5784957134
 10
619.7827493624
 20
1203.1691459143
 10
620.1199253873
 20
1203.0854162895
 10
620.1352139787
 20
1203.0906018936
  0
SPLINE
  5
17A
330
1F
100
AcDbEntity
  8
0
  6
Continuous
 62
     7
370
    15
100
AcDbSpline
210
0.0
220
0.0
230
1.0
 70
     8
 71
     3
 72
     9
 73
     5
 74
     0
 42
0.00000001
 43
0.00000001
 12
1.0
 22
0.0
 32
0.0
 13
1.0
 23
0.0
 33
0.0
 40
0.0
 40
0.0
 40
0.0
 40
0.0
 40
0.5300804084615545
 40
1.0
 40
1.0
 40
1.0
 40
1.0
 10
620.5887829737253
 20
1208.164313169661
 30
0.0
 10
620.6741540121222
 20
1208.197282435556
 30
0.0
 10
620.8352070090531
 20
1208.259479161502
 30
0.0
 10
620.9965007590343
 20
1208.321697633504
 30
0.0
 10
621.0722958521433
 20
1208.350935312453
 30
0.0
  0
LINE
  5
17B
330
1F
100
AcDbEntity
  8
0
  6
Continuous
 62
     7
370
    15
100
AcDbLine
 10
622.0263054447
 20
1205.9155789339
 30
0.0
 11
621.7584868745
 21
1205.9471693956
 31
0.0
  0
LINE
  5
17C
330
1F
100
AcDbEntity
  8
0
  6
Continuous
 62
     7
370
    15
100
AcDbLine
 10
620.7150405125
 20
1209.6453246796
 30
0.0
 11
620.5663045721
 21
1209.4830510342
 31
0.0
  0
LINE
  5
17D
330
1F
100
AcDbEntity
  8
0
  6
Continuous
 62
     7
370
    15
100
AcDbLine
 10
621.887024291
 20
1207.0515093529
 30
0.0
 11
621.7007523255
 21
1206.9986251318
 31
0.0
  0
SPLINE
  5
17E
330
1F
100
AcDbEntity
  8
0
  6
Continuous
 62
     7
370
    15
100
AcDbSpline
210
0.0
220
0.0
230
1.0
 70
     8
 71
     3
 72
     9
 73
     5
 74
     0
 42
0.00000001
 43
0.00000001
 12
1.0
 22
0.0
 32
0.0
 13
1.0
 23
0.0
 33
0.0
 40
0.0
 40
0.0
 40
0.0
 40
0.0
 40
0.1365870836146644
 40
0.9999999999999999
 40
0.9999999999999999
 40
0.9999999999999999
 40
0.9999999999999999
 10
621.5859239773339
 20
1207.28147897357
 30
0.0
 10
621.5984911857269
 20
1207.286097949476
 30
0.0
 10
621.690499947173
 20
1207.319915026342
 30
0.0
 10
621.7824182628914
 20
1207.353793863056
 30
0.0
 10
621.861781723935
 20
1207.383045288267
 30
0.0
  0
SPLINE
  5
17F
330
1F
100
AcDbEntity
  8
0
  6
Continuous
 62
     7
370
    15
100
AcDbSpline
210
0.0
220
0.0
230
1.0
 70
     8
 71
     3
 72
     9
 73
     5
 74
     0
 42
0.00000001
 43
0.00000001
 12
1.0
 22
0.0
 32
0.0
 13
1.0
 23
0.0
 33
0.0
 40
0.0
 40
0.0
 40
0.0
 40
0.0
 40
0.1338670598102549
 40
1.0
 40
1.0
 40
1.0
 40
1.0
 10
621.0529392437525
 20
1208.558419080916
 30
0.0
 10
621.0645587047229
 20
1208.563984365412
 30
0.0
 10
621.151357212041
 20
1208.605557583676
 30
0.0
 10
621.2383166366901
 20
1208.646765131842
 30
0.0
 10
621.3136350588388
 20
1208.682456346693
 30
0.0
  0
SPLINE
  5
180
330
1F
100
AcDbEntity
  8
0
  6
Continuous
 62
     7
370
    15
100
AcDbSpline
210
0.0
220
0.0
230
1.0
 70
     8
 71
     3
 72
     9
 73
     5
 74
     0
 42
0.00000001
 43
0.00000001
 12
1.0
 22
0.0
 32
0.0
 13
1.0
 23
0.0
 33
0.0
 40
0.0
 40
0.0
 40
0.0
 40
0.0
 40
0.2695297160337196
 40
1.0
 40
1.0
 40
1.0
 40
1.0
 10
621.521506257493
 20
1208.350935312453
 30
0.0
 10
621.4421260689942
 20
1208.32169799002
 30
0.0
 10
621.1476123891413
 20
1208.213222669142
 30
0.0
 10
620.8528613497537
 20
1208.104798727527
 30
0.0
 10
620.6375544743128
 20
1208.025598260107
 30
0.0
  0
LINE
  5
181
330
1F
100
AcDbEntity
  8
0
  6
Continuous
 62
     7
370
    15
100
AcDbLine
 10
621.5808799343
 20
1208.2643893682
 30
0.0
 11
620.6732278542
 21
1207.964950534
 31
0.0
  0
ARC
  5
182
330
1F
100
AcDbEntity
  8
0
  6
Continuous
 62
     7
370
    15
100
AcDbCircle
 10
660.1436348424
 20
1120.1596566068
 30
0.0
 40
6.695345625718139
100
AcDbArc
 50
2.0876079867
 51
11.8931550763
  0
ARC
  5
183
330
1F
100
AcDbEntity
  8
0
  6
Continuous
 62
     7
370
    15
100
AcDbCircle
 10
666.9678276257
 20
1124.1230374188
 30
0.0
 40
3.721873158465043
100
AcDbArc
 50
267.947635943
 51
272.052364057
  0
ARC
  5
184
330
1F
100
AcDbEntity
  8
0
  6
Continuous
 62
     7
370
    15
100
AcDbCircle
 10
660.4091256271
 20
1120.1596087948
 30
0.0
 40
6.696437632379811
100
AcDbArc
 50
2.0876767626
 51
11.8916053483
  0
ARC
  5
185
330
1F
100
AcDbEntity
  8
0
  6
Continuous
 62
     7
370
    15
100
AcDbCircle
 10
665.7680164452
 20
1121.6153145648
 30
0.0
 40
1.196241823039927
100
AcDbArc
 50
356.3654595667
 51
12.3425406692
  0
ARC
  5
186
330
1F
100
AcDbEntity
  8
0
  6
Continuous
 62
     7
370
    15
100
AcDbCircle
 10
666.9204172641
 20
1121.7896077625
 30
0.0
 40
0.0830050898248806
100
AcDbArc
 50
21.5034060751
 51
78.75074655
  0
ARC
  5
187
330
1F
100
AcDbEntity
  8
0
  6
Continuous
 62
     7
370
    15
100
AcDbCircle
 10
660.6865059086
 20
1120.1100809304
 30
0.0
 40
6.527865109533091
100
AcDbArc
 50
14.8624973701
 51
23.8766893635
  0
LWPOLYLINE
  5
188
330
1F
100
AcDbEntity
  8
0
  6
Continuous
 62
     7
370
    15
100
AcDbPolyline
 90
        9
 70
   128
 43
0.0
 10
666.6557079033
 20
1122.7523622238
 10
666.6587328391
 20
1122.7668610536
 10
666.6587775426
 20
1122.7803168022
 10
666.6558420138
 20
1122.7927294695
 10
666.6498964505
 20
1122.8040841543
 10
666.6409706549
 20
1122.8143883073
 10
666.6290646271
 20
1122.8236270272
 10
666.6141783671
 20
1122.8318003141
 10
666.596326776
 20
1122.8389007174
  0
ARC
  5
189
330
1F
100
AcDbEntity
  8
0
  6
Continuous
 62
     7
370
    15
100
AcDbCircle
 10
664.8423925968
 20
1121.9701286973
 30
0.0
 40
1.95730680470767
100
AcDbArc
 50
26.3504844509
 51
37.824484949
  0
ARC
  5
18A
330
1F
100
AcDbEntity
  8
0
  6
Continuous
 62
     7
370
    15
100
AcDbCircle
 10
660.5808414872
 20
1120.2274082051
 30
0.0
 40
6.510744801009205
100
AcDbArc
 50
26.8737693366
 51
36.8636827533
  0
ARC
  5
18B
330
1F
100
AcDbEntity
  8
0
  6
Continuous
 62
     7
370
    15
100
AcDbCircle
 10
665.6565701441
 20
1123.5525287074
 30
0.0
 40
0.595860921424178
100
AcDbArc
 50
77.073870559
 51
102.926129441
  0
ARC
  5
18C
330
1F
100
AcDbEntity
  8
0
  6
Continuous
 62
     7
370
    15
100
AcDbCircle
 10
660.3142597135
 20
1120.2274082051
 30
0.0
 40
6.510744801009342
100
AcDbArc
 50
26.8737693366
 51
36.8636827533
  0
ARC
  5
18D
330
1F
100
AcDbEntity
  8
0
  6
Continuous
 62
     7
370
    15
100
AcDbCircle
 10
667.3145426771
 20
1123.0945154476
 30
0.0
 40
1.195082872136111
100
AcDbArc
 50
176.3576618827
 51
192.3503383532
  0
ARC
  5
18E
330
1F
100
AcDbEntity
  8
0
  6
Continuous
 62
     7
370
    15
100
AcDbCircle
 10
667.0445278965
 20
1115.862249365
 30
0.0
 40
7.03413189672029
100
AcDbArc
 50
97.3297472413
 51
101.6141148551
  0
ARC
  5
18F
330
1F
100
AcDbEntity
  8
0
  6
Continuous
 62
     7
370
    15
100
AcDbCircle
 10
657.8945720137
 20
1119.4897027602
 30
0.0
 40
8.39388944859145
100
AcDbArc
 50
15.8658890568
 51
22.8732976768
  0
ARC
  5
190
330
1F
100
AcDbEntity
  8
0
  6
Continuous
 62
     7
370
    15
100
AcDbCircle
 10
667.3849998424
 20
1114.8931444754
 30
0.0
 40
7.035370241774054
100
AcDbArc
 50
97.3301244779
 51
101.6137376185
  0
ARC
  5
191
330
1F
100
AcDbEntity
  8
0
  6
Continuous
 62
     7
370
    15
100
AcDbCircle
 10
668.2417251303
 20
1122.7400450777
 30
0.0
 40
1.957784272378858
100
AcDbArc
 50
206.3518882931
 51
217.8230811069
  0
LWPOLYLINE
  5
192
330
1F
100
AcDbEntity
  8
0
  6
Continuous
 62
     7
370
    15
100
AcDbPolyline
 90
       13
 70
   128
 43
0.0
 10
662.389177628
 20
1125.064739319
 10
662.2809057908
 20
1124.9861803972
 10
662.1375417189
 20
1124.5768380486
 10
662.1418630557
 20
1123.8782641613
 10
662.293497272
 20
1122.9525220715
 10
662.5789439158
 20
1121.8818661892
 10
662.9728412108
 20
1120.7614329779
 10
663.4402161316
 20
1119.6907845461
 10
663.9395242409
 20
1118.7650350058
 10
664.4263898806
 20
1118.0664611184
 10
664.8575698809
 20
1117.6571187698
 10
665.1947384553
 20
1117.5733891451
 10
665.2100419478
 20
1117.5785672986
  0
SPLINE
  5
193
330
1F
100
AcDbEntity
  8
0
  6
Continuous
 62
     7
370
    15
100
AcDbSpline
210
0.0
220
0.0
230
1.0
 70
     8
 71
     3
 72
     9
 73
     5
 74
     0
 42
0.00000001
 43
0.00000001
 12
1.0
 22
0.0
 32
0.0
 13
1.0
 23
0.0
 33
0.0
 40
0.0
 40
0.0
 40
0.0
 40
0.0
 40
0.5300810083121577
 40
1.0
 40
1.0
 40
1.0
 40
1.0
 10
665.663603492219
 20
1122.652293475809
 30
0.0
 10
665.7489744760336
 20
1122.685260321398
 30
0.0
 10
665.9100271877438
 20
1122.747452411043
 30
0.0
 10
666.0713212347177
 20
1122.80966557171
 30
0.0
 10
666.1471163706369
 20
1122.83890071744
 30
0.0
  0
LINE
  5
194
330
1F
100
AcDbEntity
  8
0
  6
Continuous
 62
     7
370
    15
100
AcDbLine
 10
667.1011185126
 20
1120.4035517895
 30
0.0
 11
666.8333148436
 21
1120.4351348006
 31
0.0
  0
LINE
  5
195
330
1F
100
AcDbEntity
  8
0
  6
Continuous
 62
     7
370
    15
100
AcDbLine
 10
665.789861031
 20
1124.1332900845
 30
0.0
 11
665.64111764
 21
1123.9710238897
 31
0.0
  0
LINE
  5
196
330
1F
100
AcDbEntity
  8
0
  6
Continuous
 62
     7
370
    15
100
AcDbLine
 10
666.9618522601
 20
1121.5394822084
 30
0.0
 11
666.775572844
 21
1121.4865979874
 31
0.0
  0
SPLINE
  5
197
330
1F
100
AcDbEntity
  8
0
  6
Continuous
 62
     7
370
    15
100
AcDbSpline
210
0.0
220
0.0
230
1.0
 70
     8
 71
     3
 72
     9
 73
     5
 74
     0
 42
0.00000001
 43
0.00000001
 12
1.0
 22
0.0
 32
0.0
 13
1.0
 23
0.0
 33
0.0
 40
0.0
 40
0.0
 40
0.0
 40
0.0
 40
0.1365992899997288
 40
1.0
 40
1.0
 40
1.0
 40
1.0
 10
666.6607444958275
 20
1121.769444378557
 30
0.0
 10
666.6733115886539
 20
1121.774068654871
 30
0.0
 10
666.765311282256
 20
1121.807921512476
 30
0.0
 10
666.8572391267791
 20
1121.841782523165
 30
0.0
 10
666.9366096930094
 20
1121.871018143835
 30
0.0
  0
SPLINE
  5
198
330
1F
100
AcDbEntity
  8
0
  6
Continuous
 62
     7
370
    15
100
AcDbSpline
210
0.0
220
0.0
230
1.0
 70
     8
 71
     3
 72
     9
 73
     5
 74
     0
 42
0.00000001
 43
0.00000001
 12
1.0
 22
0.0
 32
0.0
 13
1.0
 23
0.0
 33
0.0
 40
0.0
 40
0.0
 40
0.0
 40
0.0
 40
0.1338436379562874
 40
1.0
 40
1.0
 40
1.0
 40
1.0
 10
666.127759762246
 20
1123.046384485903
 30
0.0
 10
666.1393767052546
 20
1123.051949793414
 30
0.0
 10
666.2261715890903
 20
1123.0935304587
 30
0.0
 10
666.3131332132838
 20
1123.134741471725
 30
0.0
 10
666.3884555773324
 20
1123.170436652842
 30
0.0
  0
SPLINE
  5
199
330
1F
100
AcDbEntity
  8
0
  6
Continuous
 62
     7
370
    15
100
AcDbSpline
210
0.0
220
0.0
230
1.0
 70
     8
 71
     3
 72
     9
 73
     5
 74
     0
 42
0.00000001
 43
0.00000001
 12
1.0
 22
0.0
 32
0.0
 13
1.0
 23
0.0
 33
0.0
 40
0.0
 40
0.0
 40
0.0
 40
0.0
 40
0.2695344411976904
 40
0.9999999999999999
 40
0.9999999999999999
 40
0.9999999999999999
 40
0.9999999999999999
 10
666.5963267759865
 20
1122.83890071744
 30
0.0
 10
666.5169439027679
 20
1122.809666431242
 30
0.0
 10
666.222425425404
 20
1122.701204276764
 30
0.0
 10
665.9276779050022
 20
1122.592770675925
 30
0.0
 10
665.7123749928064
 20
1122.513563665095
 30
0.0
  0
LINE
  5
19A
330
1F
100
AcDbEntity
  8
0
  6
Continuous
 62
     7
370
    15
100
AcDbLine
 10
666.6557079033
 20
1122.7523622238
 30
0.0
 11
665.7480483727
 21
1122.4529233896
 31
0.0
  0
ARC
  5
19B
330
1F
100
AcDbEntity
  8
0
  6
Continuous
 62
     7
370
    15
100
AcDbCircle
 10
645.1321305499
 20
1120.1596566068
 30
0.0
 40
6.695345625718139
100
AcDbArc
 50
2.0876079867
 51
11.8931550763
  0
ARC
  5
19C
330
1F
100
AcDbEntity
  8
0
  6
Continuous
 62
     7
370
    15
100
AcDbCircle
 10
651.9563233332
 20
1124.1230374188
 30
0.0
 40
3.721873158465043
100
AcDbArc
 50
267.947635943
 51
272.052364057
  0
ARC
  5
19D
330
1F
100
AcDbEntity
  8
0
  6
Continuous
 62
     7
370
    15
100
AcDbCircle
 10
645.3976213346
 20
1120.1596087948
 30
0.0
 40
6.696437632379811
100
AcDbArc
 50
2.0876767626
 51
11.8916053483
  0
ARC
  5
19E
330
1F
100
AcDbEntity
  8
0
  6
Continuous
 62
     7
370
    15
100
AcDbCircle
 10
650.7565121527
 20
1121.6153145648
 30
0.0
 40
1.196241823039927
100
AcDbArc
 50
356.3654595667
 51
12.3425406692
  0
ARC
  5
19F
330
1F
100
AcDbEntity
  8
0
  6
Continuous
 62
     7
370
    15
100
AcDbCircle
 10
651.9089129716
 20
1121.7896077625
 30
0.0
 40
0.0830050898248806
100
AcDbArc
 50
21.5034060751
 51
78.75074655
  0
ARC
  5
1A0
330
1F
100
AcDbEntity
  8
0
  6
Continuous
 62
     7
370
    15
100
AcDbCircle
 10
645.6750016161
 20
1120.1100809304
 30
0.0
 40
6.527865109533091
100
AcDbArc
 50
14.8624973701
 51
23.8766893635
  0
LWPOLYLINE
  5
1A1
330
1F
100
AcDbEntity
  8
0
  6
Continuous
 62
     7
370
    15
100
AcDbPolyline
 90
        9
 70
   128
 43
0.0
 10
651.6442036109
 20
1122.7523622238
 10
651.6472285466
 20
1122.7668610536
 10
651.6472732501
 20
1122.7803168022
 10
651.6443377213
 20
1122.7927294695
 10
651.638392158
 20
1122.8040841543
 10
651.6294663624
 20
1122.8143883073
 10
651.6175603346
 20
1122.8236270272
 10
651.6026740746
 20
1122.8318003141
 10
651.5848224835
 20
1122.8389007174
  0
ARC
  5
1A2
330
1F
100
AcDbEntity
  8
0
  6
Continuous
 62
     7
370
    15
100
AcDbCircle
 10
649.8308883043
 20
1121.9701286973
 30
0.0
 40
1.95730680470767
100
AcDbArc
 50
26.3504844509
 51
37.824484949
  0
ARC
  5
1A3
330
1F
100
AcDbEntity
  8
0
  6
Continuous
 62
     7
370
    15
100
AcDbCircle
 10
645.5693371948
 20
1120.2274082051
 30
0.0
 40
6.510744801009205
100
AcDbArc
 50
26.8737693366
 51
36.8636827533
  0
ARC
  5
1A4
330
1F
100
AcDbEntity
  8
0
  6
Continuous
 62
     7
370
    15
100
AcDbCircle
 10
650.6450658516
 20
1123.5525287074
 30
0.0
 40
0.595860921424178
100
AcDbArc
 50
77.073870559
 51
102.926129441
  0
ARC
  5
1A5
330
1F
100
AcDbEntity
  8
0
  6
Continuous
 62
     7
370
    15
100
AcDbCircle
 10
645.302755421
 20
1120.2274082051
 30
0.0
 40
6.510744801009342
100
AcDbArc
 50
26.8737693366
 51
36.8636827533
  0
ARC
  5
1A6
330
1F
100
AcDbEntity
  8
0
  6
Continuous
 62
     7
370
    15
100
AcDbCircle
 10
652.3030383846
 20
1123.0945154476
 30
0.0
 40
1.195082872136111
100
AcDbArc
 50
176.3576618827
 51
192.3503383532
  0
ARC
  5
1A7
330
1F
100
AcDbEntity
  8
0
  6
Continuous
 62
     7
370
    15
100
AcDbCircle
 10
652.0330236041
 20
1115.862249365
 30
0.0
 40
7.03413189672029
100
AcDbArc
 50
97.3297472413
 51
101.6141148551
  0
ARC
  5
1A8
330
1F
100
AcDbEntity
  8
0
  6
Continuous
 62
     7
370
    15
100
AcDbCircle
 10
642.8830677213
 20
1119.4897027602
 30
0.0
 40
8.39388944859145
100
AcDbArc
 50
15.8658890568
 51
22.8732976768
  0
ARC
  5
1A9
330
1F
100
AcDbEntity
  8
0
  6
Continuous
 62
     7
370
    15
100
AcDbCircle
 10
652.3734955499
 20
1114.8931444754
 30
0.0
 40
7.035370241774054
100
AcDbArc
 50
97.3301244779
 51
101.6137376185
  0
ARC
  5
1AA
330
1F
100
AcDbEntity
  8
0
  6
Continuous
 62
     7
370
    15
100
AcDbCircle
 10
653.2302208378
 20
1122.7400450777
 30
0.0
 40
1.957784272378858
100
AcDbArc
 50
206.3518882931
 51
217.8230811069
  0
LWPOLYLINE
  5
1AB
330
1F
100
AcDbEntity
  8
0
  6
Continuous
 62
     7
370
    15
100
AcDbPolyline
 90
       13
 70
   128
 43
0.0
 10
647.3776733355
 20
1125.064739319
 10
647.2694014983
 20
1124.9861803972
 10
647.1260374264
 20
1124.5768380486
 10
647.1303587632
 20
1123.8782641613
 10
647.2819929795
 20
1122.9525220715
 10
647.5674396233
 20
1121.8818661892
 10
647.9613369183
 20
1120.7614329779
 10
648.4287118392
 20
1119.6907845461
 10
648.9280199484
 20
1118.7650350058
 10
649.4148855881
 20
1118.0664611184
 10
649.8460655884
 20
1117.6571187698
 10
650.1832341628
 20
1117.5733891451
 10
650.1985376553
 20
1117.5785672986
  0
SPLINE
  5
1AC
330
1F
100
AcDbEntity
  8
0
  6
Continuous
 62
     7
370
    15
100
AcDbSpline
210
0.0
220
0.0
230
1.0
 70
     8
 71
     3
 72
     9
 73
     5
 74
     0
 42
0.00000001
 43
0.00000001
 12
1.0
 22
0.0
 32
0.0
 13
1.0
 23
0.0
 33
0.0
 40
0.0
 40
0.0
 40
0.0
 40
0.0
 40
0.5300828798844256
 40
1.0
 40
1.0
 40
1.0
 40
1.0
 10
650.6520991997309
 20
1122.652293475809
 30
0.0
 10
650.7374700132438
 20
1122.685260255722
 30
0.0
 10
650.8985218350487
 20
1122.747452001888
 30
0.0
 10
651.0598168086601
 20
1122.80966552012
 30
0.0
 10
651.1356120781488
 20
1122.83890071744
 30
0.0
  0
LINE
  5
1AD
330
1F
100
AcDbEntity
  8
0
  6
Continuous
 62
     7
370
    15
100
AcDbLine
 10
652.0896142201
 20
1120.4035517895
 30
0.0
 11
651.8218105511
 21
1120.4351348006
 31
0.0
  0
LINE
  5
1AE
330
1F
100
AcDbEntity
  8
0
  6
Continuous
 62
     7
370
    15
100
AcDbLine
 10
650.7783567385
 20
1124.1332900845
 30
0.0
 11
650.6296133475
 21
1123.9710238897
 31
0.0
  0
LINE
  5
1AF
330
1F
100
AcDbEntity
  8
0
  6
Continuous
 62
     7
370
    15
100
AcDbLine
 10
651.9503479676
 20
1121.5394822084
 30
0.0
 11
651.7640685515
 21
1121.4865979874
 31
0.0
  0
SPLINE
  5
1B0
330
1F
100
AcDbEntity
  8
0
  6
Continuous
 62
     7
370
    15
100
AcDbSpline
210
0.0
220
0.0
230
1.0
 70
     8
 71
     3
 72
     9
 73
     5
 74
     0
 42
0.00000001
 43
0.00000001
 12
1.0
 22
0.0
 32
0.0
 13
1.0
 23
0.0
 33
0.0
 40
0.0
 40
0.0
 40
0.0
 40
0.0
 40
0.1366000749216061
 40
1.0
 40
1.0
 40
1.0
 40
1.0
 10
651.6492402033394
 20
1121.769444378557
 30
0.0
 10
651.661807290459
 20
1121.774068652768
 30
0.0
 10
651.753806413642
 20
1121.807921300458
 30
0.0
 10
651.8457346060679
 20
1121.84178243919
 30
0.0
 10
651.9251054005213
 20
1121.871018143835
 30
0.0
  0
SPLINE
  5
1B1
330
1F
100
AcDbEntity
  8
0
  6
Continuous
 62
     7
370
    15
100
AcDbSpline
210
0.0
220
0.0
230
1.0
 70
     8
 71
     3
 72
     9
 73
     5
 74
     0
 42
0.00000001
 43
0.00000001
 12
1.0
 22
0.0
 32
0.0
 13
1.0
 23
0.0
 33
0.0
 40
0.0
 40
0.0
 40
0.0
 40
0.0
 40
0.133844815542588
 40
1.0
 40
1.0
 40
1.0
 40
1.0
 10
651.1162554697579
 20
1123.046384485903
 30
0.0
 10
651.12787240485
 20
1123.051949789674
 30
0.0
 10
651.2146664659043
 20
1123.093530061186
 30
0.0
 10
651.3016285901111
 20
1123.134741313228
 30
0.0
 10
651.3769512848443
 20
1123.170436652842
 30
0.0
  0
SPLINE
  5
1B2
330
1F
100
AcDbEntity
  8
0
  6
Continuous
 62
     7
370
    15
100
AcDbSpline
210
0.0
220
0.0
230
1.0
 70
     8
 71
     3
 72
     9
 73
     5
 74
     0
 42
0.00000001
 43
0.00000001
 12
1.0
 22
0.0
 32
0.0
 13
1.0
 23
0.0
 33
0.0
 40
0.0
 40
0.0
 40
0.0
 40
0.0
 40
0.2695349188102417
 40
1.0
 40
1.0
 40
1.0
 40
1.0
 10
651.5848224834984
 20
1122.83890071744
 30
0.0
 10
651.5054396362572
 20
1122.809666440796
 30
0.0
 10
651.2109217771545
 20
1122.70120451396
 30
0.0
 10
650.9161738031096
 20
1122.592770746122
 30
0.0
 10
650.7008707003183
 20
1122.513563665095
 30
0.0
  0
LINE
  5
1B3
330
1F
100
AcDbEntity
  8
0
  6
Continuous
 62
     7
370
    15
100
AcDbLine
 10
651.6442036109
 20
1122.7523622238
 30
0.0
 11
650.7365440802
 21
1122.4529233896
 31
0.0
  0
LINE
  5
1B4
330
1F
100
AcDbEntity
  8
0
  6
Continuous
 62
     7
370
    15
100
AcDbLine
 10
659.3824809269
 20
1177.3476836407
 30
0.0
 11
657.0784931855
 21
1161.9291019761
 31
0.0
  0
LWPOLYLINE
  5
1B5
330
1F
100
AcDbEntity
  8
0
  6
Continuous
 62
     7
370
    15
100
AcDbPolyline
 90
        9
 70
   128
 43
0.0
 10
659.6066241936
 20
1178.8476792299
 10
659.5654969887
 20
1179.0547904694
 10
659.5118975119
 20
1179.2137113535
 10
659.4494616465
 20
1179.3136087381
 10
659.3824809269
 20
1179.3476876938
 10
659.3155002074
 20
1179.3136087381
 10
659.2530792431
 20
1179.2137113535
 10
659.1994648652
 20
1179.0547904694
 10
659.1583376603
 20
1178.8476792299
  0
LINE
  5
1B6
330
1F
100
AcDbEntity
  8
0
  6
Continuous
 62
     7
370
    15
100
AcDbLine
 10
662.1347552018
 20
1161.9291019761
 30
0.0
 11
659.6066241936
 21
1178.8476792299
 31
0.0
  0
ARC
  5
1B7
330
1F
100
AcDbEntity
  8
0
  6
Continuous
 62
     7
370
    15
100
AcDbCircle
 10
660.4193664835
 20
1161.41868179
 30
0.0
 40
1.789717078576982
100
AcDbArc
 50
326.4319515301
 51
16.5705659437
  0
LINE
  5
1B8
330
1F
100
AcDbEntity
  8
0
  6
Continuous
 62
     7
370
    15
100
AcDbLine
 10
656.8543499188
 20
1160.4290989363
 30
0.0
 11
661.9106119351
 21
1160.4290989363
 31
0.0
  0
ARC
  5
1B9
330
1F
100
AcDbEntity
  8
0
  6
Continuous
 62
     7
370
    15
100
AcDbCircle
 10
658.3456366867
 20
1161.4186879638
 30
0.0
 40
1.789754918242868
100
AcDbArc
 50
163.4300007104
 51
213.5674818158
  0
LINE
  5
1BA
330
1F
100
AcDbEntity
  8
0
  6
Continuous
 62
     7
370
    15
100
AcDbLine
 10
659.1583376603
 20
1178.8476792299
 30
0.0
 11
656.6302066521
 21
1161.9291019761
 31
0.0
  0
LINE
  5
1BB
330
1F
100
AcDbEntity
  8
0
  6
Continuous
 62
     7
370
    15
100
AcDbLine
 10
656.8543499188
 20
1160.4290989363
 30
0.0
 11
656.8060552554
 21
1160.4290989363
 31
0.0
  0
ARC
  5
1BC
330
1F
100
AcDbEntity
  8
0
  6
Continuous
 62
     7
370
    15
100
AcDbCircle
 10
658.297300707
 20
1161.41868179
 30
0.0
 40
1.78971707857659
100
AcDbArc
 50
163.4294340563
 51
213.5680484699
  0
LINE
  5
1BD
330
1F
100
AcDbEntity
  8
0
  6
Continuous
 62
     7
370
    15
100
AcDbLine
 10
659.1100429968
 20
1178.8476792299
 30
0.0
 11
656.5819119887
 21
1161.9291019761
 31
0.0
  0
LINE
  5
1BE
330
1F
100
AcDbEntity
  8
0
  6
Continuous
 62
     7
370
    15
100
AcDbLine
 10
659.4307755904
 20
1177.3476836407
 30
0.0
 11
657.1267878489
 21
1161.9291019761
 31
0.0
  0
LINE
  5
1BF
330
1F
100
AcDbEntity
  8
0
  6
Continuous
 62
     7
370
    15
100
AcDbLine
 10
661.7347633318
 20
1161.9291019761
 30
0.0
 11
659.4307755904
 21
1177.3476836407
 31
0.0
  0
LINE
  5
1C0
330
1F
100
AcDbEntity
  8
0
  6
Continuous
 62
     7
370
    15
100
AcDbLine
 10
657.1267878489
 20
1161.9291019761
 30
0.0
 11
661.7347633318
 21
1161.9291019761
 31
0.0
  0
LINE
  5
1C1
330
1F
100
AcDbEntity
  8
0
  6
Continuous
 62
     7
370
    15
100
AcDbLine
 10
659.625518866
 20
1168.7478062832
 30
0.0
 11
659.2578625159
 21
1164.6936026537
 31
0.0
  0
LINE
  5
1C2
330
1F
100
AcDbEntity
  8
0
  6
Continuous
 62
     7
370
    15
100
AcDbLine
 10
659.2578625159
 20
1164.6936026537
 30
0.0
 11
659.1618394332
 21
1165.1302662813
 31
0.0
  0
LINE
  5
1C3
330
1F
100
AcDbEntity
  8
0
  6
Continuous
 62
     7
370
    15
100
AcDbLine
 10
659.1618394332
 20
1165.1302662813
 30
0.0
 11
659.3013739066
 21
1162.1790987574
 31
0.0
  0
LINE
  5
1C4
330
1F
100
AcDbEntity
  8
0
  6
Continuous
 62
     7
370
    15
100
AcDbLine
 10
659.3013739066
 20
1162.1790987574
 30
0.0
 11
659.5624422507
 21
1165.0044334256
 31
0.0
  0
LINE
  5
1C5
330
1F
100
AcDbEntity
  8
0
  6
Continuous
 62
     7
370
    15
100
AcDbLine
 10
659.5624422507
 20
1165.0044334256
 30
0.0
 11
659.4153230862
 21
1164.5214644396
 31
0.0
  0
LINE
  5
1C6
330
1F
100
AcDbEntity
  8
0
  6
Continuous
 62
     7
370
    15
100
AcDbLine
 10
659.4153230862
 20
1164.5214644396
 30
0.0
 11
659.9484121279
 21
1171.1791095459
 31
0.0
  0
LINE
  5
1C7
330
1F
100
AcDbEntity
  8
0
  6
Continuous
 62
     7
370
    15
100
AcDbLine
 10
659.9484121279
 20
1171.1791095459
 30
0.0
 11
659.1618394332
 21
1168.3595118248
 31
0.0
  0
LINE
  5
1C8
330
1F
100
AcDbEntity
  8
0
  6
Continuous
 62
     7
370
    15
100
AcDbLine
 10
659.1618394332
 20
1168.3595118248
 30
0.0
 11
659.6895938592
 21
1174.1791007244
 31
0.0
  0
LINE
  5
1C9
330
1F
100
AcDbEntity
  8
0
  6
Continuous
 62
     7
370
    15
100
AcDbLine
 10
659.6895938592
 20
1174.1791007244
 30
0.0
 11
659.1719573216
 21
1174.1791007244
 31
0.0
  0
LINE
  5
1CA
330
1F
100
AcDbEntity
  8
0
  6
Continuous
 62
     7
370
    15
100
AcDbLine
 10
659.1719573216
 20
1174.1791007244
 30
0.0
 11
658.9222883658
 21
1167.1791014397
 31
0.0
  0
LINE
  5
1CB
330
1F
100
AcDbEntity
  8
0
  6
Continuous
 62
     7
370
    15
100
AcDbLine
 10
658.9222883658
 20
1167.1791014397
 30
0.0
 11
659.625518866
 21
1168.7478062832
 31
0.0
  0
LINE
  5
1CC
330
1F
100
AcDbEntity
  8
0
  6
Continuous
 62
     7
370
    15
100
AcDbLine
 10
659.4307755904
 20
1177.3476836407
 30
0.0
 11
659.3824809269
 21
1177.3476836407
 31
0.0
  0
LINE
  5
1CD
330
1F
100
AcDbEntity
  8
0
  6
Continuous
 62
     7
370
    15
100
AcDbLine
 10
657.1267878489
 20
1161.9291019761
 30
0.0
 11
657.0784931855
 21
1161.9291019761
 31
0.0
  0
LINE
  5
1CE
330
1F
100
AcDbEntity
  8
0
  6
Continuous
 62
     7
370
    15
100
AcDbLine
 10
659.5772242026
 20
1168.7478062832
 30
0.0
 11
659.625518866
 21
1168.7478062832
 31
0.0
  0
LINE
  5
1CF
330
1F
100
AcDbEntity
  8
0
  6
Continuous
 62
     7
370
    15
100
AcDbLine
 10
659.5772242026
 20
1168.7478062832
 30
0.0
 11
658.9264606909
 21
1167.2961500608
 31
0.0
  0
LINE
  5
1D0
330
1F
100
AcDbEntity
  8
0
  6
Continuous
 62
     7
370
    15
100
AcDbLine
 10
659.6412991957
 20
1174.1791007244
 30
0.0
 11
659.1135447697
 21
1168.3595118248
 31
0.0
  0
LINE
  5
1D1
330
1F
100
AcDbEntity
  8
0
  6
Continuous
 62
     7
370
    15
100
AcDbLine
 10
659.8806714491
 20
1170.9362802231
 30
0.0
 11
659.3670284228
 21
1164.5214644396
 31
0.0
  0
LINE
  5
1D2
330
1F
100
AcDbEntity
  8
0
  6
Continuous
 62
     7
370
    15
100
AcDbLine
 10
659.4931220488
 20
1164.7768554413
 30
0.0
 11
659.2850273327
 21
1162.5248578512
 31
0.0
  0
LINE
  5
1D3
330
1F
100
AcDbEntity
  8
0
  6
Continuous
 62
     7
370
    15
100
AcDbLine
 10
659.1750716643
 20
1164.8504895293
 30
0.0
 11
659.2095678525
 21
1164.6936026537
 31
0.0
  0
LINE
  5
1D4
330
1F
100
AcDbEntity
  8
0
  6
Continuous
 62
     7
370
    15
100
AcDbLine
 10
659.1135447697
 20
1168.3595118248
 30
0.0
 11
659.1618394332
 21
1168.3595118248
 31
0.0
  0
LINE
  5
1D5
330
1F
100
AcDbEntity
  8
0
  6
Continuous
 62
     7
370
    15
100
AcDbLine
 10
659.2095678525
 20
1164.6936026537
 30
0.0
 11
659.2578625159
 21
1164.6936026537
 31
0.0
  0
LWPOLYLINE
  5
1D6
330
1F
100
AcDbEntity
  8
0
  6
Continuous
 62
     7
370
    15
100
AcDbPolyline
 90
        5
 70
   128
 43
0.0
 10
659.1100429968
 20
1178.8476792299
 10
659.1511702017
 20
1179.0547904694
 10
659.2047696786
 20
1179.2137113535
 10
659.2671906428
 20
1179.3136087381
 10
659.3341862635
 20
1179.3476876938
  0
LINE
  5
1D7
330
1F
100
AcDbEntity
  8
0
  6
Continuous
 62
     7
370
    15
100
AcDbLine
 10
659.3670284228
 20
1164.5214644396
 30
0.0
 11
659.4153230862
 21
1164.5214644396
 31
0.0
  0
LWPOLYLINE
  5
1D8
330
1F
100
AcDbEntity
  8
0
  6
Continuous
 62
     7
370
    15
100
AcDbPolyline
 90
       22
 70
   128
 43
0.0
 10
597.6619457678
 20
1197.7800068581
 10
597.4590441064
 20
1197.6546433889
 10
596.8558600025
 20
1197.04536471
 10
596.282068439
 20
1196.1032536947
 10
595.7498883681
 20
1194.8483822071
 10
595.2706744747
 20
1193.3075127327
 10
594.8546340541
 20
1191.5134725296
 10
594.5106258468
 20
1189.5044979774
 10
594.2459961252
 20
1187.3234150135
 10
594.0663849787
 20
1185.0167003595
 10
593.9756071047
 20
1182.6335278475
 10
593.9756071047
 20
1180.2246806347
 10
594.0663849787
 20
1177.8415081226
 10
594.2459961252
 20
1175.5347934687
 10
594.5106258468
 20
1173.3537105047
 10
594.8546340541
 20
1171.3447359526
 10
595.2706744747
 20
1169.5506957495
 10
595.7498883681
 20
1168.0098188245
 10
596.282068439
 20
1166.7549547874
 10
596.8558600025
 20
1165.8128437721
 10
597.4590441064
 20
1165.2035650932
 10
597.6619457678
 20
1165.0781941735
  0
LINE
  5
1D9
330
1F
100
AcDbEntity
  8
0
  6
Continuous
 62
     7
370
    15
100
AcDbLine
 10
613.2829373555
 20
1181.5912363254
 30
0.0
 11
613.2829373555
 21
1181.2669721567
 31
0.0
  0
LWPOLYLINE
  5
1DA
330
1F
100
AcDbEntity
  8
0
  6
Continuous
 62
     7
370
    15
100
AcDbPolyline
 90
        9
 70
   128
 43
0.0
 10
645.2251409964
 20
1113.9132839763
 10
644.9011599497
 20
1114.016198846
 10
644.5172464327
 20
1114.3210020983
 10
644.0881674962
 20
1114.8159739696
 10
643.6304336266
 20
1115.4820931279
 10
643.1616058425
 20
1116.2937593781
 10
642.699714549
 20
1117.2197845899
 10
642.262507029
 20
1118.2245773398
 10
641.8667917924
 20
1119.2695287191
  0
LINE
  5
1DB
330
1F
100
AcDbEntity
  8
0
  6
Continuous
 62
     7
370
    15
100
AcDbLine
 10
641.8667917924
 20
1119.2695287191
 30
0.0
 11
611.4731093721
 21
1205.7212528908
 31
0.0
  0
LINE
  5
1DC
330
1F
100
AcDbEntity
  8
0
  6
Continuous
 62
     7
370
    15
100
AcDbLine
 10
660.4954635577
 20
1113.9132839763
 30
0.0
 11
645.2251409964
 21
1113.9132839763
 31
0.0
  0
LWPOLYLINE
  5
1DD
330
1F
100
AcDbEntity
  8
0
  6
Continuous
 62
     7
370
    15
100
AcDbPolyline
 90
        9
 70
   128
 43
0.0
 10
611.4731093721
 20
1205.7212528908
 10
611.1340856032
 20
1206.7661968195
 10
610.8647843675
 20
1207.7709970199
 10
610.6755545215
 20
1208.6970296823
 10
610.5736678319
 20
1209.5086959326
 10
610.5630358533
 20
1210.1748076403
 10
610.6440758185
 20
1210.6697795116
 10
610.813665934
 20
1210.9745827639
 10
610.9385153131
 20
1211.0551533424
  0
LINE
  5
1DE
330
1F
100
AcDbEntity
  8
0
  6
Continuous
 62
     7
370
    15
100
AcDbLine
 10
622.7234190182
 20
1203.8621989214
 30
0.0
 11
652.174193211
 21
1203.8621989214
 31
0.0
  0
LINE
  5
1DF
330
1F
100
AcDbEntity
  8
0
  6
Continuous
 62
     7
370
    15
100
AcDbLine
 10
652.174193211
 20
1203.8621989214
 30
0.0
 11
662.8892904
 21
1203.8621989214
 31
0.0
  0
LINE
  5
1E0
330
1F
100
AcDbEntity
  8
0
  6
Continuous
 62
     7
370
    15
100
AcDbLine
 10
660.6222426371
 20
1113.9356357181
 30
0.0
 11
660.4954635577
 21
1113.9132839763
 31
0.0
  0
LINE
  5
1E1
330
1F
100
AcDbEntity
  8
0
  6
Continuous
 62
     7
370
    15
100
AcDbLine
 10
640.4044216351
 20
1123.42910591
 30
0.0
 11
616.0593962149
 21
1123.42910591
 31
0.0
  0
ARC
  5
1E2
330
1F
100
AcDbEntity
  8
0
  6
Continuous
 62
     7
370
    15
100
AcDbCircle
 10
620.3763335609
 20
1156.9207311053
 30
0.0
 40
0.491701667144956
100
AcDbArc
 50
179.0248456136
 51
268.9906660138
  0
LINE
  5
1E3
330
1F
100
AcDbEntity
  8
0
  6
Continuous
 62
     7
370
    15
100
AcDbLine
 10
620.3676720934
 20
1156.4291057312
 30
0.0
 11
620.7540368514
 21
1156.4291057312
 31
0.0
  0
ARC
  5
1E4
330
1F
100
AcDbEntity
  8
0
  6
Continuous
 62
     7
370
    15
100
AcDbCircle
 10
620.7453753838
 20
1156.9207311053
 30
0.0
 40
0.491701667144958
100
AcDbArc
 50
271.0093339862
 51
0.9751543864
  0
LINE
  5
1E5
330
1F
100
AcDbEntity
  8
0
  6
Continuous
 62
     7
370
    15
100
AcDbLine
 10
621.2370058374
 20
1156.9290992939
 30
0.0
 11
621.2370058374
 21
1163.9290985786
 31
0.0
  0
ARC
  5
1E6
330
1F
100
AcDbEntity
  8
0
  6
Continuous
 62
     7
370
    15
100
AcDbCircle
 10
620.7453752972
 20
1163.9374740094
 30
0.0
 40
0.491701877017092
100
AcDbArc
 50
359.0240020068
 51
88.9906563546
  0
LINE
  5
1E7
330
1F
100
AcDbEntity
  8
0
  6
Continuous
 62
     7
370
    15
100
AcDbLine
 10
620.7540368514
 20
1164.4290995919
 30
0.0
 11
620.3676720934
 21
1164.4290995919
 31
0.0
  0
ARC
  5
1E8
330
1F
100
AcDbEntity
  8
0
  6
Continuous
 62
     7
370
    15
100
AcDbCircle
 10
620.3763336475
 20
1163.9374740094
 30
0.0
 40
0.491701877017092
100
AcDbArc
 50
91.0093436454
 51
180.9759979932
  0
LINE
  5
1E9
330
1F
100
AcDbEntity
  8
0
  6
Continuous
 62
     7
370
    15
100
AcDbLine
 10
619.8847031073
 20
1163.9290985786
 30
0.0
 11
619.8847031073
 21
1156.9290992939
 31
0.0
  0
LINE
  5
1EA
330
1F
100
AcDbEntity
  8
0
  6
Continuous
 62
     7
370
    15
100
AcDbLine
 10
483.4658128993
 20
962.9291010224
 30
0.0
 11
479.7390324847
 21
962.9291010224
 31
0.0
  0
SPLINE
  5
1EB
330
1F
100
AcDbEntity
  8
0
  6
Continuous
 62
     7
370
    15
100
AcDbSpline
210
0.0
220
0.0
230
1.0
 70
     8
 71
     3
 72
    12
 73
     8
 74
     0
 42
0.00000001
 43
0.00000001
 12
1.0
 22
0.0
 32
0.0
 13
1.0
 23
0.0
 33
0.0
 40
0.0
 40
0.0
 40
0.0
 40
0.0
 40
0.2398545477857713
 40
0.2647480114931997
 40
0.5324801833577602
 40
0.9196363452806711
 40
1.0
 40
1.0
 40
1.0
 40
1.0
 10
479.5723667220659
 20
974.9990341388609
 30
0.0
 10
479.9910635622469
 20
975.0997492901839
 30
0.0
 10
480.4532151323535
 20
975.2109172304465
 30
0.0
 10
481.2792171057242
 20
975.5967879428114
 30
0.0
 10
482.2182709273794
 20
976.2259576750479
 30
0.0
 10
482.9319345409594
 20
977.1120438916051
 30
0.0
 10
483.2452843213023
 20
977.7659910924266
 30
0.0
 10
483.2991471366472
 20
977.8784004175093
 30
0.0
  0
SPLINE
  5
1EC
330
1F
100
AcDbEntity
  8
0
  6
Continuous
 62
     7
370
    15
100
AcDbSpline
210
0.0
220
0.0
230
1.0
 70
     8
 71
     3
 72
    12
 73
     8
 74
     0
 42
0.00000001
 43
0.00000001
 12
1.0
 22
0.0
 32
0.0
 13
1.0
 23
0.0
 33
0.0
 40
0.0
 40
0.0
 40
0.0
 40
0.0
 40
0.08033805681558
 40
0.4673708994817533
 40
0.7350177917209679
 40
0.9581124494700171
 40
1.0
 40
1.0
 40
1.0
 40
1.0
 10
554.1789194421357
 20
977.8784004175093
 30
0.0
 10
554.2327707061417
 20
977.7659941129069
 30
0.0
 10
554.5460532859585
 20
977.1120644838887
 30
0.0
 10
555.2614556807916
 20
976.2255236053803
 30
0.0
 10
556.4690283725566
 20
975.4142492168759
 30
0.0
 10
557.3681246824697
 20
975.0977138827095
 30
0.0
 10
557.8323211459494
 20
975.012503868732
 30
0.0
 10
557.905699856717
 20
974.9990341388609
 30
0.0
  0
LINE
  5
1ED
330
1F
100
AcDbEntity
  8
0
  6
Continuous
 62
     7
370
    15
100
AcDbLine
 10
557.7390340941
 20
962.9291010224
 30
0.0
 11
554.0122536795
 21
962.9291010224
 31
0.0
  0
ARC
  5
1EE
330
1F
100
AcDbEntity
  8
0
  6
Continuous
 62
     7
370
    15
100
AcDbCircle
 10
518.7390332894
 20
1002.4291022741
 30
0.0
 40
35.00000000000006
100
AcDbArc
 50
0.0000000009
 51
179.9999999991
  0
CIRCLE
  5
1EF
330
1F
100
AcDbEntity
  8
0
  6
Continuous
 62
     7
370
    15
100
AcDbCircle
 10
518.7390332894
 20
1002.9291022741
 30
0.0
 40
24.76414699999998
  0
LINE
  5
1F0
330
1F
100
AcDbEntity
  8
0
  6
Continuous
 62
     7
370
    15
100
AcDbLine
 10
484.2111689822
 20
962.9291010224
 30
0.0
 11
553.2668975966
 21
962.9291010224
 31
0.0
  0
CIRCLE
  5
1F1
330
1F
100
AcDbEntity
  8
0
  6
Continuous
 62
     7
370
    15
100
AcDbCircle
 10
518.7390332894
 20
1002.9291022741
 30
0.0
 40
23.7319245014063
  0
LINE
  5
1F2
330
1F
100
AcDbEntity
  8
0
  6
Continuous
 62
     7
370
    15
100
AcDbLine
 10
483.7390331404
 20
979.9291056716
 30
0.0
 11
483.7390331404
 21
1002.4291028404
 31
0.0
  0
ARC
  5
1F3
330
1F
100
AcDbEntity
  8
0
  6
Continuous
 62
     7
370
    15
100
AcDbCircle
 10
478.7390332894
 20
979.9291022741
 30
0.0
 40
5.000000000000003
100
AcDbArc
 50
335.7863818358
 51
0.0
  0
LINE
  5
1F4
330
1F
100
AcDbEntity
  8
0
  6
Continuous
 62
     7
370
    15
100
AcDbLine
 10
483.4658128993
 20
962.9291010224
 30
0.0
 11
484.2111689822
 21
962.9291010224
 31
0.0
  0
LINE
  5
1F5
330
1F
100
AcDbEntity
  8
0
  6
Continuous
 62
     7
370
    15
100
AcDbLine
 10
553.7390334384
 20
1002.4291028404
 30
0.0
 11
553.7390334384
 21
979.9291056716
 31
0.0
  0
ARC
  5
1F6
330
1F
100
AcDbEntity
  8
0
  6
Continuous
 62
     7
370
    15
100
AcDbCircle
 10
558.7390332894
 20
979.9291022741
 30
0.0
 40
5.0
100
AcDbArc
 50
180.0
 51
204.2136181641
  0
LINE
  5
1F7
330
1F
100
AcDbEntity
  8
0
  6
Continuous
 62
     7
370
    15
100
AcDbLine
 10
553.2668975966
 20
962.9291010224
 30
0.0
 11
554.0122536795
 21
962.9291010224
 31
0.0
  0
LINE
  5
1F8
330
1F
100
AcDbEntity
  8
0
  6
Continuous
 62
     7
370
    15
100
AcDbLine
 10
455.4361885266
 20
974.9291029894
 30
0.0
 11
453.1854202823
 21
974.9291029894
 31
0.0
  0
LINE
  5
1F9
330
1F
100
AcDbEntity
  8
0
  6
Continuous
 62
     7
370
    15
100
AcDbLine
 10
455.4361885266
 20
974.9291029894
 30
0.0
 11
462.2497072296
 21
974.9291029894
 31
0.0
  0
LINE
  5
1FA
330
1F
100
AcDbEntity
  8
0
  6
Continuous
 62
     7
370
    15
100
AcDbLine
 10
463.9453140871
 20
974.9291029894
 30
0.0
 11
478.7390341835
 21
974.9291029894
 31
0.0
  0
LINE
  5
1FB
330
1F
100
AcDbEntity
  8
0
  6
Continuous
 62
     7
370
    15
100
AcDbLine
 10
452.6227300839
 20
962.9291010224
 30
0.0
 11
455.4361885266
 21
962.9291010224
 31
0.0
  0
LINE
  5
1FC
330
1F
100
AcDbEntity
  8
0
  6
Continuous
 62
     7
370
    15
100
AcDbLine
 10
455.4361885266
 20
962.9291010224
 30
0.0
 11
479.7390324847
 21
962.9291010224
 31
0.0
  0
ARC
  5
1FD
330
1F
100
AcDbEntity
  8
0
  6
Continuous
 62
     7
370
    15
100
AcDbCircle
 10
478.7390332894
 20
979.9291022741
 30
0.0
 40
5.0
100
AcDbArc
 50
270.0
 51
279.5940682267
  0
LINE
  5
1FE
330
1F
100
AcDbEntity
  8
0
  6
Continuous
 62
     7
370
    15
100
AcDbLine
 10
557.7390340941
 20
962.9291010224
 30
0.0
 11
582.0418780522
 21
962.9291010224
 31
0.0
  0
ARC
  5
1FF
330
1F
100
AcDbEntity
  8
0
  6
Continuous
 62
     7
370
    15
100
AcDbCircle
 10
558.7390332894
 20
979.9291022741
 30
0.0
 40
5.0
100
AcDbArc
 50
260.4059317733
 51
270.0
  0
LINE
  5
200
330
1F
100
AcDbEntity
  8
0
  6
Continuous
 62
     7
370
    15
100
AcDbLine
 10
558.7390323953
 20
974.9291029894
 30
0.0
 11
582.0418780522
 21
974.9291029894
 31
0.0
  0
LINE
  5
201
330
1F
100
AcDbEntity
  8
0
  6
Continuous
 62
     7
370
    15
100
AcDbLine
 10
582.0418780522
 20
962.9291010224
 30
0.0
 11
584.8553364949
 21
962.9291010224
 31
0.0
  0
LINE
  5
202
330
1F
100
AcDbEntity
  8
0
  6
Continuous
 62
     7
370
    15
100
AcDbLine
 10
584.2926462965
 20
974.9291029894
 30
0.0
 11
582.0418780522
 21
974.9291029894
 31
0.0
  0
LINE
  5
203
330
1F
100
AcDbEntity
  8
0
  6
Continuous
 62
     7
370
    15
100
AcDbLine
 10
422.4323665576
 20
974.9291029894
 30
0.0
 11
453.1854202823
 21
974.9291029894
 31
0.0
  0
LINE
  5
204
330
1F
100
AcDbEntity
  8
0
  6
Continuous
 62
     7
370
    15
100
AcDbLine
 10
421.6057022886
 20
962.9291010224
 30
0.0
 11
452.6227300839
 21
962.9291010224
 31
0.0
  0
LINE
  5
205
330
1F
100
AcDbEntity
  8
0
  6
Continuous
 62
     7
370
    15
100
AcDbLine
 10
584.2926462965
 20
974.9291029894
 30
0.0
 11
615.0457000212
 21
974.9291029894
 31
0.0
  0
LINE
  5
206
330
1F
100
AcDbEntity
  8
0
  6
Continuous
 62
     7
370
    15
100
AcDbLine
 10
584.8553364949
 20
962.9291010224
 30
0.0
 11
615.8723642902
 21
962.9291010224
 31
0.0
  0
LINE
  5
207
330
1F
100
AcDbEntity
  8
0
  6
Continuous
 62
     7
370
    15
100
AcDbLine
 10
518.7390332894
 20
1042.4291021791
 30
0.0
 11
603.7390341835
 21
1042.4291021791
 31
0.0
  0
LINE
  5
208
330
1F
100
AcDbEntity
  8
0
  6
Continuous
 62
     7
370
    15
100
AcDbLine
 10
433.7390323953
 20
1042.4291021791
 30
0.0
 11
518.7390332894
 21
1042.4291021791
 31
0.0
  0
LINE
  5
209
330
1F
100
AcDbEntity
  8
0
  6
Continuous
 62
     7
370
    15
100
AcDbLine
 10
434.3293195443
 20
982.9291005754
 30
0.0
 11
434.3293195443
 21
979.9291056716
 31
0.0
  0
SPLINE
  5
20A
330
1F
100
AcDbEntity
  8
0
  6
Continuous
 62
     7
370
    15
100
AcDbSpline
210
0.0
220
0.0
230
1.0
 70
     8
 71
     3
 72
    12
 73
     8
 74
     0
 42
0.00000001
 43
0.00000001
 12
1.0
 22
0.0
 32
0.0
 13
1.0
 23
0.0
 33
0.0
 40
0.0
 40
0.0
 40
0.0
 40
0.0
 40
0.2136861424823697
 40
0.427336932556837
 40
0.6419056251328484
 40
0.8571008204194915
 40
1.0
 40
1.0
 40
1.0
 40
1.0
 10
433.7390323953218
 20
992.9291022145179
 30
0.0
 10
433.7522809024752
 20
992.819336530597
 30
0.0
 10
433.7787757249383
 20
992.5998233224786
 30
0.0
 10
433.9641048045683
 20
990.8889894415843
 30
0.0
 10
434.1695159719075
 20
988.3649119056186
 30
0.0
 10
434.3085416234666
 20
985.5467552935789
 30
0.0
 10
434.3233930252393
 20
983.6757383481387
 30
0.0
 10
434.3293195442743
 20
982.9291005753902
 30
0.0
  0
LINE
  5
20B
330
1F
100
AcDbEntity
  8
0
  6
Continuous
 62
     7
370
    15
100
AcDbLine
 10
493.7481300758
 20
959.9291023933
 30
0.0
 11
433.7390323953
 21
959.9291023933
 31
0.0
  0
LINE
  5
20C
330
1F
100
AcDbEntity
  8
0
  6
Continuous
 62
     7
370
    15
100
AcDbLine
 10
603.7390341835
 20
959.9291023933
 30
0.0
 11
543.729936503
 21
959.9291023933
 31
0.0
  0
SPLINE
  5
20D
330
1F
100
AcDbEntity
  8
0
  6
Continuous
 62
     7
370
    15
100
AcDbSpline
210
0.0
220
0.0
230
1.0
 70
     8
 71
     3
 72
    10
 73
     6
 74
     0
 42
0.00000001
 43
0.00000001
 12
1.0
 22
0.0
 32
0.0
 13
1.0
 23
0.0
 33
0.0
 40
0.0
 40
0.0
 40
0.0
 40
0.0
 40
0.3260316443037216
 40
0.6539888296213442
 40
0.9999999999999999
 40
0.9999999999999999
 40
0.9999999999999999
 40
0.9999999999999999
 10
528.739033065874
 20
959.6694571101095
 30
0.0
 10
530.3918072148515
 20
959.6203972388548
 30
0.0
 10
533.7071167874134
 20
959.5219877490281
 30
0.0
 10
538.7164273640675
 20
959.7805898526781
 30
0.0
 10
542.0291865168373
 20
959.8787219722607
 30
0.0
 10
543.7299365030116
 20
959.9291023933318
 30
0.0
  0
SPLINE
  5
20E
330
1F
100
AcDbEntity
  8
0
  6
Continuous
 62
     7
370
    15
100
AcDbSpline
210
0.0
220
0.0
230
1.0
 70
     8
 71
     3
 72
     9
 73
     5
 74
     0
 42
0.00000001
 43
0.00000001
 12
1.0
 22
0.0
 32
0.0
 13
1.0
 23
0.0
 33
0.0
 40
0.0
 40
0.0
 40
0.0
 40
0.0
 40
0.500076502830378
 40
1.0
 40
1.0
 40
1.0
 40
1.0
 10
508.7390335129089
 20
959.6694571101095
 30
0.0
 10
512.0728796490326
 20
959.748776631867
 30
0.0
 10
518.7395518826901
 20
959.9073914064237
 30
0.0
 10
525.4062126837596
 20
959.7487604517362
 30
0.0
 10
528.739033065874
 20
959.6694571101095
 30
0.0
  0
SPLINE
  5
20F
330
1F
100
AcDbEntity
  8
0
  6
Continuous
 62
     7
370
    15
100
AcDbSpline
210
0.0
220
0.0
230
1.0
 70
     8
 71
     3
 72
     9
 73
     5
 74
     0
 42
0.00000001
 43
0.00000001
 12
1.0
 22
0.0
 32
0.0
 13
1.0
 23
0.0
 33
0.0
 40
0.0
 40
0.0
 40
0.0
 40
0.0
 40
0.49811929036882
 40
1.0
 40
1.0
 40
1.0
 40
1.0
 10
493.7481300757713
 20
959.9291023933318
 30
0.0
 10
496.2003445570953
 20
959.8147516762556
 30
0.0
 10
501.1232907845107
 20
959.585186752176
 30
0.0
 10
506.1940947968137
 20
959.641296639861
 30
0.0
 10
508.7390335129089
 20
959.6694571101095
 30
0.0
  0
ARC
  5
210
330
1F
100
AcDbEntity
  8
0
  6
Continuous
 62
     7
370
    15
100
AcDbCircle
 10
482.7390332894
 20
954.9291022741
 30
0.0
 40
5.000000000000114
100
AcDbArc
 50
0.0
 51
90.0
  0
ARC
  5
211
330
1F
100
AcDbEntity
  8
0
  6
Continuous
 62
     7
370
    15
100
AcDbCircle
 10
554.7390332894
 20
954.9291022741
 30
0.0
 40
5.000000000000114
100
AcDbArc
 50
90.0
 51
180.0
  0
LINE
  5
212
330
1F
100
AcDbEntity
  8
0
  6
Continuous
 62
     7
370
    15
100
AcDbLine
 10
477.8067914621
 20
1044.4291022741
 30
0.0
 11
478.0228061454
 21
1044.4291022741
 31
0.0
  0
SPLINE
  5
213
330
1F
100
AcDbEntity
  8
0
  6
Continuous
 62
     7
370
    15
100
AcDbSpline
210
0.0
220
0.0
230
1.0
 70
     8
 71
     3
 72
    10
 73
     6
 74
     0
 42
0.00000001
 43
0.00000001
 12
1.0
 22
0.0
 32
0.0
 13
1.0
 23
0.0
 33
0.0
 40
0.0
 40
0.0
 40
0.0
 40
0.0
 40
0.1879999229574217
 40
0.644949106809525
 40
1.0
 40
1.0
 40
1.0
 40
1.0
 10
487.745649911601
 20
910.7299235784437
 30
0.0
 10
487.7446624030728
 20
910.4865987270208
 30
0.0
 10
487.7412746743272
 20
909.6518529296762
 30
0.0
 10
487.8031673111396
 20
908.1712463448293
 30
0.0
 10
487.8138909553657
 20
906.8356766869839
 30
0.0
 10
487.818579919774
 20
906.251692506018
 30
0.0
  0
LINE
  5
214
330
1F
100
AcDbEntity
  8
0
  6
Continuous
 62
     7
370
    15
100
AcDbLine
 10
487.739033796
 20
914.1159889423
 30
0.0
 11
487.739033796
 21
954.9290997111
 31
0.0
  0
SPLINE
  5
215
330
1F
100
AcDbEntity
  8
0
  6
Continuous
 62
     7
370
    15
100
AcDbSpline
210
0.0
220
0.0
230
1.0
 70
     8
 71
     3
 72
    11
 73
     7
 74
     0
 42
0.00000001
 43
0.00000001
 12
1.0
 22
0.0
 32
0.0
 13
1.0
 23
0.0
 33
0.0
 40
0.0
 40
0.0
 40
0.0
 40
0.0
 40
0.1463374205698969
 40
0.5263384904251815
 40
0.8492412723315965
 40
1.0
 40
1.0
 40
1.0
 40
1.0
 10
549.659486659009
 20
906.251692506018
 30
0.0
 10
549.6603648910017
 20
906.4923357642904
 30
0.0
 10
549.6635236681591
 20
907.3578683724015
 30
0.0
 10
549.6977604872358
 20
908.717417837952
 30
0.0
 10
549.7382443119328
 20
909.9248885178299
 30
0.0
 10
549.7345569933401
 20
910.5405989234852
 30
0.0
 10
549.7333833800144
 20
910.7365694963361
 30
0.0
  0
LINE
  5
216
330
1F
100
AcDbEntity
  8
0
  6
Continuous
 62
     7
370
    15
100
AcDbLine
 10
549.7390327828
 20
954.9290997111
 30
0.0
 11
549.7390327828
 21
914.1159889423
 31
0.0
  0
LINE
  5
217
330
1F
100
AcDbEntity
  8
0
  6
Continuous
 62
     7
370
    15
100
AcDbLine
 10
433.7390323953
 20
977.5799525105
 30
0.0
 11
433.7390323953
 21
977.895872029
 31
0.0
  0
SPLINE
  5
218
330
1F
100
AcDbEntity
  8
0
  6
Continuous
 62
     7
370
    15
100
AcDbSpline
210
0.0
220
0.0
230
1.0
 70
     8
 71
     3
 72
    13
 73
     9
 74
     0
 42
0.00000001
 43
0.00000001
 12
1.0
 22
0.0
 32
0.0
 13
1.0
 23
0.0
 33
0.0
 40
0.0
 40
0.0
 40
0.0
 40
0.0
 40
0.3480873118148666
 40
0.5518480238652421
 40
0.7027909647123962
 40
0.8174990752532293
 40
0.9329441599186852
 40
1.0
 40
1.0
 40
1.0
 40
1.0
 10
434.3293195442743
 20
979.9291056715873
 30
0.0
 10
434.306758021048
 20
979.5883303589027
 30
0.0
 10
434.2709896043743
 20
979.0480745767929
 30
0.0
 10
434.0689556509436
 20
978.4315027371114
 30
0.0
 10
433.9138249618268
 20
978.0942946696347
 30
0.0
 10
433.8015528191918
 20
977.9119960108005
 30
0.0
 10
433.7458136165129
 20
977.8568409745196
 30
0.0
 10
433.740854507754
 20
977.8853843944629
 30
0.0
 10
433.7390323953218
 20
977.8958720290091
 30
0.0
  0
SPLINE
  5
219
330
1F
100
AcDbEntity
  8
0
  6
Continuous
 62
     7
370
    15
100
AcDbSpline
210
0.0
220
0.0
230
1.0
 70
     8
 71
     3
 72
    12
 73
     8
 74
     0
 42
0.00000001
 43
0.00000001
 12
1.0
 22
0.0
 32
0.0
 13
1.0
 23
0.0
 33
0.0
 40
0.0
 40
0.0
 40
0.0
 40
0.0
 40
0.1481788132036227
 40
0.3387607219042828
 40
0.6517194190050905
 40
0.9646365149203509
 40
1.0
 40
1.0
 40
1.0
 40
1.0
 10
433.7390323953218
 20
977.5799525105383
 30
0.0
 10
433.6013699931651
 20
977.3500296395155
 30
0.0
 10
433.2866514870207
 20
976.8243887865077
 30
0.0
 10
432.4646948694656
 20
975.9677068446081
 30
0.0
 10
431.1833288842828
 20
975.1899102175552
 30
0.0
 10
429.988517245194
 20
974.9375262113856
 30
0.0
 10
429.3601168926409
 20
974.9298794238707
 30
0.0
 10
429.2963107900209
 20
974.9291029893782
 30
0.0
  0
ARC
  5
21A
330
1F
100
AcDbEntity
  8
0
  6
Continuous
 62
     7
370
    15
100
AcDbCircle
 10
421.7390332894
 20
973.9291022741
 30
0.0
 40
1.000000000000114
100
AcDbArc
 50
90.0
 51
180.0
  0
LINE
  5
21B
330
1F
100
AcDbEntity
  8
0
  6
Continuous
 62
     7
370
    15
100
AcDbLine
 10
422.4323665576
 20
974.9291029894
 30
0.0
 11
421.7390304284
 21
974.9291029894
 31
0.0
  0
LINE
  5
21C
330
1F
100
AcDbEntity
  8
0
  6
Continuous
 62
     7
370
    15
100
AcDbLine
 10
420.7390358524
 20
962.9291010224
 30
0.0
 11
420.7390358524
 21
973.9291009628
 31
0.0
  0
LINE
  5
21D
330
1F
100
AcDbEntity
  8
0
  6
Continuous
 62
     7
370
    15
100
AcDbLine
 10
420.7390358524
 20
962.9291010224
 30
0.0
 11
421.6057022886
 21
962.9291010224
 31
0.0
  0
ARC
  5
21E
330
1F
100
AcDbEntity
  8
0
  6
Continuous
 62
     7
370
    15
100
AcDbCircle
 10
615.7390332894
 20
973.9291022741
 30
0.0
 40
1.000000000000114
100
AcDbArc
 50
0.0
 51
90.0
  0
LINE
  5
21F
330
1F
100
AcDbEntity
  8
0
  6
Continuous
 62
     7
370
    15
100
AcDbLine
 10
615.7390361504
 20
974.9291029894
 30
0.0
 11
615.0457000212
 21
974.9291029894
 31
0.0
  0
LINE
  5
220
330
1F
100
AcDbEntity
  8
0
  6
Continuous
 62
     7
370
    15
100
AcDbLine
 10
616.7390307264
 20
973.9291009628
 30
0.0
 11
616.7390307264
 21
962.9291010224
 31
0.0
  0
LINE
  5
221
330
1F
100
AcDbEntity
  8
0
  6
Continuous
 62
     7
370
    15
100
AcDbLine
 10
615.8723642902
 20
962.9291010224
 30
0.0
 11
616.7390307264
 21
962.9291010224
 31
0.0
  0
SPLINE
  5
222
330
1F
100
AcDbEntity
  8
0
  6
Continuous
 62
     7
370
    15
100
AcDbSpline
210
0.0
220
0.0
230
1.0
 70
    24
 71
     3
 72
    13
 73
     9
 74
     0
 42
0.00000001
 43
0.00000001
 12
1.0
 22
0.0
 32
0.0
 13
1.0
 23
0.0
 33
0.0
 40
0.0
 40
0.0
 40
0.0
 40
0.0
 40
0.1763122656327779
 40
0.3821577881109702
 40
0.5902275840100837
 40
0.7237319837287812
 40
0.9311491081014501
 40
1.0
 40
1.0
 40
1.0
 40
1.0
 10
548.4534909801072
 20
892.4291071617033
 30
0.0
 10
548.4500630078411
 20
892.4291071617033
 30
0.0
 10
548.4426328594379
 20
892.4291071617033
 30
0.0
 10
548.3066286914807
 20
892.4291071617033
 30
0.0
 10
548.1013620126744
 20
892.4291071617033
 30
0.0
 10
547.8439087198911
 20
892.4291071617033
 30
0.0
 10
547.623157778544
 20
892.4291071617033
 30
0.0
 10
547.4716280271319
 20
892.4291071617033
 30
0.0
 10
547.4338641242571
 20
892.4291071617033
 30
0.0
  0
SPLINE
  5
223
330
1F
100
AcDbEntity
  8
0
  6
Continuous
 62
     7
370
    15
100
AcDbSpline
210
0.0
220
0.0
230
1.0
 70
    24
 71
     3
 72
    13
 73
     9
 74
     0
 42
0.00000001
 43
0.00000001
 12
1.0
 22
0.0
 32
0.0
 13
1.0
 23
0.0
 33
0.0
 40
0.0
 40
0.0
 40
0.0
 40
0.0
 40
0.1501686597888547
 40
0.2766584352110026
 40
0.4861920418628779
 40
0.6957270001552621
 40
0.9049120238845348
 40
1.0
 40
1.0
 40
1.0
 40
1.0
 10
490.0442024545259
 20
892.4291071617033
 30
0.0
 10
489.9615893385292
 20
892.4291071617033
 30
0.0
 10
489.8093897022558
 20
892.4291071617033
 30
0.0
 10
489.5571029512018
 20
892.4291071617033
 30
0.0
 10
489.3077917291438
 20
892.4291071617034
 30
0.0
 10
489.1061404506165
 20
892.4291071617033
 30
0.0
 10
489.0240393867959
 20
892.4291071617033
 30
0.0
 10
489.0244479264556
 20
892.4291071617033
 30
0.0
 10
489.0245755986757
 20
892.4291071617033
 30
0.0
  0
LINE
  5
224
330
1F
100
AcDbEntity
  8
0
  6
Continuous
 62
     7
370
    15
100
AcDbLine
 10
494.1071530656
 20
892.4291071617
 30
0.0
 11
490.0442024545
 21
892.4291071617
 31
0.0
  0
LINE
  5
225
330
1F
100
AcDbEntity
  8
0
  6
Continuous
 62
     7
370
    15
100
AcDbLine
 10
547.4338641243
 20
892.4291071617
 30
0.0
 11
543.3709135131
 21
892.4291071617
 31
0.0
  0
LINE
  5
226
330
1F
100
AcDbEntity
  8
0
  6
Continuous
 62
     7
370
    15
100
AcDbLine
 10
495.261773266
 20
889.429101082
 30
0.0
 11
542.2162933127
 21
889.429101082
 31
0.0
  0
SPLINE
  5
227
330
1F
100
AcDbEntity
  8
0
  6
Continuous
 62
     7
370
    15
100
AcDbSpline
210
0.0
220
0.0
230
1.0
 70
     8
 71
     3
 72
     9
 73
     5
 74
     0
 42
0.00000001
 43
0.00000001
 12
1.0
 22
0.0
 32
0.0
 13
1.0
 23
0.0
 33
0.0
 40
0.0
 40
0.0
 40
0.0
 40
0.0
 40
0.9602903390045818
 40
1.0
 40
1.0
 40
1.0
 40
1.0
 10
549.7818102912491
 20
912.7438900195982
 30
0.0
 10
549.7891571078101
 20
912.6430063287942
 30
0.0
 10
549.7968077279012
 20
912.5379509234587
 30
0.0
 10
549.8059270486643
 20
912.4332602216562
 30
0.0
 10
549.8062891738003
 20
912.4291029893782
 30
0.0
  0
SPLINE
  5
228
330
1F
100
AcDbEntity
  8
0
  6
Continuous
 62
     7
370
    15
100
AcDbSpline
210
0.0
220
0.0
230
1.0
 70
     8
 71
     3
 72
     9
 73
     5
 74
     0
 42
0.00000001
 43
0.00000001
 12
1.0
 22
0.0
 32
0.0
 13
1.0
 23
0.0
 33
0.0
 40
0.0
 40
0.0
 40
0.0
 40
0.0
 40
0.0397096609954181
 40
1.0
 40
1.0
 40
1.0
 40
1.0
 10
487.6717774049825
 20
912.4291029893782
 30
0.0
 10
487.6721395301186
 20
912.4332602216562
 30
0.0
 10
487.6812588508816
 20
912.5379509234587
 30
0.0
 10
487.6889094709728
 20
912.6430063287942
 30
0.0
 10
487.6962562875337
 20
912.7438900195982
 30
0.0
  0
LINE
  5
229
330
1F
100
AcDbEntity
  8
0
  6
Continuous
 62
     7
370
    15
100
AcDbLine
 10
466.5854124205
 20
907.4291077577
 30
0.0
 11
475.0563165025
 21
907.4291077577
 31
0.0
  0
LINE
  5
22A
330
1F
100
AcDbEntity
  8
0
  6
Continuous
 62
     7
370
    15
100
AcDbLine
 10
489.0245755987
 20
892.4291071617
 30
0.0
 11
466.5854124205
 21
892.4291071617
 31
0.0
  0
LINE
  5
22B
330
1F
100
AcDbEntity
  8
0
  6
Continuous
 62
     7
370
    15
100
AcDbLine
 10
475.0563165025
 20
907.4291077577
 30
0.0
 11
478.5901864843
 21
907.4851659262
 31
0.0
  0
LINE
  5
22C
330
1F
100
AcDbEntity
  8
0
  6
Continuous
 62
     7
370
    15
100
AcDbLine
 10
570.8926541583
 20
892.4291071617
 30
0.0
 11
548.4534909801
 21
892.4291071617
 31
0.0
  0
SPLINE
  5
22D
330
1F
100
AcDbEntity
  8
0
  6
Continuous
 62
     7
370
    15
100
AcDbSpline
210
0.0
220
0.0
230
1.0
 70
     8
 71
     3
 72
     9
 73
     5
 74
     0
 42
0.00000001
 43
0.00000001
 12
1.0
 22
0.0
 32
0.0
 13
1.0
 23
0.0
 33
0.0
 40
0.0
 40
0.0
 40
0.0
 40
0.0
 40
0.0121299082735693
 40
0.9999999999999999
 40
0.9999999999999999
 40
0.9999999999999999
 40
0.9999999999999999
 10
558.8878800944871
 20
907.485165926161
 30
0.0
 10
558.9022215434271
 20
907.4851273373353
 30
0.0
 10
560.0845428451664
 20
907.4819460415761
 30
0.0
 10
561.2602772358663
 20
907.4553656910562
 30
0.0
 10
562.4217500762529
 20
907.4291077577499
 30
0.0
  0
LINE
  5
22E
330
1F
100
AcDbEntity
  8
0
  6
Continuous
 62
     7
370
    15
100
AcDbLine
 10
562.4217500763
 20
907.4291077577
 30
0.0
 11
570.8926541583
 21
907.4291077577
 31
0.0
  0
LINE
  5
22F
330
1F
100
AcDbEntity
  8
0
  6
Continuous
 62
     7
370
    15
100
AcDbLine
 10
459.5238825159
 20
907.4291077577
 30
0.0
 11
466.5854124205
 21
907.4291077577
 31
0.0
  0
LINE
  5
230
330
1F
100
AcDbEntity
  8
0
  6
Continuous
 62
     7
370
    15
100
AcDbLine
 10
466.5854124205
 20
892.4291071617
 30
0.0
 11
459.5238825159
 21
892.4291071617
 31
0.0
  0
LINE
  5
231
330
1F
100
AcDbEntity
  8
0
  6
Continuous
 62
     7
370
    15
100
AcDbLine
 10
570.8926541583
 20
907.4291077577
 30
0.0
 11
577.9541840629
 21
907.4291077577
 31
0.0
  0
LINE
  5
232
330
1F
100
AcDbEntity
  8
0
  6
Continuous
 62
     7
370
    15
100
AcDbLine
 10
577.9541840629
 20
892.4291071617
 30
0.0
 11
570.8926541583
 21
892.4291071617
 31
0.0
  0
LINE
  5
233
330
1F
100
AcDbEntity
  8
0
  6
Continuous
 62
     7
370
    15
100
AcDbLine
 10
487.739033796
 20
914.1159889423
 30
0.0
 11
487.739033796
 21
913.3950558626
 31
0.0
  0
LINE
  5
234
330
1F
100
AcDbEntity
  8
0
  6
Continuous
 62
     7
370
    15
100
AcDbLine
 10
549.7390327828
 20
913.3950558626
 30
0.0
 11
549.7390327828
 21
914.1159889423
 31
0.0
  0
LINE
  5
235
330
1F
100
AcDbEntity
  8
0
  6
Continuous
 62
     7
370
    15
100
AcDbLine
 10
495.261773266
 20
889.429101082
 30
0.0
 11
474.6557732896
 21
889.429101082
 31
0.0
  0
LINE
  5
236
330
1F
100
AcDbEntity
  8
0
  6
Continuous
 62
     7
370
    15
100
AcDbLine
 10
562.8222932891
 20
889.429101082
 30
0.0
 11
542.2162933127
 21
889.429101082
 31
0.0
  0
ARC
  5
237
330
1F
100
AcDbEntity
  8
0
  6
Continuous
 62
     7
370
    15
100
AcDbCircle
 10
471.7390332894
 20
954.9291022741
 30
0.0
 40
5.000000000000114
100
AcDbArc
 50
0.0
 51
90.0
  0
ARC
  5
238
330
1F
100
AcDbEntity
  8
0
  6
Continuous
 62
     7
370
    15
100
AcDbCircle
 10
565.7390332894
 20
954.9291022741
 30
0.0
 40
5.000000000000114
100
AcDbArc
 50
90.0
 51
180.0
  0
ARC
  5
239
330
1F
100
AcDbEntity
  8
0
  6
Continuous
 62
     7
370
    15
100
AcDbCircle
 10
565.7390332894
 20
912.4291022741
 30
0.0
 40
5.0
100
AcDbArc
 50
180.0
 51
270.0
  0
ARC
  5
23A
330
1F
100
AcDbEntity
  8
0
  6
Continuous
 62
     7
370
    15
100
AcDbCircle
 10
471.7390332894
 20
912.4291022741
 30
0.0
 40
5.0
100
AcDbArc
 50
270.0
 51
0.0
  0
LINE
  5
23B
330
1F
100
AcDbEntity
  8
0
  6
Continuous
 62
     7
370
    15
100
AcDbLine
 10
476.7390338556
 20
912.4291029894
 30
0.0
 11
476.7390338556
 21
919.4291022741
 31
0.0
  0
LINE
  5
23C
330
1F
100
AcDbEntity
  8
0
  6
Continuous
 62
     7
370
    15
100
AcDbLine
 10
476.7390338556
 20
949.4291034662
 30
0.0
 11
476.7390338556
 21
954.9290997111
 31
0.0
  0
LINE
  5
23D
330
1F
100
AcDbEntity
  8
0
  6
Continuous
 62
     7
370
    15
100
AcDbLine
 10
560.7390327231
 20
954.9290997111
 30
0.0
 11
560.7390327231
 21
949.4291034662
 31
0.0
  0
LINE
  5
23E
330
1F
100
AcDbEntity
  8
0
  6
Continuous
 62
     7
370
    15
100
AcDbLine
 10
560.7390327231
 20
919.4291022741
 30
0.0
 11
560.7390327231
 21
912.4291029894
 31
0.0
  0
SPLINE
  5
23F
330
1F
100
AcDbEntity
  8
0
  6
Continuous
 62
     7
370
    15
100
AcDbSpline
210
0.0
220
0.0
230
1.0
 70
     8
 71
     3
 72
    11
 73
     7
 74
     0
 42
0.00000001
 43
0.00000001
 12
1.0
 22
0.0
 32
0.0
 13
1.0
 23
0.0
 33
0.0
 40
0.0
 40
0.0
 40
0.0
 40
0.0
 40
0.0569212002089813
 40
0.3441788385940924
 40
0.6704432526947283
 40
1.0
 40
1.0
 40
1.0
 40
1.0
 10
469.719983436305
 20
907.4291077577499
 30
0.0
 10
469.7913857399835
 20
907.4298984086114
 30
0.0
 10
470.2231257922448
 20
907.4346791457414
 30
0.0
 10
471.0907368894308
 20
907.5308243741208
 30
0.0
 10
472.2789094590747
 20
907.7503141345966
 30
0.0
 10
472.9633355949327
 20
907.8120725118298
 30
0.0
 10
473.3072666303701
 20
907.8431067191984
 30
0.0
  0
SPLINE
  5
240
330
1F
100
AcDbEntity
  8
0
  6
Continuous
 62
     7
370
    15
100
AcDbSpline
210
0.0
220
0.0
230
1.0
 70
     8
 71
     3
 72
    11
 73
     7
 74
     0
 42
0.00000001
 43
0.00000001
 12
1.0
 22
0.0
 32
0.0
 13
1.0
 23
0.0
 33
0.0
 40
0.0
 40
0.0
 40
0.0
 40
0.0
 40
0.1999365297294798
 40
0.5203437439462218
 40
0.8701210386182124
 40
1.0
 40
1.0
 40
1.0
 40
1.0
 10
564.1707999484128
 20
907.8431067191983
 30
0.0
 10
564.3731446821017
 20
907.8289346485316
 30
0.0
 10
564.8997558843566
 20
907.792051201969
 30
0.0
 10
565.9513043592694
 20
907.6077120023406
 30
0.0
 10
566.9889006104459
 20
907.4479050032959
 30
0.0
 10
567.5941867415552
 20
907.433113050075
 30
0.0
 10
567.758083142478
 20
907.4291077577499
 30
0.0
  0
LINE
  5
241
330
1F
100
AcDbEntity
  8
0
  6
Continuous
 62
     7
370
    15
100
AcDbLine
 10
459.7390329318
 20
917.429098221
 30
0.0
 11
476.8617523686
 21
917.429098221
 31
0.0
  0
LINE
  5
242
330
1F
100
AcDbEntity
  8
0
  6
Continuous
 62
     7
370
    15
100
AcDbLine
 10
560.6163142101
 20
917.429098221
 30
0.0
 11
577.739033647
 21
917.429098221
 31
0.0
  0
LINE
  5
243
330
1F
100
AcDbEntity
  8
0
  6
Continuous
 62
     7
370
    15
100
AcDbLine
 10
433.7390323953
 20
977.895872029
 30
0.0
 11
433.7390323953
 21
982.9291005754
 31
0.0
  0
SPLINE
  5
244
330
1F
100
AcDbEntity
  8
0
  6
Continuous
 62
     7
370
    15
100
AcDbSpline
210
0.0
220
0.0
230
1.0
 70
    24
 71
     3
 72
    18
 73
    14
 74
     0
 42
0.00000001
 43
0.00000001
 12
1.0
 22
0.0
 32
0.0
 13
1.0
 23
0.0
 33
0.0
 40
0.0
 40
0.0
 40
0.0
 40
0.0
 40
0.2084366230287952
 40
0.3358725520820302
 40
0.4676563978554601
 40
0.7094216612868611
 40
0.7862625871579997
 40
0.8570417290472295
 40
0.9178691314121343
 40
0.9639637127485716
 40
0.9799627064965402
 40
0.9959702846285432
 40
1.0
 40
1.0
 40
1.0
 40
1.0
 10
433.7390323953218
 20
982.9291005753902
 30
0.0
 10
433.7390323953218
 20
983.9268006520842
 30
0.0
 10
433.7390323953218
 20
985.5344839185963
 30
0.0
 10
433.7390323953218
 20
987.6051302774883
 30
0.0
 10
433.7390323953218
 20
989.6211789545087
 30
0.0
 10
433.7390323953218
 20
991.0981105467316
 30
0.0
 10
433.7390323953218
 20
992.0108781130826
 30
0.0
 10
433.7390323953218
 20
992.4075316345617
 30
0.0
 10
433.7390323953217
 20
992.6709962447461
 30
0.0
 10
433.7390323953218
 20
992.81000092951
 30
0.0
 10
433.7390323953218
 20
992.8819041434399
 30
0.0
 10
433.7390323953218
 20
992.9112996842921
 30
0.0
 10
433.7390323953218
 20
992.9261214066379
 30
0.0
 10
433.7390323953218
 20
992.9291022145179
 30
0.0
  0
LINE
  5
245
330
1F
100
AcDbEntity
  8
0
  6
Continuous
 62
     7
370
    15
100
AcDbLine
 10
623.5387360529
 20
1198.8621887886
 30
0.0
 11
647.7720623688
 21
1129.9329635822
 31
0.0
  0
LINE
  5
246
330
1F
100
AcDbEntity
  8
0
  6
Continuous
 62
     7
370
    15
100
AcDbLine
 10
650.7179921345
 20
1125.2345007979
 30
0.0
 11
661.4331042246
 21
1125.2345007979
 31
0.0
  0
LWPOLYLINE
  5
247
330
1F
100
AcDbEntity
  8
0
  6
Continuous
 62
     7
370
    15
100
AcDbPolyline
 90
        9
 70
   128
 43
0.0
 10
647.7720623688
 20
1129.9329635822
 10
648.1191849188
 20
1129.0163410031
 10
648.5026961045
 20
1128.1349447691
 10
648.9078735785
 20
1127.3226377689
 10
649.3191158251
 20
1126.6106528365
 10
649.7206425147
 20
1126.0263336026
 10
650.0970160441
 20
1125.5921510183
 10
650.4337822871
 20
1125.324779483
 10
650.7179921345
 20
1125.2345007979
  0
ELLIPSE
  5
248
330
1F
100
AcDbEntity
  8
0
  6
Continuous
 62
     7
370
    15
100
AcDbEllipse
 10
624.8328312753
 20
1198.8621960001
 30
0.0
 11
-2.224872611388377
 21
4.976474228213418
 31
0.0
210
0.0
220
0.0
230
1.0
 40
0.2177485805
 41
6.186140485162468
 42
7.756936811957288
  0
LWPOLYLINE
  5
249
330
1F
100
AcDbEntity
  8
0
  6
Continuous
 62
     7
370
    15
100
AcDbPolyline
 90
        9
 70
   128
 43
0.0
 10
650.880086966
 20
1198.8621887886
 10
650.904957004
 20
1199.8376486027
 10
650.9785985426
 20
1200.7756170952
 10
651.0981952624
 20
1201.6400483572
 10
651.2591278033
 20
1202.3977277004
 10
651.4552270846
 20
1203.0195382559
 10
651.6789531188
 20
1203.4815934622
 10
651.9217228369
 20
1203.766116234
 10
652.174193211
 20
1203.8621989214
  0
LINE
  5
24A
330
1F
100
AcDbEntity
  8
0
  6
Continuous
 62
     7
370
    15
100
AcDbLine
 10
650.880086966
 20
1131.1041054451
 30
0.0
 11
650.880086966
 21
1198.8621887886
 31
0.0
  0
ELLIPSE
  5
24B
330
1F
100
AcDbEntity
  8
0
  6
Continuous
 62
     7
370
    15
100
AcDbEllipse
 10
652.1741890045
 20
1131.1041017748
 30
0.0
 11
-0.7054376055668854
 21
5.06883659065852
 31
0.0
210
0.0
220
0.0
230
1.0
 40
0.250605517
 41
1.535933311782762
 42
3.106729638577589
  0
INSERT
  5
257
330
1F
100
AcDbEntity
  8
SLD-0
 62
     7
100
AcDbBlockReference
  2
SW_CENTERMARKSYMBOL_0
 10
518.7390332894
 20
1002.9291022741
 30
0.0
  0
LINE
  5
258
330
1F
100
AcDbEntity
  8
0
  6
Continuous
 62
     7
370
    15
100
AcDbLine
 10
616.7390307264
 20
493.9133881497
 30
0.0
 11
621.763702281
 21
495.2597434538
 31
0.0
  0
LINE
  5
259
330
1F
100
AcDbEntity
  8
0
  6
Continuous
 62
     7
370
    15
100
AcDbLine
 10
621.763702281
 20
495.2597434538
 30
0.0
 11
622.4708070831
 21
496.4844880531
 31
0.0
  0
LINE
  5
25A
330
1F
100
AcDbEntity
  8
0
  6
Continuous
 62
     7
370
    15
100
AcDbLine
 10
629.6787297206
 20
490.1336350384
 30
0.0
 11
627.7726104335
 21
489.6228933147
 31
0.0
  0
LINE
  5
25B
330
1F
100
AcDbEntity
  8
0
  6
Continuous
 62
     7
370
    15
100
AcDbLine
 10
628.8078909592
 20
485.759190088
 30
0.0
 11
630.7140027957
 21
486.2699318117
 31
0.0
  0
LINE
  5
25C
330
1F
100
AcDbEntity
  8
0
  6
Continuous
 62
     7
370
    15
100
AcDbLine
 10
659.322578259
 20
498.0766799207
 30
0.0
 11
657.8359341101
 21
497.6783336977
 31
0.0
  0
LINE
  5
25D
330
1F
100
AcDbEntity
  8
0
  6
Continuous
 62
     7
370
    15
100
AcDbLine
 10
658.8712071852
 20
493.8146307039
 30
0.0
 11
660.3206729369
 21
494.2030164319
 31
0.0
  0
LINE
  5
25E
330
1F
100
AcDbEntity
  8
0
  6
Continuous
 62
     7
370
    15
100
AcDbLine
 10
665.8930962758
 20
493.6255899164
 30
0.0
 11
666.2369554715
 21
493.71772659
 31
0.0
  0
LINE
  5
25F
330
1F
100
AcDbEntity
  8
0
  6
Continuous
 62
     7
370
    15
100
AcDbLine
 10
664.3213813977
 20
501.4350375066
 30
0.0
 11
664.2015015559
 21
501.4280442054
 31
0.0
  0
LINE
  5
260
330
1F
100
AcDbEntity
  8
0
  6
Continuous
 62
     7
370
    15
100
AcDbLine
 10
666.2369554715
 20
493.71772659
 30
0.0
 11
666.4309387879
 21
493.8183932471
 31
0.0
  0
ARC
  5
261
330
1F
100
AcDbEntity
  8
0
  6
Continuous
 62
     7
370
    15
100
AcDbCircle
 10
660.7135156864
 20
496.3788293547
 30
0.0
 40
6.50000000000003
100
AcDbArc
 50
343.9823638146
 51
46.0176361854
  0
LINE
  5
262
330
1F
100
AcDbEntity
  8
0
  6
Continuous
 62
     7
370
    15
100
AcDbLine
 10
644.1561763959
 20
554.0588719676
 30
0.0
 11
642.8244223671
 21
553.7020338605
 31
0.0
  0
LINE
  5
263
330
1F
100
AcDbEntity
  8
0
  6
Continuous
 62
     7
370
    15
100
AcDbLine
 10
643.8597028927
 20
549.838330401
 30
0.0
 11
645.3463470416
 21
550.2366756926
 31
0.0
  0
LINE
  5
264
330
1F
100
AcDbEntity
  8
0
  6
Continuous
 62
     7
370
    15
100
AcDbLine
 10
649.1549050288
 20
557.4688313435
 30
0.0
 11
648.4400218205
 21
557.2772843669
 31
0.0
  0
LINE
  5
265
330
1F
100
AcDbEntity
  8
0
  6
Continuous
 62
     7
370
    15
100
AcDbLine
 10
649.3098771052
 20
557.4587358068
 30
0.0
 11
649.1899972634
 21
557.4517397116
 31
0.0
  0
LINE
  5
266
330
1F
100
AcDbEntity
  8
0
  6
Continuous
 62
     7
370
    15
100
AcDbLine
 10
651.225451179
 20
549.7414244245
 30
0.0
 11
651.4194344954
 21
549.8420929442
 31
0.0
  0
ARC
  5
267
330
1F
100
AcDbEntity
  8
0
  6
Continuous
 62
     7
370
    15
100
AcDbCircle
 10
645.7020110704
 20
552.4025272795
 30
0.0
 40
6.50000000000006
100
AcDbArc
 50
343.9823638146
 51
46.0176361854
  0
LINE
  5
268
330
1F
100
AcDbEntity
  8
0
  6
Continuous
 62
     7
370
    15
100
AcDbLine
 10
656.59553165
 20
536.4462284277
 30
0.0
 11
656.5472369866
 21
536.4332867692
 31
0.0
  0
LINE
  5
269
330
1F
100
AcDbEntity
  8
0
  6
Continuous
 62
     7
370
    15
100
AcDbLine
 10
662.1211355404
 20
515.6312080006
 30
0.0
 11
662.1694302039
 21
515.6441496591
 31
0.0
  0
LINE
  5
26A
330
1F
100
AcDbEntity
  8
0
  6
Continuous
 62
     7
370
    15
100
AcDbLine
 10
621.8237614111
 20
498.899303181
 30
0.0
 11
623.755607553
 21
499.4169406499
 31
0.0
  0
LINE
  5
26B
330
1F
100
AcDbEntity
  8
0
  6
Continuous
 62
     7
370
    15
100
AcDbLine
 10
665.4789185004
 20
496.6204387973
 30
0.0
 11
650.2085959391
 21
553.6100638936
 31
0.0
  0
SPLINE
  5
26C
330
1F
100
AcDbEntity
  8
0
  6
Continuous
 62
     7
370
    15
100
AcDbSpline
210
0.0
220
0.0
230
1.0
 70
     8
 71
     3
 72
    15
 73
    11
 74
     0
 42
0.00000001
 43
0.00000001
 12
1.0
 22
0.0
 32
0.0
 13
1.0
 23
0.0
 33
0.0
 40
0.0
 40
0.0
 40
0.0
 40
0.0
 40
0.0815960835674077
 40
0.2376380382448957
 40
0.3974095161241732
 40
0.567245767982673
 40
0.7066727845856429
 40
0.822227583650362
 40
0.9331897101694326
 40
1.0
 40
1.0
 40
1.0
 40
1.0
 10
650.2085959391183
 20
553.6100638936055
 30
0.0
 10
650.1475137157564
 20
553.8249977254322
 30
0.0
 10
649.9696196417187
 20
554.4509647071147
 30
0.0
 10
649.5872531597656
 20
555.4502534453168
 30
0.0
 10
649.0362425296155
 20
556.5250266457374
 30
0.0
 10
648.4218665950829
 20
557.3716598381054
 30
0.0
 10
647.7505336755257
 20
557.9729357974751
 30
0.0
 10
647.0240728472922
 20
558.329642913857
 30
0.0
 10
646.33644737566
 20
558.4345336446388
 30
0.0
 10
645.9245807360803
 20
558.3525644916907
 30
0.0
 10
645.7697933392113
 20
558.3217589090358
 30
0.0
  0
SPLINE
  5
26D
330
1F
100
AcDbEntity
  8
0
  6
Continuous
 62
     7
370
    15
100
AcDbSpline
210
0.0
220
0.0
230
1.0
 70
     8
 71
     3
 72
    15
 73
    11
 74
     0
 42
0.00000001
 43
0.00000001
 12
1.0
 22
0.0
 32
0.0
 13
1.0
 23
0.0
 33
0.0
 40
0.0
 40
0.0
 40
0.0
 40
0.0
 40
0.1127077152979927
 40
0.2198721143438109
 40
0.3293854007641287
 40
0.4560119814721996
 40
0.6132192598908736
 40
0.7803863570347408
 40
0.9394144899955937
 40
1.0
 40
1.0
 40
1.0
 40
1.0
 10
663.9906501249857
 20
490.3205838425797
 30
0.0
 10
664.2402434919285
 20
490.4176785472826
 30
0.0
 10
664.7271544471445
 20
490.6070925368943
 30
0.0
 10
665.2544110269168
 20
491.1635236543688
 30
0.0
 10
665.6106944938213
 20
491.8144370963169
 30
0.0
 10
665.8340927597212
 20
492.6203635672103
 30
0.0
 10
665.9220462144605
 20
493.6331152738989
 30
0.0
 10
665.847894714759
 20
494.8443390025068
 30
0.0
 10
665.6689616336027
 20
495.8774137963254
 30
0.0
 10
665.5200102025768
 20
496.4597796798244
 30
0.0
 10
665.4789185003823
 20
496.6204387972843
 30
0.0
  0
LWPOLYLINE
  5
26E
330
1F
100
AcDbEntity
  8
0
  6
Continuous
 62
     7
370
    15
100
AcDbPolyline
 90
       14
 70
   128
 43
0.0
 10
621.763702281
 20
495.2597434538
 10
621.7521389799
 20
495.3028841781
 10
621.6599752979
 20
495.6468537356
 10
621.4772870617
 20
496.3286545033
 10
621.2073376255
 20
497.336120149
 10
620.8549400644
 20
498.6512724216
 10
620.426390119
 20
500.2506410609
 10
619.9293320851
 20
502.1056875492
 10
619.3726396041
 20
504.1833070944
 10
618.7662368493
 20
506.446424676
 10
618.1209569649
 20
508.8546553532
 10
617.4483036475
 20
511.3650241772
 10
616.7602872328
 20
513.9327326695
 10
616.7390307264
 20
514.0120571385
  0
LWPOLYLINE
  5
26F
330
1F
100
AcDbEntity
  8
0
  6
Continuous
 62
     7
370
    15
100
AcDbPolyline
 90
       14
 70
   128
 43
0.0
 10
616.7390307264
 20
517.8757587353
 10
617.2176560239
 20
516.089504389
 10
617.8888341264
 20
513.5846545825
 10
618.5537537412
 20
511.1031344066
 10
619.2000394539
 20
508.6911709885
 10
619.8156436758
 20
506.3936931918
 10
620.3891074137
 20
504.2535008768
 10
620.9097390847
 20
502.3104602377
 10
621.3678529338
 20
500.6007671262
 10
621.7549031453
 20
499.1562690492
 10
622.0636850075
 20
498.003875641
 10
622.288454123
 20
497.1650520245
 10
622.4250083642
 20
496.6554248611
 10
622.4708070831
 20
496.4844880531
  0
LINE
  5
270
330
1F
100
AcDbEntity
  8
0
  6
Continuous
 62
     7
370
    15
100
AcDbLine
 10
559.6350056903
 20
440.4741002152
 30
0.0
 11
563.3996648566
 21
446.599736614
 31
0.0
  0
LINE
  5
271
330
1F
100
AcDbEntity
  8
0
  6
Continuous
 62
     7
370
    15
100
AcDbLine
 10
570.5869531111
 20
446.4022701512
 30
0.0
 11
574.0095821993
 21
440.079159839
 31
0.0
  0
LINE
  5
272
330
1F
100
AcDbEntity
  8
0
  6
Continuous
 62
     7
370
    15
100
AcDbLine
 10
574.0095821993
 20
440.079159839
 30
0.0
 11
570.244923033
 21
433.9535197149
 31
0.0
  0
LINE
  5
273
330
1F
100
AcDbEntity
  8
0
  6
Continuous
 62
     7
370
    15
100
AcDbLine
 10
563.0576347785
 20
434.150989903
 30
0.0
 11
559.6350056903
 21
440.4741002152
 31
0.0
  0
LINE
  5
274
330
1F
100
AcDbEntity
  8
0
  6
Continuous
 62
     7
370
    15
100
AcDbLine
 10
563.3996648566
 20
446.599736614
 30
0.0
 11
570.5869531111
 21
446.4022701512
 31
0.0
  0
LINE
  5
275
330
1F
100
AcDbEntity
  8
0
  6
Continuous
 62
     7
370
    15
100
AcDbLine
 10
570.244923033
 20
433.9535197149
 30
0.0
 11
563.0576347785
 21
434.150989903
 31
0.0
  0
ARC
  5
276
330
1F
100
AcDbEntity
  8
0
  6
Continuous
 62
     7
370
    15
100
AcDbCircle
 10
566.8222944101
 20
440.2766295618
 30
0.0
 40
7.190000000000012
100
AcDbArc
 50
238.4262004732
 51
298.4262004732
  0
ARC
  5
277
330
1F
100
AcDbEntity
  8
0
  6
Continuous
 62
     7
370
    15
100
AcDbCircle
 10
566.8222944101
 20
440.2766295618
 30
0.0
 40
7.190000000000034
100
AcDbArc
 50
178.4262004732
 51
238.4262004732
  0
ARC
  5
278
330
1F
100
AcDbEntity
  8
0
  6
Continuous
 62
     7
370
    15
100
AcDbCircle
 10
566.8222944101
 20
440.2766295618
 30
0.0
 40
7.18999999999997
100
AcDbArc
 50
58.4262004732
 51
118.4262004732
  0
ARC
  5
279
330
1F
100
AcDbEntity
  8
0
  6
Continuous
 62
     7
370
    15
100
AcDbCircle
 10
566.8222944101
 20
440.2766295618
 30
0.0
 40
7.189999999999952
100
AcDbArc
 50
358.4262004732
 51
58.4262004732
  0
ARC
  5
27A
330
1F
100
AcDbEntity
  8
0
  6
Continuous
 62
     7
370
    15
100
AcDbCircle
 10
566.8222944101
 20
440.2766295618
 30
0.0
 40
7.189999999999966
100
AcDbArc
 50
298.4262004732
 51
358.4262004732
  0
ARC
  5
27B
330
1F
100
AcDbEntity
  8
0
  6
Continuous
 62
     7
370
    15
100
AcDbCircle
 10
566.8222944101
 20
440.2766295618
 30
0.0
 40
7.190000000000034
100
AcDbArc
 50
118.4262004732
 51
178.4262004732
  0
LINE
  5
27C
330
1F
100
AcDbEntity
  8
0
  6
Continuous
 62
     7
370
    15
100
AcDbLine
 10
476.7814127581
 20
540.2078105042
 30
0.0
 11
476.9788792209
 21
533.0205222497
 31
0.0
  0
LINE
  5
27D
330
1F
100
AcDbEntity
  8
0
  6
Continuous
 62
     7
370
    15
100
AcDbLine
 10
476.9788792209
 20
533.0205222497
 30
0.0
 11
470.8532428221
 21
529.2558630834
 31
0.0
  0
LINE
  5
27E
330
1F
100
AcDbEntity
  8
0
  6
Continuous
 62
     7
370
    15
100
AcDbLine
 10
470.8532428221
 20
529.2558630834
 30
0.0
 11
464.5301325099
 21
532.6784921716
 31
0.0
  0
LINE
  5
27F
330
1F
100
AcDbEntity
  8
0
  6
Continuous
 62
     7
370
    15
100
AcDbLine
 10
470.4583024458
 20
543.6304395924
 30
0.0
 11
476.7814127581
 21
540.2078105042
 31
0.0
  0
LINE
  5
280
330
1F
100
AcDbEntity
  8
0
  6
Continuous
 62
     7
370
    15
100
AcDbLine
 10
464.3326623218
 20
539.8657804261
 30
0.0
 11
470.4583024458
 21
543.6304395924
 31
0.0
  0
LINE
  5
281
330
1F
100
AcDbEntity
  8
0
  6
Continuous
 62
     7
370
    15
100
AcDbLine
 10
464.5301325099
 20
532.6784921716
 30
0.0
 11
464.3326623218
 21
539.8657804261
 31
0.0
  0
ARC
  5
282
330
1F
100
AcDbEntity
  8
0
  6
Continuous
 62
     7
370
    15
100
AcDbCircle
 10
470.6557721687
 20
536.4431518032
 30
0.0
 40
7.190000000000001
100
AcDbArc
 50
151.5737995268
 51
211.5737995268
  0
ARC
  5
283
330
1F
100
AcDbEntity
  8
0
  6
Continuous
 62
     7
370
    15
100
AcDbCircle
 10
470.6557721687
 20
536.4431518032
 30
0.0
 40
7.18999999999997
100
AcDbArc
 50
91.5737995268
 51
151.5737995268
  0
ARC
  5
284
330
1F
100
AcDbEntity
  8
0
  6
Continuous
 62
     7
370
    15
100
AcDbCircle
 10
470.6557721687
 20
536.4431518032
 30
0.0
 40
7.19000000000002
100
AcDbArc
 50
331.5737995268
 51
31.5737995268
  0
ARC
  5
285
330
1F
100
AcDbEntity
  8
0
  6
Continuous
 62
     7
370
    15
100
AcDbCircle
 10
470.6557721687
 20
536.4431518032
 30
0.0
 40
7.190000000000034
100
AcDbArc
 50
211.5737995268
 51
271.5737995268
  0
ARC
  5
286
330
1F
100
AcDbEntity
  8
0
  6
Continuous
 62
     7
370
    15
100
AcDbCircle
 10
470.6557721687
 20
536.4431518032
 30
0.0
 40
7.189999999999952
100
AcDbArc
 50
31.5737995268
 51
91.5737995268
  0
ARC
  5
287
330
1F
100
AcDbEntity
  8
0
  6
Continuous
 62
     7
370
    15
100
AcDbCircle
 10
470.6557721687
 20
536.4431518032
 30
0.0
 40
7.190000000000034
100
AcDbArc
 50
271.5737995268
 51
331.5737995268
  0
LINE
  5
288
330
1F
100
AcDbEntity
  8
0
  6
Continuous
 62
     7
370
    15
100
AcDbLine
 10
563.0576347785
 20
542.568791462
 30
0.0
 11
570.244923033
 21
542.7662616501
 31
0.0
  0
LINE
  5
289
330
1F
100
AcDbEntity
  8
0
  6
Continuous
 62
     7
370
    15
100
AcDbLine
 10
570.244923033
 20
542.7662616501
 30
0.0
 11
574.0095821993
 21
536.6406215261
 31
0.0
  0
LINE
  5
28A
330
1F
100
AcDbEntity
  8
0
  6
Continuous
 62
     7
370
    15
100
AcDbLine
 10
574.0095821993
 20
536.6406215261
 30
0.0
 11
570.5869531111
 21
530.3175112138
 31
0.0
  0
LINE
  5
28B
330
1F
100
AcDbEntity
  8
0
  6
Continuous
 62
     7
370
    15
100
AcDbLine
 10
570.5869531111
 20
530.3175112138
 30
0.0
 11
563.3996648566
 21
530.120044751
 31
0.0
  0
LINE
  5
28C
330
1F
100
AcDbEntity
  8
0
  6
Continuous
 62
     7
370
    15
100
AcDbLine
 10
563.3996648566
 20
530.120044751
 30
0.0
 11
559.6350056903
 21
536.2456811498
 31
0.0
  0
LINE
  5
28D
330
1F
100
AcDbEntity
  8
0
  6
Continuous
 62
     7
370
    15
100
AcDbLine
 10
559.6350056903
 20
536.2456811498
 30
0.0
 11
563.0576347785
 21
542.568791462
 31
0.0
  0
ARC
  5
28E
330
1F
100
AcDbEntity
  8
0
  6
Continuous
 62
     7
370
    15
100
AcDbCircle
 10
566.8222944101
 20
536.4431518032
 30
0.0
 40
7.190000000000032
100
AcDbArc
 50
301.5737995268
 51
1.5737995268
  0
ARC
  5
28F
330
1F
100
AcDbEntity
  8
0
  6
Continuous
 62
     7
370
    15
100
AcDbCircle
 10
566.8222944101
 20
536.4431518032
 30
0.0
 40
7.190000000000032
100
AcDbArc
 50
121.5737995268
 51
181.5737995268
  0
ARC
  5
290
330
1F
100
AcDbEntity
  8
0
  6
Continuous
 62
     7
370
    15
100
AcDbCircle
 10
566.8222944101
 20
536.4431518032
 30
0.0
 40
7.190000000000032
100
AcDbArc
 50
1.5737995268
 51
61.5737995268
  0
ARC
  5
291
330
1F
100
AcDbEntity
  8
0
  6
Continuous
 62
     7
370
    15
100
AcDbCircle
 10
566.8222944101
 20
536.4431518032
 30
0.0
 40
7.190000000000028
100
AcDbArc
 50
61.5737995268
 51
121.5737995268
  0
ARC
  5
292
330
1F
100
AcDbEntity
  8
0
  6
Continuous
 62
     7
370
    15
100
AcDbCircle
 10
566.8222944101
 20
536.4431518032
 30
0.0
 40
7.190000000000032
100
AcDbArc
 50
181.5737995268
 51
241.5737995268
  0
ARC
  5
293
330
1F
100
AcDbEntity
  8
0
  6
Continuous
 62
     7
370
    15
100
AcDbCircle
 10
566.8222944101
 20
536.4431518032
 30
0.0
 40
7.190000000000001
100
AcDbArc
 50
241.5737995268
 51
301.5737995268
  0
LINE
  5
294
330
1F
100
AcDbEntity
  8
0
  6
Continuous
 62
     7
370
    15
100
AcDbLine
 10
474.0784017222
 20
446.599736614
 30
0.0
 11
477.8430608885
 21
440.4741002152
 31
0.0
  0
LINE
  5
295
330
1F
100
AcDbEntity
  8
0
  6
Continuous
 62
     7
370
    15
100
AcDbLine
 10
477.8430608885
 20
440.4741002152
 30
0.0
 11
474.4204318003
 21
434.150989903
 31
0.0
  0
LINE
  5
296
330
1F
100
AcDbEntity
  8
0
  6
Continuous
 62
     7
370
    15
100
AcDbLine
 10
474.4204318003
 20
434.150989903
 30
0.0
 11
467.2331435458
 21
433.9535197149
 31
0.0
  0
LINE
  5
297
330
1F
100
AcDbEntity
  8
0
  6
Continuous
 62
     7
370
    15
100
AcDbLine
 10
467.2331435458
 20
433.9535197149
 30
0.0
 11
463.4684843795
 21
440.079159839
 31
0.0
  0
LINE
  5
298
330
1F
100
AcDbEntity
  8
0
  6
Continuous
 62
     7
370
    15
100
AcDbLine
 10
463.4684843795
 20
440.079159839
 30
0.0
 11
466.8911134677
 21
446.4022701512
 31
0.0
  0
LINE
  5
299
330
1F
100
AcDbEntity
  8
0
  6
Continuous
 62
     7
370
    15
100
AcDbLine
 10
466.8911134677
 20
446.4022701512
 30
0.0
 11
474.0784017222
 21
446.599736614
 31
0.0
  0
ARC
  5
29A
330
1F
100
AcDbEntity
  8
0
  6
Continuous
 62
     7
370
    15
100
AcDbCircle
 10
470.6557721687
 20
440.2766295618
 30
0.0
 40
7.190000000000019
100
AcDbArc
 50
301.5737995268
 51
1.5737995268
  0
ARC
  5
29B
330
1F
100
AcDbEntity
  8
0
  6
Continuous
 62
     7
370
    15
100
AcDbCircle
 10
470.6557721687
 20
440.2766295618
 30
0.0
 40
7.190000000000019
100
AcDbArc
 50
241.5737995268
 51
301.5737995268
  0
ARC
  5
29C
330
1F
100
AcDbEntity
  8
0
  6
Continuous
 62
     7
370
    15
100
AcDbCircle
 10
470.6557721687
 20
440.2766295618
 30
0.0
 40
7.189999999999952
100
AcDbArc
 50
61.5737995268
 51
121.5737995268
  0
ARC
  5
29D
330
1F
100
AcDbEntity
  8
0
  6
Continuous
 62
     7
370
    15
100
AcDbCircle
 10
470.6557721687
 20
440.2766295618
 30
0.0
 40
7.189999999999975
100
AcDbArc
 50
1.5737995268
 51
61.5737995268
  0
ARC
  5
29E
330
1F
100
AcDbEntity
  8
0
  6
Continuous
 62
     7
370
    15
100
AcDbCircle
 10
470.6557721687
 20
440.2766295618
 30
0.0
 40
7.189999999999976
100
AcDbArc
 50
181.5737995268
 51
241.5737995268
  0
ARC
  5
29F
330
1F
100
AcDbEntity
  8
0
  6
Continuous
 62
     7
370
    15
100
AcDbCircle
 10
470.6557721687
 20
440.2766295618
 30
0.0
 40
7.189999999999976
100
AcDbArc
 50
121.5737995268
 51
181.5737995268
  0
ARC
  5
2A0
330
1F
100
AcDbEntity
  8
0
  6
Continuous
 62
     7
370
    15
100
AcDbCircle
 10
552.514024037
 20
468.8598906825
 30
0.0
 40
5.999999999999989
100
AcDbArc
 50
242.6052512651
 51
57.3947487349
  0
ARC
  5
2A1
330
1F
100
AcDbEntity
  8
0
  6
Continuous
 62
     7
370
    15
100
AcDbCircle
 10
479.0367145959
 20
478.1263238378
 30
0.0
 40
5.000000000000075
100
AcDbArc
 50
302.6052512651
 51
14.4537956693
  0
ARC
  5
2A2
330
1F
100
AcDbEntity
  8
0
  6
Continuous
 62
     7
370
    15
100
AcDbCircle
 10
547.4527214949
 20
459.0934575272
 30
0.0
 40
5.000000000000043
100
AcDbArc
 50
62.6052512651
 51
134.4537956693
  0
ARC
  5
2A3
330
1F
100
AcDbEntity
  8
0
  6
Continuous
 62
     7
370
    15
100
AcDbCircle
 10
484.9640425418
 20
468.8598906825
 30
0.0
 40
6.00000000000002
100
AcDbArc
 50
122.6052512651
 51
297.3947487349
  0
ARC
  5
2A4
330
1F
100
AcDbEntity
  8
0
  6
Continuous
 62
     7
370
    15
100
AcDbCircle
 10
518.7390332894
 20
488.3598906825
 30
0.0
 40
36.00000000000006
100
AcDbArc
 50
225.5462043307
 51
314.4537956693
  0
ARC
  5
2A5
330
1F
100
AcDbEntity
  8
0
  6
Continuous
 62
     7
370
    15
100
AcDbCircle
 10
490.0253450839
 20
459.0934575272
 30
0.0
 40
5.000000000000043
100
AcDbArc
 50
45.5462043307
 51
117.3947487349
  0
ARC
  5
2A6
330
1F
100
AcDbEntity
  8
0
  6
Continuous
 62
     7
370
    15
100
AcDbCircle
 10
518.7390332894
 20
488.3598906825
 30
0.0
 40
36.00000000000009
100
AcDbArc
 50
105.5462043307
 51
194.4537956693
  0
ARC
  5
2A7
330
1F
100
AcDbEntity
  8
0
  6
Continuous
 62
     7
370
    15
100
AcDbCircle
 10
529.7276637773
 20
527.8598906825
 30
0.0
 40
5.000000000000044
100
AcDbArc
 50
182.6052512651
 51
254.4537956693
  0
ARC
  5
2A8
330
1F
100
AcDbEntity
  8
0
  6
Continuous
 62
     7
370
    15
100
AcDbCircle
 10
518.7390332894
 20
527.3598906825
 30
0.0
 40
6.000000000000074
100
AcDbArc
 50
2.6052512651
 51
177.3947487349
  0
ARC
  5
2A9
330
1F
100
AcDbEntity
  8
0
  6
Continuous
 62
     7
370
    15
100
AcDbCircle
 10
518.7390332894
 20
488.3598906825
 30
0.0
 40
36.0
100
AcDbArc
 50
345.5462043307
 51
74.4537956693
  0
ARC
  5
2AA
330
1F
100
AcDbEntity
  8
0
  6
Continuous
 62
     7
370
    15
100
AcDbCircle
 10
507.7504028015
 20
527.8598906825
 30
0.0
 40
5.000000000000011
100
AcDbArc
 50
285.5462043307
 51
357.3947487349
  0
ARC
  5
2AB
330
1F
100
AcDbEntity
  8
0
  6
Continuous
 62
     7
370
    15
100
AcDbCircle
 10
558.4413519828
 20
478.1263238378
 30
0.0
 40
5.000000000000043
100
AcDbArc
 50
165.5462043307
 51
237.3947487349
  0
CIRCLE
  5
2AC
330
1F
100
AcDbEntity
  8
0
  6
Continuous
 62
     7
370
    15
100
AcDbCircle
 10
552.514024037
 20
468.8598906825
 30
0.0
 40
2.5
  0
CIRCLE
  5
2AD
330
1F
100
AcDbEntity
  8
0
  6
Continuous
 62
     7
370
    15
100
AcDbCircle
 10
518.7390332894
 20
527.3598906825
 30
0.0
 40
2.5
  0
CIRCLE
  5
2AE
330
1F
100
AcDbEntity
  8
0
  6
Continuous
 62
     7
370
    15
100
AcDbCircle
 10
484.9640425418
 20
468.8598906825
 30
0.0
 40
2.5
  0
CIRCLE
  5
2AF
330
1F
100
AcDbEntity
  8
0
  6
Continuous
 62
     7
370
    15
100
AcDbCircle
 10
518.7390332894
 20
488.3598906825
 30
0.0
 40
25.00000000000006
  0
CIRCLE
  5
2B0
330
1F
100
AcDbEntity
  8
0
  6
Continuous
 62
     7
370
    15
100
AcDbCircle
 10
484.9640425418
 20
468.8598906825
 30
0.0
 40
2.100000000000023
  0
CIRCLE
  5
2B1
330
1F
100
AcDbEntity
  8
0
  6
Continuous
 62
     7
370
    15
100
AcDbCircle
 10
552.514024037
 20
468.8598906825
 30
0.0
 40
2.100000000000023
  0
CIRCLE
  5
2B2
330
1F
100
AcDbEntity
  8
0
  6
Continuous
 62
     7
370
    15
100
AcDbCircle
 10
518.7390332894
 20
527.3598906825
 30
0.0
 40
2.099999999999909
  0
ARC
  5
2B3
330
1F
100
AcDbEntity
  8
0
  6
Continuous
 62
     7
370
    15
100
AcDbCircle
 10
518.7390332894
 20
488.3598906825
 30
0.0
 40
61.00000000000004
100
AcDbArc
 50
237.7860739307
 51
302.2139260693
  0
SPLINE
  5
2B4
330
1F
100
AcDbEntity
  8
0
  6
Continuous
 62
     7
370
    15
100
AcDbSpline
210
0.0
220
0.0
230
1.0
 70
     8
 71
     3
 72
    12
 73
     8
 74
     0
 42
0.00000001
 43
0.00000001
 12
1.0
 22
0.0
 32
0.0
 13
1.0
 23
0.0
 33
0.0
 40
0.0
 40
0.0
 40
0.0
 40
0.0
 40
0.0033602817940632
 40
0.2260387729836999
 40
0.5243422968517046
 40
0.7836115747513811
 40
0.9999999999999999
 40
0.9999999999999999
 40
0.9999999999999999
 40
0.9999999999999999
 10
489.3271362261361
 20
440.7055077980053
 30
0.0
 10
489.3251022287335
 20
440.7006898380556
 30
0.0
 10
489.1882796926129
 20
440.376596258388
 30
0.0
 10
488.8705428164239
 20
439.6222086687732
 30
0.0
 10
488.3723953739515
 20
438.5805058496985
 30
0.0
 10
487.8260624351597
 20
437.7238715468832
 30
0.0
 10
487.4182626684196
 20
437.4309125747279
 30
0.0
 10
487.2327444927282
 20
437.2976383100044
 30
0.0
  0
SPLINE
  5
2B5
330
1F
100
AcDbEntity
  8
0
  6
Continuous
 62
     7
370
    15
100
AcDbSpline
210
0.0
220
0.0
230
1.0
 70
     8
 71
     3
 72
    12
 73
     8
 74
     0
 42
0.00000001
 43
0.00000001
 12
1.0
 22
0.0
 32
0.0
 13
1.0
 23
0.0
 33
0.0
 40
0.0
 40
0.0
 40
0.0
 40
0.0
 40
0.2163884252486189
 40
0.4756577031482953
 40
0.7739612270163
 40
0.9966397182059367
 40
0.9999999999999999
 40
0.9999999999999999
 40
0.9999999999999999
 40
0.9999999999999999
 10
550.2453220860548
 20
437.2976383100044
 30
0.0
 10
550.0598039103633
 20
437.4309125747279
 30
0.0
 10
549.6520041436231
 20
437.7238715468832
 30
0.0
 10
549.1056712048314
 20
438.5805058496984
 30
0.0
 10
548.6075237623588
 20
439.6222086687733
 30
0.0
 10
548.2897868861703
 20
440.3765962583877
 30
0.0
 10
548.1529643500494
 20
440.7006898380556
 30
0.0
 10
548.1509303526468
 20
440.7055077980053
 30
0.0
  0
LINE
  5
2B6
330
1F
100
AcDbEntity
  8
0
  6
Continuous
 62
     7
370
    15
100
AcDbLine
 10
468.9213519768
 20
549.3339037428
 30
0.0
 11
487.2327444927
 21
539.422143055
 31
0.0
  0
SPLINE
  5
2B7
330
1F
100
AcDbEntity
  8
0
  6
Continuous
 62
     7
370
    15
100
AcDbSpline
210
0.0
220
0.0
230
1.0
 70
     8
 71
     3
 72
    12
 73
     8
 74
     0
 42
0.00000001
 43
0.00000001
 12
1.0
 22
0.0
 32
0.0
 13
1.0
 23
0.0
 33
0.0
 40
0.0
 40
0.0
 40
0.0
 40
0.0
 40
0.2163884252486189
 40
0.4756577031482953
 40
0.7739612270163
 40
0.9966397182059367
 40
0.9999999999999999
 40
0.9999999999999999
 40
0.9999999999999999
 40
0.9999999999999999
 10
487.2327444927282
 20
539.422143055011
 30
0.0
 10
487.4182626684196
 20
539.2888687902874
 30
0.0
 10
487.8260624351597
 20
538.9959098181322
 30
0.0
 10
488.3723953739515
 20
538.139275515317
 30
0.0
 10
488.870542816424
 20
537.0975726962421
 30
0.0
 10
489.1882796926126
 20
536.3431851066277
 30
0.0
 10
489.3251022287335
 20
536.0190915269599
 30
0.0
 10
489.3271362261361
 20
536.01427356701
 30
0.0
  0
ARC
  5
2B8
330
1F
100
AcDbEntity
  8
0
  6
Continuous
 62
     7
370
    15
100
AcDbCircle
 10
518.7390332894
 20
488.3598906825
 30
0.0
 40
60.99999999999991
100
AcDbArc
 50
327.7860739307
 51
32.2139260693
  0
SPLINE
  5
2B9
330
1F
100
AcDbEntity
  8
0
  6
Continuous
 62
     7
370
    15
100
AcDbSpline
210
0.0
220
0.0
230
1.0
 70
     8
 71
     3
 72
    12
 73
     8
 74
     0
 42
0.00000001
 43
0.00000001
 12
1.0
 22
0.0
 32
0.0
 13
1.0
 23
0.0
 33
0.0
 40
0.0
 40
0.0
 40
0.0
 40
0.0
 40
0.0033602817940632
 40
0.2260387729836999
 40
0.5243422968517046
 40
0.7836115747513811
 40
0.9999999999999999
 40
0.9999999999999999
 40
0.9999999999999999
 40
0.9999999999999999
 10
566.3934161738939
 20
458.9479936192524
 30
0.0
 10
566.3982341338436
 20
458.9459596218497
 30
0.0
 10
566.722327713511
 20
458.8091370857293
 30
0.0
 10
567.476715303126
 20
458.4914002095401
 30
0.0
 10
568.5184181222007
 20
457.9932527670678
 30
0.0
 10
569.375052425016
 20
457.446919828276
 30
0.0
 10
569.6680113971712
 20
457.0391200615358
 30
0.0
 10
569.8012856618947
 20
456.8536018858444
 30
0.0
  0
SPLINE
  5
2BA
330
1F
100
AcDbEntity
  8
0
  6
Continuous
 62
     7
370
    15
100
AcDbSpline
210
0.0
220
0.0
230
1.0
 70
     8
 71
     3
 72
    12
 73
     8
 74
     0
 42
0.00000001
 43
0.00000001
 12
1.0
 22
0.0
 32
0.0
 13
1.0
 23
0.0
 33
0.0
 40
0.0
 40
0.0
 40
0.0
 40
0.0
 40
0.2163884252486189
 40
0.4756577031482953
 40
0.7739612270163
 40
0.9966397182059367
 40
0.9999999999999999
 40
0.9999999999999999
 40
0.9999999999999999
 40
0.9999999999999999
 10
569.8012856618947
 20
519.866179479171
 30
0.0
 10
569.6680113971712
 20
519.6806613034795
 30
0.0
 10
569.3750524250158
 20
519.2728615367395
 30
0.0
 10
568.5184181222007
 20
518.7265285979477
 30
0.0
 10
567.4767153031257
 20
518.2283811554751
 30
0.0
 10
566.7223277135115
 20
517.9106442792864
 30
0.0
 10
566.3982341338436
 20
517.7738217431656
 30
0.0
 10
566.3934161738939
 20
517.7717877457629
 30
0.0
  0
LINE
  5
2BB
330
1F
100
AcDbEntity
  8
0
  6
Continuous
 62
     7
370
    15
100
AcDbLine
 10
568.556714602
 20
427.3858776222
 30
0.0
 11
550.2453220861
 21
437.29763831
 31
0.0
  0
ARC
  5
2BC
330
1F
100
AcDbEntity
  8
0
  6
Continuous
 62
     7
370
    15
100
AcDbCircle
 10
518.7390332894
 20
488.3598906825
 30
0.0
 40
61.00000000000007
100
AcDbArc
 50
147.7860739307
 51
212.2139260693
  0
SPLINE
  5
2BD
330
1F
100
AcDbEntity
  8
0
  6
Continuous
 62
     7
370
    15
100
AcDbSpline
210
0.0
220
0.0
230
1.0
 70
     8
 71
     3
 72
    12
 73
     8
 74
     0
 42
0.00000001
 43
0.00000001
 12
1.0
 22
0.0
 32
0.0
 13
1.0
 23
0.0
 33
0.0
 40
0.0
 40
0.0
 40
0.0
 40
0.0
 40
0.0033602817940632
 40
0.2260387729836999
 40
0.5243422968517046
 40
0.7836115747513811
 40
0.9999999999999999
 40
0.9999999999999999
 40
0.9999999999999999
 40
0.9999999999999999
 10
471.084650404889
 20
517.7717877457629
 30
0.0
 10
471.0798324449393
 20
517.7738217431656
 30
0.0
 10
470.7557388652718
 20
517.9106442792861
 30
0.0
 10
470.0013512756569
 20
518.2283811554753
 30
0.0
 10
468.9596484565822
 20
518.7265285979477
 30
0.0
 10
468.103014153767
 20
519.2728615367395
 30
0.0
 10
467.8100551816116
 20
519.6806613034795
 30
0.0
 10
467.6767809168882
 20
519.866179479171
 30
0.0
  0
SPLINE
  5
2BE
330
1F
100
AcDbEntity
  8
0
  6
Continuous
 62
     7
370
    15
100
AcDbSpline
210
0.0
220
0.0
230
1.0
 70
     8
 71
     3
 72
    12
 73
     8
 74
     0
 42
0.00000001
 43
0.00000001
 12
1.0
 22
0.0
 32
0.0
 13
1.0
 23
0.0
 33
0.0
 40
0.0
 40
0.0
 40
0.0
 40
0.0
 40
0.2163884252486189
 40
0.4756577031482953
 40
0.7739612270163
 40
0.9966397182059367
 40
0.9999999999999999
 40
0.9999999999999999
 40
0.9999999999999999
 40
0.9999999999999999
 10
467.6767809168882
 20
456.8536018858444
 30
0.0
 10
467.8100551816116
 20
457.0391200615358
 30
0.0
 10
468.103014153767
 20
457.446919828276
 30
0.0
 10
468.9596484565822
 20
457.9932527670677
 30
0.0
 10
470.001351275657
 20
458.4914002095404
 30
0.0
 10
470.7557388652714
 20
458.8091370857289
 30
0.0
 10
471.0798324449393
 20
458.9459596218497
 30
0.0
 10
471.084650404889
 20
458.9479936192524
 30
0.0
  0
LINE
  5
2BF
330
1F
100
AcDbEntity
  8
0
  6
Continuous
 62
     7
370
    15
100
AcDbLine
 10
579.7130463497
 20
538.1775719951
 30
0.0
 11
569.8012856619
 21
519.8661794792
 31
0.0
  0
ARC
  5
2C0
330
1F
100
AcDbEntity
  8
0
  6
Continuous
 62
     7
370
    15
100
AcDbCircle
 10
518.7390332894
 20
488.3598906825
 30
0.0
 40
61.00000000000001
100
AcDbArc
 50
57.7860739307
 51
122.2139260693
  0
SPLINE
  5
2C1
330
1F
100
AcDbEntity
  8
0
  6
Continuous
 62
     7
370
    15
100
AcDbSpline
210
0.0
220
0.0
230
1.0
 70
     8
 71
     3
 72
    12
 73
     8
 74
     0
 42
0.00000001
 43
0.00000001
 12
1.0
 22
0.0
 32
0.0
 13
1.0
 23
0.0
 33
0.0
 40
0.0
 40
0.0
 40
0.0
 40
0.0
 40
0.0033602817940632
 40
0.2260387729836999
 40
0.5243422968517046
 40
0.7836115747513811
 40
0.9999999999999999
 40
0.9999999999999999
 40
0.9999999999999999
 40
0.9999999999999999
 10
548.1509303526468
 20
536.01427356701
 30
0.0
 10
548.1529643500494
 20
536.0190915269599
 30
0.0
 10
548.2897868861698
 20
536.3431851066274
 30
0.0
 10
548.607523762359
 20
537.0975726962422
 30
0.0
 10
549.1056712048314
 20
538.139275515317
 30
0.0
 10
549.6520041436232
 20
538.9959098181322
 30
0.0
 10
550.0598039103633
 20
539.2888687902874
 30
0.0
 10
550.2453220860548
 20
539.422143055011
 30
0.0
  0
LINE
  5
2C2
330
1F
100
AcDbEntity
  8
0
  6
Continuous
 62
     7
370
    15
100
AcDbLine
 10
457.7650202291
 20
438.5422093699
 30
0.0
 11
467.6767809169
 21
456.8536018858
 31
0.0
  0
LINE
  5
2C3
330
1F
100
AcDbEntity
  8
0
  6
Continuous
 62
     7
370
    15
100
AcDbLine
 10
467.6767809169
 20
519.8661794792
 30
0.0
 11
457.7650202291
 21
538.1775719951
 31
0.0
  0
LINE
  5
2C4
330
1F
100
AcDbEntity
  8
0
  6
Continuous
 62
     7
370
    15
100
AcDbLine
 10
487.2327444927
 20
437.29763831
 30
0.0
 11
468.9213519768
 21
427.3858776222
 31
0.0
  0
LINE
  5
2C5
330
1F
100
AcDbEntity
  8
0
  6
Continuous
 62
     7
370
    15
100
AcDbLine
 10
569.8012856619
 20
456.8536018858
 30
0.0
 11
579.7130463497
 21
438.5422093699
 31
0.0
  0
LINE
  5
2C6
330
1F
100
AcDbEntity
  8
0
  6
Continuous
 62
     7
370
    15
100
AcDbLine
 10
550.2453220861
 20
539.422143055
 30
0.0
 11
568.556714602
 21
549.3339037428
 31
0.0
  0
ARC
  5
2C7
330
1F
100
AcDbEntity
  8
0
  6
Continuous
 62
     7
370
    15
100
AcDbCircle
 10
518.7390332894
 20
488.3598906825
 30
0.0
 40
80.00000000000003
100
AcDbArc
 50
130.6090428911
 51
139.3909571089
  0
ARC
  5
2C8
330
1F
100
AcDbEntity
  8
0
  6
Continuous
 62
     7
370
    15
100
AcDbCircle
 10
467.9692978885
 20
547.5750404951
 30
0.0
 40
2.00000000000004
100
AcDbArc
 50
61.5737995268
 51
130.6090428911
  0
ARC
  5
2C9
330
1F
100
AcDbEntity
  8
0
  6
Continuous
 62
     7
370
    15
100
AcDbCircle
 10
518.7390332894
 20
488.3598906825
 30
0.0
 40
80.00000000000004
100
AcDbArc
 50
220.6090428911
 51
229.3909571089
  0
ARC
  5
2CA
330
1F
100
AcDbEntity
  8
0
  6
Continuous
 62
     7
370
    15
100
AcDbCircle
 10
459.5238834768
 20
437.5901552816
 30
0.0
 40
2.000000000000053
100
AcDbArc
 50
151.5737995268
 51
220.6090428911
  0
ARC
  5
2CB
330
1F
100
AcDbEntity
  8
0
  6
Continuous
 62
     7
370
    15
100
AcDbCircle
 10
569.5087686903
 20
429.1447408699
 30
0.0
 40
1.999999999999973
100
AcDbArc
 50
241.5737995268
 51
310.6090428911
  0
ARC
  5
2CC
330
1F
100
AcDbEntity
  8
0
  6
Continuous
 62
     7
370
    15
100
AcDbCircle
 10
577.954183102
 20
437.5901552816
 30
0.0
 40
2.000000000000016
100
AcDbArc
 50
319.3909571089
 51
28.4262004732
  0
ARC
  5
2CD
330
1F
100
AcDbEntity
  8
0
  6
Continuous
 62
     7
370
    15
100
AcDbCircle
 10
467.9692978885
 20
429.1447408699
 30
0.0
 40
2.000000000000036
100
AcDbArc
 50
229.3909571089
 51
298.4262004732
  0
ARC
  5
2CE
330
1F
100
AcDbEntity
  8
0
  6
Continuous
 62
     7
370
    15
100
AcDbCircle
 10
569.5087686903
 20
547.5750404951
 30
0.0
 40
2.000000000000016
100
AcDbArc
 50
49.3909571089
 51
118.4262004732
  0
ARC
  5
2CF
330
1F
100
AcDbEntity
  8
0
  6
Continuous
 62
     7
370
    15
100
AcDbCircle
 10
518.7390332894
 20
488.3598906825
 30
0.0
 40
80.0
100
AcDbArc
 50
40.6090428911
 51
49.3909571089
  0
ARC
  5
2D0
330
1F
100
AcDbEntity
  8
0
  6
Continuous
 62
     7
370
    15
100
AcDbCircle
 10
577.954183102
 20
539.1296260834
 30
0.0
 40
2.000000000000016
100
AcDbArc
 50
331.5737995268
 51
40.6090428911
  0
ARC
  5
2D1
330
1F
100
AcDbEntity
  8
0
  6
Continuous
 62
     7
370
    15
100
AcDbCircle
 10
459.5238834768
 20
539.1296260834
 30
0.0
 40
2.000000000000036
100
AcDbArc
 50
139.3909571089
 51
208.4262004732
  0
ARC
  5
2D2
330
1F
100
AcDbEntity
  8
0
  6
Continuous
 62
     7
370
    15
100
AcDbCircle
 10
518.7390332894
 20
488.3598906825
 30
0.0
 40
79.99999999999993
100
AcDbArc
 50
310.6090428911
 51
319.3909571089
  0
ARC
  5
2D3
330
1F
100
AcDbEntity
  8
0
  6
Continuous
 62
     7
370
    15
100
AcDbCircle
 10
518.7390332894
 20
488.3598906825
 30
0.0
 40
60.99999999999991
100
AcDbArc
 50
0.0
 51
32.2139260693
  0
ARC
  5
2D4
330
1F
100
AcDbEntity
  8
0
  6
Continuous
 62
     7
370
    15
100
AcDbCircle
 10
518.7390332894
 20
488.3598906825
 30
0.0
 40
60.99999999999989
100
AcDbArc
 50
327.7860739307
 51
0.0
  0
LWPOLYLINE
  5
2D5
330
1F
100
AcDbEntity
  8
0
  6
Continuous
 62
     7
370
    15
100
AcDbPolyline
 90
       17
 70
   128
 43
0.0
 10
627.6295220332
 20
487.5139990262
 10
627.4817248659
 20
488.2667632417
 10
627.4570187406
 20
488.9318790309
 10
627.5591662006
 20
489.4080886523
 10
627.7726104335
 20
489.6228933147
 10
628.064866908
 20
489.5435911975
 10
628.3914333062
 20
489.1822551516
 10
628.7025993542
 20
488.5938954038
 10
628.9509793596
 20
487.8680843766
 10
629.0987765269
 20
487.1153202046
 10
629.1234826521
 20
486.4502043136
 10
629.0213351922
 20
485.9739947504
 10
628.8078909592
 20
485.759190088
 10
628.5156344847
 20
485.8384922053
 10
628.1890680866
 20
486.1998281347
 10
627.8779020385
 20
486.788188028
 10
627.6295220332
 20
487.5139990262
  0
LWPOLYLINE
  5
2D6
330
1F
100
AcDbEntity
  8
0
  6
Continuous
 62
     7
370
    15
100
AcDbPolyline
 90
       17
 70
   128
 43
0.0
 10
658.8712071852
 20
493.8146307039
 10
658.5789507107
 20
493.8939328211
 10
658.252376862
 20
494.2552692163
 10
657.9412257151
 20
494.8436285275
 10
657.6928382592
 20
495.5694398748
 10
657.5450336413
 20
496.3222041632
 10
657.520327516
 20
496.9873193557
 10
657.622474976
 20
497.4635297338
 10
657.8359341101
 20
497.6783336977
 10
658.1281756835
 20
497.5990315805
 10
658.4547495322
 20
497.2376961167
 10
658.7659155802
 20
496.6493358741
 10
659.0143030362
 20
495.9235249924
 10
659.1620927529
 20
495.1707607041
 10
659.1867988782
 20
494.5056450459
 10
659.0846514182
 20
494.0294355991
 10
658.8712071852
 20
493.8146307039
  0
LWPOLYLINE
  5
2D7
330
1F
100
AcDbEntity
  8
0
  6
Continuous
 62
     7
370
    15
100
AcDbPolyline
 90
       11
 70
   128
 43
0.0
 10
664.5506357627
 20
501.3882310967
 10
664.9096941428
 20
501.2972939665
 10
665.4062455372
 20
500.8636971841
 10
665.9085189776
 20
500.1157110463
 10
666.3673704342
 20
499.1265533398
 10
666.7378729062
 20
497.9930508788
 10
666.983756967
 20
496.8261577095
 10
667.0809572415
 20
495.740098683
 10
667.0199667887
 20
494.8411833401
 10
666.8067460732
 20
494.2174049
 10
666.5785943942
 20
493.9790622237
  0
LWPOLYLINE
  5
2D8
330
1F
100
AcDbEntity
  8
0
  6
Continuous
 62
     7
370
    15
100
AcDbPolyline
 90
       17
 70
   128
 43
0.0
 10
643.8597028927
 20
549.838330401
 10
643.5674464182
 20
549.9176306556
 10
643.2408800201
 20
550.2789651881
 10
642.9297139721
 20
550.8673263619
 10
642.6813265161
 20
551.593139572
 10
642.5335293488
 20
552.345901532
 10
642.5088232235
 20
553.0110148619
 10
642.6109706835
 20
553.4872261713
 10
642.8244223671
 20
553.7020338605
 10
643.1166788415
 20
553.6227298806
 10
643.4432452397
 20
553.2613916228
 10
643.7544112877
 20
552.6730341743
 10
644.0027987437
 20
551.9472209642
 10
644.1505884604
 20
551.1944590042
 10
644.1752945857
 20
550.529341949
 10
644.0731471257
 20
550.0531343649
 10
643.8597028927
 20
549.838330401
  0
LWPOLYLINE
  5
2D9
330
1F
100
AcDbEntity
  8
0
  6
Continuous
 62
     7
370
    15
100
AcDbPolyline
 90
       11
 70
   128
 43
0.0
 10
649.5391314702
 20
557.4119312594
 10
649.8981898503
 20
557.3209894727
 10
650.3947412448
 20
556.8873954843
 10
650.8970146851
 20
556.1394093464
 10
651.3558661418
 20
555.1502479146
 10
651.7263686137
 20
554.0167463849
 10
651.9722526745
 20
552.8498588036
 10
652.069452949
 20
551.7637951205
 10
652.0084624962
 20
550.8648825715
 10
651.7952417807
 20
550.2411013375
 10
651.5670901017
 20
550.0027609895
  0
LINE
  5
2DA
330
1F
100
AcDbEntity
  8
0
  6
Continuous
 62
     7
370
    15
100
AcDbLine
 10
656.8543499188
 20
535.4803016315
 30
0.0
 11
661.9106119351
 21
516.6100745926
 31
0.0
  0
LWPOLYLINE
  5
2DB
330
1F
100
AcDbEntity
  8
0
  6
Continuous
 62
     7
370
    15
100
AcDbPolyline
 90
        7
 70
   128
 43
0.0
 10
656.59553165
 20
536.4462284277
 10
656.6043531375
 20
536.4133154879
 10
656.6302066521
 20
536.3168192933
 10
656.671333857
 20
536.1633149813
 10
656.724948235
 20
535.9632668922
 10
656.7873691992
 20
535.7303021381
 10
656.8543499188
 20
535.4803016315
  0
LWPOLYLINE
  5
2DC
330
1F
100
AcDbEntity
  8
0
  6
Continuous
 62
     7
370
    15
100
AcDbPolyline
 90
        7
 70
   128
 43
0.0
 10
661.9106119351
 20
516.6100745926
 10
661.9776075558
 20
516.360074086
 10
662.0400285201
 20
516.1271111945
 10
662.0936279969
 20
515.9270612429
 10
662.1347552018
 20
515.7735587935
 10
662.1606087164
 20
515.6770625989
 10
662.1694302039
 20
515.6441496591
  0
LINE
  5
2DD
330
1F
100
AcDbEntity
  8
0
  6
Continuous
 62
     7
370
    15
100
AcDbLine
 10
661.7347633318
 20
517.4595320503
 30
0.0
 11
661.6864686684
 21
517.4465903918
 31
0.0
  0
LINE
  5
2DE
330
1F
100
AcDbEntity
  8
0
  6
Continuous
 62
     7
370
    15
100
AcDbLine
 10
657.1267878489
 20
534.6567293535
 30
0.0
 11
661.7347633318
 21
517.4595320503
 31
0.0
  0
LINE
  5
2DF
330
1F
100
AcDbEntity
  8
0
  6
Continuous
 62
     7
370
    15
100
AcDbLine
 10
657.1267878489
 20
534.6567293535
 30
0.0
 11
657.0784931855
 21
534.643787695
 31
0.0
  0
LINE
  5
2E0
330
1F
100
AcDbEntity
  8
0
  6
Continuous
 62
     7
370
    15
100
AcDbLine
 10
660.4954635577
 20
495.2851280476
 30
0.0
 11
645.2251409964
 21
552.2747484873
 31
0.0
  0
LWPOLYLINE
  5
2E1
330
1F
100
AcDbEntity
  8
0
  6
Continuous
 62
     7
370
    15
100
AcDbPolyline
 90
        9
 70
   128
 43
0.0
 10
660.0876485781
 20
489.27477943
 10
660.4266797976
 20
489.4790084007
 10
660.6959735827
 20
489.8869729739
 10
660.8852183299
 20
490.4829950909
 10
660.9870975689
 20
491.2441701534
 10
660.9977220969
 20
492.1412466
 10
660.9166895823
 20
493.1397501285
 10
660.7470994668
 20
494.2013093176
 10
660.4954635577
 20
495.2851280476
  0
LINE
  5
2E2
330
1F
100
AcDbEntity
  8
0
  6
Continuous
 62
     7
370
    15
100
AcDbLine
 10
663.990650125
 20
490.3205838426
 30
0.0
 11
660.0876485781
 21
489.27477943
 31
0.0
  0
LINE
  5
2E3
330
1F
100
AcDbEntity
  8
0
  6
Continuous
 62
     7
370
    15
100
AcDbLine
 10
641.8667917924
 20
557.2759581635
 30
0.0
 11
616.7390307264
 21
550.542995138
 31
0.0
  0
LWPOLYLINE
  5
2E4
330
1F
100
AcDbEntity
  8
0
  6
Continuous
 62
     7
370
    15
100
AcDbPolyline
 90
        9
 70
   128
 43
0.0
 10
645.2251409964
 20
552.2747484873
 10
644.9011599497
 20
553.3391831348
 10
644.5172464327
 20
554.3433127831
 10
644.0881674962
 20
555.2485657762
 10
643.6304336266
 20
556.0201404522
 10
643.1616058425
 20
556.628390951
 10
642.699714549
 20
557.0499448011
 10
642.262507029
 20
557.2686044405
 10
641.8667917924
 20
557.2759581635
  0
LINE
  5
2E5
330
1F
100
AcDbEntity
  8
0
  6
Continuous
 62
     7
370
    15
100
AcDbLine
 10
629.6939736085
 20
481.1308172437
 30
0.0
 11
660.0876485781
 21
489.27477943
 31
0.0
  0
LWPOLYLINE
  5
2E6
330
1F
100
AcDbEntity
  8
0
  6
Continuous
 62
     7
370
    15
100
AcDbPolyline
 90
        9
 70
   128
 43
0.0
 10
626.3356169538
 20
486.1320229619
 10
626.6596129016
 20
485.0675943679
 10
627.0435189681
 20
484.0634616929
 10
627.4725904541
 20
483.1582128907
 10
627.9303317742
 20
482.3866363521
 10
628.3991595583
 20
481.7783830593
 10
628.8610508518
 20
481.3568282778
 10
629.2982509212
 20
481.1381723637
 10
629.6939736085
 20
481.1308172437
  0
LINE
  5
2E7
330
1F
100
AcDbEntity
  8
0
  6
Continuous
 62
     7
370
    15
100
AcDbLine
 10
622.8415628748
 20
499.1720214392
 30
0.0
 11
626.3356169538
 21
486.1320229619
 31
0.0
  0
LINE
  5
2E8
330
1F
100
AcDbEntity
  8
0
  6
Continuous
 62
     7
370
    15
100
AcDbLine
 10
623.2380008177
 20
499.2782471607
 30
0.0
 11
626.7320548968
 21
486.2382486834
 31
0.0
  0
LWPOLYLINE
  5
2E9
330
1F
100
AcDbEntity
  8
0
  6
Continuous
 62
     7
370
    15
100
AcDbPolyline
 90
        9
 70
   128
 43
0.0
 10
629.3833887057
 20
482.2899282816
 10
629.0709784107
 20
482.2957350778
 10
628.7258153634
 20
482.4683580453
 10
628.3611690478
 20
482.8011643047
 10
627.9910391049
 20
483.2813644687
 10
627.6296635942
 20
483.8905034493
 10
627.2909229474
 20
484.6051736175
 10
626.9878407793
 20
485.3979102707
 10
626.7320548968
 20
486.2382486834
  0
LINE
  5
2EA
330
1F
100
AcDbEntity
  8
0
  6
Continuous
 62
     7
370
    15
100
AcDbLine
 10
629.3833887057
 20
482.2899282816
 30
0.0
 11
659.7770636754
 21
490.4338904097
 31
0.0
  0
LWPOLYLINE
  5
2EB
330
1F
100
AcDbEntity
  8
0
  6
Continuous
 62
     7
370
    15
100
AcDbPolyline
 90
        9
 70
   128
 43
0.0
 10
660.0990330653
 20
495.1789027917
 10
660.2976804452
 20
494.3232557642
 10
660.4315673785
 20
493.4851832594
 10
660.4955529646
 20
492.6968908774
 10
660.4871636109
 20
491.9886726792
 10
660.4067271428
 20
491.387744937
 10
660.2573281006
 20
490.9172011911
 10
660.0447183327
 20
490.5951237677
 10
659.7770636754
 20
490.4338904097
  0
LINE
  5
2EC
330
1F
100
AcDbEntity
  8
0
  6
Continuous
 62
     7
370
    15
100
AcDbLine
 10
660.0990330653
 20
495.1789027917
 30
0.0
 11
644.828710504
 21
552.1685255597
 31
0.0
  0
LWPOLYLINE
  5
2ED
330
1F
100
AcDbEntity
  8
0
  6
Continuous
 62
     7
370
    15
100
AcDbPolyline
 90
        9
 70
   128
 43
0.0
 10
642.1773766951
 20
556.1168489883
 10
642.4897869901
 20
556.1110375355
 10
642.8349500374
 20
555.9384150336
 10
643.199596353
 20
555.6056124995
 10
643.5697188453
 20
555.1254076789
 10
643.931094356
 20
554.516270561
 10
644.2698424534
 20
553.8016034196
 10
644.572917171
 20
553.0088616441
 10
644.828710504
 20
552.1685255597
  0
LINE
  5
2EE
330
1F
100
AcDbEntity
  8
0
  6
Continuous
 62
     7
370
    15
100
AcDbLine
 10
642.1773766951
 20
556.1168489883
 30
0.0
 11
616.7390307264
 21
549.3006629775
 31
0.0
  0
LINE
  5
2EF
330
1F
100
AcDbEntity
  8
0
  6
Continuous
 62
     7
370
    15
100
AcDbLine
 10
641.8667917924
 20
557.2759581635
 30
0.0
 11
645.7697933392
 21
558.321758909
 31
0.0
  0
ARC
  5
2F0
330
1F
100
AcDbEntity
  8
0
  6
Continuous
 62
     7
370
    15
100
AcDbCircle
 10
651.3977318692
 20
547.9240892214
 30
0.0
 40
1.999999999999982
100
AcDbArc
 50
15.0
 51
92.6654072805
  0
LWPOLYLINE
  5
2F1
330
1F
100
AcDbEntity
  8
0
  6
Continuous
 62
     7
370
    15
100
AcDbPolyline
 90
       10
 70
   128
 43
0.0
 10
653.3295845465
 20
548.4417265187
 10
653.3413862662
 20
548.3977047632
 10
653.376403995
 20
548.2669694255
 10
653.4336095528
 20
548.0534991155
 10
653.5112446026
 20
547.7637758384
 10
653.6069398598
 20
547.4066061805
 10
653.7178194003
 20
546.992838187
 10
653.8404708581
 20
546.5350484381
 10
653.9712136464
 20
546.0471434424
 10
654.1060393529
 20
545.5439498554
  0
LINE
  5
2F2
330
1F
100
AcDbEntity
  8
0
  6
Continuous
 62
     7
370
    15
100
AcDbLine
 10
654.1060393529
 20
545.5439498554
 30
0.0
 11
664.821151443
 21
505.5546199809
 31
0.0
  0
LWPOLYLINE
  5
2F3
330
1F
100
AcDbEntity
  8
0
  6
Continuous
 62
     7
370
    15
100
AcDbPolyline
 90
        9
 70
   128
 43
0.0
 10
664.821151443
 20
505.5546199809
 10
664.9726217465
 20
504.9892922769
 10
665.1182805972
 20
504.4456886033
 10
665.2525251584
 20
503.9447013194
 10
665.3701847272
 20
503.5055827255
 10
665.4667442517
 20
503.1452065239
 10
665.538508244
 20
502.8774233441
 10
665.5826901869
 20
502.712523369
 10
665.5976062493
 20
502.6568433176
  0
ARC
  5
2F4
330
1F
100
AcDbEntity
  8
0
  6
Continuous
 62
     7
370
    15
100
AcDbCircle
 10
663.665754607
 20
502.1392050553
 30
0.0
 40
2.00000000000006
100
AcDbArc
 50
324.7655702552
 51
15.0
  0
LINE
  5
2F5
330
1F
100
AcDbEntity
  8
0
  6
Continuous
 62
     7
370
    15
100
AcDbLine
 10
660.4969238715
 20
492.1796888019
 30
0.0
 11
631.990480967
 21
484.5414113159
 31
0.0
  0
ARC
  5
2F6
330
1F
100
AcDbEntity
  8
0
  6
Continuous
 62
     7
370
    15
100
AcDbCircle
 10
631.9395046918
 20
485.2890135989
 30
0.0
 40
0.7493382107673068
100
AcDbArc
 50
213.3029094493
 51
273.9007525224
  0
LINE
  5
2F7
330
1F
100
AcDbEntity
  8
0
  6
Continuous
 62
     7
370
    15
100
AcDbLine
 10
616.7390307264
 20
548.78302644
 30
0.0
 11
642.9878508524
 21
555.8163745235
 31
0.0
  0
LWPOLYLINE
  5
2F8
330
1F
100
AcDbEntity
  8
0
  6
Continuous
 62
     7
370
    15
100
AcDbPolyline
 90
        9
 70
   128
 43
0.0
 10
631.8213229851
 20
489.1548271197
 10
631.7011972742
 20
489.1457071434
 10
631.5715199189
 20
489.1797818498
 10
631.4344366865
 20
489.2564887203
 10
631.2921976523
 20
489.3745617381
 10
631.1471646504
 20
489.5320523436
 10
631.0017218666
 20
489.7263609244
 10
630.8582758383
 20
489.9542807041
 10
630.7191883998
 20
490.212049838
  0
LINE
  5
2F9
330
1F
100
AcDbEntity
  8
0
  6
Continuous
 62
     7
370
    15
100
AcDbLine
 10
657.5844025092
 20
496.058024736
 30
0.0
 11
631.8213229851
 21
489.1548271197
 31
0.0
  0
ARC
  5
2FA
330
1F
100
AcDbEntity
  8
0
  6
Continuous
 62
     7
370
    15
100
AcDbCircle
 10
662.3186888318
 20
498.1364633442
 30
0.0
 40
3.531310715415068
100
AcDbArc
 50
163.0557610864
 51
183.2734901631
  0
LINE
  5
2FB
330
1F
100
AcDbEntity
  8
0
  6
Continuous
 62
     7
370
    15
100
AcDbLine
 10
658.9883899169
 20
499.3238698597
 30
0.0
 11
658.9406763987
 21
499.165631635
 31
0.0
  0
LINE
  5
2FC
330
1F
100
AcDbEntity
  8
0
  6
Continuous
 62
     7
370
    15
100
AcDbLine
 10
645.5600892977
 20
549.1026675234
 30
0.0
 11
645.6805353837
 21
548.9894857536
 31
0.0
  0
ARC
  5
2FD
330
1F
100
AcDbEntity
  8
0
  6
Continuous
 62
     7
370
    15
100
AcDbCircle
 10
647.9712714523
 20
551.6832151867
 30
0.0
 40
3.531717092983951
100
AcDbArc
 50
206.7278725983
 51
226.9432557591
  0
LINE
  5
2FE
330
1F
100
AcDbEntity
  8
0
  6
Continuous
 62
     7
370
    15
100
AcDbLine
 10
617.0686369614
 20
544.2125981579
 30
0.0
 11
642.8317164855
 21
551.1157957743
 31
0.0
  0
ARC
  5
2FF
330
1F
100
AcDbEntity
  8
0
  6
Continuous
 62
     7
370
    15
100
AcDbCircle
 10
617.2891718876
 20
543.6936010484
 30
0.0
 40
0.5639092598374229
100
AcDbArc
 50
113.0218595849
 51
167.3130389049
  0
LINE
  5
300
330
1F
100
AcDbEntity
  8
0
  6
Continuous
 62
     7
370
    15
100
AcDbLine
 10
629.8844477014
 20
491.380037777
 30
0.0
 11
629.7570949273
 21
491.5004936418
 31
0.0
  0
ARC
  5
301
330
1F
100
AcDbEntity
  8
0
  6
Continuous
 62
     7
370
    15
100
AcDbCircle
 10
627.3346844721
 20
488.6754849621
 30
0.0
 40
3.716974368218693
100
AcDbArc
 50
24.4180499297
 51
46.687417658
  0
LWPOLYLINE
  5
302
330
1F
100
AcDbEntity
  8
0
  6
Continuous
 62
     7
370
    15
100
AcDbPolyline
 90
        7
 70
   128
 43
0.0
 10
629.6905016379
 20
485.9956859517
 10
629.7678982691
 20
485.8438326417
 10
630.0088202433
 20
485.4377396776
 10
630.2555685715
 20
485.1176063902
 10
630.4986661152
 20
484.8957355506
 10
630.728777297
 20
484.780653417
 10
630.937050827
 20
484.7767823747
  0
LINE
  5
303
330
1F
100
AcDbEntity
  8
0
  6
Continuous
 62
     7
370
    15
100
AcDbLine
 10
628.5224443154
 20
489.8238104441
 30
0.0
 11
628.1859835462
 21
491.079513952
 31
0.0
  0
LINE
  5
304
330
1F
100
AcDbEntity
  8
0
  6
Continuous
 62
     7
370
    15
100
AcDbLine
 10
616.7390307264
 20
548.2653861771
 30
0.0
 11
643.3706095295
 21
555.4012952278
 31
0.0
  0
LINE
  5
305
330
1F
100
AcDbEntity
  8
0
  6
Continuous
 62
     7
370
    15
100
AcDbLine
 10
660.4955529646
 20
492.6969583983
 30
0.0
 11
630.937050827
 21
484.7767823747
 31
0.0
  0
LWPOLYLINE
  5
306
330
1F
100
AcDbEntity
  8
0
  6
Continuous
 62
     7
370
    15
100
AcDbPolyline
 90
        5
 70
   128
 43
0.0
 10
630.8570986466
 20
488.3788260875
 10
631.0048958139
 20
487.6260618701
 10
631.0296019392
 20
486.9609460373
 10
630.9274544792
 20
486.4847364741
 10
630.7140027957
 20
486.2699318117
  0
LWPOLYLINE
  5
307
330
1F
100
AcDbEntity
  8
0
  6
Continuous
 62
     7
370
    15
100
AcDbPolyline
 90
        5
 70
   128
 43
0.0
 10
629.6787297206
 20
490.1336350384
 10
629.9709787445
 20
490.0543329212
 10
630.2975451426
 20
489.6929968753
 10
630.6087111907
 20
489.1046371566
 10
630.8570986466
 20
488.3788260875
  0
LWPOLYLINE
  5
308
330
1F
100
AcDbEntity
  8
0
  6
Continuous
 62
     7
370
    15
100
AcDbPolyline
 90
        3
 70
   128
 43
0.0
 10
644.4092577176
 20
549.9855836759
 10
644.4883977847
 20
549.8585922549
 10
644.575971909
 20
549.6962925325
  0
ARC
  5
309
330
1F
100
AcDbEntity
  8
0
  6
Continuous
 62
     7
370
    15
100
AcDbCircle
 10
648.9275769257
 20
551.6719560544
 30
0.0
 40
4.779091186986373
100
AcDbArc
 50
204.4184290045
 51
226.6872262794
  0
ARC
  5
30A
330
1F
100
AcDbEntity
  8
0
  6
Continuous
 62
     7
370
    15
100
AcDbCircle
 10
644.451034911
 20
546.9151956383
 30
0.0
 40
1.752852670867135
100
AcDbArc
 50
25.3257625322
 51
46.8776136368
  0
ARC
  5
30B
330
1F
100
AcDbEntity
  8
0
  6
Continuous
 62
     7
370
    15
100
AcDbCircle
 10
656.8867518133
 20
500.5054974906
 30
0.0
 40
1.752583626154309
100
AcDbArc
 50
343.1200741151
 51
4.6753247243
  0
ARC
  5
30C
330
1F
100
AcDbEntity
  8
0
  6
Continuous
 62
     7
370
    15
100
AcDbCircle
 10
663.1417618045
 20
498.6242929292
 30
0.0
 40
4.779198334674582
100
AcDbArc
 50
163.3130256369
 51
185.5813000536
  0
LWPOLYLINE
  5
30D
330
1F
100
AcDbEntity
  8
0
  6
Continuous
 62
     7
370
    15
100
AcDbPolyline
 90
        3
 70
   128
 43
0.0
 10
658.3852207141
 20
498.1594772915
 10
658.3905255274
 20
497.9751350264
 10
658.385488935
 20
497.8255888353
  0
LINE
  5
30E
330
1F
100
AcDbEntity
  8
0
  6
Continuous
 62
     7
370
    15
100
AcDbLine
 10
657.5282996373
 20
497.0782685931
 30
0.0
 11
631.5625047164
 21
490.1207528681
 31
0.0
  0
LWPOLYLINE
  5
30F
330
1F
100
AcDbEntity
  8
0
  6
Continuous
 62
     7
370
    15
100
AcDbPolyline
 90
        9
 70
   128
 43
0.0
 10
631.5625047164
 20
490.1207528681
 10
631.4868664221
 20
490.1150107988
 10
631.40522296
 20
490.1364652113
 10
631.3189079837
 20
490.1847620866
 10
631.229352005
 20
490.2591044455
 10
631.1380302386
 20
490.3582651539
 10
631.0464626031
 20
490.4806076455
 10
630.9561392145
 20
490.6241125799
 10
630.8685650901
 20
490.7864116038
  0
ARC
  5
310
330
1F
100
AcDbEntity
  8
0
  6
Continuous
 62
     7
370
    15
100
AcDbCircle
 10
624.7622019519
 20
487.7721768695
 30
0.0
 40
6.809793081307907
100
AcDbArc
 50
26.271956607
 51
34.8158191073
  0
ARC
  5
311
330
1F
100
AcDbEntity
  8
0
  6
Continuous
 62
     7
370
    15
100
AcDbCircle
 10
610.263311198
 20
541.8804285623
 30
0.0
 40
6.810415280070441
100
AcDbArc
 50
355.1848164706
 51
3.72788356
  0
LWPOLYLINE
  5
312
330
1F
100
AcDbEntity
  8
0
  6
Continuous
 62
     7
370
    15
100
AcDbPolyline
 90
        9
 70
   128
 43
0.0
 10
617.0593162851
 20
542.3232277761
 10
617.0540114717
 20
542.5075700412
 10
617.0604785757
 20
542.6770074199
 10
617.0786132888
 20
542.8287496696
 10
617.108117588
 20
542.9602822195
 10
617.1484997348
 20
543.0694406758
 10
617.1991040783
 20
543.1544257234
 10
617.2590812521
 20
543.2138292025
 10
617.3274552302
 20
543.246675087
  0
LINE
  5
313
330
1F
100
AcDbEntity
  8
0
  6
Continuous
 62
     7
370
    15
100
AcDbLine
 10
617.3274552302
 20
543.246675087
 30
0.0
 11
643.2932576017
 21
550.2041874359
 31
0.0
  0
LINE
  5
314
330
1F
100
AcDbEntity
  8
0
  6
Continuous
 62
     7
370
    15
100
AcDbLine
 10
655.409950562
 20
498.3741564582
 30
0.0
 11
628.0685996489
 21
491.048061326
 31
0.0
  0
LINE
  5
315
330
1F
100
AcDbEntity
  8
0
  6
Continuous
 62
     7
370
    15
100
AcDbLine
 10
616.7390307264
 20
541.2255076597
 30
0.0
 11
642.1066557841
 21
548.0227431188
 31
0.0
  0
CIRCLE
  5
316
330
1F
100
AcDbEntity
  8
0
  6
Continuous
 62
     7
370
    15
100
AcDbCircle
 10
635.9058360183
 20
519.7546408534
 30
0.0
 40
10.99999999999995
  0
LINE
  5
317
330
1F
100
AcDbEntity
  8
0
  6
Continuous
 62
     7
370
    15
100
AcDbLine
 10
624.8426547126
 20
495.360052483
 30
0.0
 11
616.7390307264
 21
525.603167517
 31
0.0
  0
LWPOLYLINE
  5
318
330
1F
100
AcDbEntity
  8
0
  6
Continuous
 62
     7
370
    15
100
AcDbPolyline
 90
        9
 70
   128
 43
0.0
 10
625.619109519
 20
492.4622748884
 10
625.604186006
 20
492.5179549399
 10
625.5600040631
 20
492.6828553806
 10
625.4882549719
 20
492.9506385605
 10
625.3916879968
 20
493.3110142964
 10
625.274028428
 20
493.750133356
 10
625.1397913174
 20
494.2511211055
 10
624.9941324668
 20
494.7947243134
 10
624.8426547126
 20
495.360052483
  0
ARC
  5
319
330
1F
100
AcDbEntity
  8
0
  6
Continuous
 62
     7
370
    15
100
AcDbCircle
 10
627.5509599929
 20
492.9799130939
 30
0.0
 40
2.000000000000046
100
AcDbArc
 50
195.0
 51
285.0
  0
ARC
  5
31A
330
1F
100
AcDbEntity
  8
0
  6
Continuous
 62
     7
370
    15
100
AcDbCircle
 10
530.008460959
 20
425.3598906825
 30
0.0
 40
3.0
100
AcDbArc
 50
90.0
 51
100.1417933657
  0
ARC
  5
31B
330
1F
100
AcDbEntity
  8
0
  6
Continuous
 62
     7
370
    15
100
AcDbCircle
 10
507.4696056198
 20
425.3598906825
 30
0.0
 40
3.000000000000003
100
AcDbArc
 50
79.8582066343
 51
90.0
  0
ARC
  5
31C
330
1F
100
AcDbEntity
  8
0
  6
Continuous
 62
     7
370
    15
100
AcDbCircle
 10
486.9475077088
 20
550.3599563844
 30
0.0
 40
2.001240681392295
100
AcDbArc
 50
270.023748582
 51
308.0811028954
  0
ARC
  5
31D
330
1F
100
AcDbEntity
  8
0
  6
Continuous
 62
     7
370
    15
100
AcDbCircle
 10
550.53055887
 20
550.3599563844
 30
0.0
 40
2.00124068139242
100
AcDbArc
 50
231.9188971046
 51
269.976251418
  0
ARC
  5
31E
330
1F
100
AcDbEntity
  8
0
  6
Continuous
 62
     7
370
    15
100
AcDbCircle
 10
461.376350572
 20
521.0022348304
 30
0.0
 40
5.000000000000091
100
AcDbArc
 50
330.3578770506
 51
28.4262004732
  0
ARC
  5
31F
330
1F
100
AcDbEntity
  8
0
  6
Continuous
 62
     7
370
    15
100
AcDbCircle
 10
576.1017160067
 20
455.7175465346
 30
0.0
 40
4.999999999999991
100
AcDbArc
 50
150.3578770506
 51
208.4262004732
  0
LINE
  5
320
330
1F
100
AcDbEntity
  8
0
  6
Continuous
 62
     7
370
    15
100
AcDbLine
 10
566.7572876291
 20
428.3598920236
 30
0.0
 11
530.0084611253
 21
428.3598920236
 31
0.0
  0
SPLINE
  5
321
330
1F
100
AcDbEntity
  8
0
  6
Continuous
 62
     7
370
    15
100
AcDbSpline
210
0.0
220
0.0
230
1.0
 70
    24
 71
     3
 72
    10
 73
     6
 74
     0
 42
0.00000001
 43
0.00000001
 12
1.0
 22
0.0
 32
0.0
 13
1.0
 23
0.0
 33
0.0
 40
0.0
 40
0.0
 40
0.0
 40
0.0
 40
0.6905515112982467
 40
0.9916138905010524
 40
1.0
 40
1.0
 40
1.0
 40
1.0
 10
513.035404294867
 20
549.3598913679612
 30
0.0
 10
514.3496227600127
 20
549.3598913679612
 30
0.0
 10
516.2368060676583
 20
549.3598913679612
 30
0.0
 10
518.1354497932284
 20
549.359891367961
 30
0.0
 10
518.7231076559984
 20
549.3598913679612
 30
0.0
 10
518.7390332893915
 20
549.3598913679612
 30
0.0
  0
LINE
  5
322
330
1F
100
AcDbEntity
  8
0
  6
Continuous
 62
     7
370
    15
100
AcDbLine
 10
507.4696054535
 20
428.3598920236
 30
0.0
 11
470.7207789497
 21
428.3598920236
 31
0.0
  0
SPLINE
  5
323
330
1F
100
AcDbEntity
  8
0
  6
Continuous
 62
     7
370
    15
100
AcDbSpline
210
0.0
220
0.0
230
1.0
 70
    24
 71
     3
 72
    10
 73
     6
 74
     0
 42
0.00000001
 43
0.00000001
 12
1.0
 22
0.0
 32
0.0
 13
1.0
 23
0.0
 33
0.0
 40
0.0
 40
0.0
 40
0.0
 40
0.0
 40
0.0083861094989477
 40
0.3094484887017534
 40
1.0
 40
1.0
 40
1.0
 40
1.0
 10
518.7390332893915
 20
549.3598913679612
 30
0.0
 10
518.7549589227846
 20
549.3598913679612
 30
0.0
 10
519.3426167855545
 20
549.359891367961
 30
0.0
 10
521.2412605111246
 20
549.3598913679612
 30
0.0
 10
523.1284438187702
 20
549.3598913679612
 30
0.0
 10
524.442662283916
 20
549.3598913679612
 30
0.0
  0
LINE
  5
324
330
1F
100
AcDbEntity
  8
0
  6
Continuous
 62
     7
370
    15
100
AcDbLine
 10
550.5350118355
 20
548.3598893414
 30
0.0
 11
566.7572876291
 21
548.3598893414
 31
0.0
  0
LINE
  5
325
330
1F
100
AcDbEntity
  8
0
  6
Continuous
 62
     7
370
    15
100
AcDbLine
 10
470.7207789497
 20
548.3598893414
 30
0.0
 11
486.9430547432
 21
548.3598893414
 31
0.0
  0
SPLINE
  5
326
330
1F
100
AcDbEntity
  8
0
  6
Continuous
 62
     7
370
    15
100
AcDbSpline
210
0.0
220
0.0
230
1.0
 70
     8
 71
     3
 72
    10
 73
     6
 74
     0
 42
0.00000001
 43
0.00000001
 12
1.0
 22
0.0
 32
0.0
 13
1.0
 23
0.0
 33
0.0
 40
0.0
 40
0.0
 40
0.0
 40
0.0
 40
0.266273435442148
 40
0.9107803134776334
 40
1.0
 40
1.0
 40
1.0
 40
1.0
 10
524.442662283916
 20
549.3598913679612
 30
0.0
 10
525.2844335819524
 20
549.3617492158644
 30
0.0
 10
528.1636871035404
 20
549.368103928992
 30
0.0
 10
531.342192933743
 20
549.407758872494
 30
0.0
 10
533.6777046467333
 20
549.4096908208891
 30
0.0
 10
533.9616982118672
 20
549.4099257419598
 30
0.0
  0
ARC
  5
327
330
1F
100
AcDbEntity
  8
0
  6
Continuous
 62
     7
370
    15
100
AcDbCircle
 10
576.1017160067
 20
521.0022348304
 30
0.0
 40
4.999999999999991
100
AcDbArc
 50
151.5737995268
 51
209.6421229494
  0
ARC
  5
328
330
1F
100
AcDbEntity
  8
0
  6
Continuous
 62
     7
370
    15
100
AcDbCircle
 10
461.376350572
 20
455.7175465346
 30
0.0
 40
5.000000000000091
100
AcDbArc
 50
331.5737995268
 51
29.6421229494
  0
SPLINE
  5
329
330
1F
100
AcDbEntity
  8
0
  6
Continuous
 62
     7
370
    15
100
AcDbSpline
210
0.0
220
0.0
230
1.0
 70
     8
 71
     3
 72
    10
 73
     6
 74
     0
 42
0.00000001
 43
0.00000001
 12
1.0
 22
0.0
 32
0.0
 13
1.0
 23
0.0
 33
0.0
 40
0.0
 40
0.0
 40
0.0
 40
0.0
 40
0.0892109781042696
 40
0.5438889830832725
 40
1.0
 40
1.0
 40
1.0
 40
1.0
 10
503.5163683669156
 20
549.4099257419598
 30
0.0
 10
503.8003579909497
 20
549.4096999743375
 30
0.0
 10
505.5317461127294
 20
549.4083235459532
 30
0.0
 10
508.7125097825599
 20
549.3764676542437
 30
0.0
 10
511.5929287984546
 20
549.3654225893953
 30
0.0
 10
513.035404294867
 20
549.3598913679612
 30
0.0
  0
ARC
  5
32A
330
1F
100
AcDbEntity
  8
0
  6
Continuous
 62
     7
370
    15
100
AcDbCircle
 10
509.4171591986
 20
423.0215201531
 30
0.0
 40
5.000000000000048
100
AcDbArc
 50
3.8140748343
 51
81.8803640556
  0
ARC
  5
32B
330
1F
100
AcDbEntity
  8
0
  6
Continuous
 62
     7
370
    15
100
AcDbCircle
 10
528.0609073802
 20
423.0215201531
 30
0.0
 40
5.000000000000105
100
AcDbArc
 50
98.1196359445
 51
176.1859251657
  0
SPLINE
  5
32C
330
1F
100
AcDbEntity
  8
0
  6
Continuous
 62
     7
370
    15
100
AcDbSpline
210
0.0
220
0.0
230
1.0
 70
     8
 71
     3
 72
    19
 73
    15
 74
     0
 42
0.00000001
 43
0.00000001
 12
1.0
 22
0.0
 32
0.0
 13
1.0
 23
0.0
 33
0.0
 40
0.0
 40
0.0
 40
0.0
 40
0.0
 40
0.1001030467734111
 40
0.200305530807262
 40
0.3029938467586554
 40
0.4061193793913317
 40
0.5089794873022055
 40
0.6504994736172013
 40
0.7926257473092274
 40
0.9343011348561112
 40
0.9807254632786401
 40
0.9943365567331588
 40
0.9990973805539215
 40
1.0
 40
1.0
 40
1.0
 40
1.0
 10
487.818579919774
 20
550.1859782169354
 30
0.0
 10
487.9960003879007
 20
551.4339103199801
 30
0.0
 10
488.3510175645969
 20
553.9310141581643
 30
0.0
 10
489.6240271009329
 20
557.2652443392021
 30
0.0
 10
491.3077086062784
 20
560.2328493611398
 30
0.0
 10
493.3714587608277
 20
562.7889290443636
 30
0.0
 10
495.9928903769195
 20
565.1865763979797
 30
0.0
 10
499.20717749711
 20
567.220070570676
 30
0.0
 10
502.9877586639723
 20
568.6869261076126
 30
0.0
 10
506.0299098456017
 20
569.2441163449624
 30
0.0
 10
507.8986902779615
 20
569.3491503312788
 30
0.0
 10
508.4994381776407
 20
569.3590782466706
 30
0.0
 10
508.6781547501289
 20
569.3598678529031
 30
0.0
 10
508.7306646688175
 20
569.3598877498255
 30
0.0
 10
508.7390335129089
 20
569.3598909209262
 30
0.0
  0
LINE
  5
32D
330
1F
100
AcDbEntity
  8
0
  6
Continuous
 62
     7
370
    15
100
AcDbLine
 10
508.7390335129
 20
569.3598909209
 30
0.0
 11
528.7390330659
 21
569.3598909209
 31
0.0
  0
SPLINE
  5
32E
330
1F
100
AcDbEntity
  8
0
  6
Continuous
 62
     7
370
    15
100
AcDbSpline
210
0.0
220
0.0
230
1.0
 70
     8
 71
     3
 72
    19
 73
    15
 74
     0
 42
0.00000001
 43
0.00000001
 12
1.0
 22
0.0
 32
0.0
 13
1.0
 23
0.0
 33
0.0
 40
0.0
 40
0.0
 40
0.0
 40
0.0
 40
0.0009026194460785
 40
0.0056634432668412
 40
0.01927453672136
 40
0.0656988651438888
 40
0.2073742526907726
 40
0.3495005263827985
 40
0.4910205126977943
 40
0.5938806206086681
 40
0.6970061532413445
 40
0.799694469192738
 40
0.8998969532265888
 40
1.0
 40
1.0
 40
1.0
 40
1.0
 10
528.739033065874
 20
569.3598909209263
 30
0.0
 10
528.7474019099653
 20
569.3598877498256
 30
0.0
 10
528.799911828654
 20
569.3598678529032
 30
0.0
 10
528.9786284011421
 20
569.3590782466705
 30
0.0
 10
529.5793763008214
 20
569.3491503312789
 30
0.0
 10
531.4481567331811
 20
569.2441163449623
 30
0.0
 10
534.4903079148105
 20
568.6869261076126
 30
0.0
 10
538.270889081673
 20
567.220070570676
 30
0.0
 10
541.4851762018634
 20
565.1865763979797
 30
0.0
 10
544.1066078179553
 20
562.7889290443636
 30
0.0
 10
546.1703579725045
 20
560.2328493611398
 30
0.0
 10
547.85403947785
 20
557.2652443392021
 30
0.0
 10
549.127049014186
 20
553.9310141581643
 30
0.0
 10
549.4820661908823
 20
551.4339103199801
 30
0.0
 10
549.659486659009
 20
550.1859782169354
 30
0.0
  0
ARC
  5
32F
330
1F
100
AcDbEntity
  8
0
  6
Continuous
 62
     7
370
    15
100
AcDbCircle
 10
485.8261548146
 20
550.3598906825
 30
0.0
 40
2.000000000000114
100
AcDbArc
 50
270.0
 51
355.0114580244
  0
ARC
  5
330
330
1F
100
AcDbEntity
  8
0
  6
Continuous
 62
     7
370
    15
100
AcDbCircle
 10
551.6519117642
 20
550.3598906825
 30
0.0
 40
2.000000000000114
100
AcDbArc
 50
184.9885419756
 51
270.0
  0
LINE
  5
331
330
1F
100
AcDbEntity
  8
0
  6
Continuous
 62
     7
370
    15
100
AcDbLine
 10
523.0719817655
 20
423.3541188667
 30
0.0
 11
522.9155093284
 21
421.0070295165
 31
0.0
  0
LINE
  5
332
330
1F
100
AcDbEntity
  8
0
  6
Continuous
 62
     7
370
    15
100
AcDbLine
 10
514.5625572504
 20
421.0070295165
 30
0.0
 11
514.4060848133
 21
423.3541188667
 31
0.0
  0
ARC
  5
333
330
1F
100
AcDbEntity
  8
0
  6
Continuous
 62
     7
370
    15
100
AcDbCircle
 10
516.6101394732
 20
420.3598906825
 30
0.0
 40
2.000000000000064
100
AcDbArc
 50
183.8140748343
 51
270.0
  0
LWPOLYLINE
  5
334
330
1F
100
AcDbEntity
  8
0
  6
Continuous
 62
     7
370
    15
100
AcDbPolyline
 90
        5
 70
   128
 43
0.0
 10
514.5625572504
 20
421.0070295165
 10
514.5847217964
 20
420.6745622585
 10
514.6011135393
 20
420.4286856483
 10
514.6111764797
 20
420.2777443359
 10
514.6145692879
 20
420.2268494199
  0
LINE
  5
335
330
1F
100
AcDbEntity
  8
0
  6
Continuous
 62
     7
370
    15
100
AcDbLine
 10
520.8679270317
 20
418.3598903845
 30
0.0
 11
516.6101395471
 21
418.3598903845
 31
0.0
  0
ARC
  5
336
330
1F
100
AcDbEntity
  8
0
  6
Continuous
 62
     7
370
    15
100
AcDbCircle
 10
520.8679271056
 20
420.3598906825
 30
0.0
 40
2.000000000000064
100
AcDbArc
 50
270.0
 51
356.1859251657
  0
LWPOLYLINE
  5
337
330
1F
100
AcDbEntity
  8
0
  6
Continuous
 62
     7
370
    15
100
AcDbPolyline
 90
        5
 70
   128
 43
0.0
 10
522.8634972909
 20
420.2268494199
 10
522.866890099
 20
420.2777443359
 10
522.8769530395
 20
420.4286856483
 10
522.8933447824
 20
420.6745622585
 10
522.9155093284
 20
421.0070295165
  0
SPLINE
  5
338
330
1F
100
AcDbEntity
  8
0
  6
Continuous
 62
     7
370
    15
100
AcDbSpline
210
0.0
220
0.0
230
1.0
 70
     8
 71
     3
 72
    10
 73
     6
 74
     0
 42
0.00000001
 43
0.00000001
 12
1.0
 22
0.0
 32
0.0
 13
1.0
 23
0.0
 33
0.0
 40
0.0
 40
0.0
 40
0.0
 40
0.0
 40
0.3260316443037216
 40
0.6539888296213442
 40
0.9999999999999999
 40
0.9999999999999999
 40
0.9999999999999999
 40
0.9999999999999999
 10
528.739033065874
 20
572.7696044276249
 30
0.0
 10
530.3918072148515
 20
572.5440809202908
 30
0.0
 10
533.7071167874134
 20
572.0917019650868
 30
0.0
 10
538.7164273640675
 20
571.0435193022446
 30
0.0
 10
542.0291865168373
 20
570.09171886006
 30
0.0
 10
543.7299365030116
 20
569.6030704210293
 30
0.0
  0
SPLINE
  5
339
330
1F
100
AcDbEntity
  8
0
  6
Continuous
 62
     7
370
    15
100
AcDbSpline
210
0.0
220
0.0
230
1.0
 70
     8
 71
     3
 72
     9
 73
     5
 74
     0
 42
0.00000001
 43
0.00000001
 12
1.0
 22
0.0
 32
0.0
 13
1.0
 23
0.0
 33
0.0
 40
0.0
 40
0.0
 40
0.0
 40
0.0
 40
0.500076502830378
 40
1.0
 40
1.0
 40
1.0
 40
1.0
 10
508.7390335129089
 20
572.7696044276249
 30
0.0
 10
512.0728796490326
 20
573.0647781124666
 30
0.0
 10
518.7395518826901
 20
573.655035169479
 30
0.0
 10
525.4062126837596
 20
573.0647179009484
 30
0.0
 10
528.739033065874
 20
572.7696044276249
 30
0.0
  0
SPLINE
  5
33A
330
1F
100
AcDbEntity
  8
0
  6
Continuous
 62
     7
370
    15
100
AcDbSpline
210
0.0
220
0.0
230
1.0
 70
     8
 71
     3
 72
     9
 73
     5
 74
     0
 42
0.00000001
 43
0.00000001
 12
1.0
 22
0.0
 32
0.0
 13
1.0
 23
0.0
 33
0.0
 40
0.0
 40
0.0
 40
0.0
 40
0.0
 40
0.49811929036882
 40
1.0
 40
1.0
 40
1.0
 40
1.0
 10
493.7481300757713
 20
569.6030704210293
 30
0.0
 10
496.2003445570953
 20
570.297389865637
 30
0.0
 10
501.1232907845107
 20
571.6912717289425
 30
0.0
 10
506.1940947968137
 20
572.4092599764559
 30
0.0
 10
508.7390335129089
 20
572.7696044276249
 30
0.0
  0
ARC
  5
33B
330
1F
100
AcDbEntity
  8
0
  6
Continuous
 62
     7
370
    15
100
AcDbCircle
 10
518.7390332894
 20
488.3598906825
 30
0.0
 40
85.00000000000006
100
AcDbArc
 50
107.0982198349
 51
72.9017801651
  0
ARC
  5
33C
330
1F
100
AcDbEntity
  8
0
  6
Continuous
 62
     7
370
    15
100
AcDbCircle
 10
582.0418768274
 20
395.3598906825
 30
0.0
 40
5.0
100
AcDbArc
 50
270.0
 51
304.2421687026
  0
LINE
  5
33D
330
1F
100
AcDbEntity
  8
0
  6
Continuous
 62
     7
370
    15
100
AcDbLine
 10
582.0418780522
 20
390.3598932455
 30
0.0
 11
455.4361885266
 21
390.3598932455
 31
0.0
  0
ARC
  5
33E
330
1F
100
AcDbEntity
  8
0
  6
Continuous
 62
     7
370
    15
100
AcDbCircle
 10
455.4361897514
 20
395.3598906825
 30
0.0
 40
5.000000000000046
100
AcDbArc
 50
235.7578312974
 51
270.0
  0
ARC
  5
33F
330
1F
100
AcDbEntity
  8
0
  6
Continuous
 62
     7
370
    15
100
AcDbCircle
 10
518.7390332894
 20
488.3598906825
 30
0.0
 40
117.5
100
AcDbArc
 50
214.2421687026
 51
235.7578312974
  0
ARC
  5
340
330
1F
100
AcDbEntity
  8
0
  6
Continuous
 62
     7
370
    15
100
AcDbCircle
 10
425.7390332894
 20
425.0570471445
 30
0.0
 40
4.999999999999966
100
AcDbArc
 50
180.0
 51
214.2421687026
  0
LINE
  5
341
330
1F
100
AcDbEntity
  8
0
  6
Continuous
 62
     7
370
    15
100
AcDbLine
 10
420.7390358524
 20
425.0570459197
 30
0.0
 11
420.7390358524
 21
551.6627354453
 31
0.0
  0
ARC
  5
342
330
1F
100
AcDbEntity
  8
0
  6
Continuous
 62
     7
370
    15
100
AcDbCircle
 10
425.7390332894
 20
551.6627342205
 30
0.0
 40
5.0
100
AcDbArc
 50
145.7578312974
 51
180.0
  0
ARC
  5
343
330
1F
100
AcDbEntity
  8
0
  6
Continuous
 62
     7
370
    15
100
AcDbCircle
 10
518.7390332894
 20
488.3598906825
 30
0.0
 40
117.5
100
AcDbArc
 50
124.2421687026
 51
145.7578312974
  0
ARC
  5
344
330
1F
100
AcDbEntity
  8
0
  6
Continuous
 62
     7
370
    15
100
AcDbCircle
 10
455.4361897514
 20
581.3598906825
 30
0.0
 40
5.0
100
AcDbArc
 50
90.0
 51
124.2421687026
  0
LINE
  5
345
330
1F
100
AcDbEntity
  8
0
  6
Continuous
 62
     7
370
    15
100
AcDbLine
 10
455.4361885266
 20
586.3598881195
 30
0.0
 11
479.7390324847
 21
586.3598881195
 31
0.0
  0
ARC
  5
346
330
1F
100
AcDbEntity
  8
0
  6
Continuous
 62
     7
370
    15
100
AcDbCircle
 10
479.7390332894
 20
591.3598906825
 30
0.0
 40
5.0
100
AcDbArc
 50
270.0
 51
318.1896851042
  0
ARC
  5
347
330
1F
100
AcDbEntity
  8
0
  6
Continuous
 62
     7
370
    15
100
AcDbCircle
 10
484.2111692444
 20
587.3598906825
 30
0.0
 40
1.0
100
AcDbArc
 50
90.0
 51
138.1896851042
  0
LINE
  5
348
330
1F
100
AcDbEntity
  8
0
  6
Continuous
 62
     7
370
    15
100
AcDbLine
 10
484.2111689822
 20
588.3598921726
 30
0.0
 11
553.2668975966
 21
588.3598921726
 31
0.0
  0
ARC
  5
349
330
1F
100
AcDbEntity
  8
0
  6
Continuous
 62
     7
370
    15
100
AcDbCircle
 10
553.2668973344
 20
587.3598906825
 30
0.0
 40
1.000000000000023
100
AcDbArc
 50
41.8103148954
 51
90.0
  0
ARC
  5
34A
330
1F
100
AcDbEntity
  8
0
  6
Continuous
 62
     7
370
    15
100
AcDbCircle
 10
557.7390332894
 20
591.3598906825
 30
0.0
 40
5.0
100
AcDbArc
 50
221.8103148958
 51
270.0
  0
LINE
  5
34B
330
1F
100
AcDbEntity
  8
0
  6
Continuous
 62
     7
370
    15
100
AcDbLine
 10
557.7390340941
 20
586.3598881195
 30
0.0
 11
582.0418780522
 21
586.3598881195
 31
0.0
  0
ARC
  5
34C
330
1F
100
AcDbEntity
  8
0
  6
Continuous
 62
     7
370
    15
100
AcDbCircle
 10
582.0418768274
 20
581.3598906825
 30
0.0
 40
5.000000000000114
100
AcDbArc
 50
55.7578312974
 51
90.0
  0
ARC
  5
34D
330
1F
100
AcDbEntity
  8
0
  6
Continuous
 62
     7
370
    15
100
AcDbCircle
 10
518.7390332894
 20
488.3598906825
 30
0.0
 40
117.4999999999999
100
AcDbArc
 50
34.2421687026
 51
55.7578312974
  0
ARC
  5
34E
330
1F
100
AcDbEntity
  8
0
  6
Continuous
 62
     7
370
    15
100
AcDbCircle
 10
611.7390332894
 20
551.6627342205
 30
0.0
 40
5.000000000000046
100
AcDbArc
 50
0.0
 51
34.2421687026
  0
LINE
  5
34F
330
1F
100
AcDbEntity
  8
0
  6
Continuous
 62
     7
370
    15
100
AcDbLine
 10
616.7390307264
 20
551.6627354453
 30
0.0
 11
616.7390307264
 21
425.0570459197
 31
0.0
  0
ARC
  5
350
330
1F
100
AcDbEntity
  8
0
  6
Continuous
 62
     7
370
    15
100
AcDbCircle
 10
611.7390332894
 20
425.0570471445
 30
0.0
 40
5.000000000000014
100
AcDbArc
 50
325.7578312974
 51
0.0
  0
ARC
  5
351
330
1F
100
AcDbEntity
  8
0
  6
Continuous
 62
     7
370
    15
100
AcDbCircle
 10
518.7390332894
 20
488.3598906825
 30
0.0
 40
117.4999999999999
100
AcDbArc
 50
304.2421687026
 51
325.7578312974
  0
CIRCLE
  5
352
330
1F
100
AcDbEntity
  8
0
  6
Continuous
 62
     7
370
    15
100
AcDbCircle
 10
442.7250543118
 20
564.3738696601
 30
0.0
 40
6.000000000000057
  0
CIRCLE
  5
353
330
1F
100
AcDbEntity
  8
0
  6
Continuous
 62
     7
370
    15
100
AcDbCircle
 10
442.7250543118
 20
412.345911705
 30
0.0
 40
6.0
  0
CIRCLE
  5
354
330
1F
100
AcDbEntity
  8
0
  6
Continuous
 62
     7
370
    15
100
AcDbCircle
 10
594.7530122669
 20
412.345911705
 30
0.0
 40
6.0
  0
CIRCLE
  5
355
330
1F
100
AcDbEntity
  8
0
  6
Continuous
 62
     7
370
    15
100
AcDbCircle
 10
594.7530122669
 20
564.3738696601
 30
0.0
 40
6.0
  0
CIRCLE
  5
356
330
1F
100
AcDbEntity
  8
0
  6
Continuous
 62
     7
370
    15
100
AcDbCircle
 10
574.3805560339
 20
399.3148405861
 30
0.0
 40
4.0
  0
CIRCLE
  5
357
330
1F
100
AcDbEntity
  8
0
  6
Continuous
 62
     7
370
    15
100
AcDbCircle
 10
463.0975105449
 20
577.4049407789
 30
0.0
 40
4.0
  0
INSERT
  5
3AA
330
1F
100
AcDbEntity
  8
SLD-0
 62
     7
100
AcDbBlockReference
  2
SW_CENTERMARKSYMBOL_1
 10
442.7250543118
 20
564.3738696601
 30
0.0
  0
ENDSEC
  0
SECTION
  2
OBJECTS
  0
DICTIONARY
  5
C
330
0
100
AcDbDictionary
281
     1
  3
ACAD_GROUP
350
D
  3
ACAD_LAYOUT
350
1A
  3
ACAD_MLINESTYLE
350
17
  3
ACAD_PLOTSETTINGS
350
19
  3
ACAD_PLOTSTYLENAME
350
E
  0
DICTIONARY
  5
D
102
{ACAD_REACTORS
330
C
102
}
330
C
100
AcDbDictionary
281
     1
  0
DICTIONARY
  5
1A
102
{ACAD_REACTORS
330
C
102
}
330
C
100
AcDbDictionary
281
     1
  3
Layout1
350
1E
  3
Layout2
350
26
  3
Model
350
22
  0
DICTIONARY
  5
17
102
{ACAD_REACTORS
330
C
102
}
330
C
100
AcDbDictionary
281
     1
  3
Standard
350
18
  0
DICTIONARY
  5
19
102
{ACAD_REACTORS
330
C
102
}
330
C
100
AcDbDictionary
281
     1
  0
ACDBDICTIONARYWDFLT
  5
E
102
{ACAD_REACTORS
330
C
102
}
330
C
100
AcDbDictionary
281
     1
  3
Normal
350
F
100
AcDbDictionaryWithDefault
340
F
  0
LAYOUT
  5
1E
102
{ACAD_REACTORS
330
1A
102
}
330
1A
100
AcDbPlotSettings
  1

  2
none_device
  4

  6

 40
0.0
 41
0.0
 42
0.0
 43
0.0
 44
0.0
 45
0.0
 46
0.0
 47
0.0
 48
0.0
 49
0.0
140
0.0
141
0.0
142
1.0
143
1.0
 70
   688
 72
     0
 73
     0
 74
     5
  7

 75
    16
147
1.0
148
0.0
149
0.0
100
AcDbLayout
  1
Layout1
 70
     1
 71
     1
 10
0.0
 20
0.0
 11
420.0
 21
297.0
 12
0.0
 22
0.0
 32
0.0
 14
1.0000000000E+20
 24
1.0000000000E+20
 34
1.0000000000E+20
 15
-1.0000000000E+20
 25
-1.0000000000E+20
 35
-1.0000000000E+20
146
0.0
 13
0.0
 23
0.0
 33
0.0
 16
1.0
 26
0.0
 36
0.0
 17
0.0
 27
1.0
 37
0.0
 76
     0
330
1B
  0
LAYOUT
  5
26
102
{ACAD_REACTORS
330
1A
102
}
330
1A
100
AcDbPlotSettings
  1

  2
none_device
  4

  6

 40
0.0
 41
0.0
 42
0.0
 43
0.0
 44
0.0
 45
0.0
 46
0.0
 47
0.0
 48
0.0
 49
0.0
140
0.0
141
0.0
142
1.0
143
1.0
 70
   688
 72
     0
 73
     0
 74
     5
  7

 75
    16
147
1.0
148
0.0
149
0.0
100
AcDbLayout
  1
Layout2
 70
     1
 71
     2
 10
0.0
 20
0.0
 11
0.0
 21
0.0
 12
0.0
 22
0.0
 32
0.0
 14
0.0
 24
0.0
 34
0.0
 15
0.0
 25
0.0
 35
0.0
146
0.0
 13
0.0
 23
0.0
 33
0.0
 16
1.0
 26
0.0
 36
0.0
 17
0.0
 27
1.0
 37
0.0
 76
     0
330
23
  0
LAYOUT
  5
22
102
{ACAD_REACTORS
330
1A
102
}
330
1A
100
AcDbPlotSettings
  1

  2
none_device
  4

  6

 40
0.0
 41
0.0
 42
0.0
 43
0.0
 44
0.0
 45
0.0
 46
0.0
 47
0.0
 48
0.0
 49
0.0
140
0.0
141
0.0
142
1.0
143
1.0
 70
  1712
 72
     0
 73
     0
 74
     0
  7

 75
     0
147
1.0
148
0.0
149
0.0
100
AcDbLayout
  1
Model
 70
     1
 71
     0
 10
0.0
 20
0.0
 11
1050.0
 21
1485.0
 12
0.0
 22
0.0
 32
0.0
 14
0.0
 24
0.0
 34
0.0
 15
1050.0
 25
1485.0
 35
0.0
146
0.0
 13
0.0
 23
0.0
 33
0.0
 16
1.0
 26
0.0
 36
0.0
 17
0.0
 27
1.0
 37
0.0
 76
     0
330
1F
331
29
  0
MLINESTYLE
  5
18
102
{ACAD_REACTORS
330
17
102
}
330
17
100
AcDbMlineStyle
  2
Standard
 70
     0
  3

 62
   256
 51
90.0
 52
90.0
 71
     2
 49
0.5
 62
   256
  6
BYLAYER
 49
-0.5
 62
   256
  6
BYLAYER
  0
ACDBPLACEHOLDER
  5
F
102
{ACAD_REACTORS
330
E
102
}
330
E
  0
ENDSEC
  0
EOF
