  0
SECTION
  2
HEADER
  9
$ACADVER
  1
AC1015
  9
$ACADMAINTVER
 70
     6
  9
$DWGCODEPAGE
  3
DOS932
  9
$INSBASE
 10
0.0
 20
0.0
 30
0.0
  9
$EXTMIN
 10
0.0
 20
0.0
 30
0.0
  9
$EXTMAX
 10
1050.0
 20
1485.0
 30
0.0
  9
$LIMMIN
 10
0.0
 20
0.0
  9
$LIMMAX
 10
1050.0
 20
1485.0
  9
$ORTHOMODE
 70
     0
  9
$REGENMODE
 70
     1
  9
$FILLMODE
 70
     1
  9
$QTEXTMODE
 70
     0
  9
$MIRRTEXT
 70
     1
  9
$LTSCALE
 40
5.0
  9
$ATTMODE
 70
     1
  9
$TEXTSIZE
 40
17.5
  9
$TRACEWID
 40
1.0
  9
$TEXTSTYLE
  7
Standard
  9
$CLAYER
  8
0
  9
$CELTYPE
  6
ByLayer
  9
$CECOLOR
 62
   256
  9
$CELTSCALE
 40
1.0
  9
$DISPSILH
 70
     0
  9
$DIMSCALE
 40
1.0
  9
$DIMASZ
 40
12.5
  9
$DIMEXO
 40
5.0
  9
$DIMDLI
 40
3.75
  9
$DIMRND
 40
0.0
  9
$DIMDLE
 40
0.0
  9
$DIMEXE
 40
5.0
  9
$DIMTP
 40
0.0
  9
$DIMTM
 40
0.0
  9
$DIMTXT
 40
17.5
  9
$DIMCEN
 40
2.5
  9
$DIMTSZ
 40
0.0
  9
$DIMTOL
 70
     0
  9
$DIMLIM
 70
     0
  9
$DIMTIH
 70
     1
  9
$DIMTOH
 70
     1
  9
$DIMSE1
 70
     0
  9
$DIMSE2
 70
     0
  9
$DIMTAD
 70
     1
  9
$DIMZIN
 70
     1
  9
$DIMBLK
  1

  9
$DIMASO
 70
     1
  9
$DIMSHO
 70
     1
  9
$DIMPOST
  1

  9
$DIMAPOST
  1

  9
$DIMALT
 70
     0
  9
$DIMALTD
 70
     3
  9
$DIMALTF
 40
0.0393700787
  9
$DIMLFAC
 40
1.0
  9
$DIMTOFL
 70
     1
  9
$DIMTVP
 40
0.0
  9
$DIMTIX
 70
     0
  9
$DIMSOXD
 70
     0
  9
$DIMSAH
 70
     0
  9
$DIMBLK1
  1

  9
$DIMBLK2
  1

  9
$DIMSTYLE
  2
ISO-25
  9
$DIMCLRD
 70
     0
  9
$DIMCLRE
 70
     0
  9
$DIMCLRT
 70
     0
  9
$DIMTFAC
 40
1.0
  9
$DIMGAP
 40
7.62
  9
$DIMJUST
 70
     0
  9
$DIMSD1
 70
     0
  9
$DIMSD2
 70
     0
  9
$DIMTOLJ
 70
     0
  9
$DIMTZIN
 70
     1
  9
$DIMALTZ
 70
     0
  9
$DIMALTTZ
 70
     0
  9
$DIMUPT
 70
     0
  9
$DIMDEC
 70
     0
  9
$DIMTDEC
 70
     0
  9
$DIMALTU
 70
     2
  9
$DIMALTTD
 70
     3
  9
$DIMTXSTY
  7
Standard
  9
$DIMAUNIT
 70
     0
  9
$DIMADEC
 70
     0
  9
$DIMALTRND
 40
0.0
  9
$DIMAZIN
 70
     0
  9
$DIMDSEP
 70
    44
  9
$DIMATFIT
 70
     3
  9
$DIMFRAC
 70
     0
  9
$DIMLDRBLK
  1

  9
$DIMLUNIT
 70
     2
  9
$DIMLWD
 70
    -2
  9
$DIMLWE
 70
    -2
  9
$DIMTMOVE
 70
     0
  9
$LUNITS
 70
     2
  9
$LUPREC
 70
     0
  9
$SKETCHINC
 40
1.0
  9
$FILLETRAD
 40
10.0
  9
$AUNITS
 70
     0
  9
$AUPREC
 70
     0
  9
$MENU
  1
.
  9
$ELEVATION
 40
0.0
  9
$PELEVATION
 40
0.0
  9
$THICKNESS
 40
0.0
  9
$LIMCHECK
 70
     0
  9
$CHAMFERA
 40
10.0
  9
$CHAMFERB
 40
10.0
  9
$CHAMFERC
 40
20.0
  9
$CHAMFERD
 40
0.0
  9
$SKPOLY
 70
     0
  9
$TDCREATE
 40
2456954.643027118
  9
$TDUCREATE
 40
2456954.268027118
  9
$TDUPDATE
 40
2456954.643028195
  9
$TDUUPDATE
 40
2456954.268028195
  9
$TDINDWG
 40
0.0000000116
  9
$TDUSRTIMER
 40
0.0000000116
  9
$USRTIMER
 70
     1
  9
$ANGBASE
 50
0.0
  9
$ANGDIR
 70
     0
  9
$PDMODE
 70
     0
  9
$PDSIZE
 40
-1.0
  9
$PLINEWID
 40
0.0
  9
$SPLFRAME
 70
     0
  9
$SPLINETYPE
 70
     6
  9
$SPLINESEGS
 70
     8
  9
$HANDSEED
  5
3A4
  9
$SURFTAB1
 70
     6
  9
$SURFTAB2
 70
     6
  9
$SURFTYPE
 70
     6
  9
$SURFU
 70
     6
  9
$SURFV
 70
     6
  9
$UCSBASE
  2

  9
$UCSNAME
  2

  9
$UCSORG
 10
0.0
 20
0.0
 30
0.0
  9
$UCSXDIR
 10
1.0
 20
0.0
 30
0.0
  9
$UCSYDIR
 10
0.0
 20
1.0
 30
0.0
  9
$UCSORTHOREF
  2

  9
$UCSORTHOVIEW
 70
     0
  9
$UCSORGTOP
 10
0.0
 20
0.0
 30
0.0
  9
$UCSORGBOTTOM
 10
0.0
 20
0.0
 30
0.0
  9
$UCSORGLEFT
 10
0.0
 20
0.0
 30
0.0
  9
$UCSORGRIGHT
 10
0.0
 20
0.0
 30
0.0
  9
$UCSORGFRONT
 10
0.0
 20
0.0
 30
0.0
  9
$UCSORGBACK
 10
0.0
 20
0.0
 30
0.0
  9
$PUCSBASE
  2

  9
$PUCSNAME
  2

  9
$PUCSORG
 10
0.0
 20
0.0
 30
0.0
  9
$PUCSXDIR
 10
1.0
 20
0.0
 30
0.0
  9
$PUCSYDIR
 10
0.0
 20
1.0
 30
0.0
  9
$PUCSORTHOREF
  2

  9
$PUCSORTHOVIEW
 70
     0
  9
$PUCSORGTOP
 10
0.0
 20
0.0
 30
0.0
  9
$PUCSORGBOTTOM
 10
0.0
 20
0.0
 30
0.0
  9
$PUCSORGLEFT
 10
0.0
 20
0.0
 30
0.0
  9
$PUCSORGRIGHT
 10
0.0
 20
0.0
 30
0.0
  9
$PUCSORGFRONT
 10
0.0
 20
0.0
 30
0.0
  9
$PUCSORGBACK
 10
0.0
 20
0.0
 30
0.0
  9
$USERI1
 70
     0
  9
$USERI2
 70
     0
  9
$USERI3
 70
     0
  9
$USERI4
 70
     0
  9
$USERI5
 70
     0
  9
$USERR1
 40
0.0
  9
$USERR2
 40
0.0
  9
$USERR3
 40
0.0
  9
$USERR4
 40
0.0
  9
$USERR5
 40
0.0
  9
$WORLDVIEW
 70
     1
  9
$SHADEDGE
 70
     3
  9
$SHADEDIF
 70
    70
  9
$TILEMODE
 70
     1
  9
$MAXACTVP
 70
    64
  9
$PINSBASE
 10
0.0
 20
0.0
 30
0.0
  9
$PLIMCHECK
 70
     0
  9
$PEXTMIN
 10
1.0000000000E+20
 20
1.0000000000E+20
 30
1.0000000000E+20
  9
$PEXTMAX
 10
-1.0000000000E+20
 20
-1.0000000000E+20
 30
-1.0000000000E+20
  9
$PLIMMIN
 10
0.0
 20
0.0
  9
$PLIMMAX
 10
420.0
 20
297.0
  9
$UNITMODE
 70
     0
  9
$VISRETAIN
 70
     1
  9
$PLINEGEN
 70
     0
  9
$PSLTSCALE
 70
     1
  9
$TREEDEPTH
 70
  3020
  9
$CMLSTYLE
  2
Standard
  9
$CMLJUST
 70
     0
  9
$CMLSCALE
 40
20.0
  9
$PROXYGRAPHICS
 70
     1
  9
$MEASUREMENT
 70
     1
  9
$CELWEIGHT
370
    -1
  9
$ENDCAPS
280
     0
  9
$JOINSTYLE
280
     0
  9
$LWDISPLAY
290
     1
  9
$INSUNITS
 70
     4
  9
$HYPERLINKBASE
  1

  9
$STYLESHEET
  1

  9
$XEDIT
290
     1
  9
$CEPSNTYPE
380
     0
  9
$PSTYLEMODE
290
     1
  9
$FINGERPRINTGUID
  2
{9B45EEEC-B5FE-4992-A156-4446EA6F8707}
  9
$VERSIONGUID
  2
{FAEB1C32-E019-11D5-929B-00C0DF256EC4}
  9
$EXTNAMES
290
     1
  9
$PSVPSCALE
 40
0.0
  9
$OLESTARTUP
290
     0
  0
ENDSEC
  0
SECTION
  2
CLASSES
  0
CLASS
  1
ACDBDICTIONARYWDFLT
  2
AcDbDictionaryWithDefault
  3
ObjectDBX Classes
 90
        0
280
     0
281
     0
  0
CLASS
  1
VISUALSTYLE
  2
AcDbVisualStyle
  3
ObjectDBX Classes
 90
     4095
280
     0
281
     0
  0
CLASS
  1
MATERIAL
  2
AcDbMaterial
  3
ObjectDBX Classes
 90
     1153
280
     0
281
     0
  0
CLASS
  1
ACDBPLACEHOLDER
  2
AcDbPlaceHolder
  3
ObjectDBX Classes
 90
        0
280
     0
281
     0
  0
CLASS
  1
LAYOUT
  2
AcDbLayout
  3
ObjectDBX Classes
 90
        0
280
     0
281
     0
  0
ENDSEC
  0
SECTION
  2
TABLES
  0
TABLE
  2
VPORT
  5
8
330
0
100
AcDbSymbolTable
 70
     1
  0
VPORT
  5
29
330
8
100
AcDbSymbolTableRecord
100
AcDbViewportTableRecord
  2
*Active
 70
     0
 10
0.0
 20
0.0
 11
1.0
 21
1.0
 12
525.0
 22
742.5
 13
0.0
 23
0.0
 14
10.0
 24
10.0
 15
10.0
 25
10.0
 16
0.0
 26
0.0
 36
1.0
 17
0.0
 27
0.0
 37
0.0
 40
1485.0
 41
0.7070707071
 42
50.0
 43
0.0
 44
0.0
 50
0.0
 51
0.0
 71
     0
 72
  2000
 73
     1
 74
     3
 75
     0
 76
     0
 77
     0
 78
     0
281
     0
 65
     1
110
0.0
120
0.0
130
0.0
111
1.0
121
0.0
131
0.0
112
0.0
122
1.0
132
0.0
 79
     0
146
0.0
  0
ENDTAB
  0
TABLE
  2
LTYPE
  5
5
330
0
100
AcDbSymbolTable
 70
     6
  0
LTYPE
  5
14
330
5
100
AcDbSymbolTableRecord
100
AcDbLinetypeTableRecord
  2
ByBlock
 70
     0
  3

 72
    65
 73
     0
 40
0.0
  0
LTYPE
  5
15
330
5
100
AcDbSymbolTableRecord
100
AcDbLinetypeTableRecord
  2
ByLayer
 70
     0
  3

 72
    65
 73
     0
 40
0.0
  0
LTYPE
  5
16
330
5
100
AcDbSymbolTableRecord
100
AcDbLinetypeTableRecord
  2
Continuous
 70
     0
  3
Solid line
 72
    65
 73
     0
 40
0.0
  0
LTYPE
  5
3F
330
5
100
AcDbSymbolTableRecord
100
AcDbLinetypeTableRecord
  2
HIDDEN
 70
     0
  3
Hidden __ __ __ __ __ __ __ __ __ __ __ __ __ __
 72
    65
 73
     2
 40
1.905
 49
1.27
 74
     0
 49
-0.635
 74
     0
  0
LTYPE
  5
40
330
5
100
AcDbSymbolTableRecord
100
AcDbLinetypeTableRecord
  2
PHANTOM
 70
     0
  3
Phantom ______  __  __  ______  __  __  ______
 72
    65
 73
     6
 40
12.7
 49
6.35
 74
     0
 49
-1.27
 74
     0
 49
1.27
 74
     0
 49
-1.27
 74
     0
 49
1.27
 74
     0
 49
-1.27
 74
     0
  0
LTYPE
  5
41
330
5
100
AcDbSymbolTableRecord
100
AcDbLinetypeTableRecord
  2
CENTER
 70
     0
  3
Center ____ _ ____ _ ____ _ ____ _ ____ _ ____
 72
    65
 73
     4
 40
10.16
 49
6.35
 74
     0
 49
-1.27
 74
     0
 49
1.27
 74
     0
 49
-1.27
 74
     0
  0
LTYPE
  5
42
330
5
100
AcDbSymbolTableRecord
100
AcDbLinetypeTableRecord
  2
CENTERX2
 70
     0
  3
Center (2x) ________  __  ________  __  _____
 72
    65
 73
     4
 40
20.32
 49
12.7
 74
     0
 49
-2.54
 74
     0
 49
2.54
 74
     0
 49
-2.54
 74
     0
  0
LTYPE
  5
43
330
5
100
AcDbSymbolTableRecord
100
AcDbLinetypeTableRecord
  2
DOT2
 70
     0
  3
Dot (.5x) ........................................
 72
    65
 73
     2
 40
0.635
 49
0.0
 74
     0
 49
-0.635
 74
     0
  0
ENDTAB
  0
TABLE
  2
LAYER
  5
2
330
0
100
AcDbSymbolTable
 70
    11
  0
LAYER
  5
10
330
2
100
AcDbSymbolTableRecord
100
AcDbLayerTableRecord
  2
0
 70
     0
 62
     7
  6
Continuous
370
    -3
390
F
  0
LAYER
  5
44
330
2
100
AcDbSymbolTableRecord
100
AcDbLayerTableRecord
  2
SLD-0
 70
     0
 62
   179
  6
Continuous
370
    -3
390
F
  0
LAYER
  5
45
330
2
100
AcDbSymbolTableRecord
100
AcDbLayerTableRecord
  2
AM_6
 70
     0
 62
     2
  6
Continuous
370
    40
390
F
  0
LAYER
  5
46
330
2
100
AcDbSymbolTableRecord
100
AcDbLayerTableRecord
  2
AM_5
 70
     0
 62
     3
  6
Continuous
370
    15
390
F
  0
LAYER
  5
47
330
2
100
AcDbSymbolTableRecord
100
AcDbLayerTableRecord
  2
AM_7
 70
     0
 62
     4
  6
Continuous
370
    15
390
F
  0
LAYER
  5
48
330
2
100
AcDbSymbolTableRecord
100
AcDbLayerTableRecord
  2
SLD-DEFPOINTS
 70
     0
 62
   179
  6
Continuous
370
    -3
390
F
  0
LAYER
  5
49
330
2
100
AcDbSymbolTableRecord
100
AcDbLayerTableRecord
  2
AM_0
 70
     0
 62
   179
  6
Continuous
370
    60
390
F
  0
LAYER
  5
4A
330
2
100
AcDbSymbolTableRecord
100
AcDbLayerTableRecord
  2
AM_CL
 70
     0
 62
     1
  6
Continuous
370
    15
390
F
  0
LAYER
  5
4B
330
2
100
AcDbSymbolTableRecord
100
AcDbLayerTableRecord
  2
6
 70
     0
 62
     2
  6
Continuous
370
    -3
390
F
  0
LAYER
  5
4C
330
2
100
AcDbSymbolTableRecord
100
AcDbLayerTableRecord
  2
AM_4
 70
     0
 62
     3
  6
Continuous
370
    15
390
F
  0
LAYER
  5
4D
330
2
100
AcDbSymbolTableRecord
100
AcDbLayerTableRecord
  2
AM_8
 70
     0
 62
     1
  6
Continuous
370
    15
390
F
  0
ENDTAB
  0
TABLE
  2
STYLE
  5
3
330
0
100
AcDbSymbolTable
 70
     1
  0
STYLE
  5
11
330
3
100
AcDbSymbolTableRecord
100
AcDbTextStyleTableRecord
  2
Standard
 70
     0
 40
0.0
 41
1.0
 50
0.0
 71
     0
 42
17.5
  3
txt
  4
bigfont
  0
ENDTAB
  0
TABLE
  2
VIEW
  5
6
330
0
100
AcDbSymbolTable
 70
     0
  0
ENDTAB
  0
TABLE
  2
UCS
  5
7
330
0
100
AcDbSymbolTable
 70
     0
  0
ENDTAB
  0
TABLE
  2
APPID
  5
9
330
0
100
AcDbSymbolTable
 70
     1
  0
APPID
  5
12
330
9
100
AcDbSymbolTableRecord
100
AcDbRegAppTableRecord
  2
ACAD
 70
     0
  0
ENDTAB
  0
TABLE
  2
DIMSTYLE
  5
A
330
0
100
AcDbSymbolTable
 70
     1
100
AcDbDimStyleTable
  0
DIMSTYLE
105
27
330
A
100
AcDbSymbolTableRecord
100
AcDbDimStyleTableRecord
  2
ISO-25
 70
     0
 41
2.5
 42
0.625
 43
3.75
 44
1.25
 73
     0
 74
     0
 77
     1
 78
     8
140
2.5
141
2.5
143
0.0393700787
147
0.625
171
     3
172
     1
178
     0
271
     2
272
     2
274
     3
278
    44
283
     0
284
     8
340
11
  0
ENDTAB
  0
TABLE
  2
BLOCK_RECORD
  5
1
330
0
100
AcDbSymbolTable
 70
     3
  0
BLOCK_RECORD
  5
1F
330
1
100
AcDbSymbolTableRecord
100
AcDbBlockTableRecord
  2
*Model_Space
340
22
  0
BLOCK_RECORD
  5
1B
330
1
100
AcDbSymbolTableRecord
100
AcDbBlockTableRecord
  2
*Paper_Space
340
1E
  0
BLOCK_RECORD
  5
23
330
1
100
AcDbSymbolTableRecord
100
AcDbBlockTableRecord
  2
*Paper_Space0
340
26
  0
BLOCK_RECORD
  5
245
330
1
100
AcDbSymbolTableRecord
100
AcDbBlockTableRecord
  2
SW_CENTERMARKSYMBOL_0
340
0
102
{BLKREFS
331
250
102
}
  0
BLOCK_RECORD
  5
351
330
1
100
AcDbSymbolTableRecord
100
AcDbBlockTableRecord
  2
SW_CENTERMARKSYMBOL_1
340
0
102
{BLKREFS
331
3A3
102
}
  0
ENDTAB
  0
ENDSEC
  0
SECTION
  2
BLOCKS
  0
BLOCK
  5
20
330
1F
100
AcDbEntity
  8
0
100
AcDbBlockBegin
  2
*Model_Space
 70
     0
 10
0.0
 20
0.0
 30
0.0
  3
*Model_Space
  1

  0
ENDBLK
  5
21
330
1F
100
AcDbEntity
  8
0
100
AcDbBlockEnd
  0
BLOCK
  5
1C
330
1B
100
AcDbEntity
 67
     1
  8
0
100
AcDbBlockBegin
  2
*Paper_Space
 70
     0
 10
0.0
 20
0.0
 30
0.0
  3
*Paper_Space
  1

  0
ENDBLK
  5
1D
330
1B
100
AcDbEntity
 67
     1
  8
0
100
AcDbBlockEnd
  0
BLOCK
  5
24
330
23
100
AcDbEntity
  8
0
100
AcDbBlockBegin
  2
*Paper_Space0
 70
     0
 10
0.0
 20
0.0
 30
0.0
  3
*Paper_Space0
  1

  0
ENDBLK
  5
25
330
23
100
AcDbEntity
  8
0
100
AcDbBlockEnd
  0
BLOCK
  5
246
330
245
100
AcDbEntity
  8
0
100
AcDbBlockBegin
  2
SW_CENTERMARKSYMBOL_0
 70
     0
 10
0.0
 20
0.0
 30
0.0
  3
SW_CENTERMARKSYMBOL_0
  1

  0
LINE
  5
248
330
245
100
AcDbEntity
  8
SLD-0
 62
     0
100
AcDbLine
 10
0.0
 20
0.0
 30
0.0
 11
0.0
 21
2.5
 31
0.0
  0
LINE
  5
249
330
245
100
AcDbEntity
  8
SLD-0
 62
     0
100
AcDbLine
 10
0.0
 20
0.0
 30
0.0
 11
-2.5
 21
0.0
 31
0.0
  0
LINE
  5
24A
330
245
100
AcDbEntity
  8
SLD-0
 62
     0
100
AcDbLine
 10
0.0
 20
0.0
 30
0.0
 11
0.0
 21
-2.5
 31
0.0
  0
LINE
  5
24B
330
245
100
AcDbEntity
  8
SLD-0
 62
     0
100
AcDbLine
 10
0.0
 20
0.0
 30
0.0
 11
2.5
 21
0.0
 31
0.0
  0
LINE
  5
24C
330
245
100
AcDbEntity
  8
SLD-0
 62
     0
100
AcDbLine
 10
0.0
 20
5.0
 30
0.0
 11
0.0
 21
281.9105822723
 31
0.0
  0
LINE
  5
24D
330
245
100
AcDbEntity
  8
SLD-0
 62
     0
100
AcDbLine
 10
-5.0
 20
0.0
 30
0.0
 11
-27.264147
 21
0.0
 31
0.0
  0
LINE
  5
24E
330
245
100
AcDbEntity
  8
SLD-0
 62
     0
100
AcDbLine
 10
0.0
 20
-5.0
 30
0.0
 11
0.0
 21
-237.9119843062
 31
0.0
  0
LINE
  5
24F
330
245
100
AcDbEntity
  8
SLD-0
 62
     0
100
AcDbLine
 10
5.0
 20
0.0
 30
0.0
 11
27.264147
 21
0.0
 31
0.0
  0
ENDBLK
  5
247
330
245
100
AcDbEntity
  8
0
100
AcDbBlockEnd
  0
BLOCK
  5
352
330
351
100
AcDbEntity
  8
0
100
AcDbBlockBegin
  2
SW_CENTERMARKSYMBOL_1
 70
     0
 10
0.0
 20
0.0
 30
0.0
  3
SW_CENTERMARKSYMBOL_1
  1

  0
ARC
  5
354
330
351
100
AcDbEntity
  8
SLD-0
 62
     0
100
AcDbCircle
 10
76.0139789776
 20
-76.0139789776
 30
0.0
 40
107.5
100
AcDbArc
 50
135.0
 51
136.3324599887
  0
ARC
  5
355
330
351
100
AcDbEntity
  8
SLD-0
 62
     0
100
AcDbCircle
 10
76.0139789776
 20
-76.0139789776
 30
0.0
 40
107.5
100
AcDbArc
 50
133.6675400113
 51
135.0
  0
ARC
  5
356
330
351
100
AcDbEntity
  8
SLD-0
 62
     0
100
AcDbCircle
 10
76.0139789776
 20
-76.0139789776
 30
0.0
 40
107.4999999999999
100
AcDbArc
 50
45.0
 51
46.3324599887
  0
ARC
  5
357
330
351
100
AcDbEntity
  8
SLD-0
 62
     0
100
AcDbCircle
 10
76.0139789776
 20
-76.0139789776
 30
0.0
 40
107.5
100
AcDbArc
 50
43.6675400113
 51
45.0
  0
ARC
  5
358
330
351
100
AcDbEntity
  8
SLD-0
 62
     0
100
AcDbCircle
 10
76.0139789776
 20
-76.0139789776
 30
0.0
 40
107.5
100
AcDbArc
 50
315.0
 51
316.3324599887
  0
ARC
  5
359
330
351
100
AcDbEntity
  8
SLD-0
 62
     0
100
AcDbCircle
 10
76.0139789776
 20
-76.0139789776
 30
0.0
 40
107.5
100
AcDbArc
 50
313.6675400113
 51
315.0
  0
ARC
  5
35A
330
351
100
AcDbEntity
  8
SLD-0
 62
     0
100
AcDbCircle
 10
76.0139789776
 20
-76.0139789776
 30
0.0
 40
107.5
100
AcDbArc
 50
225.0
 51
226.3324599887
  0
ARC
  5
35B
330
351
100
AcDbEntity
  8
SLD-0
 62
     0
100
AcDbCircle
 10
76.0139789776
 20
-76.0139789776
 30
0.0
 40
107.5
100
AcDbArc
 50
223.6675400113
 51
225.0
  0
ARC
  5
35C
330
351
100
AcDbEntity
  8
SLD-0
 62
     0
100
AcDbCircle
 10
76.0139789776
 20
-76.0139789776
 30
0.0
 40
105.0
100
AcDbArc
 50
122.0
 51
123.3641852265
  0
ARC
  5
35D
330
351
100
AcDbEntity
  8
SLD-0
 62
     0
100
AcDbCircle
 10
76.0139789776
 20
-76.0139789776
 30
0.0
 40
105.0
100
AcDbArc
 50
120.6358147735
 51
122.0
  0
ARC
  5
35E
330
351
100
AcDbEntity
  8
SLD-0
 62
     0
100
AcDbCircle
 10
76.0139789776
 20
-76.0139789776
 30
0.0
 40
105.0
100
AcDbArc
 50
302.0
 51
303.3641852265
  0
ARC
  5
35F
330
351
100
AcDbEntity
  8
SLD-0
 62
     0
100
AcDbCircle
 10
76.0139789776
 20
-76.0139789776
 30
0.0
 40
105.0
100
AcDbArc
 50
300.6358147735
 51
302.0
  0
ARC
  5
360
330
351
100
AcDbEntity
  8
SLD-0
 62
     0
100
AcDbCircle
 10
76.0139789776
 20
-76.0139789776
 30
0.0
 40
121.3000000000001
100
AcDbArc
 50
15.0
 51
16.1808693222
  0
ARC
  5
361
330
351
100
AcDbEntity
  8
SLD-0
 62
     0
100
AcDbCircle
 10
76.0139789776
 20
-76.0139789776
 30
0.0
 40
121.3000000000001
100
AcDbArc
 50
13.8191306778
 51
15.0
  0
ARC
  5
362
330
351
100
AcDbEntity
  8
SLD-0
 62
     0
100
AcDbCircle
 10
76.0139789776
 20
-76.0139789776
 30
0.0
 40
121.3
100
AcDbArc
 50
17.3617386444
 51
21.3766943399
  0
ARC
  5
363
330
351
100
AcDbEntity
  8
SLD-0
 62
     0
100
AcDbCircle
 10
76.0139789776
 20
-76.0139789776
 30
0.0
 40
121.3
100
AcDbArc
 50
8.6233056601
 51
12.6382613556
  0
ARC
  5
364
330
351
100
AcDbEntity
  8
SLD-0
 62
     0
100
AcDbCircle
 10
76.0139789776
 20
-76.0139789776
 30
0.0
 40
38.99999999999996
100
AcDbArc
 50
90.0
 51
93.672806379
  0
ARC
  5
365
330
351
100
AcDbEntity
  8
SLD-0
 62
     0
100
AcDbCircle
 10
76.0139789776
 20
-76.0139789776
 30
0.0
 40
38.99999999999994
100
AcDbArc
 50
86.327193621
 51
90.0
  0
ARC
  5
366
330
351
100
AcDbEntity
  8
SLD-0
 62
     0
100
AcDbCircle
 10
76.0139789776
 20
-76.0139789776
 30
0.0
 40
39.00000000000005
100
AcDbArc
 50
330.0
 51
333.672806379
  0
ARC
  5
367
330
351
100
AcDbEntity
  8
SLD-0
 62
     0
100
AcDbCircle
 10
76.0139789776
 20
-76.0139789776
 30
0.0
 40
39.00000000000005
100
AcDbArc
 50
326.327193621
 51
330.0
  0
ARC
  5
368
330
351
100
AcDbEntity
  8
SLD-0
 62
     0
100
AcDbCircle
 10
76.0139789776
 20
-76.0139789776
 30
0.0
 40
39.00000000000005
100
AcDbArc
 50
210.0
 51
213.672806379
  0
ARC
  5
369
330
351
100
AcDbEntity
  8
SLD-0
 62
     0
100
AcDbCircle
 10
76.0139789776
 20
-76.0139789776
 30
0.0
 40
39.00000000000005
100
AcDbArc
 50
206.327193621
 51
210.0
  0
ARC
  5
36A
330
351
100
AcDbEntity
  8
SLD-0
 62
     0
100
AcDbCircle
 10
76.0139789776
 20
-76.0139789776
 30
0.0
 40
107.5
100
AcDbArc
 50
47.6649199774
 51
132.3350800226
  0
ARC
  5
36B
330
351
100
AcDbEntity
  8
SLD-0
 62
     0
100
AcDbCircle
 10
76.0139789776
 20
-76.0139789776
 30
0.0
 40
107.5
100
AcDbArc
 50
317.6649199774
 51
42.3350800226
  0
ARC
  5
36C
330
351
100
AcDbEntity
  8
SLD-0
 62
     0
100
AcDbCircle
 10
76.0139789776
 20
-76.0139789776
 30
0.0
 40
107.5
100
AcDbArc
 50
137.6649199774
 51
222.3350800226
  0
ARC
  5
36D
330
351
100
AcDbEntity
  8
SLD-0
 62
     0
100
AcDbCircle
 10
76.0139789776
 20
-76.0139789776
 30
0.0
 40
107.5
100
AcDbArc
 50
227.6649199774
 51
312.3350800226
  0
ARC
  5
36E
330
351
100
AcDbEntity
  8
SLD-0
 62
     0
100
AcDbCircle
 10
76.0139789776
 20
-76.0139789776
 30
0.0
 40
105.0
100
AcDbArc
 50
124.728370453
 51
299.271629547
  0
ARC
  5
36F
330
351
100
AcDbEntity
  8
SLD-0
 62
     0
100
AcDbCircle
 10
76.0139789776
 20
-76.0139789776
 30
0.0
 40
105.0
100
AcDbArc
 50
304.728370453
 51
119.271629547
  0
ARC
  5
370
330
351
100
AcDbEntity
  8
SLD-0
 62
     0
100
AcDbCircle
 10
76.0139789776
 20
-76.0139789776
 30
0.0
 40
38.99999999999999
100
AcDbArc
 50
337.3456127581
 51
82.6543872419
  0
ARC
  5
371
330
351
100
AcDbEntity
  8
SLD-0
 62
     0
100
AcDbCircle
 10
76.0139789776
 20
-76.0139789776
 30
0.0
 40
39.00000000000005
100
AcDbArc
 50
97.3456127581
 51
202.6543872419
  0
ARC
  5
372
330
351
100
AcDbEntity
  8
SLD-0
 62
     0
100
AcDbCircle
 10
76.0139789776
 20
-76.0139789776
 30
0.0
 40
39.00000000000005
100
AcDbArc
 50
217.3456127581
 51
322.6543872419
  0
LINE
  5
373
330
351
100
AcDbEntity
  8
SLD-0
 62
     0
100
AcDbLine
 10
0.0
 20
0.0
 30
0.0
 11
-1.767766953
 21
1.767766953
 31
0.0
  0
LINE
  5
374
330
351
100
AcDbEntity
  8
SLD-0
 62
     0
100
AcDbLine
 10
0.0
 20
0.0
 30
0.0
 11
1.767766953
 21
-1.767766953
 31
0.0
  0
LINE
  5
375
330
351
100
AcDbEntity
  8
SLD-0
 62
     0
100
AcDbLine
 10
-3.5355339059
 20
3.5355339059
 30
0.0
 11
-6.0104076401
 21
6.0104076401
 31
0.0
  0
LINE
  5
376
330
351
100
AcDbEntity
  8
SLD-0
 62
     0
100
AcDbLine
 10
3.5355339059
 20
-3.5355339059
 30
0.0
 11
6.0104076401
 21
-6.0104076401
 31
0.0
  0
LINE
  5
377
330
351
100
AcDbEntity
  8
SLD-0
 62
     0
100
AcDbLine
 10
152.0279579551
 20
0.0
 30
0.0
 11
153.7957249081
 21
1.767766953
 31
0.0
  0
LINE
  5
378
330
351
100
AcDbEntity
  8
SLD-0
 62
     0
100
AcDbLine
 10
152.0279579551
 20
0.0
 30
0.0
 11
150.2601910021
 21
-1.767766953
 31
0.0
  0
LINE
  5
379
330
351
100
AcDbEntity
  8
SLD-0
 62
     0
100
AcDbLine
 10
155.563491861
 20
3.5355339059
 30
0.0
 11
158.0383655952
 21
6.0104076401
 31
0.0
  0
LINE
  5
37A
330
351
100
AcDbEntity
  8
SLD-0
 62
     0
100
AcDbLine
 10
148.4924240492
 20
-3.5355339059
 30
0.0
 11
146.017550315
 21
-6.0104076401
 31
0.0
  0
LINE
  5
37B
330
351
100
AcDbEntity
  8
SLD-0
 62
     0
100
AcDbLine
 10
152.0279579551
 20
-152.0279579551
 30
0.0
 11
153.7957249081
 21
-153.7957249081
 31
0.0
  0
LINE
  5
37C
330
351
100
AcDbEntity
  8
SLD-0
 62
     0
100
AcDbLine
 10
152.0279579551
 20
-152.0279579551
 30
0.0
 11
150.2601910021
 21
-150.2601910021
 31
0.0
  0
LINE
  5
37D
330
351
100
AcDbEntity
  8
SLD-0
 62
     0
100
AcDbLine
 10
155.563491861
 20
-155.563491861
 30
0.0
 11
158.0383655952
 21
-158.0383655952
 31
0.0
  0
LINE
  5
37E
330
351
100
AcDbEntity
  8
SLD-0
 62
     0
100
AcDbLine
 10
148.4924240492
 20
-148.4924240492
 30
0.0
 11
146.017550315
 21
-146.017550315
 31
0.0
  0
LINE
  5
37F
330
351
100
AcDbEntity
  8
SLD-0
 62
     0
100
AcDbLine
 10
76.0139789776
 20
-76.0139789776
 30
0.0
 11
76.0139789776
 21
-73.5139789776
 31
0.0
  0
LINE
  5
380
330
351
100
AcDbEntity
  8
SLD-0
 62
     0
100
AcDbLine
 10
76.0139789776
 20
-76.0139789776
 30
0.0
 11
73.5139789776
 21
-76.0139789776
 31
0.0
  0
LINE
  5
381
330
351
100
AcDbEntity
  8
SLD-0
 62
     0
100
AcDbLine
 10
76.0139789776
 20
-76.0139789776
 30
0.0
 11
76.0139789776
 21
-78.5139789776
 31
0.0
  0
LINE
  5
382
330
351
100
AcDbEntity
  8
SLD-0
 62
     0
100
AcDbLine
 10
76.0139789776
 20
-76.0139789776
 30
0.0
 11
78.5139789776
 21
-76.0139789776
 31
0.0
  0
LINE
  5
383
330
351
100
AcDbEntity
  8
SLD-0
 62
     0
100
AcDbLine
 10
76.0139789776
 20
-71.0139789776
 30
0.0
 11
76.0139789776
 21
2.5
 31
0.0
  0
LINE
  5
384
330
351
100
AcDbEntity
  8
SLD-0
 62
     0
100
AcDbLine
 10
71.0139789776
 20
-76.0139789776
 30
0.0
 11
-2.5
 21
-76.0139789776
 31
0.0
  0
LINE
  5
385
330
351
100
AcDbEntity
  8
SLD-0
 62
     0
100
AcDbLine
 10
76.0139789776
 20
-81.0139789776
 30
0.0
 11
76.0139789776
 21
-154.5279579551
 31
0.0
  0
LINE
  5
386
330
351
100
AcDbEntity
  8
SLD-0
 62
     0
100
AcDbLine
 10
81.0139789776
 20
-76.0139789776
 30
0.0
 11
154.5279579551
 21
-76.0139789776
 31
0.0
  0
LINE
  5
387
330
351
100
AcDbEntity
  8
SLD-0
 62
     0
100
AcDbLine
 10
0.0
 20
-152.0279579551
 30
0.0
 11
-1.767766953
 21
-153.7957249081
 31
0.0
  0
LINE
  5
388
330
351
100
AcDbEntity
  8
SLD-0
 62
     0
100
AcDbLine
 10
0.0
 20
-152.0279579551
 30
0.0
 11
1.767766953
 21
-150.2601910021
 31
0.0
  0
LINE
  5
389
330
351
100
AcDbEntity
  8
SLD-0
 62
     0
100
AcDbLine
 10
-3.5355339059
 20
-155.563491861
 30
0.0
 11
-6.0104076401
 21
-158.0383655952
 31
0.0
  0
LINE
  5
38A
330
351
100
AcDbEntity
  8
SLD-0
 62
     0
100
AcDbLine
 10
3.5355339059
 20
-148.4924240492
 30
0.0
 11
6.0104076401
 21
-146.017550315
 31
0.0
  0
LINE
  5
38B
330
351
100
AcDbEntity
  8
SLD-0
 62
     0
100
AcDbLine
 10
20.3724562331
 20
13.0310711189
 30
0.0
 11
19.0476580725
 21
15.1511913593
 31
0.0
  0
LINE
  5
38C
330
351
100
AcDbEntity
  8
SLD-0
 62
     0
100
AcDbLine
 10
20.3724562331
 20
13.0310711189
 30
0.0
 11
21.6972543936
 21
10.9109508785
 31
0.0
  0
LINE
  5
38D
330
351
100
AcDbEntity
  8
SLD-0
 62
     0
100
AcDbLine
 10
17.7228599119
 20
17.2713115997
 30
0.0
 11
16.9279810156
 21
18.5433837439
 31
0.0
  0
LINE
  5
38E
330
351
100
AcDbEntity
  8
SLD-0
 62
     0
100
AcDbLine
 10
23.0220525542
 20
8.7908306381
 30
0.0
 11
23.8169314506
 21
7.5187584939
 31
0.0
  0
LINE
  5
38F
330
351
100
AcDbEntity
  8
SLD-0
 62
     0
100
AcDbLine
 10
131.655501722
 20
-165.059029074
 30
0.0
 11
132.9802998826
 21
-167.1791493144
 31
0.0
  0
LINE
  5
390
330
351
100
AcDbEntity
  8
SLD-0
 62
     0
100
AcDbLine
 10
131.655501722
 20
-165.059029074
 30
0.0
 11
130.3307035615
 21
-162.9389088336
 31
0.0
  0
LINE
  5
391
330
351
100
AcDbEntity
  8
SLD-0
 62
     0
100
AcDbLine
 10
134.3050980432
 20
-169.2992695548
 30
0.0
 11
135.0999769396
 21
-170.571341699
 31
0.0
  0
LINE
  5
392
330
351
100
AcDbEntity
  8
SLD-0
 62
     0
100
AcDbLine
 10
129.0059054009
 20
-160.8187885932
 30
0.0
 11
128.2110265045
 21
-159.546716449
 31
0.0
  0
LINE
  5
393
330
351
100
AcDbEntity
  8
SLD-0
 62
     0
100
AcDbLine
 10
193.1807817064
 20
-44.6192288066
 30
0.0
 11
195.5955962721
 21
-43.9721811939
 31
0.0
  0
LINE
  5
394
330
351
100
AcDbEntity
  8
SLD-0
 62
     0
100
AcDbLine
 10
193.1807817064
 20
-44.6192288066
 30
0.0
 11
190.7659671407
 21
-45.2662764194
 31
0.0
  0
LINE
  5
395
330
351
100
AcDbEntity
  8
SLD-0
 62
     0
100
AcDbLine
 10
198.0104108379
 20
-43.3251335811
 30
0.0
 11
206.2207803613
 21
-41.1251716977
 31
0.0
  0
LINE
  5
396
330
351
100
AcDbEntity
  8
SLD-0
 62
     0
100
AcDbLine
 10
188.351152575
 20
-45.9133240321
 30
0.0
 11
180.1407830515
 21
-48.1132859155
 31
0.0
  0
LINE
  5
397
330
351
100
AcDbEntity
  8
SLD-0
 62
     0
100
AcDbLine
 10
76.0139789776
 20
-37.0139789776
 30
0.0
 11
76.0139789776
 21
-34.5139789776
 31
0.0
  0
LINE
  5
398
330
351
100
AcDbEntity
  8
SLD-0
 62
     0
100
AcDbLine
 10
76.0139789776
 20
-37.0139789776
 30
0.0
 11
76.0139789776
 21
-39.5139789776
 31
0.0
  0
LINE
  5
399
330
351
100
AcDbEntity
  8
SLD-0
 62
     0
100
AcDbLine
 10
76.0139789776
 20
-34.5139789776
 30
0.0
 11
76.0139789776
 21
-32.0139789776
 31
0.0
  0
LINE
  5
39A
330
351
100
AcDbEntity
  8
SLD-0
 62
     0
100
AcDbLine
 10
76.0139789776
 20
-39.5139789776
 30
0.0
 11
76.0139789776
 21
-42.0139789776
 31
0.0
  0
LINE
  5
39B
330
351
100
AcDbEntity
  8
SLD-0
 62
     0
100
AcDbLine
 10
109.7889697251
 20
-95.5139789776
 30
0.0
 11
111.9540332346
 21
-96.7639789776
 31
0.0
  0
LINE
  5
39C
330
351
100
AcDbEntity
  8
SLD-0
 62
     0
100
AcDbLine
 10
109.7889697251
 20
-95.5139789776
 30
0.0
 11
107.6239062157
 21
-94.2639789776
 31
0.0
  0
LINE
  5
39D
330
351
100
AcDbEntity
  8
SLD-0
 62
     0
100
AcDbLine
 10
111.9540332346
 20
-96.7639789776
 30
0.0
 11
114.1190967441
 21
-98.0139789776
 31
0.0
  0
LINE
  5
39E
330
351
100
AcDbEntity
  8
SLD-0
 62
     0
100
AcDbLine
 10
107.6239062157
 20
-94.2639789776
 30
0.0
 11
105.4588427062
 21
-93.0139789776
 31
0.0
  0
LINE
  5
39F
330
351
100
AcDbEntity
  8
SLD-0
 62
     0
100
AcDbLine
 10
42.23898823
 20
-95.5139789776
 30
0.0
 11
40.0739247205
 21
-96.7639789776
 31
0.0
  0
LINE
  5
3A0
330
351
100
AcDbEntity
  8
SLD-0
 62
     0
100
AcDbLine
 10
42.23898823
 20
-95.5139789776
 30
0.0
 11
44.4040517394
 21
-94.2639789776
 31
0.0
  0
LINE
  5
3A1
330
351
100
AcDbEntity
  8
SLD-0
 62
     0
100
AcDbLine
 10
40.0739247205
 20
-96.7639789776
 30
0.0
 11
37.908861211
 21
-98.0139789776
 31
0.0
  0
LINE
  5
3A2
330
351
100
AcDbEntity
  8
SLD-0
 62
     0
100
AcDbLine
 10
44.4040517394
 20
-94.2639789776
 30
0.0
 11
46.5691152489
 21
-93.0139789776
 31
0.0
  0
ENDBLK
  5
353
330
351
100
AcDbEntity
  8
0
100
AcDbBlockEnd
  0
ENDSEC
  0
SECTION
  2
ENTITIES
  0
ARC
  5
4E
330
1F
100
AcDbEntity
  8
0
  6
Continuous
 62
     7
370
    15
100
AcDbCircle
 10
622.1420879039
 20
1266.3859320659
 30
0.0
 40
2.000000000000227
100
AcDbArc
 50
0.0
 51
90.0
  0
ARC
  5
4F
330
1F
100
AcDbEntity
  8
0
  6
Continuous
 62
     7
370
    15
100
AcDbCircle
 10
444.1420879039
 20
1266.3859320659
 30
0.0
 40
2.000000000000227
100
AcDbArc
 50
90.0
 51
180.0
  0
LINE
  5
50
330
1F
100
AcDbEntity
  8
0
  6
Continuous
 62
     7
370
    15
100
AcDbLine
 10
442.1420897517
 20
1266.3859352846
 30
0.0
 11
442.1420897517
 21
1253.8859323044
 31
0.0
  0
LINE
  5
51
330
1F
100
AcDbEntity
  8
0
  6
Continuous
 62
     7
370
    15
100
AcDbLine
 10
624.1420860562
 20
1223.4641388435
 30
0.0
 11
624.1420860562
 21
1266.3859352846
 31
0.0
  0
LINE
  5
52
330
1F
100
AcDbEntity
  8
0
  6
Continuous
 62
     7
370
    15
100
AcDbLine
 10
619.6914593849
 20
1268.7476352234
 30
0.0
 11
602.4949382219
 21
1280.7887569446
 31
0.0
  0
LINE
  5
53
330
1F
100
AcDbEntity
  8
0
  6
Continuous
 62
     7
370
    15
100
AcDbLine
 10
463.789237586
 20
1280.7887569446
 30
0.0
 11
446.592716423
 21
1268.7476352234
 31
0.0
  0
ARC
  5
54
330
1F
100
AcDbEntity
  8
0
  6
Continuous
 62
     7
370
    15
100
AcDbCircle
 10
620.8386095693
 20
1270.3859320659
 30
0.0
 40
2.000000000000237
100
AcDbArc
 50
235.0
 51
270.0
  0
ARC
  5
55
330
1F
100
AcDbEntity
  8
0
  6
Continuous
 62
     7
370
    15
100
AcDbCircle
 10
445.4455662385
 20
1270.3859320659
 30
0.0
 40
2.000000000000204
100
AcDbArc
 50
270.0
 51
305.0
  0
ARC
  5
56
330
1F
100
AcDbEntity
  8
0
  6
Continuous
 62
     7
370
    15
100
AcDbCircle
 10
462.6420879039
 20
1282.427066167
 30
0.0
 40
2.000000000000057
100
AcDbArc
 50
305.0
 51
0.0
  0
ARC
  5
57
330
1F
100
AcDbEntity
  8
0
  6
Continuous
 62
     7
370
    15
100
AcDbCircle
 10
603.6420879039
 20
1282.427066167
 30
0.0
 40
2.000000000000051
100
AcDbArc
 50
180.0
 51
235.0
  0
LINE
  5
58
330
1F
100
AcDbEntity
  8
0
  6
Continuous
 62
     7
370
    15
100
AcDbLine
 10
464.6420906457
 20
1284.3859270591
 30
0.0
 11
464.6420906457
 21
1282.4270651121
 31
0.0
  0
LINE
  5
59
330
1F
100
AcDbEntity
  8
0
  6
Continuous
 62
     7
370
    15
100
AcDbLine
 10
601.6420851621
 20
1282.4270651121
 30
0.0
 11
601.6420851621
 21
1284.3859270591
 31
0.0
  0
ARC
  5
5A
330
1F
100
AcDbEntity
  8
0
  6
Continuous
 62
     7
370
    15
100
AcDbCircle
 10
599.6420879039
 20
1284.3859320659
 30
0.0
 40
2.0
100
AcDbArc
 50
0.0
 51
90.0
  0
ARC
  5
5B
330
1F
100
AcDbEntity
  8
0
  6
Continuous
 62
     7
370
    15
100
AcDbCircle
 10
466.6420879039
 20
1284.3859320659
 30
0.0
 40
2.0
100
AcDbArc
 50
90.0
 51
180.0
  0
ARC
  5
5C
330
1F
100
AcDbEntity
  8
0
  6
Continuous
 62
     7
370
    15
100
AcDbCircle
 10
583.6627797121
 20
1250.3216796709
 30
0.0
 40
2.0
100
AcDbArc
 50
0.0
 51
16.4297328233
  0
LINE
  5
5D
330
1F
100
AcDbEntity
  8
0
  6
Continuous
 62
     7
370
    15
100
AcDbLine
 10
585.6627802524
 20
1217.3859253902
 30
0.0
 11
585.6627802524
 21
1250.3216788549
 31
0.0
  0
ARC
  5
5E
330
1F
100
AcDbEntity
  8
0
  6
Continuous
 62
     7
370
    15
100
AcDbCircle
 10
440.1420879039
 20
1253.8859320659
 30
0.0
 40
2.0
100
AcDbArc
 50
300.1821729804
 51
0.0
  0
ARC
  5
5F
330
1F
100
AcDbEntity
  8
0
  6
Continuous
 62
     7
370
    15
100
AcDbCircle
 10
442.142091516
 20
1250.4218103997
 30
0.0
 40
2.000005817919278
100
AcDbArc
 50
119.8047760542
 51
180.0011586631
  0
LINE
  5
60
330
1F
100
AcDbEntity
  8
0
  6
Continuous
 62
     7
370
    15
100
AcDbLine
 10
615.4420877966
 20
1045.8859319709
 30
0.0
 11
615.4420877966
 21
1175.3891930361
 31
0.0
  0
LINE
  5
61
330
1F
100
AcDbEntity
  8
0
  6
Continuous
 62
     7
370
    15
100
AcDbLine
 10
615.4420877966
 20
1215.382672884
 30
0.0
 11
615.4420877966
 21
1224.385924675
 31
0.0
  0
LINE
  5
62
330
1F
100
AcDbEntity
  8
0
  6
Continuous
 62
     7
370
    15
100
AcDbLine
 10
450.8420880112
 20
1217.3859253902
 30
0.0
 11
450.8420880112
 21
1045.8859319709
 31
0.0
  0
LINE
  5
63
330
1F
100
AcDbEntity
  8
0
  6
Continuous
 62
     7
370
    15
100
AcDbLine
 10
485.5005647215
 20
978.3859327812
 30
0.0
 11
485.5005647215
 21
979.2304411907
 31
0.0
  0
LINE
  5
64
330
1F
100
AcDbEntity
  8
0
  6
Continuous
 62
     7
370
    15
100
AcDbLine
 10
469.5005620989
 20
979.2304411907
 30
0.0
 11
469.5005620989
 21
978.3859327812
 31
0.0
  0
LINE
  5
65
330
1F
100
AcDbEntity
  8
0
  6
Continuous
 62
     7
370
    15
100
AcDbLine
 10
627.3851524267
 20
1215.3859362383
 30
0.0
 11
615.5355627808
 21
1215.3859362383
 31
0.0
  0
LINE
  5
66
330
1F
100
AcDbEntity
  8
0
  6
Continuous
 62
     7
370
    15
100
AcDbLine
 10
615.5355627808
 20
1175.3859296818
 30
0.0
 11
627.68599197
 21
1175.3859296818
 31
0.0
  0
LINE
  5
67
330
1F
100
AcDbEntity
  8
0
  6
Continuous
 62
     7
370
    15
100
AcDbLine
 10
614.1485552463
 20
1214.6545872469
 30
0.0
 11
613.251974729
 21
1213.6911526699
 31
0.0
  0
LINE
  5
68
330
1F
100
AcDbEntity
  8
0
  6
Continuous
 62
     7
370
    15
100
AcDbLine
 10
613.251974729
 20
1177.080698349
 30
0.0
 11
614.1485552463
 21
1176.117263772
 31
0.0
  0
ARC
  5
69
330
1F
100
AcDbEntity
  8
0
  6
Continuous
 62
     7
370
    15
100
AcDbCircle
 10
660.1050656849
 20
1134.1156123201
 30
0.0
 40
6.500000000000059
100
AcDbArc
 50
346.7717712588
 51
14.8077554718
  0
ARC
  5
6A
330
1F
100
AcDbEntity
  8
0
  6
Continuous
 62
     7
370
    15
100
AcDbCircle
 10
660.1050656849
 20
1134.1156123201
 30
0.0
 40
6.499999999999947
100
AcDbArc
 50
23.9323549452
 51
54.5220217153
  0
SPLINE
  5
6B
330
1F
100
AcDbEntity
  8
0
  6
Continuous
 62
     7
370
    15
100
AcDbSpline
210
0.0
220
0.0
230
1.0
 70
     8
 71
     3
 72
    10
 73
     6
 74
     0
 42
0.00000001
 43
0.00000001
 12
1.0
 22
0.0
 32
0.0
 13
1.0
 23
0.0
 33
0.0
 40
0.0
 40
0.0
 40
0.0
 40
0.0
 40
0.1516517671692296
 40
0.5678346418382894
 40
1.0
 40
1.0
 40
1.0
 40
1.0
 10
666.0195867690371
 20
1132.106088139507
 30
0.0
 10
666.0671722905928
 20
1132.11750593147
 30
0.0
 10
666.2453483059049
 20
1132.160257941098
 30
0.0
 10
666.4001057617256
 20
1132.453093504392
 30
0.0
 10
666.4409842300323
 20
1132.706005804263
 30
0.0
 10
666.461808529787
 20
1132.834844328853
 30
0.0
  0
SPLINE
  5
6C
330
1F
100
AcDbEntity
  8
0
  6
Continuous
 62
     7
370
    15
100
AcDbSpline
210
0.0
220
0.0
230
1.0
 70
     8
 71
     3
 72
    11
 73
     7
 74
     0
 42
0.00000001
 43
0.00000001
 12
1.0
 22
0.0
 32
0.0
 13
1.0
 23
0.0
 33
0.0
 40
0.0
 40
0.0
 40
0.0
 40
0.0
 40
0.0690572174562828
 40
0.508817230368581
 40
0.8154935441237368
 40
1.0
 40
1.0
 40
1.0
 40
1.0
 10
664.3875072869586
 20
1138.875223733875
 30
0.0
 10
664.3620209023575
 20
1138.912669878067
 30
0.0
 10
664.1742358727466
 20
1139.188575048851
 30
0.0
 10
663.8980152218599
 20
1139.411784119756
 30
0.0
 10
663.5148701496814
 20
1139.631950828507
 30
0.0
 10
663.2869899916949
 20
1139.551082082576
 30
0.0
 10
663.2013897570896
 20
1139.520704783889
 30
0.0
  0
LINE
  5
6D
330
1F
100
AcDbEntity
  8
0
  6
Continuous
 62
     7
370
    15
100
AcDbLine
 10
663.1828080091
 20
1139.5498812575
 30
0.0
 11
661.78072795
 21
1139.021568038
 31
0.0
  0
LINE
  5
6E
330
1F
100
AcDbEntity
  8
0
  6
Continuous
 62
     7
370
    15
100
AcDbLine
 10
664.6015922698
 20
1131.5353960175
 30
0.0
 11
666.0036574277
 21
1132.0637092371
 31
0.0
  0
ARC
  5
6F
330
1F
100
AcDbEntity
  8
0
  6
Continuous
 62
     7
370
    15
100
AcDbCircle
 10
645.0532561519
 20
1219.6276408116
 30
0.0
 40
6.499999999999948
100
AcDbArc
 50
346.7717712588
 51
14.8077554718
  0
ARC
  5
70
330
1F
100
AcDbEntity
  8
0
  6
Continuous
 62
     7
370
    15
100
AcDbCircle
 10
645.0532561519
 20
1219.6276408116
 30
0.0
 40
6.499999999999947
100
AcDbArc
 50
23.9323549452
 51
54.5220217153
  0
LINE
  5
71
330
1F
100
AcDbEntity
  8
0
  6
Continuous
 62
     7
370
    15
100
AcDbLine
 10
648.338889626
 20
1225.099302866
 30
0.0
 11
648.1580416831
 21
1225.042827465
 31
0.0
  0
LINE
  5
72
330
1F
100
AcDbEntity
  8
0
  6
Continuous
 62
     7
370
    15
100
AcDbLine
 10
648.1309960756
 20
1225.0619158525
 30
0.0
 11
646.7289160165
 21
1224.5335951824
 31
0.0
  0
ARC
  5
73
330
1F
100
AcDbEntity
  8
0
  6
Continuous
 62
     7
370
    15
100
AcDbCircle
 10
675.1165703009
 20
1134.1156123201
 30
0.0
 40
6.499999999999948
100
AcDbArc
 50
346.7717712588
 51
14.8077554718
  0
ARC
  5
74
330
1F
100
AcDbEntity
  8
0
  6
Continuous
 62
     7
370
    15
100
AcDbCircle
 10
675.1165703009
 20
1134.1156123201
 30
0.0
 40
6.499999999999947
100
AcDbArc
 50
23.9323549452
 51
54.5220217153
  0
SPLINE
  5
75
330
1F
100
AcDbEntity
  8
0
  6
Continuous
 62
     7
370
    15
100
AcDbSpline
210
0.0
220
0.0
230
1.0
 70
     8
 71
     3
 72
    10
 73
     6
 74
     0
 42
0.00000001
 43
0.00000001
 12
1.0
 22
0.0
 32
0.0
 13
1.0
 23
0.0
 33
0.0
 40
0.0
 40
0.0
 40
0.0
 40
0.0
 40
0.151651765541968
 40
0.567836013687776
 40
1.0
 40
1.0
 40
1.0
 40
1.0
 10
681.0310910615252
 20
1132.106088139507
 30
0.0
 10
681.0786765940873
 20
1132.117505965605
 30
0.0
 10
681.2568530829836
 20
1132.160258206789
 30
0.0
 10
681.4116094118938
 20
1132.453091997824
 30
0.0
 10
681.4524883495626
 20
1132.706005566922
 30
0.0
 10
681.4733128222751
 20
1132.834844328853
 30
0.0
  0
SPLINE
  5
76
330
1F
100
AcDbEntity
  8
0
  6
Continuous
 62
     7
370
    15
100
AcDbSpline
210
0.0
220
0.0
230
1.0
 70
     8
 71
     3
 72
    11
 73
     7
 74
     0
 42
0.00000001
 43
0.00000001
 12
1.0
 22
0.0
 32
0.0
 13
1.0
 23
0.0
 33
0.0
 40
0.0
 40
0.0
 40
0.0
 40
0.0
 40
0.0690569849394293
 40
0.5088177723201305
 40
0.8154944241087765
 40
0.9999999999999999
 40
0.9999999999999999
 40
0.9999999999999999
 40
0.9999999999999999
 10
679.3990115794467
 20
1138.875223733875
 30
0.0
 10
679.3735251865195
 20
1138.91266988582
 30
0.0
 10
679.1857392632697
 20
1139.188576336577
 30
0.0
 10
678.9095195689796
 20
1139.411783497261
 30
0.0
 10
678.526375570333
 20
1139.631950944686
 30
0.0
 10
678.2984943641202
 20
1139.551082033345
 30
0.0
 10
678.2128940495777
 20
1139.520704783889
 30
0.0
  0
LINE
  5
77
330
1F
100
AcDbEntity
  8
0
  6
Continuous
 62
     7
370
    15
100
AcDbLine
 10
678.1943123016
 20
1139.5498812575
 30
0.0
 11
676.7922322425
 21
1139.021568038
 31
0.0
  0
LINE
  5
78
330
1F
100
AcDbEntity
  8
0
  6
Continuous
 62
     7
370
    15
100
AcDbLine
 10
679.6130965623
 20
1131.5353960175
 30
0.0
 11
681.0151617202
 21
1132.0637092371
 31
0.0
  0
ARC
  5
79
330
1F
100
AcDbEntity
  8
0
  6
Continuous
 62
     7
370
    15
100
AcDbCircle
 10
630.0417515359
 20
1219.6276408116
 30
0.0
 40
6.499999999999982
100
AcDbArc
 50
346.7717712588
 51
14.8077554718
  0
ARC
  5
7A
330
1F
100
AcDbEntity
  8
0
  6
Continuous
 62
     7
370
    15
100
AcDbCircle
 10
630.0417515359
 20
1219.6276408116
 30
0.0
 40
6.500000000000012
100
AcDbArc
 50
23.9323549452
 51
54.5220217153
  0
SPLINE
  5
7B
330
1F
100
AcDbEntity
  8
0
  6
Continuous
 62
     7
370
    15
100
AcDbSpline
210
0.0
220
0.0
230
1.0
 70
     8
 71
     3
 72
    10
 73
     6
 74
     0
 42
0.00000001
 43
0.00000001
 12
1.0
 22
0.0
 32
0.0
 13
1.0
 23
0.0
 33
0.0
 40
0.0
 40
0.0
 40
0.0
 40
0.0
 40
0.1516540286385393
 40
0.5678380406835345
 40
1.0
 40
1.0
 40
1.0
 40
1.0
 10
635.9562705430316
 20
1217.618115283939
 30
0.0
 10
636.0038592397487
 20
1217.629532809781
 30
0.0
 10
636.1820455533283
 20
1217.672283441347
 30
0.0
 10
636.3367718289344
 20
1217.965130652556
 30
0.0
 10
636.3776620998437
 20
1218.218036768646
 30
0.0
 10
636.3984923037815
 20
1218.346871473285
 30
0.0
  0
SPLINE
  5
7C
330
1F
100
AcDbEntity
  8
0
  6
Continuous
 62
     7
370
    15
100
AcDbSpline
210
0.0
220
0.0
230
1.0
 70
     8
 71
     3
 72
    11
 73
     7
 74
     0
 42
0.00000001
 43
0.00000001
 12
1.0
 22
0.0
 32
0.0
 13
1.0
 23
0.0
 33
0.0
 40
0.0
 40
0.0
 40
0.0
 40
0.0
 40
0.0690562800171102
 40
0.508818715447551
 40
0.8154954352304682
 40
1.0
 40
1.0
 40
1.0
 40
1.0
 10
634.3241985115336
 20
1224.387250878307
 30
0.0
 10
634.2987120740017
 20
1224.424696959962
 30
0.0
 10
634.1109235571126
 20
1224.700606220663
 30
0.0
 10
633.8347121158744
 20
1224.923830813238
 30
0.0
 10
633.4515546994104
 20
1225.14396086846
 30
0.0
 10
633.223673527863
 20
1225.06310981295
 30
0.0
 10
633.138073531084
 20
1225.032739378902
 30
0.0
  0
LINE
  5
7D
330
1F
100
AcDbEntity
  8
0
  6
Continuous
 62
     7
370
    15
100
AcDbLine
 10
633.1194843325
 20
1225.0619158525
 30
0.0
 11
631.717411724
 21
1224.5335951824
 31
0.0
  0
LINE
  5
7E
330
1F
100
AcDbEntity
  8
0
  6
Continuous
 62
     7
370
    15
100
AcDbLine
 10
634.5382685932
 20
1217.0474306125
 30
0.0
 11
635.9403486523
 21
1217.5757363815
 31
0.0
  0
LINE
  5
7F
330
1F
100
AcDbEntity
  8
0
  6
Continuous
 62
     7
370
    15
100
AcDbLine
 10
673.7855355415
 20
1193.3045164127
 30
0.0
 11
673.737240878
 21
1193.3045164127
 31
0.0
  0
LINE
  5
80
330
1F
100
AcDbEntity
  8
0
  6
Continuous
 62
     7
370
    15
100
AcDbLine
 10
629.9329678687
 20
1226.6075387974
 30
0.0
 11
629.2674298558
 21
1226.4790162821
 31
0.0
  0
LINE
  5
81
330
1F
100
AcDbEntity
  8
0
  6
Continuous
 62
     7
370
    15
100
AcDbLine
 10
629.2445640239
 20
1226.4826670665
 30
0.0
 11
625.3415699276
 21
1225.0119820614
 31
0.0
  0
LINE
  5
82
330
1F
100
AcDbEntity
  8
0
  6
Continuous
 62
     7
370
    15
100
AcDbLine
 10
645.20329043
 20
1226.6075387974
 30
0.0
 11
629.9329678687
 21
1226.6075387974
 31
0.0
  0
SPLINE
  5
83
330
1F
100
AcDbEntity
  8
0
  6
Continuous
 62
     7
370
    15
100
AcDbSpline
210
0.0
220
0.0
230
1.0
 70
     8
 71
     3
 72
    15
 73
    11
 74
     0
 42
0.00000001
 43
0.00000001
 12
1.0
 22
0.0
 32
0.0
 13
1.0
 23
0.0
 33
0.0
 40
0.0
 40
0.0
 40
0.0
 40
0.0
 40
0.0835850943680496
 40
0.2450821230948799
 40
0.4139440114953458
 40
0.6107128148926916
 40
0.7315857843375612
 40
0.8437220174363939
 40
0.9607152277885543
 40
1.0
 40
1.0
 40
1.0
 40
1.0
 10
680.068803873949
 20
1212.819032408687
 30
0.0
 10
680.0662054943307
 20
1213.016408676044
 30
0.0
 10
680.0585867149507
 20
1213.595140984933
 30
0.0
 10
679.9717434683346
 20
1214.545769800911
 30
0.0
 10
679.760161743111
 20
1215.617102277325
 30
0.0
 10
679.443567389602
 20
1216.463736722882
 30
0.0
 10
678.9279510021088
 20
1217.162397793325
 30
0.0
 10
678.3126392720867
 20
1217.616384721157
 30
0.0
 10
677.7292672567634
 20
1217.802960755864
 30
0.0
 10
677.3801142361087
 20
1217.815800114212
 30
0.0
 10
677.2923450145054
 20
1217.819027640315
 30
0.0
  0
SPLINE
  5
84
330
1F
100
AcDbEntity
  8
0
  6
Continuous
 62
     7
370
    15
100
AcDbSpline
210
0.0
220
0.0
230
1.0
 70
     8
 71
     3
 72
    15
 73
    11
 74
     0
 42
0.00000001
 43
0.00000001
 12
1.0
 22
0.0
 32
0.0
 13
1.0
 23
0.0
 33
0.0
 40
0.0
 40
0.0
 40
0.0
 40
0.0
 40
0.009997032502685
 40
0.1241177574272412
 40
0.2328697065506349
 40
0.3497475134561221
 40
0.4954626045865617
 40
0.701836383039808
 40
0.8970660170681983
 40
1.0
 40
1.0
 40
1.0
 40
1.0
 10
678.0590544614123
 20
1140.018187500926
 30
0.0
 10
678.0790694185207
 20
1140.021835391168
 30
0.0
 10
678.3275643184444
 20
1140.06712562664
 30
0.0
 10
678.7138792644513
 20
1140.365774741271
 30
0.0
 10
679.1635516735357
 20
1140.821054057858
 30
0.0
 10
679.4900628766754
 20
1141.395130135764
 30
0.0
 10
679.7617959913301
 20
1142.146009476661
 30
0.0
 10
679.9610881464469
 20
1143.150085908626
 30
0.0
 10
680.0574884306568
 20
1144.200971684224
 30
0.0
 10
680.0658999831079
 20
1144.840241337034
 30
0.0
 10
680.068803873949
 20
1145.06093416402
 30
0.0
  0
LINE
  5
85
330
1F
100
AcDbEntity
  8
0
  6
Continuous
 62
     7
370
    15
100
AcDbLine
 10
675.9473662051
 20
1139.210939445
 30
0.0
 11
678.0684272918
 21
1140.0101781268
 31
0.0
  0
SPLINE
  5
86
330
1F
100
AcDbEntity
  8
0
  6
Continuous
 62
     7
370
    15
100
AcDbSpline
210
0.0
220
0.0
230
1.0
 70
     8
 71
     3
 72
    10
 73
     6
 74
     0
 42
0.00000001
 43
0.00000001
 12
1.0
 22
0.0
 32
0.0
 13
1.0
 23
0.0
 33
0.0
 40
0.0
 40
0.0
 40
0.0
 40
0.0
 40
0.325805860103247
 40
0.9389643012073526
 40
1.0
 40
1.0
 40
1.0
 40
1.0
 10
675.6661365899372
 20
1138.997055627796
 30
0.0
 10
675.663469507925
 20
1138.994517684808
 30
0.0
 10
675.6557830445907
 20
1138.987203396898
 30
0.0
 10
675.8359487563921
 20
1139.194852738027
 30
0.0
 10
675.9744497153779
 20
1139.216661516787
 30
0.0
 10
675.986988392763
 20
1139.218635894748
 30
0.0
  0
LINE
  5
87
330
1F
100
AcDbEntity
  8
0
  6
Continuous
 62
     7
370
    15
100
AcDbLine
 10
680.0688038739
 20
1145.060934164
 30
0.0
 11
680.0688038739
 21
1212.8190324087
 31
0.0
  0
SPLINE
  5
88
330
1F
100
AcDbEntity
  8
0
  6
Continuous
 62
     7
370
    15
100
AcDbSpline
210
0.0
220
0.0
230
1.0
 70
     8
 71
     3
 72
    13
 73
     9
 74
     0
 42
0.00000001
 43
0.00000001
 12
1.0
 22
0.0
 32
0.0
 13
1.0
 23
0.0
 33
0.0
 40
0.0
 40
0.0
 40
0.0
 40
0.0
 40
0.0196979153954016
 40
0.252878521345509
 40
0.4549343908794097
 40
0.6586888487553877
 40
0.8959198829008467
 40
1.0
 40
1.0
 40
1.0
 40
1.0
 10
678.9054255160618
 20
1129.366800226661
 30
0.0
 10
678.926801250105
 20
1129.370617980595
 30
0.0
 10
679.2012193247607
 20
1129.419629662811
 30
0.0
 10
679.6175699948102
 20
1129.76796377425
 30
0.0
 10
680.0215177535783
 20
1130.302161083061
 30
0.0
 10
680.2255726386221
 20
1130.897585640424
 30
0.0
 10
680.3041817588668
 20
1131.370449915796
 30
0.0
 10
680.2860832667078
 20
1131.689586965337
 30
0.0
 10
680.2805642756747
 20
1131.786905266734
 30
0.0
  0
LINE
  5
89
330
1F
100
AcDbEntity
  8
0
  6
Continuous
 62
     7
370
    15
100
AcDbLine
 10
675.0252972516
 20
1127.892464437
 30
0.0
 11
678.9282987985
 21
1129.3631494422
 31
0.0
  0
LINE
  5
8A
330
1F
100
AcDbEntity
  8
0
  6
Continuous
 62
     7
370
    15
100
AcDbLine
 10
678.0665348443
 20
1139.5017356057
 30
0.0
 11
677.9089103612
 21
1139.9500742931
 31
0.0
  0
SPLINE
  5
8B
330
1F
100
AcDbEntity
  8
0
  6
Continuous
 62
     7
370
    15
100
AcDbSpline
210
0.0
220
0.0
230
1.0
 70
     8
 71
     3
 72
    12
 73
     8
 74
     0
 42
0.00000001
 43
0.00000001
 12
1.0
 22
0.0
 32
0.0
 13
1.0
 23
0.0
 33
0.0
 40
0.0
 40
0.0
 40
0.0
 40
0.0
 40
0.1716994638974117
 40
0.54265841351481
 40
0.7463667027939309
 40
0.9593970373428351
 40
1.0
 40
1.0
 40
1.0
 40
1.0
 10
647.6363296779917
 20
1224.875517227146
 30
0.0
 10
647.5344388772971
 20
1225.034276361701
 30
0.0
 10
647.2124116618263
 20
1225.536036694162
 30
0.0
 10
646.7313855318022
 20
1226.030350784897
 30
0.0
 10
646.0527533788907
 20
1226.459584866801
 30
0.0
 10
645.545983995943
 20
1226.599770826439
 30
0.0
 10
645.2505802306106
 20
1226.606466860694
 30
0.0
 10
645.2032904300022
 20
1226.607538797351
 30
0.0
  0
SPLINE
  5
8C
330
1F
100
AcDbEntity
  8
0
  6
Continuous
 62
     7
370
    15
100
AcDbSpline
210
0.0
220
0.0
230
1.0
 70
     8
 71
     3
 72
    11
 73
     7
 74
     0
 42
0.00000001
 43
0.00000001
 12
1.0
 22
0.0
 32
0.0
 13
1.0
 23
0.0
 33
0.0
 40
0.0
 40
0.0
 40
0.0
 40
0.0
 40
0.0694923043518035
 40
0.4501000183623817
 40
0.8101585687612025
 40
0.9999999999999999
 40
0.9999999999999999
 40
0.9999999999999999
 40
0.9999999999999999
 10
628.1095425757693
 20
1213.325463273021
 30
0.0
 10
628.0861212526632
 20
1213.264808759149
 30
0.0
 10
627.9344218946051
 20
1212.871950901543
 30
0.0
 10
627.8012709266228
 20
1212.050468601054
 30
0.0
 10
627.6964350861101
 20
1211.004495954648
 30
0.0
 10
627.688672009365
 20
1210.364846283247
 30
0.0
 10
627.6859919699954
 20
1210.144020654651
 30
0.0
  0
LINE
  5
8D
330
1F
100
AcDbEntity
  8
0
  6
Continuous
 62
     7
370
    15
100
AcDbLine
 10
627.68599197
 20
1210.1440206547
 30
0.0
 11
627.68599197
 21
1142.3859298606
 31
0.0
  0
SPLINE
  5
8E
330
1F
100
AcDbEntity
  8
0
  6
Continuous
 62
     7
370
    15
100
AcDbSpline
210
0.0
220
0.0
230
1.0
 70
     8
 71
     3
 72
    15
 73
    11
 74
     0
 42
0.00000001
 43
0.00000001
 12
1.0
 22
0.0
 32
0.0
 13
1.0
 23
0.0
 33
0.0
 40
0.0
 40
0.0
 40
0.0
 40
0.0
 40
0.0835861605521299
 40
0.245083211957416
 40
0.4139440558920592
 40
0.6107137106164643
 40
0.7315855574791643
 40
0.843722229358947
 40
0.960716284002319
 40
1.0
 40
1.0
 40
1.0
 40
1.0
 10
627.6859919699954
 20
1142.385929860565
 30
0.0
 10
627.6885932690277
 20
1142.188551120624
 30
0.0
 10
627.696220545097
 20
1141.609816372705
 30
0.0
 10
627.7830575480818
 20
1140.659186635627
 30
0.0
 10
627.9946438745344
 20
1139.58785845631
 30
0.0
 10
628.3112349152565
 20
1138.74121847803
 30
0.0
 10
628.8268474021586
 20
1138.042564823308
 30
0.0
 10
629.4421557600843
 20
1137.588568767057
 30
0.0
 10
630.0255324269066
 20
1137.401988703239
 30
0.0
 10
630.374684169785
 20
1137.389159515934
 30
0.0
 10
630.462450829439
 20
1137.385934628936
 30
0.0
  0
LINE
  5
8F
330
1F
100
AcDbEntity
  8
0
  6
Continuous
 62
     7
370
    15
100
AcDbLine
 10
588.4153488251
 20
778.8859382648
 30
0.0
 11
588.4153488251
 21
779.8859253902
 31
0.0
  0
LINE
  5
90
330
1F
100
AcDbEntity
  8
0
  6
Continuous
 62
     7
370
    15
100
AcDbLine
 10
574.0353482935
 20
779.8859253902
 30
0.0
 11
574.0353482935
 21
778.8859382648
 31
0.0
  0
LINE
  5
91
330
1F
100
AcDbEntity
  8
0
  6
Continuous
 62
     7
370
    15
100
AcDbLine
 10
585.225349215
 20
794.8859408874
 30
0.0
 11
585.225349215
 21
895.8859369535
 31
0.0
  0
LINE
  5
92
330
1F
100
AcDbEntity
  8
0
  6
Continuous
 62
     7
370
    15
100
AcDbLine
 10
577.2253479037
 20
895.8859369535
 30
0.0
 11
577.2253479037
 21
794.8859408874
 31
0.0
  0
LINE
  5
93
330
1F
100
AcDbEntity
  8
0
  6
Continuous
 62
     7
370
    15
100
AcDbLine
 10
492.2488275143
 20
778.8859382648
 30
0.0
 11
492.2488275143
 21
779.8859253902
 31
0.0
  0
LINE
  5
94
330
1F
100
AcDbEntity
  8
0
  6
Continuous
 62
     7
370
    15
100
AcDbLine
 10
477.8688269827
 20
779.8859253902
 30
0.0
 11
477.8688269827
 21
778.8859382648
 31
0.0
  0
LINE
  5
95
330
1F
100
AcDbEntity
  8
0
  6
Continuous
 62
     7
370
    15
100
AcDbLine
 10
489.0588279042
 20
794.8859408874
 30
0.0
 11
489.0588279042
 21
895.8859369535
 31
0.0
  0
LINE
  5
96
330
1F
100
AcDbEntity
  8
0
  6
Continuous
 62
     7
370
    15
100
AcDbLine
 10
481.0588265929
 20
895.8859369535
 30
0.0
 11
481.0588265929
 21
794.8859408874
 31
0.0
  0
LINE
  5
97
330
1F
100
AcDbEntity
  8
0
  6
Continuous
 62
     7
370
    15
100
AcDbLine
 10
472.1420872185
 20
819.8859319467
 30
0.0
 11
472.1420872185
 21
794.8859408874
 31
0.0
  0
LINE
  5
98
330
1F
100
AcDbEntity
  8
0
  6
Continuous
 62
     7
370
    15
100
AcDbLine
 10
594.1420885894
 20
794.8859408874
 30
0.0
 11
594.1420885894
 21
819.8859319467
 31
0.0
  0
LINE
  5
99
330
1F
100
AcDbEntity
  8
0
  6
Continuous
 62
     7
370
    15
100
AcDbLine
 10
471.9269368026
 20
794.8859408874
 30
0.0
 11
471.9269368026
 21
781.8859294433
 31
0.0
  0
ARC
  5
9A
330
1F
100
AcDbEntity
  8
0
  6
Continuous
 62
     7
370
    15
100
AcDbCircle
 10
473.9269380913
 20
781.8859320659
 30
0.0
 40
2.000000000000114
100
AcDbArc
 50
180.0
 51
270.0
  0
LINE
  5
9B
330
1F
100
AcDbEntity
  8
0
  6
Continuous
 62
     7
370
    15
100
AcDbLine
 10
594.3572390053
 20
781.8859294433
 30
0.0
 11
594.3572390053
 21
794.8859408874
 31
0.0
  0
ARC
  5
9C
330
1F
100
AcDbEntity
  8
0
  6
Continuous
 62
     7
370
    15
100
AcDbCircle
 10
592.3572377165
 20
781.8859320659
 30
0.0
 40
2.000000000000114
100
AcDbArc
 50
270.0
 51
0.0
  0
ARC
  5
9D
330
1F
100
AcDbEntity
  8
0
  6
Continuous
 62
     7
370
    15
100
AcDbCircle
 10
492.1420879039
 20
774.8859320659
 30
0.0
 40
5.000000000000083
100
AcDbArc
 50
0.0
 51
88.7767696191
  0
ARC
  5
9E
330
1F
100
AcDbEntity
  8
0
  6
Continuous
 62
     7
370
    15
100
AcDbCircle
 10
574.1420879039
 20
774.8859320659
 30
0.0
 40
5.000000000000092
100
AcDbArc
 50
91.2232303809
 51
180.0
  0
LINE
  5
9F
330
1F
100
AcDbEntity
  8
0
  6
Continuous
 62
     7
370
    15
100
AcDbLine
 10
497.1420894536
 20
774.8859301586
 30
0.0
 11
497.1420894536
 21
756.8859234829
 31
0.0
  0
ARC
  5
A0
330
1F
100
AcDbEntity
  8
0
  6
Continuous
 62
     7
370
    15
100
AcDbCircle
 10
499.1420879039
 20
756.8859320659
 30
0.0
 40
2.000000000000114
100
AcDbArc
 50
180.0
 51
270.0
  0
LINE
  5
A1
330
1F
100
AcDbEntity
  8
0
  6
Continuous
 62
     7
370
    15
100
AcDbLine
 10
569.1420863542
 20
756.8859234829
 30
0.0
 11
569.1420863542
 21
774.8859301586
 31
0.0
  0
ARC
  5
A2
330
1F
100
AcDbEntity
  8
0
  6
Continuous
 62
     7
370
    15
100
AcDbCircle
 10
567.1420879039
 20
756.8859320659
 30
0.0
 40
2.000000000000114
100
AcDbArc
 50
270.0
 51
0.0
  0
ARC
  5
A3
330
1F
100
AcDbEntity
  8
0
  6
Continuous
 62
     7
370
    15
100
AcDbCircle
 10
488.3670971563
 20
774.8859320659
 30
0.0
 40
5.000000000000057
100
AcDbArc
 50
0.0
 51
53.1301023542
  0
ARC
  5
A4
330
1F
100
AcDbEntity
  8
0
  6
Continuous
 62
     7
370
    15
100
AcDbCircle
 10
577.9170786515
 20
774.8859320659
 30
0.0
 40
5.000000000000026
100
AcDbArc
 50
140.8779358329
 51
180.0
  0
LINE
  5
A5
330
1F
100
AcDbEntity
  8
0
  6
Continuous
 62
     7
370
    15
100
AcDbLine
 10
493.367096332
 20
774.8859301586
 30
0.0
 11
493.367096332
 21
756.8859234829
 31
0.0
  0
ARC
  5
A6
330
1F
100
AcDbEntity
  8
0
  6
Continuous
 62
     7
370
    15
100
AcDbCircle
 10
495.3670971563
 20
756.8859320659
 30
0.0
 40
2.000000000000114
100
AcDbArc
 50
180.0
 51
270.0
  0
LINE
  5
A7
330
1F
100
AcDbEntity
  8
0
  6
Continuous
 62
     7
370
    15
100
AcDbLine
 10
572.9170794758
 20
756.8859234829
 30
0.0
 11
572.9170794758
 21
774.8859301586
 31
0.0
  0
ARC
  5
A8
330
1F
100
AcDbEntity
  8
0
  6
Continuous
 62
     7
370
    15
100
AcDbCircle
 10
570.9170786515
 20
756.8859320659
 30
0.0
 40
2.000000000000114
100
AcDbArc
 50
270.0
 51
0.0
  0
LINE
  5
A9
330
1F
100
AcDbEntity
  8
0
  6
Continuous
 62
     7
370
    15
100
AcDbLine
 10
594.1420885894
 20
856.3859388609
 30
0.0
 11
594.1420885894
 21
892.8859308738
 31
0.0
  0
LINE
  5
AA
330
1F
100
AcDbEntity
  8
0
  6
Continuous
 62
     7
370
    15
100
AcDbLine
 10
472.1420872185
 20
892.8859308738
 30
0.0
 11
472.1420872185
 21
856.3859388609
 31
0.0
  0
LINE
  5
AB
330
1F
100
AcDbEntity
  8
0
  6
Continuous
 62
     7
370
    15
100
AcDbLine
 10
594.1420885894
 20
819.8859319467
 30
0.0
 11
594.1420885894
 21
856.3859388609
 31
0.0
  0
LINE
  5
AC
330
1F
100
AcDbEntity
  8
0
  6
Continuous
 62
     7
370
    15
100
AcDbLine
 10
472.1420872185
 20
856.3859388609
 30
0.0
 11
472.1420872185
 21
819.8859319467
 31
0.0
  0
LINE
  5
AD
330
1F
100
AcDbEntity
  8
0
  6
Continuous
 62
     7
370
    15
100
AcDbLine
 10
618.142088798
 20
983.3859354634
 30
0.0
 11
618.142088798
 21
1045.8859319709
 31
0.0
  0
LINE
  5
AE
330
1F
100
AcDbEntity
  8
0
  6
Continuous
 62
     7
370
    15
100
AcDbLine
 10
448.1420870098
 20
1045.8859319709
 30
0.0
 11
448.1420870098
 21
996.3859320063
 31
0.0
  0
LINE
  5
AF
330
1F
100
AcDbEntity
  8
0
  6
Continuous
 62
     7
370
    15
100
AcDbLine
 10
448.1420870098
 20
966.3859308142
 30
0.0
 11
448.1420870098
 21
963.3859321851
 31
0.0
  0
LINE
  5
B0
330
1F
100
AcDbEntity
  8
0
  6
Continuous
 62
     7
370
    15
100
AcDbLine
 10
618.142088798
 20
963.3859321851
 30
0.0
 11
618.142088798
 21
966.3859308142
 31
0.0
  0
LINE
  5
B1
330
1F
100
AcDbEntity
  8
0
  6
Continuous
 62
     7
370
    15
100
AcDbLine
 10
502.1420884105
 20
917.5728187341
 30
0.0
 11
502.1420884105
 21
914.1867533703
 31
0.0
  0
LINE
  5
B2
330
1F
100
AcDbEntity
  8
0
  6
Continuous
 62
     7
370
    15
100
AcDbLine
 10
564.1420873973
 20
914.1933992882
 30
0.0
 11
564.1420873973
 21
917.5728187341
 31
0.0
  0
ARC
  5
B3
330
1F
100
AcDbEntity
  8
0
  6
Continuous
 62
     7
370
    15
100
AcDbCircle
 10
623.1420879039
 20
983.3859320659
 30
0.0
 40
5.0
100
AcDbArc
 50
180.0
 51
270.0
  0
ARC
  5
B4
330
1F
100
AcDbEntity
  8
0
  6
Continuous
 62
     7
370
    15
100
AcDbCircle
 10
473.9269380913
 20
908.8859320659
 30
0.0
 40
2.0
100
AcDbArc
 50
90.0
 51
180.0
  0
LINE
  5
B5
330
1F
100
AcDbEntity
  8
0
  6
Continuous
 62
     7
370
    15
100
AcDbLine
 10
471.9269368026
 20
908.8859334964
 30
0.0
 11
471.9269368026
 21
897.8859261055
 31
0.0
  0
ARC
  5
B6
330
1F
100
AcDbEntity
  8
0
  6
Continuous
 62
     7
370
    15
100
AcDbCircle
 10
473.9269380913
 20
897.8859320659
 30
0.0
 40
2.000000000000114
100
AcDbArc
 50
180.0
 51
270.0
  0
ARC
  5
B7
330
1F
100
AcDbEntity
  8
0
  6
Continuous
 62
     7
370
    15
100
AcDbCircle
 10
592.3572377165
 20
908.8859320659
 30
0.0
 40
2.0
100
AcDbArc
 50
0.0
 51
90.0
  0
LINE
  5
B8
330
1F
100
AcDbEntity
  8
0
  6
Continuous
 62
     7
370
    15
100
AcDbLine
 10
594.3572390053
 20
897.8859261055
 30
0.0
 11
594.3572390053
 21
908.8859334964
 31
0.0
  0
ARC
  5
B9
330
1F
100
AcDbEntity
  8
0
  6
Continuous
 62
     7
370
    15
100
AcDbCircle
 10
592.3572377165
 20
897.8859320659
 30
0.0
 40
2.000000000000114
100
AcDbArc
 50
270.0
 51
0.0
  0
ARC
  5
BA
330
1F
100
AcDbEntity
  8
0
  6
Continuous
 62
     7
370
    15
100
AcDbCircle
 10
474.1420879039
 20
918.8859320659
 30
0.0
 40
2.0
100
AcDbArc
 50
90.0
 51
180.0
  0
LINE
  5
BB
330
1F
100
AcDbEntity
  8
0
  6
Continuous
 62
     7
370
    15
100
AcDbLine
 10
472.1420872185
 20
918.8859388609
 30
0.0
 11
472.1420872185
 21
909.788318016
 31
0.0
  0
LINE
  5
BC
330
1F
100
AcDbEntity
  8
0
  6
Continuous
 62
     7
370
    15
100
AcDbLine
 10
472.1420872185
 20
896.9835415859
 30
0.0
 11
472.1420872185
 21
892.8859308738
 31
0.0
  0
ARC
  5
BD
330
1F
100
AcDbEntity
  8
0
  6
Continuous
 62
     7
370
    15
100
AcDbCircle
 10
592.1420879039
 20
918.8859320659
 30
0.0
 40
2.0
100
AcDbArc
 50
0.0
 51
90.0
  0
LINE
  5
BE
330
1F
100
AcDbEntity
  8
0
  6
Continuous
 62
     7
370
    15
100
AcDbLine
 10
594.1420885894
 20
892.8859308738
 30
0.0
 11
594.1420885894
 21
896.9835415859
 31
0.0
  0
LINE
  5
BF
330
1F
100
AcDbEntity
  8
0
  6
Continuous
 62
     7
370
    15
100
AcDbLine
 10
594.1420885894
 20
909.788318016
 30
0.0
 11
594.1420885894
 21
918.8859388609
 31
0.0
  0
SPLINE
  5
C0
330
1F
100
AcDbEntity
  8
0
  6
Continuous
 62
     7
370
    15
100
AcDbSpline
210
0.0
220
0.0
230
1.0
 70
     8
 71
     3
 72
    11
 73
     7
 74
     0
 42
0.00000001
 43
0.00000001
 12
1.0
 22
0.0
 32
0.0
 13
1.0
 23
0.0
 33
0.0
 40
0.0
 40
0.0
 40
0.0
 40
0.0
 40
0.2432328602853426
 40
0.6223124467732417
 40
0.9148673776356523
 40
1.0
 40
1.0
 40
1.0
 40
1.0
 10
586.0840025517272
 20
910.9139815349306
 30
0.0
 10
585.9432073618059
 20
910.9174157448268
 30
0.0
 10
585.5829821889774
 20
910.9262021874188
 30
0.0
 10
585.1546958459136
 20
911.1355170565328
 30
0.0
 10
584.9537823653296
 20
911.3260790022065
 30
0.0
 10
584.9750328245051
 20
911.2978382542206
 30
0.0
 10
584.9798227819729
 20
911.2914726514542
 30
0.0
  0
SPLINE
  5
C1
330
1F
100
AcDbEntity
  8
0
  6
Continuous
 62
     7
370
    15
100
AcDbSpline
210
0.0
220
0.0
230
1.0
 70
     8
 71
     3
 72
    11
 73
     7
 74
     0
 42
0.00000001
 43
0.00000001
 12
1.0
 22
0.0
 32
0.0
 13
1.0
 23
0.0
 33
0.0
 40
0.0
 40
0.0
 40
0.0
 40
0.0
 40
0.2467301768943
 40
0.5708826161339716
 40
0.9167736488543727
 40
1.0
 40
1.0
 40
1.0
 40
1.0
 10
481.3181813034343
 20
911.3116488237108
 30
0.0
 10
481.305157760758
 20
911.2946312552435
 30
0.0
 10
481.2750239757143
 20
911.255256120312
 30
0.0
 10
480.8747432809634
 20
911.0026882403204
 30
0.0
 10
480.420978433446
 20
910.8698262605557
 30
0.0
 10
480.1770612772452
 20
910.8979476334746
 30
0.0
 10
480.1297540935802
 20
910.903401710483
 30
0.0
  0
SPLINE
  5
C2
330
1F
100
AcDbEntity
  8
0
  6
Continuous
 62
     7
370
    15
100
AcDbSpline
210
0.0
220
0.0
230
1.0
 70
     8
 71
     3
 72
    12
 73
     8
 74
     0
 42
0.00000001
 43
0.00000001
 12
1.0
 22
0.0
 32
0.0
 13
1.0
 23
0.0
 33
0.0
 40
0.0
 40
0.0
 40
0.0
 40
0.0
 40
0.0625995933556989
 40
0.2142218244029361
 40
0.5357047111708637
 40
0.9124771010703431
 40
1.0
 40
1.0
 40
1.0
 40
1.0
 10
576.0424788269329
 20
920.8834246177399
 30
0.0
 10
576.0428418214915
 20
920.8834268856476
 30
0.0
 10
576.0440840237555
 20
920.8834346466451
 30
0.0
 10
575.9252957737208
 20
920.9055102604175
 30
0.0
 10
575.5753487223953
 20
921.0613561457378
 30
0.0
 10
575.260063133204
 20
921.3087318474882
 30
0.0
 10
575.160799268258
 20
921.4501963224831
 30
0.0
 10
575.1420873376654
 20
921.4768633622849
 30
0.0
  0
SPLINE
  5
C3
330
1F
100
AcDbEntity
  8
0
  6
Continuous
 62
     7
370
    15
100
AcDbSpline
210
0.0
220
0.0
230
1.0
 70
     8
 71
     3
 72
    11
 73
     7
 74
     0
 42
0.00000001
 43
0.00000001
 12
1.0
 22
0.0
 32
0.0
 13
1.0
 23
0.0
 33
0.0
 40
0.0
 40
0.0
 40
0.0
 40
0.0
 40
0.1533091367430831
 40
0.6066645853755988
 40
0.8826701989206356
 40
1.0
 40
1.0
 40
1.0
 40
1.0
 10
491.1420884701537
 20
921.4819893617357
 30
0.0
 10
491.1081456638799
 20
921.4366017988965
 30
0.0
 10
490.9738294780865
 20
921.2569971936126
 30
0.0
 10
490.6225234683323
 20
921.0003394022875
 30
0.0
 10
490.2652154686613
 20
920.8864324809349
 30
0.0
 10
490.249835070978
 20
920.8847125300547
 30
0.0
 10
490.2452471825408
 20
920.8841994781221
 30
0.0
  0
SPLINE
  5
C4
330
1F
100
AcDbEntity
  8
0
  6
Continuous
 62
     7
370
    15
100
AcDbSpline
210
0.0
220
0.0
230
1.0
 70
     8
 71
     3
 72
    13
 73
     9
 74
     0
 42
0.00000001
 43
0.00000001
 12
1.0
 22
0.0
 32
0.0
 13
1.0
 23
0.0
 33
0.0
 40
0.0
 40
0.0
 40
0.0
 40
0.0
 40
0.210958981907312
 40
0.4218743409126394
 40
0.6340843771038369
 40
0.8490899983523055
 40
0.9950609711666327
 40
1.0
 40
1.0
 40
1.0
 40
1.0
 10
515.9054341885376
 20
1266.385935284588
 30
0.0
 10
515.9131195699772
 20
1266.608514648856
 30
0.0
 10
515.9284887436442
 20
1267.053627351585
 30
0.0
 10
516.0480631699152
 20
1267.646851645707
 30
0.0
 10
516.2243262692168
 20
1268.102100842548
 30
0.0
 10
516.4218342183952
 20
1268.339233710767
 30
0.0
 10
516.5557277107214
 20
1268.385522944382
 30
0.0
 10
516.6108558131541
 20
1268.385926141736
 30
0.0
 10
516.6126600626038
 20
1268.385939337703
 30
0.0
  0
LINE
  5
C5
330
1F
100
AcDbEntity
  8
0
  6
Continuous
 62
     7
370
    15
100
AcDbLine
 10
516.6126600626
 20
1268.3859393377
 30
0.0
 11
622.1420894536
 21
1268.3859393377
 31
0.0
  0
LINE
  5
C6
330
1F
100
AcDbEntity
  8
0
  6
Continuous
 62
     7
370
    15
100
AcDbLine
 10
444.1420863542
 20
1268.3859393377
 30
0.0
 11
465.3313438567
 21
1268.3859393377
 31
0.0
  0
LINE
  5
C7
330
1F
100
AcDbEntity
  8
0
  6
Continuous
 62
     7
370
    15
100
AcDbLine
 10
533.7204994677
 20
1217.3859253902
 30
0.0
 11
570.3537631008
 21
1217.3859253902
 31
0.0
  0
SPLINE
  5
C8
330
1F
100
AcDbEntity
  8
0
  6
Continuous
 62
     7
370
    15
100
AcDbSpline
210
0.0
220
0.0
230
1.0
 70
     8
 71
     3
 72
    12
 73
     8
 74
     0
 42
0.00000001
 43
0.00000001
 12
1.0
 22
0.0
 32
0.0
 13
1.0
 23
0.0
 33
0.0
 40
0.0
 40
0.0
 40
0.0
 40
0.0
 40
0.180873839985891
 40
0.3614143397808877
 40
0.5505812797770807
 40
0.7622077294144537
 40
1.0
 40
1.0
 40
1.0
 40
1.0
 10
531.4194515041189
 20
1219.385929443332
 30
0.0
 10
531.4404503580372
 20
1219.181809866336
 30
0.0
 10
531.4824093661811
 20
1218.773946893104
 30
0.0
 10
531.8042419885564
 20
1218.225357939249
 30
0.0
 10
532.2878874531937
 20
1217.778557659355
 30
0.0
 10
532.9454620435243
 20
1217.452362074714
 30
0.0
 10
533.4523170443107
 20
1217.408914152428
 30
0.0
 10
533.7204994676749
 20
1217.385925390216
 30
0.0
  0
SPLINE
  5
C9
330
1F
100
AcDbEntity
  8
0
  6
Continuous
 62
     7
370
    15
100
AcDbSpline
210
0.0
220
0.0
230
1.0
 70
     8
 71
     3
 72
    12
 73
     8
 74
     0
 42
0.00000001
 43
0.00000001
 12
1.0
 22
0.0
 32
0.0
 13
1.0
 23
0.0
 33
0.0
 40
0.0
 40
0.0
 40
0.0
 40
0.0
 40
0.2521073990028863
 40
0.5047021612207535
 40
0.7406680134613441
 40
0.9463275281019295
 40
0.9999999999999999
 40
0.9999999999999999
 40
0.9999999999999999
 40
0.9999999999999999
 10
529.1511858041513
 20
1221.385933496448
 30
0.0
 10
529.432616682527
 20
1221.358886854975
 30
0.0
 10
529.9960224893869
 20
1221.304741286623
 30
0.0
 10
530.7327899657355
 20
1220.881132529097
 30
0.0
 10
531.236403568725
 20
1220.275831117922
 30
0.0
 10
531.4083924627002
 20
1219.73403960275
 30
0.0
 10
531.4175551538474
 20
1219.445621668938
 30
0.0
 10
531.4194515041189
 20
1219.385929443332
 30
0.0
  0
LINE
  5
CA
330
1F
100
AcDbEntity
  8
0
  6
Continuous
 62
     7
370
    15
100
AcDbLine
 10
529.1511858042
 20
1221.3859334964
 30
0.0
 11
515.9054341885
 21
1221.3859334964
 31
0.0
  0
LINE
  5
CB
330
1F
100
AcDbEntity
  8
0
  6
Continuous
 62
     7
370
    15
100
AcDbLine
 10
515.9054341885
 20
1266.3859352846
 30
0.0
 11
515.9054341885
 21
1221.3859334964
 31
0.0
  0
LINE
  5
CC
330
1F
100
AcDbEntity
  8
0
  6
Continuous
 62
     7
370
    15
100
AcDbLine
 10
463.8075064096
 20
1221.3859334964
 30
0.0
 11
456.4050491127
 21
1221.3859334964
 31
0.0
  0
SPLINE
  5
CD
330
1F
100
AcDbEntity
  8
0
  6
Continuous
 62
     7
370
    15
100
AcDbSpline
210
0.0
220
0.0
230
1.0
 70
     8
 71
     3
 72
    12
 73
     8
 74
     0
 42
0.00000001
 43
0.00000001
 12
1.0
 22
0.0
 32
0.0
 13
1.0
 23
0.0
 33
0.0
 40
0.0
 40
0.0
 40
0.0
 40
0.0
 40
0.1829285949940574
 40
0.365504005560521
 40
0.5574135695207347
 40
0.7721375408387967
 40
1.0
 40
1.0
 40
1.0
 40
1.0
 10
455.2092160257625
 20
1219.385929443332
 30
0.0
 10
455.2201163591381
 20
1219.590583544729
 30
0.0
 10
455.2418959803658
 20
1219.999496617163
 30
0.0
 10
455.4092454392047
 20
1220.549958722683
 30
0.0
 10
455.662615358498
 20
1220.999242858602
 30
0.0
 10
456.0038624032021
 20
1221.321132268156
 30
0.0
 10
456.2686995838869
 20
1221.363909793429
 30
0.0
 10
456.40504911273
 20
1221.385933496448
 30
0.0
  0
SPLINE
  5
CE
330
1F
100
AcDbEntity
  8
0
  6
Continuous
 62
     7
370
    15
100
AcDbSpline
210
0.0
220
0.0
230
1.0
 70
     8
 71
     3
 72
    11
 73
     7
 74
     0
 42
0.00000001
 43
0.00000001
 12
1.0
 22
0.0
 32
0.0
 13
1.0
 23
0.0
 33
0.0
 40
0.0
 40
0.0
 40
0.0
 40
0.0
 40
0.3031304211123244
 40
0.5634741767807027
 40
0.7924711622018406
 40
1.0
 40
1.0
 40
1.0
 40
1.0
 10
454.0461654934215
 20
1217.385925390216
 30
0.0
 10
454.216656039187
 20
1217.423223968825
 30
0.0
 10
454.5335724990117
 20
1217.492556455479
 30
0.0
 10
454.9199213717604
 20
1218.003749010488
 30
0.0
 10
455.1643868196899
 20
1218.659109186337
 30
0.0
 10
455.1947710514478
 20
1219.151731676664
 30
0.0
 10
455.2092160257625
 20
1219.385929443332
 30
0.0
  0
LINE
  5
CF
330
1F
100
AcDbEntity
  8
0
  6
Continuous
 62
     7
370
    15
100
AcDbLine
 10
442.6181147966
 20
1217.3859253902
 30
0.0
 11
454.0461654934
 21
1217.3859253902
 31
0.0
  0
SPLINE
  5
D0
330
1F
100
AcDbEntity
  8
0
  6
Continuous
 62
     7
370
    15
100
AcDbSpline
210
0.0
220
0.0
230
1.0
 70
     8
 71
     3
 72
    12
 73
     8
 74
     0
 42
0.00000001
 43
0.00000001
 12
1.0
 22
0.0
 32
0.0
 13
1.0
 23
0.0
 33
0.0
 40
0.0
 40
0.0
 40
0.0
 40
0.0
 40
0.2038941392166265
 40
0.4076756287946056
 40
0.6146922466235554
 40
0.8293530361386889
 40
1.0
 40
1.0
 40
1.0
 40
1.0
 10
624.129695740633
 20
1219.385929443332
 30
0.0
 10
624.1293467376388
 20
1219.167626952747
 30
0.0
 10
624.1286489244716
 20
1218.731142581698
 30
0.0
 10
624.1225005805945
 20
1218.147304113621
 30
0.0
 10
624.1108682905514
 20
1217.695640833571
 30
0.0
 10
624.0936816716
 20
1217.429429933584
 30
0.0
 10
624.0781840869851
 20
1217.399278848708
 30
0.0
 10
624.0713204416561
 20
1217.385925390216
 30
0.0
  0
LINE
  5
D1
330
1F
100
AcDbEntity
  8
0
  6
Continuous
 62
     7
370
    15
100
AcDbLine
 10
624.1296957406
 20
1220.3859314699
 30
0.0
 11
624.1296957406
 21
1219.3859294433
 31
0.0
  0
SPLINE
  5
D2
330
1F
100
AcDbEntity
  8
0
  6
Continuous
 62
     7
370
    15
100
AcDbSpline
210
0.0
220
0.0
230
1.0
 70
     8
 71
     3
 72
    12
 73
     8
 74
     0
 42
0.00000001
 43
0.00000001
 12
1.0
 22
0.0
 32
0.0
 13
1.0
 23
0.0
 33
0.0
 40
0.0
 40
0.0
 40
0.0
 40
0.0
 40
0.2230652901174593
 40
0.4461771062624126
 40
0.6673559006019342
 40
0.8817741676001369
 40
1.0
 40
1.0
 40
1.0
 40
1.0
 10
624.1040061387347
 20
1224.385924674961
 30
0.0
 10
624.1155177599773
 20
1224.339353277891
 30
0.0
 10
624.1385434035084
 20
1224.246200770085
 30
0.0
 10
624.1440835771859
 20
1223.521561373259
 30
0.0
 10
624.1377138693474
 20
1222.461343424995
 30
0.0
 10
624.1306168288426
 20
1221.342196306959
 30
0.0
 10
624.129937265766
 20
1220.636680518305
 30
0.0
 10
624.129695740633
 20
1220.38593146989
 30
0.0
  0
LINE
  5
D3
330
1F
100
AcDbEntity
  8
0
  6
Continuous
 62
     7
370
    15
100
AcDbLine
 10
613.2336090478
 20
1224.385924675
 30
0.0
 11
624.1040061387
 21
1224.385924675
 31
0.0
  0
SPLINE
  5
D4
330
1F
100
AcDbEntity
  8
0
  6
Continuous
 62
     7
370
    15
100
AcDbSpline
210
0.0
220
0.0
230
1.0
 70
     8
 71
     3
 72
    12
 73
     8
 74
     0
 42
0.00000001
 43
0.00000001
 12
1.0
 22
0.0
 32
0.0
 13
1.0
 23
0.0
 33
0.0
 40
0.0
 40
0.0
 40
0.0
 40
0.0
 40
0.2054455588318604
 40
0.41075531618272
 40
0.6198375863892864
 40
0.8363237149327349
 40
1.0
 40
1.0
 40
1.0
 40
1.0
 10
611.188745048933
 20
1220.38593146989
 30
0.0
 10
611.2112381989442
 20
1220.823391468483
 30
0.0
 10
611.2562096307793
 20
1221.698022300422
 30
0.0
 10
611.6022245796203
 20
1222.868617880611
 30
0.0
 10
612.1060321326984
 20
1223.775402793334
 30
0.0
 10
612.6818309767443
 20
1224.301857115808
 30
0.0
 10
613.0675432914226
 20
1224.360623301942
 30
0.0
 10
613.2336090478228
 20
1224.385924674961
 30
0.0
  0
LINE
  5
D5
330
1F
100
AcDbEntity
  8
0
  6
Continuous
 62
     7
370
    15
100
AcDbLine
 10
611.1887450489
 20
1219.3859294433
 30
0.0
 11
611.1887450489
 21
1220.3859314699
 31
0.0
  0
SPLINE
  5
D6
330
1F
100
AcDbEntity
  8
0
  6
Continuous
 62
     7
370
    15
100
AcDbSpline
210
0.0
220
0.0
230
1.0
 70
     8
 71
     3
 72
    12
 73
     8
 74
     0
 42
0.00000001
 43
0.00000001
 12
1.0
 22
0.0
 32
0.0
 13
1.0
 23
0.0
 33
0.0
 40
0.0
 40
0.0
 40
0.0
 40
0.0
 40
0.226939257185157
 40
0.4540791428475165
 40
0.6754167307360834
 40
0.8875690027517324
 40
1.0
 40
1.0
 40
1.0
 40
1.0
 10
610.0950966748524
 20
1217.385925390216
 30
0.0
 10
610.2242489412628
 20
1217.409373467622
 30
0.0
 10
610.4826676527537
 20
1217.456290351999
 30
0.0
 10
610.8191961595095
 20
1217.825233313248
 30
0.0
 10
611.0623565173981
 20
1218.363390986287
 30
0.0
 10
611.1752558053505
 20
1218.919982152628
 30
0.0
 10
611.1852746608373
 20
1219.266054824645
 30
0.0
 10
611.188745048933
 20
1219.385929443332
 30
0.0
  0
LINE
  5
D7
330
1F
100
AcDbEntity
  8
0
  6
Continuous
 62
     7
370
    15
100
AcDbLine
 10
586.4543858144
 20
1217.3859253902
 30
0.0
 11
610.0950966749
 21
1217.3859253902
 31
0.0
  0
SPLINE
  5
D8
330
1F
100
AcDbEntity
  8
0
  6
Continuous
 62
     7
370
    15
100
AcDbSpline
210
0.0
220
0.0
230
1.0
 70
     8
 71
     3
 72
    12
 73
     8
 74
     0
 42
0.00000001
 43
0.00000001
 12
1.0
 22
0.0
 32
0.0
 13
1.0
 23
0.0
 33
0.0
 40
0.0
 40
0.0
 40
0.0
 40
0.0
 40
0.2052771529882015
 40
0.410419783693689
 40
0.6193954010103593
 40
0.8359089710483698
 40
1.0
 40
1.0
 40
1.0
 40
1.0
 10
623.3257408413219
 20
1220.38593146989
 30
0.0
 10
623.3266226097135
 20
1220.823165334941
 30
0.0
 10
623.328385568656
 20
1221.69734653682
 30
0.0
 10
623.3388649348825
 20
1222.867431274107
 30
0.0
 10
623.344273597902
 20
1223.774233975503
 30
0.0
 10
623.3366725852172
 20
1224.301553483539
 30
0.0
 10
623.3177785287145
 20
1224.360507625687
 30
0.0
 10
623.3096326860714
 20
1224.385924674961
 30
0.0
  0
LINE
  5
D9
330
1F
100
AcDbEntity
  8
0
  6
Continuous
 62
     7
370
    15
100
AcDbLine
 10
623.3257408413
 20
1220.3859314699
 30
0.0
 11
623.3257408413
 21
1219.3859294433
 31
0.0
  0
SPLINE
  5
DA
330
1F
100
AcDbEntity
  8
0
  6
Continuous
 62
     7
370
    15
100
AcDbSpline
210
0.0
220
0.0
230
1.0
 70
     8
 71
     3
 72
    12
 73
     8
 74
     0
 42
0.00000001
 43
0.00000001
 12
1.0
 22
0.0
 32
0.0
 13
1.0
 23
0.0
 33
0.0
 40
0.0
 40
0.0
 40
0.0
 40
0.0
 40
0.2271780548797427
 40
0.4545613198989776
 40
0.6760164994921282
 40
0.8881103597549157
 40
1.0
 40
1.0
 40
1.0
 40
1.0
 10
623.2617999586391
 20
1217.385925390216
 30
0.0
 10
623.2714719750937
 20
1217.409396753617
 30
0.0
 10
623.2908247447442
 20
1217.456360682122
 30
0.0
 10
623.3098255600983
 20
1217.825786563993
 30
0.0
 10
623.3209962132624
 20
1218.364547473791
 30
0.0
 10
623.3252419689804
 20
1218.921012529542
 30
0.0
 10
623.3256127796416
 20
1219.266584199581
 30
0.0
 10
623.3257408413219
 20
1219.385929443332
 30
0.0
  0
LINE
  5
DB
330
1F
100
AcDbEntity
  8
0
  6
Continuous
 62
     7
370
    15
100
AcDbLine
 10
623.2617999586
 20
1217.3859253902
 30
0.0
 11
615.4420877966
 21
1217.3859253902
 31
0.0
  0
SPLINE
  5
DC
330
1F
100
AcDbEntity
  8
0
  6
Continuous
 62
     7
370
    15
100
AcDbSpline
210
0.0
220
0.0
230
1.0
 70
     8
 71
     3
 72
    12
 73
     8
 74
     0
 42
0.00000001
 43
0.00000001
 12
1.0
 22
0.0
 32
0.0
 13
1.0
 23
0.0
 33
0.0
 40
0.0
 40
0.0
 40
0.0
 40
0.0
 40
0.1802368600660493
 40
0.3601392912679018
 40
0.5487748351941634
 40
0.7602318692729656
 40
1.0
 40
1.0
 40
1.0
 40
1.0
 10
455.6668008837032
 20
1219.385929443332
 30
0.0
 10
455.6560475690927
 20
1219.182200296778
 30
0.0
 10
455.6345608926096
 20
1218.77512002239
 30
0.0
 10
455.4704071245652
 20
1218.227532098406
 30
0.0
 10
455.2256588377134
 20
1217.780953139307
 30
0.0
 10
454.8947298894877
 20
1217.45304511259
 30
0.0
 10
454.6438001840247
 20
1217.409215298342
 30
0.0
 10
454.51046332448
 20
1217.385925390216
 30
0.0
  0
SPLINE
  5
DD
330
1F
100
AcDbEntity
  8
0
  6
Continuous
 62
     7
370
    15
100
AcDbSpline
210
0.0
220
0.0
230
1.0
 70
     8
 71
     3
 72
    12
 73
     8
 74
     0
 42
0.00000001
 43
0.00000001
 12
1.0
 22
0.0
 32
0.0
 13
1.0
 23
0.0
 33
0.0
 40
0.0
 40
0.0
 40
0.0
 40
0.0
 40
0.2529502992980224
 40
0.5064038089810959
 40
0.7427510347805719
 40
0.9480791991399347
 40
0.9999999999999999
 40
0.9999999999999999
 40
0.9999999999999999
 40
0.9999999999999999
 10
456.8564946922588
 20
1221.385933496448
 30
0.0
 10
456.7061605275772
 20
1221.358771919006
 30
0.0
 10
456.4051931287402
 20
1221.304394729841
 30
0.0
 10
456.0195379512048
 20
1220.878923327167
 30
0.0
 10
455.7594077861675
 20
1220.271397424323
 30
0.0
 10
455.6722660193332
 20
1219.730240695483
 30
0.0
 10
455.6677186779051
 20
1219.443751772415
 30
0.0
 10
455.6668008837032
 20
1219.385929443332
 30
0.0
  0
LINE
  5
DE
330
1F
100
AcDbEntity
  8
0
  6
Continuous
 62
     7
370
    15
100
AcDbLine
 10
512.9597391161
 20
1268.3859393377
 30
0.0
 11
512.0090766969
 21
1268.4194520492
 31
0.0
  0
LINE
  5
DF
330
1F
100
AcDbEntity
  8
0
  6
Continuous
 62
     7
370
    15
100
AcDbLine
 10
466.6420872483
 20
1286.3859311123
 30
0.0
 11
599.6420885596
 21
1286.3859311123
 31
0.0
  0
LINE
  5
E0
330
1F
100
AcDbEntity
  8
0
  6
Continuous
 62
     7
370
    15
100
AcDbLine
 10
512.9597391161
 20
1268.3859393377
 30
0.0
 11
516.6126600626
 21
1268.3859393377
 31
0.0
  0
LINE
  5
E1
330
1F
100
AcDbEntity
  8
0
  6
Continuous
 62
     7
370
    15
100
AcDbLine
 10
515.9054341885
 20
1221.3859334964
 30
0.0
 11
465.1171024117
 21
1221.3859334964
 31
0.0
  0
LWPOLYLINE
  5
E2
330
1F
100
AcDbEntity
  8
0
  6
Continuous
 62
     7
370
    15
100
AcDbPolyline
 90
       18
 70
   128
 43
0.0
 10
579.6420890066
 20
1246.4859262485
 10
578.8286904964
 20
1246.3103607673
 10
578.1251507971
 20
1245.8073571701
 10
577.6264797124
 20
1245.0448498506
 10
577.4000267658
 20
1244.1258356352
 10
577.4763765904
 20
1243.1744113941
 10
577.8452213082
 20
1242.3190847416
 10
578.4567388865
 20
1241.6753694792
 10
579.2283470902
 20
1241.3301989813
 10
580.055830923
 20
1241.3301989813
 10
580.8274391267
 20
1241.6753694792
 10
581.438956705
 20
1242.3190847416
 10
581.8077976975
 20
1243.1744113941
 10
581.8841475221
 20
1244.1258356352
 10
581.6576983008
 20
1245.0448498506
 10
581.1590272161
 20
1245.8073571701
 10
580.4554837915
 20
1246.3103607673
 10
579.6420890066
 20
1246.4859262485
  0
LINE
  5
E3
330
1F
100
AcDbEntity
  8
0
  6
Continuous
 62
     7
370
    15
100
AcDbLine
 10
584.6627782258
 20
1217.3859253902
 30
0.0
 11
574.6213960621
 21
1217.3859253902
 31
0.0
  0
LINE
  5
E4
330
1F
100
AcDbEntity
  8
0
  6
Continuous
 62
     7
370
    15
100
AcDbLine
 10
574.6213960621
 20
1217.3859253902
 30
0.0
 11
572.3964999589
 21
1217.3859253902
 31
0.0
  0
LINE
  5
E5
330
1F
100
AcDbEntity
  8
0
  6
Continuous
 62
     7
370
    15
100
AcDbLine
 10
572.3964999589
 20
1217.3859253902
 30
0.0
 11
570.3537631008
 21
1217.3859253902
 31
0.0
  0
LINE
  5
E6
330
1F
100
AcDbEntity
  8
0
  6
Continuous
 62
     7
370
    15
100
AcDbLine
 10
585.6627802524
 20
1217.3859253902
 30
0.0
 11
584.6627782258
 21
1217.3859253902
 31
0.0
  0
LINE
  5
E7
330
1F
100
AcDbEntity
  8
0
  6
Continuous
 62
     7
370
    15
100
AcDbLine
 10
586.4543858144
 20
1217.3859253902
 30
0.0
 11
585.6627802524
 21
1217.3859253902
 31
0.0
  0
LINE
  5
E8
330
1F
100
AcDbEntity
  8
0
  6
Continuous
 62
     7
370
    15
100
AcDbLine
 10
466.1170969877
 20
1268.3859393377
 30
0.0
 11
469.3244378242
 21
1268.3859393377
 31
0.0
  0
LINE
  5
E9
330
1F
100
AcDbEntity
  8
0
  6
Continuous
 62
     7
370
    15
100
AcDbLine
 10
465.3313438567
 20
1268.3859393377
 30
0.0
 11
466.1170969877
 21
1268.3859393377
 31
0.0
  0
LINE
  5
EA
330
1F
100
AcDbEntity
  8
0
  6
Continuous
 62
     7
370
    15
100
AcDbLine
 10
463.8075064096
 20
1221.3859334964
 30
0.0
 11
465.1171024117
 21
1221.3859334964
 31
0.0
  0
LINE
  5
EB
330
1F
100
AcDbEntity
  8
0
  6
Continuous
 62
     7
370
    15
100
AcDbLine
 10
454.5104633245
 20
1217.3859253902
 30
0.0
 11
454.0461654934
 21
1217.3859253902
 31
0.0
  0
LINE
  5
EC
330
1F
100
AcDbEntity
  8
0
  6
Continuous
 62
     7
370
    15
100
AcDbLine
 10
442.6181147966
 20
1217.3859253902
 30
0.0
 11
441.3853342804
 21
1217.3859253902
 31
0.0
  0
LINE
  5
ED
330
1F
100
AcDbEntity
  8
0
  6
Continuous
 62
     7
370
    15
100
AcDbLine
 10
441.1534424099
 20
1252.147518136
 30
0.0
 11
441.1535318169
 21
1252.1474585314
 31
0.0
  0
LINE
  5
EE
330
1F
100
AcDbEntity
  8
0
  6
Continuous
 62
     7
370
    15
100
AcDbLine
 10
440.1420856985
 20
1217.3859253902
 30
0.0
 11
440.1420856985
 21
1250.3216788549
 31
0.0
  0
LINE
  5
EF
330
1F
100
AcDbEntity
  8
0
  6
Continuous
 62
     7
370
    15
100
AcDbLine
 10
441.3853342804
 20
1217.3859253902
 30
0.0
 11
440.1420856985
 21
1217.3859253902
 31
0.0
  0
LINE
  5
F0
330
1F
100
AcDbEntity
  8
0
  6
Continuous
 62
     7
370
    15
100
AcDbLine
 10
624.0713204417
 20
1217.3859253902
 30
0.0
 11
623.2617999586
 21
1217.3859253902
 31
0.0
  0
SPLINE
  5
F1
330
1F
100
AcDbEntity
  8
0
  6
Continuous
 62
     7
370
    15
100
AcDbSpline
210
0.0
220
0.0
230
1.0
 70
     8
 71
     3
 72
    12
 73
     8
 74
     0
 42
0.00000001
 43
0.00000001
 12
1.0
 22
0.0
 32
0.0
 13
1.0
 23
0.0
 33
0.0
 40
0.0
 40
0.0
 40
0.0
 40
0.0
 40
0.2142395365916818
 40
0.4284757355158972
 40
0.6429447074641746
 40
0.8577926529667038
 40
0.9999999999999999
 40
0.9999999999999999
 40
0.9999999999999999
 40
0.9999999999999999
 10
584.7413669499683
 20
1246.885933019611
 30
0.0
 10
584.7229878844315
 20
1247.110460996782
 30
0.0
 10
584.6862300396879
 20
1247.559513453173
 30
0.0
 10
584.3992906369587
 20
1248.158166187172
 30
0.0
 10
583.975447723155
 20
1248.61061296828
 30
0.0
 10
583.5028395943999
 20
1248.851421848742
 30
0.0
 10
583.1883940217035
 20
1248.876105937677
 30
0.0
 10
583.0631571981239
 20
1248.885937072727
 30
0.0
  0
LINE
  5
F2
330
1F
100
AcDbEntity
  8
0
  6
Continuous
 62
     7
370
    15
100
AcDbLine
 10
576.1349554333
 20
1248.8859370727
 30
0.0
 11
583.0631571981
 21
1248.8859370727
 31
0.0
  0
SPLINE
  5
F3
330
1F
100
AcDbEntity
  8
0
  6
Continuous
 62
     7
370
    15
100
AcDbSpline
210
0.0
220
0.0
230
1.0
 70
    11
 71
     3
 72
    26
 73
    22
 74
     0
 42
0.00000001
 43
0.00000001
 12
1.0
 22
0.0
 32
0.0
 13
1.0
 23
0.0
 33
0.0
 40
0.0
 40
0.0
 40
0.0
 40
0.0
 40
0.053681600523616
 40
0.1073630146286638
 40
0.1610514950227514
 40
0.2147433627407341
 40
0.2684289375878223
 40
0.3221059940636498
 40
0.3757883447723594
 40
0.429478379270586
 40
0.4831694236731422
 40
0.5368514275527065
 40
0.5905297868690468
 40
0.6442146279575405
 40
0.697906806117514
 40
0.7515941446173153
 40
0.8052741891453518
 40
0.8589531316754708
 40
0.9126418372787727
 40
0.9663339212373331
 40
0.9999999999999999
 40
0.9999999999999999
 40
0.9999999999999999
 40
0.9999999999999999
 10
579.6420890065955
 20
1245.685927607509
 30
0.0
 10
579.8171613987826
 20
1245.666028425858
 30
0.0
 10
580.1673055751878
 20
1245.626230131658
 30
0.0
 10
580.6310991564386
 20
1245.316022766422
 30
0.0
 10
580.9827432880343
 20
1244.859140832337
 30
0.0
 10
581.1834017379628
 20
1244.288613748073
 30
0.0
 10
581.2111859963974
 20
1243.673757649884
 30
0.0
 10
581.0630947737549
 20
1243.082593373078
 30
0.0
 10
580.7553007062635
 20
1242.582041338546
 30
0.0
 10
580.3214739986623
 20
1242.228427629854
 30
0.0
 10
579.8095818401541
 20
1242.061646235856
 30
0.0
 10
579.2768480790645
 20
1242.100560327803
 30
0.0
 10
578.783469042496
 20
1242.340708189166
 30
0.0
 10
578.3857133130558
 20
1242.755025868659
 30
0.0
 10
578.1294384109185
 20
1243.296855380848
 30
0.0
 10
578.044429441926
 20
1243.905162386326
 30
0.0
 10
578.1405473601486
 20
1244.511031047183
 30
0.0
 10
578.406653748582
 20
1245.047227022699
 30
0.0
 10
578.8115934007222
 20
1245.449558529475
 30
0.0
 10
579.2479924057901
 20
1245.657363472089
 30
0.0
 10
579.5324606623883
 20
1245.677981741284
 30
0.0
 10
579.6420890065955
 20
1245.685927607509
 30
0.0
  0
LINE
  5
F4
330
1F
100
AcDbEntity
  8
0
  6
Continuous
 62
     7
370
    15
100
AcDbLine
 10
584.74136695
 20
1236.3859340925
 30
0.0
 11
579.6420890066
 21
1236.3859340925
 31
0.0
  0
SPLINE
  5
F5
330
1F
100
AcDbEntity
  8
0
  6
Continuous
 62
     7
370
    15
100
AcDbSpline
210
0.0
220
0.0
230
1.0
 70
     8
 71
     3
 72
    12
 73
     8
 74
     0
 42
0.00000001
 43
0.00000001
 12
1.0
 22
0.0
 32
0.0
 13
1.0
 23
0.0
 33
0.0
 40
0.0
 40
0.0
 40
0.0
 40
0.0
 40
0.2104258683635497
 40
0.4207853159482856
 40
0.6329757118820697
 40
0.8486390730640462
 40
1.0
 40
1.0
 40
1.0
 40
1.0
 10
607.2034965428637
 20
1195.385925509426
 30
0.0
 10
607.2154958576424
 20
1195.66333916583
 30
0.0
 10
607.2394906996245
 20
1196.218078913212
 30
0.0
 10
607.4248893858368
 20
1196.960348651026
 30
0.0
 10
607.6946027276528
 20
1197.521901526534
 30
0.0
 10
607.9951066279705
 20
1197.850871377154
 30
0.0
 10
608.19329758385
 20
1197.853912831746
 30
0.0
 10
608.2750315937328
 20
1197.855167128536
 30
0.0
  0
SPLINE
  5
F6
330
1F
100
AcDbEntity
  8
0
  6
Continuous
 62
     7
370
    15
100
AcDbSpline
210
0.0
220
0.0
230
1.0
 70
     8
 71
     3
 72
    12
 73
     8
 74
     0
 42
0.00000001
 43
0.00000001
 12
1.0
 22
0.0
 32
0.0
 13
1.0
 23
0.0
 33
0.0
 40
0.0
 40
0.0
 40
0.0
 40
0.0
 40
0.2171355546642088
 40
0.4358328141133981
 40
0.6535279454210751
 40
0.8682063068251132
 40
1.0
 40
1.0
 40
1.0
 40
1.0
 10
608.2751359018611
 20
1192.886255719158
 30
0.0
 10
608.1574472415284
 20
1192.914070708335
 30
0.0
 10
607.9212234683131
 20
1192.969900740531
 30
0.0
 10
607.5967016856237
 20
1193.408578281118
 30
0.0
 10
607.3490262022101
 20
1194.054900438979
 30
0.0
 10
607.220825523778
 20
1194.757275867105
 30
0.0
 10
607.208271817707
 20
1195.212691154961
 30
0.0
 10
607.2034965428637
 20
1195.385925509426
 30
0.0
  0
LINE
  5
F7
330
1F
100
AcDbEntity
  8
0
  6
Continuous
 62
     7
370
    15
100
AcDbLine
 10
492.4258607599
 20
1221.3859334964
 30
0.0
 11
492.4258607599
 21
1045.8859319709
 31
0.0
  0
LINE
  5
F8
330
1F
100
AcDbEntity
  8
0
  6
Continuous
 62
     7
370
    15
100
AcDbLine
 10
491.5598350736
 20
1045.8859319709
 30
0.0
 11
491.5598350736
 21
1221.3859334964
 31
0.0
  0
LINE
  5
F9
330
1F
100
AcDbEntity
  8
0
  6
Continuous
 62
     7
370
    15
100
AcDbLine
 10
492.1098443839
 20
1045.8859319709
 30
0.0
 11
492.2098460767
 21
1046.0859320969
 31
0.0
  0
LINE
  5
FA
330
1F
100
AcDbEntity
  8
0
  6
Continuous
 62
     7
370
    15
100
AcDbLine
 10
492.2098460767
 20
1046.0859320969
 30
0.0
 11
492.2098460767
 21
1049.8859321609
 31
0.0
  0
LINE
  5
FB
330
1F
100
AcDbEntity
  8
0
  6
Continuous
 62
     7
370
    15
100
AcDbLine
 10
492.4258607599
 20
1049.8859321609
 30
0.0
 11
492.2098460767
 21
1049.8859321609
 31
0.0
  0
LINE
  5
FC
330
1F
100
AcDbEntity
  8
0
  6
Continuous
 62
     7
370
    15
100
AcDbLine
 10
476.6527618441
 20
978.3859327812
 30
0.0
 11
478.3483687016
 21
978.3859327812
 31
0.0
  0
ARC
  5
FD
330
1F
100
AcDbEntity
  8
0
  6
Continuous
 62
     7
370
    15
100
AcDbCircle
 10
477.5005651594
 20
995.3859320659
 30
0.0
 40
10.49999999999995
100
AcDbArc
 50
297.2660444507
 51
242.7339555493
  0
ARC
  5
FE
330
1F
100
AcDbEntity
  8
0
  6
Continuous
 62
     7
370
    15
100
AcDbCircle
 10
477.5005651594
 20
995.3859320659
 30
0.0
 40
16.99999999999989
100
AcDbArc
 50
301.7568638593
 51
238.2431361407
  0
SPLINE
  5
FF
330
1F
100
AcDbEntity
  8
0
  6
Continuous
 62
     7
370
    15
100
AcDbSpline
210
0.0
220
0.0
230
1.0
 70
     8
 71
     3
 72
    11
 73
     7
 74
     0
 42
0.00000001
 43
0.00000001
 12
1.0
 22
0.0
 32
0.0
 13
1.0
 23
0.0
 33
0.0
 40
0.0
 40
0.0
 40
0.0
 40
0.0
 40
0.2447166804051064
 40
0.5563131980195593
 40
0.8818541210740086
 40
1.0
 40
1.0
 40
1.0
 40
1.0
 10
472.6902748617458
 20
986.0525988418783
 30
0.0
 10
473.4388888076002
 20
985.7289305356232
 30
0.0
 10
475.1407091232845
 20
984.9931370038859
 30
0.0
 10
478.1277425975729
 20
984.7564344445996
 30
0.0
 10
480.6181217739433
 20
985.2527168412163
 30
0.0
 10
481.9548964413303
 20
985.8843943831188
 30
0.0
 10
482.3108556839751
 20
986.0525988418783
 30
0.0
  0
ARC
  5
100
330
1F
100
AcDbEntity
  8
0
  6
Continuous
 62
     7
370
    15
100
AcDbCircle
 10
487.5005651594
 20
979.2304376445
 30
0.0
 40
2.00000000000001
100
AcDbArc
 50
121.7568638593
 51
180.0
  0
ARC
  5
101
330
1F
100
AcDbEntity
  8
0
  6
Continuous
 62
     7
370
    15
100
AcDbCircle
 10
467.5005651594
 20
979.2304376445
 30
0.0
 40
2.00000000000007
100
AcDbArc
 50
0.0
 51
58.2431361407
  0
SPLINE
  5
102
330
1F
100
AcDbEntity
  8
0
  6
Continuous
 62
     7
370
    15
100
AcDbSpline
210
0.0
220
0.0
230
1.0
 70
     8
 71
     3
 72
    11
 73
     7
 74
     0
 42
0.00000001
 43
0.00000001
 12
1.0
 22
0.0
 32
0.0
 13
1.0
 23
0.0
 33
0.0
 40
0.0
 40
0.0
 40
0.0
 40
0.0
 40
0.2447166503817836
 40
0.55631321122828
 40
0.881854104682016
 40
1.0
 40
1.0
 40
1.0
 40
1.0
 10
482.3108556839751
 20
986.0525988418783
 30
0.0
 10
481.5622416702965
 20
985.7289305374137
 30
0.0
 10
479.8604209512308
 20
984.9931369020046
 30
0.0
 10
476.8733885460663
 20
984.7564344166589
 30
0.0
 10
474.3830084601207
 20
985.2527169543765
 30
0.0
 10
473.0462340862235
 20
985.8843943845305
 30
0.0
 10
472.6902748617458
 20
986.0525988418783
 30
0.0
  0
ARC
  5
103
330
1F
100
AcDbEntity
  8
0
  6
Continuous
 62
     7
370
    15
100
AcDbCircle
 10
678.5267536903
 20
1196.7923827744
 30
0.0
 40
52.73151722913731
100
AcDbArc
 50
164.6642109351
 51
181.5283767128
  0
ARC
  5
104
330
1F
100
AcDbEntity
  8
0
  6
Continuous
 62
     7
370
    15
100
AcDbCircle
 10
681.7760126874
 20
1194.3796537984
 30
0.0
 40
55.97106266799265
100
AcDbArc
 50
178.9698564632
 51
194.8963185599
  0
ARC
  5
105
330
1F
100
AcDbEntity
  8
0
  6
Continuous
 62
     7
370
    15
100
AcDbCircle
 10
692.2888317346
 20
1195.1350124093
 30
0.0
 40
65.25057648234649
100
AcDbArc
 50
179.7796755544
 51
188.0798748585
  0
ARC
  5
106
330
1F
100
AcDbEntity
  8
0
  6
Continuous
 62
     7
370
    15
100
AcDbCircle
 10
692.2888412283
 20
1195.6368524617
 30
0.0
 40
65.25058602929339
100
AcDbArc
 50
171.9201254013
 51
180.2203365769
  0
LWPOLYLINE
  5
107
330
1F
100
AcDbEntity
  8
0
  6
Continuous
 62
     7
370
    15
100
AcDbPolyline
 90
       13
 70
   128
 43
0.0
 10
610.3591825041
 20
1195.3859255094
 10
610.4053686532
 20
1192.7201971788
 10
610.5431000861
 20
1190.1020184536
 10
610.7699255618
 20
1187.5781491775
 10
611.0817919645
 20
1185.1936057586
 10
611.4731411609
 20
1182.9909310121
 10
611.936977056
 20
1181.0094640035
 10
612.4650369558
 20
1179.2845353861
 10
613.0478884253
 20
1177.8469309587
 10
613.675130454
 20
1176.7223254223
 10
614.3355722698
 20
1175.9307608385
 10
615.0174270543
 20
1175.4863784094
 10
615.5355627808
 20
1175.3859296818
  0
LWPOLYLINE
  5
108
330
1F
100
AcDbEntity
  8
0
  6
Continuous
 62
     7
370
    15
100
AcDbPolyline
 90
       13
 70
   128
 43
0.0
 10
615.5355627808
 20
1215.3859362383
 10
615.0174270543
 20
1215.2854875107
 10
614.3355722698
 20
1214.8411050815
 10
613.675130454
 20
1214.0495404978
 10
613.0478884253
 20
1212.9249349613
 10
612.4650369558
 20
1211.487330534
 10
611.936977056
 20
1209.7624019165
 10
611.4731411609
 20
1207.7809349079
 10
611.0817919645
 20
1205.5782601614
 10
610.7699255618
 20
1203.1937167425
 10
610.5431000861
 20
1200.6698474664
 10
610.4053686532
 20
1198.0516687412
 10
610.3591825041
 20
1195.3859255094
  0
LWPOLYLINE
  5
109
330
1F
100
AcDbEntity
  8
0
  6
Continuous
 62
     7
370
    15
100
AcDbPolyline
 90
       11
 70
   128
 43
0.0
 10
609.6520702514
 20
1195.3859255094
 10
609.6978764209
 20
1197.9730949182
 10
609.8344306621
 20
1200.5120739717
 10
610.059192327
 20
1202.9555514831
 10
610.3679741892
 20
1205.2580342073
 10
610.7550244006
 20
1207.3766068001
 10
611.2131382498
 20
1209.2718109865
 10
611.7337773713
 20
1210.9083608169
 10
612.3072336587
 20
1212.2557536144
 10
612.9228453311
 20
1213.2888958235
 10
613.251974729
 20
1213.6911526699
  0
LWPOLYLINE
  5
10A
330
1F
100
AcDbEntity
  8
0
  6
Continuous
 62
     7
370
    15
100
AcDbPolyline
 90
       11
 70
   128
 43
0.0
 10
613.251974729
 20
1177.080698349
 10
612.9228453311
 20
1177.4829700966
 10
612.3072336587
 20
1178.5161123056
 10
611.7337773713
 20
1179.8635051031
 10
611.2131382498
 20
1181.5000549335
 10
610.7550244006
 20
1183.39525912
 10
610.3679741892
 20
1185.5138317127
 10
610.059192327
 20
1187.8163144369
 10
609.8344306621
 20
1190.2597919483
 10
609.6978764209
 20
1192.7987710018
 10
609.6520702514
 20
1195.3859255094
  0
ARC
  5
10B
330
1F
100
AcDbEntity
  8
0
  6
Continuous
 62
     7
370
    15
100
AcDbCircle
 10
659.5351851644
 20
1134.1164853257
 30
0.0
 40
6.695345625697552
100
AcDbArc
 50
2.0876079867
 51
11.8931550763
  0
ARC
  5
10C
330
1F
100
AcDbEntity
  8
0
  6
Continuous
 62
     7
370
    15
100
AcDbCircle
 10
666.3593779477
 20
1138.0798661378
 30
0.0
 40
3.721873158462547
100
AcDbArc
 50
267.947635943
 51
272.052364057
  0
ARC
  5
10D
330
1F
100
AcDbEntity
  8
0
  6
Continuous
 62
     7
370
    15
100
AcDbCircle
 10
659.8006759491
 20
1134.1164375137
 30
0.0
 40
6.696437632406885
100
AcDbArc
 50
2.0876767626
 51
11.8916053483
  0
ARC
  5
10E
330
1F
100
AcDbEntity
  8
0
  6
Continuous
 62
     7
370
    15
100
AcDbCircle
 10
665.1596159347
 20
1135.5721470273
 30
0.0
 40
1.196192991735954
100
AcDbArc
 50
356.3651313265
 51
12.3428689094
  0
ARC
  5
10F
330
1F
100
AcDbEntity
  8
0
  6
Continuous
 62
     7
370
    15
100
AcDbCircle
 10
666.3119815497
 20
1135.7464531978
 30
0.0
 40
0.0829859713805022
100
AcDbArc
 50
21.4962019351
 51
78.75795069
  0
ARC
  5
110
330
1F
100
AcDbEntity
  8
0
  6
Continuous
 62
     7
370
    15
100
AcDbCircle
 10
660.0780562305
 20
1134.0669096493
 30
0.0
 40
6.527865109617701
100
AcDbArc
 50
14.8624973701
 51
23.8766893635
  0
LWPOLYLINE
  5
111
330
1F
100
AcDbEntity
  8
0
  6
Continuous
 62
     7
370
    15
100
AcDbPolyline
 90
        9
 70
   128
 43
0.0
 10
666.0472582254
 20
1136.7091909427
 10
666.0502831611
 20
1136.7236897726
 10
666.0503278646
 20
1136.7371455211
 10
666.0473923358
 20
1136.7495581884
 10
666.0414467725
 20
1136.7609128732
 10
666.032520977
 20
1136.7712170262
 10
666.0206149492
 20
1136.7804557461
 10
666.0057286891
 20
1136.7886290331
 10
665.987877098
 20
1136.7957294364
  0
ARC
  5
112
330
1F
100
AcDbEntity
  8
0
  6
Continuous
 62
     7
370
    15
100
AcDbCircle
 10
664.2342512931
 20
1135.9271507652
 30
0.0
 40
1.956944652131327
100
AcDbArc
 50
26.3494191971
 51
37.8255502029
  0
ARC
  5
113
330
1F
100
AcDbEntity
  8
0
  6
Continuous
 62
     7
370
    15
100
AcDbCircle
 10
659.9717668659
 20
1134.1838786307
 30
0.0
 40
6.511464211460069
100
AcDbArc
 50
26.8740958609
 51
36.8629586403
  0
ARC
  5
114
330
1F
100
AcDbEntity
  8
0
  6
Continuous
 62
     7
370
    15
100
AcDbCircle
 10
665.0481204662
 20
1137.5092665509
 30
0.0
 40
0.5959567562444905
100
AcDbArc
 50
77.0759851779
 51
102.9240148221
  0
ARC
  5
115
330
1F
100
AcDbEntity
  8
0
  6
Continuous
 62
     7
370
    15
100
AcDbCircle
 10
659.7051850921
 20
1134.1838786307
 30
0.0
 40
6.511464211460069
100
AcDbArc
 50
26.8740958609
 51
36.8629586403
  0
ARC
  5
116
330
1F
100
AcDbEntity
  8
0
  6
Continuous
 62
     7
370
    15
100
AcDbCircle
 10
666.7061421666
 20
1137.05134791
 30
0.0
 40
1.195131702527483
100
AcDbArc
 50
176.3579907328
 51
192.3500095031
  0
ARC
  5
117
330
1F
100
AcDbEntity
  8
0
  6
Continuous
 62
     7
370
    15
100
AcDbCircle
 10
666.4360782186
 20
1129.8190780839
 30
0.0
 40
7.034131896717857
100
AcDbArc
 50
97.3297472413
 51
101.6141148551
  0
ARC
  5
118
330
1F
100
AcDbEntity
  8
0
  6
Continuous
 62
     7
370
    15
100
AcDbCircle
 10
657.2861223356
 20
1133.4465314791
 30
0.0
 40
8.393889448731406
100
AcDbArc
 50
15.8658890569
 51
22.8732976767
  0
ARC
  5
119
330
1F
100
AcDbEntity
  8
0
  6
Continuous
 62
     7
370
    15
100
AcDbCircle
 10
666.7765501644
 20
1128.8499731944
 30
0.0
 40
7.0353702417905
100
AcDbArc
 50
97.3301244779
 51
101.6137376185
  0
ARC
  5
11A
330
1F
100
AcDbEntity
  8
0
  6
Continuous
 62
     7
370
    15
100
AcDbCircle
 10
667.6335838266
 20
1136.6970671456
 30
0.0
 40
1.958146426535858
100
AcDbArc
 50
206.3529526335
 51
217.8220167664
  0
LWPOLYLINE
  5
11B
330
1F
100
AcDbEntity
  8
0
  6
Continuous
 62
     7
370
    15
100
AcDbPolyline
 90
       13
 70
   128
 43
0.0
 10
661.78072795
 20
1139.021568038
 10
661.6724561128
 20
1138.9430091161
 10
661.5290920409
 20
1138.5336742182
 10
661.5334133777
 20
1137.8350928802
 10
661.685047594
 20
1136.9093507905
 10
661.9704942378
 20
1135.8386949081
 10
662.3643915328
 20
1134.7182616968
 10
662.8317664537
 20
1133.647613265
 10
663.331074563
 20
1132.7218711753
 10
663.8179402026
 20
1132.0232898373
 10
664.249120203
 20
1131.6139474888
 10
664.5862887773
 20
1131.530217864
 10
664.6015922698
 20
1131.5353960175
  0
SPLINE
  5
11C
330
1F
100
AcDbEntity
  8
0
  6
Continuous
 62
     7
370
    15
100
AcDbSpline
210
0.0
220
0.0
230
1.0
 70
     8
 71
     3
 72
     9
 73
     5
 74
     0
 42
0.00000001
 43
0.00000001
 12
1.0
 22
0.0
 32
0.0
 13
1.0
 23
0.0
 33
0.0
 40
0.0
 40
0.0
 40
0.0
 40
0.0
 40
0.5300828798844256
 40
1.0
 40
1.0
 40
1.0
 40
1.0
 10
665.0551538142489
 20
1136.60912219474
 30
0.0
 10
665.1405246277619
 20
1136.642088974652
 30
0.0
 10
665.3015764495668
 20
1136.704280720818
 30
0.0
 10
665.4628714231783
 20
1136.76649423905
 30
0.0
 10
665.5386666926669
 20
1136.79572943637
 30
0.0
  0
LINE
  5
11D
330
1F
100
AcDbEntity
  8
0
  6
Continuous
 62
     7
370
    15
100
AcDbLine
 10
666.4926688346
 20
1134.3603805084
 30
0.0
 11
666.2248651656
 21
1134.3919709701
 31
0.0
  0
LINE
  5
11E
330
1F
100
AcDbEntity
  8
0
  6
Continuous
 62
     7
370
    15
100
AcDbLine
 10
665.181411353
 20
1138.0901262541
 30
0.0
 11
665.032667962
 21
1137.9278526087
 31
0.0
  0
LINE
  5
11F
330
1F
100
AcDbEntity
  8
0
  6
Continuous
 62
     7
370
    15
100
AcDbLine
 10
666.3534025821
 20
1135.4963109274
 30
0.0
 11
666.167123166
 21
1135.4434267063
 31
0.0
  0
SPLINE
  5
120
330
1F
100
AcDbEntity
  8
0
  6
Continuous
 62
     7
370
    15
100
AcDbSpline
210
0.0
220
0.0
230
1.0
 70
     8
 71
     3
 72
     9
 73
     5
 74
     0
 42
0.00000001
 43
0.00000001
 12
1.0
 22
0.0
 32
0.0
 13
1.0
 23
0.0
 33
0.0
 40
0.0
 40
0.0
 40
0.0
 40
0.0
 40
0.1366000749216061
 40
1.0
 40
1.0
 40
1.0
 40
1.0
 10
666.0522948178576
 20
1135.726273097488
 30
0.0
 10
666.0648619049772
 20
1135.730897371699
 30
0.0
 10
666.1568610281603
 20
1135.764750019388
 30
0.0
 10
666.2487892205862
 20
1135.798611158121
 30
0.0
 10
666.3281600150393
 20
1135.827846862766
 30
0.0
  0
SPLINE
  5
121
330
1F
100
AcDbEntity
  8
0
  6
Continuous
 62
     7
370
    15
100
AcDbSpline
210
0.0
220
0.0
230
1.0
 70
     8
 71
     3
 72
     9
 73
     5
 74
     0
 42
0.00000001
 43
0.00000001
 12
1.0
 22
0.0
 32
0.0
 13
1.0
 23
0.0
 33
0.0
 40
0.0
 40
0.0
 40
0.0
 40
0.0
 40
0.1338356970184669
 40
1.0
 40
1.0
 40
1.0
 40
1.0
 10
665.5193100842762
 20
1137.003220655414
 30
0.0
 10
665.530927080665
 20
1137.008783338423
 30
0.0
 10
665.6177275131934
 20
1137.050346860957
 30
0.0
 10
665.7046857654275
 20
1137.091564298614
 30
0.0
 10
665.7800058993625
 20
1137.127265371772
 30
0.0
  0
SPLINE
  5
122
330
1F
100
AcDbEntity
  8
0
  6
Continuous
 62
     7
370
    15
100
AcDbSpline
210
0.0
220
0.0
230
1.0
 70
     8
 71
     3
 72
     9
 73
     5
 74
     0
 42
0.00000001
 43
0.00000001
 12
1.0
 22
0.0
 32
0.0
 13
1.0
 23
0.0
 33
0.0
 40
0.0
 40
0.0
 40
0.0
 40
0.0
 40
0.2695356358434783
 40
1.0
 40
1.0
 40
1.0
 40
1.0
 10
665.9878770980167
 20
1136.79572943637
 30
0.0
 10
665.9084942897748
 20
1136.766495050569
 30
0.0
 10
665.6139773588562
 20
1136.658033007284
 30
0.0
 10
665.3192287037643
 20
1136.549603630427
 30
0.0
 10
665.1039253148364
 20
1136.470399834606
 30
0.0
  0
LINE
  5
123
330
1F
100
AcDbEntity
  8
0
  6
Continuous
 62
     7
370
    15
100
AcDbLine
 10
666.0472582254
 20
1136.7091909427
 30
0.0
 11
665.1395986947
 21
1136.4097521085
 31
0.0
  0
ARC
  5
124
330
1F
100
AcDbEntity
  8
0
  6
Continuous
 62
     7
370
    15
100
AcDbCircle
 10
651.2602394224
 20
1221.2585659871
 30
0.0
 40
0.0828869293403002
100
AcDbArc
 50
21.4540077986
 51
78.798788238
  0
ARC
  5
125
330
1F
100
AcDbEntity
  8
0
  6
Continuous
 62
     7
370
    15
100
AcDbCircle
 10
645.0265628815
 20
1219.5789413918
 30
0.0
 40
6.527565117155437
100
AcDbArc
 50
14.8632220677
 51
23.8778108181
  0
LWPOLYLINE
  5
126
330
1F
100
AcDbEntity
  8
0
  6
Continuous
 62
     7
370
    15
100
AcDbPolyline
 90
        9
 70
   128
 43
0.0
 10
650.9954388413
 20
1222.2212180872
 10
650.9984786782
 20
1222.235716917
 10
650.9985233816
 20
1222.2491726656
 10
650.9955729517
 20
1222.2615853328
 10
650.989634839
 20
1222.2729400177
 10
650.980716494
 20
1222.2832516212
 10
650.9688030156
 20
1222.2924903412
 10
650.9539242062
 20
1222.3006561775
 10
650.9360651645
 20
1222.3077640314
  0
ARC
  5
127
330
1F
100
AcDbEntity
  8
0
  6
Continuous
 62
     7
370
    15
100
AcDbCircle
 10
649.1835000676
 20
1221.4397965059
 30
0.0
 40
1.955722895529683
100
AcDbArc
 50
26.3471674441
 51
37.8301200479
  0
ARC
  5
128
330
1F
100
AcDbEntity
  8
0
  6
Continuous
 62
     7
370
    15
100
AcDbCircle
 10
644.9208224001
 20
1219.6964678368
 30
0.0
 40
6.510432992113903
100
AcDbArc
 50
26.8730760169
 51
36.8635809
  0
ARC
  5
129
330
1F
100
AcDbEntity
  8
0
  6
Continuous
 62
     7
370
    15
100
AcDbCircle
 10
649.9963085326
 20
1223.0210212908
 30
0.0
 40
0.5962222631312435
100
AcDbArc
 50
77.0818400087
 51
102.9181599913
  0
ARC
  5
12A
330
1F
100
AcDbEntity
  8
0
  6
Continuous
 62
     7
370
    15
100
AcDbCircle
 10
644.6542406263
 20
1219.6964678368
 30
0.0
 40
6.510432992114007
100
AcDbArc
 50
26.8730760169
 51
36.8635809
  0
ARC
  5
12B
330
1F
100
AcDbEntity
  8
0
  6
Continuous
 62
     7
370
    15
100
AcDbCircle
 10
651.654426229
 20
1222.5633864023
 30
0.0
 40
1.195226310712513
100
AcDbArc
 50
176.359182373
 51
192.3492077637
  0
ARC
  5
12C
330
1F
100
AcDbEntity
  8
0
  6
Continuous
 62
     7
370
    15
100
AcDbCircle
 10
651.3848658633
 20
1215.3281123925
 30
0.0
 40
7.037184162915784
100
AcDbArc
 50
97.3314725296
 51
101.6139909917
  0
ARC
  5
12D
330
1F
100
AcDbEntity
  8
0
  6
Continuous
 62
     7
370
    15
100
AcDbCircle
 10
642.2326812131
 20
1218.9579060317
 30
0.0
 40
8.395644188158403
100
AcDbArc
 50
15.8671683865
 51
22.8730794261
  0
ARC
  5
12E
330
1F
100
AcDbEntity
  8
0
  6
Continuous
 62
     7
370
    15
100
AcDbCircle
 10
651.7258260968
 20
1214.354930622
 30
0.0
 40
7.042520029357491
100
AcDbArc
 50
97.3315041938
 51
101.6107564703
  0
ARC
  5
12F
330
1F
100
AcDbEntity
  8
0
  6
Continuous
 62
     7
370
    15
100
AcDbCircle
 10
652.5809965009
 20
1222.2086034519
 30
0.0
 40
1.957227058798016
100
AcDbArc
 50
206.3502499163
 51
217.8247194837
  0
ARC
  5
130
330
1F
100
AcDbEntity
  8
0
  6
Continuous
 62
     7
370
    15
100
AcDbCircle
 10
644.483128584
 20
1219.6285254468
 30
0.0
 40
6.695589637563257
100
AcDbArc
 50
2.0874207552
 51
11.8926018323
  0
ARC
  5
131
330
1F
100
AcDbEntity
  8
0
  6
Continuous
 62
     7
370
    15
100
AcDbCircle
 10
651.3075697395
 20
1223.592120763
 30
0.0
 40
3.722100626746406
100
AcDbArc
 50
267.9477040408
 51
272.0522959592
  0
ARC
  5
132
330
1F
100
AcDbEntity
  8
0
  6
Continuous
 62
     7
370
    15
100
AcDbCircle
 10
644.7484810563
 20
1219.6283308297
 30
0.0
 40
6.696832659395195
100
AcDbArc
 50
2.0886993131
 51
11.8920637499
  0
ARC
  5
133
330
1F
100
AcDbEntity
  8
0
  6
Continuous
 62
     7
370
    15
100
AcDbCircle
 10
650.1092473005
 20
1221.0842846293
 30
0.0
 40
1.194752180154068
100
AcDbArc
 50
356.3554341107
 51
12.3525661253
  0
LWPOLYLINE
  5
134
330
1F
100
AcDbEntity
  8
0
  6
Continuous
 62
     7
370
    15
100
AcDbPolyline
 90
        3
 70
   128
 43
0.0
 10
651.2339319262
 20
1217.854030468
 10
651.3235028061
 20
1217.9741785307
 10
651.3807903203
 20
1218.140237071
  0
LINE
  5
135
330
1F
100
AcDbEntity
  8
0
  6
Continuous
 62
     7
370
    15
100
AcDbLine
 10
648.8257925185
 20
1224.9208465595
 30
0.0
 11
648.5315318379
 21
1225.0390127678
 31
0.0
  0
LWPOLYLINE
  5
136
330
1F
100
AcDbEntity
  8
0
  6
Continuous
 62
     7
370
    15
100
AcDbPolyline
 90
       10
 70
   128
 43
0.0
 10
646.7289160165
 20
1224.5335951824
 10
646.571440545
 20
1224.3822887916
 10
646.4643086466
 20
1223.8961533088
 10
646.5060169968
 20
1223.1340632219
 10
646.6928477558
 20
1222.1637443084
 10
647.0082084808
 20
1221.071399786
 10
647.4240775379
 20
1219.9541107197
 10
647.9035000476
 20
1218.9111188431
 10
648.4038810405
 20
1218.0351391811
 10
648.5500167283
 20
1217.8190276403
  0
SPLINE
  5
137
330
1F
100
AcDbEntity
  8
0
  6
Continuous
 62
     7
370
    15
100
AcDbSpline
210
0.0
220
0.0
230
1.0
 70
     8
 71
     3
 72
     9
 73
     5
 74
     0
 42
0.00000001
 43
0.00000001
 12
1.0
 22
0.0
 32
0.0
 13
1.0
 23
0.0
 33
0.0
 40
0.0
 40
0.0
 40
0.0
 40
0.0
 40
0.5300764989936567
 40
1.0
 40
1.0
 40
1.0
 40
1.0
 10
650.0033418807315
 20
1222.121156789752
 30
0.0
 10
650.0887132748566
 20
1222.154119909331
 30
0.0
 10
650.249768130688
 20
1222.216305498846
 30
0.0
 10
650.4110599450574
 20
1222.27852542558
 30
0.0
 10
650.4868547591494
 20
1222.307764031383
 30
0.0
  0
LINE
  5
138
330
1F
100
AcDbEntity
  8
0
  6
Continuous
 62
     7
370
    15
100
AcDbLine
 10
651.4408643517
 20
1219.8724076528
 30
0.0
 11
651.1730457815
 21
1219.9039981146
 31
0.0
  0
LINE
  5
139
330
1F
100
AcDbEntity
  8
0
  6
Continuous
 62
     7
370
    15
100
AcDbLine
 10
650.1295994195
 20
1223.6021533985
 30
0.0
 11
649.9808634791
 21
1223.4398797531
 31
0.0
  0
LINE
  5
13A
330
1F
100
AcDbEntity
  8
0
  6
Continuous
 62
     7
370
    15
100
AcDbLine
 10
651.301583198
 20
1221.0083380718
 30
0.0
 11
651.1153112325
 21
1220.9554538507
 31
0.0
  0
SPLINE
  5
13B
330
1F
100
AcDbEntity
  8
0
  6
Continuous
 62
     7
370
    15
100
AcDbSpline
210
0.0
220
0.0
230
1.0
 70
     8
 71
     3
 72
     9
 73
     5
 74
     0
 42
0.00000001
 43
0.00000001
 12
1.0
 22
0.0
 32
0.0
 13
1.0
 23
0.0
 33
0.0
 40
0.0
 40
0.0
 40
0.0
 40
0.0
 40
0.3523990194878684
 40
1.0
 40
1.0
 40
1.0
 40
1.0
 10
650.9085203680323
 20
1221.204467155429
 30
0.0
 10
650.9517450817337
 20
1221.220371323766
 30
0.0
 10
651.0744035209204
 20
1221.265502460509
 30
0.0
 10
651.1969678507608
 20
1221.310641755501
 30
0.0
 10
651.2763406309413
 20
1221.339874007198
 30
0.0
  0
SPLINE
  5
13C
330
1F
100
AcDbEntity
  8
0
  6
Continuous
 62
     7
370
    15
100
AcDbSpline
210
0.0
220
0.0
230
1.0
 70
     8
 71
     3
 72
     9
 73
     5
 74
     0
 42
0.00000001
 43
0.00000001
 12
1.0
 22
0.0
 32
0.0
 13
1.0
 23
0.0
 33
0.0
 40
0.0
 40
0.0
 40
0.0
 40
0.0
 40
0.2695298487086941
 40
1.0
 40
1.0
 40
1.0
 40
1.0
 10
650.9360651644993
 20
1222.307764031383
 30
0.0
 10
650.8566849832165
 20
1222.278526711604
 30
0.0
 10
650.5621714751098
 20
1222.170051453968
 30
0.0
 10
650.2674203097054
 20
1222.061627465961
 30
0.0
 10
650.0521133813189
 20
1221.982426979038
 30
0.0
  0
SPLINE
  5
13D
330
1F
100
AcDbEntity
  8
0
  6
Continuous
 62
     7
370
    15
100
AcDbSpline
210
0.0
220
0.0
230
1.0
 70
     8
 71
     3
 72
     9
 73
     5
 74
     0
 42
0.00000001
 43
0.00000001
 12
1.0
 22
0.0
 32
0.0
 13
1.0
 23
0.0
 33
0.0
 40
0.0
 40
0.0
 40
0.0
 40
0.0
 40
0.133868323772693
 40
1.0
 40
1.0
 40
1.0
 40
1.0
 10
650.4674981507587
 20
1222.515247799846
 30
0.0
 10
650.4791176032306
 20
1222.520813080327
 30
0.0
 10
650.5659152275268
 20
1222.562385876074
 30
0.0
 10
650.6528751888121
 20
1222.603593680716
 30
0.0
 10
650.7281939658451
 20
1222.639285065624
 30
0.0
  0
LINE
  5
13E
330
1F
100
AcDbEntity
  8
0
  6
Continuous
 62
     7
370
    15
100
AcDbLine
 10
650.9954388413
 20
1222.2212180872
 30
0.0
 11
650.0877867612
 21
1221.921779253
 31
0.0
  0
ARC
  5
13F
330
1F
100
AcDbEntity
  8
0
  6
Continuous
 62
     7
370
    15
100
AcDbCircle
 10
674.5466894569
 20
1134.1164853257
 30
0.0
 40
6.695345625697552
100
AcDbArc
 50
2.0876079867
 51
11.8931550763
  0
ARC
  5
140
330
1F
100
AcDbEntity
  8
0
  6
Continuous
 62
     7
370
    15
100
AcDbCircle
 10
681.3708822402
 20
1138.0798661378
 30
0.0
 40
3.721873158462547
100
AcDbArc
 50
267.947635943
 51
272.052364057
  0
ARC
  5
141
330
1F
100
AcDbEntity
  8
0
  6
Continuous
 62
     7
370
    15
100
AcDbCircle
 10
674.8121802416
 20
1134.1164375137
 30
0.0
 40
6.696437632406885
100
AcDbArc
 50
2.0876767626
 51
11.8916053483
  0
ARC
  5
142
330
1F
100
AcDbEntity
  8
0
  6
Continuous
 62
     7
370
    15
100
AcDbCircle
 10
680.1711202272
 20
1135.5721470273
 30
0.0
 40
1.196192991735954
100
AcDbArc
 50
356.3651313265
 51
12.3428689094
  0
ARC
  5
143
330
1F
100
AcDbEntity
  8
0
  6
Continuous
 62
     7
370
    15
100
AcDbCircle
 10
681.3234858421
 20
1135.7464531978
 30
0.0
 40
0.0829859713805022
100
AcDbArc
 50
21.4962019351
 51
78.75795069
  0
ARC
  5
144
330
1F
100
AcDbEntity
  8
0
  6
Continuous
 62
     7
370
    15
100
AcDbCircle
 10
675.089560523
 20
1134.0669096493
 30
0.0
 40
6.527865109617701
100
AcDbArc
 50
14.8624973701
 51
23.8766893635
  0
LWPOLYLINE
  5
145
330
1F
100
AcDbEntity
  8
0
  6
Continuous
 62
     7
370
    15
100
AcDbPolyline
 90
        9
 70
   128
 43
0.0
 10
681.0587625179
 20
1136.7091909427
 10
681.0617874536
 20
1136.7236897726
 10
681.0618321571
 20
1136.7371455211
 10
681.0588966283
 20
1136.7495581884
 10
681.052951065
 20
1136.7609128732
 10
681.0440252694
 20
1136.7712170262
 10
681.0321192416
 20
1136.7804557461
 10
681.0172329816
 20
1136.7886290331
 10
680.9993813905
 20
1136.7957294364
  0
ARC
  5
146
330
1F
100
AcDbEntity
  8
0
  6
Continuous
 62
     7
370
    15
100
AcDbCircle
 10
679.2457555856
 20
1135.9271507652
 30
0.0
 40
1.956944652131327
100
AcDbArc
 50
26.3494191971
 51
37.8255502029
  0
ARC
  5
147
330
1F
100
AcDbEntity
  8
0
  6
Continuous
 62
     7
370
    15
100
AcDbCircle
 10
674.9832711584
 20
1134.1838786307
 30
0.0
 40
6.511464211460069
100
AcDbArc
 50
26.8740958609
 51
36.8629586403
  0
ARC
  5
148
330
1F
100
AcDbEntity
  8
0
  6
Continuous
 62
     7
370
    15
100
AcDbCircle
 10
680.0596247587
 20
1137.5092665509
 30
0.0
 40
0.5959567562444905
100
AcDbArc
 50
77.0759851779
 51
102.9240148221
  0
ARC
  5
149
330
1F
100
AcDbEntity
  8
0
  6
Continuous
 62
     7
370
    15
100
AcDbCircle
 10
674.7166893846
 20
1134.1838786307
 30
0.0
 40
6.511464211460069
100
AcDbArc
 50
26.8740958609
 51
36.8629586403
  0
ARC
  5
14A
330
1F
100
AcDbEntity
  8
0
  6
Continuous
 62
     7
370
    15
100
AcDbCircle
 10
681.7176464591
 20
1137.05134791
 30
0.0
 40
1.195131702527483
100
AcDbArc
 50
176.3579907328
 51
192.3500095031
  0
ARC
  5
14B
330
1F
100
AcDbEntity
  8
0
  6
Continuous
 62
     7
370
    15
100
AcDbCircle
 10
681.4475825111
 20
1129.8190780839
 30
0.0
 40
7.034131896717857
100
AcDbArc
 50
97.3297472413
 51
101.6141148551
  0
ARC
  5
14C
330
1F
100
AcDbEntity
  8
0
  6
Continuous
 62
     7
370
    15
100
AcDbCircle
 10
672.2976266281
 20
1133.4465314791
 30
0.0
 40
8.393889448731406
100
AcDbArc
 50
15.8658890569
 51
22.8732976767
  0
ARC
  5
14D
330
1F
100
AcDbEntity
  8
0
  6
Continuous
 62
     7
370
    15
100
AcDbCircle
 10
681.7880544569
 20
1128.8499731944
 30
0.0
 40
7.0353702417905
100
AcDbArc
 50
97.3301244779
 51
101.6137376185
  0
ARC
  5
14E
330
1F
100
AcDbEntity
  8
0
  6
Continuous
 62
     7
370
    15
100
AcDbCircle
 10
682.6450881191
 20
1136.6970671456
 30
0.0
 40
1.958146426535858
100
AcDbArc
 50
206.3529526335
 51
217.8220167664
  0
LWPOLYLINE
  5
14F
330
1F
100
AcDbEntity
  8
0
  6
Continuous
 62
     7
370
    15
100
AcDbPolyline
 90
       13
 70
   128
 43
0.0
 10
676.7922322425
 20
1139.021568038
 10
676.6839604053
 20
1138.9430091161
 10
676.5405963334
 20
1138.5336742182
 10
676.5449176702
 20
1137.8350928802
 10
676.6965518865
 20
1136.9093507905
 10
676.9819985303
 20
1135.8386949081
 10
677.3758958253
 20
1134.7182616968
 10
677.8432707462
 20
1133.647613265
 10
678.3425788554
 20
1132.7218711753
 10
678.8294444951
 20
1132.0232898373
 10
679.2606244954
 20
1131.6139474888
 10
679.5977930698
 20
1131.530217864
 10
679.6130965623
 20
1131.5353960175
  0
SPLINE
  5
150
330
1F
100
AcDbEntity
  8
0
  6
Continuous
 62
     7
370
    15
100
AcDbSpline
210
0.0
220
0.0
230
1.0
 70
     8
 71
     3
 72
     9
 73
     5
 74
     0
 42
0.00000001
 43
0.00000001
 12
1.0
 22
0.0
 32
0.0
 13
1.0
 23
0.0
 33
0.0
 40
0.0
 40
0.0
 40
0.0
 40
0.0
 40
0.5300810083121577
 40
1.0
 40
1.0
 40
1.0
 40
1.0
 10
680.066658106737
 20
1136.60912219474
 30
0.0
 10
680.1520290905519
 20
1136.642089040328
 30
0.0
 10
680.3130818022621
 20
1136.704281129973
 30
0.0
 10
680.4743758492358
 20
1136.76649429064
 30
0.0
 10
680.550170985155
 20
1136.79572943637
 30
0.0
  0
LINE
  5
151
330
1F
100
AcDbEntity
  8
0
  6
Continuous
 62
     7
370
    15
100
AcDbLine
 10
681.5041731271
 20
1134.3603805084
 30
0.0
 11
681.2363694581
 21
1134.3919709701
 31
0.0
  0
LINE
  5
152
330
1F
100
AcDbEntity
  8
0
  6
Continuous
 62
     7
370
    15
100
AcDbLine
 10
680.1929156455
 20
1138.0901262541
 30
0.0
 11
680.0441722545
 21
1137.9278526087
 31
0.0
  0
LINE
  5
153
330
1F
100
AcDbEntity
  8
0
  6
Continuous
 62
     7
370
    15
100
AcDbLine
 10
681.3649068746
 20
1135.4963109274
 30
0.0
 11
681.1786274585
 21
1135.4434267063
 31
0.0
  0
SPLINE
  5
154
330
1F
100
AcDbEntity
  8
0
  6
Continuous
 62
     7
370
    15
100
AcDbSpline
210
0.0
220
0.0
230
1.0
 70
     8
 71
     3
 72
     9
 73
     5
 74
     0
 42
0.00000001
 43
0.00000001
 12
1.0
 22
0.0
 32
0.0
 13
1.0
 23
0.0
 33
0.0
 40
0.0
 40
0.0
 40
0.0
 40
0.0
 40
0.1365992899997288
 40
1.0
 40
1.0
 40
1.0
 40
1.0
 10
681.0637991103457
 20
1135.726273097488
 30
0.0
 10
681.076366203172
 20
1135.730897373801
 30
0.0
 10
681.168365896774
 20
1135.764750231407
 30
0.0
 10
681.2602937412973
 20
1135.798611242096
 30
0.0
 10
681.3396643075274
 20
1135.827846862766
 30
0.0
  0
SPLINE
  5
155
330
1F
100
AcDbEntity
  8
0
  6
Continuous
 62
     7
370
    15
100
AcDbSpline
210
0.0
220
0.0
230
1.0
 70
     8
 71
     3
 72
     9
 73
     5
 74
     0
 42
0.00000001
 43
0.00000001
 12
1.0
 22
0.0
 32
0.0
 13
1.0
 23
0.0
 33
0.0
 40
0.0
 40
0.0
 40
0.0
 40
0.0
 40
0.1338345192992112
 40
1.0
 40
1.0
 40
1.0
 40
1.0
 10
680.5308143767643
 20
1137.003220655414
 30
0.0
 10
680.5424313810693
 20
1137.008783342164
 30
0.0
 10
680.6292326365748
 20
1137.050347258403
 30
0.0
 10
680.7161903886895
 20
1137.091564457073
 30
0.0
 10
680.7915101918506
 20
1137.127265371772
 30
0.0
  0
SPLINE
  5
156
330
1F
100
AcDbEntity
  8
0
  6
Continuous
 62
     7
370
    15
100
AcDbSpline
210
0.0
220
0.0
230
1.0
 70
     8
 71
     3
 72
     9
 73
     5
 74
     0
 42
0.00000001
 43
0.00000001
 12
1.0
 22
0.0
 32
0.0
 13
1.0
 23
0.0
 33
0.0
 40
0.0
 40
0.0
 40
0.0
 40
0.0
 40
0.2695351582291986
 40
1.0
 40
1.0
 40
1.0
 40
1.0
 10
680.9993813905048
 20
1136.79572943637
 30
0.0
 10
680.9199985562853
 20
1136.766495041015
 30
0.0
 10
680.6254810071059
 20
1136.658032770091
 30
0.0
 10
680.3307328056576
 20
1136.54960356023
 30
0.0
 10
680.1154296073245
 20
1136.470399834606
 30
0.0
  0
LINE
  5
157
330
1F
100
AcDbEntity
  8
0
  6
Continuous
 62
     7
370
    15
100
AcDbLine
 10
681.0587625179
 20
1136.7091909427
 30
0.0
 11
680.1511029872
 21
1136.4097521085
 31
0.0
  0
ARC
  5
158
330
1F
100
AcDbEntity
  8
0
  6
Continuous
 62
     7
370
    15
100
AcDbCircle
 10
629.4716242915
 20
1219.6285254468
 30
0.0
 40
6.695589637563257
100
AcDbArc
 50
2.0874207552
 51
11.8926018323
  0
ARC
  5
159
330
1F
100
AcDbEntity
  8
0
  6
Continuous
 62
     7
370
    15
100
AcDbCircle
 10
636.296065447
 20
1223.592120763
 30
0.0
 40
3.722100626746406
100
AcDbArc
 50
267.9477040408
 51
272.0522959592
  0
ARC
  5
15A
330
1F
100
AcDbEntity
  8
0
  6
Continuous
 62
     7
370
    15
100
AcDbCircle
 10
629.7369767638
 20
1219.6283308297
 30
0.0
 40
6.696832659395195
100
AcDbArc
 50
2.0886993131
 51
11.8920637499
  0
ARC
  5
15B
330
1F
100
AcDbEntity
  8
0
  6
Continuous
 62
     7
370
    15
100
AcDbCircle
 10
635.097743008
 20
1221.0842846293
 30
0.0
 40
1.194752180154068
100
AcDbArc
 50
356.3554341107
 51
12.3525661253
  0
ARC
  5
15C
330
1F
100
AcDbEntity
  8
0
  6
Continuous
 62
     7
370
    15
100
AcDbCircle
 10
636.2487351299
 20
1221.2585659871
 30
0.0
 40
0.0828869293403002
100
AcDbArc
 50
21.4540077986
 51
78.798788238
  0
ARC
  5
15D
330
1F
100
AcDbEntity
  8
0
  6
Continuous
 62
     7
370
    15
100
AcDbCircle
 10
630.015058589
 20
1219.5789413918
 30
0.0
 40
6.527565117155437
100
AcDbArc
 50
14.8632220677
 51
23.8778108181
  0
LWPOLYLINE
  5
15E
330
1F
100
AcDbEntity
  8
0
  6
Continuous
 62
     7
370
    15
100
AcDbPolyline
 90
        9
 70
   128
 43
0.0
 10
635.9839345488
 20
1222.2212180872
 10
635.9869743857
 20
1222.235716917
 10
635.9870190892
 20
1222.2491726656
 10
635.9840686592
 20
1222.2615853328
 10
635.9781305465
 20
1222.2729400177
 10
635.9692122015
 20
1222.2832516212
 10
635.9572987232
 20
1222.2924903412
 10
635.9424199137
 20
1222.3006561775
 10
635.924560872
 20
1222.3077640314
  0
ARC
  5
15F
330
1F
100
AcDbEntity
  8
0
  6
Continuous
 62
     7
370
    15
100
AcDbCircle
 10
634.1719957751
 20
1221.4397965059
 30
0.0
 40
1.955722895529683
100
AcDbArc
 50
26.3471674441
 51
37.8301200479
  0
ARC
  5
160
330
1F
100
AcDbEntity
  8
0
  6
Continuous
 62
     7
370
    15
100
AcDbCircle
 10
629.9093181076
 20
1219.6964678368
 30
0.0
 40
6.510432992113903
100
AcDbArc
 50
26.8730760169
 51
36.8635809
  0
ARC
  5
161
330
1F
100
AcDbEntity
  8
0
  6
Continuous
 62
     7
370
    15
100
AcDbCircle
 10
634.9848042402
 20
1223.0210212908
 30
0.0
 40
0.5962222631312435
100
AcDbArc
 50
77.0818400087
 51
102.9181599913
  0
ARC
  5
162
330
1F
100
AcDbEntity
  8
0
  6
Continuous
 62
     7
370
    15
100
AcDbCircle
 10
629.6427363339
 20
1219.6964678368
 30
0.0
 40
6.510432992114007
100
AcDbArc
 50
26.8730760169
 51
36.8635809
  0
ARC
  5
163
330
1F
100
AcDbEntity
  8
0
  6
Continuous
 62
     7
370
    15
100
AcDbCircle
 10
636.6426637229
 20
1222.5633667415
 30
0.0
 40
1.194969867278452
100
AcDbArc
 50
176.3574553969
 51
192.3509347398
  0
ARC
  5
164
330
1F
100
AcDbEntity
  8
0
  6
Continuous
 62
     7
370
    15
100
AcDbCircle
 10
636.3733615708
 20
1215.3281123925
 30
0.0
 40
7.037184162915784
100
AcDbArc
 50
97.3314725296
 51
101.6139909917
  0
ARC
  5
165
330
1F
100
AcDbEntity
  8
0
  6
Continuous
 62
     7
370
    15
100
AcDbCircle
 10
627.2211769206
 20
1218.9579060317
 30
0.0
 40
8.395644188158403
100
AcDbArc
 50
15.8671683865
 51
22.8730794261
  0
ARC
  5
166
330
1F
100
AcDbEntity
  8
0
  6
Continuous
 62
     7
370
    15
100
AcDbCircle
 10
636.7143218043
 20
1214.354930622
 30
0.0
 40
7.042520029357491
100
AcDbArc
 50
97.3315041938
 51
101.6107564703
  0
ARC
  5
167
330
1F
100
AcDbEntity
  8
0
  6
Continuous
 62
     7
370
    15
100
AcDbCircle
 10
637.5694922084
 20
1222.2086034519
 30
0.0
 40
1.957227058798016
100
AcDbArc
 50
206.3502499163
 51
217.8247194837
  0
LWPOLYLINE
  5
168
330
1F
100
AcDbEntity
  8
0
  6
Continuous
 62
     7
370
    15
100
AcDbPolyline
 90
       13
 70
   128
 43
0.0
 10
631.717411724
 20
1224.5335951824
 10
631.6091398868
 20
1224.4550362606
 10
631.4657832655
 20
1224.0457013626
 10
631.4701046023
 20
1223.3471200247
 10
631.6217239174
 20
1222.4213853855
 10
631.9071705612
 20
1221.3507220525
 10
632.3010827574
 20
1220.2302888412
 10
632.7684502277
 20
1219.1596404094
 10
633.2677508864
 20
1218.2338908691
 10
633.7546239766
 20
1217.5353244323
 10
634.1858039769
 20
1217.1259746332
 10
634.5229800019
 20
1217.0422450084
 10
634.5382685932
 20
1217.0474306125
  0
SPLINE
  5
169
330
1F
100
AcDbEntity
  8
0
  6
Continuous
 62
     7
370
    15
100
AcDbSpline
210
0.0
220
0.0
230
1.0
 70
     8
 71
     3
 72
     9
 73
     5
 74
     0
 42
0.00000001
 43
0.00000001
 12
1.0
 22
0.0
 32
0.0
 13
1.0
 23
0.0
 33
0.0
 40
0.0
 40
0.0
 40
0.0
 40
0.0
 40
0.5300760494789104
 40
1.0
 40
1.0
 40
1.0
 40
1.0
 10
634.9918375882434
 20
1222.121156789752
 30
0.0
 10
635.0772090232698
 20
1222.154119925106
 30
0.0
 10
635.23826409284
 20
1222.216305597118
 30
0.0
 10
635.3995556846514
 20
1222.278525437969
 30
0.0
 10
635.4753504666613
 20
1222.307764031383
 30
0.0
  0
LINE
  5
16A
330
1F
100
AcDbEntity
  8
0
  6
Continuous
 62
     7
370
    15
100
AcDbLine
 10
636.4293600592
 20
1219.8724076528
 30
0.0
 11
636.1615414891
 21
1219.9039981146
 31
0.0
  0
LINE
  5
16B
330
1F
100
AcDbEntity
  8
0
  6
Continuous
 62
     7
370
    15
100
AcDbLine
 10
635.118095127
 20
1223.6021533985
 30
0.0
 11
634.9693591866
 21
1223.4398797531
 31
0.0
  0
LINE
  5
16C
330
1F
100
AcDbEntity
  8
0
  6
Continuous
 62
     7
370
    15
100
AcDbLine
 10
636.2900789055
 20
1221.0083380718
 30
0.0
 11
636.10380694
 21
1220.9554538507
 31
0.0
  0
SPLINE
  5
16D
330
1F
100
AcDbEntity
  8
0
  6
Continuous
 62
     7
370
    15
100
AcDbSpline
210
0.0
220
0.0
230
1.0
 70
     8
 71
     3
 72
     9
 73
     5
 74
     0
 42
0.00000001
 43
0.00000001
 12
1.0
 22
0.0
 32
0.0
 13
1.0
 23
0.0
 33
0.0
 40
0.0
 40
0.0
 40
0.0
 40
0.0
 40
0.1366041212355495
 40
1.0
 40
1.0
 40
1.0
 40
1.0
 10
635.9889785918521
 20
1221.2383076925
 30
0.0
 10
636.0015456763905
 20
1221.24293198271
 30
0.0
 10
636.0935420555973
 20
1221.276783744777
 30
0.0
 10
636.185467923207
 20
1221.310641425338
 30
0.0
 10
636.2648363384532
 20
1221.339874007198
 30
0.0
  0
SPLINE
  5
16E
330
1F
100
AcDbEntity
  8
0
  6
Continuous
 62
     7
370
    15
100
AcDbSpline
210
0.0
220
0.0
230
1.0
 70
     8
 71
     3
 72
     9
 73
     5
 74
     0
 42
0.00000001
 43
0.00000001
 12
1.0
 22
0.0
 32
0.0
 13
1.0
 23
0.0
 33
0.0
 40
0.0
 40
0.0
 40
0.0
 40
0.0
 40
0.1338670598102549
 40
1.0
 40
1.0
 40
1.0
 40
1.0
 10
635.4559938582706
 20
1222.515247799846
 30
0.0
 10
635.4676133192412
 20
1222.520813084342
 30
0.0
 10
635.5544118265591
 20
1222.562386302607
 30
0.0
 10
635.6413712512083
 20
1222.603593850773
 30
0.0
 10
635.716689673357
 20
1222.639285065624
 30
0.0
  0
SPLINE
  5
16F
330
1F
100
AcDbEntity
  8
0
  6
Continuous
 62
     7
370
    15
100
AcDbSpline
210
0.0
220
0.0
230
1.0
 70
     8
 71
     3
 72
     9
 73
     5
 74
     0
 42
0.00000001
 43
0.00000001
 12
1.0
 22
0.0
 32
0.0
 13
1.0
 23
0.0
 33
0.0
 40
0.0
 40
0.0
 40
0.0
 40
0.0
 40
0.2695297160337196
 40
1.0
 40
1.0
 40
1.0
 40
1.0
 10
635.9245608720112
 20
1222.307764031383
 30
0.0
 10
635.8451806835124
 20
1222.27852670895
 30
0.0
 10
635.5506670036596
 20
1222.170051388072
 30
0.0
 10
635.2559159642718
 20
1222.061627446458
 30
0.0
 10
635.0406090888308
 20
1221.982426979038
 30
0.0
  0
LINE
  5
170
330
1F
100
AcDbEntity
  8
0
  6
Continuous
 62
     7
370
    15
100
AcDbLine
 10
635.9839345488
 20
1222.2212180872
 30
0.0
 11
635.0762824687
 21
1221.921779253
 31
0.0
  0
LINE
  5
171
330
1F
100
AcDbEntity
  8
0
  6
Continuous
 62
     7
370
    15
100
AcDbLine
 10
673.7855355415
 20
1191.3045123596
 30
0.0
 11
671.4815478
 21
1175.8859381456
 31
0.0
  0
LWPOLYLINE
  5
172
330
1F
100
AcDbEntity
  8
0
  6
Continuous
 62
     7
370
    15
100
AcDbPolyline
 90
        9
 70
   128
 43
0.0
 10
674.0096788081
 20
1192.80452285
 10
673.9685516033
 20
1193.0116191883
 10
673.9149521264
 20
1193.1705400724
 10
673.852516261
 20
1193.2704374571
 10
673.7855355415
 20
1193.3045164127
 10
673.7185548219
 20
1193.2704374571
 10
673.6561338577
 20
1193.1705400724
 10
673.6025194797
 20
1193.0116191883
 10
673.5613922748
 20
1192.80452285
  0
LINE
  5
173
330
1F
100
AcDbEntity
  8
0
  6
Continuous
 62
     7
370
    15
100
AcDbLine
 10
676.5378098163
 20
1175.8859381456
 30
0.0
 11
674.0096788081
 21
1192.80452285
 31
0.0
  0
ARC
  5
174
330
1F
100
AcDbEntity
  8
0
  6
Continuous
 62
     7
370
    15
100
AcDbCircle
 10
674.8224024919
 20
1175.3755158244
 30
0.0
 40
1.789735520852651
100
AcDbArc
 50
326.432139089
 51
16.5704615787
  0
LINE
  5
175
330
1F
100
AcDbEntity
  8
0
  6
Continuous
 62
     7
370
    15
100
AcDbLine
 10
671.2574045333
 20
1174.3859276552
 30
0.0
 11
676.3136665496
 21
1174.3859276552
 31
0.0
  0
ARC
  5
176
330
1F
100
AcDbEntity
  8
0
  6
Continuous
 62
     7
370
    15
100
AcDbCircle
 10
672.7487099074
 20
1175.3755219982
 30
0.0
 40
1.789773360679423
100
AcDbArc
 50
163.4301050683
 51
213.567294264
  0
LINE
  5
177
330
1F
100
AcDbEntity
  8
0
  6
Continuous
 62
     7
370
    15
100
AcDbLine
 10
673.5613922748
 20
1192.80452285
 30
0.0
 11
671.0332612666
 21
1175.8859381456
 31
0.0
  0
LINE
  5
178
330
1F
100
AcDbEntity
  8
0
  6
Continuous
 62
     7
370
    15
100
AcDbLine
 10
671.2574045333
 20
1174.3859276552
 30
0.0
 11
671.2091098699
 21
1174.3859276552
 31
0.0
  0
ARC
  5
179
330
1F
100
AcDbEntity
  8
0
  6
Continuous
 62
     7
370
    15
100
AcDbCircle
 10
672.7003739276
 20
1175.3755158244
 30
0.0
 40
1.789735520852957
100
AcDbArc
 50
163.4295384213
 51
213.567860911
  0
LINE
  5
17A
330
1F
100
AcDbEntity
  8
0
  6
Continuous
 62
     7
370
    15
100
AcDbLine
 10
673.5130976114
 20
1192.80452285
 30
0.0
 11
670.9849666032
 21
1175.8859381456
 31
0.0
  0
LINE
  5
17B
330
1F
100
AcDbEntity
  8
0
  6
Continuous
 62
     7
370
    15
100
AcDbLine
 10
673.8338302049
 20
1191.3045123596
 30
0.0
 11
673.7855355415
 21
1191.3045123596
 31
0.0
  0
LINE
  5
17C
330
1F
100
AcDbEntity
  8
0
  6
Continuous
 62
     7
370
    15
100
AcDbLine
 10
673.8338302049
 20
1191.3045123596
 30
0.0
 11
671.5298424634
 21
1175.8859381456
 31
0.0
  0
LINE
  5
17D
330
1F
100
AcDbEntity
  8
0
  6
Continuous
 62
     7
370
    15
100
AcDbLine
 10
671.5298424634
 20
1175.8859381456
 30
0.0
 11
671.4815478
 21
1175.8859381456
 31
0.0
  0
LINE
  5
17E
330
1F
100
AcDbEntity
  8
0
  6
Continuous
 62
     7
370
    15
100
AcDbLine
 10
676.1378179464
 20
1175.8859381456
 30
0.0
 11
673.8338302049
 21
1191.3045123596
 31
0.0
  0
LINE
  5
17F
330
1F
100
AcDbEntity
  8
0
  6
Continuous
 62
     7
370
    15
100
AcDbLine
 10
671.5298424634
 20
1175.8859381456
 30
0.0
 11
676.1378179464
 21
1175.8859381456
 31
0.0
  0
LINE
  5
180
330
1F
100
AcDbEntity
  8
0
  6
Continuous
 62
     7
370
    15
100
AcDbLine
 10
674.0285734805
 20
1182.7046350021
 30
0.0
 11
673.6609171304
 21
1178.6504313726
 31
0.0
  0
LINE
  5
181
330
1F
100
AcDbEntity
  8
0
  6
Continuous
 62
     7
370
    15
100
AcDbLine
 10
673.6609171304
 20
1178.6504313726
 30
0.0
 11
673.5648940477
 21
1179.0870950002
 31
0.0
  0
LINE
  5
182
330
1F
100
AcDbEntity
  8
0
  6
Continuous
 62
     7
370
    15
100
AcDbLine
 10
673.5648940477
 20
1179.0870950002
 30
0.0
 11
673.7044285211
 21
1176.135934927
 31
0.0
  0
LINE
  5
183
330
1F
100
AcDbEntity
  8
0
  6
Continuous
 62
     7
370
    15
100
AcDbLine
 10
673.7044285211
 20
1176.135934927
 30
0.0
 11
673.9654968652
 21
1178.961254694
 31
0.0
  0
LINE
  5
184
330
1F
100
AcDbEntity
  8
0
  6
Continuous
 62
     7
370
    15
100
AcDbLine
 10
673.9654968652
 20
1178.961254694
 30
0.0
 11
673.8183777007
 21
1178.4782931585
 31
0.0
  0
LINE
  5
185
330
1F
100
AcDbEntity
  8
0
  6
Continuous
 62
     7
370
    15
100
AcDbLine
 10
673.8183777007
 20
1178.4782931585
 30
0.0
 11
674.3514667424
 21
1185.1359382648
 31
0.0
  0
LINE
  5
186
330
1F
100
AcDbEntity
  8
0
  6
Continuous
 62
     7
370
    15
100
AcDbLine
 10
674.3514667424
 20
1185.1359382648
 30
0.0
 11
673.5648940477
 21
1182.3163405437
 31
0.0
  0
LINE
  5
187
330
1F
100
AcDbEntity
  8
0
  6
Continuous
 62
     7
370
    15
100
AcDbLine
 10
673.5648940477
 20
1182.3163405437
 30
0.0
 11
674.0926484737
 21
1188.1359294433
 31
0.0
  0
LINE
  5
188
330
1F
100
AcDbEntity
  8
0
  6
Continuous
 62
     7
370
    15
100
AcDbLine
 10
674.0926484737
 20
1188.1359294433
 30
0.0
 11
673.5750119361
 21
1188.1359294433
 31
0.0
  0
LINE
  5
189
330
1F
100
AcDbEntity
  8
0
  6
Continuous
 62
     7
370
    15
100
AcDbLine
 10
673.5750119361
 20
1188.1359294433
 30
0.0
 11
673.3253429803
 21
1181.1359301586
 31
0.0
  0
LINE
  5
18A
330
1F
100
AcDbEntity
  8
0
  6
Continuous
 62
     7
370
    15
100
AcDbLine
 10
673.3253429803
 20
1181.1359301586
 30
0.0
 11
674.0285734805
 21
1182.7046350021
 31
0.0
  0
LINE
  5
18B
330
1F
100
AcDbEntity
  8
0
  6
Continuous
 62
     7
370
    15
100
AcDbLine
 10
673.9802788171
 20
1182.7046350021
 30
0.0
 11
674.0285734805
 21
1182.7046350021
 31
0.0
  0
LINE
  5
18C
330
1F
100
AcDbEntity
  8
0
  6
Continuous
 62
     7
370
    15
100
AcDbLine
 10
673.9802788171
 20
1182.7046350021
 30
0.0
 11
673.3295153055
 21
1181.2529787798
 31
0.0
  0
LINE
  5
18D
330
1F
100
AcDbEntity
  8
0
  6
Continuous
 62
     7
370
    15
100
AcDbLine
 10
674.0443538102
 20
1188.1359294433
 30
0.0
 11
673.5165993842
 21
1182.3163405437
 31
0.0
  0
LINE
  5
18E
330
1F
100
AcDbEntity
  8
0
  6
Continuous
 62
     7
370
    15
100
AcDbLine
 10
674.2837260637
 20
1184.893108942
 30
0.0
 11
673.7700830373
 21
1178.4782931585
 31
0.0
  0
LINE
  5
18F
330
1F
100
AcDbEntity
  8
0
  6
Continuous
 62
     7
370
    15
100
AcDbLine
 10
673.8961766633
 20
1178.7336841602
 30
0.0
 11
673.6880819473
 21
1176.4816865701
 31
0.0
  0
LINE
  5
190
330
1F
100
AcDbEntity
  8
0
  6
Continuous
 62
     7
370
    15
100
AcDbLine
 10
673.5781262788
 20
1178.8073107977
 30
0.0
 11
673.612622467
 21
1178.6504313726
 31
0.0
  0
LINE
  5
191
330
1F
100
AcDbEntity
  8
0
  6
Continuous
 62
     7
370
    15
100
AcDbLine
 10
673.5165993842
 20
1182.3163405437
 30
0.0
 11
673.5648940477
 21
1182.3163405437
 31
0.0
  0
LINE
  5
192
330
1F
100
AcDbEntity
  8
0
  6
Continuous
 62
     7
370
    15
100
AcDbLine
 10
673.612622467
 20
1178.6504313726
 30
0.0
 11
673.6609171304
 21
1178.6504313726
 31
0.0
  0
LWPOLYLINE
  5
193
330
1F
100
AcDbEntity
  8
0
  6
Continuous
 62
     7
370
    15
100
AcDbPolyline
 90
        5
 70
   128
 43
0.0
 10
673.5130976114
 20
1192.80452285
 10
673.5542248163
 20
1193.0116191883
 10
673.6078242931
 20
1193.1705400724
 10
673.6702452573
 20
1193.2704374571
 10
673.737240878
 20
1193.3045164127
  0
LINE
  5
194
330
1F
100
AcDbEntity
  8
0
  6
Continuous
 62
     7
370
    15
100
AcDbLine
 10
673.7700830373
 20
1178.4782931585
 30
0.0
 11
673.8183777007
 21
1178.4782931585
 31
0.0
  0
LWPOLYLINE
  5
195
330
1F
100
AcDbEntity
  8
0
  6
Continuous
 62
     7
370
    15
100
AcDbPolyline
 90
       22
 70
   128
 43
0.0
 10
612.0650003824
 20
1211.7368504781
 10
611.862098721
 20
1211.6114721079
 10
611.258914617
 20
1211.002193429
 10
610.6851230535
 20
1210.0600824136
 10
610.1529429826
 20
1208.805210926
 10
609.6737290892
 20
1207.2643414516
 10
609.2576886687
 20
1205.4703012485
 10
608.9136804613
 20
1203.4613266964
 10
608.6490507397
 20
1201.2802437324
 10
608.4694395932
 20
1198.9735290785
 10
608.3786617193
 20
1196.5903565664
 10
608.3786617193
 20
1194.1815093536
 10
608.4694395932
 20
1191.7983368416
 10
608.6490507397
 20
1189.4916221876
 10
608.9136804613
 20
1187.3105392236
 10
609.2576886687
 20
1185.3015646715
 10
609.6737290892
 20
1183.5075244684
 10
610.1529429826
 20
1181.966654994
 10
610.6851230535
 20
1180.7117835064
 10
611.258914617
 20
1179.769672491
 10
611.862098721
 20
1179.1603938122
 10
612.0650003824
 20
1179.0350154419
  0
LINE
  5
196
330
1F
100
AcDbEntity
  8
0
  6
Continuous
 62
     7
370
    15
100
AcDbLine
 10
627.68599197
 20
1195.5480650444
 30
0.0
 11
627.68599197
 21
1195.2238008756
 31
0.0
  0
LWPOLYLINE
  5
197
330
1F
100
AcDbEntity
  8
0
  6
Continuous
 62
     7
370
    15
100
AcDbPolyline
 90
        9
 70
   128
 43
0.0
 10
659.6281956109
 20
1127.8701126952
 10
659.3042145643
 20
1127.973027565
 10
658.9203010473
 20
1128.2778308172
 10
658.4912221107
 20
1128.7728026886
 10
658.0334882411
 20
1129.4389218468
 10
657.5646604571
 20
1130.2505880971
 10
657.1027691635
 20
1131.1766133089
 10
656.6655616435
 20
1132.1814060588
 10
656.2698464069
 20
1133.2263574381
  0
LINE
  5
198
330
1F
100
AcDbEntity
  8
0
  6
Continuous
 62
     7
370
    15
100
AcDbLine
 10
656.2698464069
 20
1133.2263574381
 30
0.0
 11
625.8761639866
 21
1219.6780816097
 31
0.0
  0
LINE
  5
199
330
1F
100
AcDbEntity
  8
0
  6
Continuous
 62
     7
370
    15
100
AcDbLine
 10
674.8985181722
 20
1127.8701126952
 30
0.0
 11
659.6281956109
 21
1127.8701126952
 31
0.0
  0
LWPOLYLINE
  5
19A
330
1F
100
AcDbEntity
  8
0
  6
Continuous
 62
     7
370
    15
100
AcDbPolyline
 90
        9
 70
   128
 43
0.0
 10
625.8761639866
 20
1219.6780816097
 10
625.5371402177
 20
1220.7230404396
 10
625.267838982
 20
1221.7278257389
 10
625.078609136
 20
1222.6538584013
 10
624.9767224464
 20
1223.4655246515
 10
624.9660904679
 20
1224.1316363592
 10
625.047130433
 20
1224.6266082306
 10
625.2167205486
 20
1224.9314114828
 10
625.3415699276
 20
1225.0119820614
  0
LINE
  5
19B
330
1F
100
AcDbEntity
  8
0
  6
Continuous
 62
     7
370
    15
100
AcDbLine
 10
637.1264736327
 20
1217.8190276403
 30
0.0
 11
666.5772478256
 21
1217.8190276403
 31
0.0
  0
LINE
  5
19C
330
1F
100
AcDbEntity
  8
0
  6
Continuous
 62
     7
370
    15
100
AcDbLine
 10
666.5772478256
 20
1217.8190276403
 30
0.0
 11
677.2923450145
 21
1217.8190276403
 31
0.0
  0
LINE
  5
19D
330
1F
100
AcDbEntity
  8
0
  6
Continuous
 62
     7
370
    15
100
AcDbLine
 10
675.0252972516
 20
1127.892464437
 30
0.0
 11
674.8985181722
 21
1127.8701126952
 31
0.0
  0
LINE
  5
19E
330
1F
100
AcDbEntity
  8
0
  6
Continuous
 62
     7
370
    15
100
AcDbLine
 10
654.8074762496
 20
1137.3859346289
 30
0.0
 11
630.4624508294
 21
1137.3859346289
 31
0.0
  0
ARC
  5
19F
330
1F
100
AcDbEntity
  8
0
  6
Continuous
 62
     7
370
    15
100
AcDbCircle
 10
634.779388262
 20
1170.8775600326
 30
0.0
 40
0.491701877017092
100
AcDbArc
 50
179.0240020068
 51
268.9906563546
  0
LINE
  5
1A0
330
1F
100
AcDbEntity
  8
0
  6
Continuous
 62
     7
370
    15
100
AcDbLine
 10
634.7707267079
 20
1170.3859344501
 30
0.0
 11
635.1570914659
 21
1170.3859344501
 31
0.0
  0
ARC
  5
1A1
330
1F
100
AcDbEntity
  8
0
  6
Continuous
 62
     7
370
    15
100
AcDbCircle
 10
635.1484299118
 20
1170.8775600326
 30
0.0
 40
0.4917018770170959
100
AcDbArc
 50
271.0093436454
 51
0.9759979932
  0
LINE
  5
1A2
330
1F
100
AcDbEntity
  8
0
  6
Continuous
 62
     7
370
    15
100
AcDbLine
 10
635.6400604519
 20
1170.8859354634
 30
0.0
 11
635.6400604519
 21
1177.8859272976
 31
0.0
  0
ARC
  5
1A3
330
1F
100
AcDbEntity
  8
0
  6
Continuous
 62
     7
370
    15
100
AcDbCircle
 10
635.1484223946
 20
1177.8943027932
 30
0.0
 40
0.4917093941360682
100
AcDbArc
 50
359.0240093786
 51
88.98979573
  0
LINE
  5
1A4
330
1F
100
AcDbEntity
  8
0
  6
Continuous
 62
     7
370
    15
100
AcDbLine
 10
635.1570914659
 20
1178.3859357614
 30
0.0
 11
634.7707267079
 21
1178.3859357614
 31
0.0
  0
ARC
  5
1A5
330
1F
100
AcDbEntity
  8
0
  6
Continuous
 62
     7
370
    15
100
AcDbCircle
 10
634.7793957791
 20
1177.8943027932
 30
0.0
 40
0.4917093941363471
100
AcDbArc
 50
91.01020427
 51
180.9759906214
  0
LINE
  5
1A6
330
1F
100
AcDbEntity
  8
0
  6
Continuous
 62
     7
370
    15
100
AcDbLine
 10
634.2877577218
 20
1177.8859272976
 30
0.0
 11
634.2877577218
 21
1170.8859354634
 31
0.0
  0
LINE
  5
1A7
330
1F
100
AcDbEntity
  8
0
  6
Continuous
 62
     7
370
    15
100
AcDbLine
 10
588.4126368138
 20
778.8859382648
 30
0.0
 11
588.4153488251
 21
778.8859382648
 31
0.0
  0
LINE
  5
1A8
330
1F
100
AcDbEntity
  8
0
  6
Continuous
 62
     7
370
    15
100
AcDbLine
 10
584.6479776475
 20
778.8859382648
 30
0.0
 11
588.4126368138
 21
778.8859382648
 31
0.0
  0
LINE
  5
1A9
330
1F
100
AcDbEntity
  8
0
  6
Continuous
 62
     7
370
    15
100
AcDbLine
 10
577.460689393
 20
778.8859382648
 30
0.0
 11
584.6479776475
 21
778.8859382648
 31
0.0
  0
LINE
  5
1AA
330
1F
100
AcDbEntity
  8
0
  6
Continuous
 62
     7
370
    15
100
AcDbLine
 10
574.0353482935
 20
778.8859382648
 30
0.0
 11
577.460689393
 21
778.8859382648
 31
0.0
  0
LINE
  5
1AB
330
1F
100
AcDbEntity
  8
0
  6
Continuous
 62
     7
370
    15
100
AcDbLine
 10
584.6479776475
 20
778.8859382648
 30
0.0
 11
584.6479776475
 21
773.5859230537
 31
0.0
  0
LINE
  5
1AC
330
1F
100
AcDbEntity
  8
0
  6
Continuous
 62
     7
370
    15
100
AcDbLine
 10
588.4126368138
 20
778.8859382648
 30
0.0
 11
588.4126368138
 21
773.5859230537
 31
0.0
  0
LINE
  5
1AD
330
1F
100
AcDbEntity
  8
0
  6
Continuous
 62
     7
370
    15
100
AcDbLine
 10
584.6479776475
 20
773.5859230537
 30
0.0
 11
588.4126368138
 21
773.5859230537
 31
0.0
  0
LINE
  5
1AE
330
1F
100
AcDbEntity
  8
0
  6
Continuous
 62
     7
370
    15
100
AcDbLine
 10
577.460689393
 20
778.8859382648
 30
0.0
 11
577.460689393
 21
773.5859230537
 31
0.0
  0
LINE
  5
1AF
330
1F
100
AcDbEntity
  8
0
  6
Continuous
 62
     7
370
    15
100
AcDbLine
 10
577.460689393
 20
773.5859230537
 30
0.0
 11
584.6479776475
 21
773.5859230537
 31
0.0
  0
LINE
  5
1B0
330
1F
100
AcDbEntity
  8
0
  6
Continuous
 62
     7
370
    15
100
AcDbLine
 10
574.0380603048
 20
778.8859382648
 30
0.0
 11
574.0380603048
 21
773.5859230537
 31
0.0
  0
LINE
  5
1B1
330
1F
100
AcDbEntity
  8
0
  6
Continuous
 62
     7
370
    15
100
AcDbLine
 10
574.0380603048
 20
773.5859230537
 30
0.0
 11
577.460689393
 21
773.5859230537
 31
0.0
  0
LINE
  5
1B2
330
1F
100
AcDbEntity
  8
0
  6
Continuous
 62
     7
370
    15
100
AcDbLine
 10
491.1844673726
 20
778.8859382648
 30
0.0
 11
492.2488275143
 21
778.8859382648
 31
0.0
  0
LINE
  5
1B3
330
1F
100
AcDbEntity
  8
0
  6
Continuous
 62
     7
370
    15
100
AcDbLine
 10
484.8613570604
 20
778.8859382648
 30
0.0
 11
491.1844673726
 21
778.8859382648
 31
0.0
  0
LINE
  5
1B4
330
1F
100
AcDbEntity
  8
0
  6
Continuous
 62
     7
370
    15
100
AcDbLine
 10
478.7357169363
 20
778.8859382648
 30
0.0
 11
484.8613570604
 21
778.8859382648
 31
0.0
  0
LINE
  5
1B5
330
1F
100
AcDbEntity
  8
0
  6
Continuous
 62
     7
370
    15
100
AcDbLine
 10
477.8688269827
 20
778.8859382648
 30
0.0
 11
478.7357169363
 21
778.8859382648
 31
0.0
  0
LINE
  5
1B6
330
1F
100
AcDbEntity
  8
0
  6
Continuous
 62
     7
370
    15
100
AcDbLine
 10
484.8613570604
 20
778.8859382648
 30
0.0
 11
484.8613570604
 21
773.5859230537
 31
0.0
  0
LINE
  5
1B7
330
1F
100
AcDbEntity
  8
0
  6
Continuous
 62
     7
370
    15
100
AcDbLine
 10
491.1844673726
 20
778.8859382648
 30
0.0
 11
491.1844673726
 21
773.5859230537
 31
0.0
  0
LINE
  5
1B8
330
1F
100
AcDbEntity
  8
0
  6
Continuous
 62
     7
370
    15
100
AcDbLine
 10
484.8613570604
 20
773.5859230537
 30
0.0
 11
491.1844673726
 21
773.5859230537
 31
0.0
  0
LINE
  5
1B9
330
1F
100
AcDbEntity
  8
0
  6
Continuous
 62
     7
370
    15
100
AcDbLine
 10
478.7357169363
 20
778.8859382648
 30
0.0
 11
478.7357169363
 21
773.5859230537
 31
0.0
  0
LINE
  5
1BA
330
1F
100
AcDbEntity
  8
0
  6
Continuous
 62
     7
370
    15
100
AcDbLine
 10
478.7357169363
 20
773.5859230537
 30
0.0
 11
484.8613570604
 21
773.5859230537
 31
0.0
  0
LINE
  5
1BB
330
1F
100
AcDbEntity
  8
0
  6
Continuous
 62
     7
370
    15
100
AcDbLine
 10
491.3819338354
 20
778.8859382648
 30
0.0
 11
491.3819338354
 21
773.5859230537
 31
0.0
  0
LINE
  5
1BC
330
1F
100
AcDbEntity
  8
0
  6
Continuous
 62
     7
370
    15
100
AcDbLine
 10
491.1844673726
 20
773.5859230537
 30
0.0
 11
491.3819338354
 21
773.5859230537
 31
0.0
  0
LINE
  5
1BD
330
1F
100
AcDbEntity
  8
0
  6
Continuous
 62
     7
370
    15
100
AcDbLine
 10
481.0705649826
 20
794.8859408874
 30
0.0
 11
483.3244065913
 21
794.8859408874
 31
0.0
  0
LINE
  5
1BE
330
1F
100
AcDbEntity
  8
0
  6
Continuous
 62
     7
370
    15
100
AcDbLine
 10
582.9597692165
 20
794.8859408874
 30
0.0
 11
585.2136108252
 21
794.8859408874
 31
0.0
  0
LINE
  5
1BF
330
1F
100
AcDbEntity
  8
0
  6
Continuous
 62
     7
370
    15
100
AcDbLine
 10
565.6600873145
 20
794.8859408874
 30
0.0
 11
565.6600873145
 21
784.8859206218
 31
0.0
  0
LINE
  5
1C0
330
1F
100
AcDbEntity
  8
0
  6
Continuous
 62
     7
370
    15
100
AcDbLine
 10
500.6240884933
 20
794.8859408874
 30
0.0
 11
500.6240884933
 21
784.8859206218
 31
0.0
  0
LINE
  5
1C1
330
1F
100
AcDbEntity
  8
0
  6
Continuous
 62
     7
370
    15
100
AcDbLine
 10
472.1420872185
 20
819.8859319467
 30
0.0
 11
481.0588265929
 21
819.8859319467
 31
0.0
  0
LINE
  5
1C2
330
1F
100
AcDbEntity
  8
0
  6
Continuous
 62
     7
370
    15
100
AcDbLine
 10
489.0588279042
 20
819.8859319467
 30
0.0
 11
577.2253479037
 21
819.8859319467
 31
0.0
  0
LINE
  5
1C3
330
1F
100
AcDbEntity
  8
0
  6
Continuous
 62
     7
370
    15
100
AcDbLine
 10
585.225349215
 20
819.8859319467
 30
0.0
 11
594.1420885894
 21
819.8859319467
 31
0.0
  0
SPLINE
  5
1C4
330
1F
100
AcDbEntity
  8
0
  6
Continuous
 62
     7
370
    15
100
AcDbSpline
210
0.0
220
0.0
230
1.0
 70
     8
 71
     3
 72
    10
 73
     6
 74
     0
 42
0.00000001
 43
0.00000001
 12
1.0
 22
0.0
 32
0.0
 13
1.0
 23
0.0
 33
0.0
 40
0.0
 40
0.0
 40
0.0
 40
0.0
 40
0.4643027904215974
 40
0.9277613024743488
 40
1.0
 40
1.0
 40
1.0
 40
1.0
 10
565.6600873145388
 20
784.8859206218447
 30
0.0
 10
565.6142449742351
 20
784.3781231948341
 30
0.0
 10
565.5226436523692
 20
783.3634517089083
 30
0.0
 10
565.0222406421016
 20
782.3931023121943
 30
0.0
 10
564.6928015221243
 20
781.9461948546013
 30
0.0
 10
564.648376700573
 20
781.8859294433321
 30
0.0
  0
SPLINE
  5
1C5
330
1F
100
AcDbEntity
  8
0
  6
Continuous
 62
     7
370
    15
100
AcDbSpline
210
0.0
220
0.0
230
1.0
 70
     8
 71
     3
 72
    12
 73
     8
 74
     0
 42
0.00000001
 43
0.00000001
 12
1.0
 22
0.0
 32
0.0
 13
1.0
 23
0.0
 33
0.0
 40
0.0
 40
0.0
 40
0.0
 40
0.0
 40
0.0033602808459721
 40
0.2260383746389615
 40
0.5243428997068316
 40
0.7836139279632343
 40
1.0
 40
1.0
 40
1.0
 40
1.0
 10
562.553984967165
 20
779.8859253902162
 30
0.0
 10
562.5560189645327
 20
779.8859326511057
 30
0.0
 10
562.6928412957908
 20
779.8864210744592
 30
0.0
 10
563.0105797192241
 20
779.9717327431188
 30
0.0
 10
563.5087278841568
 20
780.3898237703141
 30
0.0
 10
564.0550527325506
 20
781.0852410204427
 30
0.0
 10
564.4628578658832
 20
781.6355724863072
 30
0.0
 10
564.648376700573
 20
781.885929443332
 30
0.0
  0
LINE
  5
1C6
330
1F
100
AcDbEntity
  8
0
  6
Continuous
 62
     7
370
    15
100
AcDbLine
 10
562.5539849672
 20
779.8859253902
 30
0.0
 11
503.7301908407
 21
779.8859253902
 31
0.0
  0
SPLINE
  5
1C7
330
1F
100
AcDbEntity
  8
0
  6
Continuous
 62
     7
370
    15
100
AcDbSpline
210
0.0
220
0.0
230
1.0
 70
     8
 71
     3
 72
    12
 73
     8
 74
     0
 42
0.00000001
 43
0.00000001
 12
1.0
 22
0.0
 32
0.0
 13
1.0
 23
0.0
 33
0.0
 40
0.0
 40
0.0
 40
0.0
 40
0.0
 40
0.2163860720367657
 40
0.4756571002931684
 40
0.7739616253610384
 40
0.9966397191540278
 40
1.0
 40
1.0
 40
1.0
 40
1.0
 10
501.6357991072463
 20
781.885929443332
 30
0.0
 10
501.8213179419361
 20
781.6355724863072
 30
0.0
 10
502.2291230752686
 20
781.0852410204427
 30
0.0
 10
502.7754479236624
 20
780.3898237703144
 30
0.0
 10
503.2735960885951
 20
779.9717327431181
 30
0.0
 10
503.5913345120284
 20
779.8864210744604
 30
0.0
 10
503.7281568432865
 20
779.8859326511057
 30
0.0
 10
503.7301908406542
 20
779.8859253902162
 30
0.0
  0
SPLINE
  5
1C8
330
1F
100
AcDbEntity
  8
0
  6
Continuous
 62
     7
370
    15
100
AcDbSpline
210
0.0
220
0.0
230
1.0
 70
     8
 71
     3
 72
     9
 73
     5
 74
     0
 42
0.00000001
 43
0.00000001
 12
1.0
 22
0.0
 32
0.0
 13
1.0
 23
0.0
 33
0.0
 40
0.0
 40
0.0
 40
0.0
 40
0.0
 40
0.4706116931513912
 40
1.0
 40
1.0
 40
1.0
 40
1.0
 10
501.6357991072463
 20
781.8859294433321
 30
0.0
 10
501.3631088339534
 20
782.3052513361324
 30
0.0
 10
500.783670886998
 20
783.1962659430844
 30
0.0
 10
500.6793269522346
 20
784.3010571012186
 30
0.0
 10
500.6240884932803
 20
784.8859206218447
 30
0.0
  0
LINE
  5
1C9
330
1F
100
AcDbEntity
  8
0
  6
Continuous
 62
     7
370
    15
100
AcDbLine
 10
483.3244065913
 20
794.8859408874
 30
0.0
 11
500.6240884933
 21
794.8859408874
 31
0.0
  0
LINE
  5
1CA
330
1F
100
AcDbEntity
  8
0
  6
Continuous
 62
     7
370
    15
100
AcDbLine
 10
503.7301908407
 20
779.8859253902
 30
0.0
 11
482.3723527762
 21
779.8859253902
 31
0.0
  0
LINE
  5
1CB
330
1F
100
AcDbEntity
  8
0
  6
Continuous
 62
     7
370
    15
100
AcDbLine
 10
565.6600873145
 20
794.8859408874
 30
0.0
 11
582.9597692165
 21
794.8859408874
 31
0.0
  0
LINE
  5
1CC
330
1F
100
AcDbEntity
  8
0
  6
Continuous
 62
     7
370
    15
100
AcDbLine
 10
583.9118230316
 20
779.8859253902
 30
0.0
 11
562.5539849672
 21
779.8859253902
 31
0.0
  0
LINE
  5
1CD
330
1F
100
AcDbEntity
  8
0
  6
Continuous
 62
     7
370
    15
100
AcDbLine
 10
472.408601937
 20
794.8859408874
 30
0.0
 11
481.0705649826
 21
794.8859408874
 31
0.0
  0
LINE
  5
1CE
330
1F
100
AcDbEntity
  8
0
  6
Continuous
 62
     7
370
    15
100
AcDbLine
 10
482.3723527762
 20
779.8859253902
 30
0.0
 11
473.9269371304
 21
779.8859253902
 31
0.0
  0
LINE
  5
1CF
330
1F
100
AcDbEntity
  8
0
  6
Continuous
 62
     7
370
    15
100
AcDbLine
 10
585.2136108252
 20
794.8859408874
 30
0.0
 11
593.8755738708
 21
794.8859408874
 31
0.0
  0
LINE
  5
1D0
330
1F
100
AcDbEntity
  8
0
  6
Continuous
 62
     7
370
    15
100
AcDbLine
 10
592.3572386774
 20
779.8859253902
 30
0.0
 11
583.9118230316
 21
779.8859253902
 31
0.0
  0
LINE
  5
1D1
330
1F
100
AcDbEntity
  8
0
  6
Continuous
 62
     7
370
    15
100
AcDbLine
 10
471.9269368026
 20
794.8859408874
 30
0.0
 11
472.408601937
 21
794.8859408874
 31
0.0
  0
LINE
  5
1D2
330
1F
100
AcDbEntity
  8
0
  6
Continuous
 62
     7
370
    15
100
AcDbLine
 10
593.8755738708
 20
794.8859408874
 30
0.0
 11
594.3572390053
 21
794.8859408874
 31
0.0
  0
LINE
  5
1D3
330
1F
100
AcDbEntity
  8
0
  6
Continuous
 62
     7
370
    15
100
AcDbLine
 10
537.1379534873
 20
754.8859194298
 30
0.0
 11
529.1462223205
 21
754.8859194298
 31
0.0
  0
LINE
  5
1D4
330
1F
100
AcDbEntity
  8
0
  6
Continuous
 62
     7
370
    15
100
AcDbLine
 10
529.1462223205
 20
754.8859194298
 30
0.0
 11
524.0295649666
 21
754.8859194298
 31
0.0
  0
LINE
  5
1D5
330
1F
100
AcDbEntity
  8
0
  6
Continuous
 62
     7
370
    15
100
AcDbLine
 10
542.2546108413
 20
754.8859194298
 30
0.0
 11
537.1379534873
 21
754.8859194298
 31
0.0
  0
LINE
  5
1D6
330
1F
100
AcDbEntity
  8
0
  6
Continuous
 62
     7
370
    15
100
AcDbLine
 10
524.0295649666
 20
754.8859194298
 30
0.0
 11
499.1420860562
 21
754.8859194298
 31
0.0
  0
LINE
  5
1D7
330
1F
100
AcDbEntity
  8
0
  6
Continuous
 62
     7
370
    15
100
AcDbLine
 10
567.1420897517
 20
754.8859194298
 30
0.0
 11
542.2546108413
 21
754.8859194298
 31
0.0
  0
LINE
  5
1D8
330
1F
100
AcDbEntity
  8
0
  6
Continuous
 62
     7
370
    15
100
AcDbLine
 10
499.1420860562
 20
754.8859194298
 30
0.0
 11
497.2117039534
 21
754.8859194298
 31
0.0
  0
LINE
  5
1D9
330
1F
100
AcDbEntity
  8
0
  6
Continuous
 62
     7
370
    15
100
AcDbLine
 10
569.0724718544
 20
754.8859194298
 30
0.0
 11
567.1420897517
 21
754.8859194298
 31
0.0
  0
LINE
  5
1DA
330
1F
100
AcDbEntity
  8
0
  6
Continuous
 62
     7
370
    15
100
AcDbLine
 10
497.2117039534
 20
754.8859194298
 30
0.0
 11
495.3670966598
 21
754.8859194298
 31
0.0
  0
LINE
  5
1DB
330
1F
100
AcDbEntity
  8
0
  6
Continuous
 62
     7
370
    15
100
AcDbLine
 10
570.917079148
 20
754.8859194298
 30
0.0
 11
569.0724718544
 21
754.8859194298
 31
0.0
  0
LINE
  5
1DC
330
1F
100
AcDbEntity
  8
0
  6
Continuous
 62
     7
370
    15
100
AcDbLine
 10
594.1420885894
 20
856.3859388609
 30
0.0
 11
585.225349215
 21
856.3859388609
 31
0.0
  0
LINE
  5
1DD
330
1F
100
AcDbEntity
  8
0
  6
Continuous
 62
     7
370
    15
100
AcDbLine
 10
577.2253479037
 20
856.3859388609
 30
0.0
 11
489.0588279042
 21
856.3859388609
 31
0.0
  0
LINE
  5
1DE
330
1F
100
AcDbEntity
  8
0
  6
Continuous
 62
     7
370
    15
100
AcDbLine
 10
481.0588265929
 20
856.3859388609
 30
0.0
 11
472.1420872185
 21
856.3859388609
 31
0.0
  0
LINE
  5
1DF
330
1F
100
AcDbEntity
  8
0
  6
Continuous
 62
     7
370
    15
100
AcDbLine
 10
594.1420885894
 20
892.8859308738
 30
0.0
 11
585.225349215
 21
892.8859308738
 31
0.0
  0
LINE
  5
1E0
330
1F
100
AcDbEntity
  8
0
  6
Continuous
 62
     7
370
    15
100
AcDbLine
 10
577.2253479037
 20
892.8859308738
 30
0.0
 11
489.0588279042
 21
892.8859308738
 31
0.0
  0
LINE
  5
1E1
330
1F
100
AcDbEntity
  8
0
  6
Continuous
 62
     7
370
    15
100
AcDbLine
 10
481.0588265929
 20
892.8859308738
 30
0.0
 11
472.1420872185
 21
892.8859308738
 31
0.0
  0
SPLINE
  5
1E2
330
1F
100
AcDbEntity
  8
0
  6
Continuous
 62
     7
370
    15
100
AcDbSpline
210
0.0
220
0.0
230
1.0
 70
     8
 71
     3
 72
    12
 73
     8
 74
     0
 42
0.00000001
 43
0.00000001
 12
1.0
 22
0.0
 32
0.0
 13
1.0
 23
0.0
 33
0.0
 40
0.0
 40
0.0
 40
0.0
 40
0.0
 40
0.2398545477857713
 40
0.2647480114931997
 40
0.5324801833577602
 40
0.9196363452806711
 40
1.0
 40
1.0
 40
1.0
 40
1.0
 10
493.975421336584
 20
978.4558639306749
 30
0.0
 10
494.3941181767651
 20
978.5565790819978
 30
0.0
 10
494.8562697468717
 20
978.6677470222606
 30
0.0
 10
495.6822717202423
 20
979.0536177346254
 30
0.0
 10
496.6213255418975
 20
979.6827874668619
 30
0.0
 10
497.3349891554775
 20
980.5688736834193
 30
0.0
 10
497.6483389358205
 20
981.2228208842408
 30
0.0
 10
497.7022017511653
 20
981.3352302093233
 30
0.0
  0
LINE
  5
1E3
330
1F
100
AcDbEntity
  8
0
  6
Continuous
 62
     7
370
    15
100
AcDbLine
 10
497.8688675138
 20
966.3859308142
 30
0.0
 11
494.1420870992
 21
966.3859308142
 31
0.0
  0
SPLINE
  5
1E4
330
1F
100
AcDbEntity
  8
0
  6
Continuous
 62
     7
370
    15
100
AcDbSpline
210
0.0
220
0.0
230
1.0
 70
     8
 71
     3
 72
    12
 73
     8
 74
     0
 42
0.00000001
 43
0.00000001
 12
1.0
 22
0.0
 32
0.0
 13
1.0
 23
0.0
 33
0.0
 40
0.0
 40
0.0
 40
0.0
 40
0.0
 40
0.08033805681558
 40
0.4673708994817533
 40
0.7350177917209679
 40
0.9581124494700171
 40
1.0
 40
1.0
 40
1.0
 40
1.0
 10
568.5819740566538
 20
981.3352302093233
 30
0.0
 10
568.6358253206598
 20
981.2228239047209
 30
0.0
 10
568.9491079004766
 20
980.5688942757027
 30
0.0
 10
569.6645102953098
 20
979.6823533971943
 30
0.0
 10
570.8720829870748
 20
978.8710790086899
 30
0.0
 10
571.771179296988
 20
978.5545436745235
 30
0.0
 10
572.2353757604676
 20
978.469333660546
 30
0.0
 10
572.3087544712351
 20
978.4558639306749
 30
0.0
  0
LINE
  5
1E5
330
1F
100
AcDbEntity
  8
0
  6
Continuous
 62
     7
370
    15
100
AcDbLine
 10
572.1420887086
 20
966.3859308142
 30
0.0
 11
568.415308294
 21
966.3859308142
 31
0.0
  0
ARC
  5
1E6
330
1F
100
AcDbEntity
  8
0
  6
Continuous
 62
     7
370
    15
100
AcDbCircle
 10
533.1420879039
 20
1005.8859320659
 30
0.0
 40
35.00000000000006
100
AcDbArc
 50
0.0000000009
 51
179.9999999991
  0
CIRCLE
  5
1E7
330
1F
100
AcDbEntity
  8
0
  6
Continuous
 62
     7
370
    15
100
AcDbCircle
 10
533.1420879039
 20
1006.3859320659
 30
0.0
 40
24.76414699999987
  0
LINE
  5
1E8
330
1F
100
AcDbEntity
  8
0
  6
Continuous
 62
     7
370
    15
100
AcDbLine
 10
498.6142235967
 20
966.3859308142
 30
0.0
 11
567.6699522111
 21
966.3859308142
 31
0.0
  0
CIRCLE
  5
1E9
330
1F
100
AcDbEntity
  8
0
  6
Continuous
 62
     7
370
    15
100
AcDbCircle
 10
533.1420879039
 20
1006.3859320659
 30
0.0
 40
23.73192450140618
  0
LINE
  5
1EA
330
1F
100
AcDbEntity
  8
0
  6
Continuous
 62
     7
370
    15
100
AcDbLine
 10
498.1420877549
 20
983.3859354634
 30
0.0
 11
498.1420877549
 21
1005.8859326322
 31
0.0
  0
ARC
  5
1EB
330
1F
100
AcDbEntity
  8
0
  6
Continuous
 62
     7
370
    15
100
AcDbCircle
 10
493.1420879039
 20
983.3859320659
 30
0.0
 40
5.000000000000008
100
AcDbArc
 50
335.7863818358
 51
0.0
  0
LINE
  5
1EC
330
1F
100
AcDbEntity
  8
0
  6
Continuous
 62
     7
370
    15
100
AcDbLine
 10
497.8688675138
 20
966.3859308142
 30
0.0
 11
498.6142235967
 21
966.3859308142
 31
0.0
  0
LINE
  5
1ED
330
1F
100
AcDbEntity
  8
0
  6
Continuous
 62
     7
370
    15
100
AcDbLine
 10
568.1420880529
 20
1005.8859326322
 30
0.0
 11
568.1420880529
 21
983.3859354634
 31
0.0
  0
ARC
  5
1EE
330
1F
100
AcDbEntity
  8
0
  6
Continuous
 62
     7
370
    15
100
AcDbCircle
 10
573.1420879039
 20
983.3859320659
 30
0.0
 40
5.0
100
AcDbArc
 50
180.0
 51
204.2136181641
  0
LINE
  5
1EF
330
1F
100
AcDbEntity
  8
0
  6
Continuous
 62
     7
370
    15
100
AcDbLine
 10
567.6699522111
 20
966.3859308142
 30
0.0
 11
568.415308294
 21
966.3859308142
 31
0.0
  0
LINE
  5
1F0
330
1F
100
AcDbEntity
  8
0
  6
Continuous
 62
     7
370
    15
100
AcDbLine
 10
469.8392431411
 20
978.3859327812
 30
0.0
 11
467.5884748968
 21
978.3859327812
 31
0.0
  0
LINE
  5
1F1
330
1F
100
AcDbEntity
  8
0
  6
Continuous
 62
     7
370
    15
100
AcDbLine
 10
469.8392431411
 20
978.3859327812
 30
0.0
 11
476.6527618441
 21
978.3859327812
 31
0.0
  0
LINE
  5
1F2
330
1F
100
AcDbEntity
  8
0
  6
Continuous
 62
     7
370
    15
100
AcDbLine
 10
478.3483687016
 20
978.3859327812
 30
0.0
 11
493.142088798
 21
978.3859327812
 31
0.0
  0
LINE
  5
1F3
330
1F
100
AcDbEntity
  8
0
  6
Continuous
 62
     7
370
    15
100
AcDbLine
 10
467.0257846984
 20
966.3859308142
 30
0.0
 11
469.8392431411
 21
966.3859308142
 31
0.0
  0
LINE
  5
1F4
330
1F
100
AcDbEntity
  8
0
  6
Continuous
 62
     7
370
    15
100
AcDbLine
 10
469.8392431411
 20
966.3859308142
 30
0.0
 11
494.1420870992
 21
966.3859308142
 31
0.0
  0
ARC
  5
1F5
330
1F
100
AcDbEntity
  8
0
  6
Continuous
 62
     7
370
    15
100
AcDbCircle
 10
493.1420879039
 20
983.3859320659
 30
0.0
 40
5.000000000000052
100
AcDbArc
 50
270.0
 51
279.5940682267
  0
LINE
  5
1F6
330
1F
100
AcDbEntity
  8
0
  6
Continuous
 62
     7
370
    15
100
AcDbLine
 10
572.1420887086
 20
966.3859308142
 30
0.0
 11
596.4449326667
 21
966.3859308142
 31
0.0
  0
LINE
  5
1F7
330
1F
100
AcDbEntity
  8
0
  6
Continuous
 62
     7
370
    15
100
AcDbLine
 10
573.1420870098
 20
978.3859327812
 30
0.0
 11
596.4449326667
 21
978.3859327812
 31
0.0
  0
ARC
  5
1F8
330
1F
100
AcDbEntity
  8
0
  6
Continuous
 62
     7
370
    15
100
AcDbCircle
 10
573.1420879039
 20
983.3859320659
 30
0.0
 40
5.000000000000052
100
AcDbArc
 50
260.4059317733
 51
270.0
  0
LINE
  5
1F9
330
1F
100
AcDbEntity
  8
0
  6
Continuous
 62
     7
370
    15
100
AcDbLine
 10
596.4449326667
 20
966.3859308142
 30
0.0
 11
599.2583911094
 21
966.3859308142
 31
0.0
  0
LINE
  5
1FA
330
1F
100
AcDbEntity
  8
0
  6
Continuous
 62
     7
370
    15
100
AcDbLine
 10
598.695700911
 20
978.3859327812
 30
0.0
 11
596.4449326667
 21
978.3859327812
 31
0.0
  0
LINE
  5
1FB
330
1F
100
AcDbEntity
  8
0
  6
Continuous
 62
     7
370
    15
100
AcDbLine
 10
436.8354211721
 20
978.3859327812
 30
0.0
 11
467.5884748968
 21
978.3859327812
 31
0.0
  0
LINE
  5
1FC
330
1F
100
AcDbEntity
  8
0
  6
Continuous
 62
     7
370
    15
100
AcDbLine
 10
436.0087569031
 20
966.3859308142
 30
0.0
 11
467.0257846984
 21
966.3859308142
 31
0.0
  0
LINE
  5
1FD
330
1F
100
AcDbEntity
  8
0
  6
Continuous
 62
     7
370
    15
100
AcDbLine
 10
598.695700911
 20
978.3859327812
 30
0.0
 11
629.4487546357
 21
978.3859327812
 31
0.0
  0
LINE
  5
1FE
330
1F
100
AcDbEntity
  8
0
  6
Continuous
 62
     7
370
    15
100
AcDbLine
 10
599.2583911094
 20
966.3859308142
 30
0.0
 11
630.2754189047
 21
966.3859308142
 31
0.0
  0
LINE
  5
1FF
330
1F
100
AcDbEntity
  8
0
  6
Continuous
 62
     7
370
    15
100
AcDbLine
 10
533.1420879039
 20
1045.8859319709
 30
0.0
 11
618.142088798
 21
1045.8859319709
 31
0.0
  0
LINE
  5
200
330
1F
100
AcDbEntity
  8
0
  6
Continuous
 62
     7
370
    15
100
AcDbLine
 10
448.1420870098
 20
1045.8859319709
 30
0.0
 11
533.1420879039
 21
1045.8859319709
 31
0.0
  0
LINE
  5
201
330
1F
100
AcDbEntity
  8
0
  6
Continuous
 62
     7
370
    15
100
AcDbLine
 10
448.7323741588
 20
986.3859303672
 30
0.0
 11
448.7323741588
 21
983.3859354634
 31
0.0
  0
SPLINE
  5
202
330
1F
100
AcDbEntity
  8
0
  6
Continuous
 62
     7
370
    15
100
AcDbSpline
210
0.0
220
0.0
230
1.0
 70
     8
 71
     3
 72
    12
 73
     8
 74
     0
 42
0.00000001
 43
0.00000001
 12
1.0
 22
0.0
 32
0.0
 13
1.0
 23
0.0
 33
0.0
 40
0.0
 40
0.0
 40
0.0
 40
0.0
 40
0.2136861424823697
 40
0.427336932556837
 40
0.6419056251328484
 40
0.8571008204194915
 40
1.0
 40
1.0
 40
1.0
 40
1.0
 10
448.1420870098399
 20
996.3859320063319
 30
0.0
 10
448.1553355169934
 20
996.276166322411
 30
0.0
 10
448.1818303394564
 20
996.0566531142928
 30
0.0
 10
448.3671594190864
 20
994.3458192333983
 30
0.0
 10
448.5725705864256
 20
991.8217416974326
 30
0.0
 10
448.7115962379847
 20
989.0035850853931
 30
0.0
 10
448.7264476397575
 20
987.1325681399527
 30
0.0
 10
448.7323741587924
 20
986.3859303672042
 30
0.0
  0
LINE
  5
203
330
1F
100
AcDbEntity
  8
0
  6
Continuous
 62
     7
370
    15
100
AcDbLine
 10
508.1511846903
 20
963.3859321851
 30
0.0
 11
448.1420870098
 21
963.3859321851
 31
0.0
  0
LINE
  5
204
330
1F
100
AcDbEntity
  8
0
  6
Continuous
 62
     7
370
    15
100
AcDbLine
 10
618.142088798
 20
963.3859321851
 30
0.0
 11
558.1329911175
 21
963.3859321851
 31
0.0
  0
SPLINE
  5
205
330
1F
100
AcDbEntity
  8
0
  6
Continuous
 62
     7
370
    15
100
AcDbSpline
210
0.0
220
0.0
230
1.0
 70
     8
 71
     3
 72
    10
 73
     6
 74
     0
 42
0.00000001
 43
0.00000001
 12
1.0
 22
0.0
 32
0.0
 13
1.0
 23
0.0
 33
0.0
 40
0.0
 40
0.0
 40
0.0
 40
0.0
 40
0.3260316443037216
 40
0.6539888296213442
 40
0.9999999999999999
 40
0.9999999999999999
 40
0.9999999999999999
 40
0.9999999999999999
 10
543.1420876803921
 20
963.1262869019235
 30
0.0
 10
544.7948618293697
 20
963.0772270306688
 30
0.0
 10
548.1101714019316
 20
962.9788175408421
 30
0.0
 10
553.1194819785857
 20
963.2374196444921
 30
0.0
 10
556.4322411313555
 20
963.3355517640747
 30
0.0
 10
558.1329911175297
 20
963.3859321851459
 30
0.0
  0
SPLINE
  5
206
330
1F
100
AcDbEntity
  8
0
  6
Continuous
 62
     7
370
    15
100
AcDbSpline
210
0.0
220
0.0
230
1.0
 70
     8
 71
     3
 72
     9
 73
     5
 74
     0
 42
0.00000001
 43
0.00000001
 12
1.0
 22
0.0
 32
0.0
 13
1.0
 23
0.0
 33
0.0
 40
0.0
 40
0.0
 40
0.0
 40
0.0
 40
0.500076502830378
 40
1.0
 40
1.0
 40
1.0
 40
1.0
 10
523.142088127427
 20
963.1262869019235
 30
0.0
 10
526.4759342635508
 20
963.205606423681
 30
0.0
 10
533.1426064972082
 20
963.3642211982377
 30
0.0
 10
539.8092672982777
 20
963.2055902435502
 30
0.0
 10
543.1420876803921
 20
963.1262869019235
 30
0.0
  0
SPLINE
  5
207
330
1F
100
AcDbEntity
  8
0
  6
Continuous
 62
     7
370
    15
100
AcDbSpline
210
0.0
220
0.0
230
1.0
 70
     8
 71
     3
 72
     9
 73
     5
 74
     0
 42
0.00000001
 43
0.00000001
 12
1.0
 22
0.0
 32
0.0
 13
1.0
 23
0.0
 33
0.0
 40
0.0
 40
0.0
 40
0.0
 40
0.0
 40
0.49811929036882
 40
1.0
 40
1.0
 40
1.0
 40
1.0
 10
508.1511846902894
 20
963.3859321851459
 30
0.0
 10
510.6033991716134
 20
963.2715814680696
 30
0.0
 10
515.526345399029
 20
963.04201654399
 30
0.0
 10
520.5971494113318
 20
963.0981264316748
 30
0.0
 10
523.142088127427
 20
963.1262869019235
 30
0.0
  0
ARC
  5
208
330
1F
100
AcDbEntity
  8
0
  6
Continuous
 62
     7
370
    15
100
AcDbCircle
 10
497.1420879039
 20
958.3859320659
 30
0.0
 40
5.0
100
AcDbArc
 50
0.0
 51
90.0
  0
ARC
  5
209
330
1F
100
AcDbEntity
  8
0
  6
Continuous
 62
     7
370
    15
100
AcDbCircle
 10
569.1420879039
 20
958.3859320659
 30
0.0
 40
5.0
100
AcDbArc
 50
90.0
 51
180.0
  0
LINE
  5
20A
330
1F
100
AcDbEntity
  8
0
  6
Continuous
 62
     7
370
    15
100
AcDbLine
 10
492.2098460767
 20
1047.8859320659
 30
0.0
 11
492.4258607599
 21
1047.8859320659
 31
0.0
  0
SPLINE
  5
20B
330
1F
100
AcDbEntity
  8
0
  6
Continuous
 62
     7
370
    15
100
AcDbSpline
210
0.0
220
0.0
230
1.0
 70
     8
 71
     3
 72
    10
 73
     6
 74
     0
 42
0.00000001
 43
0.00000001
 12
1.0
 22
0.0
 32
0.0
 13
1.0
 23
0.0
 33
0.0
 40
0.0
 40
0.0
 40
0.0
 40
0.0
 40
0.1879999229574217
 40
0.644949106809525
 40
1.0
 40
1.0
 40
1.0
 40
1.0
 10
502.1487045261192
 20
914.1867533702577
 30
0.0
 10
502.147717017591
 20
913.9434285188347
 30
0.0
 10
502.1443292888454
 20
913.1086827214903
 30
0.0
 10
502.2062219256578
 20
911.6280761366434
 30
0.0
 10
502.2169455698839
 20
910.2925064787979
 30
0.0
 10
502.2216345342921
 20
909.7085222978318
 30
0.0
  0
LINE
  5
20C
330
1F
100
AcDbEntity
  8
0
  6
Continuous
 62
     7
370
    15
100
AcDbLine
 10
502.1420884105
 20
917.5728187341
 30
0.0
 11
502.1420884105
 21
958.3859295029
 31
0.0
  0
SPLINE
  5
20D
330
1F
100
AcDbEntity
  8
0
  6
Continuous
 62
     7
370
    15
100
AcDbSpline
210
0.0
220
0.0
230
1.0
 70
     8
 71
     3
 72
    11
 73
     7
 74
     0
 42
0.00000001
 43
0.00000001
 12
1.0
 22
0.0
 32
0.0
 13
1.0
 23
0.0
 33
0.0
 40
0.0
 40
0.0
 40
0.0
 40
0.0
 40
0.1463374205698969
 40
0.5263384904251815
 40
0.8492412723315965
 40
1.0
 40
1.0
 40
1.0
 40
1.0
 10
564.0625412735271
 20
909.7085222978318
 30
0.0
 10
564.0634195055198
 20
909.9491655561043
 30
0.0
 10
564.0665782826773
 20
910.8146981642155
 30
0.0
 10
564.100815101754
 20
912.1742476297662
 30
0.0
 10
564.141298926451
 20
913.381718309644
 30
0.0
 10
564.1376116078583
 20
913.9974287152994
 30
0.0
 10
564.1364379945326
 20
914.1933992881501
 30
0.0
  0
LINE
  5
20E
330
1F
100
AcDbEntity
  8
0
  6
Continuous
 62
     7
370
    15
100
AcDbLine
 10
564.1420873973
 20
958.3859295029
 30
0.0
 11
564.1420873973
 21
917.5728187341
 31
0.0
  0
LINE
  5
20F
330
1F
100
AcDbEntity
  8
0
  6
Continuous
 62
     7
370
    15
100
AcDbLine
 10
448.1420870098
 20
981.0367823024
 30
0.0
 11
448.1420870098
 21
981.3527018208
 31
0.0
  0
SPLINE
  5
210
330
1F
100
AcDbEntity
  8
0
  6
Continuous
 62
     7
370
    15
100
AcDbSpline
210
0.0
220
0.0
230
1.0
 70
     8
 71
     3
 72
    13
 73
     9
 74
     0
 42
0.00000001
 43
0.00000001
 12
1.0
 22
0.0
 32
0.0
 13
1.0
 23
0.0
 33
0.0
 40
0.0
 40
0.0
 40
0.0
 40
0.0
 40
0.3480873118148666
 40
0.5518480238652421
 40
0.7027909647123962
 40
0.8174990752532293
 40
0.9329441599186852
 40
1.0
 40
1.0
 40
1.0
 40
1.0
 10
448.7323741587924
 20
983.3859354634013
 30
0.0
 10
448.7098126355662
 20
983.0451601507167
 30
0.0
 10
448.6740442188926
 20
982.504904368607
 30
0.0
 10
448.4720102654618
 20
981.8883325289254
 30
0.0
 10
448.316879576345
 20
981.5511244614486
 30
0.0
 10
448.20460743371
 20
981.3688258026145
 30
0.0
 10
448.1488682310311
 20
981.3136707663336
 30
0.0
 10
448.1439091222722
 20
981.3422141862769
 30
0.0
 10
448.1420870098399
 20
981.3527018208231
 30
0.0
  0
SPLINE
  5
211
330
1F
100
AcDbEntity
  8
0
  6
Continuous
 62
     7
370
    15
100
AcDbSpline
210
0.0
220
0.0
230
1.0
 70
     8
 71
     3
 72
    12
 73
     8
 74
     0
 42
0.00000001
 43
0.00000001
 12
1.0
 22
0.0
 32
0.0
 13
1.0
 23
0.0
 33
0.0
 40
0.0
 40
0.0
 40
0.0
 40
0.0
 40
0.1481788132036227
 40
0.3387607219042828
 40
0.6517194190050905
 40
0.9646365149203509
 40
1.0
 40
1.0
 40
1.0
 40
1.0
 10
448.1420870098399
 20
981.0367823023523
 30
0.0
 10
448.0044246076832
 20
980.8068594313295
 30
0.0
 10
447.6897061015388
 20
980.2812185783217
 30
0.0
 10
446.8677494839838
 20
979.4245366364221
 30
0.0
 10
445.5863834988011
 20
978.6467400093692
 30
0.0
 10
444.3915718597122
 20
978.3943560031996
 30
0.0
 10
443.7631715071591
 20
978.3867092156847
 30
0.0
 10
443.699365404539
 20
978.3859327811922
 30
0.0
  0
ARC
  5
212
330
1F
100
AcDbEntity
  8
0
  6
Continuous
 62
     7
370
    15
100
AcDbCircle
 10
436.1420879039
 20
977.3859320659
 30
0.0
 40
1.0
100
AcDbArc
 50
90.0
 51
180.0
  0
LINE
  5
213
330
1F
100
AcDbEntity
  8
0
  6
Continuous
 62
     7
370
    15
100
AcDbLine
 10
436.8354211721
 20
978.3859327812
 30
0.0
 11
436.1420850429
 21
978.3859327812
 31
0.0
  0
LINE
  5
214
330
1F
100
AcDbEntity
  8
0
  6
Continuous
 62
     7
370
    15
100
AcDbLine
 10
435.1420904669
 20
966.3859308142
 30
0.0
 11
435.1420904669
 21
977.3859307546
 31
0.0
  0
LINE
  5
215
330
1F
100
AcDbEntity
  8
0
  6
Continuous
 62
     7
370
    15
100
AcDbLine
 10
435.1420904669
 20
966.3859308142
 30
0.0
 11
436.0087569031
 21
966.3859308142
 31
0.0
  0
ARC
  5
216
330
1F
100
AcDbEntity
  8
0
  6
Continuous
 62
     7
370
    15
100
AcDbCircle
 10
630.1420879039
 20
977.3859320659
 30
0.0
 40
1.0
100
AcDbArc
 50
0.0
 51
90.0
  0
LINE
  5
217
330
1F
100
AcDbEntity
  8
0
  6
Continuous
 62
     7
370
    15
100
AcDbLine
 10
630.1420907649
 20
978.3859327812
 30
0.0
 11
629.4487546357
 21
978.3859327812
 31
0.0
  0
LINE
  5
218
330
1F
100
AcDbEntity
  8
0
  6
Continuous
 62
     7
370
    15
100
AcDbLine
 10
631.1420853409
 20
977.3859307546
 30
0.0
 11
631.1420853409
 21
966.3859308142
 31
0.0
  0
LINE
  5
219
330
1F
100
AcDbEntity
  8
0
  6
Continuous
 62
     7
370
    15
100
AcDbLine
 10
630.2754189047
 20
966.3859308142
 30
0.0
 11
631.1420853409
 21
966.3859308142
 31
0.0
  0
SPLINE
  5
21A
330
1F
100
AcDbEntity
  8
0
  6
Continuous
 62
     7
370
    15
100
AcDbSpline
210
0.0
220
0.0
230
1.0
 70
    24
 71
     3
 72
    13
 73
     9
 74
     0
 42
0.00000001
 43
0.00000001
 12
1.0
 22
0.0
 32
0.0
 13
1.0
 23
0.0
 33
0.0
 40
0.0
 40
0.0
 40
0.0
 40
0.0
 40
0.1763122656327779
 40
0.3821577881109702
 40
0.5902275840100837
 40
0.7237319837287812
 40
0.9311491081014501
 40
1.0
 40
1.0
 40
1.0
 40
1.0
 10
562.8565455946253
 20
895.8859369535173
 30
0.0
 10
562.8531176223593
 20
895.8859369535173
 30
0.0
 10
562.8456874739561
 20
895.8859369535173
 30
0.0
 10
562.7096833059989
 20
895.8859369535173
 30
0.0
 10
562.5044166271925
 20
895.8859369535174
 30
0.0
 10
562.2469633344093
 20
895.8859369535173
 30
0.0
 10
562.0262123930622
 20
895.8859369535173
 30
0.0
 10
561.87468264165
 20
895.8859369535173
 30
0.0
 10
561.8369187387752
 20
895.8859369535173
 30
0.0
  0
SPLINE
  5
21B
330
1F
100
AcDbEntity
  8
0
  6
Continuous
 62
     7
370
    15
100
AcDbSpline
210
0.0
220
0.0
230
1.0
 70
    24
 71
     3
 72
    13
 73
     9
 74
     0
 42
0.00000001
 43
0.00000001
 12
1.0
 22
0.0
 32
0.0
 13
1.0
 23
0.0
 33
0.0
 40
0.0
 40
0.0
 40
0.0
 40
0.0
 40
0.1501686597888547
 40
0.2766584352110026
 40
0.4861920418628779
 40
0.6957270001552621
 40
0.9049120238845348
 40
1.0
 40
1.0
 40
1.0
 40
1.0
 10
504.447257069044
 20
895.8859369535173
 30
0.0
 10
504.3646439530474
 20
895.8859369535174
 30
0.0
 10
504.2124443167741
 20
895.8859369535173
 30
0.0
 10
503.96015756572
 20
895.8859369535173
 30
0.0
 10
503.710846343662
 20
895.8859369535174
 30
0.0
 10
503.5091950651346
 20
895.8859369535173
 30
0.0
 10
503.427094001314
 20
895.8859369535173
 30
0.0
 10
503.4275025409738
 20
895.8859369535173
 30
0.0
 10
503.4276302131938
 20
895.8859369535173
 30
0.0
  0
LINE
  5
21C
330
1F
100
AcDbEntity
  8
0
  6
Continuous
 62
     7
370
    15
100
AcDbLine
 10
508.5102076802
 20
895.8859369535
 30
0.0
 11
504.447257069
 21
895.8859369535
 31
0.0
  0
LINE
  5
21D
330
1F
100
AcDbEntity
  8
0
  6
Continuous
 62
     7
370
    15
100
AcDbLine
 10
561.8369187388
 20
895.8859369535
 30
0.0
 11
557.7739681277
 21
895.8859369535
 31
0.0
  0
LINE
  5
21E
330
1F
100
AcDbEntity
  8
0
  6
Continuous
 62
     7
370
    15
100
AcDbLine
 10
509.6648278806
 20
892.8859308738
 30
0.0
 11
556.6193479273
 21
892.8859308738
 31
0.0
  0
SPLINE
  5
21F
330
1F
100
AcDbEntity
  8
0
  6
Continuous
 62
     7
370
    15
100
AcDbSpline
210
0.0
220
0.0
230
1.0
 70
     8
 71
     3
 72
     9
 73
     5
 74
     0
 42
0.00000001
 43
0.00000001
 12
1.0
 22
0.0
 32
0.0
 13
1.0
 23
0.0
 33
0.0
 40
0.0
 40
0.0
 40
0.0
 40
0.0
 40
0.9602903390045818
 40
1.0
 40
1.0
 40
1.0
 40
1.0
 10
564.1848649057673
 20
916.2007198114122
 30
0.0
 10
564.1922117223281
 20
916.0998361206083
 30
0.0
 10
564.1998623424192
 20
915.9947807152727
 30
0.0
 10
564.2089816631825
 20
915.8900900134702
 30
0.0
 10
564.2093437883185
 20
915.8859327811922
 30
0.0
  0
SPLINE
  5
220
330
1F
100
AcDbEntity
  8
0
  6
Continuous
 62
     7
370
    15
100
AcDbSpline
210
0.0
220
0.0
230
1.0
 70
     8
 71
     3
 72
     9
 73
     5
 74
     0
 42
0.00000001
 43
0.00000001
 12
1.0
 22
0.0
 32
0.0
 13
1.0
 23
0.0
 33
0.0
 40
0.0
 40
0.0
 40
0.0
 40
0.0
 40
0.0397096609954181
 40
1.0
 40
1.0
 40
1.0
 40
1.0
 10
502.0748320195007
 20
915.8859327811922
 30
0.0
 10
502.0751941446366
 20
915.8900900134701
 30
0.0
 10
502.0843134653999
 20
915.9947807152727
 30
0.0
 10
502.0919640854909
 20
916.0998361206083
 30
0.0
 10
502.0993109020519
 20
916.2007198114122
 30
0.0
  0
LINE
  5
221
330
1F
100
AcDbEntity
  8
0
  6
Continuous
 62
     7
370
    15
100
AcDbLine
 10
480.988467035
 20
910.8859375496
 30
0.0
 11
489.459371117
 21
910.8859375496
 31
0.0
  0
LINE
  5
222
330
1F
100
AcDbEntity
  8
0
  6
Continuous
 62
     7
370
    15
100
AcDbLine
 10
503.4276302132
 20
895.8859369535
 30
0.0
 11
480.988467035
 21
895.8859369535
 31
0.0
  0
LINE
  5
223
330
1F
100
AcDbEntity
  8
0
  6
Continuous
 62
     7
370
    15
100
AcDbLine
 10
489.459371117
 20
910.8859375496
 30
0.0
 11
492.9932410988
 21
910.941995718
 31
0.0
  0
LINE
  5
224
330
1F
100
AcDbEntity
  8
0
  6
Continuous
 62
     7
370
    15
100
AcDbLine
 10
585.2957087728
 20
895.8859369535
 30
0.0
 11
562.8565455946
 21
895.8859369535
 31
0.0
  0
SPLINE
  5
225
330
1F
100
AcDbEntity
  8
0
  6
Continuous
 62
     7
370
    15
100
AcDbSpline
210
0.0
220
0.0
230
1.0
 70
     8
 71
     3
 72
     9
 73
     5
 74
     0
 42
0.00000001
 43
0.00000001
 12
1.0
 22
0.0
 32
0.0
 13
1.0
 23
0.0
 33
0.0
 40
0.0
 40
0.0
 40
0.0
 40
0.0
 40
0.0121299082735693
 40
0.9999999999999999
 40
0.9999999999999999
 40
0.9999999999999999
 40
0.9999999999999999
 10
573.2909347090052
 20
910.941995717975
 30
0.0
 10
573.3052761579453
 20
910.9419571291493
 30
0.0
 10
574.4875974596846
 20
910.9387758333901
 30
0.0
 10
575.6633318503845
 20
910.91219548287
 30
0.0
 10
576.8248046907711
 20
910.8859375495637
 30
0.0
  0
LINE
  5
226
330
1F
100
AcDbEntity
  8
0
  6
Continuous
 62
     7
370
    15
100
AcDbLine
 10
576.8248046908
 20
910.8859375496
 30
0.0
 11
585.2957087728
 21
910.8859375496
 31
0.0
  0
LINE
  5
227
330
1F
100
AcDbEntity
  8
0
  6
Continuous
 62
     7
370
    15
100
AcDbLine
 10
473.9269371304
 20
910.8859375496
 30
0.0
 11
480.988467035
 21
910.8859375496
 31
0.0
  0
LINE
  5
228
330
1F
100
AcDbEntity
  8
0
  6
Continuous
 62
     7
370
    15
100
AcDbLine
 10
480.988467035
 20
895.8859369535
 30
0.0
 11
473.9269371304
 21
895.8859369535
 31
0.0
  0
LINE
  5
229
330
1F
100
AcDbEntity
  8
0
  6
Continuous
 62
     7
370
    15
100
AcDbLine
 10
585.2957087728
 20
910.8859375496
 30
0.0
 11
592.3572386774
 21
910.8859375496
 31
0.0
  0
LINE
  5
22A
330
1F
100
AcDbEntity
  8
0
  6
Continuous
 62
     7
370
    15
100
AcDbLine
 10
592.3572386774
 20
895.8859369535
 30
0.0
 11
585.2957087728
 21
895.8859369535
 31
0.0
  0
LINE
  5
22B
330
1F
100
AcDbEntity
  8
0
  6
Continuous
 62
     7
370
    15
100
AcDbLine
 10
502.1420884105
 20
917.5728187341
 30
0.0
 11
502.1420884105
 21
916.8518856544
 31
0.0
  0
LINE
  5
22C
330
1F
100
AcDbEntity
  8
0
  6
Continuous
 62
     7
370
    15
100
AcDbLine
 10
564.1420873973
 20
916.8518856544
 30
0.0
 11
564.1420873973
 21
917.5728187341
 31
0.0
  0
LINE
  5
22D
330
1F
100
AcDbEntity
  8
0
  6
Continuous
 62
     7
370
    15
100
AcDbLine
 10
509.6648278806
 20
892.8859308738
 30
0.0
 11
489.0588279042
 21
892.8859308738
 31
0.0
  0
LINE
  5
22E
330
1F
100
AcDbEntity
  8
0
  6
Continuous
 62
     7
370
    15
100
AcDbLine
 10
577.2253479037
 20
892.8859308738
 30
0.0
 11
556.6193479273
 21
892.8859308738
 31
0.0
  0
ARC
  5
22F
330
1F
100
AcDbEntity
  8
0
  6
Continuous
 62
     7
370
    15
100
AcDbCircle
 10
486.1420879039
 20
958.3859320659
 30
0.0
 40
5.0
100
AcDbArc
 50
0.0
 51
90.0
  0
ARC
  5
230
330
1F
100
AcDbEntity
  8
0
  6
Continuous
 62
     7
370
    15
100
AcDbCircle
 10
580.1420879039
 20
958.3859320659
 30
0.0
 40
5.0
100
AcDbArc
 50
90.0
 51
180.0
  0
ARC
  5
231
330
1F
100
AcDbEntity
  8
0
  6
Continuous
 62
     7
370
    15
100
AcDbCircle
 10
580.1420879039
 20
915.8859320659
 30
0.0
 40
5.0
100
AcDbArc
 50
180.0
 51
270.0
  0
ARC
  5
232
330
1F
100
AcDbEntity
  8
0
  6
Continuous
 62
     7
370
    15
100
AcDbCircle
 10
486.1420879039
 20
915.8859320659
 30
0.0
 40
5.0
100
AcDbArc
 50
270.0
 51
0.0
  0
LINE
  5
233
330
1F
100
AcDbEntity
  8
0
  6
Continuous
 62
     7
370
    15
100
AcDbLine
 10
491.1420884702
 20
915.8859327812
 30
0.0
 11
491.1420884702
 21
958.3859295029
 31
0.0
  0
LINE
  5
234
330
1F
100
AcDbEntity
  8
0
  6
Continuous
 62
     7
370
    15
100
AcDbLine
 10
575.1420873377
 20
958.3859295029
 30
0.0
 11
575.1420873377
 21
915.8859327812
 31
0.0
  0
SPLINE
  5
235
330
1F
100
AcDbEntity
  8
0
  6
Continuous
 62
     7
370
    15
100
AcDbSpline
210
0.0
220
0.0
230
1.0
 70
     8
 71
     3
 72
    11
 73
     7
 74
     0
 42
0.00000001
 43
0.00000001
 12
1.0
 22
0.0
 32
0.0
 13
1.0
 23
0.0
 33
0.0
 40
0.0
 40
0.0
 40
0.0
 40
0.0
 40
0.0569212002089813
 40
0.3441788385940924
 40
0.6704432526947283
 40
1.0
 40
1.0
 40
1.0
 40
1.0
 10
484.1230380508231
 20
910.8859375495637
 30
0.0
 10
484.1944403545016
 20
910.8867282004254
 30
0.0
 10
484.626180406763
 20
910.8915089375554
 30
0.0
 10
485.493791503949
 20
910.9876541659348
 30
0.0
 10
486.6819640735929
 20
911.2071439264106
 30
0.0
 10
487.3663902094509
 20
911.2689023036438
 30
0.0
 10
487.7103212448882
 20
911.2999365110124
 30
0.0
  0
SPLINE
  5
236
330
1F
100
AcDbEntity
  8
0
  6
Continuous
 62
     7
370
    15
100
AcDbSpline
210
0.0
220
0.0
230
1.0
 70
     8
 71
     3
 72
    11
 73
     7
 74
     0
 42
0.00000001
 43
0.00000001
 12
1.0
 22
0.0
 32
0.0
 13
1.0
 23
0.0
 33
0.0
 40
0.0
 40
0.0
 40
0.0
 40
0.0
 40
0.1999365297294798
 40
0.5203437439462218
 40
0.8701210386182124
 40
1.0
 40
1.0
 40
1.0
 40
1.0
 10
578.5738545629309
 20
911.2999365110124
 30
0.0
 10
578.7761992966199
 20
911.2857644403457
 30
0.0
 10
579.3028104988748
 20
911.248880993783
 30
0.0
 10
580.3543589737876
 20
911.0645417941546
 30
0.0
 10
581.391955224964
 20
910.9047347951099
 30
0.0
 10
581.9972413560733
 20
910.889942841889
 30
0.0
 10
582.1611377569961
 20
910.8859375495637
 30
0.0
  0
LINE
  5
237
330
1F
100
AcDbEntity
  8
0
  6
Continuous
 62
     7
370
    15
100
AcDbLine
 10
474.1420875463
 20
920.8859280128
 30
0.0
 11
491.2648069832
 21
920.8859280128
 31
0.0
  0
LINE
  5
238
330
1F
100
AcDbEntity
  8
0
  6
Continuous
 62
     7
370
    15
100
AcDbLine
 10
575.0193688247
 20
920.8859280128
 30
0.0
 11
592.1420882615
 21
920.8859280128
 31
0.0
  0
LINE
  5
239
330
1F
100
AcDbEntity
  8
0
  6
Continuous
 62
     7
370
    15
100
AcDbLine
 10
448.1420870098
 20
981.3527018208
 30
0.0
 11
448.1420870098
 21
986.3859303672
 31
0.0
  0
SPLINE
  5
23A
330
1F
100
AcDbEntity
  8
0
  6
Continuous
 62
     7
370
    15
100
AcDbSpline
210
0.0
220
0.0
230
1.0
 70
    24
 71
     3
 72
    18
 73
    14
 74
     0
 42
0.00000001
 43
0.00000001
 12
1.0
 22
0.0
 32
0.0
 13
1.0
 23
0.0
 33
0.0
 40
0.0
 40
0.0
 40
0.0
 40
0.0
 40
0.2084401109987167
 40
0.3380349514935033
 40
0.4676474896394028
 40
0.7094167987608302
 40
0.7862590104848782
 40
0.8570393367893726
 40
0.9178677570375398
 40
0.963963109718815
 40
0.9799623711932905
 40
0.995970217195451
 40
1.0
 40
1.0
 40
1.0
 40
1.0
 10
448.1420870098399
 20
986.3859303672042
 30
0.0
 10
448.1420870098399
 20
987.3837581633951
 30
0.0
 10
448.1420870098399
 20
989.0019719950237
 30
0.0
 10
448.14208700984
 20
991.070359039405
 30
0.0
 10
448.1420870098399
 20
993.0856643468602
 30
0.0
 10
448.1420870098399
 20
994.554889184201
 30
0.0
 10
448.1420870098399
 20
995.467714475336
 30
0.0
 10
448.1420870098399
 20
995.8643599737495
 30
0.0
 10
448.1420870098399
 20
996.1278263136854
 30
0.0
 10
448.1420870098399
 20
996.2668307011529
 30
0.0
 10
448.1420870098399
 20
996.3387339383661
 30
0.0
 10
448.1420870098399
 20
996.3681294759492
 30
0.0
 10
448.1420870098399
 20
996.3829511984256
 30
0.0
 10
448.1420870098399
 20
996.3859320063319
 30
0.0
  0
LINE
  5
23B
330
1F
100
AcDbEntity
  8
0
  6
Continuous
 62
     7
370
    15
100
AcDbLine
 10
637.9417906675
 20
1212.8190324087
 30
0.0
 11
662.1751169833
 21
1143.8897923012
 31
0.0
  0
LINE
  5
23C
330
1F
100
AcDbEntity
  8
0
  6
Continuous
 62
     7
370
    15
100
AcDbLine
 10
665.121046749
 20
1139.1913295169
 30
0.0
 11
675.8361588392
 21
1139.1913295169
 31
0.0
  0
LWPOLYLINE
  5
23D
330
1F
100
AcDbEntity
  8
0
  6
Continuous
 62
     7
370
    15
100
AcDbPolyline
 90
        9
 70
   128
 43
0.0
 10
662.1751169833
 20
1143.8897923012
 10
662.5222395334
 20
1142.9731697221
 10
662.905750719
 20
1142.091773488
 10
663.310928193
 20
1141.2794664879
 10
663.7221704397
 20
1140.5674815554
 10
664.1236971292
 20
1139.9831697721
 10
664.5000706586
 20
1139.5489797373
 10
664.8368369016
 20
1139.2816156525
 10
665.121046749
 20
1139.1913295169
  0
ELLIPSE
  5
23E
330
1F
100
AcDbEntity
  8
0
  6
Continuous
 62
     7
370
    15
100
AcDbEllipse
 10
639.2358858898
 20
1212.8190257919
 30
0.0
 11
-2.224872611388492
 21
4.976474228213191
 31
0.0
210
0.0
220
0.0
230
1.0
 40
0.2177485805
 41
6.186140485162328
 42
7.756936811957252
  0
LWPOLYLINE
  5
23F
330
1F
100
AcDbEntity
  8
0
  6
Continuous
 62
     7
370
    15
100
AcDbPolyline
 90
        9
 70
   128
 43
0.0
 10
665.2831415805
 20
1212.8190324087
 10
665.3080116185
 20
1213.7944773216
 10
665.3816531572
 20
1214.7324458141
 10
665.5012498769
 20
1215.5968770761
 10
665.6621824178
 20
1216.3545564193
 10
665.8582816991
 20
1216.9763669748
 10
666.0820077333
 20
1217.4384221811
 10
666.3247774514
 20
1217.7229449529
 10
666.5772478256
 20
1217.8190276403
  0
LINE
  5
240
330
1F
100
AcDbEntity
  8
0
  6
Continuous
 62
     7
370
    15
100
AcDbLine
 10
665.2831415805
 20
1145.060934164
 30
0.0
 11
665.2831415805
 21
1212.8190324087
 31
0.0
  0
ELLIPSE
  5
241
330
1F
100
AcDbEntity
  8
0
  6
Continuous
 62
     7
370
    15
100
AcDbEllipse
 10
666.577243619
 20
1145.0609315666
 30
0.0
 11
-0.7054376055667717
 21
5.068836590658293
 31
0.0
210
0.0
220
0.0
230
1.0
 40
0.250605517
 41
1.535933311782764
 42
3.106729638577806
  0
LINE
  5
242
330
1F
100
AcDbEntity
  8
SLD-0
 62
     7
100
AcDbLine
 10
437.4880597212
 20
989.7553542222
 30
0.0
 11
474.1877871716
 21
989.7553542222
 31
0.0
  0
LINE
  5
243
330
1F
100
AcDbEntity
  8
SLD-0
  6
HIDDEN
 62
     7
100
AcDbLine
 10
448.1420879039
 20
996.3859320659
 30
0.0
 11
472.677335798
 21
996.3859320659
 31
0.0
  0
LINE
  5
244
330
1F
100
AcDbEntity
  8
SLD-0
  6
HIDDEN
 62
     7
100
AcDbLine
 10
448.1420879039
 20
983.1247763785
 30
0.0
 11
469.870829117
 21
983.1247763785
 31
0.0
  0
INSERT
  5
250
330
1F
100
AcDbEntity
  8
SLD-0
 62
     7
100
AcDbBlockReference
  2
SW_CENTERMARKSYMBOL_0
 10
533.1420879039
 20
1006.3859320659
 30
0.0
  0
LINE
  5
251
330
1F
100
AcDbEntity
  8
0
  6
Continuous
 62
     7
370
    15
100
AcDbLine
 10
636.1667568955
 20
499.4216561439
 30
0.0
 11
636.8738616976
 21
500.6464007432
 31
0.0
  0
LINE
  5
252
330
1F
100
AcDbEntity
  8
0
  6
Continuous
 62
     7
370
    15
100
AcDbLine
 10
631.1420853409
 20
498.0753008398
 30
0.0
 11
636.1667568955
 21
499.4216561439
 31
0.0
  0
LINE
  5
253
330
1F
100
AcDbEntity
  8
0
  6
Continuous
 62
     7
370
    15
100
AcDbLine
 10
658.5592310104
 20
558.2207846577
 30
0.0
 11
657.2274769816
 21
557.8639465506
 31
0.0
  0
LINE
  5
254
330
1F
100
AcDbEntity
  8
0
  6
Continuous
 62
     7
370
    15
100
AcDbLine
 10
658.2627575073
 20
554.0002430911
 30
0.0
 11
659.7494016561
 21
554.3985883827
 31
0.0
  0
LINE
  5
255
330
1F
100
AcDbEntity
  8
0
  6
Continuous
 62
     7
370
    15
100
AcDbLine
 10
663.5579596433
 20
561.6307440335
 30
0.0
 11
662.843076435
 21
561.439197057
 31
0.0
  0
LINE
  5
256
330
1F
100
AcDbEntity
  8
0
  6
Continuous
 62
     7
370
    15
100
AcDbLine
 10
663.7129317197
 20
561.6206484968
 30
0.0
 11
663.5930518779
 21
561.6136524016
 31
0.0
  0
LINE
  5
257
330
1F
100
AcDbEntity
  8
0
  6
Continuous
 62
     7
370
    15
100
AcDbLine
 10
665.6285057935
 20
553.9033371145
 30
0.0
 11
665.8224891099
 21
554.0040056343
 31
0.0
  0
ARC
  5
258
330
1F
100
AcDbEntity
  8
0
  6
Continuous
 62
     7
370
    15
100
AcDbCircle
 10
660.1050656849
 20
556.5644399695
 30
0.0
 40
6.499999999999992
100
AcDbArc
 50
343.9823638146
 51
46.0176361854
  0
LINE
  5
259
330
1F
100
AcDbEntity
  8
0
  6
Continuous
 62
     7
370
    15
100
AcDbLine
 10
644.0817843351
 20
494.2955477285
 30
0.0
 11
642.1756650481
 21
493.7848060048
 31
0.0
  0
LINE
  5
25A
330
1F
100
AcDbEntity
  8
0
  6
Continuous
 62
     7
370
    15
100
AcDbLine
 10
643.2109455737
 20
489.9211027781
 30
0.0
 11
645.1170574102
 21
490.4318445018
 31
0.0
  0
LINE
  5
25B
330
1F
100
AcDbEntity
  8
0
  6
Continuous
 62
     7
370
    15
100
AcDbLine
 10
673.7256328735
 20
502.2385926107
 30
0.0
 11
672.2389887246
 21
501.8402463878
 31
0.0
  0
LINE
  5
25C
330
1F
100
AcDbEntity
  8
0
  6
Continuous
 62
     7
370
    15
100
AcDbLine
 10
673.2742617997
 20
497.9765433939
 30
0.0
 11
674.7237275514
 21
498.3649291219
 31
0.0
  0
LINE
  5
25D
330
1F
100
AcDbEntity
  8
0
  6
Continuous
 62
     7
370
    15
100
AcDbLine
 10
680.2961508903
 20
497.7875026064
 30
0.0
 11
680.640010086
 21
497.8796392801
 31
0.0
  0
LINE
  5
25E
330
1F
100
AcDbEntity
  8
0
  6
Continuous
 62
     7
370
    15
100
AcDbLine
 10
678.7244360122
 20
505.5969501967
 30
0.0
 11
678.6045561704
 21
505.5899568955
 31
0.0
  0
LINE
  5
25F
330
1F
100
AcDbEntity
  8
0
  6
Continuous
 62
     7
370
    15
100
AcDbLine
 10
680.640010086
 20
497.8796392801
 30
0.0
 11
680.8339934024
 21
497.9803059371
 31
0.0
  0
ARC
  5
260
330
1F
100
AcDbEntity
  8
0
  6
Continuous
 62
     7
370
    15
100
AcDbCircle
 10
675.1165703009
 20
500.5407420448
 30
0.0
 40
6.499999999999951
100
AcDbArc
 50
343.9823638146
 51
46.0176361854
  0
LINE
  5
261
330
1F
100
AcDbEntity
  8
0
  6
Continuous
 62
     7
370
    15
100
AcDbLine
 10
676.524190155
 20
519.7931206906
 30
0.0
 11
676.5724848184
 21
519.8060623491
 31
0.0
  0
LINE
  5
262
330
1F
100
AcDbEntity
  8
0
  6
Continuous
 62
     7
370
    15
100
AcDbLine
 10
670.9985862645
 20
540.6081411178
 30
0.0
 11
670.9502916011
 21
540.5951994593
 31
0.0
  0
LINE
  5
263
330
1F
100
AcDbEntity
  8
0
  6
Continuous
 62
     7
370
    15
100
AcDbLine
 10
636.2268160257
 20
503.061215871
 30
0.0
 11
638.1586621675
 21
503.5788533399
 31
0.0
  0
LINE
  5
264
330
1F
100
AcDbEntity
  8
0
  6
Continuous
 62
     7
370
    15
100
AcDbLine
 10
679.8819731149
 20
500.7823514873
 30
0.0
 11
664.6116505536
 21
557.7719765837
 31
0.0
  0
SPLINE
  5
265
330
1F
100
AcDbEntity
  8
0
  6
Continuous
 62
     7
370
    15
100
AcDbSpline
210
0.0
220
0.0
230
1.0
 70
     8
 71
     3
 72
    15
 73
    11
 74
     0
 42
0.00000001
 43
0.00000001
 12
1.0
 22
0.0
 32
0.0
 13
1.0
 23
0.0
 33
0.0
 40
0.0
 40
0.0
 40
0.0
 40
0.0
 40
0.0815960455118399
 40
0.2376379274129772
 40
0.397409330776493
 40
0.5672455034251248
 40
0.706672455000779
 40
0.8222272001719373
 40
0.933189274939422
 40
1.0
 40
1.0
 40
1.0
 40
1.0
 10
664.6116505536364
 20
557.7719765836644
 30
0.0
 10
664.5505683301477
 20
557.9869104154603
 30
0.0
 10
664.37267425574
 20
558.6128773970526
 30
0.0
 10
663.9903077785729
 20
559.6121661364206
 30
0.0
 10
663.4392971275375
 20
560.6869393317528
 30
0.0
 10
662.8249212707233
 20
561.5335725430565
 30
0.0
 10
662.1535881202069
 20
562.1348484461537
 30
0.0
 10
661.4271279705138
 20
562.4915557278603
 30
0.0
 10
660.7394993757854
 20
562.5964461308694
 30
0.0
 10
660.3276351266652
 20
562.5144772236341
 30
0.0
 10
660.1728479537296
 20
562.4836715990948
 30
0.0
  0
SPLINE
  5
266
330
1F
100
AcDbEntity
  8
0
  6
Continuous
 62
     7
370
    15
100
AcDbSpline
210
0.0
220
0.0
230
1.0
 70
     8
 71
     3
 72
    15
 73
    11
 74
     0
 42
0.00000001
 43
0.00000001
 12
1.0
 22
0.0
 32
0.0
 13
1.0
 23
0.0
 33
0.0
 40
0.0
 40
0.0
 40
0.0
 40
0.0
 40
0.1127081348301371
 40
0.2198724832061694
 40
0.3293857178460934
 40
0.4560122386822125
 40
0.6132194427696793
 40
0.7803864608731086
 40
0.9394145186418126
 40
1.0
 40
1.0
 40
1.0
 40
1.0
 10
678.3937047395037
 20
494.4824965326386
 30
0.0
 10
678.6432979052328
 20
494.5795910103278
 30
0.0
 10
679.1302074723444
 20
494.7690041697887
 30
0.0
 10
679.6574658638876
 20
495.3254364134849
 30
0.0
 10
680.0137490381159
 20
495.9763497645759
 30
0.0
 10
680.2371473995523
 20
496.7822762651272
 30
0.0
 10
680.3251008210426
 20
497.7950279614942
 30
0.0
 10
680.2509493313966
 20
499.0062516932236
 30
0.0
 10
680.0720162479531
 20
500.0393264863322
 30
0.0
 10
679.9230648170587
 20
500.6216923698721
 30
0.0
 10
679.8819731149006
 20
500.7823514873432
 30
0.0
  0
LWPOLYLINE
  5
267
330
1F
100
AcDbEntity
  8
0
  6
Continuous
 62
     7
370
    15
100
AcDbPolyline
 90
       14
 70
   128
 43
0.0
 10
636.1667568955
 20
499.4216561439
 10
636.1551935944
 20
499.4647968682
 10
636.0630299124
 20
499.8087664256
 10
635.8803416762
 20
500.4905671934
 10
635.61039224
 20
501.4980328391
 10
635.2579946789
 20
502.8131851116
 10
634.8294447336
 20
504.4125537509
 10
634.3323866996
 20
506.2676002393
 10
633.7756942186
 20
508.3452197844
 10
633.1692914638
 20
510.608337366
 10
632.5240115794
 20
513.0165680433
 10
631.851358262
 20
515.5269368673
 10
631.1633418474
 20
518.0946453596
 10
631.1420853409
 20
518.1739698286
  0
LWPOLYLINE
  5
268
330
1F
100
AcDbEntity
  8
0
  6
Continuous
 62
     7
370
    15
100
AcDbPolyline
 90
       14
 70
   128
 43
0.0
 10
631.1420853409
 20
522.0376714254
 10
631.6207106385
 20
520.251417079
 10
632.2918887409
 20
517.7465672726
 10
632.9568083557
 20
515.2650470967
 10
633.6030940685
 20
512.8530836785
 10
634.2186982903
 20
510.5556058819
 10
634.7921620282
 20
508.4154135669
 10
635.3127936992
 20
506.4723729277
 10
635.7709075484
 20
504.7626798163
 10
636.1579577598
 20
503.3181817392
 10
636.466739622
 20
502.1657883311
 10
636.6915087375
 20
501.3269647146
 10
636.8280629787
 20
500.8173375512
 10
636.8738616976
 20
500.6464007432
  0
LWPOLYLINE
  5
269
330
1F
100
AcDbEntity
  8
0
  6
Continuous
 62
     7
370
    15
100
AcDbPolyline
 90
       17
 70
   128
 43
0.0
 10
658.2627575073
 20
554.0002430911
 10
657.9705010328
 20
554.0795433456
 10
657.6439346346
 20
554.4408778781
 10
657.3327685866
 20
555.029239052
 10
657.0843811306
 20
555.755052262
 10
656.9365839633
 20
556.507814222
 10
656.9118778381
 20
557.1729275519
 10
657.0140252981
 20
557.6491388614
 10
657.2274769816
 20
557.8639465506
 10
657.5197334561
 20
557.7846425707
 10
657.8462998542
 20
557.4233043129
 10
658.1574659023
 20
556.8349468643
 10
658.4058533582
 20
556.1091336543
 10
658.5536430749
 20
555.3563716943
 10
658.5783492002
 20
554.6912546391
 10
658.4762017402
 20
554.215047055
 10
658.2627575073
 20
554.0002430911
  0
LWPOLYLINE
  5
26A
330
1F
100
AcDbEntity
  8
0
  6
Continuous
 62
     7
370
    15
100
AcDbPolyline
 90
       11
 70
   128
 43
0.0
 10
663.9421860847
 20
561.5738439495
 10
664.3012444648
 20
561.4829021627
 10
664.7977958593
 20
561.0493081743
 10
665.3000692996
 20
560.3013220364
 10
665.7589207563
 20
559.3121606047
 10
666.1294232282
 20
558.178659075
 10
666.3753072891
 20
557.0117714936
 10
666.4725075635
 20
555.9257078106
 10
666.4115171108
 20
555.0267952616
 10
666.1982963952
 20
554.4030140275
 10
665.9701447162
 20
554.1646736795
  0
LWPOLYLINE
  5
26B
330
1F
100
AcDbEntity
  8
0
  6
Continuous
 62
     7
370
    15
100
AcDbPolyline
 90
       17
 70
   128
 43
0.0
 10
642.0325766477
 20
491.6759117162
 10
641.8847794804
 20
492.4286759318
 10
641.8600733551
 20
493.093791721
 10
641.9622208151
 20
493.5700013424
 10
642.1756650481
 20
493.7848060048
 10
642.4679215226
 20
493.7055038875
 10
642.7944879207
 20
493.3441678416
 10
643.1056539687
 20
492.7558080938
 10
643.3540339741
 20
492.0299970666
 10
643.5018311414
 20
491.2772328947
 10
643.5265372667
 20
490.6121170037
 10
643.4243898067
 20
490.1359074405
 10
643.2109455737
 20
489.9211027781
 10
642.9186890992
 20
490.0004048953
 10
642.5921227011
 20
490.3617408248
 10
642.2809566531
 20
490.9501007181
 10
642.0325766477
 20
491.6759117162
  0
LWPOLYLINE
  5
26C
330
1F
100
AcDbEntity
  8
0
  6
Continuous
 62
     7
370
    15
100
AcDbPolyline
 90
       17
 70
   128
 43
0.0
 10
673.2742617997
 20
497.9765433939
 10
672.9820053253
 20
498.0558455112
 10
672.6554314765
 20
498.4171819063
 10
672.3442803296
 20
499.0055412175
 10
672.0958928737
 20
499.7313525649
 10
671.9480882558
 20
500.4841168532
 10
671.9233821306
 20
501.1492320458
 10
672.0255295905
 20
501.6254424239
 10
672.2389887246
 20
501.8402463878
 10
672.531230298
 20
501.7609442706
 10
672.8578041467
 20
501.3996088067
 10
673.1689701947
 20
500.8112485642
 10
673.4173576507
 20
500.0854376825
 10
673.5651473674
 20
499.3326733941
 10
673.5898534927
 20
498.667557736
 10
673.4877060327
 20
498.1913482892
 10
673.2742617997
 20
497.9765433939
  0
LWPOLYLINE
  5
26D
330
1F
100
AcDbEntity
  8
0
  6
Continuous
 62
     7
370
    15
100
AcDbPolyline
 90
       11
 70
   128
 43
0.0
 10
678.9536903772
 20
505.5501437867
 10
679.3127487573
 20
505.4592066566
 10
679.8093001518
 20
505.0256098742
 10
680.3115735921
 20
504.2776237363
 10
680.7704250488
 20
503.2884660298
 10
681.1409275207
 20
502.1549635688
 10
681.3868115815
 20
500.9880703995
 10
681.484011856
 20
499.9020113731
 10
681.4230214032
 20
499.0030960301
 10
681.2098006877
 20
498.3793175901
 10
680.9816490087
 20
498.1409749138
  0
LWPOLYLINE
  5
26E
330
1F
100
AcDbEntity
  8
0
  6
Continuous
 62
     7
370
    15
100
AcDbPolyline
 90
        7
 70
   128
 43
0.0
 10
676.3136665496
 20
520.7719872827
 10
676.3806621703
 20
520.5219867761
 10
676.4430831346
 20
520.2890238846
 10
676.4966826114
 20
520.0889739329
 10
676.5378098163
 20
519.9354714835
 10
676.563663331
 20
519.8389752889
 10
676.5724848184
 20
519.8060623491
  0
LINE
  5
26F
330
1F
100
AcDbEntity
  8
0
  6
Continuous
 62
     7
370
    15
100
AcDbLine
 10
671.2574045333
 20
539.6422143216
 30
0.0
 11
676.3136665496
 21
520.7719872827
 31
0.0
  0
LWPOLYLINE
  5
270
330
1F
100
AcDbEntity
  8
0
  6
Continuous
 62
     7
370
    15
100
AcDbPolyline
 90
        7
 70
   128
 43
0.0
 10
670.9985862645
 20
540.6081411178
 10
671.007407752
 20
540.575228178
 10
671.0332612666
 20
540.4787319834
 10
671.0743884715
 20
540.3252276713
 10
671.1280028495
 20
540.1251795823
 10
671.1904238138
 20
539.8922148282
 10
671.2574045333
 20
539.6422143216
  0
LINE
  5
271
330
1F
100
AcDbEntity
  8
0
  6
Continuous
 62
     7
370
    15
100
AcDbLine
 10
676.1378179464
 20
521.6214447404
 30
0.0
 11
676.0895232829
 21
521.6085030819
 31
0.0
  0
LINE
  5
272
330
1F
100
AcDbEntity
  8
0
  6
Continuous
 62
     7
370
    15
100
AcDbLine
 10
671.5298424634
 20
538.8186420435
 30
0.0
 11
671.4815478
 21
538.805700385
 31
0.0
  0
LINE
  5
273
330
1F
100
AcDbEntity
  8
0
  6
Continuous
 62
     7
370
    15
100
AcDbLine
 10
671.5298424634
 20
538.8186420435
 30
0.0
 11
676.1378179464
 21
521.6214447404
 31
0.0
  0
LINE
  5
274
330
1F
100
AcDbEntity
  8
0
  6
Continuous
 62
     7
370
    15
100
AcDbLine
 10
656.2698464069
 20
561.4378708536
 30
0.0
 11
631.1420853409
 21
554.704907828
 31
0.0
  0
LWPOLYLINE
  5
275
330
1F
100
AcDbEntity
  8
0
  6
Continuous
 62
     7
370
    15
100
AcDbPolyline
 90
        9
 70
   128
 43
0.0
 10
659.6281956109
 20
556.4366611773
 10
659.3042145643
 20
557.5010958249
 10
658.9203010473
 20
558.5052254731
 10
658.4912221107
 20
559.4104784662
 10
658.0334882411
 20
560.1820531423
 10
657.5646604571
 20
560.790303641
 10
657.1027691635
 20
561.2118574912
 10
656.6655616435
 20
561.4305171306
 10
656.2698464069
 20
561.4378708536
  0
LINE
  5
276
330
1F
100
AcDbEntity
  8
0
  6
Continuous
 62
     7
370
    15
100
AcDbLine
 10
674.8985181722
 20
499.4470407376
 30
0.0
 11
659.6281956109
 21
556.4366611773
 31
0.0
  0
LWPOLYLINE
  5
277
330
1F
100
AcDbEntity
  8
0
  6
Continuous
 62
     7
370
    15
100
AcDbPolyline
 90
        9
 70
   128
 43
0.0
 10
674.4907031926
 20
493.4366921201
 10
674.8297344121
 20
493.6409210908
 10
675.0990281972
 20
494.048885664
 10
675.2882729444
 20
494.644907781
 10
675.3901521835
 20
495.4060828435
 10
675.4007767114
 20
496.30315929
 10
675.3197441968
 20
497.3016628186
 10
675.1501540813
 20
498.3632220077
 10
674.8985181722
 20
499.4470407376
  0
LINE
  5
278
330
1F
100
AcDbEntity
  8
0
  6
Continuous
 62
     7
370
    15
100
AcDbLine
 10
644.097028223
 20
485.2927299338
 30
0.0
 11
674.4907031926
 21
493.4366921201
 31
0.0
  0
LWPOLYLINE
  5
279
330
1F
100
AcDbEntity
  8
0
  6
Continuous
 62
     7
370
    15
100
AcDbPolyline
 90
        9
 70
   128
 43
0.0
 10
640.7386715683
 20
490.2939356519
 10
641.0626675162
 20
489.229507058
 10
641.4465735826
 20
488.2253743829
 10
641.8756450686
 20
487.3201255808
 10
642.3333863887
 20
486.5485490421
 10
642.8022141728
 20
485.9402957494
 10
643.2641054663
 20
485.5187409679
 10
643.7013055357
 20
485.3000850538
 10
644.097028223
 20
485.2927299338
  0
LINE
  5
27A
330
1F
100
AcDbEntity
  8
0
  6
Continuous
 62
     7
370
    15
100
AcDbLine
 10
637.2446174893
 20
503.3339341292
 30
0.0
 11
640.7386715683
 21
490.2939356519
 31
0.0
  0
LINE
  5
27B
330
1F
100
AcDbEntity
  8
0
  6
Continuous
 62
     7
370
    15
100
AcDbLine
 10
637.6410554323
 20
503.4401598508
 30
0.0
 11
641.1351095113
 21
490.4001613735
 31
0.0
  0
LWPOLYLINE
  5
27C
330
1F
100
AcDbEntity
  8
0
  6
Continuous
 62
     7
370
    15
100
AcDbPolyline
 90
        9
 70
   128
 43
0.0
 10
643.7864433202
 20
486.4518409716
 10
643.4740330252
 20
486.4576477679
 10
643.1288699779
 20
486.6302707354
 10
642.7642236623
 20
486.9630769948
 10
642.3940937194
 20
487.4432771588
 10
642.0327182087
 20
488.0524161393
 10
641.6939775619
 20
488.7670863075
 10
641.3908953938
 20
489.5598229608
 10
641.1351095113
 20
490.4001613735
  0
LINE
  5
27D
330
1F
100
AcDbEntity
  8
0
  6
Continuous
 62
     7
370
    15
100
AcDbLine
 10
643.7864433202
 20
486.4518409716
 30
0.0
 11
674.1801182899
 21
494.5958030997
 31
0.0
  0
LWPOLYLINE
  5
27E
330
1F
100
AcDbEntity
  8
0
  6
Continuous
 62
     7
370
    15
100
AcDbPolyline
 90
        9
 70
   128
 43
0.0
 10
674.5020876798
 20
499.3408154818
 10
674.7007350597
 20
498.4851684543
 10
674.834621993
 20
497.6470959494
 10
674.8986075792
 20
496.8588035675
 10
674.8902182254
 20
496.1505853692
 10
674.8097817573
 20
495.549657627
 10
674.6603827152
 20
495.0791138811
 10
674.4477729472
 20
494.7570364578
 10
674.1801182899
 20
494.5958030997
  0
LINE
  5
27F
330
1F
100
AcDbEntity
  8
0
  6
Continuous
 62
     7
370
    15
100
AcDbLine
 10
674.5020876798
 20
499.3408154818
 30
0.0
 11
659.2317651185
 21
556.3304382498
 31
0.0
  0
LWPOLYLINE
  5
280
330
1F
100
AcDbEntity
  8
0
  6
Continuous
 62
     7
370
    15
100
AcDbPolyline
 90
        9
 70
   128
 43
0.0
 10
656.5804313096
 20
560.2787616784
 10
656.8928416046
 20
560.2729502255
 10
657.238004652
 20
560.1003277237
 10
657.6026509675
 20
559.7675251896
 10
657.9727734598
 20
559.287320369
 10
658.3341489705
 20
558.6781832511
 10
658.672897068
 20
557.9635161097
 10
658.9759717855
 20
557.1707743341
 10
659.2317651185
 20
556.3304382498
  0
LINE
  5
281
330
1F
100
AcDbEntity
  8
0
  6
Continuous
 62
     7
370
    15
100
AcDbLine
 10
656.5804313096
 20
560.2787616784
 30
0.0
 11
631.1420853409
 21
553.4625756676
 31
0.0
  0
LINE
  5
282
330
1F
100
AcDbEntity
  8
0
  6
Continuous
 62
     7
370
    15
100
AcDbLine
 10
656.2698464069
 20
561.4378708536
 30
0.0
 11
660.1728479537
 21
562.4836715991
 31
0.0
  0
LINE
  5
283
330
1F
100
AcDbEntity
  8
0
  6
Continuous
 62
     7
370
    15
100
AcDbLine
 10
678.3937047395
 20
494.4824965326
 30
0.0
 11
674.4907031926
 21
493.4366921201
 31
0.0
  0
ARC
  5
284
330
1F
100
AcDbEntity
  8
0
  6
Continuous
 62
     7
370
    15
100
AcDbCircle
 10
665.8007864837
 20
552.0860019115
 30
0.0
 40
1.999999999999982
100
AcDbArc
 50
15.0
 51
92.6654072805
  0
LWPOLYLINE
  5
285
330
1F
100
AcDbEntity
  8
0
  6
Continuous
 62
     7
370
    15
100
AcDbPolyline
 90
       10
 70
   128
 43
0.0
 10
667.732639161
 20
552.6036392087
 10
667.7444408807
 20
552.5596174533
 10
667.7794586095
 20
552.4288821155
 10
667.8366641673
 20
552.2154118056
 10
667.9142992172
 20
551.9256885285
 10
668.0099944743
 20
551.5685188705
 10
668.1208740148
 20
551.1547508771
 10
668.2435254726
 20
550.6969611282
 10
668.3742682609
 20
550.2090561325
 10
668.5090939674
 20
549.7058625454
  0
LINE
  5
286
330
1F
100
AcDbEntity
  8
0
  6
Continuous
 62
     7
370
    15
100
AcDbLine
 10
668.5090939674
 20
549.7058625454
 30
0.0
 11
679.2242060575
 21
509.7165326709
 31
0.0
  0
LWPOLYLINE
  5
287
330
1F
100
AcDbEntity
  8
0
  6
Continuous
 62
     7
370
    15
100
AcDbPolyline
 90
        9
 70
   128
 43
0.0
 10
679.2242060575
 20
509.7165326709
 10
679.375676361
 20
509.151204967
 10
679.5213352117
 20
508.6076012934
 10
679.6555797729
 20
508.1066140095
 10
679.7732393417
 20
507.6674954156
 10
679.8697988662
 20
507.307119214
 10
679.9415628585
 20
507.0393360341
 10
679.9857448015
 20
506.8744360591
 10
680.0006608638
 20
506.8187560076
  0
ARC
  5
288
330
1F
100
AcDbEntity
  8
0
  6
Continuous
 62
     7
370
    15
100
AcDbCircle
 10
678.0688092215
 20
506.3011177454
 30
0.0
 40
1.999999999999953
100
AcDbArc
 50
324.7655702554
 51
15.0
  0
LINE
  5
289
330
1F
100
AcDbEntity
  8
0
  6
Continuous
 62
     7
370
    15
100
AcDbLine
 10
674.899978486
 20
496.3416014919
 30
0.0
 11
646.3935355815
 21
488.703324006
 31
0.0
  0
ARC
  5
28A
330
1F
100
AcDbEntity
  8
0
  6
Continuous
 62
     7
370
    15
100
AcDbCircle
 10
646.3425593063
 20
489.4509262889
 30
0.0
 40
0.749338210767704
100
AcDbArc
 50
213.3029094493
 51
273.9007525224
  0
LINE
  5
28B
330
1F
100
AcDbEntity
  8
0
  6
Continuous
 62
     7
370
    15
100
AcDbLine
 10
631.1420853409
 20
552.94493913
 30
0.0
 11
657.390905467
 21
559.9782872135
 31
0.0
  0
LWPOLYLINE
  5
28C
330
1F
100
AcDbEntity
  8
0
  6
Continuous
 62
     7
370
    15
100
AcDbPolyline
 90
        9
 70
   128
 43
0.0
 10
646.2243775996
 20
493.3167398097
 10
646.1042518887
 20
493.3076198334
 10
645.9745745334
 20
493.3416945399
 10
645.837491301
 20
493.4184014104
 10
645.6952522668
 20
493.5364744282
 10
645.5502192649
 20
493.6939650337
 10
645.4047764811
 20
493.8882736145
 10
645.2613304529
 20
494.1161933942
 10
645.1222430143
 20
494.3739625281
  0
LINE
  5
28D
330
1F
100
AcDbEntity
  8
0
  6
Continuous
 62
     7
370
    15
100
AcDbLine
 10
671.9874571237
 20
500.2199374261
 30
0.0
 11
646.2243775996
 21
493.3167398097
 31
0.0
  0
ARC
  5
28E
330
1F
100
AcDbEntity
  8
0
  6
Continuous
 62
     7
370
    15
100
AcDbCircle
 10
676.7217434463
 20
502.2983760342
 30
0.0
 40
3.531310715419488
100
AcDbArc
 50
163.0557610864
 51
183.2734901631
  0
LINE
  5
28F
330
1F
100
AcDbEntity
  8
0
  6
Continuous
 62
     7
370
    15
100
AcDbLine
 10
673.3914445314
 20
503.4857825497
 30
0.0
 11
673.3437310132
 21
503.3275443251
 31
0.0
  0
LINE
  5
290
330
1F
100
AcDbEntity
  8
0
  6
Continuous
 62
     7
370
    15
100
AcDbLine
 10
659.9631439122
 20
553.2645802135
 30
0.0
 11
660.0835899982
 21
553.1513984436
 31
0.0
  0
ARC
  5
291
330
1F
100
AcDbEntity
  8
0
  6
Continuous
 62
     7
370
    15
100
AcDbCircle
 10
662.3743260668
 20
555.8451278767
 30
0.0
 40
3.531717092987004
100
AcDbArc
 50
206.7278725983
 51
226.9432557591
  0
LINE
  5
292
330
1F
100
AcDbEntity
  8
0
  6
Continuous
 62
     7
370
    15
100
AcDbLine
 10
631.4716915759
 20
548.374510848
 30
0.0
 11
657.2347711
 21
555.2777084643
 31
0.0
  0
ARC
  5
293
330
1F
100
AcDbEntity
  8
0
  6
Continuous
 62
     7
370
    15
100
AcDbCircle
 10
631.6922265021
 20
547.8555137385
 30
0.0
 40
0.5639092598373341
100
AcDbArc
 50
113.0218595848
 51
167.3130389049
  0
LINE
  5
294
330
1F
100
AcDbEntity
  8
0
  6
Continuous
 62
     7
370
    15
100
AcDbLine
 10
644.2875023159
 20
495.5419504671
 30
0.0
 11
644.1601495418
 21
495.6624063319
 31
0.0
  0
ARC
  5
295
330
1F
100
AcDbEntity
  8
0
  6
Continuous
 62
     7
370
    15
100
AcDbCircle
 10
641.7377390867
 20
492.8373976522
 30
0.0
 40
3.716974368218835
100
AcDbArc
 50
24.4180499297
 51
46.6874176579
  0
LWPOLYLINE
  5
296
330
1F
100
AcDbEntity
  8
0
  6
Continuous
 62
     7
370
    15
100
AcDbPolyline
 90
        7
 70
   128
 43
0.0
 10
644.0935562524
 20
490.1575986417
 10
644.1709528837
 20
490.0057453318
 10
644.4118748578
 20
489.5996523677
 10
644.658623186
 20
489.2795190802
 10
644.9017207298
 20
489.0576482406
 10
645.1318319115
 20
488.9425661071
 10
645.3401054415
 20
488.9386950648
  0
LINE
  5
297
330
1F
100
AcDbEntity
  8
0
  6
Continuous
 62
     7
370
    15
100
AcDbLine
 10
642.9254989299
 20
493.9857231342
 30
0.0
 11
642.5890381607
 21
495.2414266421
 31
0.0
  0
LINE
  5
298
330
1F
100
AcDbEntity
  8
0
  6
Continuous
 62
     7
370
    15
100
AcDbLine
 10
631.1420853409
 20
552.4272988672
 30
0.0
 11
657.773664144
 21
559.5632079179
 31
0.0
  0
LINE
  5
299
330
1F
100
AcDbEntity
  8
0
  6
Continuous
 62
     7
370
    15
100
AcDbLine
 10
674.8986075792
 20
496.8588710884
 30
0.0
 11
645.3401054415
 21
488.9386950648
 31
0.0
  0
LWPOLYLINE
  5
29A
330
1F
100
AcDbEntity
  8
0
  6
Continuous
 62
     7
370
    15
100
AcDbPolyline
 90
        5
 70
   128
 43
0.0
 10
645.2601532611
 20
492.5407387776
 10
645.4079504284
 20
491.7879745602
 10
645.4326565537
 20
491.1228587274
 10
645.3305090937
 20
490.6466491642
 10
645.1170574102
 20
490.4318445018
  0
LWPOLYLINE
  5
29B
330
1F
100
AcDbEntity
  8
0
  6
Continuous
 62
     7
370
    15
100
AcDbPolyline
 90
        5
 70
   128
 43
0.0
 10
644.0817843351
 20
494.2955477285
 10
644.374033359
 20
494.2162456112
 10
644.7005997571
 20
493.8549095653
 10
645.0117658052
 20
493.2665498467
 10
645.2601532611
 20
492.5407387776
  0
ARC
  5
29C
330
1F
100
AcDbEntity
  8
0
  6
Continuous
 62
     7
370
    15
100
AcDbCircle
 10
658.8540895255
 20
551.0771083283
 30
0.0
 40
1.752852670864642
100
AcDbArc
 50
25.3257625322
 51
46.8776136368
  0
ARC
  5
29D
330
1F
100
AcDbEntity
  8
0
  6
Continuous
 62
     7
370
    15
100
AcDbCircle
 10
671.2898064278
 20
504.6674101807
 30
0.0
 40
1.752583626148495
100
AcDbArc
 50
343.120074115
 51
4.6753247243
  0
LWPOLYLINE
  5
29E
330
1F
100
AcDbEntity
  8
0
  6
Continuous
 62
     7
370
    15
100
AcDbPolyline
 90
        3
 70
   128
 43
0.0
 10
658.8123123321
 20
554.147496366
 10
658.8914523992
 20
554.020504945
 10
658.9790265235
 20
553.8582052226
  0
ARC
  5
29F
330
1F
100
AcDbEntity
  8
0
  6
Continuous
 62
     7
370
    15
100
AcDbCircle
 10
663.3306315403
 20
555.8338687445
 30
0.0
 40
4.779091186987666
100
AcDbArc
 50
204.4184290045
 51
226.6872262794
  0
ARC
  5
2A0
330
1F
100
AcDbEntity
  8
0
  6
Continuous
 62
     7
370
    15
100
AcDbCircle
 10
677.544816419
 20
502.7862056193
 30
0.0
 40
4.77919833466632
100
AcDbArc
 50
163.3130256369
 51
185.5813000536
  0
LWPOLYLINE
  5
2A1
330
1F
100
AcDbEntity
  8
0
  6
Continuous
 62
     7
370
    15
100
AcDbPolyline
 90
        3
 70
   128
 43
0.0
 10
672.7882753286
 20
502.3213899816
 10
672.793580142
 20
502.1370477164
 10
672.7885435495
 20
501.9875015253
  0
LINE
  5
2A2
330
1F
100
AcDbEntity
  8
0
  6
Continuous
 62
     7
370
    15
100
AcDbLine
 10
671.9313542518
 20
501.2401812831
 30
0.0
 11
645.9655593309
 21
494.2826655582
 31
0.0
  0
LWPOLYLINE
  5
2A3
330
1F
100
AcDbEntity
  8
0
  6
Continuous
 62
     7
370
    15
100
AcDbPolyline
 90
        9
 70
   128
 43
0.0
 10
645.9655593309
 20
494.2826655582
 10
645.8899210367
 20
494.2769234889
 10
645.8082775745
 20
494.2983779013
 10
645.7219625983
 20
494.3466747767
 10
645.6324066195
 20
494.4210171355
 10
645.5410848531
 20
494.520177844
 10
645.4495172176
 20
494.6425203355
 10
645.359193829
 20
494.7860252699
 10
645.2716197047
 20
494.9483242939
  0
ARC
  5
2A4
330
1F
100
AcDbEntity
  8
0
  6
Continuous
 62
     7
370
    15
100
AcDbCircle
 10
639.1652565664
 20
491.9340895595
 30
0.0
 40
6.809793081314047
100
AcDbArc
 50
26.271956607
 51
34.8158191073
  0
ARC
  5
2A5
330
1F
100
AcDbEntity
  8
0
  6
Continuous
 62
     7
370
    15
100
AcDbCircle
 10
624.6663658126
 20
546.0423412523
 30
0.0
 40
6.810415280029002
100
AcDbArc
 50
355.1848164706
 51
3.7278835601
  0
LWPOLYLINE
  5
2A6
330
1F
100
AcDbEntity
  8
0
  6
Continuous
 62
     7
370
    15
100
AcDbPolyline
 90
        9
 70
   128
 43
0.0
 10
631.4623708996
 20
546.4851404662
 10
631.4570660862
 20
546.6694827313
 10
631.4635331902
 20
546.8389201099
 10
631.4816679034
 20
546.9906623597
 10
631.5111722025
 20
547.1221949095
 10
631.5515543494
 20
547.2313533658
 10
631.6021586928
 20
547.3163384134
 10
631.6621358666
 20
547.3757418925
 10
631.7305098447
 20
547.4085877771
  0
LINE
  5
2A7
330
1F
100
AcDbEntity
  8
0
  6
Continuous
 62
     7
370
    15
100
AcDbLine
 10
631.7305098447
 20
547.4085877771
 30
0.0
 11
657.6963122162
 21
554.366100126
 31
0.0
  0
LINE
  5
2A8
330
1F
100
AcDbEntity
  8
0
  6
Continuous
 62
     7
370
    15
100
AcDbLine
 10
639.2457093272
 20
499.5219651731
 30
0.0
 11
631.1420853409
 21
529.7650802071
 31
0.0
  0
LINE
  5
2A9
330
1F
100
AcDbEntity
  8
0
  6
Continuous
 62
     7
370
    15
100
AcDbLine
 10
631.1420853409
 20
545.3874203498
 30
0.0
 11
656.5097103986
 21
552.1846558089
 31
0.0
  0
CIRCLE
  5
2AA
330
1F
100
AcDbEntity
  8
0
  6
Continuous
 62
     7
370
    15
100
AcDbCircle
 10
650.3088906328
 20
523.9165535435
 30
0.0
 40
10.99999999999987
  0
LINE
  5
2AB
330
1F
100
AcDbEntity
  8
0
  6
Continuous
 62
     7
370
    15
100
AcDbLine
 10
669.8130051765
 20
502.5360691482
 30
0.0
 11
642.4716542634
 21
495.2099740161
 31
0.0
  0
LWPOLYLINE
  5
2AC
330
1F
100
AcDbEntity
  8
0
  6
Continuous
 62
     7
370
    15
100
AcDbPolyline
 90
        9
 70
   128
 43
0.0
 10
640.0221641335
 20
496.6241875785
 10
640.0072406205
 20
496.6798676299
 10
639.9630586776
 20
496.8447680706
 10
639.8913095865
 20
497.1125512505
 10
639.7947426113
 20
497.4729269864
 10
639.6770830426
 20
497.912046046
 10
639.5428459319
 20
498.4130337956
 10
639.3971870813
 20
498.9566370035
 10
639.2457093272
 20
499.5219651731
  0
ARC
  5
2AD
330
1F
100
AcDbEntity
  8
0
  6
Continuous
 62
     7
370
    15
100
AcDbCircle
 10
641.9540146074
 20
497.1418257839
 30
0.0
 40
2.000000000000032
100
AcDbArc
 50
195.0
 51
285.0
  0
LINE
  5
2AE
330
1F
100
AcDbEntity
  8
0
  6
Continuous
 62
     7
370
    15
100
AcDbLine
 10
588.4126368138
 20
444.241072529
 30
0.0
 11
584.6479776475
 21
438.1154324049
 31
0.0
  0
LINE
  5
2AF
330
1F
100
AcDbEntity
  8
0
  6
Continuous
 62
     7
370
    15
100
AcDbLine
 10
584.6479776475
 20
438.1154324049
 30
0.0
 11
577.460689393
 21
438.3129025931
 31
0.0
  0
LINE
  5
2B0
330
1F
100
AcDbEntity
  8
0
  6
Continuous
 62
     7
370
    15
100
AcDbLine
 10
577.460689393
 20
438.3129025931
 30
0.0
 11
574.0380603048
 21
444.6360129053
 31
0.0
  0
LINE
  5
2B1
330
1F
100
AcDbEntity
  8
0
  6
Continuous
 62
     7
370
    15
100
AcDbLine
 10
577.8027194711
 20
450.7616493041
 30
0.0
 11
584.9900077256
 21
450.5641828412
 31
0.0
  0
LINE
  5
2B2
330
1F
100
AcDbEntity
  8
0
  6
Continuous
 62
     7
370
    15
100
AcDbLine
 10
584.9900077256
 20
450.5641828412
 30
0.0
 11
588.4126368138
 21
444.241072529
 31
0.0
  0
LINE
  5
2B3
330
1F
100
AcDbEntity
  8
0
  6
Continuous
 62
     7
370
    15
100
AcDbLine
 10
574.0380603048
 20
444.6360129053
 30
0.0
 11
577.8027194711
 21
450.7616493041
 31
0.0
  0
ARC
  5
2B4
330
1F
100
AcDbEntity
  8
0
  6
Continuous
 62
     7
370
    15
100
AcDbCircle
 10
581.2253490246
 20
444.4385422519
 30
0.0
 40
7.190000000000034
100
AcDbArc
 50
118.4262004732
 51
178.4262004732
  0
ARC
  5
2B5
330
1F
100
AcDbEntity
  8
0
  6
Continuous
 62
     7
370
    15
100
AcDbCircle
 10
581.2253490246
 20
444.4385422519
 30
0.0
 40
7.18999999999997
100
AcDbArc
 50
298.4262004732
 51
358.4262004732
  0
ARC
  5
2B6
330
1F
100
AcDbEntity
  8
0
  6
Continuous
 62
     7
370
    15
100
AcDbCircle
 10
581.2253490246
 20
444.4385422519
 30
0.0
 40
7.190000000000034
100
AcDbArc
 50
178.4262004732
 51
238.4262004732
  0
ARC
  5
2B7
330
1F
100
AcDbEntity
  8
0
  6
Continuous
 62
     7
370
    15
100
AcDbCircle
 10
581.2253490246
 20
444.4385422519
 30
0.0
 40
7.190000000000012
100
AcDbArc
 50
238.4262004732
 51
298.4262004732
  0
ARC
  5
2B8
330
1F
100
AcDbEntity
  8
0
  6
Continuous
 62
     7
370
    15
100
AcDbCircle
 10
581.2253490246
 20
444.4385422519
 30
0.0
 40
7.190000000000028
100
AcDbArc
 50
58.4262004732
 51
118.4262004732
  0
ARC
  5
2B9
330
1F
100
AcDbEntity
  8
0
  6
Continuous
 62
     7
370
    15
100
AcDbCircle
 10
581.2253490246
 20
444.4385422519
 30
0.0
 40
7.189999999999952
100
AcDbArc
 50
358.4262004732
 51
58.4262004732
  0
LINE
  5
2BA
330
1F
100
AcDbEntity
  8
0
  6
Continuous
 62
     7
370
    15
100
AcDbLine
 10
577.8027194711
 20
534.281957441
 30
0.0
 11
574.0380603048
 21
540.4075938398
 31
0.0
  0
LINE
  5
2BB
330
1F
100
AcDbEntity
  8
0
  6
Continuous
 62
     7
370
    15
100
AcDbLine
 10
584.9900077256
 20
534.4794239039
 30
0.0
 11
577.8027194711
 21
534.281957441
 31
0.0
  0
LINE
  5
2BC
330
1F
100
AcDbEntity
  8
0
  6
Continuous
 62
     7
370
    15
100
AcDbLine
 10
584.6479776475
 20
546.9281743402
 30
0.0
 11
588.4126368138
 21
540.8025342161
 31
0.0
  0
LINE
  5
2BD
330
1F
100
AcDbEntity
  8
0
  6
Continuous
 62
     7
370
    15
100
AcDbLine
 10
574.0380603048
 20
540.4075938398
 30
0.0
 11
577.460689393
 21
546.7307041521
 31
0.0
  0
LINE
  5
2BE
330
1F
100
AcDbEntity
  8
0
  6
Continuous
 62
     7
370
    15
100
AcDbLine
 10
577.460689393
 20
546.7307041521
 30
0.0
 11
584.6479776475
 21
546.9281743402
 31
0.0
  0
LINE
  5
2BF
330
1F
100
AcDbEntity
  8
0
  6
Continuous
 62
     7
370
    15
100
AcDbLine
 10
588.4126368138
 20
540.8025342161
 30
0.0
 11
584.9900077256
 21
534.4794239039
 31
0.0
  0
ARC
  5
2C0
330
1F
100
AcDbEntity
  8
0
  6
Continuous
 62
     7
370
    15
100
AcDbCircle
 10
581.2253490246
 20
540.6050644933
 30
0.0
 40
7.190000000000032
100
AcDbArc
 50
121.5737995268
 51
181.5737995268
  0
ARC
  5
2C1
330
1F
100
AcDbEntity
  8
0
  6
Continuous
 62
     7
370
    15
100
AcDbCircle
 10
581.2253490246
 20
540.6050644933
 30
0.0
 40
7.190000000000028
100
AcDbArc
 50
61.5737995268
 51
121.5737995268
  0
ARC
  5
2C2
330
1F
100
AcDbEntity
  8
0
  6
Continuous
 62
     7
370
    15
100
AcDbCircle
 10
581.2253490246
 20
540.6050644933
 30
0.0
 40
7.190000000000001
100
AcDbArc
 50
241.5737995268
 51
301.5737995268
  0
ARC
  5
2C3
330
1F
100
AcDbEntity
  8
0
  6
Continuous
 62
     7
370
    15
100
AcDbCircle
 10
581.2253490246
 20
540.6050644933
 30
0.0
 40
7.190000000000032
100
AcDbArc
 50
301.5737995268
 51
1.5737995268
  0
ARC
  5
2C4
330
1F
100
AcDbEntity
  8
0
  6
Continuous
 62
     7
370
    15
100
AcDbCircle
 10
581.2253490246
 20
540.6050644933
 30
0.0
 40
7.190000000000032
100
AcDbArc
 50
181.5737995268
 51
241.5737995268
  0
ARC
  5
2C5
330
1F
100
AcDbEntity
  8
0
  6
Continuous
 62
     7
370
    15
100
AcDbCircle
 10
581.2253490246
 20
540.6050644933
 30
0.0
 40
7.190000000000032
100
AcDbArc
 50
1.5737995268
 51
61.5737995268
  0
LINE
  5
2C6
330
1F
100
AcDbEntity
  8
0
  6
Continuous
 62
     7
370
    15
100
AcDbLine
 10
485.2562974366
 20
533.4177757735
 30
0.0
 11
478.9331871244
 21
536.8404048616
 31
0.0
  0
LINE
  5
2C7
330
1F
100
AcDbEntity
  8
0
  6
Continuous
 62
     7
370
    15
100
AcDbLine
 10
491.1844673726
 20
544.3697231943
 30
0.0
 11
491.3819338354
 21
537.1824349398
 31
0.0
  0
LINE
  5
2C8
330
1F
100
AcDbEntity
  8
0
  6
Continuous
 62
     7
370
    15
100
AcDbLine
 10
491.3819338354
 20
537.1824349398
 30
0.0
 11
485.2562974366
 21
533.4177757735
 31
0.0
  0
LINE
  5
2C9
330
1F
100
AcDbEntity
  8
0
  6
Continuous
 62
     7
370
    15
100
AcDbLine
 10
478.7357169363
 20
544.0276931161
 30
0.0
 11
484.8613570604
 21
547.7923522825
 31
0.0
  0
LINE
  5
2CA
330
1F
100
AcDbEntity
  8
0
  6
Continuous
 62
     7
370
    15
100
AcDbLine
 10
484.8613570604
 20
547.7923522825
 30
0.0
 11
491.1844673726
 21
544.3697231943
 31
0.0
  0
LINE
  5
2CB
330
1F
100
AcDbEntity
  8
0
  6
Continuous
 62
     7
370
    15
100
AcDbLine
 10
478.9331871244
 20
536.8404048616
 30
0.0
 11
478.7357169363
 21
544.0276931161
 31
0.0
  0
ARC
  5
2CC
330
1F
100
AcDbEntity
  8
0
  6
Continuous
 62
     7
370
    15
100
AcDbCircle
 10
485.0588267832
 20
540.6050644933
 30
0.0
 40
7.190000000000049
100
AcDbArc
 50
31.5737995268
 51
91.5737995268
  0
ARC
  5
2CD
330
1F
100
AcDbEntity
  8
0
  6
Continuous
 62
     7
370
    15
100
AcDbCircle
 10
485.0588267832
 20
540.6050644933
 30
0.0
 40
7.190000000000049
100
AcDbArc
 50
331.5737995268
 51
31.5737995268
  0
ARC
  5
2CE
330
1F
100
AcDbEntity
  8
0
  6
Continuous
 62
     7
370
    15
100
AcDbCircle
 10
485.0588267832
 20
540.6050644933
 30
0.0
 40
7.190000000000034
100
AcDbArc
 50
211.5737995268
 51
271.5737995268
  0
ARC
  5
2CF
330
1F
100
AcDbEntity
  8
0
  6
Continuous
 62
     7
370
    15
100
AcDbCircle
 10
485.0588267832
 20
540.6050644933
 30
0.0
 40
7.190000000000001
100
AcDbArc
 50
151.5737995268
 51
211.5737995268
  0
ARC
  5
2D0
330
1F
100
AcDbEntity
  8
0
  6
Continuous
 62
     7
370
    15
100
AcDbCircle
 10
485.0588267832
 20
540.6050644933
 30
0.0
 40
7.18999999999997
100
AcDbArc
 50
91.5737995268
 51
151.5737995268
  0
ARC
  5
2D1
330
1F
100
AcDbEntity
  8
0
  6
Continuous
 62
     7
370
    15
100
AcDbCircle
 10
485.0588267832
 20
540.6050644933
 30
0.0
 40
7.190000000000034
100
AcDbArc
 50
271.5737995268
 51
331.5737995268
  0
LINE
  5
2D2
330
1F
100
AcDbEntity
  8
0
  6
Continuous
 62
     7
370
    15
100
AcDbLine
 10
491.1844673726
 20
440.6738835508
 30
0.0
 11
484.8613570604
 21
437.2512544627
 31
0.0
  0
LINE
  5
2D3
330
1F
100
AcDbEntity
  8
0
  6
Continuous
 62
     7
370
    15
100
AcDbLine
 10
484.8613570604
 20
437.2512544627
 30
0.0
 11
478.7357169363
 21
441.015913629
 31
0.0
  0
LINE
  5
2D4
330
1F
100
AcDbEntity
  8
0
  6
Continuous
 62
     7
370
    15
100
AcDbLine
 10
491.3819338354
 20
447.8611718053
 30
0.0
 11
491.1844673726
 21
440.6738835508
 31
0.0
  0
LINE
  5
2D5
330
1F
100
AcDbEntity
  8
0
  6
Continuous
 62
     7
370
    15
100
AcDbLine
 10
478.9331871244
 20
448.2032018835
 30
0.0
 11
485.2562974366
 21
451.6258309717
 31
0.0
  0
LINE
  5
2D6
330
1F
100
AcDbEntity
  8
0
  6
Continuous
 62
     7
370
    15
100
AcDbLine
 10
478.7357169363
 20
441.015913629
 30
0.0
 11
478.9331871244
 21
448.2032018835
 31
0.0
  0
LINE
  5
2D7
330
1F
100
AcDbEntity
  8
0
  6
Continuous
 62
     7
370
    15
100
AcDbLine
 10
485.2562974366
 20
451.6258309717
 30
0.0
 11
491.3819338354
 21
447.8611718053
 31
0.0
  0
ARC
  5
2D8
330
1F
100
AcDbEntity
  8
0
  6
Continuous
 62
     7
370
    15
100
AcDbCircle
 10
485.0588267832
 20
444.4385422519
 30
0.0
 40
7.189999999999993
100
AcDbArc
 50
148.4262004732
 51
208.4262004732
  0
ARC
  5
2D9
330
1F
100
AcDbEntity
  8
0
  6
Continuous
 62
     7
370
    15
100
AcDbCircle
 10
485.0588267832
 20
444.4385422519
 30
0.0
 40
7.19000000000002
100
AcDbArc
 50
28.4262004732
 51
88.4262004732
  0
ARC
  5
2DA
330
1F
100
AcDbEntity
  8
0
  6
Continuous
 62
     7
370
    15
100
AcDbCircle
 10
485.0588267832
 20
444.4385422519
 30
0.0
 40
7.189999999999983
100
AcDbArc
 50
88.4262004732
 51
148.4262004732
  0
ARC
  5
2DB
330
1F
100
AcDbEntity
  8
0
  6
Continuous
 62
     7
370
    15
100
AcDbCircle
 10
485.0588267832
 20
444.4385422519
 30
0.0
 40
7.19000000000002
100
AcDbArc
 50
328.4262004732
 51
28.4262004732
  0
ARC
  5
2DC
330
1F
100
AcDbEntity
  8
0
  6
Continuous
 62
     7
370
    15
100
AcDbCircle
 10
485.0588267832
 20
444.4385422519
 30
0.0
 40
7.189999999999977
100
AcDbArc
 50
268.4262004732
 51
328.4262004732
  0
ARC
  5
2DD
330
1F
100
AcDbEntity
  8
0
  6
Continuous
 62
     7
370
    15
100
AcDbCircle
 10
485.0588267832
 20
444.4385422519
 30
0.0
 40
7.189999999999993
100
AcDbArc
 50
208.4262004732
 51
268.4262004732
  0
ARC
  5
2DE
330
1F
100
AcDbEntity
  8
0
  6
Continuous
 62
     7
370
    15
100
AcDbCircle
 10
522.153457416
 20
532.0218033726
 30
0.0
 40
5.000000000000005
100
AcDbArc
 50
285.5462043307
 51
357.3947487349
  0
ARC
  5
2DF
330
1F
100
AcDbEntity
  8
0
  6
Continuous
 62
     7
370
    15
100
AcDbCircle
 10
572.8444065974
 20
482.2882365279
 30
0.0
 40
5.000000000000043
100
AcDbArc
 50
165.5462043307
 51
237.3947487349
  0
ARC
  5
2E0
330
1F
100
AcDbEntity
  8
0
  6
Continuous
 62
     7
370
    15
100
AcDbCircle
 10
533.1420879039
 20
492.5218033726
 30
0.0
 40
36.00000000000009
100
AcDbArc
 50
105.5462043307
 51
194.4537956693
  0
ARC
  5
2E1
330
1F
100
AcDbEntity
  8
0
  6
Continuous
 62
     7
370
    15
100
AcDbCircle
 10
566.9170786515
 20
473.0218033726
 30
0.0
 40
5.999999999999989
100
AcDbArc
 50
242.6052512651
 51
57.3947487349
  0
ARC
  5
2E2
330
1F
100
AcDbEntity
  8
0
  6
Continuous
 62
     7
370
    15
100
AcDbCircle
 10
493.4397692105
 20
482.2882365279
 30
0.0
 40
5.000000000000075
100
AcDbArc
 50
302.6052512651
 51
14.4537956693
  0
ARC
  5
2E3
330
1F
100
AcDbEntity
  8
0
  6
Continuous
 62
     7
370
    15
100
AcDbCircle
 10
561.8557761094
 20
463.2553702172
 30
0.0
 40
5.000000000000043
100
AcDbArc
 50
62.6052512651
 51
134.4537956693
  0
ARC
  5
2E4
330
1F
100
AcDbEntity
  8
0
  6
Continuous
 62
     7
370
    15
100
AcDbCircle
 10
499.3670971563
 20
473.0218033726
 30
0.0
 40
6.00000000000002
100
AcDbArc
 50
122.6052512651
 51
297.3947487349
  0
ARC
  5
2E5
330
1F
100
AcDbEntity
  8
0
  6
Continuous
 62
     7
370
    15
100
AcDbCircle
 10
533.1420879039
 20
492.5218033726
 30
0.0
 40
36.00000000000006
100
AcDbArc
 50
225.5462043307
 51
314.4537956693
  0
ARC
  5
2E6
330
1F
100
AcDbEntity
  8
0
  6
Continuous
 62
     7
370
    15
100
AcDbCircle
 10
504.4283996984
 20
463.2553702172
 30
0.0
 40
5.000000000000017
100
AcDbArc
 50
45.5462043307
 51
117.3947487349
  0
ARC
  5
2E7
330
1F
100
AcDbEntity
  8
0
  6
Continuous
 62
     7
370
    15
100
AcDbCircle
 10
533.1420879039
 20
531.5218033726
 30
0.0
 40
6.000000000000078
100
AcDbArc
 50
2.6052512651
 51
177.3947487349
  0
ARC
  5
2E8
330
1F
100
AcDbEntity
  8
0
  6
Continuous
 62
     7
370
    15
100
AcDbCircle
 10
544.1307183918
 20
532.0218033726
 30
0.0
 40
5.000000000000044
100
AcDbArc
 50
182.6052512651
 51
254.4537956693
  0
ARC
  5
2E9
330
1F
100
AcDbEntity
  8
0
  6
Continuous
 62
     7
370
    15
100
AcDbCircle
 10
533.1420879039
 20
492.5218033726
 30
0.0
 40
36.0
100
AcDbArc
 50
345.5462043307
 51
74.4537956693
  0
CIRCLE
  5
2EA
330
1F
100
AcDbEntity
  8
0
  6
Continuous
 62
     7
370
    15
100
AcDbCircle
 10
533.1420879039
 20
531.5218033726
 30
0.0
 40
2.5
  0
CIRCLE
  5
2EB
330
1F
100
AcDbEntity
  8
0
  6
Continuous
 62
     7
370
    15
100
AcDbCircle
 10
499.3670971563
 20
473.0218033726
 30
0.0
 40
2.5
  0
CIRCLE
  5
2EC
330
1F
100
AcDbEntity
  8
0
  6
Continuous
 62
     7
370
    15
100
AcDbCircle
 10
566.9170786515
 20
473.0218033726
 30
0.0
 40
2.5
  0
CIRCLE
  5
2ED
330
1F
100
AcDbEntity
  8
0
  6
Continuous
 62
     7
370
    15
100
AcDbCircle
 10
533.1420879039
 20
492.5218033726
 30
0.0
 40
25.00000000000006
  0
CIRCLE
  5
2EE
330
1F
100
AcDbEntity
  8
0
  6
Continuous
 62
     7
370
    15
100
AcDbCircle
 10
499.3670971563
 20
473.0218033726
 30
0.0
 40
2.100000000000023
  0
CIRCLE
  5
2EF
330
1F
100
AcDbEntity
  8
0
  6
Continuous
 62
     7
370
    15
100
AcDbCircle
 10
566.9170786515
 20
473.0218033726
 30
0.0
 40
2.100000000000023
  0
CIRCLE
  5
2F0
330
1F
100
AcDbEntity
  8
0
  6
Continuous
 62
     7
370
    15
100
AcDbCircle
 10
533.1420879039
 20
531.5218033726
 30
0.0
 40
2.099999999999909
  0
ARC
  5
2F1
330
1F
100
AcDbEntity
  8
0
  6
Continuous
 62
     7
370
    15
100
AcDbCircle
 10
533.1420879039
 20
492.5218033726
 30
0.0
 40
61.00000000000004
100
AcDbArc
 50
237.7860739307
 51
302.2139260693
  0
SPLINE
  5
2F2
330
1F
100
AcDbEntity
  8
0
  6
Continuous
 62
     7
370
    15
100
AcDbSpline
210
0.0
220
0.0
230
1.0
 70
     8
 71
     3
 72
    12
 73
     8
 74
     0
 42
0.00000001
 43
0.00000001
 12
1.0
 22
0.0
 32
0.0
 13
1.0
 23
0.0
 33
0.0
 40
0.0
 40
0.0
 40
0.0
 40
0.0
 40
0.0033602808459721
 40
0.2260383746389615
 40
0.5243428997068316
 40
0.7836139279632343
 40
1.0
 40
1.0
 40
1.0
 40
1.0
 10
503.7301908406542
 20
444.8674204880642
 30
0.0
 10
503.7281568432865
 20
444.8626025282084
 30
0.0
 10
503.5913345120284
 20
444.5385094345661
 30
0.0
 10
503.2735960885951
 20
443.7841178239424
 30
0.0
 10
502.7754479236624
 20
442.7424163053819
 30
0.0
 10
502.2291230752686
 20
441.8857905625272
 30
0.0
 10
501.8213179419361
 20
441.5928263625782
 30
0.0
 10
501.6357991072463
 20
441.4595510000633
 30
0.0
  0
SPLINE
  5
2F3
330
1F
100
AcDbEntity
  8
0
  6
Continuous
 62
     7
370
    15
100
AcDbSpline
210
0.0
220
0.0
230
1.0
 70
     8
 71
     3
 72
    12
 73
     8
 74
     0
 42
0.00000001
 43
0.00000001
 12
1.0
 22
0.0
 32
0.0
 13
1.0
 23
0.0
 33
0.0
 40
0.0
 40
0.0
 40
0.0
 40
0.0
 40
0.2163860720367657
 40
0.4756571002931684
 40
0.7739616253610384
 40
0.9966397191540278
 40
1.0
 40
1.0
 40
1.0
 40
1.0
 10
564.648376700573
 20
441.4595510000633
 30
0.0
 10
564.4628578658832
 20
441.5928263625782
 30
0.0
 10
564.0550527325506
 20
441.8857905625272
 30
0.0
 10
563.5087278841568
 20
442.742416305382
 30
0.0
 10
563.0105797192241
 20
443.7841178239423
 30
0.0
 10
562.6928412957908
 20
444.5385094345663
 30
0.0
 10
562.5560189645327
 20
444.8626025282084
 30
0.0
 10
562.553984967165
 20
444.8674204880642
 30
0.0
  0
ARC
  5
2F4
330
1F
100
AcDbEntity
  8
0
  6
Continuous
 62
     7
370
    15
100
AcDbCircle
 10
533.1420879039
 20
492.5218033726
 30
0.0
 40
61.00000000000007
100
AcDbArc
 50
147.7860739307
 51
212.2139260693
  0
SPLINE
  5
2F5
330
1F
100
AcDbEntity
  8
0
  6
Continuous
 62
     7
370
    15
100
AcDbSpline
210
0.0
220
0.0
230
1.0
 70
     8
 71
     3
 72
    12
 73
     8
 74
     0
 42
0.00000001
 43
0.00000001
 12
1.0
 22
0.0
 32
0.0
 13
1.0
 23
0.0
 33
0.0
 40
0.0
 40
0.0
 40
0.0
 40
0.0
 40
0.0033602808459721
 40
0.2260383746389615
 40
0.5243428997068316
 40
0.7836139279632343
 40
1.0
 40
1.0
 40
1.0
 40
1.0
 10
485.4877050194071
 20
521.933700435822
 30
0.0
 10
485.4828870595514
 20
521.9357344331896
 30
0.0
 10
485.1587939659091
 20
522.0725567644479
 30
0.0
 10
484.4044023552854
 20
522.3902951878811
 30
0.0
 10
483.3627008367249
 20
522.8884433528139
 30
0.0
 10
482.5060750938702
 20
523.4347682012076
 30
0.0
 10
482.2131108939212
 20
523.8425733345401
 30
0.0
 10
482.0798355314063
 20
524.0280921692299
 30
0.0
  0
SPLINE
  5
2F6
330
1F
100
AcDbEntity
  8
0
  6
Continuous
 62
     7
370
    15
100
AcDbSpline
210
0.0
220
0.0
230
1.0
 70
     8
 71
     3
 72
    12
 73
     8
 74
     0
 42
0.00000001
 43
0.00000001
 12
1.0
 22
0.0
 32
0.0
 13
1.0
 23
0.0
 33
0.0
 40
0.0
 40
0.0
 40
0.0
 40
0.0
 40
0.2163860720367657
 40
0.4756571002931684
 40
0.7739616253610384
 40
0.9966397191540278
 40
1.0
 40
1.0
 40
1.0
 40
1.0
 10
482.0798355314063
 20
461.0155145759033
 30
0.0
 10
482.2131108939212
 20
461.201033410593
 30
0.0
 10
482.5060750938702
 20
461.6088385439256
 30
0.0
 10
483.362700836725
 20
462.1551633923195
 30
0.0
 10
484.4044023552852
 20
462.6533115572522
 30
0.0
 10
485.1587939659093
 20
462.9710499806855
 30
0.0
 10
485.4828870595514
 20
463.1078723119435
 30
0.0
 10
485.4877050194071
 20
463.1099063093113
 30
0.0
  0
LINE
  5
2F7
330
1F
100
AcDbEntity
  8
0
  6
Continuous
 62
     7
370
    15
100
AcDbLine
 10
472.1680748436
 20
442.70412206
 30
0.0
 11
482.0798355314
 21
461.0155145759
 31
0.0
  0
LINE
  5
2F8
330
1F
100
AcDbEntity
  8
0
  6
Continuous
 62
     7
370
    15
100
AcDbLine
 10
483.3244065913
 20
553.4958164329
 30
0.0
 11
501.6357991072
 21
543.5840557451
 31
0.0
  0
SPLINE
  5
2F9
330
1F
100
AcDbEntity
  8
0
  6
Continuous
 62
     7
370
    15
100
AcDbSpline
210
0.0
220
0.0
230
1.0
 70
     8
 71
     3
 72
    12
 73
     8
 74
     0
 42
0.00000001
 43
0.00000001
 12
1.0
 22
0.0
 32
0.0
 13
1.0
 23
0.0
 33
0.0
 40
0.0
 40
0.0
 40
0.0
 40
0.0
 40
0.2163860720367657
 40
0.4756571002931684
 40
0.7739616253610384
 40
0.9966397191540278
 40
1.0
 40
1.0
 40
1.0
 40
1.0
 10
501.6357991072463
 20
543.5840557450699
 30
0.0
 10
501.8213179419361
 20
543.450780382555
 30
0.0
 10
502.2291230752686
 20
543.157816182606
 30
0.0
 10
502.7754479236624
 20
542.3011904397513
 30
0.0
 10
503.2735960885951
 20
541.259488921191
 30
0.0
 10
503.5913345120284
 20
540.505097310567
 30
0.0
 10
503.7281568432865
 20
540.1810042169247
 30
0.0
 10
503.7301908406542
 20
540.176186257069
 30
0.0
  0
LINE
  5
2FA
330
1F
100
AcDbEntity
  8
0
  6
Continuous
 62
     7
370
    15
100
AcDbLine
 10
582.9597692165
 20
431.5477903122
 30
0.0
 11
564.6483767006
 21
441.4595510001
 31
0.0
  0
ARC
  5
2FB
330
1F
100
AcDbEntity
  8
0
  6
Continuous
 62
     7
370
    15
100
AcDbCircle
 10
533.1420879039
 20
492.5218033726
 30
0.0
 40
60.99999999999991
100
AcDbArc
 50
327.7860739307
 51
32.2139260693
  0
SPLINE
  5
2FC
330
1F
100
AcDbEntity
  8
0
  6
Continuous
 62
     7
370
    15
100
AcDbSpline
210
0.0
220
0.0
230
1.0
 70
     8
 71
     3
 72
    12
 73
     8
 74
     0
 42
0.00000001
 43
0.00000001
 12
1.0
 22
0.0
 32
0.0
 13
1.0
 23
0.0
 33
0.0
 40
0.0
 40
0.0
 40
0.0
 40
0.0
 40
0.0033602808459721
 40
0.2260383746389615
 40
0.5243428997068316
 40
0.7836139279632343
 40
1.0
 40
1.0
 40
1.0
 40
1.0
 10
580.7964707884121
 20
463.1099063093113
 30
0.0
 10
580.8012887482678
 20
463.1078723119435
 30
0.0
 10
581.1253818419101
 20
462.9710499806855
 30
0.0
 10
581.8797734525339
 20
462.6533115572522
 30
0.0
 10
582.9214749710943
 20
462.1551633923195
 30
0.0
 10
583.778100713949
 20
461.6088385439256
 30
0.0
 10
584.071064913898
 20
461.201033410593
 30
0.0
 10
584.2043402764128
 20
461.0155145759033
 30
0.0
  0
SPLINE
  5
2FD
330
1F
100
AcDbEntity
  8
0
  6
Continuous
 62
     7
370
    15
100
AcDbSpline
210
0.0
220
0.0
230
1.0
 70
     8
 71
     3
 72
    12
 73
     8
 74
     0
 42
0.00000001
 43
0.00000001
 12
1.0
 22
0.0
 32
0.0
 13
1.0
 23
0.0
 33
0.0
 40
0.0
 40
0.0
 40
0.0
 40
0.0
 40
0.2163860720367657
 40
0.4756571002931684
 40
0.7739616253610384
 40
0.9966397191540278
 40
1.0
 40
1.0
 40
1.0
 40
1.0
 10
584.2043402764128
 20
524.0280921692299
 30
0.0
 10
584.071064913898
 20
523.8425733345401
 30
0.0
 10
583.778100713949
 20
523.4347682012076
 30
0.0
 10
582.9214749710943
 20
522.8884433528137
 30
0.0
 10
581.879773452534
 20
522.3902951878811
 30
0.0
 10
581.12538184191
 20
522.0725567644478
 30
0.0
 10
580.8012887482678
 20
521.9357344331896
 30
0.0
 10
580.7964707884121
 20
521.933700435822
 30
0.0
  0
ARC
  5
2FE
330
1F
100
AcDbEntity
  8
0
  6
Continuous
 62
     7
370
    15
100
AcDbCircle
 10
533.1420879039
 20
492.5218033726
 30
0.0
 40
61.00000000000001
100
AcDbArc
 50
57.7860739307
 51
122.2139260693
  0
SPLINE
  5
2FF
330
1F
100
AcDbEntity
  8
0
  6
Continuous
 62
     7
370
    15
100
AcDbSpline
210
0.0
220
0.0
230
1.0
 70
     8
 71
     3
 72
    12
 73
     8
 74
     0
 42
0.00000001
 43
0.00000001
 12
1.0
 22
0.0
 32
0.0
 13
1.0
 23
0.0
 33
0.0
 40
0.0
 40
0.0
 40
0.0
 40
0.0
 40
0.0033602808459721
 40
0.2260383746389615
 40
0.5243428997068316
 40
0.7836139279632343
 40
1.0
 40
1.0
 40
1.0
 40
1.0
 10
562.553984967165
 20
540.176186257069
 30
0.0
 10
562.5560189645327
 20
540.1810042169247
 30
0.0
 10
562.6928412957908
 20
540.5050973105671
 30
0.0
 10
563.0105797192241
 20
541.2594889211908
 30
0.0
 10
563.5087278841568
 20
542.3011904397513
 30
0.0
 10
564.0550527325506
 20
543.157816182606
 30
0.0
 10
564.4628578658832
 20
543.450780382555
 30
0.0
 10
564.648376700573
 20
543.5840557450699
 30
0.0
  0
LINE
  5
300
330
1F
100
AcDbEntity
  8
0
  6
Continuous
 62
     7
370
    15
100
AcDbLine
 10
594.1161009642
 20
542.3394846851
 30
0.0
 11
584.2043402764
 21
524.0280921692
 31
0.0
  0
LINE
  5
301
330
1F
100
AcDbEntity
  8
0
  6
Continuous
 62
     7
370
    15
100
AcDbLine
 10
501.6357991072
 20
441.4595510001
 30
0.0
 11
483.3244065913
 21
431.5477903122
 31
0.0
  0
LINE
  5
302
330
1F
100
AcDbEntity
  8
0
  6
Continuous
 62
     7
370
    15
100
AcDbLine
 10
584.2043402764
 20
461.0155145759
 30
0.0
 11
594.1161009642
 21
442.70412206
 31
0.0
  0
LINE
  5
303
330
1F
100
AcDbEntity
  8
0
  6
Continuous
 62
     7
370
    15
100
AcDbLine
 10
564.6483767006
 20
543.5840557451
 30
0.0
 11
582.9597692165
 21
553.4958164329
 31
0.0
  0
LINE
  5
304
330
1F
100
AcDbEntity
  8
0
  6
Continuous
 62
     7
370
    15
100
AcDbLine
 10
482.0798355314
 20
524.0280921692
 30
0.0
 11
472.1680748436
 21
542.3394846851
 31
0.0
  0
ARC
  5
305
330
1F
100
AcDbEntity
  8
0
  6
Continuous
 62
     7
370
    15
100
AcDbCircle
 10
583.9118233048
 20
433.30665356
 30
0.0
 40
2.000000000000016
100
AcDbArc
 50
241.5737995268
 51
310.6090428911
  0
ARC
  5
306
330
1F
100
AcDbEntity
  8
0
  6
Continuous
 62
     7
370
    15
100
AcDbCircle
 10
482.372352503
 20
551.7369531851
 30
0.0
 40
2.00000000000014
100
AcDbArc
 50
61.5737995268
 51
130.6090428911
  0
ARC
  5
307
330
1F
100
AcDbEntity
  8
0
  6
Continuous
 62
     7
370
    15
100
AcDbCircle
 10
592.3572377165
 20
441.7520679717
 30
0.0
 40
2.000000000000016
100
AcDbArc
 50
319.3909571089
 51
28.4262004732
  0
ARC
  5
308
330
1F
100
AcDbEntity
  8
0
  6
Continuous
 62
     7
370
    15
100
AcDbCircle
 10
583.9118233048
 20
551.7369531851
 30
0.0
 40
2.000000000000016
100
AcDbArc
 50
49.3909571089
 51
118.4262004732
  0
ARC
  5
309
330
1F
100
AcDbEntity
  8
0
  6
Continuous
 62
     7
370
    15
100
AcDbCircle
 10
533.1420879039
 20
492.5218033726
 30
0.0
 40
79.99999999999993
100
AcDbArc
 50
310.6090428911
 51
319.3909571089
  0
ARC
  5
30A
330
1F
100
AcDbEntity
  8
0
  6
Continuous
 62
     7
370
    15
100
AcDbCircle
 10
473.9269380913
 20
441.7520679717
 30
0.0
 40
2.000000000000053
100
AcDbArc
 50
151.5737995268
 51
220.6090428911
  0
ARC
  5
30B
330
1F
100
AcDbEntity
  8
0
  6
Continuous
 62
     7
370
    15
100
AcDbCircle
 10
533.1420879039
 20
492.5218033726
 30
0.0
 40
80.00000000000004
100
AcDbArc
 50
220.6090428911
 51
229.3909571089
  0
ARC
  5
30C
330
1F
100
AcDbEntity
  8
0
  6
Continuous
 62
     7
370
    15
100
AcDbCircle
 10
473.9269380913
 20
543.2915387735
 30
0.0
 40
1.999999999999973
100
AcDbArc
 50
139.3909571089
 51
208.4262004732
  0
ARC
  5
30D
330
1F
100
AcDbEntity
  8
0
  6
Continuous
 62
     7
370
    15
100
AcDbCircle
 10
482.372352503
 20
433.30665356
 30
0.0
 40
1.999999999999967
100
AcDbArc
 50
229.3909571089
 51
298.4262004732
  0
ARC
  5
30E
330
1F
100
AcDbEntity
  8
0
  6
Continuous
 62
     7
370
    15
100
AcDbCircle
 10
533.1420879039
 20
492.5218033726
 30
0.0
 40
80.00000000000006
100
AcDbArc
 50
130.6090428911
 51
139.3909571089
  0
ARC
  5
30F
330
1F
100
AcDbEntity
  8
0
  6
Continuous
 62
     7
370
    15
100
AcDbCircle
 10
533.1420879039
 20
492.5218033726
 30
0.0
 40
80.0
100
AcDbArc
 50
40.6090428911
 51
49.3909571089
  0
ARC
  5
310
330
1F
100
AcDbEntity
  8
0
  6
Continuous
 62
     7
370
    15
100
AcDbCircle
 10
592.3572377165
 20
543.2915387735
 30
0.0
 40
2.000000000000016
100
AcDbArc
 50
331.5737995268
 51
40.6090428911
  0
ARC
  5
311
330
1F
100
AcDbEntity
  8
0
  6
Continuous
 62
     7
370
    15
100
AcDbCircle
 10
533.1420879039
 20
492.5218033726
 30
0.0
 40
60.99999999999991
100
AcDbArc
 50
0.0
 51
32.2139260693
  0
ARC
  5
312
330
1F
100
AcDbEntity
  8
0
  6
Continuous
 62
     7
370
    15
100
AcDbCircle
 10
533.1420879039
 20
492.5218033726
 30
0.0
 40
60.99999999999989
100
AcDbArc
 50
327.7860739307
 51
0.0
  0
ARC
  5
313
330
1F
100
AcDbEntity
  8
0
  6
Continuous
 62
     7
370
    15
100
AcDbCircle
 10
544.4115155735
 20
429.5218033726
 30
0.0
 40
3.000000000000057
100
AcDbArc
 50
90.0
 51
100.1417933657
  0
ARC
  5
314
330
1F
100
AcDbEntity
  8
0
  6
Continuous
 62
     7
370
    15
100
AcDbCircle
 10
521.8726602343
 20
429.5218033726
 30
0.0
 40
3.000000000000057
100
AcDbArc
 50
79.8582066343
 51
90.0
  0
ARC
  5
315
330
1F
100
AcDbEntity
  8
0
  6
Continuous
 62
     7
370
    15
100
AcDbCircle
 10
501.3505623233
 20
554.5218690745
 30
0.0
 40
2.001240681393754
100
AcDbArc
 50
270.023748582
 51
308.0811028954
  0
ARC
  5
316
330
1F
100
AcDbEntity
  8
0
  6
Continuous
 62
     7
370
    15
100
AcDbCircle
 10
564.9336134845
 20
554.5218690745
 30
0.0
 40
2.001240681393933
100
AcDbArc
 50
231.9188971046
 51
269.976251418
  0
ARC
  5
317
330
1F
100
AcDbEntity
  8
0
  6
Continuous
 62
     7
370
    15
100
AcDbCircle
 10
590.5047706213
 20
459.8794592247
 30
0.0
 40
4.999999999999991
100
AcDbArc
 50
150.3578770506
 51
208.4262004732
  0
ARC
  5
318
330
1F
100
AcDbEntity
  8
0
  6
Continuous
 62
     7
370
    15
100
AcDbCircle
 10
475.7794051866
 20
525.1641475204
 30
0.0
 40
5.000000000000091
100
AcDbArc
 50
330.3578770506
 51
28.4262004732
  0
LINE
  5
319
330
1F
100
AcDbEntity
  8
0
  6
Continuous
 62
     7
370
    15
100
AcDbLine
 10
581.1603422436
 20
432.5218047137
 30
0.0
 11
544.4115157399
 21
432.5218047137
 31
0.0
  0
LINE
  5
31A
330
1F
100
AcDbEntity
  8
0
  6
Continuous
 62
     7
370
    15
100
AcDbLine
 10
564.9380664501
 20
552.5218020315
 30
0.0
 11
581.1603422436
 21
552.5218020315
 31
0.0
  0
LINE
  5
31B
330
1F
100
AcDbEntity
  8
0
  6
Continuous
 62
     7
370
    15
100
AcDbLine
 10
485.1238335642
 20
552.5218020315
 30
0.0
 11
501.3461093578
 21
552.5218020315
 31
0.0
  0
SPLINE
  5
31C
330
1F
100
AcDbEntity
  8
0
  6
Continuous
 62
     7
370
    15
100
AcDbSpline
210
0.0
220
0.0
230
1.0
 70
    24
 71
     3
 72
    10
 73
     6
 74
     0
 42
0.00000001
 43
0.00000001
 12
1.0
 22
0.0
 32
0.0
 13
1.0
 23
0.0
 33
0.0
 40
0.0
 40
0.0
 40
0.0
 40
0.0
 40
0.6905515112982467
 40
0.9916138905010524
 40
1.0
 40
1.0
 40
1.0
 40
1.0
 10
527.4384589093852
 20
553.52180405802
 30
0.0
 10
528.7526773745309
 20
553.52180405802
 30
0.0
 10
530.6398606821765
 20
553.52180405802
 30
0.0
 10
532.5385044077466
 20
553.5218040580199
 30
0.0
 10
533.1261622705166
 20
553.52180405802
 30
0.0
 10
533.1420879039097
 20
553.52180405802
 30
0.0
  0
LINE
  5
31D
330
1F
100
AcDbEntity
  8
0
  6
Continuous
 62
     7
370
    15
100
AcDbLine
 10
521.872660068
 20
432.5218047137
 30
0.0
 11
485.1238335642
 21
432.5218047137
 31
0.0
  0
SPLINE
  5
31E
330
1F
100
AcDbEntity
  8
0
  6
Continuous
 62
     7
370
    15
100
AcDbSpline
210
0.0
220
0.0
230
1.0
 70
    24
 71
     3
 72
    10
 73
     6
 74
     0
 42
0.00000001
 43
0.00000001
 12
1.0
 22
0.0
 32
0.0
 13
1.0
 23
0.0
 33
0.0
 40
0.0
 40
0.0
 40
0.0
 40
0.0
 40
0.0083861094989477
 40
0.3094484887017534
 40
1.0
 40
1.0
 40
1.0
 40
1.0
 10
533.1420879039097
 20
553.52180405802
 30
0.0
 10
533.1580135373027
 20
553.52180405802
 30
0.0
 10
533.7456714000726
 20
553.5218040580199
 30
0.0
 10
535.6443151256427
 20
553.5218040580202
 30
0.0
 10
537.5314984332883
 20
553.52180405802
 30
0.0
 10
538.8457168984341
 20
553.52180405802
 30
0.0
  0
SPLINE
  5
31F
330
1F
100
AcDbEntity
  8
0
  6
Continuous
 62
     7
370
    15
100
AcDbSpline
210
0.0
220
0.0
230
1.0
 70
     8
 71
     3
 72
    10
 73
     6
 74
     0
 42
0.00000001
 43
0.00000001
 12
1.0
 22
0.0
 32
0.0
 13
1.0
 23
0.0
 33
0.0
 40
0.0
 40
0.0
 40
0.0
 40
0.0
 40
0.266273435442148
 40
0.9107803134776334
 40
1.0
 40
1.0
 40
1.0
 40
1.0
 10
538.8457168984341
 20
553.52180405802
 30
0.0
 10
539.6874881964706
 20
553.5236619059233
 30
0.0
 10
542.5667417180586
 20
553.5300166190509
 30
0.0
 10
545.7452475482613
 20
553.5696715625529
 30
0.0
 10
548.0807592612515
 20
553.571603510948
 30
0.0
 10
548.3647528263854
 20
553.5718384320187
 30
0.0
  0
ARC
  5
320
330
1F
100
AcDbEntity
  8
0
  6
Continuous
 62
     7
370
    15
100
AcDbCircle
 10
475.7794051866
 20
459.8794592247
 30
0.0
 40
5.000000000000091
100
AcDbArc
 50
331.5737995268
 51
29.6421229494
  0
ARC
  5
321
330
1F
100
AcDbEntity
  8
0
  6
Continuous
 62
     7
370
    15
100
AcDbCircle
 10
590.5047706213
 20
525.1641475204
 30
0.0
 40
4.999999999999991
100
AcDbArc
 50
151.5737995268
 51
209.6421229494
  0
SPLINE
  5
322
330
1F
100
AcDbEntity
  8
0
  6
Continuous
 62
     7
370
    15
100
AcDbSpline
210
0.0
220
0.0
230
1.0
 70
     8
 71
     3
 72
    10
 73
     6
 74
     0
 42
0.00000001
 43
0.00000001
 12
1.0
 22
0.0
 32
0.0
 13
1.0
 23
0.0
 33
0.0
 40
0.0
 40
0.0
 40
0.0
 40
0.0
 40
0.0892109781042696
 40
0.5438889830832725
 40
1.0
 40
1.0
 40
1.0
 40
1.0
 10
517.9194229814337
 20
553.5718384320187
 30
0.0
 10
518.2034126054679
 20
553.5716126643964
 30
0.0
 10
519.9348007272475
 20
553.5702362360121
 30
0.0
 10
523.1155643970781
 20
553.5383803443026
 30
0.0
 10
525.9959834129727
 20
553.5273352794542
 30
0.0
 10
527.4384589093852
 20
553.52180405802
 30
0.0
  0
ARC
  5
323
330
1F
100
AcDbEntity
  8
0
  6
Continuous
 62
     7
370
    15
100
AcDbCircle
 10
523.8202138131
 20
427.1834328432
 30
0.0
 40
5.000000000000105
100
AcDbArc
 50
3.8140748343
 51
81.8803640555
  0
ARC
  5
324
330
1F
100
AcDbEntity
  8
0
  6
Continuous
 62
     7
370
    15
100
AcDbCircle
 10
542.4639619947
 20
427.1834328432
 30
0.0
 40
5.000000000000105
100
AcDbArc
 50
98.1196359445
 51
176.1859251657
  0
SPLINE
  5
325
330
1F
100
AcDbEntity
  8
0
  6
Continuous
 62
     7
370
    15
100
AcDbSpline
210
0.0
220
0.0
230
1.0
 70
     8
 71
     3
 72
    19
 73
    15
 74
     0
 42
0.00000001
 43
0.00000001
 12
1.0
 22
0.0
 32
0.0
 13
1.0
 23
0.0
 33
0.0
 40
0.0
 40
0.0
 40
0.0
 40
0.0
 40
0.1001030467734111
 40
0.200305530807262
 40
0.3029938467586554
 40
0.4061193793913317
 40
0.5089794873022055
 40
0.6504994736172013
 40
0.7926257473092274
 40
0.9343011348561112
 40
0.9807254632786401
 40
0.9943365567331588
 40
0.9990973805539215
 40
1.0
 40
1.0
 40
1.0
 40
1.0
 10
502.2216345342921
 20
554.3478909069943
 30
0.0
 10
502.3990550024188
 20
555.5958230100391
 30
0.0
 10
502.754072179115
 20
558.0929268482233
 30
0.0
 10
504.0270817154511
 20
561.427157029261
 30
0.0
 10
505.7107632207965
 20
564.3947620511987
 30
0.0
 10
507.7745133753459
 20
566.9508417344225
 30
0.0
 10
510.3959449914376
 20
569.3484890880386
 30
0.0
 10
513.6102321116282
 20
571.3819832607348
 30
0.0
 10
517.3908132784906
 20
572.8488387976715
 30
0.0
 10
520.4329644601198
 20
573.4060290350213
 30
0.0
 10
522.3017448924796
 20
573.5110630213377
 30
0.0
 10
522.9024927921588
 20
573.5209909367295
 30
0.0
 10
523.0812093646471
 20
573.521780542962
 30
0.0
 10
523.1337192833357
 20
573.5218004398844
 30
0.0
 10
523.142088127427
 20
573.5218036109851
 30
0.0
  0
LINE
  5
326
330
1F
100
AcDbEntity
  8
0
  6
Continuous
 62
     7
370
    15
100
AcDbLine
 10
523.1420881274
 20
573.521803611
 30
0.0
 11
543.1420876804
 21
573.521803611
 31
0.0
  0
SPLINE
  5
327
330
1F
100
AcDbEntity
  8
0
  6
Continuous
 62
     7
370
    15
100
AcDbSpline
210
0.0
220
0.0
230
1.0
 70
     8
 71
     3
 72
    19
 73
    15
 74
     0
 42
0.00000001
 43
0.00000001
 12
1.0
 22
0.0
 32
0.0
 13
1.0
 23
0.0
 33
0.0
 40
0.0
 40
0.0
 40
0.0
 40
0.0
 40
0.0009026194460785
 40
0.0056634432668412
 40
0.01927453672136
 40
0.0656988651438888
 40
0.2073742526907726
 40
0.3495005263827985
 40
0.4910205126977943
 40
0.5938806206086681
 40
0.6970061532413445
 40
0.799694469192738
 40
0.8998969532265888
 40
1.0
 40
1.0
 40
1.0
 40
1.0
 10
543.1420876803921
 20
573.5218036109851
 30
0.0
 10
543.1504565244835
 20
573.5218004398845
 30
0.0
 10
543.2029664431723
 20
573.5217805429621
 30
0.0
 10
543.3816830156603
 20
573.5209909367295
 30
0.0
 10
543.9824309153396
 20
573.5110630213378
 30
0.0
 10
545.8512113476993
 20
573.4060290350212
 30
0.0
 10
548.8933625293287
 20
572.8488387976715
 30
0.0
 10
552.6739436961911
 20
571.3819832607348
 30
0.0
 10
555.8882308163816
 20
569.3484890880386
 30
0.0
 10
558.5096624324734
 20
566.9508417344225
 30
0.0
 10
560.5734125870226
 20
564.3947620511987
 30
0.0
 10
562.2570940923682
 20
561.427157029261
 30
0.0
 10
563.5301036287042
 20
558.0929268482233
 30
0.0
 10
563.8851208054004
 20
555.5958230100391
 30
0.0
 10
564.0625412735271
 20
554.3478909069943
 30
0.0
  0
ARC
  5
328
330
1F
100
AcDbEntity
  8
0
  6
Continuous
 62
     7
370
    15
100
AcDbCircle
 10
500.2292094291
 20
554.5218033726
 30
0.0
 40
1.999999999999992
100
AcDbArc
 50
270.0
 51
355.0114580244
  0
ARC
  5
329
330
1F
100
AcDbEntity
  8
0
  6
Continuous
 62
     7
370
    15
100
AcDbCircle
 10
566.0549663787
 20
554.5218033726
 30
0.0
 40
2.000000000000095
100
AcDbArc
 50
184.9885419756
 51
270.0
  0
LINE
  5
32A
330
1F
100
AcDbEntity
  8
0
  6
Continuous
 62
     7
370
    15
100
AcDbLine
 10
537.47503638
 20
427.5160315568
 30
0.0
 11
537.3185639429
 21
425.1689422066
 31
0.0
  0
LINE
  5
32B
330
1F
100
AcDbEntity
  8
0
  6
Continuous
 62
     7
370
    15
100
AcDbLine
 10
528.9656118649
 20
425.1689422066
 30
0.0
 11
528.8091394278
 21
427.5160315568
 31
0.0
  0
ARC
  5
32C
330
1F
100
AcDbEntity
  8
0
  6
Continuous
 62
     7
370
    15
100
AcDbCircle
 10
531.0131940877
 20
424.5218033726
 30
0.0
 40
2.000000000000064
100
AcDbArc
 50
183.8140748343
 51
270.0
  0
LWPOLYLINE
  5
32D
330
1F
100
AcDbEntity
  8
0
  6
Continuous
 62
     7
370
    15
100
AcDbPolyline
 90
        5
 70
   128
 43
0.0
 10
528.9656118649
 20
425.1689422066
 10
528.9877764109
 20
424.8364749486
 10
529.0041681538
 20
424.5905983383
 10
529.0142310943
 20
424.439657026
 10
529.0176239024
 20
424.3887621099
  0
ARC
  5
32E
330
1F
100
AcDbEntity
  8
0
  6
Continuous
 62
     7
370
    15
100
AcDbCircle
 10
535.2709817201
 20
424.5218033726
 30
0.0
 40
2.000000000000064
100
AcDbArc
 50
270.0
 51
356.1859251657
  0
LWPOLYLINE
  5
32F
330
1F
100
AcDbEntity
  8
0
  6
Continuous
 62
     7
370
    15
100
AcDbPolyline
 90
        5
 70
   128
 43
0.0
 10
537.2665519054
 20
424.3887621099
 10
537.2699447136
 20
424.439657026
 10
537.280007654
 20
424.5905983383
 10
537.2963993969
 20
424.8364749486
 10
537.3185639429
 20
425.1689422066
  0
LINE
  5
330
330
1F
100
AcDbEntity
  8
0
  6
Continuous
 62
     7
370
    15
100
AcDbLine
 10
535.2709816462
 20
422.5218030745
 30
0.0
 11
531.0131941616
 21
422.5218030745
 31
0.0
  0
SPLINE
  5
331
330
1F
100
AcDbEntity
  8
0
  6
Continuous
 62
     7
370
    15
100
AcDbSpline
210
0.0
220
0.0
230
1.0
 70
     8
 71
     3
 72
     9
 73
     5
 74
     0
 42
0.00000001
 43
0.00000001
 12
1.0
 22
0.0
 32
0.0
 13
1.0
 23
0.0
 33
0.0
 40
0.0
 40
0.0
 40
0.0
 40
0.0
 40
0.500076502830378
 40
1.0
 40
1.0
 40
1.0
 40
1.0
 10
523.142088127427
 20
576.9315171176838
 30
0.0
 10
526.4759342635508
 20
577.2266908025255
 30
0.0
 10
533.1426064972082
 20
577.8169478595379
 30
0.0
 10
539.8092672982777
 20
577.2266305910073
 30
0.0
 10
543.1420876803921
 20
576.9315171176838
 30
0.0
  0
SPLINE
  5
332
330
1F
100
AcDbEntity
  8
0
  6
Continuous
 62
     7
370
    15
100
AcDbSpline
210
0.0
220
0.0
230
1.0
 70
     8
 71
     3
 72
    10
 73
     6
 74
     0
 42
0.00000001
 43
0.00000001
 12
1.0
 22
0.0
 32
0.0
 13
1.0
 23
0.0
 33
0.0
 40
0.0
 40
0.0
 40
0.0
 40
0.0
 40
0.3260316443037216
 40
0.6539888296213442
 40
0.9999999999999999
 40
0.9999999999999999
 40
0.9999999999999999
 40
0.9999999999999999
 10
543.1420876803921
 20
576.9315171176838
 30
0.0
 10
544.7948618293697
 20
576.7059936103497
 30
0.0
 10
548.1101714019316
 20
576.2536146551458
 30
0.0
 10
553.1194819785857
 20
575.2054319923035
 30
0.0
 10
556.4322411313555
 20
574.2536315501189
 30
0.0
 10
558.1329911175297
 20
573.7649831110882
 30
0.0
  0
SPLINE
  5
333
330
1F
100
AcDbEntity
  8
0
  6
Continuous
 62
     7
370
    15
100
AcDbSpline
210
0.0
220
0.0
230
1.0
 70
     8
 71
     3
 72
     9
 73
     5
 74
     0
 42
0.00000001
 43
0.00000001
 12
1.0
 22
0.0
 32
0.0
 13
1.0
 23
0.0
 33
0.0
 40
0.0
 40
0.0
 40
0.0
 40
0.0
 40
0.49811929036882
 40
1.0
 40
1.0
 40
1.0
 40
1.0
 10
508.1511846902894
 20
573.7649831110882
 30
0.0
 10
510.6033991716134
 20
574.4593025556959
 30
0.0
 10
515.526345399029
 20
575.8531844190014
 30
0.0
 10
520.5971494113318
 20
576.5711726665148
 30
0.0
 10
523.142088127427
 20
576.9315171176838
 30
0.0
  0
ARC
  5
334
330
1F
100
AcDbEntity
  8
0
  6
Continuous
 62
     7
370
    15
100
AcDbCircle
 10
533.1420879039
 20
492.5218033726
 30
0.0
 40
85.00000000000006
100
AcDbArc
 50
107.0982198349
 51
72.9017801651
  0
ARC
  5
335
330
1F
100
AcDbEntity
  8
0
  6
Continuous
 62
     7
370
    15
100
AcDbCircle
 10
596.4449314419
 20
399.5218033726
 30
0.0
 40
4.999999999999943
100
AcDbArc
 50
270.0
 51
304.2421687026
  0
LINE
  5
336
330
1F
100
AcDbEntity
  8
0
  6
Continuous
 62
     7
370
    15
100
AcDbLine
 10
596.4449326667
 20
394.5218059356
 30
0.0
 11
469.8392431411
 21
394.5218059356
 31
0.0
  0
ARC
  5
337
330
1F
100
AcDbEntity
  8
0
  6
Continuous
 62
     7
370
    15
100
AcDbCircle
 10
469.8392443659
 20
399.5218033726
 30
0.0
 40
5.0
100
AcDbArc
 50
235.7578312974
 51
270.0
  0
ARC
  5
338
330
1F
100
AcDbEntity
  8
0
  6
Continuous
 62
     7
370
    15
100
AcDbCircle
 10
533.1420879039
 20
492.5218033726
 30
0.0
 40
117.5
100
AcDbArc
 50
214.2421687026
 51
235.7578312974
  0
ARC
  5
339
330
1F
100
AcDbEntity
  8
0
  6
Continuous
 62
     7
370
    15
100
AcDbCircle
 10
440.1420879039
 20
429.2189598345
 30
0.0
 40
4.999999999999966
100
AcDbArc
 50
180.0
 51
214.2421687026
  0
LINE
  5
33A
330
1F
100
AcDbEntity
  8
0
  6
Continuous
 62
     7
370
    15
100
AcDbLine
 10
435.1420904669
 20
429.2189586098
 30
0.0
 11
435.1420904669
 21
555.8246481354
 31
0.0
  0
ARC
  5
33B
330
1F
100
AcDbEntity
  8
0
  6
Continuous
 62
     7
370
    15
100
AcDbCircle
 10
440.1420879039
 20
555.8246469106
 30
0.0
 40
5.0
100
AcDbArc
 50
145.7578312974
 51
180.0
  0
ARC
  5
33C
330
1F
100
AcDbEntity
  8
0
  6
Continuous
 62
     7
370
    15
100
AcDbCircle
 10
533.1420879039
 20
492.5218033726
 30
0.0
 40
117.5
100
AcDbArc
 50
124.2421687026
 51
145.7578312974
  0
ARC
  5
33D
330
1F
100
AcDbEntity
  8
0
  6
Continuous
 62
     7
370
    15
100
AcDbCircle
 10
469.8392443659
 20
585.5218033726
 30
0.0
 40
5.0
100
AcDbArc
 50
90.0
 51
124.2421687026
  0
LINE
  5
33E
330
1F
100
AcDbEntity
  8
0
  6
Continuous
 62
     7
370
    15
100
AcDbLine
 10
469.8392431411
 20
590.5218008096
 30
0.0
 11
494.1420870992
 21
590.5218008096
 31
0.0
  0
ARC
  5
33F
330
1F
100
AcDbEntity
  8
0
  6
Continuous
 62
     7
370
    15
100
AcDbCircle
 10
494.1420879039
 20
595.5218033726
 30
0.0
 40
5.000000000000012
100
AcDbArc
 50
270.0
 51
318.1896851042
  0
ARC
  5
340
330
1F
100
AcDbEntity
  8
0
  6
Continuous
 62
     7
370
    15
100
AcDbCircle
 10
498.6142238589
 20
591.5218033726
 30
0.0
 40
1.0
100
AcDbArc
 50
90.0
 51
138.1896851042
  0
LINE
  5
341
330
1F
100
AcDbEntity
  8
0
  6
Continuous
 62
     7
370
    15
100
AcDbLine
 10
498.6142235967
 20
592.5218048627
 30
0.0
 11
567.6699522111
 21
592.5218048627
 31
0.0
  0
ARC
  5
342
330
1F
100
AcDbEntity
  8
0
  6
Continuous
 62
     7
370
    15
100
AcDbCircle
 10
567.6699519489
 20
591.5218033726
 30
0.0
 40
1.000000000000023
100
AcDbArc
 50
41.8103148954
 51
90.0
  0
ARC
  5
343
330
1F
100
AcDbEntity
  8
0
  6
Continuous
 62
     7
370
    15
100
AcDbCircle
 10
572.1420879039
 20
595.5218033726
 30
0.0
 40
5.0
100
AcDbArc
 50
221.8103148958
 51
270.0
  0
LINE
  5
344
330
1F
100
AcDbEntity
  8
0
  6
Continuous
 62
     7
370
    15
100
AcDbLine
 10
572.1420887086
 20
590.5218008096
 30
0.0
 11
596.4449326667
 21
590.5218008096
 31
0.0
  0
ARC
  5
345
330
1F
100
AcDbEntity
  8
0
  6
Continuous
 62
     7
370
    15
100
AcDbCircle
 10
596.4449314419
 20
585.5218033726
 30
0.0
 40
5.000000000000016
100
AcDbArc
 50
55.7578312974
 51
90.0
  0
ARC
  5
346
330
1F
100
AcDbEntity
  8
0
  6
Continuous
 62
     7
370
    15
100
AcDbCircle
 10
533.1420879039
 20
492.5218033726
 30
0.0
 40
117.4999999999999
100
AcDbArc
 50
34.2421687026
 51
55.7578312974
  0
ARC
  5
347
330
1F
100
AcDbEntity
  8
0
  6
Continuous
 62
     7
370
    15
100
AcDbCircle
 10
626.1420879039
 20
555.8246469106
 30
0.0
 40
5.0
100
AcDbArc
 50
0.0
 51
34.2421687026
  0
LINE
  5
348
330
1F
100
AcDbEntity
  8
0
  6
Continuous
 62
     7
370
    15
100
AcDbLine
 10
631.1420853409
 20
555.8246481354
 30
0.0
 11
631.1420853409
 21
429.2189586098
 31
0.0
  0
ARC
  5
349
330
1F
100
AcDbEntity
  8
0
  6
Continuous
 62
     7
370
    15
100
AcDbCircle
 10
626.1420879039
 20
429.2189598345
 30
0.0
 40
4.99999999999992
100
AcDbArc
 50
325.7578312974
 51
0.0
  0
ARC
  5
34A
330
1F
100
AcDbEntity
  8
0
  6
Continuous
 62
     7
370
    15
100
AcDbCircle
 10
533.1420879039
 20
492.5218033726
 30
0.0
 40
117.4999999999999
100
AcDbArc
 50
304.2421687026
 51
325.7578312974
  0
CIRCLE
  5
34B
330
1F
100
AcDbEntity
  8
0
  6
Continuous
 62
     7
370
    15
100
AcDbCircle
 10
457.1281089264
 20
568.5357823501
 30
0.0
 40
6.000000000000057
  0
CIRCLE
  5
34C
330
1F
100
AcDbEntity
  8
0
  6
Continuous
 62
     7
370
    15
100
AcDbCircle
 10
457.1281089264
 20
416.507824395
 30
0.0
 40
6.0
  0
CIRCLE
  5
34D
330
1F
100
AcDbEntity
  8
0
  6
Continuous
 62
     7
370
    15
100
AcDbCircle
 10
609.1560668815
 20
416.507824395
 30
0.0
 40
6.0
  0
CIRCLE
  5
34E
330
1F
100
AcDbEntity
  8
0
  6
Continuous
 62
     7
370
    15
100
AcDbCircle
 10
609.1560668815
 20
568.5357823501
 30
0.0
 40
5.999999999999886
  0
CIRCLE
  5
34F
330
1F
100
AcDbEntity
  8
0
  6
Continuous
 62
     7
370
    15
100
AcDbCircle
 10
588.7836106484
 20
403.4767532761
 30
0.0
 40
4.0
  0
CIRCLE
  5
350
330
1F
100
AcDbEntity
  8
0
  6
Continuous
 62
     7
370
    15
100
AcDbCircle
 10
477.5005651594
 20
581.566853469
 30
0.0
 40
3.999999999999943
  0
INSERT
  5
3A3
330
1F
100
AcDbEntity
  8
SLD-0
 62
     7
100
AcDbBlockReference
  2
SW_CENTERMARKSYMBOL_1
 10
457.1281089264
 20
568.5357823501
 30
0.0
  0
ENDSEC
  0
SECTION
  2
OBJECTS
  0
DICTIONARY
  5
C
330
0
100
AcDbDictionary
281
     1
  3
ACAD_GROUP
350
D
  3
ACAD_LAYOUT
350
1A
  3
ACAD_MLINESTYLE
350
17
  3
ACAD_PLOTSETTINGS
350
19
  3
ACAD_PLOTSTYLENAME
350
E
  0
DICTIONARY
  5
D
102
{ACAD_REACTORS
330
C
102
}
330
C
100
AcDbDictionary
281
     1
  0
DICTIONARY
  5
1A
102
{ACAD_REACTORS
330
C
102
}
330
C
100
AcDbDictionary
281
     1
  3
Layout1
350
1E
  3
Layout2
350
26
  3
Model
350
22
  0
DICTIONARY
  5
17
102
{ACAD_REACTORS
330
C
102
}
330
C
100
AcDbDictionary
281
     1
  3
Standard
350
18
  0
DICTIONARY
  5
19
102
{ACAD_REACTORS
330
C
102
}
330
C
100
AcDbDictionary
281
     1
  0
ACDBDICTIONARYWDFLT
  5
E
102
{ACAD_REACTORS
330
C
102
}
330
C
100
AcDbDictionary
281
     1
  3
Normal
350
F
100
AcDbDictionaryWithDefault
340
F
  0
LAYOUT
  5
1E
102
{ACAD_REACTORS
330
1A
102
}
330
1A
100
AcDbPlotSettings
  1

  2
none_device
  4

  6

 40
0.0
 41
0.0
 42
0.0
 43
0.0
 44
0.0
 45
0.0
 46
0.0
 47
0.0
 48
0.0
 49
0.0
140
0.0
141
0.0
142
1.0
143
1.0
 70
   688
 72
     0
 73
     0
 74
     5
  7

 75
    16
147
1.0
148
0.0
149
0.0
100
AcDbLayout
  1
Layout1
 70
     1
 71
     1
 10
0.0
 20
0.0
 11
420.0
 21
297.0
 12
0.0
 22
0.0
 32
0.0
 14
1.0000000000E+20
 24
1.0000000000E+20
 34
1.0000000000E+20
 15
-1.0000000000E+20
 25
-1.0000000000E+20
 35
-1.0000000000E+20
146
0.0
 13
0.0
 23
0.0
 33
0.0
 16
1.0
 26
0.0
 36
0.0
 17
0.0
 27
1.0
 37
0.0
 76
     0
330
1B
  0
LAYOUT
  5
26
102
{ACAD_REACTORS
330
1A
102
}
330
1A
100
AcDbPlotSettings
  1

  2
none_device
  4

  6

 40
0.0
 41
0.0
 42
0.0
 43
0.0
 44
0.0
 45
0.0
 46
0.0
 47
0.0
 48
0.0
 49
0.0
140
0.0
141
0.0
142
1.0
143
1.0
 70
   688
 72
     0
 73
     0
 74
     5
  7

 75
    16
147
1.0
148
0.0
149
0.0
100
AcDbLayout
  1
Layout2
 70
     1
 71
     2
 10
0.0
 20
0.0
 11
0.0
 21
0.0
 12
0.0
 22
0.0
 32
0.0
 14
0.0
 24
0.0
 34
0.0
 15
0.0
 25
0.0
 35
0.0
146
0.0
 13
0.0
 23
0.0
 33
0.0
 16
1.0
 26
0.0
 36
0.0
 17
0.0
 27
1.0
 37
0.0
 76
     0
330
23
  0
LAYOUT
  5
22
102
{ACAD_REACTORS
330
1A
102
}
330
1A
100
AcDbPlotSettings
  1

  2
none_device
  4

  6

 40
0.0
 41
0.0
 42
0.0
 43
0.0
 44
0.0
 45
0.0
 46
0.0
 47
0.0
 48
0.0
 49
0.0
140
0.0
141
0.0
142
1.0
143
1.0
 70
  1712
 72
     0
 73
     0
 74
     0
  7

 75
     0
147
1.0
148
0.0
149
0.0
100
AcDbLayout
  1
Model
 70
     1
 71
     0
 10
0.0
 20
0.0
 11
1050.0
 21
1485.0
 12
0.0
 22
0.0
 32
0.0
 14
0.0
 24
0.0
 34
0.0
 15
1050.0
 25
1485.0
 35
0.0
146
0.0
 13
0.0
 23
0.0
 33
0.0
 16
1.0
 26
0.0
 36
0.0
 17
0.0
 27
1.0
 37
0.0
 76
     0
330
1F
331
29
  0
MLINESTYLE
  5
18
102
{ACAD_REACTORS
330
17
102
}
330
17
100
AcDbMlineStyle
  2
Standard
 70
     0
  3

 62
   256
 51
90.0
 52
90.0
 71
     2
 49
0.5
 62
   256
  6
BYLAYER
 49
-0.5
 62
   256
  6
BYLAYER
  0
ACDBPLACEHOLDER
  5
F
102
{ACAD_REACTORS
330
E
102
}
330
E
  0
ENDSEC
  0
EOF
