  0
SECTION
  2
HEADER
  9
$ACADVER
  1
AC1015
  9
$ACADMAINTVER
 70
     6
  9
$DWGCODEPAGE
  3
DOS932
  9
$INSBASE
 10
0.0
 20
0.0
 30
0.0
  9
$EXTMIN
 10
0.0
 20
0.0
 30
0.0
  9
$EXTMAX
 10
1260.0
 20
1782.0
 30
0.0
  9
$LIMMIN
 10
0.0
 20
0.0
  9
$LIMMAX
 10
1260.0
 20
1782.0
  9
$ORTHOMODE
 70
     0
  9
$REGENMODE
 70
     1
  9
$FILLMODE
 70
     1
  9
$QTEXTMODE
 70
     0
  9
$MIRRTEXT
 70
     1
  9
$LTSCALE
 40
6.0
  9
$ATTMODE
 70
     1
  9
$TEXTSIZE
 40
21.0
  9
$TRACEWID
 40
1.0
  9
$TEXTSTYLE
  7
Standard
  9
$CLAYER
  8
0
  9
$CELTYPE
  6
ByLayer
  9
$CECOLOR
 62
   256
  9
$CELTSCALE
 40
1.0
  9
$DISPSILH
 70
     0
  9
$DIMSCALE
 40
1.0
  9
$DIMASZ
 40
15.0
  9
$DIMEXO
 40
6.0
  9
$DIMDLI
 40
3.75
  9
$DIMRND
 40
0.0
  9
$DIMDLE
 40
0.0
  9
$DIMEXE
 40
6.0
  9
$DIMTP
 40
0.0
  9
$DIMTM
 40
0.0
  9
$DIMTXT
 40
21.0
  9
$DIMCEN
 40
2.5
  9
$DIMTSZ
 40
0.0
  9
$DIMTOL
 70
     0
  9
$DIMLIM
 70
     0
  9
$DIMTIH
 70
     1
  9
$DIMTOH
 70
     1
  9
$DIMSE1
 70
     0
  9
$DIMSE2
 70
     0
  9
$DIMTAD
 70
     1
  9
$DIMZIN
 70
     1
  9
$DIMBLK
  1

  9
$DIMASO
 70
     1
  9
$DIMSHO
 70
     1
  9
$DIMPOST
  1

  9
$DIMAPOST
  1

  9
$DIMALT
 70
     0
  9
$DIMALTD
 70
     3
  9
$DIMALTF
 40
0.0393700787
  9
$DIMLFAC
 40
1.0
  9
$DIMTOFL
 70
     1
  9
$DIMTVP
 40
0.0
  9
$DIMTIX
 70
     0
  9
$DIMSOXD
 70
     0
  9
$DIMSAH
 70
     0
  9
$DIMBLK1
  1

  9
$DIMBLK2
  1

  9
$DIMSTYLE
  2
ISO-25
  9
$DIMCLRD
 70
     0
  9
$DIMCLRE
 70
     0
  9
$DIMCLRT
 70
     0
  9
$DIMTFAC
 40
1.0
  9
$DIMGAP
 40
9.144
  9
$DIMJUST
 70
     0
  9
$DIMSD1
 70
     0
  9
$DIMSD2
 70
     0
  9
$DIMTOLJ
 70
     0
  9
$DIMTZIN
 70
     1
  9
$DIMALTZ
 70
     0
  9
$DIMALTTZ
 70
     0
  9
$DIMUPT
 70
     0
  9
$DIMDEC
 70
     0
  9
$DIMTDEC
 70
     0
  9
$DIMALTU
 70
     2
  9
$DIMALTTD
 70
     3
  9
$DIMTXSTY
  7
Standard
  9
$DIMAUNIT
 70
     0
  9
$DIMADEC
 70
     0
  9
$DIMALTRND
 40
0.0
  9
$DIMAZIN
 70
     0
  9
$DIMDSEP
 70
    44
  9
$DIMATFIT
 70
     3
  9
$DIMFRAC
 70
     0
  9
$DIMLDRBLK
  1

  9
$DIMLUNIT
 70
     2
  9
$DIMLWD
 70
    -2
  9
$DIMLWE
 70
    -2
  9
$DIMTMOVE
 70
     0
  9
$LUNITS
 70
     2
  9
$LUPREC
 70
     0
  9
$SKETCHINC
 40
1.0
  9
$FILLETRAD
 40
10.0
  9
$AUNITS
 70
     0
  9
$AUPREC
 70
     0
  9
$MENU
  1
.
  9
$ELEVATION
 40
0.0
  9
$PELEVATION
 40
0.0
  9
$THICKNESS
 40
0.0
  9
$LIMCHECK
 70
     0
  9
$CHAMFERA
 40
10.0
  9
$CHAMFERB
 40
10.0
  9
$CHAMFERC
 40
20.0
  9
$CHAMFERD
 40
0.0
  9
$SKPOLY
 70
     0
  9
$TDCREATE
 40
2456954.657923541
  9
$TDUCREATE
 40
2456954.282923541
  9
$TDUPDATE
 40
2456954.657925891
  9
$TDUUPDATE
 40
2456954.282925891
  9
$TDINDWG
 40
0.0000000116
  9
$TDUSRTIMER
 40
0.0000000116
  9
$USRTIMER
 70
     1
  9
$ANGBASE
 50
0.0
  9
$ANGDIR
 70
     0
  9
$PDMODE
 70
     0
  9
$PDSIZE
 40
-1.0
  9
$PLINEWID
 40
0.0
  9
$SPLFRAME
 70
     0
  9
$SPLINETYPE
 70
     6
  9
$SPLINESEGS
 70
     8
  9
$HANDSEED
  5
49F
  9
$SURFTAB1
 70
     6
  9
$SURFTAB2
 70
     6
  9
$SURFTYPE
 70
     6
  9
$SURFU
 70
     6
  9
$SURFV
 70
     6
  9
$UCSBASE
  2

  9
$UCSNAME
  2

  9
$UCSORG
 10
0.0
 20
0.0
 30
0.0
  9
$UCSXDIR
 10
1.0
 20
0.0
 30
0.0
  9
$UCSYDIR
 10
0.0
 20
1.0
 30
0.0
  9
$UCSORTHOREF
  2

  9
$UCSORTHOVIEW
 70
     0
  9
$UCSORGTOP
 10
0.0
 20
0.0
 30
0.0
  9
$UCSORGBOTTOM
 10
0.0
 20
0.0
 30
0.0
  9
$UCSORGLEFT
 10
0.0
 20
0.0
 30
0.0
  9
$UCSORGRIGHT
 10
0.0
 20
0.0
 30
0.0
  9
$UCSORGFRONT
 10
0.0
 20
0.0
 30
0.0
  9
$UCSORGBACK
 10
0.0
 20
0.0
 30
0.0
  9
$PUCSBASE
  2

  9
$PUCSNAME
  2

  9
$PUCSORG
 10
0.0
 20
0.0
 30
0.0
  9
$PUCSXDIR
 10
1.0
 20
0.0
 30
0.0
  9
$PUCSYDIR
 10
0.0
 20
1.0
 30
0.0
  9
$PUCSORTHOREF
  2

  9
$PUCSORTHOVIEW
 70
     0
  9
$PUCSORGTOP
 10
0.0
 20
0.0
 30
0.0
  9
$PUCSORGBOTTOM
 10
0.0
 20
0.0
 30
0.0
  9
$PUCSORGLEFT
 10
0.0
 20
0.0
 30
0.0
  9
$PUCSORGRIGHT
 10
0.0
 20
0.0
 30
0.0
  9
$PUCSORGFRONT
 10
0.0
 20
0.0
 30
0.0
  9
$PUCSORGBACK
 10
0.0
 20
0.0
 30
0.0
  9
$USERI1
 70
     0
  9
$USERI2
 70
     0
  9
$USERI3
 70
     0
  9
$USERI4
 70
     0
  9
$USERI5
 70
     0
  9
$USERR1
 40
0.0
  9
$USERR2
 40
0.0
  9
$USERR3
 40
0.0
  9
$USERR4
 40
0.0
  9
$USERR5
 40
0.0
  9
$WORLDVIEW
 70
     1
  9
$SHADEDGE
 70
     3
  9
$SHADEDIF
 70
    70
  9
$TILEMODE
 70
     1
  9
$MAXACTVP
 70
    64
  9
$PINSBASE
 10
0.0
 20
0.0
 30
0.0
  9
$PLIMCHECK
 70
     0
  9
$PEXTMIN
 10
1.0000000000E+20
 20
1.0000000000E+20
 30
1.0000000000E+20
  9
$PEXTMAX
 10
-1.0000000000E+20
 20
-1.0000000000E+20
 30
-1.0000000000E+20
  9
$PLIMMIN
 10
0.0
 20
0.0
  9
$PLIMMAX
 10
420.0
 20
297.0
  9
$UNITMODE
 70
     0
  9
$VISRETAIN
 70
     1
  9
$PLINEGEN
 70
     0
  9
$PSLTSCALE
 70
     1
  9
$TREEDEPTH
 70
  3020
  9
$CMLSTYLE
  2
Standard
  9
$CMLJUST
 70
     0
  9
$CMLSCALE
 40
20.0
  9
$PROXYGRAPHICS
 70
     1
  9
$MEASUREMENT
 70
     1
  9
$CELWEIGHT
370
    -1
  9
$ENDCAPS
280
     0
  9
$JOINSTYLE
280
     0
  9
$LWDISPLAY
290
     1
  9
$INSUNITS
 70
     4
  9
$HYPERLINKBASE
  1

  9
$STYLESHEET
  1

  9
$XEDIT
290
     1
  9
$CEPSNTYPE
380
     0
  9
$PSTYLEMODE
290
     1
  9
$FINGERPRINTGUID
  2
{C9017CCD-3880-412E-B5C6-FE00C0BE9700}
  9
$VERSIONGUID
  2
{FAEB1C32-E019-11D5-929B-00C0DF256EC4}
  9
$EXTNAMES
290
     1
  9
$PSVPSCALE
 40
0.0
  9
$OLESTARTUP
290
     0
  0
ENDSEC
  0
SECTION
  2
CLASSES
  0
CLASS
  1
ACDBDICTIONARYWDFLT
  2
AcDbDictionaryWithDefault
  3
ObjectDBX Classes
 90
        0
280
     0
281
     0
  0
CLASS
  1
VISUALSTYLE
  2
AcDbVisualStyle
  3
ObjectDBX Classes
 90
     4095
280
     0
281
     0
  0
CLASS
  1
MATERIAL
  2
AcDbMaterial
  3
ObjectDBX Classes
 90
     1153
280
     0
281
     0
  0
CLASS
  1
ACDBPLACEHOLDER
  2
AcDbPlaceHolder
  3
ObjectDBX Classes
 90
        0
280
     0
281
     0
  0
CLASS
  1
LAYOUT
  2
AcDbLayout
  3
ObjectDBX Classes
 90
        0
280
     0
281
     0
  0
ENDSEC
  0
SECTION
  2
TABLES
  0
TABLE
  2
VPORT
  5
8
330
0
100
AcDbSymbolTable
 70
     1
  0
VPORT
  5
29
330
8
100
AcDbSymbolTableRecord
100
AcDbViewportTableRecord
  2
*Active
 70
     0
 10
0.0
 20
0.0
 11
1.0
 21
1.0
 12
630.0
 22
891.0
 13
0.0
 23
0.0
 14
10.0
 24
10.0
 15
10.0
 25
10.0
 16
0.0
 26
0.0
 36
1.0
 17
0.0
 27
0.0
 37
0.0
 40
1782.0
 41
0.7070707071
 42
50.0
 43
0.0
 44
0.0
 50
0.0
 51
0.0
 71
     0
 72
  2000
 73
     1
 74
     3
 75
     0
 76
     0
 77
     0
 78
     0
281
     0
 65
     1
110
0.0
120
0.0
130
0.0
111
1.0
121
0.0
131
0.0
112
0.0
122
1.0
132
0.0
 79
     0
146
0.0
  0
ENDTAB
  0
TABLE
  2
LTYPE
  5
5
330
0
100
AcDbSymbolTable
 70
     6
  0
LTYPE
  5
14
330
5
100
AcDbSymbolTableRecord
100
AcDbLinetypeTableRecord
  2
ByBlock
 70
     0
  3

 72
    65
 73
     0
 40
0.0
  0
LTYPE
  5
15
330
5
100
AcDbSymbolTableRecord
100
AcDbLinetypeTableRecord
  2
ByLayer
 70
     0
  3

 72
    65
 73
     0
 40
0.0
  0
LTYPE
  5
16
330
5
100
AcDbSymbolTableRecord
100
AcDbLinetypeTableRecord
  2
Continuous
 70
     0
  3
Solid line
 72
    65
 73
     0
 40
0.0
  0
LTYPE
  5
3F
330
5
100
AcDbSymbolTableRecord
100
AcDbLinetypeTableRecord
  2
HIDDEN
 70
     0
  3
Hidden __ __ __ __ __ __ __ __ __ __ __ __ __ __
 72
    65
 73
     2
 40
1.905
 49
1.27
 74
     0
 49
-0.635
 74
     0
  0
LTYPE
  5
40
330
5
100
AcDbSymbolTableRecord
100
AcDbLinetypeTableRecord
  2
PHANTOM
 70
     0
  3
Phantom ______  __  __  ______  __  __  ______
 72
    65
 73
     6
 40
12.7
 49
6.35
 74
     0
 49
-1.27
 74
     0
 49
1.27
 74
     0
 49
-1.27
 74
     0
 49
1.27
 74
     0
 49
-1.27
 74
     0
  0
LTYPE
  5
41
330
5
100
AcDbSymbolTableRecord
100
AcDbLinetypeTableRecord
  2
CENTER
 70
     0
  3
Center ____ _ ____ _ ____ _ ____ _ ____ _ ____
 72
    65
 73
     4
 40
10.16
 49
6.35
 74
     0
 49
-1.27
 74
     0
 49
1.27
 74
     0
 49
-1.27
 74
     0
  0
LTYPE
  5
42
330
5
100
AcDbSymbolTableRecord
100
AcDbLinetypeTableRecord
  2
CENTERX2
 70
     0
  3
Center (2x) ________  __  ________  __  _____
 72
    65
 73
     4
 40
20.32
 49
12.7
 74
     0
 49
-2.54
 74
     0
 49
2.54
 74
     0
 49
-2.54
 74
     0
  0
LTYPE
  5
43
330
5
100
AcDbSymbolTableRecord
100
AcDbLinetypeTableRecord
  2
DOT2
 70
     0
  3
Dot (.5x) ........................................
 72
    65
 73
     2
 40
0.635
 49
0.0
 74
     0
 49
-0.635
 74
     0
  0
ENDTAB
  0
TABLE
  2
LAYER
  5
2
330
0
100
AcDbSymbolTable
 70
    11
  0
LAYER
  5
10
330
2
100
AcDbSymbolTableRecord
100
AcDbLayerTableRecord
  2
0
 70
     0
 62
     7
  6
Continuous
370
    -3
390
F
  0
LAYER
  5
44
330
2
100
AcDbSymbolTableRecord
100
AcDbLayerTableRecord
  2
SLD-0
 70
     0
 62
   179
  6
Continuous
370
    -3
390
F
  0
LAYER
  5
45
330
2
100
AcDbSymbolTableRecord
100
AcDbLayerTableRecord
  2
AM_6
 70
     0
 62
     2
  6
Continuous
370
    40
390
F
  0
LAYER
  5
46
330
2
100
AcDbSymbolTableRecord
100
AcDbLayerTableRecord
  2
AM_5
 70
     0
 62
     3
  6
Continuous
370
    15
390
F
  0
LAYER
  5
47
330
2
100
AcDbSymbolTableRecord
100
AcDbLayerTableRecord
  2
AM_7
 70
     0
 62
     4
  6
Continuous
370
    15
390
F
  0
LAYER
  5
48
330
2
100
AcDbSymbolTableRecord
100
AcDbLayerTableRecord
  2
SLD-DEFPOINTS
 70
     0
 62
   179
  6
Continuous
370
    -3
390
F
  0
LAYER
  5
49
330
2
100
AcDbSymbolTableRecord
100
AcDbLayerTableRecord
  2
AM_0
 70
     0
 62
   179
  6
Continuous
370
    60
390
F
  0
LAYER
  5
4A
330
2
100
AcDbSymbolTableRecord
100
AcDbLayerTableRecord
  2
AM_CL
 70
     0
 62
     1
  6
Continuous
370
    15
390
F
  0
LAYER
  5
4B
330
2
100
AcDbSymbolTableRecord
100
AcDbLayerTableRecord
  2
6
 70
     0
 62
     2
  6
Continuous
370
    -3
390
F
  0
LAYER
  5
4C
330
2
100
AcDbSymbolTableRecord
100
AcDbLayerTableRecord
  2
AM_4
 70
     0
 62
     3
  6
Continuous
370
    15
390
F
  0
LAYER
  5
4D
330
2
100
AcDbSymbolTableRecord
100
AcDbLayerTableRecord
  2
AM_8
 70
     0
 62
     1
  6
Continuous
370
    15
390
F
  0
ENDTAB
  0
TABLE
  2
STYLE
  5
3
330
0
100
AcDbSymbolTable
 70
     1
  0
STYLE
  5
11
330
3
100
AcDbSymbolTableRecord
100
AcDbTextStyleTableRecord
  2
Standard
 70
     0
 40
0.0
 41
1.0
 50
0.0
 71
     0
 42
21.0
  3
txt
  4
bigfont
  0
ENDTAB
  0
TABLE
  2
VIEW
  5
6
330
0
100
AcDbSymbolTable
 70
     0
  0
ENDTAB
  0
TABLE
  2
UCS
  5
7
330
0
100
AcDbSymbolTable
 70
     0
  0
ENDTAB
  0
TABLE
  2
APPID
  5
9
330
0
100
AcDbSymbolTable
 70
     1
  0
APPID
  5
12
330
9
100
AcDbSymbolTableRecord
100
AcDbRegAppTableRecord
  2
ACAD
 70
     0
  0
ENDTAB
  0
TABLE
  2
DIMSTYLE
  5
A
330
0
100
AcDbSymbolTable
 70
     1
100
AcDbDimStyleTable
  0
DIMSTYLE
105
27
330
A
100
AcDbSymbolTableRecord
100
AcDbDimStyleTableRecord
  2
ISO-25
 70
     0
 41
2.5
 42
0.625
 43
3.75
 44
1.25
 73
     0
 74
     0
 77
     1
 78
     8
140
2.5
141
2.5
143
0.0393700787
147
0.625
171
     3
172
     1
178
     0
271
     2
272
     2
274
     3
278
    44
283
     0
284
     8
340
11
  0
ENDTAB
  0
TABLE
  2
BLOCK_RECORD
  5
1
330
0
100
AcDbSymbolTable
 70
     3
  0
BLOCK_RECORD
  5
1F
330
1
100
AcDbSymbolTableRecord
100
AcDbBlockTableRecord
  2
*Model_Space
340
22
  0
BLOCK_RECORD
  5
1B
330
1
100
AcDbSymbolTableRecord
100
AcDbBlockTableRecord
  2
*Paper_Space
340
1E
  0
BLOCK_RECORD
  5
23
330
1
100
AcDbSymbolTableRecord
100
AcDbBlockTableRecord
  2
*Paper_Space0
340
26
  0
BLOCK_RECORD
  5
2BA
330
1
100
AcDbSymbolTableRecord
100
AcDbBlockTableRecord
  2
SW_CENTERMARKSYMBOL_0
340
0
102
{BLKREFS
331
2C5
102
}
  0
BLOCK_RECORD
  5
45A
330
1
100
AcDbSymbolTableRecord
100
AcDbBlockTableRecord
  2
SW_CENTERMARKSYMBOL_1
340
0
102
{BLKREFS
331
49E
102
}
  0
ENDTAB
  0
ENDSEC
  0
SECTION
  2
BLOCKS
  0
BLOCK
  5
20
330
1F
100
AcDbEntity
  8
0
100
AcDbBlockBegin
  2
*Model_Space
 70
     0
 10
0.0
 20
0.0
 30
0.0
  3
*Model_Space
  1

  0
ENDBLK
  5
21
330
1F
100
AcDbEntity
  8
0
100
AcDbBlockEnd
  0
BLOCK
  5
1C
330
1B
100
AcDbEntity
 67
     1
  8
0
100
AcDbBlockBegin
  2
*Paper_Space
 70
     0
 10
0.0
 20
0.0
 30
0.0
  3
*Paper_Space
  1

  0
ENDBLK
  5
1D
330
1B
100
AcDbEntity
 67
     1
  8
0
100
AcDbBlockEnd
  0
BLOCK
  5
24
330
23
100
AcDbEntity
  8
0
100
AcDbBlockBegin
  2
*Paper_Space0
 70
     0
 10
0.0
 20
0.0
 30
0.0
  3
*Paper_Space0
  1

  0
ENDBLK
  5
25
330
23
100
AcDbEntity
  8
0
100
AcDbBlockEnd
  0
BLOCK
  5
2BB
330
2BA
100
AcDbEntity
  8
0
100
AcDbBlockBegin
  2
SW_CENTERMARKSYMBOL_0
 70
     0
 10
0.0
 20
0.0
 30
0.0
  3
SW_CENTERMARKSYMBOL_0
  1

  0
LINE
  5
2BD
330
2BA
100
AcDbEntity
  8
SLD-0
 62
     0
100
AcDbLine
 10
0.0
 20
0.0
 30
0.0
 11
0.0
 21
2.5
 31
0.0
  0
LINE
  5
2BE
330
2BA
100
AcDbEntity
  8
SLD-0
 62
     0
100
AcDbLine
 10
0.0
 20
0.0
 30
0.0
 11
-2.5
 21
0.0
 31
0.0
  0
LINE
  5
2BF
330
2BA
100
AcDbEntity
  8
SLD-0
 62
     0
100
AcDbLine
 10
0.0
 20
0.0
 30
0.0
 11
0.0
 21
-2.5
 31
0.0
  0
LINE
  5
2C0
330
2BA
100
AcDbEntity
  8
SLD-0
 62
     0
100
AcDbLine
 10
0.0
 20
0.0
 30
0.0
 11
2.5
 21
0.0
 31
0.0
  0
LINE
  5
2C1
330
2BA
100
AcDbEntity
  8
SLD-0
 62
     0
100
AcDbLine
 10
0.0
 20
5.0
 30
0.0
 11
0.0
 21
351.1199585295
 31
0.0
  0
LINE
  5
2C2
330
2BA
100
AcDbEntity
  8
SLD-0
 62
     0
100
AcDbLine
 10
-5.0
 20
0.0
 30
0.0
 11
-28.0
 21
0.0
 31
0.0
  0
LINE
  5
2C3
330
2BA
100
AcDbEntity
  8
SLD-0
 62
     0
100
AcDbLine
 10
0.0
 20
-5.0
 30
0.0
 11
0.0
 21
-310.0198057973
 31
0.0
  0
LINE
  5
2C4
330
2BA
100
AcDbEntity
  8
SLD-0
 62
     0
100
AcDbLine
 10
5.0
 20
0.0
 30
0.0
 11
28.0
 21
0.0
 31
0.0
  0
ENDBLK
  5
2BC
330
2BA
100
AcDbEntity
  8
0
100
AcDbBlockEnd
  0
BLOCK
  5
45B
330
45A
100
AcDbEntity
  8
0
100
AcDbBlockBegin
  2
SW_CENTERMARKSYMBOL_1
 70
     0
 10
0.0
 20
0.0
 30
0.0
  3
SW_CENTERMARKSYMBOL_1
  1

  0
ARC
  5
45D
330
45A
100
AcDbEntity
  8
SLD-0
 62
     0
100
AcDbCircle
 10
76.0139789776
 20
-76.0139789776
 30
0.0
 40
107.5
100
AcDbArc
 50
135.0
 51
136.3324599887
  0
ARC
  5
45E
330
45A
100
AcDbEntity
  8
SLD-0
 62
     0
100
AcDbCircle
 10
76.0139789776
 20
-76.0139789776
 30
0.0
 40
107.5
100
AcDbArc
 50
133.6675400113
 51
135.0
  0
ARC
  5
45F
330
45A
100
AcDbEntity
  8
SLD-0
 62
     0
100
AcDbCircle
 10
76.0139789776
 20
-76.0139789776
 30
0.0
 40
107.5
100
AcDbArc
 50
45.0
 51
46.3324599887
  0
ARC
  5
460
330
45A
100
AcDbEntity
  8
SLD-0
 62
     0
100
AcDbCircle
 10
76.0139789776
 20
-76.0139789776
 30
0.0
 40
107.5
100
AcDbArc
 50
43.6675400113
 51
45.0
  0
ARC
  5
461
330
45A
100
AcDbEntity
  8
SLD-0
 62
     0
100
AcDbCircle
 10
76.0139789776
 20
-76.0139789776
 30
0.0
 40
107.5
100
AcDbArc
 50
315.0
 51
316.3324599887
  0
ARC
  5
462
330
45A
100
AcDbEntity
  8
SLD-0
 62
     0
100
AcDbCircle
 10
76.0139789776
 20
-76.0139789776
 30
0.0
 40
107.5
100
AcDbArc
 50
313.6675400113
 51
315.0
  0
ARC
  5
463
330
45A
100
AcDbEntity
  8
SLD-0
 62
     0
100
AcDbCircle
 10
76.0139789776
 20
-76.0139789776
 30
0.0
 40
107.5
100
AcDbArc
 50
225.0
 51
226.3324599887
  0
ARC
  5
464
330
45A
100
AcDbEntity
  8
SLD-0
 62
     0
100
AcDbCircle
 10
76.0139789776
 20
-76.0139789776
 30
0.0
 40
107.5
100
AcDbArc
 50
223.6675400113
 51
225.0
  0
ARC
  5
465
330
45A
100
AcDbEntity
  8
SLD-0
 62
     0
100
AcDbCircle
 10
76.0139789776
 20
-76.0139789776
 30
0.0
 40
39.00000000000005
100
AcDbArc
 50
210.0
 51
213.672806379
  0
ARC
  5
466
330
45A
100
AcDbEntity
  8
SLD-0
 62
     0
100
AcDbCircle
 10
76.0139789776
 20
-76.0139789776
 30
0.0
 40
39.00000000000005
100
AcDbArc
 50
206.327193621
 51
210.0
  0
ARC
  5
467
330
45A
100
AcDbEntity
  8
SLD-0
 62
     0
100
AcDbCircle
 10
76.0139789776
 20
-76.0139789776
 30
0.0
 40
38.99999999999995
100
AcDbArc
 50
90.0
 51
93.672806379
  0
ARC
  5
468
330
45A
100
AcDbEntity
  8
SLD-0
 62
     0
100
AcDbCircle
 10
76.0139789776
 20
-76.0139789776
 30
0.0
 40
38.99999999999995
100
AcDbArc
 50
86.327193621
 51
90.0
  0
ARC
  5
469
330
45A
100
AcDbEntity
  8
SLD-0
 62
     0
100
AcDbCircle
 10
76.0139789776
 20
-76.0139789776
 30
0.0
 40
39.00000000000004
100
AcDbArc
 50
330.0
 51
333.672806379
  0
ARC
  5
46A
330
45A
100
AcDbEntity
  8
SLD-0
 62
     0
100
AcDbCircle
 10
76.0139789776
 20
-76.0139789776
 30
0.0
 40
39.00000000000005
100
AcDbArc
 50
326.327193621
 51
330.0
  0
ARC
  5
46B
330
45A
100
AcDbEntity
  8
SLD-0
 62
     0
100
AcDbCircle
 10
76.0139789776
 20
-76.0139789776
 30
0.0
 40
112.2000000000001
100
AcDbArc
 50
75.0
 51
76.2766439285
  0
ARC
  5
46C
330
45A
100
AcDbEntity
  8
SLD-0
 62
     0
100
AcDbCircle
 10
76.0139789776
 20
-76.0139789776
 30
0.0
 40
112.2000000000001
100
AcDbArc
 50
73.7233560715
 51
75.0
  0
ARC
  5
46D
330
45A
100
AcDbEntity
  8
SLD-0
 62
     0
100
AcDbCircle
 10
76.0139789776
 20
-76.0139789776
 30
0.0
 40
112.2000000000001
100
AcDbArc
 50
77.5532878571
 51
81.8938772141
  0
ARC
  5
46E
330
45A
100
AcDbEntity
  8
SLD-0
 62
     0
100
AcDbCircle
 10
76.0139789776
 20
-76.0139789776
 30
0.0
 40
112.2000000000001
100
AcDbArc
 50
68.1061227859
 51
72.4467121429
  0
ARC
  5
46F
330
45A
100
AcDbEntity
  8
SLD-0
 62
     0
100
AcDbCircle
 10
76.0139789776
 20
-76.0139789776
 30
0.0
 40
107.5
100
AcDbArc
 50
47.6649199774
 51
132.3350800226
  0
ARC
  5
470
330
45A
100
AcDbEntity
  8
SLD-0
 62
     0
100
AcDbCircle
 10
76.0139789776
 20
-76.0139789776
 30
0.0
 40
107.5
100
AcDbArc
 50
317.6649199774
 51
42.3350800226
  0
ARC
  5
471
330
45A
100
AcDbEntity
  8
SLD-0
 62
     0
100
AcDbCircle
 10
76.0139789776
 20
-76.0139789776
 30
0.0
 40
107.5
100
AcDbArc
 50
137.6649199774
 51
222.3350800226
  0
ARC
  5
472
330
45A
100
AcDbEntity
  8
SLD-0
 62
     0
100
AcDbCircle
 10
76.0139789776
 20
-76.0139789776
 30
0.0
 40
107.5
100
AcDbArc
 50
227.6649199774
 51
312.3350800226
  0
ARC
  5
473
330
45A
100
AcDbEntity
  8
SLD-0
 62
     0
100
AcDbCircle
 10
76.0139789776
 20
-76.0139789776
 30
0.0
 40
39.00000000000005
100
AcDbArc
 50
97.3456127581
 51
202.6543872419
  0
ARC
  5
474
330
45A
100
AcDbEntity
  8
SLD-0
 62
     0
100
AcDbCircle
 10
76.0139789776
 20
-76.0139789776
 30
0.0
 40
39.00000000000004
100
AcDbArc
 50
217.3456127581
 51
322.6543872419
  0
ARC
  5
475
330
45A
100
AcDbEntity
  8
SLD-0
 62
     0
100
AcDbCircle
 10
76.0139789776
 20
-76.0139789776
 30
0.0
 40
39.00000000000006
100
AcDbArc
 50
337.3456127581
 51
82.6543872419
  0
LINE
  5
476
330
45A
100
AcDbEntity
  8
SLD-0
 62
     0
100
AcDbLine
 10
0.0
 20
0.0
 30
0.0
 11
-1.767766953
 21
1.767766953
 31
0.0
  0
LINE
  5
477
330
45A
100
AcDbEntity
  8
SLD-0
 62
     0
100
AcDbLine
 10
0.0
 20
0.0
 30
0.0
 11
1.767766953
 21
-1.767766953
 31
0.0
  0
LINE
  5
478
330
45A
100
AcDbEntity
  8
SLD-0
 62
     0
100
AcDbLine
 10
-3.5355339059
 20
3.5355339059
 30
0.0
 11
-6.0104076401
 21
6.0104076401
 31
0.0
  0
LINE
  5
479
330
45A
100
AcDbEntity
  8
SLD-0
 62
     0
100
AcDbLine
 10
3.5355339059
 20
-3.5355339059
 30
0.0
 11
6.0104076401
 21
-6.0104076401
 31
0.0
  0
LINE
  5
47A
330
45A
100
AcDbEntity
  8
SLD-0
 62
     0
100
AcDbLine
 10
152.0279579551
 20
0.0
 30
0.0
 11
153.7957249081
 21
1.767766953
 31
0.0
  0
LINE
  5
47B
330
45A
100
AcDbEntity
  8
SLD-0
 62
     0
100
AcDbLine
 10
152.0279579551
 20
0.0
 30
0.0
 11
150.2601910021
 21
-1.767766953
 31
0.0
  0
LINE
  5
47C
330
45A
100
AcDbEntity
  8
SLD-0
 62
     0
100
AcDbLine
 10
155.563491861
 20
3.5355339059
 30
0.0
 11
158.0383655952
 21
6.0104076401
 31
0.0
  0
LINE
  5
47D
330
45A
100
AcDbEntity
  8
SLD-0
 62
     0
100
AcDbLine
 10
148.4924240492
 20
-3.5355339059
 30
0.0
 11
146.017550315
 21
-6.0104076401
 31
0.0
  0
LINE
  5
47E
330
45A
100
AcDbEntity
  8
SLD-0
 62
     0
100
AcDbLine
 10
152.0279579551
 20
-152.0279579551
 30
0.0
 11
153.7957249081
 21
-153.7957249081
 31
0.0
  0
LINE
  5
47F
330
45A
100
AcDbEntity
  8
SLD-0
 62
     0
100
AcDbLine
 10
152.0279579551
 20
-152.0279579551
 30
0.0
 11
150.2601910021
 21
-150.2601910021
 31
0.0
  0
LINE
  5
480
330
45A
100
AcDbEntity
  8
SLD-0
 62
     0
100
AcDbLine
 10
155.563491861
 20
-155.563491861
 30
0.0
 11
158.0383655952
 21
-158.0383655952
 31
0.0
  0
LINE
  5
481
330
45A
100
AcDbEntity
  8
SLD-0
 62
     0
100
AcDbLine
 10
148.4924240492
 20
-148.4924240492
 30
0.0
 11
146.017550315
 21
-146.017550315
 31
0.0
  0
LINE
  5
482
330
45A
100
AcDbEntity
  8
SLD-0
 62
     0
100
AcDbLine
 10
76.0139789776
 20
-76.0139789776
 30
0.0
 11
76.0139789776
 21
-73.5139789776
 31
0.0
  0
LINE
  5
483
330
45A
100
AcDbEntity
  8
SLD-0
 62
     0
100
AcDbLine
 10
76.0139789776
 20
-76.0139789776
 30
0.0
 11
73.5139789776
 21
-76.0139789776
 31
0.0
  0
LINE
  5
484
330
45A
100
AcDbEntity
  8
SLD-0
 62
     0
100
AcDbLine
 10
76.0139789776
 20
-76.0139789776
 30
0.0
 11
76.0139789776
 21
-78.5139789776
 31
0.0
  0
LINE
  5
485
330
45A
100
AcDbEntity
  8
SLD-0
 62
     0
100
AcDbLine
 10
76.0139789776
 20
-76.0139789776
 30
0.0
 11
78.5139789776
 21
-76.0139789776
 31
0.0
  0
LINE
  5
486
330
45A
100
AcDbEntity
  8
SLD-0
 62
     0
100
AcDbLine
 10
76.0139789776
 20
-71.0139789776
 30
0.0
 11
76.0139789776
 21
2.5
 31
0.0
  0
LINE
  5
487
330
45A
100
AcDbEntity
  8
SLD-0
 62
     0
100
AcDbLine
 10
71.0139789776
 20
-76.0139789776
 30
0.0
 11
-2.5
 21
-76.0139789776
 31
0.0
  0
LINE
  5
488
330
45A
100
AcDbEntity
  8
SLD-0
 62
     0
100
AcDbLine
 10
76.0139789776
 20
-81.0139789776
 30
0.0
 11
76.0139789776
 21
-154.5279579551
 31
0.0
  0
LINE
  5
489
330
45A
100
AcDbEntity
  8
SLD-0
 62
     0
100
AcDbLine
 10
81.0139789776
 20
-76.0139789776
 30
0.0
 11
154.5279579551
 21
-76.0139789776
 31
0.0
  0
LINE
  5
48A
330
45A
100
AcDbEntity
  8
SLD-0
 62
     0
100
AcDbLine
 10
0.0
 20
-152.0279579551
 30
0.0
 11
-1.767766953
 21
-153.7957249081
 31
0.0
  0
LINE
  5
48B
330
45A
100
AcDbEntity
  8
SLD-0
 62
     0
100
AcDbLine
 10
0.0
 20
-152.0279579551
 30
0.0
 11
1.767766953
 21
-150.2601910021
 31
0.0
  0
LINE
  5
48C
330
45A
100
AcDbEntity
  8
SLD-0
 62
     0
100
AcDbLine
 10
-3.5355339059
 20
-155.563491861
 30
0.0
 11
-6.0104076401
 21
-158.0383655952
 31
0.0
  0
LINE
  5
48D
330
45A
100
AcDbEntity
  8
SLD-0
 62
     0
100
AcDbLine
 10
3.5355339059
 20
-148.4924240492
 30
0.0
 11
6.0104076401
 21
-146.017550315
 31
0.0
  0
LINE
  5
48E
330
45A
100
AcDbEntity
  8
SLD-0
 62
     0
100
AcDbLine
 10
42.23898823
 20
-95.5139789776
 30
0.0
 11
40.0739247205
 21
-96.7639789776
 31
0.0
  0
LINE
  5
48F
330
45A
100
AcDbEntity
  8
SLD-0
 62
     0
100
AcDbLine
 10
42.23898823
 20
-95.5139789776
 30
0.0
 11
44.4040517394
 21
-94.2639789776
 31
0.0
  0
LINE
  5
490
330
45A
100
AcDbEntity
  8
SLD-0
 62
     0
100
AcDbLine
 10
40.0739247205
 20
-96.7639789776
 30
0.0
 11
37.908861211
 21
-98.0139789776
 31
0.0
  0
LINE
  5
491
330
45A
100
AcDbEntity
  8
SLD-0
 62
     0
100
AcDbLine
 10
44.4040517394
 20
-94.2639789776
 30
0.0
 11
46.5691152489
 21
-93.0139789776
 31
0.0
  0
LINE
  5
492
330
45A
100
AcDbEntity
  8
SLD-0
 62
     0
100
AcDbLine
 10
76.0139789776
 20
-37.0139789776
 30
0.0
 11
76.0139789776
 21
-34.5139789776
 31
0.0
  0
LINE
  5
493
330
45A
100
AcDbEntity
  8
SLD-0
 62
     0
100
AcDbLine
 10
76.0139789776
 20
-37.0139789776
 30
0.0
 11
76.0139789776
 21
-39.5139789776
 31
0.0
  0
LINE
  5
494
330
45A
100
AcDbEntity
  8
SLD-0
 62
     0
100
AcDbLine
 10
76.0139789776
 20
-34.5139789776
 30
0.0
 11
76.0139789776
 21
-32.0139789776
 31
0.0
  0
LINE
  5
495
330
45A
100
AcDbEntity
  8
SLD-0
 62
     0
100
AcDbLine
 10
76.0139789776
 20
-39.5139789776
 30
0.0
 11
76.0139789776
 21
-42.0139789776
 31
0.0
  0
LINE
  5
496
330
45A
100
AcDbEntity
  8
SLD-0
 62
     0
100
AcDbLine
 10
109.7889697251
 20
-95.5139789776
 30
0.0
 11
111.9540332346
 21
-96.7639789776
 31
0.0
  0
LINE
  5
497
330
45A
100
AcDbEntity
  8
SLD-0
 62
     0
100
AcDbLine
 10
109.7889697251
 20
-95.5139789776
 30
0.0
 11
107.6239062157
 21
-94.2639789776
 31
0.0
  0
LINE
  5
498
330
45A
100
AcDbEntity
  8
SLD-0
 62
     0
100
AcDbLine
 10
111.9540332346
 20
-96.7639789776
 30
0.0
 11
114.1190967441
 21
-98.0139789776
 31
0.0
  0
LINE
  5
499
330
45A
100
AcDbEntity
  8
SLD-0
 62
     0
100
AcDbLine
 10
107.6239062157
 20
-94.2639789776
 30
0.0
 11
105.4588427062
 21
-93.0139789776
 31
0.0
  0
LINE
  5
49A
330
45A
100
AcDbEntity
  8
SLD-0
 62
     0
100
AcDbLine
 10
105.0534758381
 20
32.3628987321
 30
0.0
 11
105.7005234508
 21
34.7777132978
 31
0.0
  0
LINE
  5
49B
330
45A
100
AcDbEntity
  8
SLD-0
 62
     0
100
AcDbLine
 10
105.0534758381
 20
32.3628987321
 30
0.0
 11
104.4064282253
 21
29.9480841664
 31
0.0
  0
LINE
  5
49C
330
45A
100
AcDbEntity
  8
SLD-0
 62
     0
100
AcDbLine
 10
106.3475710636
 20
37.1925278635
 30
0.0
 11
108.5475329469
 21
45.402897387
 31
0.0
  0
LINE
  5
49D
330
45A
100
AcDbEntity
  8
SLD-0
 62
     0
100
AcDbLine
 10
103.7593806125
 20
27.5332696006
 30
0.0
 11
101.5594187292
 21
19.3229000772
 31
0.0
  0
ENDBLK
  5
45C
330
45A
100
AcDbEntity
  8
0
100
AcDbBlockEnd
  0
ENDSEC
  0
SECTION
  2
ENTITIES
  0
LINE
  5
4E
330
1F
100
AcDbEntity
  8
0
  6
Continuous
 62
     7
370
    15
100
AcDbLine
 10
709.0801518007
 20
1174.8569497717
 30
0.0
 11
709.9246602102
 21
1174.8569497717
 31
0.0
  0
LINE
  5
4F
330
1F
100
AcDbEntity
  8
0
  6
Continuous
 62
     7
370
    15
100
AcDbLine
 10
709.9246602102
 20
1190.8569505316
 30
0.0
 11
709.0801518007
 21
1190.8569505316
 31
0.0
  0
LINE
  5
50
330
1F
100
AcDbEntity
  8
0
  6
Continuous
 62
     7
370
    15
100
AcDbLine
 10
519.0801541848
 20
1190.8569505316
 30
0.0
 11
518.2356457753
 21
1190.8569505316
 31
0.0
  0
LINE
  5
51
330
1F
100
AcDbEntity
  8
0
  6
Continuous
 62
     7
370
    15
100
AcDbLine
 10
518.2356457753
 20
1174.8569497717
 30
0.0
 11
519.0801541848
 21
1174.8569497717
 31
0.0
  0
ARC
  5
52
330
1F
100
AcDbEntity
  8
0
  6
Continuous
 62
     7
370
    15
100
AcDbCircle
 10
710.468780434
 20
1433.8569506359
 30
0.0
 40
6.500000000000114
100
AcDbArc
 50
338.420626824
 51
0.0
  0
ARC
  5
53
330
1F
100
AcDbEntity
  8
0
  6
Continuous
 62
     7
370
    15
100
AcDbCircle
 10
710.468780434
 20
1433.8569506359
 30
0.0
 40
6.500000000000114
100
AcDbArc
 50
0.0
 51
21.579373176
  0
LINE
  5
54
330
1F
100
AcDbEntity
  8
0
  6
Continuous
 62
     7
370
    15
100
AcDbLine
 10
714.7510122104
 20
1437.8569500399
 30
0.0
 11
713.4132679148
 21
1437.8569500399
 31
0.0
  0
LINE
  5
55
330
1F
100
AcDbEntity
  8
0
  6
Continuous
 62
     7
370
    15
100
AcDbLine
 10
713.4132679148
 20
1429.8569487286
 30
0.0
 11
714.7510122104
 21
1429.8569487286
 31
0.0
  0
LINE
  5
56
330
1F
100
AcDbEntity
  8
0
  6
Continuous
 62
     7
370
    15
100
AcDbLine
 10
673.7102973802
 20
1320.5958830071
 30
0.0
 11
673.3346130295
 21
1320.0675697875
 31
0.0
  0
LINE
  5
57
330
1F
100
AcDbEntity
  8
0
  6
Continuous
 62
     7
370
    15
100
AcDbLine
 10
679.8542882843
 20
1315.4314311099
 30
0.0
 11
680.2299763603
 21
1315.9597443295
 31
0.0
  0
LINE
  5
58
330
1F
100
AcDbEntity
  8
0
  6
Continuous
 62
     7
370
    15
100
AcDbLine
 10
609.6311593956
 20
1406.1079101515
 30
0.0
 11
609.2554736479
 21
1405.5796043825
 31
0.0
  0
LINE
  5
59
330
1F
100
AcDbEntity
  8
0
  6
Continuous
 62
     7
370
    15
100
AcDbLine
 10
615.7751519295
 20
1400.9434508038
 30
0.0
 11
616.1508376772
 21
1401.4717714739
 31
0.0
  0
LINE
  5
5A
330
1F
100
AcDbEntity
  8
0
  6
Continuous
 62
     7
370
    15
100
AcDbLine
 10
665.6548562987
 20
1406.1079101515
 30
0.0
 11
665.279171948
 21
1405.5796043825
 31
0.0
  0
LINE
  5
5B
330
1F
100
AcDbEntity
  8
0
  6
Continuous
 62
     7
370
    15
100
AcDbLine
 10
671.7988509281
 20
1400.9434508038
 30
0.0
 11
672.1745352788
 21
1401.4717714739
 31
0.0
  0
LINE
  5
5C
330
1F
100
AcDbEntity
  8
0
  6
Continuous
 62
     7
370
    15
100
AcDbLine
 10
555.9578049524
 20
1429.8569487286
 30
0.0
 11
556.7301544888
 21
1429.8569487286
 31
0.0
  0
LINE
  5
5D
330
1F
100
AcDbEntity
  8
0
  6
Continuous
 62
     7
370
    15
100
AcDbLine
 10
556.7301544888
 20
1437.8569500399
 30
0.0
 11
555.9578049524
 21
1437.8569500399
 31
0.0
  0
LINE
  5
5E
330
1F
100
AcDbEntity
  8
0
  6
Continuous
 62
     7
370
    15
100
AcDbLine
 10
617.6866000114
 20
1320.5958830071
 30
0.0
 11
617.3109142637
 21
1320.0675697875
 31
0.0
  0
LINE
  5
5F
330
1F
100
AcDbEntity
  8
0
  6
Continuous
 62
     7
370
    15
100
AcDbLine
 10
623.8305927782
 20
1315.4314311099
 30
0.0
 11
624.2062780602
 21
1315.9597443295
 31
0.0
  0
LINE
  5
60
330
1F
100
AcDbEntity
  8
0
  6
Continuous
 62
     7
370
    15
100
AcDbLine
 10
649.410198961
 20
1375.775538559
 30
0.0
 11
649.3972573026
 21
1375.775538559
 31
0.0
  0
SPLINE
  5
61
330
1F
100
AcDbEntity
  8
0
  6
Continuous
 62
     7
370
    15
100
AcDbSpline
210
0.0
220
0.0
230
1.0
 70
     8
 71
     3
 72
    14
 73
    10
 74
     0
 42
0.00000001
 43
0.00000001
 12
1.0
 22
0.0
 32
0.0
 13
1.0
 23
0.0
 33
0.0
 40
0.0
 40
0.0
 40
0.0
 40
0.0
 40
0.1062530595064407
 40
0.2679106726009684
 40
0.4299649563996162
 40
0.5918395780583736
 40
0.7532306136326259
 40
0.9139434617080561
 40
0.9999999999999999
 40
0.9999999999999999
 40
0.9999999999999999
 40
0.9999999999999999
 10
674.2550242288393
 20
1395.290039653811
 30
0.0
 10
674.241659422171
 20
1395.566635784071
 30
0.0
 10
674.207960869298
 20
1396.264056222043
 30
0.0
 10
673.8760530523284
 20
1397.34773225552
 30
0.0
 10
673.2293185669444
 20
1398.440617864884
 30
0.0
 10
672.3277085287616
 20
1399.334172813707
 30
0.0
 10
671.2373481354557
 20
1399.962888548105
 30
0.0
 10
670.212923255957
 20
1400.25441106882
 30
0.0
 10
669.578493572728
 20
1400.280834925455
 30
0.0
 10
669.3572472377102
 20
1400.290049786601
 30
0.0
  0
SPLINE
  5
62
330
1F
100
AcDbEntity
  8
0
  6
Continuous
 62
     7
370
    15
100
AcDbSpline
210
0.0
220
0.0
230
1.0
 70
     8
 71
     3
 72
    10
 73
     6
 74
     0
 42
0.00000001
 43
0.00000001
 12
1.0
 22
0.0
 32
0.0
 13
1.0
 23
0.0
 33
0.0
 40
0.0
 40
0.0
 40
0.0
 40
0.0
 40
0.2657854506831164
 40
0.6945998875585181
 40
1.0
 40
1.0
 40
1.0
 40
1.0
 10
673.4314072473329
 20
1324.713692243132
 30
0.0
 10
673.5709435752021
 20
1324.937481891795
 30
0.0
 10
673.9356058146107
 20
1325.522330552241
 30
0.0
 10
674.2003303963214
 20
1326.50076109649
 30
0.0
 10
674.238957215536
 20
1327.229024256577
 30
0.0
 10
674.2550242288393
 20
1327.531948859725
 30
0.0
  0
LINE
  5
63
330
1F
100
AcDbEntity
  8
0
  6
Continuous
 62
     7
370
    15
100
AcDbLine
 10
674.2550242288
 20
1327.5319488597
 30
0.0
 11
674.2550242288
 21
1395.2900396538
 31
0.0
  0
LINE
  5
64
330
1F
100
AcDbEntity
  8
0
  6
Continuous
 62
     7
370
    15
100
AcDbLine
 10
672.5992519005
 20
1323.4632240486
 30
0.0
 11
673.2682693346
 21
1324.4040461135
 31
0.0
  0
SPLINE
  5
65
330
1F
100
AcDbEntity
  8
0
  6
Continuous
 62
     7
370
    15
100
AcDbSpline
210
0.0
220
0.0
230
1.0
 70
     8
 71
     3
 72
    11
 73
     7
 74
     0
 42
0.00000001
 43
0.00000001
 12
1.0
 22
0.0
 32
0.0
 13
1.0
 23
0.0
 33
0.0
 40
0.0
 40
0.0
 40
0.0
 40
0.0
 40
0.2634791908729899
 40
0.6086828864336185
 40
0.9403360954444828
 40
1.0
 40
1.0
 40
1.0
 40
1.0
 10
681.7684989018719
 20
1313.881628389392
 30
0.0
 10
681.9488906570075
 20
1314.145892461746
 30
0.0
 10
682.3656270749422
 20
1314.7563885613
 30
0.0
 10
682.683286223566
 20
1315.871786168336
 30
0.0
 10
682.7481329102509
 20
1316.775135815235
 30
0.0
 10
682.7090833926859
 20
1317.254429387586
 30
0.0
 10
682.7031295342725
 20
1317.327507014308
 30
0.0
  0
LINE
  5
66
330
1F
100
AcDbEntity
  8
0
  6
Continuous
 62
     7
370
    15
100
AcDbLine
 10
680.7463835521
 20
1312.3941274238
 30
0.0
 11
681.7921917482
 21
1313.864812429
 31
0.0
  0
LINE
  5
67
330
1F
100
AcDbEntity
  8
0
  6
Continuous
 62
     7
370
    15
100
AcDbLine
 10
682.7031295343
 20
1317.3275070143
 30
0.0
 11
674.5591681047
 21
1403.7792311859
 31
0.0
  0
SPLINE
  5
68
330
1F
100
AcDbEntity
  8
0
  6
Continuous
 62
     7
370
    15
100
AcDbSpline
210
0.0
220
0.0
230
1.0
 70
     8
 71
     3
 72
    12
 73
     8
 74
     0
 42
0.00000001
 43
0.00000001
 12
1.0
 22
0.0
 32
0.0
 13
1.0
 23
0.0
 33
0.0
 40
0.0
 40
0.0
 40
0.0
 40
0.0
 40
0.1595846157960304
 40
0.4207787702501692
 40
0.6809499518407461
 40
0.9385470492008223
 40
1.0
 40
1.0
 40
1.0
 40
1.0
 10
611.6592486450803
 20
1409.078560943636
 30
0.0
 10
611.3902608012368
 20
1409.0669822922
 30
0.0
 10
610.6810171590465
 20
1409.036452715846
 30
0.0
 10
609.5689071374514
 20
1408.72753729194
 30
0.0
 10
608.4519177518889
 20
1408.082044908024
 30
0.0
 10
607.708984362062
 20
1407.446471560415
 30
0.0
 10
607.4429887077949
 20
1406.993477224147
 30
0.0
 10
607.3917546837014
 20
1406.906224961314
 30
0.0
  0
LINE
  5
69
330
1F
100
AcDbEntity
  8
0
  6
Continuous
 62
     7
370
    15
100
AcDbLine
 10
607.3680632344
 20
1406.9230334711
 30
0.0
 11
606.3222582979
 21
1405.452348466
 31
0.0
  0
LINE
  5
6A
330
1F
100
AcDbEntity
  8
0
  6
Continuous
 62
     7
370
    15
100
AcDbLine
 10
668.6488721116
 20
1409.0785609436
 30
0.0
 11
611.6592486451
 21
1409.0785609436
 31
0.0
  0
SPLINE
  5
6B
330
1F
100
AcDbEntity
  8
0
  6
Continuous
 62
     7
370
    15
100
AcDbSpline
210
0.0
220
0.0
230
1.0
 70
     8
 71
     3
 72
    14
 73
    10
 74
     0
 42
0.00000001
 43
0.00000001
 12
1.0
 22
0.0
 32
0.0
 13
1.0
 23
0.0
 33
0.0
 40
0.0
 40
0.0
 40
0.0
 40
0.0
 40
0.0944008206953519
 40
0.2458327634380908
 40
0.3982164986151904
 40
0.5517660946392043
 40
0.706257291829777
 40
0.86137535411008
 40
1.0
 40
1.0
 40
1.0
 40
1.0
 10
674.5591681046765
 20
1403.779231185946
 30
0.0
 10
674.5221947402645
 20
1404.045157537503
 30
0.0
 10
674.4259109973895
 20
1404.737666452074
 30
0.0
 10
674.0113878288536
 20
1405.817362721384
 30
0.0
 10
673.2797775992082
 20
1406.931966588991
 30
0.0
 10
672.3036943652004
 20
1407.870547127065
 30
0.0
 10
671.1393848178906
 20
1408.571716454302
 30
0.0
 10
669.8930508156777
 20
1409.002358609598
 30
0.0
 10
669.0477778815501
 20
1409.054129123165
 30
0.0
 10
668.6488721115869
 20
1409.078560943636
 30
0.0
  0
LINE
  5
6C
330
1F
100
AcDbEntity
  8
0
  6
Continuous
 62
     7
370
    15
100
AcDbLine
 10
573.1868926032
 20
859.8569558812
 30
0.0
 11
573.1868926032
 21
860.8569430065
 31
0.0
  0
LINE
  5
6D
330
1F
100
AcDbEntity
  8
0
  6
Continuous
 62
     7
370
    15
100
AcDbLine
 10
558.8068920715
 20
860.8569430065
 30
0.0
 11
558.8068920715
 21
859.8569558812
 31
0.0
  0
LINE
  5
6E
330
1F
100
AcDbEntity
  8
0
  6
Continuous
 62
     7
370
    15
100
AcDbLine
 10
569.996892993
 20
875.8569585038
 30
0.0
 11
569.996892993
 21
1049.856953497
 31
0.0
  0
LINE
  5
6F
330
1F
100
AcDbEntity
  8
0
  6
Continuous
 62
     7
370
    15
100
AcDbLine
 10
561.9968916817
 20
1049.856953497
 30
0.0
 11
561.9968916817
 21
875.8569585038
 31
0.0
  0
LINE
  5
70
330
1F
100
AcDbEntity
  8
0
  6
Continuous
 62
     7
370
    15
100
AcDbLine
 10
669.353413914
 20
859.8569558812
 30
0.0
 11
669.353413914
 21
860.8569430065
 31
0.0
  0
LINE
  5
71
330
1F
100
AcDbEntity
  8
0
  6
Continuous
 62
     7
370
    15
100
AcDbLine
 10
654.9734133823
 20
860.8569430065
 30
0.0
 11
654.9734133823
 21
859.8569558812
 31
0.0
  0
LINE
  5
72
330
1F
100
AcDbEntity
  8
0
  6
Continuous
 62
     7
370
    15
100
AcDbLine
 10
666.1634143038
 20
875.8569585038
 30
0.0
 11
666.1634143038
 21
1049.856953497
 31
0.0
  0
LINE
  5
73
330
1F
100
AcDbEntity
  8
0
  6
Continuous
 62
     7
370
    15
100
AcDbLine
 10
658.1634129925
 20
1049.856953497
 30
0.0
 11
658.1634129925
 21
875.8569585038
 31
0.0
  0
LINE
  5
74
330
1F
100
AcDbEntity
  8
0
  6
Continuous
 62
     7
370
    15
100
AcDbLine
 10
553.0801523073
 20
900.8569644642
 30
0.0
 11
553.0801523073
 21
875.8569585038
 31
0.0
  0
LINE
  5
75
330
1F
100
AcDbEntity
  8
0
  6
Continuous
 62
     7
370
    15
100
AcDbLine
 10
675.0801536782
 20
875.8569585038
 30
0.0
 11
675.0801536782
 21
900.8569644642
 31
0.0
  0
LINE
  5
76
330
1F
100
AcDbEntity
  8
0
  6
Continuous
 62
     7
370
    15
100
AcDbLine
 10
552.8650018914
 20
875.8569585038
 30
0.0
 11
552.8650018914
 21
862.8569470597
 31
0.0
  0
ARC
  5
77
330
1F
100
AcDbEntity
  8
0
  6
Continuous
 62
     7
370
    15
100
AcDbCircle
 10
554.8650031802
 20
862.8569506359
 30
0.0
 40
2.0
100
AcDbArc
 50
180.0
 51
270.0
  0
LINE
  5
78
330
1F
100
AcDbEntity
  8
0
  6
Continuous
 62
     7
370
    15
100
AcDbLine
 10
675.2953040941
 20
862.8569470597
 30
0.0
 11
675.2953040941
 21
875.8569585038
 31
0.0
  0
ARC
  5
79
330
1F
100
AcDbEntity
  8
0
  6
Continuous
 62
     7
370
    15
100
AcDbCircle
 10
673.2953028053
 20
862.8569506359
 30
0.0
 40
2.0
100
AcDbArc
 50
270.0
 51
0.0
  0
ARC
  5
7A
330
1F
100
AcDbEntity
  8
0
  6
Continuous
 62
     7
370
    15
100
AcDbCircle
 10
573.0801529928
 20
855.8569506359
 30
0.0
 40
5.0
100
AcDbArc
 50
0.0
 51
88.7767696191
  0
ARC
  5
7B
330
1F
100
AcDbEntity
  8
0
  6
Continuous
 62
     7
370
    15
100
AcDbCircle
 10
655.0801529928
 20
855.8569506359
 30
0.0
 40
5.000000000000008
100
AcDbArc
 50
91.2232303809
 51
180.0
  0
LINE
  5
7C
330
1F
100
AcDbEntity
  8
0
  6
Continuous
 62
     7
370
    15
100
AcDbLine
 10
578.0801545425
 20
855.8569477749
 30
0.0
 11
578.0801545425
 21
837.8569410992
 31
0.0
  0
ARC
  5
7D
330
1F
100
AcDbEntity
  8
0
  6
Continuous
 62
     7
370
    15
100
AcDbCircle
 10
580.0801529928
 20
837.8569506359
 30
0.0
 40
2.000000000000114
100
AcDbArc
 50
180.0
 51
270.0
  0
LINE
  5
7E
330
1F
100
AcDbEntity
  8
0
  6
Continuous
 62
     7
370
    15
100
AcDbLine
 10
650.080151443
 20
837.8569410992
 30
0.0
 11
650.080151443
 21
855.8569477749
 31
0.0
  0
ARC
  5
7F
330
1F
100
AcDbEntity
  8
0
  6
Continuous
 62
     7
370
    15
100
AcDbCircle
 10
648.0801529928
 20
837.8569506359
 30
0.0
 40
2.000000000000114
100
AcDbArc
 50
270.0
 51
0.0
  0
ARC
  5
80
330
1F
100
AcDbEntity
  8
0
  6
Continuous
 62
     7
370
    15
100
AcDbCircle
 10
569.3051622452
 20
855.8569506359
 30
0.0
 40
5.0
100
AcDbArc
 50
0.0
 51
53.1301023542
  0
ARC
  5
81
330
1F
100
AcDbEntity
  8
0
  6
Continuous
 62
     7
370
    15
100
AcDbCircle
 10
658.8551437403
 20
855.8569506359
 30
0.0
 40
4.999999999999909
100
AcDbArc
 50
126.8698976458
 51
180.0
  0
LINE
  5
82
330
1F
100
AcDbEntity
  8
0
  6
Continuous
 62
     7
370
    15
100
AcDbLine
 10
574.3051614209
 20
855.8569477749
 30
0.0
 11
574.3051614209
 21
837.8569410992
 31
0.0
  0
ARC
  5
83
330
1F
100
AcDbEntity
  8
0
  6
Continuous
 62
     7
370
    15
100
AcDbCircle
 10
576.3051622452
 20
837.8569506359
 30
0.0
 40
2.000000000000114
100
AcDbArc
 50
180.0
 51
270.0
  0
LINE
  5
84
330
1F
100
AcDbEntity
  8
0
  6
Continuous
 62
     7
370
    15
100
AcDbLine
 10
653.8551445647
 20
837.8569410992
 30
0.0
 11
653.8551445647
 21
855.8569477749
 31
0.0
  0
ARC
  5
85
330
1F
100
AcDbEntity
  8
0
  6
Continuous
 62
     7
370
    15
100
AcDbCircle
 10
651.8551437403
 20
837.8569506359
 30
0.0
 40
2.000000000000114
100
AcDbArc
 50
270.0
 51
0.0
  0
LINE
  5
86
330
1F
100
AcDbEntity
  8
0
  6
Continuous
 62
     7
370
    15
100
AcDbLine
 10
675.0801536782
 20
973.8569484902
 30
0.0
 11
675.0801536782
 21
1010.3569554043
 31
0.0
  0
LINE
  5
87
330
1F
100
AcDbEntity
  8
0
  6
Continuous
 62
     7
370
    15
100
AcDbLine
 10
553.0801523073
 20
1010.3569554043
 30
0.0
 11
553.0801523073
 21
973.8569484902
 31
0.0
  0
LINE
  5
88
330
1F
100
AcDbEntity
  8
0
  6
Continuous
 62
     7
370
    15
100
AcDbLine
 10
675.0801536782
 20
900.8569644642
 30
0.0
 11
675.0801536782
 21
937.356941576
 31
0.0
  0
LINE
  5
89
330
1F
100
AcDbEntity
  8
0
  6
Continuous
 62
     7
370
    15
100
AcDbLine
 10
553.0801523073
 20
937.356941576
 30
0.0
 11
553.0801523073
 21
900.8569644642
 31
0.0
  0
LINE
  5
8A
330
1F
100
AcDbEntity
  8
0
  6
Continuous
 62
     7
370
    15
100
AcDbLine
 10
675.0801536782
 20
937.356941576
 30
0.0
 11
675.0801536782
 21
973.8569484902
 31
0.0
  0
LINE
  5
8B
330
1F
100
AcDbEntity
  8
0
  6
Continuous
 62
     7
370
    15
100
AcDbLine
 10
553.0801523073
 20
973.8569484902
 30
0.0
 11
553.0801523073
 21
937.356941576
 31
0.0
  0
LINE
  5
8C
330
1F
100
AcDbEntity
  8
0
  6
Continuous
 62
     7
370
    15
100
AcDbLine
 10
675.0801536782
 20
1010.3569554043
 30
0.0
 11
675.0801536782
 21
1046.8569474173
 31
0.0
  0
LINE
  5
8D
330
1F
100
AcDbEntity
  8
0
  6
Continuous
 62
     7
370
    15
100
AcDbLine
 10
553.0801523073
 20
1046.8569474173
 30
0.0
 11
553.0801523073
 21
1010.3569554043
 31
0.0
  0
LINE
  5
8E
330
1F
100
AcDbEntity
  8
0
  6
Continuous
 62
     7
370
    15
100
AcDbLine
 10
502.580150549
 20
1471.3569508744
 30
0.0
 11
502.580150549
 21
1398.8569455099
 31
0.0
  0
LINE
  5
8F
330
1F
100
AcDbEntity
  8
0
  6
Continuous
 62
     7
370
    15
100
AcDbLine
 10
725.5801554365
 20
1398.8569455099
 30
0.0
 11
725.5801554365
 21
1471.3569508744
 31
0.0
  0
ARC
  5
90
330
1F
100
AcDbEntity
  8
0
  6
Continuous
 62
     7
370
    15
100
AcDbCircle
 10
723.5801529928
 20
1471.3569506359
 30
0.0
 40
2.000000000000227
100
AcDbArc
 50
0.0
 51
90.0
  0
ARC
  5
91
330
1F
100
AcDbEntity
  8
0
  6
Continuous
 62
     7
370
    15
100
AcDbCircle
 10
504.5801529928
 20
1471.3569506359
 30
0.0
 40
2.000000000000227
100
AcDbArc
 50
90.0
 51
180.0
  0
ARC
  5
92
330
1F
100
AcDbEntity
  8
0
  6
Continuous
 62
     7
370
    15
100
AcDbCircle
 10
723.2257309995
 20
1483.3569506359
 30
0.0
 40
9.999999999999817
100
AcDbArc
 50
235.0
 51
270.0
  0
ARC
  5
93
330
1F
100
AcDbEntity
  8
0
  6
Continuous
 62
     7
370
    15
100
AcDbCircle
 10
504.934574986
 20
1483.3569506359
 30
0.0
 40
9.999999999999785
100
AcDbArc
 50
270.0
 51
305.0
  0
LINE
  5
94
330
1F
100
AcDbEntity
  8
0
  6
Continuous
 62
     7
370
    15
100
AcDbLine
 10
717.4899648471
 20
1475.1654194546
 30
0.0
 11
695.9329988404
 21
1490.2597891045
 31
0.0
  0
LINE
  5
95
330
1F
100
AcDbEntity
  8
0
  6
Continuous
 62
     7
370
    15
100
AcDbLine
 10
532.2273071451
 20
1490.2597891045
 30
0.0
 11
510.6703411384
 21
1475.1654194546
 31
0.0
  0
ARC
  5
96
330
1F
100
AcDbEntity
  8
0
  6
Continuous
 62
     7
370
    15
100
AcDbCircle
 10
531.0801529928
 20
1491.898084737
 30
0.0
 40
2.000000000000172
100
AcDbArc
 50
305.0
 51
0.0
  0
ARC
  5
97
330
1F
100
AcDbEntity
  8
0
  6
Continuous
 62
     7
370
    15
100
AcDbCircle
 10
697.0801529928
 20
1491.898084737
 30
0.0
 40
2.000000000000237
100
AcDbArc
 50
180.0
 51
235.0
  0
ARC
  5
98
330
1F
100
AcDbEntity
  8
0
  6
Continuous
 62
     7
370
    15
100
AcDbCircle
 10
693.0801529928
 20
1492.8569506359
 30
0.0
 40
2.0
100
AcDbArc
 50
0.0
 51
90.0
  0
ARC
  5
99
330
1F
100
AcDbEntity
  8
0
  6
Continuous
 62
     7
370
    15
100
AcDbCircle
 10
535.0801529928
 20
1492.8569506359
 30
0.0
 40
2.0
100
AcDbArc
 50
90.0
 51
180.0
  0
LINE
  5
9A
330
1F
100
AcDbEntity
  8
0
  6
Continuous
 62
     7
370
    15
100
AcDbLine
 10
533.0801527543
 20
1492.8569422913
 30
0.0
 11
533.0801527543
 21
1491.8980823708
 31
0.0
  0
LINE
  5
9B
330
1F
100
AcDbEntity
  8
0
  6
Continuous
 62
     7
370
    15
100
AcDbLine
 10
695.0801532312
 20
1491.8980823708
 30
0.0
 11
695.0801532312
 21
1492.8569422913
 31
0.0
  0
LINE
  5
9C
330
1F
100
AcDbEntity
  8
0
  6
Continuous
 62
     7
370
    15
100
AcDbLine
 10
550.7777478142
 20
1442.9109470797
 30
0.0
 11
550.7777478142
 21
1398.8569455099
 31
0.0
  0
ARC
  5
9D
330
1F
100
AcDbEntity
  8
0
  6
Continuous
 62
     7
370
    15
100
AcDbCircle
 10
552.7777462104
 20
1442.9109448132
 30
0.0
 40
2.000000000000145
100
AcDbArc
 50
111.6163568324
 51
180.0
  0
ARC
  5
9E
330
1F
100
AcDbEntity
  8
0
  6
Continuous
 62
     7
370
    15
100
AcDbCircle
 10
714.5404893882
 20
1442.9109448132
 30
0.0
 40
2.000000000000086
100
AcDbArc
 50
0.0
 51
78.5940653953
  0
LINE
  5
9F
330
1F
100
AcDbEntity
  8
0
  6
Continuous
 62
     7
370
    15
100
AcDbLine
 10
716.5404926582
 20
1398.8569455099
 30
0.0
 11
716.5404926582
 21
1431.5365331126
 31
0.0
  0
LINE
  5
A0
330
1F
100
AcDbEntity
  8
0
  6
Continuous
 62
     7
370
    15
100
AcDbLine
 10
716.5404926582
 20
1436.1773656559
 30
0.0
 11
716.5404926582
 21
1442.9109470797
 31
0.0
  0
SPLINE
  5
A1
330
1F
100
AcDbEntity
  8
0
  6
Continuous
 62
     7
370
    15
100
AcDbSpline
210
0.0
220
0.0
230
1.0
 70
     8
 71
     3
 72
     9
 73
     5
 74
     0
 42
0.00000001
 43
0.00000001
 12
1.0
 22
0.0
 32
0.0
 13
1.0
 23
0.0
 33
0.0
 40
0.0
 40
0.0
 40
0.0
 40
0.0
 40
0.4236147456438044
 40
1.0
 40
1.0
 40
1.0
 40
1.0
 10
714.9452488465589
 20
1444.871507759127
 30
0.0
 10
714.9232275512164
 20
1444.876428240495
 30
0.0
 10
714.8712433000333
 20
1444.88804370341
 30
0.0
 10
714.8797500876309
 20
1444.885739990736
 30
0.0
 10
714.8846532745641
 20
1444.884412164721
 30
0.0
  0
SPLINE
  5
A2
330
1F
100
AcDbEntity
  8
0
  6
Continuous
 62
     7
370
    15
100
AcDbSpline
210
0.0
220
0.0
230
1.0
 70
     8
 71
     3
 72
     9
 73
     5
 74
     0
 42
0.00000001
 43
0.00000001
 12
1.0
 22
0.0
 32
0.0
 13
1.0
 23
0.0
 33
0.0
 40
0.0
 40
0.0
 40
0.0
 40
0.0
 40
0.6948334474924088
 40
0.9999999999999999
 40
0.9999999999999999
 40
0.9999999999999999
 40
0.9999999999999999
 10
715.1190038366598
 20
1444.857292051348
 30
0.0
 10
715.0606458940839
 20
1444.859311321561
 30
0.0
 10
714.9766575040799
 20
1444.862217442762
 30
0.0
 10
714.9525926385953
 20
1444.869335550675
 30
0.0
 10
714.9452488465589
 20
1444.871507759127
 30
0.0
  0
LINE
  5
A3
330
1F
100
AcDbEntity
  8
0
  6
Continuous
 62
     7
370
    15
100
AcDbLine
 10
696.2496783181
 20
1412.8569440794
 30
0.0
 11
696.2496783181
 21
1188.8569502038
 31
0.0
  0
LINE
  5
A4
330
1F
100
AcDbEntity
  8
0
  6
Continuous
 62
     7
370
    15
100
AcDbLine
 10
704.2496796294
 20
1188.8569502038
 30
0.0
 11
704.2496796294
 21
1398.8569455099
 31
0.0
  0
LINE
  5
A5
330
1F
100
AcDbEntity
  8
0
  6
Continuous
 62
     7
370
    15
100
AcDbLine
 10
560.3301520987
 20
1398.8569455099
 30
0.0
 11
560.3301520987
 21
1188.8569502038
 31
0.0
  0
LINE
  5
A6
330
1F
100
AcDbEntity
  8
0
  6
Continuous
 62
     7
370
    15
100
AcDbLine
 10
568.33015341
 20
1188.8569502038
 30
0.0
 11
568.33015341
 21
1398.8569455099
 31
0.0
  0
LINE
  5
A7
330
1F
100
AcDbEntity
  8
0
  6
Continuous
 62
     7
370
    15
100
AcDbLine
 10
707.2801511331
 20
1199.8569506099
 30
0.0
 11
707.2801511331
 21
1398.8569455099
 31
0.0
  0
LINE
  5
A8
330
1F
100
AcDbEntity
  8
0
  6
Continuous
 62
     7
370
    15
100
AcDbLine
 10
520.8801548524
 20
1398.8569455099
 30
0.0
 11
520.8801548524
 21
1199.8569506099
 31
0.0
  0
LINE
  5
A9
330
1F
100
AcDbEntity
  8
0
  6
Continuous
 62
     7
370
    15
100
AcDbLine
 10
631.0980204089
 20
1190.3767932085
 30
0.0
 11
631.447152753
 21
1190.1611808566
 31
0.0
  0
SPLINE
  5
AA
330
1F
100
AcDbEntity
  8
0
  6
Continuous
 62
     7
370
    15
100
AcDbSpline
210
0.0
220
0.0
230
1.0
 70
     8
 71
     3
 72
     9
 73
     5
 74
     0
 42
0.00000001
 43
0.00000001
 12
1.0
 22
0.0
 32
0.0
 13
1.0
 23
0.0
 33
0.0
 40
0.0
 40
0.0
 40
0.0
 40
0.0
 40
0.3507975772025784
 40
1.0
 40
1.0
 40
1.0
 40
1.0
 10
596.7160477830452
 20
1190.158074895773
 30
0.0
 10
596.8670252139841
 20
1190.253964125592
 30
0.0
 10
597.2974085482788
 20
1190.527310454219
 30
0.0
 10
597.7666893049625
 20
1190.735655647039
 30
0.0
 10
598.0713475091737
 20
1190.870913850996
 30
0.0
  0
LINE
  5
AB
330
1F
100
AcDbEntity
  8
0
  6
Continuous
 62
     7
370
    15
100
AcDbLine
 10
709.0801518007
 20
1190.8569505316
 30
0.0
 11
709.0801518007
 21
1199.8569506099
 31
0.0
  0
LINE
  5
AC
330
1F
100
AcDbEntity
  8
0
  6
Continuous
 62
     7
370
    15
100
AcDbLine
 10
709.0801518007
 20
1136.4579202485
 30
0.0
 11
709.0801518007
 21
1174.8569497717
 31
0.0
  0
LINE
  5
AD
330
1F
100
AcDbEntity
  8
0
  6
Continuous
 62
     7
370
    15
100
AcDbLine
 10
519.0801541848
 20
1174.8569497717
 30
0.0
 11
519.0801541848
 21
1136.4579202485
 31
0.0
  0
LINE
  5
AE
330
1F
100
AcDbEntity
  8
0
  6
Continuous
 62
     7
370
    15
100
AcDbLine
 10
519.0801541848
 20
1199.8569506099
 30
0.0
 11
519.0801541848
 21
1190.8569505316
 31
0.0
  0
SPLINE
  5
AF
330
1F
100
AcDbEntity
  8
0
  6
Continuous
 62
     7
370
    15
100
AcDbSpline
210
0.0
220
0.0
230
1.0
 70
     8
 71
     3
 72
    15
 73
    11
 74
     0
 42
0.00000001
 43
0.00000001
 12
1.0
 22
0.0
 32
0.0
 13
1.0
 23
0.0
 33
0.0
 40
0.0
 40
0.0
 40
0.0
 40
0.0
 40
0.02658357810492
 40
0.1713720302660536
 40
0.3127478474883284
 40
0.4557340578732636
 40
0.6014133498560075
 40
0.7521751844958163
 40
0.9103501011776147
 40
1.0
 40
1.0
 40
1.0
 40
1.0
 10
554.7108534319681
 20
1158.858206297192
 30
0.0
 10
554.7033754834886
 20
1158.78523116503
 30
0.0
 10
554.6551686090008
 20
1158.314794246863
 30
0.0
 10
554.8666877849414
 20
1157.45381652584
 30
0.0
 10
555.3324340616886
 20
1156.371070907453
 30
0.0
 10
556.063696541492
 20
1155.43862014606
 30
0.0
 10
556.9919446624475
 20
1154.686545604305
 30
0.0
 10
558.0918797624028
 20
1154.148270665608
 30
0.0
 10
559.130064602547
 20
1153.890743778753
 30
0.0
 10
559.7867622294063
 20
1153.865928699462
 30
0.0
 10
560.0243206663412
 20
1153.856951917443
 30
0.0
  0
LINE
  5
B0
330
1F
100
AcDbEntity
  8
0
  6
Continuous
 62
     7
370
    15
100
AcDbLine
 10
554.6870376511
 20
1188.8569502038
 30
0.0
 11
554.6870376511
 21
1158.8569508744
 31
0.0
  0
LINE
  5
B1
330
1F
100
AcDbEntity
  8
0
  6
Continuous
 62
     7
370
    15
100
AcDbLine
 10
699.0801538868
 20
1116.8569477153
 30
0.0
 11
699.0801538868
 21
1119.856953795
 31
0.0
  0
LINE
  5
B2
330
1F
100
AcDbEntity
  8
0
  6
Continuous
 62
     7
370
    15
100
AcDbLine
 10
529.0801520987
 20
1119.856953795
 30
0.0
 11
529.0801520987
 21
1116.8569477153
 31
0.0
  0
ARC
  5
B3
330
1F
100
AcDbEntity
  8
0
  6
Continuous
 62
     7
370
    15
100
AcDbCircle
 10
670.0801529928
 20
1069.8569506359
 30
0.0
 40
5.000000000000114
100
AcDbArc
 50
0.0
 51
90.0
  0
ARC
  5
B4
330
1F
100
AcDbEntity
  8
0
  6
Continuous
 62
     7
370
    15
100
AcDbCircle
 10
558.0801529928
 20
1069.8569506359
 30
0.0
 40
5.0
100
AcDbArc
 50
90.0
 51
180.0
  0
LINE
  5
B5
330
1F
100
AcDbEntity
  8
0
  6
Continuous
 62
     7
370
    15
100
AcDbLine
 10
553.0801523073
 20
1069.8569493246
 30
0.0
 11
553.0801523073
 21
1063.7593345595
 31
0.0
  0
LINE
  5
B6
330
1F
100
AcDbEntity
  8
0
  6
Continuous
 62
     7
370
    15
100
AcDbLine
 10
553.0801523073
 20
1049.856953497
 30
0.0
 11
553.0801523073
 21
1046.8569474173
 31
0.0
  0
LINE
  5
B7
330
1F
100
AcDbEntity
  8
0
  6
Continuous
 62
     7
370
    15
100
AcDbLine
 10
675.0801536782
 20
1046.8569474173
 30
0.0
 11
675.0801536782
 21
1049.856953497
 31
0.0
  0
LINE
  5
B8
330
1F
100
AcDbEntity
  8
0
  6
Continuous
 62
     7
370
    15
100
AcDbLine
 10
675.0801536782
 20
1063.7593345595
 30
0.0
 11
675.0801536782
 21
1069.8569493246
 31
0.0
  0
ARC
  5
B9
330
1F
100
AcDbEntity
  8
0
  6
Continuous
 62
     7
370
    15
100
AcDbCircle
 10
554.8650031802
 20
1062.8569506359
 30
0.0
 40
2.0
100
AcDbArc
 50
90.0
 51
180.0
  0
LINE
  5
BA
330
1F
100
AcDbEntity
  8
0
  6
Continuous
 62
     7
370
    15
100
AcDbLine
 10
552.8650018914
 20
1062.8569500399
 30
0.0
 11
552.8650018914
 21
1049.856953497
 31
0.0
  0
ARC
  5
BB
330
1F
100
AcDbEntity
  8
0
  6
Continuous
 62
     7
370
    15
100
AcDbCircle
 10
673.2953028053
 20
1062.8569506359
 30
0.0
 40
2.0
100
AcDbArc
 50
0.0
 51
90.0
  0
LINE
  5
BC
330
1F
100
AcDbEntity
  8
0
  6
Continuous
 62
     7
370
    15
100
AcDbLine
 10
675.2953040941
 20
1049.856953497
 30
0.0
 11
675.2953040941
 21
1062.8569500399
 31
0.0
  0
SPLINE
  5
BD
330
1F
100
AcDbEntity
  8
0
  6
Continuous
 62
     7
370
    15
100
AcDbSpline
210
0.0
220
0.0
230
1.0
 70
     8
 71
     3
 72
    10
 73
     6
 74
     0
 42
0.00000001
 43
0.00000001
 12
1.0
 22
0.0
 32
0.0
 13
1.0
 23
0.0
 33
0.0
 40
0.0
 40
0.0
 40
0.0
 40
0.0
 40
0.1932354939951318
 40
0.703025481980165
 40
1.0
 40
1.0
 40
1.0
 40
1.0
 10
571.1130756480974
 20
1092.94208156589
 30
0.0
 10
571.1070375747246
 20
1092.029612695223
 30
0.0
 10
571.0850699778025
 20
1088.709886829494
 30
0.0
 10
571.3052346567856
 20
1083.996316812836
 30
0.0
 10
571.6486393674006
 20
1080.165190751069
 30
0.0
 10
571.7750485582632
 20
1078.754931862387
 30
0.0
  0
SPLINE
  5
BE
330
1F
100
AcDbEntity
  8
0
  6
Continuous
 62
     7
370
    15
100
AcDbSpline
210
0.0
220
0.0
230
1.0
 70
     8
 71
     3
 72
    11
 73
     7
 74
     0
 42
0.00000001
 43
0.00000001
 12
1.0
 22
0.0
 32
0.0
 13
1.0
 23
0.0
 33
0.0
 40
0.0
 40
0.0
 40
0.0
 40
0.0
 40
0.0519877107052306
 40
0.4179727327273273
 40
0.8535849723730596
 40
1.0
 40
1.0
 40
1.0
 40
1.0
 10
656.394924555568
 20
1078.805163676772
 30
0.0
 10
656.4230172090847
 20
1079.055395031501
 30
0.0
 10
656.6488775710951
 20
1081.067214396722
 30
0.0
 10
656.8744822036214
 20
1085.1143344461
 30
0.0
 10
657.0916856095317
 20
1089.632246563832
 30
0.0
 10
657.0617050300243
 20
1092.400106511523
 30
0.0
 10
657.0541631026548
 20
1093.096390540633
 30
0.0
  0
SPLINE
  5
BF
330
1F
100
AcDbEntity
  8
0
  6
Continuous
 62
     7
370
    15
100
AcDbSpline
210
0.0
220
0.0
230
1.0
 70
     8
 71
     3
 72
    12
 73
     8
 74
     0
 42
0.00000001
 43
0.00000001
 12
1.0
 22
0.0
 32
0.0
 13
1.0
 23
0.0
 33
0.0
 40
0.0
 40
0.0
 40
0.0
 40
0.0
 40
0.1896132978382742
 40
0.4199527715914485
 40
0.646167683746157
 40
0.8685595848340149
 40
0.9999999999999999
 40
0.9999999999999999
 40
0.9999999999999999
 40
0.9999999999999999
 10
705.5485840482991
 20
1154.408388013873
 30
0.0
 10
705.8627143492879
 20
1154.570847975784
 30
0.0
 10
706.5584455666924
 20
1154.930661934272
 30
0.0
 10
707.4176419922321
 20
1155.803619015607
 30
0.0
 10
708.0775821019778
 20
1156.894383346607
 30
0.0
 10
708.3957730947894
 20
1157.949162810466
 30
0.0
 10
708.4263025536466
 20
1158.611068441091
 30
0.0
 10
708.4376435323042
 20
1158.856950874362
 30
0.0
  0
LINE
  5
C0
330
1F
100
AcDbEntity
  8
0
  6
Continuous
 62
     7
370
    15
100
AcDbLine
 10
708.4376435323
 20
1158.8569508744
 30
0.0
 11
708.4376435323
 21
1188.8569502038
 31
0.0
  0
SPLINE
  5
C1
330
1F
100
AcDbEntity
  8
0
  6
Continuous
 62
     7
370
    15
100
AcDbSpline
210
0.0
220
0.0
230
1.0
 70
     8
 71
     3
 72
    11
 73
     7
 74
     0
 42
0.00000001
 43
0.00000001
 12
1.0
 22
0.0
 32
0.0
 13
1.0
 23
0.0
 33
0.0
 40
0.0
 40
0.0
 40
0.0
 40
0.0
 40
0.1681463692598937
 40
0.4631435710616363
 40
0.7870044472575374
 40
1.0
 40
1.0
 40
1.0
 40
1.0
 10
700.8790742202085
 20
1153.427981014285
 30
0.0
 10
700.8761980384905
 20
1153.425895558314
 30
0.0
 10
700.8682758628427
 20
1153.420151363361
 30
0.0
 10
701.1744861284997
 20
1153.647948582134
 30
0.0
 10
701.6518712395244
 20
1153.838428100935
 30
0.0
 10
702.0122629910035
 20
1153.82814754696
 30
0.0
 10
702.1552469177526
 20
1153.824068779978
 30
0.0
  0
SPLINE
  5
C2
330
1F
100
AcDbEntity
  8
0
  6
Continuous
 62
     7
370
    15
100
AcDbSpline
210
0.0
220
0.0
230
1.0
 70
     8
 71
     3
 72
    15
 73
    11
 74
     0
 42
0.00000001
 43
0.00000001
 12
1.0
 22
0.0
 32
0.0
 13
1.0
 23
0.0
 33
0.0
 40
0.0
 40
0.0
 40
0.0
 40
0.0
 40
0.0106802597803033
 40
0.1798432845096492
 40
0.3359758605660673
 40
0.5082365247150175
 40
0.6650957714446066
 40
0.8136954625584758
 40
0.9637535077098319
 40
1.0
 40
1.0
 40
1.0
 40
1.0
 10
660.0961308522504
 20
1074.863054032359
 30
0.0
 10
660.0779445414537
 20
1074.861385348652
 30
0.0
 10
659.7717079953339
 20
1074.833286635256
 30
0.0
 10
659.064539008371
 20
1074.985628171942
 30
0.0
 10
658.090641808824
 20
1075.427894812404
 30
0.0
 10
657.239021329095
 20
1076.179526347199
 30
0.0
 10
656.6792738826081
 20
1077.078273644252
 30
0.0
 10
656.4213348674516
 20
1077.924492012604
 30
0.0
 10
656.3664471271954
 20
1078.513586359619
 30
0.0
 10
656.4076662157497
 20
1078.749030350064
 30
0.0
 10
656.4156855984014
 20
1078.794837172064
 30
0.0
  0
SPLINE
  5
C3
330
1F
100
AcDbEntity
  8
0
  6
Continuous
 62
     7
370
    15
100
AcDbSpline
210
0.0
220
0.0
230
1.0
 70
     8
 71
     3
 72
    14
 73
    10
 74
     0
 42
0.00000001
 43
0.00000001
 12
1.0
 22
0.0
 32
0.0
 13
1.0
 23
0.0
 33
0.0
 40
0.0
 40
0.0
 40
0.0
 40
0.0
 40
0.1104660884268396
 40
0.2574550217573887
 40
0.4312851361137556
 40
0.6031769406816423
 40
0.7704136942928665
 40
0.9321114988596629
 40
0.9999999999999999
 40
0.9999999999999999
 40
0.9999999999999999
 40
0.9999999999999999
 10
571.74530211523
 20
1078.763619239363
 30
0.0
 10
571.7567297457416
 20
1078.609805915377
 30
0.0
 10
571.7833632665256
 20
1078.251324744936
 30
0.0
 10
571.6191453976694
 20
1077.425208827149
 30
0.0
 10
571.1420786974833
 20
1076.459236425632
 30
0.0
 10
570.3581065343808
 20
1075.632326443801
 30
0.0
 10
569.4186062332011
 20
1075.095186496371
 30
0.0
 10
568.5989560026795
 20
1074.861430764865
 30
0.0
 10
568.18530350415
 20
1074.878864749708
 30
0.0
 10
568.0629867656511
 20
1074.884019966159
 30
0.0
  0
SPLINE
  5
C4
330
1F
100
AcDbEntity
  8
0
  6
Continuous
 62
     7
370
    15
100
AcDbSpline
210
0.0
220
0.0
230
1.0
 70
     8
 71
     3
 72
     9
 73
     5
 74
     0
 42
0.00000001
 43
0.00000001
 12
1.0
 22
0.0
 32
0.0
 13
1.0
 23
0.0
 33
0.0
 40
0.0
 40
0.0
 40
0.0
 40
0.0
 40
0.9116670771728624
 40
1.0
 40
1.0
 40
1.0
 40
1.0
 10
665.5068803174775
 20
1064.861230726275
 30
0.0
 10
665.4309766223358
 20
1064.886304136667
 30
0.0
 10
665.347718493308
 20
1064.913806951039
 30
0.0
 10
665.38807718609
 20
1064.877341344331
 30
0.0
 10
665.391642187385
 20
1064.874120230708
 30
0.0
  0
SPLINE
  5
C5
330
1F
100
AcDbEntity
  8
0
  6
Continuous
 62
     7
370
    15
100
AcDbSpline
210
0.0
220
0.0
230
1.0
 70
     8
 71
     3
 72
     9
 73
     5
 74
     0
 42
0.00000001
 43
0.00000001
 12
1.0
 22
0.0
 32
0.0
 13
1.0
 23
0.0
 33
0.0
 40
0.0
 40
0.0
 40
0.0
 40
0.0
 40
0.7236155819282574
 40
1.0
 40
1.0
 40
1.0
 40
1.0
 10
562.774233107118
 20
1064.882360572848
 30
0.0
 10
562.7557048802787
 20
1064.872169664377
 30
0.0
 10
562.7300998113691
 20
1064.85808634621
 30
0.0
 10
562.6809236903141
 20
1064.862207631992
 30
0.0
 10
562.6673321767133
 20
1064.863346691165
 30
0.0
  0
SPLINE
  5
C6
330
1F
100
AcDbEntity
  8
0
  6
Continuous
 62
     7
370
    15
100
AcDbSpline
210
0.0
220
0.0
230
1.0
 70
     8
 71
     3
 72
    16
 73
    12
 74
     0
 42
0.00000001
 43
0.00000001
 12
1.0
 22
0.0
 32
0.0
 13
1.0
 23
0.0
 33
0.0
 40
0.0
 40
0.0
 40
0.0
 40
0.0
 40
0.0244930956562287
 40
0.1494704747836723
 40
0.2648385244356484
 40
0.3711105059926725
 40
0.4719427003867264
 40
0.5784633959376353
 40
0.7015140875477508
 40
0.8601640132673838
 40
1.0
 40
1.0
 40
1.0
 40
1.0
 10
519.065334980039
 20
1136.455387051139
 30
0.0
 10
519.0703118852466
 20
1136.39347308534
 30
0.0
 10
519.1006837253269
 20
1136.015639674914
 30
0.0
 10
518.9750689324891
 20
1135.354464077401
 30
0.0
 10
518.7254675864185
 20
1134.546756697156
 30
0.0
 10
518.3850034745266
 20
1133.889532632785
 30
0.0
 10
518.0312726526477
 20
1133.383826177554
 30
0.0
 10
517.7001552155187
 20
1133.010004361668
 30
0.0
 10
517.3973515639517
 20
1132.726685459656
 30
0.0
 10
517.1442415621605
 20
1132.525333952003
 30
0.0
 10
517.0169983651236
 20
1132.443626813892
 30
0.0
 10
516.9573869152349
 20
1132.405348296199
 30
0.0
  0
ARC
  5
C7
330
1F
100
AcDbEntity
  8
0
  6
Continuous
 62
     7
370
    15
100
AcDbCircle
 10
518.0801218928
 20
1130.6946109891
 30
0.0
 40
1.999966186602727
100
AcDbArc
 50
124.8095587335
 51
179.8451921161
  0
SPLINE
  5
C8
330
1F
100
AcDbEntity
  8
0
  6
Continuous
 62
     7
370
    15
100
AcDbSpline
210
0.0
220
0.0
230
1.0
 70
     8
 71
     3
 72
    15
 73
    11
 74
     0
 42
0.00000001
 43
0.00000001
 12
1.0
 22
0.0
 32
0.0
 13
1.0
 23
0.0
 33
0.0
 40
0.0
 40
0.0
 40
0.0
 40
0.0
 40
0.1986987442270139
 40
0.3464734446092329
 40
0.4690721962750892
 40
0.5845356275299146
 40
0.6993118311652945
 40
0.8262456435212403
 40
0.9648126553208536
 40
0.9999999999999999
 40
0.9999999999999999
 40
0.9999999999999999
 40
0.9999999999999999
 10
711.2046252532284
 20
1132.40137713674
 30
0.0
 10
711.1144568286485
 20
1132.461963288852
 30
0.0
 10
710.957229037498
 20
1132.567608107591
 30
0.0
 10
710.6491250059723
 20
1132.826836218359
 30
0.0
 10
710.313633665634
 20
1133.163586765704
 30
0.0
 10
709.929747042023
 20
1133.646668488177
 30
0.0
 10
709.5307395523379
 20
1134.322667059183
 30
0.0
 10
709.22186273463
 20
1135.184373060578
 30
0.0
 10
709.060975708693
 20
1135.928661983242
 30
0.0
 10
709.0950080811366
 20
1136.366571086267
 30
0.0
 10
709.1019000454229
 20
1136.455252940688
 30
0.0
  0
ARC
  5
C9
330
1F
100
AcDbEntity
  8
0
  6
Continuous
 62
     7
370
    15
100
AcDbCircle
 10
710.0801772401
 20
1130.6946091284
 30
0.0
 40
1.999973044252057
100
AcDbArc
 50
0.1548606581
 51
55.2126928453
  0
SPLINE
  5
CA
330
1F
100
AcDbEntity
  8
0
  6
Continuous
 62
     7
370
    15
100
AcDbSpline
210
0.0
220
0.0
230
1.0
 70
     8
 71
     3
 72
    12
 73
     8
 74
     0
 42
0.00000001
 43
0.00000001
 12
1.0
 22
0.0
 32
0.0
 13
1.0
 23
0.0
 33
0.0
 40
0.0
 40
0.0
 40
0.0
 40
0.0
 40
0.0431197161761631
 40
0.3213518316013138
 40
0.5912362114869324
 40
0.8646549635909657
 40
1.0
 40
1.0
 40
1.0
 40
1.0
 10
517.2452922506612
 20
1158.857472415003
 30
0.0
 10
517.2384392243985
 20
1158.79638896934
 30
0.0
 10
517.1873667049844
 20
1158.341161549378
 30
0.0
 10
517.3974761896225
 20
1157.496720762618
 30
0.0
 10
517.8715387536356
 20
1156.43248938476
 30
0.0
 10
518.4610186591117
 20
1155.642297439289
 30
0.0
 10
518.9261465370478
 20
1155.292330413444
 30
0.0
 10
519.0801541848463
 20
1155.176453466448
 30
0.0
  0
LINE
  5
CB
330
1F
100
AcDbEntity
  8
0
  6
Continuous
 62
     7
370
    15
100
AcDbLine
 10
517.2236557646
 20
1174.582021485
 30
0.0
 11
517.2236557646
 21
1158.8569508744
 31
0.0
  0
LINE
  5
CC
330
1F
100
AcDbEntity
  8
0
  6
Continuous
 62
     7
370
    15
100
AcDbLine
 10
709.0801518007
 20
1182.856951083
 30
0.0
 11
709.0801518007
 21
1174.8569497717
 31
0.0
  0
LINE
  5
CD
330
1F
100
AcDbEntity
  8
0
  6
Continuous
 62
     7
370
    15
100
AcDbLine
 10
709.0801518007
 20
1190.8569505316
 30
0.0
 11
709.0801518007
 21
1182.856951083
 31
0.0
  0
LINE
  5
CE
330
1F
100
AcDbEntity
  8
0
  6
Continuous
 62
     7
370
    15
100
AcDbLine
 10
714.0801544829
 20
1185.7042686892
 30
0.0
 11
714.0801544829
 21
1180.0096316141
 31
0.0
  0
ARC
  5
CF
330
1F
100
AcDbEntity
  8
0
  6
Continuous
 62
     7
370
    15
100
AcDbCircle
 10
726.0801529928
 20
1182.8569506359
 30
0.0
 40
10.49999999999995
100
AcDbArc
 50
207.2660444507
 51
152.7339555493
  0
ARC
  5
D0
330
1F
100
AcDbEntity
  8
0
  6
Continuous
 62
     7
370
    15
100
AcDbCircle
 10
726.0801529928
 20
1182.8569506359
 30
0.0
 40
17.00000000000002
100
AcDbArc
 50
211.7568638593
 51
148.2431361407
  0
SPLINE
  5
D1
330
1F
100
AcDbEntity
  8
0
  6
Continuous
 62
     7
370
    15
100
AcDbSpline
210
0.0
220
0.0
230
1.0
 70
     8
 71
     3
 72
    11
 73
     7
 74
     0
 42
0.00000001
 43
0.00000001
 12
1.0
 22
0.0
 32
0.0
 13
1.0
 23
0.0
 33
0.0
 40
0.0
 40
0.0
 40
0.0
 40
0.0
 40
0.2447166957955963
 40
0.5563133692791886
 40
0.8818541298181874
 40
1.0
 40
1.0
 40
1.0
 40
1.0
 10
716.7468215866369
 20
1187.66724056277
 30
0.0
 10
716.4231518351859
 20
1186.918627043494
 30
0.0
 10
715.6873548378536
 20
1185.216807280677
 30
0.0
 10
715.450652310513
 20
1182.229772576764
 30
0.0
 10
715.9469401633762
 20
1179.739394229764
 30
0.0
 10
716.5786172078557
 20
1178.402619928159
 30
0.0
 10
716.7468215866369
 20
1178.046660671863
 30
0.0
  0
ARC
  5
D2
330
1F
100
AcDbEntity
  8
0
  6
Continuous
 62
     7
370
    15
100
AcDbCircle
 10
709.9246585713
 20
1172.8569506359
 30
0.0
 40
2.0
100
AcDbArc
 50
31.7568638593
 51
90.0
  0
ARC
  5
D3
330
1F
100
AcDbEntity
  8
0
  6
Continuous
 62
     7
370
    15
100
AcDbCircle
 10
709.9246585713
 20
1192.8569506359
 30
0.0
 40
2.000000000000033
100
AcDbArc
 50
270.0
 51
328.2431361407
  0
SPLINE
  5
D4
330
1F
100
AcDbEntity
  8
0
  6
Continuous
 62
     7
370
    15
100
AcDbSpline
210
0.0
220
0.0
230
1.0
 70
     8
 71
     3
 72
    11
 73
     7
 74
     0
 42
0.00000001
 43
0.00000001
 12
1.0
 22
0.0
 32
0.0
 13
1.0
 23
0.0
 33
0.0
 40
0.0
 40
0.0
 40
0.0
 40
0.0
 40
0.2447167831514378
 40
0.5563132720191926
 40
0.8818542145576577
 40
1.0
 40
1.0
 40
1.0
 40
1.0
 10
716.7468215866369
 20
1178.046660671863
 30
0.0
 10
716.4231518213955
 20
1178.795274508499
 30
0.0
 10
715.6873551840083
 20
1180.497094087745
 30
0.0
 10
715.4506525132389
 20
1183.484128832138
 30
0.0
 10
715.9469395288276
 20
1185.974507255521
 30
0.0
 10
716.5786171988108
 20
1187.311281622425
 30
0.0
 10
716.7468215866369
 20
1187.66724056277
 30
0.0
  0
LINE
  5
D5
330
1F
100
AcDbEntity
  8
0
  6
Continuous
 62
     7
370
    15
100
AcDbLine
 10
519.0801541848
 20
1174.8569497717
 30
0.0
 11
519.0801541848
 21
1190.8569505316
 31
0.0
  0
ARC
  5
D6
330
1F
100
AcDbEntity
  8
0
  6
Continuous
 62
     7
370
    15
100
AcDbCircle
 10
502.0801529928
 20
1182.8569506359
 30
0.0
 40
10.50000000000005
100
AcDbArc
 50
27.2660444507
 51
332.7339555493
  0
ARC
  5
D7
330
1F
100
AcDbEntity
  8
0
  6
Continuous
 62
     7
370
    15
100
AcDbCircle
 10
502.0801529928
 20
1182.8569506359
 30
0.0
 40
17.00000000000007
100
AcDbArc
 50
31.7568638593
 51
328.2431361407
  0
SPLINE
  5
D8
330
1F
100
AcDbEntity
  8
0
  6
Continuous
 62
     7
370
    15
100
AcDbSpline
210
0.0
220
0.0
230
1.0
 70
     8
 71
     3
 72
    11
 73
     7
 74
     0
 42
0.00000001
 43
0.00000001
 12
1.0
 22
0.0
 32
0.0
 13
1.0
 23
0.0
 33
0.0
 40
0.0
 40
0.0
 40
0.0
 40
0.0
 40
0.2447167831514378
 40
0.5563132720191926
 40
0.8818542145576577
 40
1.0
 40
1.0
 40
1.0
 40
1.0
 10
511.4134843988698
 20
1178.046660671863
 30
0.0
 10
511.7371541641111
 20
1178.795274508499
 30
0.0
 10
512.4729508014983
 20
1180.497094087745
 30
0.0
 10
512.7096534722677
 20
1183.484128832138
 30
0.0
 10
512.2133664566791
 20
1185.974507255521
 30
0.0
 10
511.5816887866959
 20
1187.311281622425
 30
0.0
 10
511.4134843988698
 20
1187.66724056277
 30
0.0
  0
ARC
  5
D9
330
1F
100
AcDbEntity
  8
0
  6
Continuous
 62
     7
370
    15
100
AcDbCircle
 10
518.2356474142
 20
1192.8569506359
 30
0.0
 40
2.000000000000129
100
AcDbArc
 50
211.7568638593
 51
270.0
  0
ARC
  5
DA
330
1F
100
AcDbEntity
  8
0
  6
Continuous
 62
     7
370
    15
100
AcDbCircle
 10
518.2356474142
 20
1172.8569506359
 30
0.0
 40
2.00000000000001
100
AcDbArc
 50
90.0
 51
148.2431361407
  0
SPLINE
  5
DB
330
1F
100
AcDbEntity
  8
0
  6
Continuous
 62
     7
370
    15
100
AcDbSpline
210
0.0
220
0.0
230
1.0
 70
     8
 71
     3
 72
    11
 73
     7
 74
     0
 42
0.00000001
 43
0.00000001
 12
1.0
 22
0.0
 32
0.0
 13
1.0
 23
0.0
 33
0.0
 40
0.0
 40
0.0
 40
0.0
 40
0.0
 40
0.2447166957955963
 40
0.5563133692791886
 40
0.8818541298181874
 40
1.0
 40
1.0
 40
1.0
 40
1.0
 10
511.4134843988698
 20
1187.66724056277
 30
0.0
 10
511.7371541503209
 20
1186.918627043494
 30
0.0
 10
512.472951147653
 20
1185.216807280677
 30
0.0
 10
512.7096536749937
 20
1182.229772576764
 30
0.0
 10
512.2133658221304
 20
1179.739394229764
 30
0.0
 10
511.581688777651
 20
1178.402619928159
 30
0.0
 10
511.4134843988698
 20
1178.046660671863
 30
0.0
  0
LINE
  5
DC
330
1F
100
AcDbEntity
  8
0
  6
Continuous
 62
     7
370
    15
100
AcDbLine
 10
716.4636026664
 20
1433.3419578028
 30
0.0
 11
716.8028499527
 21
1433.3419578028
 31
0.0
  0
ARC
  5
DD
330
1F
100
AcDbEntity
  8
0
  6
Continuous
 62
     7
370
    15
100
AcDbCircle
 10
710.3843027838
 20
1433.8569568348
 30
0.0
 40
6.439174773396726
100
AcDbArc
 50
355.4126389081
 51
4.5873610919
  0
LINE
  5
DE
330
1F
100
AcDbEntity
  8
0
  6
Continuous
 62
     7
370
    15
100
AcDbLine
 10
716.8028499527
 20
1434.3719558668
 30
0.0
 11
716.4636026664
 21
1434.3719558668
 31
0.0
  0
ARC
  5
DF
330
1F
100
AcDbEntity
  8
0
  6
Continuous
 62
     7
370
    15
100
AcDbCircle
 10
715.5111046655
 20
1434.1161904093
 30
0.0
 40
0.9862395302337235
100
AcDbArc
 50
15.0305486572
 51
38.1014896758
  0
ARC
  5
E0
330
1F
100
AcDbEntity
  8
0
  6
Continuous
 62
     7
370
    15
100
AcDbCircle
 10
708.994467107
 20
1433.8737000123
 30
0.0
 40
7.342219006448516
100
AcDbArc
 50
6.656265617
 51
15.5460485765
  0
ARC
  5
E1
330
1F
100
AcDbEntity
  8
0
  6
Continuous
 62
     7
370
    15
100
AcDbCircle
 10
715.8105741782
 20
1432.262617891
 30
0.0
 40
3.588142020605266
100
AcDbArc
 50
85.8846866789
 51
94.1153133211
  0
ARC
  5
E2
330
1F
100
AcDbEntity
  8
0
  6
Continuous
 62
     7
370
    15
100
AcDbCircle
 10
708.4794680749
 20
1433.8737000123
 30
0.0
 40
7.342219006453989
100
AcDbArc
 50
6.656265617
 51
15.5460485765
  0
ARC
  5
E3
330
1F
100
AcDbEntity
  8
0
  6
Continuous
 62
     7
370
    15
100
AcDbCircle
 10
716.548139604
 20
1434.1162640312
 30
0.0
 40
0.9860782377813029
100
AcDbArc
 50
141.8965975505
 51
164.9713641164
  0
LINE
  5
E4
330
1F
100
AcDbEntity
  8
0
  6
Continuous
 62
     7
370
    15
100
AcDbLine
 10
715.5957888408
 20
1434.3719558668
 30
0.0
 11
714.8182909532
 21
1434.3719558668
 31
0.0
  0
ARC
  5
E5
330
1F
100
AcDbEntity
  8
0
  6
Continuous
 62
     7
370
    15
100
AcDbCircle
 10
703.2091630498
 20
1433.8569568348
 30
0.0
 40
11.62054536929016
100
AcDbArc
 50
357.459935165
 51
2.540064835
  0
LINE
  5
E6
330
1F
100
AcDbEntity
  8
0
  6
Continuous
 62
     7
370
    15
100
AcDbLine
 10
714.8182909532
 20
1433.3419578028
 30
0.0
 11
715.5957888408
 21
1433.3419578028
 31
0.0
  0
ARC
  5
E7
330
1F
100
AcDbEntity
  8
0
  6
Continuous
 62
     7
370
    15
100
AcDbCircle
 10
716.548040207
 20
1433.5975742399
 30
0.0
 40
0.9859626906659316
100
AcDbArc
 50
195.0259019817
 51
218.1042003725
  0
ARC
  5
E8
330
1F
100
AcDbEntity
  8
0
  6
Continuous
 62
     7
370
    15
100
AcDbCircle
 10
708.4791332703
 20
1433.8402644493
 30
0.0
 40
7.342559169015565
100
AcDbArc
 50
344.4541577584
 51
353.3435280482
  0
ARC
  5
E9
330
1F
100
AcDbEntity
  8
0
  6
Continuous
 62
     7
370
    15
100
AcDbCircle
 10
715.8105741782
 20
1435.4512808776
 30
0.0
 40
3.588142020683734
100
AcDbArc
 50
265.884686679
 51
274.115313321
  0
ARC
  5
EA
330
1F
100
AcDbEntity
  8
0
  6
Continuous
 62
     7
370
    15
100
AcDbCircle
 10
708.9941323023
 20
1433.8402644493
 30
0.0
 40
7.342559169010015
100
AcDbArc
 50
344.4541577584
 51
353.3435280482
  0
ARC
  5
EB
330
1F
100
AcDbEntity
  8
0
  6
Continuous
 62
     7
370
    15
100
AcDbCircle
 10
715.5112041365
 20
1433.5976478218
 30
0.0
 40
0.9861238997093654
100
AcDbArc
 50
321.8977119369
 51
344.9721857089
  0
ARC
  5
EC
330
1F
100
AcDbEntity
  8
0
  6
Continuous
 62
     7
370
    15
100
AcDbCircle
 10
714.4144755589
 20
1432.0338674237
 30
0.0
 40
2.174097073714386
100
AcDbArc
 50
294.3888606816
 51
344.8676106696
  0
ARC
  5
ED
330
1F
100
AcDbEntity
  8
0
  6
Continuous
 62
     7
370
    15
100
AcDbCircle
 10
714.44853412
 20
1435.7005955035
 30
0.0
 40
2.135879327849677
100
AcDbArc
 50
14.8383790324
 51
67.5406722306
  0
LWPOLYLINE
  5
EE
330
1F
100
AcDbEntity
  8
0
  6
Continuous
 62
     7
370
    15
100
AcDbPolyline
 90
       17
 70
   128
 43
0.0
 10
714.7510122104
 20
1437.8569500399
 10
714.1614999218
 20
1437.6792387915
 10
713.6243726654
 20
1437.1619002772
 10
713.1873514099
 20
1436.3509045792
 10
712.8892611308
 20
1435.3183137131
 10
712.7566035433
 20
1434.1558741284
 10
712.8011580153
 20
1432.9668657732
 10
713.0189608379
 20
1431.8569527817
 10
713.3906628533
 20
1430.9247361374
 10
713.8832430883
 20
1430.2530811978
 10
714.4529293819
 20
1429.9016224099
 10
715.0490950389
 20
1429.9016224099
 10
715.6187813325
 20
1430.2530811978
 10
716.1113541169
 20
1430.9247361374
 10
716.4830635829
 20
1431.8569527817
 10
716.7008664055
 20
1432.9668657732
 10
716.7139421745
 20
1433.0904113007
  0
LWPOLYLINE
  5
EF
330
1F
100
AcDbEntity
  8
0
  6
Continuous
 62
     7
370
    15
100
AcDbPolyline
 90
        3
 70
   128
 43
0.0
 10
715.4496606036
 20
1437.6049565029
 10
715.340524499
 20
1437.6792387915
 10
714.7510122104
 20
1437.8569500399
  0
LWPOLYLINE
  5
F0
330
1F
100
AcDbEntity
  8
0
  6
Continuous
 62
     7
370
    15
100
AcDbPolyline
 90
       12
 70
   128
 43
0.0
 10
713.4132679148
 20
1437.8569500399
 10
712.8237556262
 20
1437.6792387915
 10
712.2866283698
 20
1437.1619002772
 10
711.8496071143
 20
1436.3509045792
 10
711.5515168352
 20
1435.3183137131
 10
711.4188592477
 20
1434.1558741284
 10
711.4634137197
 20
1432.9668657732
 10
711.6812165423
 20
1431.8569527817
 10
712.0529185577
 20
1430.9247361374
 10
712.5454987927
 20
1430.2530811978
 10
713.1151850863
 20
1429.9016224099
 10
713.4132679148
 20
1429.8569487286
  0
LINE
  5
F1
330
1F
100
AcDbEntity
  8
0
  6
Continuous
 62
     7
370
    15
100
AcDbLine
 10
716.0680736943
 20
1435.8415083838
 30
0.0
 11
715.6198765679
 21
1435.5834798766
 31
0.0
  0
LINE
  5
F2
330
1F
100
AcDbEntity
  8
0
  6
Continuous
 62
     7
370
    15
100
AcDbLine
 10
716.0680736943
 20
1431.8723903847
 30
0.0
 11
715.6198765679
 21
1432.1304337931
 31
0.0
  0
SPLINE
  5
F3
330
1F
100
AcDbEntity
  8
0
  6
Continuous
 62
     7
370
    15
100
AcDbSpline
210
0.0
220
0.0
230
1.0
 70
     8
 71
     3
 72
     9
 73
     5
 74
     0
 42
0.00000001
 43
0.00000001
 12
1.0
 22
0.0
 32
0.0
 13
1.0
 23
0.0
 33
0.0
 40
0.0
 40
0.0
 40
0.0
 40
0.0
 40
0.5816735240886916
 40
1.0
 40
1.0
 40
1.0
 40
1.0
 10
715.7564084573072
 20
1434.67380868915
 30
0.0
 10
715.8593064803144
 20
1434.683916399962
 30
0.0
 10
716.036206440079
 20
1434.701293348359
 30
0.0
 10
716.2131676925103
 20
1434.7178356687
 30
0.0
 10
716.2871952696127
 20
1434.724755759272
 30
0.0
  0
SPLINE
  5
F4
330
1F
100
AcDbEntity
  8
0
  6
Continuous
 62
     7
370
    15
100
AcDbSpline
210
0.0
220
0.0
230
1.0
 70
    24
 71
     3
 72
     9
 73
     5
 74
     0
 42
0.00000001
 43
0.00000001
 12
1.0
 22
0.0
 32
0.0
 13
1.0
 23
0.0
 33
0.0
 40
0.0
 40
0.0
 40
0.0
 40
0.0
 40
0.4131699650269304
 40
0.9999999999999999
 40
0.9999999999999999
 40
0.9999999999999999
 40
0.9999999999999999
 10
716.463602666406
 20
1434.371955866847
 30
0.0
 10
716.3861116892815
 20
1434.371955866847
 30
0.0
 10
716.1985593895408
 20
1434.371955866847
 30
0.0
 10
716.0106574368259
 20
1434.371955866847
 30
0.0
 10
715.9003909273426
 20
1434.371955866847
 30
0.0
  0
SPLINE
  5
F5
330
1F
100
AcDbEntity
  8
0
  6
Continuous
 62
     7
370
    15
100
AcDbSpline
210
0.0
220
0.0
230
1.0
 70
     8
 71
     3
 72
     9
 73
     5
 74
     0
 42
0.00000001
 43
0.00000001
 12
1.0
 22
0.0
 32
0.0
 13
1.0
 23
0.0
 33
0.0
 40
0.0
 40
0.0
 40
0.0
 40
0.0
 40
0.3998939267590471
 40
1.0
 40
1.0
 40
1.0
 40
1.0
 10
716.2871952696127
 20
1432.989143009219
 30
0.0
 10
716.2131680364702
 20
1432.996071704236
 30
0.0
 10
716.0280508636677
 20
1433.013398036431
 30
0.0
 10
715.8429943114847
 20
1433.031569474679
 30
0.0
 10
715.7319407506269
 20
1433.042474265132
 30
0.0
  0
SPLINE
  5
F6
330
1F
100
AcDbEntity
  8
0
  6
Continuous
 62
     7
370
    15
100
AcDbSpline
210
0.0
220
0.0
230
1.0
 70
    24
 71
     3
 72
     9
 73
     5
 74
     0
 42
0.00000001
 43
0.00000001
 12
1.0
 22
0.0
 32
0.0
 13
1.0
 23
0.0
 33
0.0
 40
0.0
 40
0.0
 40
0.0
 40
0.0
 40
0.5868300349730694
 40
0.9999999999999999
 40
0.9999999999999999
 40
0.9999999999999999
 40
0.9999999999999999
 10
715.9003909273426
 20
1433.341957802805
 30
0.0
 10
716.0106574368259
 20
1433.341957802805
 30
0.0
 10
716.198559389541
 20
1433.341957802805
 30
0.0
 10
716.3861116892814
 20
1433.341957802805
 30
0.0
 10
716.463602666406
 20
1433.341957802805
 30
0.0
  0
ARC
  5
F7
330
1F
100
AcDbEntity
  8
0
  6
Continuous
 62
     7
370
    15
100
AcDbCircle
 10
652.5213027061
 20
1316.5975337803
 30
0.0
 40
24.42574120505757
100
AcDbArc
 50
0.5485801715
 51
3.2148426651
  0
ARC
  5
F8
330
1F
100
AcDbEntity
  8
0
  6
Continuous
 62
     7
370
    15
100
AcDbCircle
 10
677.4433735354
 20
1369.768014058
 30
0.0
 40
52.93895608504272
100
AcDbArc
 50
269.4616033137
 51
270.5383966863
  0
ARC
  5
F9
330
1F
100
AcDbEntity
  8
0
  6
Continuous
 62
     7
370
    15
100
AcDbCircle
 10
653.5115137826
 20
1316.5975397706
 30
0.0
 40
24.4304282352862
100
AcDbArc
 50
0.5484608726
 51
3.2142111718
  0
ARC
  5
FA
330
1F
100
AcDbEntity
  8
0
  6
Continuous
 62
     7
370
    15
100
AcDbCircle
 10
677.4683100948
 20
1318.683966834
 30
0.0
 40
0.8384289433841076
100
AcDbArc
 50
301.2696346083
 51
332.6574828324
  0
ARC
  5
FB
330
1F
100
AcDbEntity
  8
0
  6
Continuous
 62
     7
370
    15
100
AcDbCircle
 10
677.5462401635
 20
1304.44018235
 30
0.0
 40
13.87471995620763
100
AcDbArc
 50
83.0288022795
 51
87.2452717126
  0
ARC
  5
FC
330
1F
100
AcDbEntity
  8
0
  6
Continuous
 62
     7
370
    15
100
AcDbCircle
 10
670.7569933832
 20
1317.9024036035
 30
0.0
 40
8.478893054549081
100
AcDbArc
 50
2.0947853203
 51
8.6677702376
  0
ARC
  5
FD
330
1F
100
AcDbEntity
  8
0
  6
Continuous
 62
     7
370
    15
100
AcDbCircle
 10
677.4554247285
 20
1305.4122073971
 30
0.0
 40
13.87056473956736
100
AcDbArc
 50
83.0281905351
 51
87.2459543565
  0
ARC
  5
FE
330
1F
100
AcDbEntity
  8
0
  6
Continuous
 62
     7
370
    15
100
AcDbCircle
 10
677.2203010183
 20
1318.6295507394
 30
0.0
 40
1.104029763270644
100
AcDbArc
 50
35.2509771187
 51
61.3361000965
  0
ARC
  5
FF
330
1F
100
AcDbEntity
  8
0
  6
Continuous
 62
     7
370
    15
100
AcDbCircle
 10
662.4149031129
 20
1317.5385275122
 30
0.0
 40
15.47268060356845
100
AcDbArc
 50
7.6500321421
 51
11.265265796
  0
ARC
  5
100
330
1F
100
AcDbEntity
  8
0
  6
Continuous
 62
     7
370
    15
100
AcDbCircle
 10
677.0920227809
 20
1312.316895001
 30
0.0
 40
8.259240320192696
100
AcDbArc
 50
86.5469931786
 51
93.4530068214
  0
ARC
  5
101
330
1F
100
AcDbEntity
  8
0
  6
Continuous
 62
     7
370
    15
100
AcDbCircle
 10
661.4199972834
 20
1317.5385275122
 30
0.0
 40
15.4726806036494
100
AcDbArc
 50
7.6500321421
 51
11.2652657959
  0
ARC
  5
102
330
1F
100
AcDbEntity
  8
0
  6
Continuous
 62
     7
370
    15
100
AcDbCircle
 10
677.190049065
 20
1318.8817469197
 30
0.0
 40
0.838282205140647
100
AcDbArc
 50
121.2663676116
 51
152.6594652336
  0
ARC
  5
103
330
1F
100
AcDbEntity
  8
0
  6
Continuous
 62
     7
370
    15
100
AcDbCircle
 10
677.3504010266
 20
1299.7874217151
 30
0.0
 40
19.50034107951875
100
AcDbArc
 50
92.6599965999
 51
96.0203389892
  0
ARC
  5
104
330
1F
100
AcDbEntity
  8
0
  6
Continuous
 62
     7
370
    15
100
AcDbCircle
 10
706.3175185447
 20
1321.6134021679
 30
0.0
 40
31.10764845127322
100
AcDbArc
 50
184.4861640315
 51
186.2768286993
  0
ARC
  5
105
330
1F
100
AcDbEntity
  8
0
  6
Continuous
 62
     7
370
    15
100
AcDbCircle
 10
677.4421584422
 20
1298.8118847211
 30
0.0
 40
19.50801421437943
100
AcDbArc
 50
92.6606576552
 51
96.019677934
  0
ARC
  5
106
330
1F
100
AcDbEntity
  8
0
  6
Continuous
 62
     7
370
    15
100
AcDbCircle
 10
677.4381780006
 20
1318.9360613955
 30
0.0
 40
1.104030240950733
100
AcDbArc
 50
215.2504221713
 51
241.3359458846
  0
LWPOLYLINE
  5
107
330
1F
100
AcDbEntity
  8
0
  6
Continuous
 62
     7
370
    15
100
AcDbPolyline
 90
       22
 70
   128
 43
0.0
 10
680.8338384671
 20
1318.2778136683
 10
680.5578168078
 20
1319.3857299042
 10
679.963014607
 20
1320.3952090693
 10
679.1022788329
 20
1321.2165387225
 10
678.0520971461
 20
1321.7767553282
 10
676.9057731672
 20
1322.0260741067
 10
675.7651749594
 20
1321.942344482
 10
674.7316378696
 20
1321.533009584
 10
673.8970014794
 20
1320.8344282461
 10
673.3354288681
 20
1319.9086861563
 10
673.0968128486
 20
1318.8380302739
 10
673.2023614986
 20
1317.7175970626
 10
673.6426908119
 20
1316.6469486308
 10
674.378681515
 20
1315.7211990905
 10
675.3449324115
 20
1315.0226252032
 10
676.455590461
 20
1314.6132828546
 10
677.6119689985
 20
1314.5295532298
 10
678.7113170667
 20
1314.7788720084
 10
679.6559538288
 20
1315.339088614
 10
680.3619410439
 20
1316.1604257179
 10
680.7665522738
 20
1317.1698974324
 10
680.8338384671
 20
1318.2778136683
  0
ARC
  5
108
330
1F
100
AcDbEntity
  8
0
  6
Continuous
 62
     7
370
    15
100
AcDbCircle
 10
676.7612310171
 20
1317.9840391161
 30
0.0
 40
4.010338002166049
100
AcDbArc
 50
148.6986049246
 51
320.4681581225
  0
LINE
  5
109
330
1F
100
AcDbEntity
  8
0
  6
Continuous
 62
     7
370
    15
100
AcDbLine
 10
676.9421469016
 20
1317.085415299
 30
0.0
 11
677.3637901588
 21
1317.085415299
 31
0.0
  0
LINE
  5
10A
330
1F
100
AcDbEntity
  8
0
  6
Continuous
 62
     7
370
    15
100
AcDbLine
 10
677.9408227248
 20
1316.8313952041
 30
0.0
 11
677.3637901588
 21
1317.085415299
 31
0.0
  0
LINE
  5
10B
330
1F
100
AcDbEntity
  8
0
  6
Continuous
 62
     7
370
    15
100
AcDbLine
 10
677.3367147489
 20
1317.3728139949
 30
0.0
 11
677.3637901588
 21
1317.085415299
 31
0.0
  0
SPLINE
  5
10C
330
1F
100
AcDbEntity
  8
0
  6
Continuous
 62
     7
370
    15
100
AcDbSpline
210
0.0
220
0.0
230
1.0
 70
     8
 71
     3
 72
    10
 73
     6
 74
     0
 42
0.00000001
 43
0.00000001
 12
1.0
 22
0.0
 32
0.0
 13
1.0
 23
0.0
 33
0.0
 40
0.0
 40
0.0
 40
0.0
 40
0.0
 40
0.1133760608494772
 40
0.930019840529873
 40
1.0
 40
1.0
 40
1.0
 40
1.0
 10
677.9035102172178
 20
1317.967333073649
 30
0.0
 10
677.8821052822509
 20
1317.944643615251
 30
0.0
 10
677.7065213533754
 20
1317.758522785839
 30
0.0
 10
677.5175988951302
 20
1317.560004976975
 30
0.0
 10
677.3499472882608
 20
1317.386507909458
 30
0.0
 10
677.3367147488874
 20
1317.372813994918
 30
0.0
  0
LINE
  5
10D
330
1F
100
AcDbEntity
  8
0
  6
Continuous
 62
     7
370
    15
100
AcDbLine
 10
675.3051761134
 20
1319.180213089
 30
0.0
 11
675.7838908179
 21
1318.4933738661
 31
0.0
  0
LINE
  5
10E
330
1F
100
AcDbEntity
  8
0
  6
Continuous
 62
     7
370
    15
100
AcDbLine
 10
675.7838908179
 20
1318.4933738661
 30
0.0
 11
675.8067007704
 21
1318.2512150956
 31
0.0
  0
SPLINE
  5
10F
330
1F
100
AcDbEntity
  8
0
  6
Continuous
 62
     7
370
    15
100
AcDbSpline
210
0.0
220
0.0
230
1.0
 70
     8
 71
     3
 72
    10
 73
     6
 74
     0
 42
0.00000001
 43
0.00000001
 12
1.0
 22
0.0
 32
0.0
 13
1.0
 23
0.0
 33
0.0
 40
0.0
 40
0.0
 40
0.0
 40
0.0
 40
0.0699802495416939
 40
0.8866243174366133
 40
1.0
 40
1.0
 40
1.0
 40
1.0
 10
676.0793100638668
 20
1318.493373866114
 30
0.0
 10
676.0876717240936
 20
1318.511409080126
 30
0.0
 10
676.1936109189342
 20
1318.739908684188
 30
0.0
 10
676.3159982446485
 20
1318.99771317685
 30
0.0
 10
676.431347402088
 20
1319.23751778315
 30
0.0
 10
676.4454092426579
 20
1319.266751582656
 30
0.0
  0
LINE
  5
110
330
1F
100
AcDbEntity
  8
0
  6
Continuous
 62
     7
370
    15
100
AcDbLine
 10
675.7838908179
 20
1318.4933738661
 30
0.0
 11
676.0793100639
 21
1318.4933738661
 31
0.0
  0
SPLINE
  5
111
330
1F
100
AcDbEntity
  8
0
  6
Continuous
 62
     7
370
    15
100
AcDbSpline
210
0.0
220
0.0
230
1.0
 70
     8
 71
     3
 72
     9
 73
     5
 74
     0
 42
0.00000001
 43
0.00000001
 12
1.0
 22
0.0
 32
0.0
 13
1.0
 23
0.0
 33
0.0
 40
0.0
 40
0.0
 40
0.0
 40
0.0
 40
0.6128269357230715
 40
1.0
 40
1.0
 40
1.0
 40
1.0
 10
677.9987807913107
 20
1318.072378809485
 30
0.0
 10
678.0427877371799
 20
1318.118634892636
 30
0.0
 10
678.1145974819938
 20
1318.194114739319
 30
0.0
 10
678.1855831869507
 20
1318.269631105971
 30
0.0
 10
678.2130669398588
 20
1318.298869009051
 30
0.0
  0
SPLINE
  5
112
330
1F
100
AcDbEntity
  8
0
  6
Continuous
 62
     7
370
    15
100
AcDbSpline
210
0.0
220
0.0
230
1.0
 70
     8
 71
     3
 72
    10
 73
     6
 74
     0
 42
0.00000001
 43
0.00000001
 12
1.0
 22
0.0
 32
0.0
 13
1.0
 23
0.0
 33
0.0
 40
0.0
 40
0.0
 40
0.0
 40
0.0
 40
0.1133758250108393
 40
0.930017415470334
 40
1.0
 40
1.0
 40
1.0
 40
1.0
 10
676.754965965299
 20
1319.598280067477
 30
0.0
 10
676.734793921595
 20
1319.562501913753
 30
0.0
 10
676.5693234436654
 20
1319.269015131599
 30
0.0
 10
676.3915835319395
 20
1318.951927746484
 30
0.0
 10
676.2342852628373
 20
1318.668435115588
 30
0.0
 10
676.2218694730084
 20
1318.646058614287
 30
0.0
  0
ARC
  5
113
330
1F
100
AcDbEntity
  8
0
  6
Continuous
 62
     7
370
    15
100
AcDbCircle
 10
676.660337533
 20
1318.0937725654
 30
0.0
 40
0.705176658295894
100
AcDbArc
 50
128.4465804917
 51
145.4817743855
  0
LINE
  5
114
330
1F
100
AcDbEntity
  8
0
  6
Continuous
 62
     7
370
    15
100
AcDbLine
 10
677.7480613036
 20
1317.8081886721
 30
0.0
 11
677.6835169239
 21
1318.4933738661
 31
0.0
  0
LINE
  5
115
330
1F
100
AcDbEntity
  8
0
  6
Continuous
 62
     7
370
    15
100
AcDbLine
 10
679.1390474482
 20
1319.180213089
 30
0.0
 11
677.6835169239
 21
1318.4933738661
 31
0.0
  0
SPLINE
  5
116
330
1F
100
AcDbEntity
  8
0
  6
Continuous
 62
     7
370
    15
100
AcDbSpline
210
0.0
220
0.0
230
1.0
 70
     8
 71
     3
 72
    10
 73
     6
 74
     0
 42
0.00000001
 43
0.00000001
 12
1.0
 22
0.0
 32
0.0
 13
1.0
 23
0.0
 33
0.0
 40
0.0
 40
0.0
 40
0.0
 40
0.0
 40
0.0699821994293269
 40
0.8866241750582096
 40
1.0
 40
1.0
 40
1.0
 40
1.0
 10
677.2167753024381
 20
1318.646058614287
 30
0.0
 10
677.2291897853053
 20
1318.668435122371
 30
0.0
 10
677.386472361741
 20
1318.951929399233
 30
0.0
 10
677.5642299873386
 20
1319.269014927808
 30
0.0
 10
677.7296998360911
 20
1319.562501904834
 30
0.0
 10
677.7498717947286
 20
1319.598280067477
 30
0.0
  0
SPLINE
  5
117
330
1F
100
AcDbEntity
  8
0
  6
Continuous
 62
     7
370
    15
100
AcDbSpline
210
0.0
220
0.0
230
1.0
 70
     8
 71
     3
 72
    10
 73
     6
 74
     0
 42
0.00000001
 43
0.00000001
 12
1.0
 22
0.0
 32
0.0
 13
1.0
 23
0.0
 33
0.0
 40
0.0
 40
0.0
 40
0.0
 40
0.0
 40
0.1133758362578013
 40
0.9300171161121863
 40
1.0
 40
1.0
 40
1.0
 40
1.0
 10
678.1218867345136
 20
1319.266751582656
 30
0.0
 10
678.0943715192574
 20
1319.237517836011
 30
0.0
 10
677.8686653900991
 20
1318.997714667673
 30
0.0
 10
677.6244058967523
 20
1318.739899516794
 30
0.0
 10
677.4053819199677
 20
1318.511409041613
 30
0.0
 10
677.3880939526838
 20
1318.493373866114
 30
0.0
  0
ARC
  5
118
330
1F
100
AcDbEntity
  8
0
  6
Continuous
 62
     7
370
    15
100
AcDbCircle
 10
676.6861809966
 20
1317.8782539853
 30
0.0
 40
0.9333028799435841
100
AcDbArc
 50
41.2296333025
 51
55.3534406991
  0
LINE
  5
119
330
1F
100
AcDbEntity
  8
0
  6
Continuous
 62
     7
370
    15
100
AcDbLine
 10
677.3880939527
 20
1318.4933738661
 30
0.0
 11
677.6835169239
 21
1318.4933738661
 31
0.0
  0
LINE
  5
11A
330
1F
100
AcDbEntity
  8
0
  6
Continuous
 62
     7
370
    15
100
AcDbLine
 10
677.5894756956
 20
1320.5611409498
 30
0.0
 11
677.1896998925
 21
1318.9334498597
 31
0.0
  0
LINE
  5
11B
330
1F
100
AcDbEntity
  8
0
  6
Continuous
 62
     7
370
    15
100
AcDbLine
 10
677.1896998925
 20
1318.9334498597
 30
0.0
 11
677.2167753024
 21
1318.6460586143
 31
0.0
  0
LINE
  5
11C
330
1F
100
AcDbEntity
  8
0
  6
Continuous
 62
     7
370
    15
100
AcDbLine
 10
677.1896998925
 20
1318.9334498597
 30
0.0
 11
676.3824145837
 21
1318.9334498597
 31
0.0
  0
ARC
  5
11D
330
1F
100
AcDbEntity
  8
0
  6
Continuous
 62
     7
370
    15
100
AcDbCircle
 10
676.8119926988
 20
1317.9508656135
 30
0.0
 40
0.7913329633130678
100
AcDbArc
 50
327.483564483
 51
43.2798654206
  0
ARC
  5
11E
330
1F
100
AcDbEntity
  8
0
  6
Continuous
 62
     7
370
    15
100
AcDbCircle
 10
676.8658349332
 20
1317.9747178898
 30
0.0
 40
0.7642094604554397
100
AcDbArc
 50
275.5120522714
 51
308.0366861273
  0
LWPOLYLINE
  5
11F
330
1F
100
AcDbEntity
  8
0
  6
Continuous
 62
     7
370
    15
100
AcDbPolyline
 90
        4
 70
   128
 43
0.0
 10
676.0793100639
 20
1318.4933738661
 10
676.017753367
 20
1318.3840067935
 10
675.9762648089
 20
1318.2647677017
 10
675.9762573583
 20
1318.2647453499
  0
ARC
  5
120
330
1F
100
AcDbEntity
  8
0
  6
Continuous
 62
     7
370
    15
100
AcDbCircle
 10
676.7193223877
 20
1317.9701361227
 30
0.0
 40
0.8392440747573047
100
AcDbArc
 50
53.6483634377
 51
126.3516365623
  0
ARC
  5
121
330
1F
100
AcDbEntity
  8
0
  6
Continuous
 62
     7
370
    15
100
AcDbCircle
 10
588.4382348623
 20
1402.1094603559
 30
0.0
 40
24.42966947379572
100
AcDbArc
 50
0.5487453111
 51
3.2145614177
  0
ARC
  5
122
330
1F
100
AcDbEntity
  8
0
  6
Continuous
 62
     7
370
    15
100
AcDbCircle
 10
613.3642357181
 20
1455.131243532
 30
0.0
 40
52.79015757691855
100
AcDbArc
 50
269.4600828663
 51
270.5399171337
  0
ARC
  5
123
330
1F
100
AcDbEntity
  8
0
  6
Continuous
 62
     7
370
    15
100
AcDbCircle
 10
589.4333029635
 20
1402.1094648227
 30
0.0
 40
24.4295049403731
100
AcDbArc
 50
0.5487385302
 51
3.2145725977
  0
ARC
  5
124
330
1F
100
AcDbEntity
  8
0
  6
Continuous
 62
     7
370
    15
100
AcDbCircle
 10
613.3892521961
 20
1404.1959164389
 30
0.0
 40
0.8383193761812736
100
AcDbArc
 50
301.2675131527
 51
332.6595767455
  0
ARC
  5
125
330
1F
100
AcDbEntity
  8
0
  6
Continuous
 62
     7
370
    15
100
AcDbCircle
 10
613.4676719506
 20
1389.9600693713
 30
0.0
 40
13.86684162757617
100
AcDbArc
 50
83.0271942218
 51
87.2460754752
  0
ARC
  5
126
330
1F
100
AcDbEntity
  8
0
  6
Continuous
 62
     7
370
    15
100
AcDbCircle
 10
606.6777437331
 20
1403.4143853232
 30
0.0
 40
8.47900591709937
100
AcDbArc
 50
2.0950142017
 51
8.6679644724
  0
ARC
  5
127
330
1F
100
AcDbEntity
  8
0
  6
Continuous
 62
     7
370
    15
100
AcDbCircle
 10
613.3769806381
 20
1390.9312848258
 30
0.0
 40
13.86348182359485
100
AcDbArc
 50
83.0275184673
 51
87.2474170117
  0
ARC
  5
128
330
1F
100
AcDbEntity
  8
0
  6
Continuous
 62
     7
370
    15
100
AcDbCircle
 10
613.1412801163
 20
1404.1417166542
 30
0.0
 40
1.10384981484048
100
AcDbArc
 50
35.2482846183
 51
61.3381697104
  0
ARC
  5
129
330
1F
100
AcDbEntity
  8
0
  6
Continuous
 62
     7
370
    15
100
AcDbCircle
 10
598.3394106328
 20
1403.0512341709
 30
0.0
 40
15.46897290569273
100
AcDbArc
 50
7.6493372576
 51
11.2654630945
  0
ARC
  5
12A
330
1F
100
AcDbEntity
  8
0
  6
Continuous
 62
     7
370
    15
100
AcDbCircle
 10
613.0128847381
 20
1397.8253035878
 30
0.0
 40
8.262859681798256
100
AcDbArc
 50
86.5485152067
 51
93.4514847933
  0
ARC
  5
12B
330
1F
100
AcDbEntity
  8
0
  6
Continuous
 62
     7
370
    15
100
AcDbCircle
 10
597.3444275505
 20
1403.0512204703
 30
0.0
 40
15.46905351579004
100
AcDbArc
 50
7.6493483589
 51
11.2654553634
  0
ARC
  5
12C
330
1F
100
AcDbEntity
  8
0
  6
Continuous
 62
     7
370
    15
100
AcDbCircle
 10
613.110875708
 20
1404.3938136342
 30
0.0
 40
0.838231050491056
100
AcDbArc
 50
121.2658203922
 51
152.6612755519
  0
ARC
  5
12D
330
1F
100
AcDbEntity
  8
0
  6
Continuous
 62
     7
370
    15
100
AcDbCircle
 10
613.2703401724
 20
1385.3099598223
 30
0.0
 40
19.48979127209916
100
AcDbArc
 50
92.6587276931
 51
96.0208810686
  0
ARC
  5
12E
330
1F
100
AcDbEntity
  8
0
  6
Continuous
 62
     7
370
    15
100
AcDbCircle
 10
642.2404447746
 20
1407.1256124389
 30
0.0
 40
31.10972043341962
100
AcDbArc
 50
184.4862029367
 51
186.2767620758
  0
ARC
  5
12F
330
1F
100
AcDbEntity
  8
0
  6
Continuous
 62
     7
370
    15
100
AcDbCircle
 10
613.3622112419
 20
1384.3362768824
 30
0.0
 40
19.49562503998465
100
AcDbArc
 50
92.6599737004
 51
96.0211240299
  0
ARC
  5
130
330
1F
100
AcDbEntity
  8
0
  6
Continuous
 62
     7
370
    15
100
AcDbCircle
 10
613.3590092695
 20
1404.4480567976
 30
0.0
 40
1.103988143068518
100
AcDbArc
 50
215.2499489971
 51
241.3365081146
  0
LWPOLYLINE
  5
131
330
1F
100
AcDbEntity
  8
0
  6
Continuous
 62
     7
370
    15
100
AcDbPolyline
 90
       22
 70
   128
 43
0.0
 10
616.7547016466
 20
1403.7898408127
 10
616.4786797544
 20
1404.8977570486
 10
615.8838765059
 20
1405.9072362137
 10
615.0231429438
 20
1406.7285733176
 10
613.9729589868
 20
1407.2887824726
 10
612.8266380929
 20
1407.5381087017
 10
611.6860358106
 20
1407.454379077
 10
610.652499885
 20
1407.0450292778
 10
609.8178644261
 20
1406.3464628411
 10
609.2562899521
 20
1405.4207133007
 10
609.0176757953
 20
1404.350064869
 10
609.1232230483
 20
1403.2296316576
 10
609.5635537586
 20
1402.1589683247
 10
610.299542599
 20
1401.2332336855
 10
611.2657934955
 20
1400.5346523476
 10
612.3764511958
 20
1400.1253174496
 10
613.5328285109
 20
1400.0415878249
 10
614.6321764045
 20
1400.2908991528
 10
615.5768130502
 20
1400.851123209
 10
616.282803292
 20
1401.6724603129
 10
616.6874166174
 20
1402.6819245768
 10
616.7547016466
 20
1403.7898408127
  0
ARC
  5
132
330
1F
100
AcDbEntity
  8
0
  6
Continuous
 62
     7
370
    15
100
AcDbCircle
 10
612.6820993239
 20
1403.4960742994
 30
0.0
 40
4.010344265918738
100
AcDbArc
 50
148.698669175
 51
320.4679450498
  0
LINE
  5
133
330
1F
100
AcDbEntity
  8
0
  6
Continuous
 62
     7
370
    15
100
AcDbLine
 10
612.863004726
 20
1402.597449894
 30
0.0
 11
613.2846491473
 21
1402.597449894
 31
0.0
  0
LINE
  5
134
330
1F
100
AcDbEntity
  8
0
  6
Continuous
 62
     7
370
    15
100
AcDbLine
 10
613.8616875196
 20
1402.3434297991
 30
0.0
 11
613.2846491473
 21
1402.597449894
 31
0.0
  0
LINE
  5
135
330
1F
100
AcDbEntity
  8
0
  6
Continuous
 62
     7
370
    15
100
AcDbLine
 10
613.2575756583
 20
1402.8848485899
 30
0.0
 11
613.2846491473
 21
1402.597449894
 31
0.0
  0
SPLINE
  5
136
330
1F
100
AcDbEntity
  8
0
  6
Continuous
 62
     7
370
    15
100
AcDbSpline
210
0.0
220
0.0
230
1.0
 70
     8
 71
     3
 72
    10
 73
     6
 74
     0
 42
0.00000001
 43
0.00000001
 12
1.0
 22
0.0
 32
0.0
 13
1.0
 23
0.0
 33
0.0
 40
0.0
 40
0.0
 40
0.0
 40
0.0
 40
0.1133752765633622
 40
0.9300162762519805
 40
1.0
 40
1.0
 40
1.0
 40
1.0
 10
613.8243689147179
 20
1403.479360218081
 30
0.0
 10
613.8029640484388
 20
1403.456673469312
 30
0.0
 10
613.6273801413129
 20
1403.270574292757
 30
0.0
 10
613.4384694469921
 20
1403.072029938017
 30
0.0
 10
613.2708095168906
 20
1402.898542434882
 30
0.0
 10
613.2575756582786
 20
1402.88484858993
 30
0.0
  0
LINE
  5
137
330
1F
100
AcDbEntity
  8
0
  6
Continuous
 62
     7
370
    15
100
AcDbLine
 10
611.2260383616
 20
1404.6922402335
 30
0.0
 11
611.7047509706
 21
1404.0054010105
 31
0.0
  0
LINE
  5
138
330
1F
100
AcDbEntity
  8
0
  6
Continuous
 62
     7
370
    15
100
AcDbLine
 10
611.7047509706
 20
1404.0054010105
 30
0.0
 11
611.7275630186
 21
1403.76324224
 31
0.0
  0
SPLINE
  5
139
330
1F
100
AcDbEntity
  8
0
  6
Continuous
 62
     7
370
    15
100
AcDbSpline
210
0.0
220
0.0
230
1.0
 70
     8
 71
     3
 72
    10
 73
     6
 74
     0
 42
0.00000001
 43
0.00000001
 12
1.0
 22
0.0
 32
0.0
 13
1.0
 23
0.0
 33
0.0
 40
0.0
 40
0.0
 40
0.0
 40
0.0
 40
0.069983473021838
 40
0.8866255120666445
 40
1.0
 40
1.0
 40
1.0
 40
1.0
 10
612.0001709150505
 20
1404.005401010546
 30
0.0
 10
612.0085330307163
 20
1404.02343615109
 30
0.0
 10
612.1144732586595
 20
1404.251924607428
 30
0.0
 10
612.2368668767868
 20
1404.509756071101
 30
0.0
 10
612.3522083572478
 20
1404.749540182197
 30
0.0
 10
612.366269162519
 20
1404.778771276507
 30
0.0
  0
LINE
  5
13A
330
1F
100
AcDbEntity
  8
0
  6
Continuous
 62
     7
370
    15
100
AcDbLine
 10
611.7047509706
 20
1404.0054010105
 30
0.0
 11
612.0001709151
 21
1404.0054010105
 31
0.0
  0
SPLINE
  5
13B
330
1F
100
AcDbEntity
  8
0
  6
Continuous
 62
     7
370
    15
100
AcDbSpline
210
0.0
220
0.0
230
1.0
 70
     8
 71
     3
 72
     9
 73
     5
 74
     0
 42
0.00000001
 43
0.00000001
 12
1.0
 22
0.0
 32
0.0
 13
1.0
 23
0.0
 33
0.0
 40
0.0
 40
0.0
 40
0.0
 40
0.0
 40
0.6128265367157958
 40
1.0
 40
1.0
 40
1.0
 40
1.0
 10
613.9196436361066
 20
1403.584398503337
 30
0.0
 10
613.9636522000469
 20
1403.630657854848
 30
0.0
 10
614.0354646319565
 20
1403.706143083931
 30
0.0
 10
614.1064443307221
 20
1403.781658563663
 30
0.0
 10
614.133925786516
 20
1403.810896153483
 30
0.0
  0
SPLINE
  5
13C
330
1F
100
AcDbEntity
  8
0
  6
Continuous
 62
     7
370
    15
100
AcDbSpline
210
0.0
220
0.0
230
1.0
 70
     8
 71
     3
 72
    10
 73
     6
 74
     0
 42
0.00000001
 43
0.00000001
 12
1.0
 22
0.0
 32
0.0
 13
1.0
 23
0.0
 33
0.0
 40
0.0
 40
0.0
 40
0.0
 40
0.0
 40
0.1133771081045064
 40
0.9300203624174461
 40
1.0
 40
1.0
 40
1.0
 40
1.0
 10
612.6758260015753
 20
1405.110307211909
 30
0.0
 10
612.6556541889121
 20
1405.074531777575
 30
0.0
 10
612.4901869545005
 20
1404.781069693723
 30
0.0
 10
612.3124514791069
 20
1404.463958700492
 30
0.0
 10
612.1551455178029
 20
1404.180454789844
 30
0.0
 10
612.1427296257001
 20
1404.158078308139
 30
0.0
  0
ARC
  5
13D
330
1F
100
AcDbEntity
  8
0
  6
Continuous
 62
     7
370
    15
100
AcDbCircle
 10
612.5810022149
 20
1403.605957933
 30
0.0
 40
0.7049253655683193
100
AcDbArc
 50
128.4425102695
 51
145.4833353046
  0
LINE
  5
13E
330
1F
100
AcDbEntity
  8
0
  6
Continuous
 62
     7
370
    15
100
AcDbLine
 10
613.6689234936
 20
1403.3202158165
 30
0.0
 11
613.604377455
 21
1404.0054010105
 31
0.0
  0
LINE
  5
13F
330
1F
100
AcDbEntity
  8
0
  6
Continuous
 62
     7
370
    15
100
AcDbLine
 10
615.0599050397
 20
1404.6922402335
 30
0.0
 11
613.604377455
 21
1404.0054010105
 31
0.0
  0
SPLINE
  5
140
330
1F
100
AcDbEntity
  8
0
  6
Continuous
 62
     7
370
    15
100
AcDbSpline
210
0.0
220
0.0
230
1.0
 70
     8
 71
     3
 72
    10
 73
     6
 74
     0
 42
0.00000001
 43
0.00000001
 12
1.0
 22
0.0
 32
0.0
 13
1.0
 23
0.0
 33
0.0
 40
0.0
 40
0.0
 40
0.0
 40
0.0
 40
0.0699825126628233
 40
0.8866257698556913
 40
1.0
 40
1.0
 40
1.0
 40
1.0
 10
613.1376332432386
 20
1404.158078308139
 30
0.0
 10
613.1500491171778
 20
1404.180454756935
 30
0.0
 10
613.3073488963793
 20
1404.463947523715
 30
0.0
 10
613.4850866631444
 20
1404.781062992016
 30
0.0
 10
613.6505577565916
 20
1405.074531760241
 30
0.0
 10
613.67072959001
 20
1405.110307211909
 30
0.0
  0
SPLINE
  5
141
330
1F
100
AcDbEntity
  8
0
  6
Continuous
 62
     7
370
    15
100
AcDbSpline
210
0.0
220
0.0
230
1.0
 70
     8
 71
     3
 72
    10
 73
     6
 74
     0
 42
0.00000001
 43
0.00000001
 12
1.0
 22
0.0
 32
0.0
 13
1.0
 23
0.0
 33
0.0
 40
0.0
 40
0.0
 40
0.0
 40
0.0
 40
0.1133754568993252
 40
0.93001985889254
 40
1.0
 40
1.0
 40
1.0
 40
1.0
 10
614.042748818972
 20
1404.778771276507
 30
0.0
 10
614.0152328865846
 20
1404.749540142901
 30
0.0
 10
613.7895194539241
 20
1404.509756899729
 30
0.0
 10
613.5452739630191
 20
1404.251935822491
 30
0.0
 10
613.3262450379043
 20
1404.023436193953
 30
0.0
 10
613.3089573650044
 20
1404.005401010546
 30
0.0
  0
ARC
  5
142
330
1F
100
AcDbEntity
  8
0
  6
Continuous
 62
     7
370
    15
100
AcDbCircle
 10
612.6074404931
 20
1403.3906691053
 30
0.0
 40
0.932749289430754
100
AcDbArc
 50
41.2277452985
 51
55.3599239865
  0
LINE
  5
143
330
1F
100
AcDbEntity
  8
0
  6
Continuous
 62
     7
370
    15
100
AcDbLine
 10
613.308957365
 20
1404.0054010105
 30
0.0
 11
613.604377455
 21
1404.0054010105
 31
0.0
  0
LINE
  5
144
330
1F
100
AcDbEntity
  8
0
  6
Continuous
 62
     7
370
    15
100
AcDbLine
 10
613.5103365468
 20
1406.0731755448
 30
0.0
 11
613.1105597542
 21
1404.4454770041
 31
0.0
  0
LINE
  5
145
330
1F
100
AcDbEntity
  8
0
  6
Continuous
 62
     7
370
    15
100
AcDbLine
 10
613.1105597542
 20
1404.4454770041
 30
0.0
 11
613.1376332432
 21
1404.1580783081
 31
0.0
  0
LINE
  5
146
330
1F
100
AcDbEntity
  8
0
  6
Continuous
 62
     7
370
    15
100
AcDbLine
 10
613.1105597542
 20
1404.4454770041
 30
0.0
 11
612.3032776468
 21
1404.4454770041
 31
0.0
  0
ARC
  5
147
330
1F
100
AcDbEntity
  8
0
  6
Continuous
 62
     7
370
    15
100
AcDbCircle
 10
612.7328739415
 20
1403.4628999594
 30
0.0
 40
0.7913150455799949
100
AcDbArc
 50
327.4827588505
 51
43.2803708931
  0
ARC
  5
148
330
1F
100
AcDbEntity
  8
0
  6
Continuous
 62
     7
370
    15
100
AcDbCircle
 10
612.7868071514
 20
1403.4864746108
 30
0.0
 40
0.7639220221918893
100
AcDbArc
 50
275.5056183567
 51
308.0429523964
  0
LWPOLYLINE
  5
149
330
1F
100
AcDbEntity
  8
0
  6
Continuous
 62
     7
370
    15
100
AcDbPolyline
 90
        4
 70
   128
 43
0.0
 10
612.0001709151
 20
1404.0054010105
 10
611.9386160808
 20
1403.8960413885
 10
611.8971249616
 20
1403.7768022967
 10
611.8971184424
 20
1403.7767724943
  0
ARC
  5
14A
330
1F
100
AcDbEntity
  8
0
  6
Continuous
 62
     7
370
    15
100
AcDbCircle
 10
612.6401814345
 20
1403.4822373322
 30
0.0
 40
0.8391777683371086
100
AcDbArc
 50
53.6451253221
 51
126.3548746779
  0
ARC
  5
14B
330
1F
100
AcDbEntity
  8
0
  6
Continuous
 62
     7
370
    15
100
AcDbCircle
 10
669.4913990327
 20
1389.9604175091
 30
0.0
 40
13.8664924150905
100
AcDbArc
 50
83.02714289
 51
87.246133212
  0
ARC
  5
14C
330
1F
100
AcDbEntity
  8
0
  6
Continuous
 62
     7
370
    15
100
AcDbCircle
 10
662.7021564954
 20
1403.414457788
 30
0.0
 40
8.47828800386568
100
AcDbArc
 50
2.0947016392
 51
8.6682087272
  0
ARC
  5
14D
330
1F
100
AcDbEntity
  8
0
  6
Continuous
 62
     7
370
    15
100
AcDbCircle
 10
669.4006940372
 20
1390.9314646167
 30
0.0
 40
13.86330144460793
100
AcDbArc
 50
83.0274930722
 51
87.2474497108
  0
ARC
  5
14E
330
1F
100
AcDbEntity
  8
0
  6
Continuous
 62
     7
370
    15
100
AcDbCircle
 10
669.1649783542
 20
1404.14171913
 30
0.0
 40
1.103847239455523
100
AcDbArc
 50
35.2482217246
 51
61.3381463313
  0
ARC
  5
14F
330
1F
100
AcDbEntity
  8
0
  6
Continuous
 62
     7
370
    15
100
AcDbCircle
 10
654.3611050898
 20
1403.0509110725
 30
0.0
 40
15.4710010306019
100
AcDbArc
 50
7.649535806
 51
11.2651870326
  0
ARC
  5
150
330
1F
100
AcDbEntity
  8
0
  6
Continuous
 62
     7
370
    15
100
AcDbCircle
 10
669.036583562
 20
1397.8253285428
 30
0.0
 40
8.262834726469514
100
AcDbArc
 50
86.5485100265
 51
93.4514899735
  0
ARC
  5
151
330
1F
100
AcDbEntity
  8
0
  6
Continuous
 62
     7
370
    15
100
AcDbCircle
 10
653.3662029861
 20
1403.0509110726
 30
0.0
 40
15.47100103018918
100
AcDbArc
 50
7.649535806
 51
11.2651870327
  0
ARC
  5
152
330
1F
100
AcDbEntity
  8
0
  6
Continuous
 62
     7
370
    15
100
AcDbCircle
 10
669.1345586921
 20
1404.3938287398
 30
0.0
 40
0.8382098873896937
100
AcDbArc
 50
121.265427401
 51
152.6616900398
  0
ARC
  5
153
330
1F
100
AcDbEntity
  8
0
  6
Continuous
 62
     7
370
    15
100
AcDbCircle
 10
669.2940308816
 20
1385.310014047
 30
0.0
 40
19.48973672125603
100
AcDbArc
 50
92.6587107446
 51
96.0208803614
  0
ARC
  5
154
330
1F
100
AcDbEntity
  8
0
  6
Continuous
 62
     7
370
    15
100
AcDbCircle
 10
698.2812917967
 20
1407.1272131465
 30
0.0
 40
31.12694344675186
100
AcDbArc
 50
184.486671066
 51
186.2762393004
  0
ARC
  5
155
330
1F
100
AcDbEntity
  8
0
  6
Continuous
 62
     7
370
    15
100
AcDbCircle
 10
669.3859020414
 20
1384.3363237546
 30
0.0
 40
19.49557785943657
100
AcDbArc
 50
92.6599573898
 51
96.0211226818
  0
ARC
  5
156
330
1F
100
AcDbEntity
  8
0
  6
Continuous
 62
     7
370
    15
100
AcDbCircle
 10
669.3827075985
 20
1404.448055639
 30
0.0
 40
1.103987307849122
100
AcDbArc
 50
215.2499060023
 51
241.3364620535
  0
ARC
  5
157
330
1F
100
AcDbEntity
  8
0
  6
Continuous
 62
     7
370
    15
100
AcDbCircle
 10
644.4651971866
 20
1402.1095375613
 30
0.0
 40
24.42640590759662
100
AcDbArc
 50
0.548637525
 51
3.2148099782
  0
ARC
  5
158
330
1F
100
AcDbEntity
  8
0
  6
Continuous
 62
     7
370
    15
100
AcDbCircle
 10
669.3879343165
 20
1455.1310852786
 30
0.0
 40
52.78999932346536
100
AcDbArc
 50
269.4600820611
 51
270.5399179389
  0
ARC
  5
159
330
1F
100
AcDbEntity
  8
0
  6
Continuous
 62
     7
370
    15
100
AcDbCircle
 10
645.4600992912
 20
1402.1095375613
 30
0.0
 40
24.42640590715481
100
AcDbArc
 50
0.5486375249
 51
3.2148099782
  0
ARC
  5
15A
330
1F
100
AcDbEntity
  8
0
  6
Continuous
 62
     7
370
    15
100
AcDbCircle
 10
669.4129652977
 20
1404.1959005989
 30
0.0
 40
0.8382972177785598
100
AcDbArc
 50
301.2671049496
 51
332.6600124913
  0
LWPOLYLINE
  5
15B
330
1F
100
AcDbEntity
  8
0
  6
Continuous
 62
     7
370
    15
100
AcDbPolyline
 90
       11
 70
   128
 43
0.0
 10
668.5606125338
 20
1407.5486140204
 10
667.4374971135
 20
1407.3816167069
 10
666.4456348462
 20
1406.8954812241
 10
665.6731623752
 20
1406.1334060383
 10
665.188714449
 20
1405.1630722237
 10
665.0353367968
 20
1404.0707426024
 10
665.2266565306
 20
1402.9534386349
 10
665.7456751509
 20
1401.9104616595
 10
666.5462735637
 20
1401.0344670964
 10
667.5573173507
 20
1400.4033135128
 10
667.8350675447
 20
1400.2900497866
  0
LWPOLYLINE
  5
15C
330
1F
100
AcDbEntity
  8
0
  6
Continuous
 62
     7
370
    15
100
AcDbPolyline
 90
       11
 70
   128
 43
0.0
 10
670.1725195689
 20
1400.1377152157
 10
670.9101158722
 20
1400.4033135128
 10
671.8022446676
 20
1401.0344670964
 10
672.4378052695
 20
1401.9104616595
 10
672.7603185518
 20
1402.9534386349
 10
672.7411333068
 20
1404.0707426024
 10
672.3819557174
 20
1405.1630722237
 10
671.714692895
 20
1406.1334060383
 10
670.7986402853
 20
1406.8954812241
 10
669.7151880307
 20
1407.3816167069
 10
668.5606125338
 20
1407.5486140204
  0
ARC
  5
15D
330
1F
100
AcDbEntity
  8
0
  6
Continuous
 62
     7
370
    15
100
AcDbCircle
 10
668.5426693065
 20
1403.5287168061
 30
0.0
 40
3.854420171768151
100
AcDbArc
 50
147.8534137678
 51
237.1662671556
  0
LWPOLYLINE
  5
15E
330
1F
100
AcDbEntity
  8
0
  6
Continuous
 62
     7
370
    15
100
AcDbPolyline
 90
        3
 70
   128
 43
0.0
 10
670.7838695092
 20
1400.0101165724
 10
671.4265603168
 20
1400.5061613274
 10
671.7988509281
 20
1400.9434508038
  0
LINE
  5
15F
330
1F
100
AcDbEntity
  8
0
  6
Continuous
 62
     7
370
    15
100
AcDbLine
 10
668.8867020948
 20
1402.597449894
 30
0.0
 11
669.308345352
 21
1402.597449894
 31
0.0
  0
LINE
  5
160
330
1F
100
AcDbEntity
  8
0
  6
Continuous
 62
     7
370
    15
100
AcDbLine
 10
669.8853853686
 20
1402.3434297991
 30
0.0
 11
669.308345352
 21
1402.597449894
 31
0.0
  0
LINE
  5
161
330
1F
100
AcDbEntity
  8
0
  6
Continuous
 62
     7
370
    15
100
AcDbLine
 10
669.2812736674
 20
1402.8848485899
 30
0.0
 11
669.308345352
 21
1402.597449894
 31
0.0
  0
SPLINE
  5
162
330
1F
100
AcDbEntity
  8
0
  6
Continuous
 62
     7
370
    15
100
AcDbSpline
210
0.0
220
0.0
230
1.0
 70
     8
 71
     3
 72
    10
 73
     6
 74
     0
 42
0.00000001
 43
0.00000001
 12
1.0
 22
0.0
 32
0.0
 13
1.0
 23
0.0
 33
0.0
 40
0.0
 40
0.0
 40
0.0
 40
0.0
 40
0.1133753370729086
 40
0.9300162774159823
 40
1.0
 40
1.0
 40
1.0
 40
1.0
 10
669.8480654104036
 20
1403.479360218081
 30
0.0
 10
669.8266604024512
 20
1403.456673470399
 30
0.0
 10
669.6510754266724
 20
1403.270574401845
 30
0.0
 10
669.4621669603362
 20
1403.072029926013
 30
0.0
 10
669.2945074903411
 20
1402.898542434659
 30
0.0
 10
669.2812736673635
 20
1402.88484858993
 30
0.0
  0
LINE
  5
163
330
1F
100
AcDbEntity
  8
0
  6
Continuous
 62
     7
370
    15
100
AcDbLine
 10
667.2497350319
 20
1404.6922402335
 30
0.0
 11
667.7284497364
 21
1404.0054010105
 31
0.0
  0
LINE
  5
164
330
1F
100
AcDbEntity
  8
0
  6
Continuous
 62
     7
370
    15
100
AcDbLine
 10
667.7284497364
 20
1404.0054010105
 30
0.0
 11
667.7512596889
 21
1403.76324224
 31
0.0
  0
SPLINE
  5
165
330
1F
100
AcDbEntity
  8
0
  6
Continuous
 62
     7
370
    15
100
AcDbSpline
210
0.0
220
0.0
230
1.0
 70
     8
 71
     3
 72
    10
 73
     6
 74
     0
 42
0.00000001
 43
0.00000001
 12
1.0
 22
0.0
 32
0.0
 13
1.0
 23
0.0
 33
0.0
 40
0.0
 40
0.0
 40
0.0
 40
0.0
 40
0.0699833707067661
 40
0.8866253099858022
 40
1.0
 40
1.0
 40
1.0
 40
1.0
 10
668.0238689823431
 20
1404.005401010546
 30
0.0
 10
668.0322306237108
 20
1404.02343615154
 30
0.0
 10
668.1381649734686
 20
1404.251924895543
 30
0.0
 10
668.2605566873806
 20
1404.509756498586
 30
0.0
 10
668.3759063365343
 20
1404.749540185073
 30
0.0
 10
668.3899681611341
 20
1404.778771276507
 30
0.0
  0
LINE
  5
166
330
1F
100
AcDbEntity
  8
0
  6
Continuous
 62
     7
370
    15
100
AcDbLine
 10
667.7284497364
 20
1404.0054010105
 30
0.0
 11
668.0238689823
 21
1404.0054010105
 31
0.0
  0
SPLINE
  5
167
330
1F
100
AcDbEntity
  8
0
  6
Continuous
 62
     7
370
    15
100
AcDbSpline
210
0.0
220
0.0
230
1.0
 70
     8
 71
     3
 72
     9
 73
     5
 74
     0
 42
0.00000001
 43
0.00000001
 12
1.0
 22
0.0
 32
0.0
 13
1.0
 23
0.0
 33
0.0
 40
0.0
 40
0.0
 40
0.0
 40
0.0
 40
0.6128274904741421
 40
1.0
 40
1.0
 40
1.0
 40
1.0
 10
669.9433397097868
 20
1403.584398503337
 30
0.0
 10
669.9873494513054
 20
1403.630657797845
 30
0.0
 10
670.0591636930008
 20
1403.706142816431
 30
0.0
 10
670.1301414836993
 20
1403.781658540923
 30
0.0
 10
670.1576221330446
 20
1403.810896153483
 30
0.0
  0
SPLINE
  5
168
330
1F
100
AcDbEntity
  8
0
  6
Continuous
 62
     7
370
    15
100
AcDbSpline
210
0.0
220
0.0
230
1.0
 70
     8
 71
     3
 72
    10
 73
     6
 74
     0
 42
0.00000001
 43
0.00000001
 12
1.0
 22
0.0
 32
0.0
 13
1.0
 23
0.0
 33
0.0
 40
0.0
 40
0.0
 40
0.0
 40
0.0
 40
0.1133746236831178
 40
0.9300201856412205
 40
1.0
 40
1.0
 40
1.0
 40
1.0
 10
668.699524883775
 20
1405.110307211909
 30
0.0
 10
668.6793527848156
 20
1405.074531709231
 30
0.0
 10
668.513879607401
 20
1404.78106268979
 30
0.0
 10
668.3361493212599
 20
1404.463958945383
 30
0.0
 10
668.1788442128435
 20
1404.180454802035
 30
0.0
 10
668.1664283914846
 20
1404.158078308139
 30
0.0
  0
ARC
  5
169
330
1F
100
AcDbEntity
  8
0
  6
Continuous
 62
     7
370
    15
100
AcDbCircle
 10
668.6047319675
 20
1403.6059263424
 30
0.0
 40
0.7049693737913025
100
AcDbArc
 50
128.4428864942
 51
145.4826790084
  0
LINE
  5
16A
330
1F
100
AcDbEntity
  8
0
  6
Continuous
 62
     7
370
    15
100
AcDbLine
 10
669.6926202221
 20
1403.3202158165
 30
0.0
 11
669.6280758424
 21
1404.0054010105
 31
0.0
  0
LINE
  5
16B
330
1F
100
AcDbEntity
  8
0
  6
Continuous
 62
     7
370
    15
100
AcDbLine
 10
671.0836026414
 20
1404.6922402335
 30
0.0
 11
669.6280758424
 21
1404.0054010105
 31
0.0
  0
SPLINE
  5
16C
330
1F
100
AcDbEntity
  8
0
  6
Continuous
 62
     7
370
    15
100
AcDbSpline
210
0.0
220
0.0
230
1.0
 70
     8
 71
     3
 72
    10
 73
     6
 74
     0
 42
0.00000001
 43
0.00000001
 12
1.0
 22
0.0
 32
0.0
 13
1.0
 23
0.0
 33
0.0
 40
0.0
 40
0.0
 40
0.0
 40
0.0
 40
0.1133752328989757
 40
0.9300202284897949
 40
1.0
 40
1.0
 40
1.0
 40
1.0
 10
670.0664456529896
 20
1404.778771276507
 30
0.0
 10
670.0389304393036
 20
1404.749540130689
 30
0.0
 10
669.8132223665186
 20
1404.509756218294
 30
0.0
 10
669.5689612326819
 20
1404.251937174817
 30
0.0
 10
669.3499433056207
 20
1404.023436200375
 30
0.0
 10
669.3326565964502
 20
1404.005401010546
 30
0.0
  0
ARC
  5
16D
330
1F
100
AcDbEntity
  8
0
  6
Continuous
 62
     7
370
    15
100
AcDbCircle
 10
668.6310408631
 20
1403.3905512959
 30
0.0
 40
0.9329012857360703
100
AcDbArc
 50
41.2291854593
 51
55.359141307
  0
SPLINE
  5
16E
330
1F
100
AcDbEntity
  8
0
  6
Continuous
 62
     7
370
    15
100
AcDbSpline
210
0.0
220
0.0
230
1.0
 70
     8
 71
     3
 72
    10
 73
     6
 74
     0
 42
0.00000001
 43
0.00000001
 12
1.0
 22
0.0
 32
0.0
 13
1.0
 23
0.0
 33
0.0
 40
0.0
 40
0.0
 40
0.0
 40
0.0
 40
0.0699824875325859
 40
0.8866257021916095
 40
1.0
 40
1.0
 40
1.0
 40
1.0
 10
669.1613304956239
 20
1404.158078308139
 30
0.0
 10
669.1737462917104
 20
1404.180454756961
 30
0.0
 10
669.3310451290553
 20
1404.463947604233
 30
0.0
 10
669.5087819790482
 20
1404.781063172035
 30
0.0
 10
669.6742549180221
 20
1405.074531761632
 30
0.0
 10
669.6944269879144
 20
1405.110307211909
 30
0.0
  0
LINE
  5
16F
330
1F
100
AcDbEntity
  8
0
  6
Continuous
 62
     7
370
    15
100
AcDbLine
 10
669.3326565965
 20
1404.0054010105
 30
0.0
 11
669.6280758424
 21
1404.0054010105
 31
0.0
  0
LINE
  5
170
330
1F
100
AcDbEntity
  8
0
  6
Continuous
 62
     7
370
    15
100
AcDbLine
 10
669.5340346141
 20
1406.0731755448
 30
0.0
 11
669.134258811
 21
1404.4454770041
 31
0.0
  0
LINE
  5
171
330
1F
100
AcDbEntity
  8
0
  6
Continuous
 62
     7
370
    15
100
AcDbLine
 10
669.134258811
 20
1404.4454770041
 30
0.0
 11
669.1613304956
 21
1404.1580783081
 31
0.0
  0
LINE
  5
172
330
1F
100
AcDbEntity
  8
0
  6
Continuous
 62
     7
370
    15
100
AcDbLine
 10
669.134258811
 20
1404.4454770041
 30
0.0
 11
668.3269772275
 21
1404.4454770041
 31
0.0
  0
ARC
  5
173
330
1F
100
AcDbEntity
  8
0
  6
Continuous
 62
     7
370
    15
100
AcDbCircle
 10
668.6638794436
 20
1403.4822407255
 30
0.0
 40
0.839174586874244
100
AcDbArc
 50
53.6450295895
 51
126.3549704105
  0
ARC
  5
174
330
1F
100
AcDbEntity
  8
0
  6
Continuous
 62
     7
370
    15
100
AcDbCircle
 10
668.7565665485
 20
1403.4628996564
 30
0.0
 40
0.7913200759628
100
AcDbArc
 50
327.4830170604
 51
43.2800580361
  0
ARC
  5
175
330
1F
100
AcDbEntity
  8
0
  6
Continuous
 62
     7
370
    15
100
AcDbCircle
 10
668.8105048243
 20
1403.486474673
 30
0.0
 40
0.7639222783924989
100
AcDbArc
 50
275.5057690253
 51
308.0429693734
  0
LWPOLYLINE
  5
176
330
1F
100
AcDbEntity
  8
0
  6
Continuous
 62
     7
370
    15
100
AcDbPolyline
 90
        4
 70
   128
 43
0.0
 10
668.0238689823
 20
1404.0054010105
 10
667.9623122855
 20
1403.8960413885
 10
667.9208237274
 20
1403.7768022967
 10
667.9208162768
 20
1403.7767724943
  0
LINE
  5
177
330
1F
100
AcDbEntity
  8
0
  6
Continuous
 62
     7
370
    15
100
AcDbLine
 10
555.9711042388
 20
1433.3419578028
 30
0.0
 11
557.0647451623
 21
1433.3419578028
 31
0.0
  0
ARC
  5
178
330
1F
100
AcDbEntity
  8
0
  6
Continuous
 62
     7
370
    15
100
AcDbCircle
 10
662.1034099246
 20
1433.8569568348
 30
0.0
 40
105.039927261293
100
AcDbArc
 50
179.7190840666
 51
180.2809159334
  0
LINE
  5
179
330
1F
100
AcDbEntity
  8
0
  6
Continuous
 62
     7
370
    15
100
AcDbLine
 10
557.0647451623
 20
1434.3719558668
 30
0.0
 11
555.9711042388
 21
1434.3719558668
 31
0.0
  0
ARC
  5
17A
330
1F
100
AcDbEntity
  8
0
  6
Continuous
 62
     7
370
    15
100
AcDbCircle
 10
555.1198150495
 20
1433.9434008232
 30
0.0
 40
0.9530753953809854
100
AcDbArc
 50
26.7215463336
 51
55.067268925
  0
ARC
  5
17B
330
1F
100
AcDbEntity
  8
0
  6
Continuous
 62
     7
370
    15
100
AcDbCircle
 10
567.8720173918
 20
1433.9074944274
 30
0.0
 40
12.23378627383598
100
AcDbArc
 50
170.9040697294
 51
176.169581316
  0
ARC
  5
17C
330
1F
100
AcDbEntity
  8
0
  6
Continuous
 62
     7
370
    15
100
AcDbCircle
 10
555.3460675819
 20
1425.0663106446
 30
0.0
 40
10.78442418177822
100
AcDbArc
 50
87.6297876372
 51
92.3702123628
  0
ARC
  5
17D
330
1F
100
AcDbEntity
  8
0
  6
Continuous
 62
     7
370
    15
100
AcDbCircle
 10
566.980011531
 20
1433.9074944274
 30
0.0
 40
12.23378627383598
100
AcDbArc
 50
170.9040697294
 51
176.169581316
  0
ARC
  5
17E
330
1F
100
AcDbEntity
  8
0
  6
Continuous
 62
     7
370
    15
100
AcDbCircle
 10
555.3193375855
 20
1433.9433758733
 30
0.0
 40
0.9531182897833278
100
AcDbArc
 50
124.9338035587
 51
153.278072592
  0
LINE
  5
17F
330
1F
100
AcDbEntity
  8
0
  6
Continuous
 62
     7
370
    15
100
AcDbLine
 10
554.4680129333
 20
1434.3719558668
 30
0.0
 11
553.6273937269
 21
1434.3719558668
 31
0.0
  0
ARC
  5
180
330
1F
100
AcDbEntity
  8
0
  6
Continuous
 62
     7
370
    15
100
AcDbCircle
 10
561.3112967086
 20
1433.8569568348
 30
0.0
 40
7.701142060455054
100
AcDbArc
 50
176.1655936322
 51
183.8344063678
  0
LINE
  5
181
330
1F
100
AcDbEntity
  8
0
  6
Continuous
 62
     7
370
    15
100
AcDbLine
 10
553.6273937269
 20
1433.3419578028
 30
0.0
 11
554.4680129333
 21
1433.3419578028
 31
0.0
  0
ARC
  5
182
330
1F
100
AcDbEntity
  8
0
  6
Continuous
 62
     7
370
    15
100
AcDbCircle
 10
555.3192452681
 20
1433.7704248466
 30
0.0
 40
0.9529850447467527
100
AcDbArc
 50
206.7183576352
 51
235.0673710909
  0
ARC
  5
183
330
1F
100
AcDbEntity
  8
0
  6
Continuous
 62
     7
370
    15
100
AcDbCircle
 10
566.9805775884
 20
1433.8064684667
 30
0.0
 40
12.2343553506066
100
AcDbArc
 50
183.830541232
 51
189.0958077226
  0
ARC
  5
184
330
1F
100
AcDbEntity
  8
0
  6
Continuous
 62
     7
370
    15
100
AcDbCircle
 10
555.3460675819
 20
1442.6475881241
 30
0.0
 40
10.78442418201448
100
AcDbArc
 50
267.6297876373
 51
272.3702123627
  0
ARC
  5
185
330
1F
100
AcDbEntity
  8
0
  6
Continuous
 62
     7
370
    15
100
AcDbCircle
 10
567.8725834492
 20
1433.8064684667
 30
0.0
 40
12.23435535060672
100
AcDbArc
 50
183.830541232
 51
189.0958077226
  0
ARC
  5
186
330
1F
100
AcDbEntity
  8
0
  6
Continuous
 62
     7
370
    15
100
AcDbCircle
 10
555.1199073578
 20
1433.7703999047
 30
0.0
 40
0.9529421623341329
100
AcDbArc
 50
304.9315563954
 51
333.2820234733
  0
LWPOLYLINE
  5
187
330
1F
100
AcDbEntity
  8
0
  6
Continuous
 62
     7
370
    15
100
AcDbPolyline
 90
       12
 70
   128
 43
0.0
 10
555.9578049524
 20
1429.8569487286
 10
556.4741041107
 20
1429.9016224099
 10
557.4608217521
 20
1430.2530811978
 10
558.3139951868
 20
1430.9247361374
 10
558.9578073068
 20
1431.8569527817
 10
559.3350562794
 20
1432.9668657732
 10
559.4122219427
 20
1434.1558741284
 10
559.1824460371
 20
1435.3183137131
 10
558.666150604
 20
1436.3509045792
 10
557.909205143
 20
1437.1619002772
 10
556.978866045
 20
1437.6792387915
 10
555.9578049524
 20
1437.8569500399
  0
LWPOLYLINE
  5
188
330
1F
100
AcDbEntity
  8
0
  6
Continuous
 62
     7
370
    15
100
AcDbPolyline
 90
       12
 70
   128
 43
0.0
 10
556.7301544888
 20
1429.8569487286
 10
557.2464499219
 20
1429.9016224099
 10
558.2331712885
 20
1430.2530811978
 10
559.086340998
 20
1430.9247361374
 10
559.7301531179
 20
1431.8569527817
 10
560.1074020906
 20
1432.9668657732
 10
560.1845677538
 20
1434.1558741284
 10
559.9547955735
 20
1435.3183137131
 10
559.4384964152
 20
1436.3509045792
 10
558.6815509541
 20
1437.1619002772
 10
557.7512155814
 20
1437.6792387915
 10
556.7301544888
 20
1437.8569500399
  0
LINE
  5
189
330
1F
100
AcDbEntity
  8
0
  6
Continuous
 62
     7
370
    15
100
AcDbLine
 10
554.9000646515
 20
1435.8415083838
 30
0.0
 11
555.6919384344
 21
1435.051880951
 31
0.0
  0
LINE
  5
18A
330
1F
100
AcDbEntity
  8
0
  6
Continuous
 62
     7
370
    15
100
AcDbLine
 10
554.9000646515
 20
1431.8723903847
 30
0.0
 11
555.6919384344
 21
1432.6620178175
 31
0.0
  0
SPLINE
  5
18B
330
1F
100
AcDbEntity
  8
0
  6
Continuous
 62
     7
370
    15
100
AcDbSpline
210
0.0
220
0.0
230
1.0
 70
    24
 71
     3
 72
    10
 73
     6
 74
     0
 42
0.00000001
 43
0.00000001
 12
1.0
 22
0.0
 32
0.0
 13
1.0
 23
0.0
 33
0.0
 40
0.0
 40
0.0
 40
0.0
 40
0.0
 40
0.0699820200786369
 40
0.8866224581633272
 40
0.9999999999999999
 40
0.9999999999999999
 40
0.9999999999999999
 40
0.9999999999999999
 10
555.7634416563791
 20
1434.371955866847
 30
0.0
 10
555.7330735722182
 20
1434.371955866847
 30
0.0
 10
555.3483315285041
 20
1434.371955866846
 30
0.0
 10
554.9168259762515
 20
1434.371955866847
 30
0.0
 10
554.5167818981618
 20
1434.371955866847
 30
0.0
 10
554.4680129332822
 20
1434.371955866847
 30
0.0
  0
SPLINE
  5
18C
330
1F
100
AcDbEntity
  8
0
  6
Continuous
 62
     7
370
    15
100
AcDbSpline
210
0.0
220
0.0
230
1.0
 70
     8
 71
     3
 72
    10
 73
     6
 74
     0
 42
0.00000001
 43
0.00000001
 12
1.0
 22
0.0
 32
0.0
 13
1.0
 23
0.0
 33
0.0
 40
0.0
 40
0.0
 40
0.0
 40
0.0
 40
0.1133785003026523
 40
0.9300188259684299
 40
1.0
 40
1.0
 40
1.0
 40
1.0
 10
554.7735537929815
 20
1434.724755759272
 30
0.0
 10
554.8162919090341
 20
1434.717794956307
 30
0.0
 10
555.1668632467157
 20
1434.660697025183
 30
0.0
 10
555.5437393831238
 20
1434.597572045014
 30
0.0
 10
555.8777834459694
 20
1434.539042938871
 30
0.0
 10
555.9041495962423
 20
1434.534423227343
 30
0.0
  0
ARC
  5
18D
330
1F
100
AcDbEntity
  8
0
  6
Continuous
 62
     7
370
    15
100
AcDbCircle
 10
556.4427275728
 20
1433.9263122141
 30
0.0
 40
0.8124208401426152
100
AcDbArc
 50
133.605598214
 51
146.7332328585
  0
SPLINE
  5
18E
330
1F
100
AcDbEntity
  8
0
  6
Continuous
 62
     7
370
    15
100
AcDbSpline
210
0.0
220
0.0
230
1.0
 70
     8
 71
     3
 72
    10
 73
     6
 74
     0
 42
0.00000001
 43
0.00000001
 12
1.0
 22
0.0
 32
0.0
 13
1.0
 23
0.0
 33
0.0
 40
0.0
 40
0.0
 40
0.0
 40
0.0
 40
0.0699811752562867
 40
0.8866209639129019
 40
1.0
 40
1.0
 40
1.0
 40
1.0
 10
555.9041495962423
 20
1433.179475541148
 30
0.0
 10
555.8777834499343
 20
1433.174855733385
 30
0.0
 10
555.5437396450303
 20
1433.116325444389
 30
0.0
 10
555.1668614185211
 20
1433.053251355807
 30
0.0
 10
554.816291890445
 20
1432.996109232569
 30
0.0
 10
554.7735537929815
 20
1432.989143009219
 30
0.0
  0
SPLINE
  5
18F
330
1F
100
AcDbEntity
  8
0
  6
Continuous
 62
     7
370
    15
100
AcDbSpline
210
0.0
220
0.0
230
1.0
 70
    24
 71
     3
 72
    10
 73
     6
 74
     0
 42
0.00000001
 43
0.00000001
 12
1.0
 22
0.0
 32
0.0
 13
1.0
 23
0.0
 33
0.0
 40
0.0
 40
0.0
 40
0.0
 40
0.0
 40
0.1133775418366728
 40
0.9300179799213631
 40
0.9999999999999999
 40
0.9999999999999999
 40
0.9999999999999999
 40
0.9999999999999999
 10
554.4680129332822
 20
1433.341957802805
 30
0.0
 10
554.5167818981618
 20
1433.341957802805
 30
0.0
 10
554.9168259762515
 20
1433.341957802806
 30
0.0
 10
555.348331528504
 20
1433.341957802805
 30
0.0
 10
555.7330735722184
 20
1433.341957802805
 30
0.0
 10
555.7634416563791
 20
1433.341957802805
 30
0.0
  0
ARC
  5
190
330
1F
100
AcDbEntity
  8
0
  6
Continuous
 62
     7
370
    15
100
AcDbCircle
 10
556.4396739043
 20
1433.7849932855
 30
0.0
 40
0.8084370674553019
100
AcDbArc
 50
213.2309266847
 51
226.4243540239
  0
LINE
  5
191
330
1F
100
AcDbEntity
  8
0
  6
Continuous
 62
     7
370
    15
100
AcDbLine
 10
555.4985735162
 20
1434.3719558668
 30
0.0
 11
555.4985735162
 21
1433.3419578028
 31
0.0
  0
ARC
  5
192
330
1F
100
AcDbEntity
  8
0
  6
Continuous
 62
     7
370
    15
100
AcDbCircle
 10
556.1697280364
 20
1433.8417264408
 30
0.0
 40
0.9155714436804191
100
AcDbArc
 50
326.9169350154
 51
347.5294023248
  0
ARC
  5
193
330
1F
100
AcDbEntity
  8
0
  6
Continuous
 62
     7
370
    15
100
AcDbCircle
 10
556.1697077778
 20
1433.8721884753
 30
0.0
 40
0.9155877376204412
100
AcDbArc
 50
12.4693372709
 51
33.0823076237
  0
ARC
  5
194
330
1F
100
AcDbEntity
  8
0
  6
Continuous
 62
     7
370
    15
100
AcDbCircle
 10
556.5664678191
 20
1433.8569568348
 30
0.0
 40
0.9539785222876421
100
AcDbArc
 50
147.3270193146
 51
212.6729806854
  0
ARC
  5
195
330
1F
100
AcDbEntity
  8
0
  6
Continuous
 62
     7
370
    15
100
AcDbCircle
 10
596.4938635527
 20
1316.5974409209
 30
0.0
 40
24.42948137912558
100
AcDbArc
 50
0.5487139789
 51
3.2145680842
  0
ARC
  5
196
330
1F
100
AcDbEntity
  8
0
  6
Continuous
 62
     7
370
    15
100
AcDbCircle
 10
621.4196763995
 20
1369.7688139779
 30
0.0
 40
52.93975599370381
100
AcDbArc
 50
269.4616086771
 51
270.538391323
  0
ARC
  5
197
330
1F
100
AcDbEntity
  8
0
  6
Continuous
 62
     7
370
    15
100
AcDbCircle
 10
597.4908686709
 20
1316.5975099646
 30
0.0
 40
24.42737919724469
100
AcDbArc
 50
0.5485992486
 51
3.2146828145
  0
ARC
  5
198
330
1F
100
AcDbEntity
  8
0
  6
Continuous
 62
     7
370
    15
100
AcDbCircle
 10
621.4446773014
 20
1318.6839045421
 30
0.0
 40
0.8383404898592682
100
AcDbArc
 50
301.267881764
 51
332.65914969
  0
ARC
  5
199
330
1F
100
AcDbEntity
  8
0
  6
Continuous
 62
     7
370
    15
100
AcDbCircle
 10
621.5225271719
 20
1304.4399771932
 30
0.0
 40
13.87492549254874
100
AcDbArc
 50
83.0288410658
 51
87.2452595138
  0
ARC
  5
19A
330
1F
100
AcDbEntity
  8
0
  6
Continuous
 62
     7
370
    15
100
AcDbCircle
 10
614.7329469366
 20
1317.9023303921
 30
0.0
 40
8.479244575362719
100
AcDbArc
 50
2.0951934719
 51
8.6679085521
  0
ARC
  5
19B
330
1F
100
AcDbEntity
  8
0
  6
Continuous
 62
     7
370
    15
100
AcDbCircle
 10
621.4317809561
 20
1305.4129279529
 30
0.0
 40
13.86984244077029
100
AcDbArc
 50
83.0280680953
 51
87.2460324842
  0
ARC
  5
19C
330
1F
100
AcDbEntity
  8
0
  6
Continuous
 62
     7
370
    15
100
AcDbCircle
 10
621.1966177959
 20
1318.6295599191
 30
0.0
 40
1.104012912776733
100
AcDbArc
 50
35.2510118018
 51
61.3367066167
  0
ARC
  5
19D
330
1F
100
AcDbEntity
  8
0
  6
Continuous
 62
     7
370
    15
100
AcDbCircle
 10
606.3942149083
 20
1317.5390808467
 30
0.0
 40
15.46962040806658
100
AcDbArc
 50
7.6494867039
 51
11.2654337749
  0
ARC
  5
19E
330
1F
100
AcDbEntity
  8
0
  6
Continuous
 62
     7
370
    15
100
AcDbCircle
 10
621.068325645
 20
1312.3169184465
 30
0.0
 40
8.259216847140758
100
AcDbArc
 50
86.5469914438
 51
93.4530085562
  0
ARC
  5
19F
330
1F
100
AcDbEntity
  8
0
  6
Continuous
 62
     7
370
    15
100
AcDbCircle
 10
605.3993114072
 20
1317.5390808467
 30
0.0
 40
15.46962040806658
100
AcDbArc
 50
7.6494867039
 51
11.2654337749
  0
ARC
  5
1A0
330
1F
100
AcDbEntity
  8
0
  6
Continuous
 62
     7
370
    15
100
AcDbCircle
 10
621.1663866819
 20
1318.8817125134
 30
0.0
 40
0.8383307394988486
100
AcDbArc
 50
121.2672997842
 51
152.6585330609
  0
ARC
  5
1A1
330
1F
100
AcDbEntity
  8
0
  6
Continuous
 62
     7
370
    15
100
AcDbCircle
 10
621.3267079434
 20
1299.7873957319
 30
0.0
 40
19.50036732003161
100
AcDbArc
 50
92.6600111023
 51
96.0203421441
  0
ARC
  5
1A2
330
1F
100
AcDbEntity
  8
0
  6
Continuous
 62
     7
370
    15
100
AcDbCircle
 10
650.2884727604
 20
1321.6129131666
 30
0.0
 40
31.10227770894994
100
AcDbArc
 50
184.486036696
 51
186.2770106815
  0
ARC
  5
1A3
330
1F
100
AcDbEntity
  8
0
  6
Continuous
 62
     7
370
    15
100
AcDbCircle
 10
621.4184658397
 20
1298.8118585557
 30
0.0
 40
19.50804063768264
100
AcDbArc
 50
92.6606721701
 51
96.0196810763
  0
ARC
  5
1A4
330
1F
100
AcDbEntity
  8
0
  6
Continuous
 62
     7
370
    15
100
AcDbCircle
 10
621.4144704362
 20
1318.9360522662
 30
0.0
 40
1.104017786694238
100
AcDbArc
 50
215.2502988051
 51
241.3361404954
  0
LWPOLYLINE
  5
1A5
330
1F
100
AcDbEntity
  8
0
  6
Continuous
 62
     7
370
    15
100
AcDbPolyline
 90
       22
 70
   128
 43
0.0
 10
624.8101420297
 20
1318.2778136683
 10
624.5341203703
 20
1319.3857299042
 10
623.9393172382
 20
1320.3952090693
 10
623.0785833268
 20
1321.2165387225
 10
622.0283997773
 20
1321.7767553282
 10
620.8820785923
 20
1322.0260741067
 10
619.7414766593
 20
1321.942344482
 10
618.7079405008
 20
1321.533009584
 10
617.8733050419
 20
1320.8344282461
 10
617.3117308008
 20
1319.9086861563
 10
617.0731164111
 20
1318.8380302739
 10
617.178663897
 20
1317.7175970626
 10
617.6189946073
 20
1316.6469486308
 10
618.3549832149
 20
1315.7211990905
 10
619.321234577
 20
1315.0226252032
 10
620.4318916953
 20
1314.6132828546
 10
621.5882693014
 20
1314.5295532298
 10
622.6876169039
 20
1314.7788720084
 10
623.6322536661
 20
1315.339088614
 10
624.3382436751
 20
1316.1604257179
 10
624.7428576989
 20
1317.1698974324
 10
624.8101420297
 20
1318.2778136683
  0
ARC
  5
1A6
330
1F
100
AcDbEntity
  8
0
  6
Continuous
 62
     7
370
    15
100
AcDbCircle
 10
620.7375344137
 20
1317.9840399823
 30
0.0
 40
4.010339399781201
100
AcDbArc
 50
148.6986315493
 51
320.468158556
  0
LINE
  5
1A7
330
1F
100
AcDbEntity
  8
0
  6
Continuous
 62
     7
370
    15
100
AcDbLine
 10
620.9184453419
 20
1317.085415299
 30
0.0
 11
621.340089996
 21
1317.085415299
 31
0.0
  0
LINE
  5
1A8
330
1F
100
AcDbEntity
  8
0
  6
Continuous
 62
     7
370
    15
100
AcDbLine
 10
621.91712815
 20
1316.8313952041
 30
0.0
 11
621.340089996
 21
1317.085415299
 31
0.0
  0
LINE
  5
1A9
330
1F
100
AcDbEntity
  8
0
  6
Continuous
 62
     7
370
    15
100
AcDbLine
 10
621.3130164488
 20
1317.3728139949
 30
0.0
 11
621.340089996
 21
1317.085415299
 31
0.0
  0
SPLINE
  5
1AA
330
1F
100
AcDbEntity
  8
0
  6
Continuous
 62
     7
370
    15
100
AcDbSpline
210
0.0
220
0.0
230
1.0
 70
     8
 71
     3
 72
    10
 73
     6
 74
     0
 42
0.00000001
 43
0.00000001
 12
1.0
 22
0.0
 32
0.0
 13
1.0
 23
0.0
 33
0.0
 40
0.0
 40
0.0
 40
0.0
 40
0.0
 40
0.1133818092225445
 40
0.9300196260959495
 40
1.0
 40
1.0
 40
1.0
 40
1.0
 10
621.8798095887881
 20
1317.967333073649
 30
0.0
 10
621.8584048239968
 20
1317.94464372307
 30
0.0
 10
621.6828312334503
 20
1317.758533257141
 30
0.0
 10
621.4939166150319
 20
1317.560002981835
 30
0.0
 10
621.3262502771872
 20
1317.386507884684
 30
0.0
 10
621.3130164487642
 20
1317.372813994918
 30
0.0
  0
LINE
  5
1AB
330
1F
100
AcDbEntity
  8
0
  6
Continuous
 62
     7
370
    15
100
AcDbLine
 10
619.2814792103
 20
1319.180213089
 30
0.0
 11
619.7601915865
 21
1318.4933738661
 31
0.0
  0
LINE
  5
1AC
330
1F
100
AcDbEntity
  8
0
  6
Continuous
 62
     7
370
    15
100
AcDbLine
 10
619.7601915865
 20
1318.4933738661
 30
0.0
 11
619.7830038673
 21
1318.2512150956
 31
0.0
  0
SPLINE
  5
1AD
330
1F
100
AcDbEntity
  8
0
  6
Continuous
 62
     7
370
    15
100
AcDbSpline
210
0.0
220
0.0
230
1.0
 70
     8
 71
     3
 72
    10
 73
     6
 74
     0
 42
0.00000001
 43
0.00000001
 12
1.0
 22
0.0
 32
0.0
 13
1.0
 23
0.0
 33
0.0
 40
0.0
 40
0.0
 40
0.0
 40
0.0
 40
0.0699831819746181
 40
0.8866218164959538
 40
1.0
 40
1.0
 40
1.0
 40
1.0
 10
620.0556117637437
 20
1318.493373866114
 30
0.0
 10
620.0639738732283
 20
1318.511409025536
 30
0.0
 10
620.1699140218717
 20
1318.739897718908
 30
0.0
 10
620.2923114176609
 20
1318.99772027215
 30
0.0
 10
620.4076492025412
 20
1319.23751789719
 30
0.0
 10
620.4217100112122
 20
1319.266751582656
 30
0.0
  0
LINE
  5
1AE
330
1F
100
AcDbEntity
  8
0
  6
Continuous
 62
     7
370
    15
100
AcDbLine
 10
619.7601915865
 20
1318.4933738661
 30
0.0
 11
620.0556117637
 21
1318.4933738661
 31
0.0
  0
SPLINE
  5
1AF
330
1F
100
AcDbEntity
  8
0
  6
Continuous
 62
     7
370
    15
100
AcDbSpline
210
0.0
220
0.0
230
1.0
 70
     8
 71
     3
 72
     9
 73
     5
 74
     0
 42
0.00000001
 43
0.00000001
 12
1.0
 22
0.0
 32
0.0
 13
1.0
 23
0.0
 33
0.0
 40
0.0
 40
0.0
 40
0.0
 40
0.0
 40
0.6860031828507172
 40
0.9999999999999999
 40
0.9999999999999999
 40
0.9999999999999999
 40
0.9999999999999999
 10
621.9249838559311
 20
1318.019583995375
 30
0.0
 10
621.9857509025742
 20
1318.08343795887
 30
0.0
 10
622.0743321922272
 20
1318.176519106439
 30
0.0
 10
622.1618777504522
 20
1318.269631891048
 30
0.0
 10
622.1893667770904
 20
1318.298869009051
 30
0.0
  0
SPLINE
  5
1B0
330
1F
100
AcDbEntity
  8
0
  6
Continuous
 62
     7
370
    15
100
AcDbSpline
210
0.0
220
0.0
230
1.0
 70
     8
 71
     3
 72
    10
 73
     6
 74
     0
 42
0.00000001
 43
0.00000001
 12
1.0
 22
0.0
 32
0.0
 13
1.0
 23
0.0
 33
0.0
 40
0.0
 40
0.0
 40
0.0
 40
0.0
 40
0.1133786580483524
 40
0.9300202421964536
 40
1.0
 40
1.0
 40
1.0
 40
1.0
 10
620.7312667338532
 20
1319.598280067477
 30
0.0
 10
620.7110948582814
 20
1319.56250193089
 30
0.0
 10
620.5456293912546
 20
1319.269021730765
 30
0.0
 10
620.3678925973055
 20
1318.95193873379
 30
0.0
 10
620.2105862103001
 20
1318.668435147918
 30
0.0
 10
620.1981702415627
 20
1318.646058614287
 30
0.0
  0
ARC
  5
1B1
330
1F
100
AcDbEntity
  8
0
  6
Continuous
 62
     7
370
    15
100
AcDbCircle
 10
620.6366647586
 20
1318.0937514071
 30
0.0
 40
0.705209679900684
100
AcDbArc
 50
128.4471951155
 51
145.4815331894
  0
LINE
  5
1B2
330
1F
100
AcDbEntity
  8
0
  6
Continuous
 62
     7
370
    15
100
AcDbLine
 10
621.7243644005
 20
1317.8081886721
 30
0.0
 11
621.6598181581
 21
1318.4933738661
 31
0.0
  0
LINE
  5
1B3
330
1F
100
AcDbEntity
  8
0
  6
Continuous
 62
     7
370
    15
100
AcDbLine
 10
623.1153454228
 20
1319.180213089
 30
0.0
 11
621.6598181581
 21
1318.4933738661
 31
0.0
  0
SPLINE
  5
1B4
330
1F
100
AcDbEntity
  8
0
  6
Continuous
 62
     7
370
    15
100
AcDbSpline
210
0.0
220
0.0
230
1.0
 70
     8
 71
     3
 72
    10
 73
     6
 74
     0
 42
0.00000001
 43
0.00000001
 12
1.0
 22
0.0
 32
0.0
 13
1.0
 23
0.0
 33
0.0
 40
0.0
 40
0.0
 40
0.0
 40
0.0
 40
0.0699797578076336
 40
0.8866213902116045
 40
0.9999999999999999
 40
0.9999999999999999
 40
0.9999999999999999
 40
0.9999999999999999
 10
621.1930737426859
 20
1318.646058614287
 30
0.0
 10
621.2054897085632
 20
1318.668435148215
 30
0.0
 10
621.3627960678849
 20
1318.951938753268
 30
0.0
 10
621.5405343744247
 20
1319.269021592898
 30
0.0
 10
621.7059985281011
 20
1319.562501929483
 30
0.0
 10
621.7261702349764
 20
1319.598280067477
 30
0.0
  0
SPLINE
  5
1B5
330
1F
100
AcDbEntity
  8
0
  6
Continuous
 62
     7
370
    15
100
AcDbSpline
210
0.0
220
0.0
230
1.0
 70
     8
 71
     3
 72
    10
 73
     6
 74
     0
 42
0.00000001
 43
0.00000001
 12
1.0
 22
0.0
 32
0.0
 13
1.0
 23
0.0
 33
0.0
 40
0.0
 40
0.0
 40
0.0
 40
0.0
 40
0.1133761226469268
 40
0.9300172359439731
 40
1.0
 40
1.0
 40
1.0
 40
1.0
 10
622.098189365713
 20
1319.266751582656
 30
0.0
 10
622.0706734921012
 20
1319.237517840557
 30
0.0
 10
621.8449625035477
 20
1318.997715284356
 30
0.0
 10
621.6007059579978
 20
1318.739899838012
 30
0.0
 10
621.3816856356796
 20
1318.511409041889
 30
0.0
 10
621.364397980867
 20
1318.493373866114
 30
0.0
  0
ARC
  5
1B6
330
1F
100
AcDbEntity
  8
0
  6
Continuous
 62
     7
370
    15
100
AcDbCircle
 10
620.6625930692
 20
1317.8783558011
 30
0.0
 40
0.9331545179207675
100
AcDbArc
 50
41.2293039977
 51
55.3556264766
  0
LINE
  5
1B7
330
1F
100
AcDbEntity
  8
0
  6
Continuous
 62
     7
370
    15
100
AcDbLine
 10
621.3643979809
 20
1318.4933738661
 30
0.0
 11
621.6598181581
 21
1318.4933738661
 31
0.0
  0
LINE
  5
1B8
330
1F
100
AcDbEntity
  8
0
  6
Continuous
 62
     7
370
    15
100
AcDbLine
 10
621.5657773955
 20
1320.5611409498
 30
0.0
 11
621.1660006611
 21
1318.9334498597
 31
0.0
  0
LINE
  5
1B9
330
1F
100
AcDbEntity
  8
0
  6
Continuous
 62
     7
370
    15
100
AcDbLine
 10
621.1660006611
 20
1318.9334498597
 30
0.0
 11
621.1930737427
 21
1318.6460586143
 31
0.0
  0
LINE
  5
1BA
330
1F
100
AcDbEntity
  8
0
  6
Continuous
 62
     7
370
    15
100
AcDbLine
 10
621.1660006611
 20
1318.9334498597
 30
0.0
 11
620.3587186119
 21
1318.9334498597
 31
0.0
  0
ARC
  5
1BB
330
1F
100
AcDbEntity
  8
0
  6
Continuous
 62
     7
370
    15
100
AcDbCircle
 10
620.7882980885
 20
1317.9508679891
 30
0.0
 40
0.7913303435680031
100
AcDbArc
 50
327.4832395926
 51
43.2798077849
  0
ARC
  5
1BC
330
1F
100
AcDbEntity
  8
0
  6
Continuous
 62
     7
370
    15
100
AcDbCircle
 10
620.8421417953
 20
1317.9747058277
 30
0.0
 40
0.7641967793541947
100
AcDbArc
 50
275.5116148851
 51
308.0369385255
  0
LWPOLYLINE
  5
1BD
330
1F
100
AcDbEntity
  8
0
  6
Continuous
 62
     7
370
    15
100
AcDbPolyline
 90
        4
 70
   128
 43
0.0
 10
620.0556117637
 20
1318.4933738661
 10
619.9940569295
 20
1318.3840067935
 10
619.9525655775
 20
1318.2647677017
 10
619.9525590582
 20
1318.2647453499
  0
ARC
  5
1BE
330
1F
100
AcDbEntity
  8
0
  6
Continuous
 62
     7
370
    15
100
AcDbCircle
 10
620.6956219921
 20
1317.9701396517
 30
0.0
 40
0.8392405424530897
100
AcDbArc
 50
53.6482846396
 51
126.3517153604
  0
LINE
  5
1BF
330
1F
100
AcDbEntity
  8
0
  6
Continuous
 62
     7
370
    15
100
AcDbLine
 10
649.410198961
 20
1373.7755345059
 30
0.0
 11
640.8115993781
 21
1358.3569453907
 31
0.0
  0
ARC
  5
1C0
330
1F
100
AcDbEntity
  8
0
  6
Continuous
 62
     7
370
    15
100
AcDbCircle
 10
649.4101970984
 20
1374.8227959117
 30
0.0
 40
0.9511713426567956
100
AcDbArc
 50
28.4228788237
 51
151.5771211763
  0
LINE
  5
1C1
330
1F
100
AcDbEntity
  8
0
  6
Continuous
 62
     7
370
    15
100
AcDbLine
 10
659.6818301423
 20
1358.3569453907
 30
0.0
 11
650.2467128976
 21
1375.2755300951
 31
0.0
  0
ARC
  5
1C2
330
1F
100
AcDbEntity
  8
0
  6
Continuous
 62
     7
370
    15
100
AcDbCircle
 10
658.8166264176
 20
1357.8561998607
 30
0.0
 40
0.9996617283292452
100
AcDbArc
 50
271.6443722314
 51
30.060552768
  0
LINE
  5
1C3
330
1F
100
AcDbEntity
  8
0
  6
Continuous
 62
     7
370
    15
100
AcDbLine
 10
639.975083579
 20
1356.8569498015
 30
0.0
 11
658.8453124805
 21
1356.8569498015
 31
0.0
  0
ARC
  5
1C4
330
1F
100
AcDbEntity
  8
0
  6
Continuous
 62
     7
370
    15
100
AcDbCircle
 10
640.0037700537
 20
1357.856199016
 30
0.0
 40
0.9996608957742967
100
AcDbArc
 50
149.9393636753
 51
268.3556027857
  0
LINE
  5
1C5
330
1F
100
AcDbEntity
  8
0
  6
Continuous
 62
     7
370
    15
100
AcDbLine
 10
648.5736812992
 20
1375.2755300951
 30
0.0
 11
639.1385677798
 21
1358.3569453907
 31
0.0
  0
LINE
  5
1C6
330
1F
100
AcDbEntity
  8
0
  6
Continuous
 62
     7
370
    15
100
AcDbLine
 10
639.975083579
 20
1356.8569498015
 30
0.0
 11
639.9621419205
 21
1356.8569498015
 31
0.0
  0
ARC
  5
1C7
330
1F
100
AcDbEntity
  8
0
  6
Continuous
 62
     7
370
    15
100
AcDbCircle
 10
639.9908291525
 20
1357.8561994384
 30
0.0
 40
0.999661339694061
100
AcDbArc
 50
149.9394063706
 51
268.3555600904
  0
LINE
  5
1C8
330
1F
100
AcDbEntity
  8
0
  6
Continuous
 62
     7
370
    15
100
AcDbLine
 10
648.5607396407
 20
1375.2755300951
 30
0.0
 11
639.1256261213
 21
1358.3569453907
 31
0.0
  0
LINE
  5
1C9
330
1F
100
AcDbEntity
  8
0
  6
Continuous
 62
     7
370
    15
100
AcDbLine
 10
649.4231406195
 20
1373.7755345059
 30
0.0
 11
649.410198961
 21
1373.7755345059
 31
0.0
  0
LINE
  5
1CA
330
1F
100
AcDbEntity
  8
0
  6
Continuous
 62
     7
370
    15
100
AcDbLine
 10
649.4231406195
 20
1373.7755345059
 30
0.0
 11
640.8245410366
 21
1358.3569453907
 31
0.0
  0
LINE
  5
1CB
330
1F
100
AcDbEntity
  8
0
  6
Continuous
 62
     7
370
    15
100
AcDbLine
 10
640.8245410366
 20
1358.3569453907
 30
0.0
 11
640.8115993781
 21
1358.3569453907
 31
0.0
  0
LINE
  5
1CC
330
1F
100
AcDbEntity
  8
0
  6
Continuous
 62
     7
370
    15
100
AcDbLine
 10
658.0217364772
 20
1358.3569453907
 30
0.0
 11
649.4231406195
 21
1373.7755345059
 31
0.0
  0
LINE
  5
1CD
330
1F
100
AcDbEntity
  8
0
  6
Continuous
 62
     7
370
    15
100
AcDbLine
 10
640.8245410366
 20
1358.3569453907
 30
0.0
 11
658.0217364772
 21
1358.3569453907
 31
0.0
  0
LINE
  5
1CE
330
1F
100
AcDbEntity
  8
0
  6
Continuous
 62
     7
370
    15
100
AcDbLine
 10
650.1499447568
 20
1365.1756571484
 30
0.0
 11
648.7778234823
 21
1361.1214535189
 31
0.0
  0
LINE
  5
1CF
330
1F
100
AcDbEntity
  8
0
  6
Continuous
 62
     7
370
    15
100
AcDbLine
 10
648.7778234823
 20
1361.1214535189
 30
0.0
 11
648.4194617315
 21
1361.5581171465
 31
0.0
  0
LINE
  5
1D0
330
1F
100
AcDbEntity
  8
0
  6
Continuous
 62
     7
370
    15
100
AcDbLine
 10
648.4194617315
 20
1361.5581171465
 30
0.0
 11
648.9401753588
 21
1358.6069570732
 31
0.0
  0
LINE
  5
1D1
330
1F
100
AcDbEntity
  8
0
  6
Continuous
 62
     7
370
    15
100
AcDbLine
 10
648.9401753588
 20
1358.6069570732
 30
0.0
 11
649.9145287617
 21
1361.4322768402
 31
0.0
  0
LINE
  5
1D2
330
1F
100
AcDbEntity
  8
0
  6
Continuous
 62
     7
370
    15
100
AcDbLine
 10
649.9145287617
 20
1361.4322768402
 30
0.0
 11
649.3654470487
 21
1360.9493153048
 31
0.0
  0
LINE
  5
1D3
330
1F
100
AcDbEntity
  8
0
  6
Continuous
 62
     7
370
    15
100
AcDbLine
 10
649.3654470487
 20
1360.9493153048
 30
0.0
 11
651.3549904866
 21
1367.6069455099
 31
0.0
  0
LINE
  5
1D4
330
1F
100
AcDbEntity
  8
0
  6
Continuous
 62
     7
370
    15
100
AcDbLine
 10
651.3549904866
 20
1367.6069455099
 30
0.0
 11
648.4194617315
 21
1364.78736269
 31
0.0
  0
LINE
  5
1D5
330
1F
100
AcDbEntity
  8
0
  6
Continuous
 62
     7
370
    15
100
AcDbLine
 10
648.4194617315
 20
1364.78736269
 30
0.0
 11
650.3890636905
 21
1370.6069515896
 31
0.0
  0
LINE
  5
1D6
330
1F
100
AcDbEntity
  8
0
  6
Continuous
 62
     7
370
    15
100
AcDbLine
 10
650.3890636905
 20
1370.6069515896
 30
0.0
 11
648.4572138233
 21
1370.6069515896
 31
0.0
  0
LINE
  5
1D7
330
1F
100
AcDbEntity
  8
0
  6
Continuous
 62
     7
370
    15
100
AcDbLine
 10
648.4572138233
 20
1370.6069515896
 30
0.0
 11
647.5254479392
 21
1363.6069523049
 31
0.0
  0
LINE
  5
1D8
330
1F
100
AcDbEntity
  8
0
  6
Continuous
 62
     7
370
    15
100
AcDbLine
 10
647.5254479392
 20
1363.6069523049
 30
0.0
 11
650.1499447568
 21
1365.1756571484
 31
0.0
  0
LINE
  5
1D9
330
1F
100
AcDbEntity
  8
0
  6
Continuous
 62
     7
370
    15
100
AcDbLine
 10
650.1370030983
 20
1365.1756571484
 30
0.0
 11
650.1499447568
 21
1365.1756571484
 31
0.0
  0
LINE
  5
1DA
330
1F
100
AcDbEntity
  8
0
  6
Continuous
 62
     7
370
    15
100
AcDbLine
 10
650.1370030983
 20
1365.1756571484
 30
0.0
 11
647.5265692516
 21
1363.6153565598
 31
0.0
  0
LINE
  5
1DB
330
1F
100
AcDbEntity
  8
0
  6
Continuous
 62
     7
370
    15
100
AcDbLine
 10
650.3761257572
 20
1370.6069515896
 30
0.0
 11
648.406520073
 21
1364.78736269
 31
0.0
  0
LINE
  5
1DC
330
1F
100
AcDbEntity
  8
0
  6
Continuous
 62
     7
370
    15
100
AcDbLine
 10
651.3368408723
 20
1367.5895111513
 30
0.0
 11
649.3525053902
 21
1360.9493153048
 31
0.0
  0
LINE
  5
1DD
330
1F
100
AcDbEntity
  8
0
  6
Continuous
 62
     7
370
    15
100
AcDbLine
 10
649.8959507389
 20
1361.4159451676
 30
0.0
 11
648.9357944174
 21
1358.6317675066
 31
0.0
  0
LINE
  5
1DE
330
1F
100
AcDbEntity
  8
0
  6
Continuous
 62
     7
370
    15
100
AcDbLine
 10
648.4230044825
 20
1361.5380303812
 30
0.0
 11
648.7648818238
 21
1361.1214535189
 31
0.0
  0
LINE
  5
1DF
330
1F
100
AcDbEntity
  8
0
  6
Continuous
 62
     7
370
    15
100
AcDbLine
 10
648.406520073
 20
1364.78736269
 30
0.0
 11
648.4194617315
 21
1364.78736269
 31
0.0
  0
LINE
  5
1E0
330
1F
100
AcDbEntity
  8
0
  6
Continuous
 62
     7
370
    15
100
AcDbLine
 10
648.7648818238
 20
1361.1214535189
 30
0.0
 11
648.7778234823
 21
1361.1214535189
 31
0.0
  0
ARC
  5
1E1
330
1F
100
AcDbEntity
  8
0
  6
Continuous
 62
     7
370
    15
100
AcDbCircle
 10
649.4038101099
 20
1374.8148214811
 30
0.0
 40
0.9607394251051141
100
AcDbArc
 50
90.390793909
 51
151.3449339839
  0
LINE
  5
1E2
330
1F
100
AcDbEntity
  8
0
  6
Continuous
 62
     7
370
    15
100
AcDbLine
 10
649.3525053902
 20
1360.9493153048
 30
0.0
 11
649.3654470487
 21
1360.9493153048
 31
0.0
  0
LINE
  5
1E3
330
1F
100
AcDbEntity
  8
0
  6
Continuous
 62
     7
370
    15
100
AcDbLine
 10
628.5454393892
 20
1400.2170042944
 30
0.0
 11
629.3679173632
 21
1400.2900497866
 31
0.0
  0
ARC
  5
1E4
330
1F
100
AcDbEntity
  8
0
  6
Continuous
 62
     7
370
    15
100
AcDbCircle
 10
619.6402741305
 20
1316.4185824799
 30
0.0
 40
6.077503314885926
100
AcDbArc
 50
186.8152137822
 51
269.771747543
  0
LINE
  5
1E5
330
1F
100
AcDbEntity
  8
0
  6
Continuous
 62
     7
370
    15
100
AcDbLine
 10
629.3679173632
 20
1400.2900497866
 30
0.0
 11
669.3572472377
 21
1400.2900497866
 31
0.0
  0
LINE
  5
1E6
330
1F
100
AcDbEntity
  8
0
  6
Continuous
 62
     7
370
    15
100
AcDbLine
 10
676.6056861325
 20
1310.3411273909
 30
0.0
 11
619.6160628988
 21
1310.3411273909
 31
0.0
  0
ELLIPSE
  5
1E7
330
1F
100
AcDbEntity
  8
0
  6
Continuous
 62
     7
370
    15
100
AcDbEllipse
 10
622.0418226368
 20
1395.2900443619
 30
0.0
 11
-3.231092164139113
 21
4.097390466981778
 31
0.0
210
0.0
220
0.0
230
1.0
 40
0.8868680913
 41
5.672888749213164
 42
7.243685076008081
  0
LINE
  5
1E8
330
1F
100
AcDbEntity
  8
0
  6
Continuous
 62
     7
370
    15
100
AcDbLine
 10
621.4766079156
 20
1400.2900497866
 30
0.0
 11
629.3679173632
 21
1400.2900497866
 31
0.0
  0
LINE
  5
1E9
330
1F
100
AcDbEntity
  8
0
  6
Continuous
 62
     7
370
    15
100
AcDbLine
 10
613.6057142521
 20
1315.6973795843
 30
0.0
 11
605.4617525606
 21
1402.149103756
 31
0.0
  0
ELLIPSE
  5
1EA
330
1F
100
AcDbEntity
  8
0
  6
Continuous
 62
     7
370
    15
100
AcDbEllipse
 10
669.3572465687
 20
1327.5319501367
 30
0.0
 11
-1.626370277716319
 21
4.835421110376274
 31
0.0
210
0.0
220
0.0
230
1.0
 40
0.9411792146
 41
3.741252730197055
 42
3.808284244208992
  0
ARC
  5
1EB
330
1F
100
AcDbEntity
  8
0
  6
Continuous
 62
     7
370
    15
100
AcDbCircle
 10
676.6947625945
 20
1315.3636569994
 30
0.0
 40
5.02331944877953
100
AcDbArc
 50
268.9839442044
 51
323.7614226157
  0
ARC
  5
1EC
330
1F
100
AcDbEntity
  8
0
  6
Continuous
 62
     7
370
    15
100
AcDbCircle
 10
610.3017082857
 20
1402.6519845126
 30
0.0
 40
4.866010735308707
100
AcDbArc
 50
144.8657081615
 51
185.9318573543
  0
LINE
  5
1ED
330
1F
100
AcDbEntity
  8
0
  6
Continuous
 62
     7
370
    15
100
AcDbLine
 10
572.1225324614
 20
859.8569558812
 30
0.0
 11
573.1868926032
 21
859.8569558812
 31
0.0
  0
LINE
  5
1EE
330
1F
100
AcDbEntity
  8
0
  6
Continuous
 62
     7
370
    15
100
AcDbLine
 10
565.7994221492
 20
859.8569558812
 30
0.0
 11
572.1225324614
 21
859.8569558812
 31
0.0
  0
LINE
  5
1EF
330
1F
100
AcDbEntity
  8
0
  6
Continuous
 62
     7
370
    15
100
AcDbLine
 10
559.6737820251
 20
859.8569558812
 30
0.0
 11
565.7994221492
 21
859.8569558812
 31
0.0
  0
LINE
  5
1F0
330
1F
100
AcDbEntity
  8
0
  6
Continuous
 62
     7
370
    15
100
AcDbLine
 10
558.8068920715
 20
859.8569558812
 30
0.0
 11
559.6737820251
 21
859.8569558812
 31
0.0
  0
LINE
  5
1F1
330
1F
100
AcDbEntity
  8
0
  6
Continuous
 62
     7
370
    15
100
AcDbLine
 10
565.7994221492
 20
859.8569558812
 30
0.0
 11
565.7994221492
 21
854.55694067
 31
0.0
  0
LINE
  5
1F2
330
1F
100
AcDbEntity
  8
0
  6
Continuous
 62
     7
370
    15
100
AcDbLine
 10
572.1225324614
 20
859.8569558812
 30
0.0
 11
572.1225324614
 21
854.55694067
 31
0.0
  0
LINE
  5
1F3
330
1F
100
AcDbEntity
  8
0
  6
Continuous
 62
     7
370
    15
100
AcDbLine
 10
565.7994221492
 20
854.55694067
 30
0.0
 11
572.1225324614
 21
854.55694067
 31
0.0
  0
LINE
  5
1F4
330
1F
100
AcDbEntity
  8
0
  6
Continuous
 62
     7
370
    15
100
AcDbLine
 10
559.6737820251
 20
859.8569558812
 30
0.0
 11
559.6737820251
 21
854.55694067
 31
0.0
  0
LINE
  5
1F5
330
1F
100
AcDbEntity
  8
0
  6
Continuous
 62
     7
370
    15
100
AcDbLine
 10
559.6737820251
 20
854.55694067
 30
0.0
 11
565.7994221492
 21
854.55694067
 31
0.0
  0
LINE
  5
1F6
330
1F
100
AcDbEntity
  8
0
  6
Continuous
 62
     7
370
    15
100
AcDbLine
 10
572.3199989243
 20
859.8569558812
 30
0.0
 11
572.3199989243
 21
854.55694067
 31
0.0
  0
LINE
  5
1F7
330
1F
100
AcDbEntity
  8
0
  6
Continuous
 62
     7
370
    15
100
AcDbLine
 10
572.1225324614
 20
854.55694067
 30
0.0
 11
572.3199989243
 21
854.55694067
 31
0.0
  0
LINE
  5
1F8
330
1F
100
AcDbEntity
  8
0
  6
Continuous
 62
     7
370
    15
100
AcDbLine
 10
668.4865239604
 20
859.8569558812
 30
0.0
 11
669.353413914
 21
859.8569558812
 31
0.0
  0
LINE
  5
1F9
330
1F
100
AcDbEntity
  8
0
  6
Continuous
 62
     7
370
    15
100
AcDbLine
 10
662.3608838363
 20
859.8569558812
 30
0.0
 11
668.4865239604
 21
859.8569558812
 31
0.0
  0
LINE
  5
1FA
330
1F
100
AcDbEntity
  8
0
  6
Continuous
 62
     7
370
    15
100
AcDbLine
 10
656.0377735241
 20
859.8569558812
 30
0.0
 11
662.3608838363
 21
859.8569558812
 31
0.0
  0
LINE
  5
1FB
330
1F
100
AcDbEntity
  8
0
  6
Continuous
 62
     7
370
    15
100
AcDbLine
 10
654.9734133823
 20
859.8569558812
 30
0.0
 11
656.0377735241
 21
859.8569558812
 31
0.0
  0
LINE
  5
1FC
330
1F
100
AcDbEntity
  8
0
  6
Continuous
 62
     7
370
    15
100
AcDbLine
 10
662.3608838363
 20
859.8569558812
 30
0.0
 11
662.3608838363
 21
854.55694067
 31
0.0
  0
LINE
  5
1FD
330
1F
100
AcDbEntity
  8
0
  6
Continuous
 62
     7
370
    15
100
AcDbLine
 10
668.4865239604
 20
859.8569558812
 30
0.0
 11
668.4865239604
 21
854.55694067
 31
0.0
  0
LINE
  5
1FE
330
1F
100
AcDbEntity
  8
0
  6
Continuous
 62
     7
370
    15
100
AcDbLine
 10
662.3608838363
 20
854.55694067
 30
0.0
 11
668.4865239604
 21
854.55694067
 31
0.0
  0
LINE
  5
1FF
330
1F
100
AcDbEntity
  8
0
  6
Continuous
 62
     7
370
    15
100
AcDbLine
 10
656.0377735241
 20
859.8569558812
 30
0.0
 11
656.0377735241
 21
854.55694067
 31
0.0
  0
LINE
  5
200
330
1F
100
AcDbEntity
  8
0
  6
Continuous
 62
     7
370
    15
100
AcDbLine
 10
656.0377735241
 20
854.55694067
 30
0.0
 11
662.3608838363
 21
854.55694067
 31
0.0
  0
LINE
  5
201
330
1F
100
AcDbEntity
  8
0
  6
Continuous
 62
     7
370
    15
100
AcDbLine
 10
655.8403070612
 20
859.8569558812
 30
0.0
 11
655.8403070612
 21
854.55694067
 31
0.0
  0
LINE
  5
202
330
1F
100
AcDbEntity
  8
0
  6
Continuous
 62
     7
370
    15
100
AcDbLine
 10
655.8403070612
 20
854.55694067
 30
0.0
 11
656.0377735241
 21
854.55694067
 31
0.0
  0
LINE
  5
203
330
1F
100
AcDbEntity
  8
0
  6
Continuous
 62
     7
370
    15
100
AcDbLine
 10
654.9761253937
 20
859.0118216229
 30
0.0
 11
654.9761253937
 21
854.55694067
 31
0.0
  0
LINE
  5
204
330
1F
100
AcDbEntity
  8
0
  6
Continuous
 62
     7
370
    15
100
AcDbLine
 10
654.9761253937
 20
854.55694067
 30
0.0
 11
655.8403070612
 21
854.55694067
 31
0.0
  0
LINE
  5
205
330
1F
100
AcDbEntity
  8
0
  6
Continuous
 62
     7
370
    15
100
AcDbLine
 10
669.3507019027
 20
859.8569558812
 30
0.0
 11
669.3507019027
 21
854.55694067
 31
0.0
  0
LINE
  5
206
330
1F
100
AcDbEntity
  8
0
  6
Continuous
 62
     7
370
    15
100
AcDbLine
 10
668.4865239604
 20
854.55694067
 30
0.0
 11
669.3507019027
 21
854.55694067
 31
0.0
  0
LINE
  5
207
330
1F
100
AcDbEntity
  8
0
  6
Continuous
 62
     7
370
    15
100
AcDbLine
 10
573.1841805918
 20
859.0118216229
 30
0.0
 11
573.1841805918
 21
854.55694067
 31
0.0
  0
LINE
  5
208
330
1F
100
AcDbEntity
  8
0
  6
Continuous
 62
     7
370
    15
100
AcDbLine
 10
572.3199989243
 20
854.55694067
 30
0.0
 11
573.1841805918
 21
854.55694067
 31
0.0
  0
LINE
  5
209
330
1F
100
AcDbEntity
  8
0
  6
Continuous
 62
     7
370
    15
100
AcDbLine
 10
558.8096040829
 20
859.8569558812
 30
0.0
 11
558.8096040829
 21
854.55694067
 31
0.0
  0
LINE
  5
20A
330
1F
100
AcDbEntity
  8
0
  6
Continuous
 62
     7
370
    15
100
AcDbLine
 10
558.8096040829
 20
854.55694067
 30
0.0
 11
559.6737820251
 21
854.55694067
 31
0.0
  0
LINE
  5
20B
330
1F
100
AcDbEntity
  8
0
  6
Continuous
 62
     7
370
    15
100
AcDbLine
 10
562.0086300714
 20
875.8569585038
 30
0.0
 11
564.2624716802
 21
875.8569585038
 31
0.0
  0
LINE
  5
20C
330
1F
100
AcDbEntity
  8
0
  6
Continuous
 62
     7
370
    15
100
AcDbLine
 10
663.8978343053
 20
875.8569585038
 30
0.0
 11
666.1516759141
 21
875.8569585038
 31
0.0
  0
LINE
  5
20D
330
1F
100
AcDbEntity
  8
0
  6
Continuous
 62
     7
370
    15
100
AcDbLine
 10
646.5981524034
 20
875.8569585038
 30
0.0
 11
646.5981524034
 21
865.8569382382
 31
0.0
  0
LINE
  5
20E
330
1F
100
AcDbEntity
  8
0
  6
Continuous
 62
     7
370
    15
100
AcDbLine
 10
581.5621535821
 20
875.8569585038
 30
0.0
 11
581.5621535821
 21
865.8569382382
 31
0.0
  0
LINE
  5
20F
330
1F
100
AcDbEntity
  8
0
  6
Continuous
 62
     7
370
    15
100
AcDbLine
 10
553.0801523073
 20
900.8569644642
 30
0.0
 11
561.9968916817
 21
900.8569644642
 31
0.0
  0
LINE
  5
210
330
1F
100
AcDbEntity
  8
0
  6
Continuous
 62
     7
370
    15
100
AcDbLine
 10
569.996892993
 20
900.8569644642
 30
0.0
 11
658.1634129925
 21
900.8569644642
 31
0.0
  0
LINE
  5
211
330
1F
100
AcDbEntity
  8
0
  6
Continuous
 62
     7
370
    15
100
AcDbLine
 10
666.1634143038
 20
900.8569644642
 30
0.0
 11
675.0801536782
 21
900.8569644642
 31
0.0
  0
SPLINE
  5
212
330
1F
100
AcDbEntity
  8
0
  6
Continuous
 62
     7
370
    15
100
AcDbSpline
210
0.0
220
0.0
230
1.0
 70
     8
 71
     3
 72
    10
 73
     6
 74
     0
 42
0.00000001
 43
0.00000001
 12
1.0
 22
0.0
 32
0.0
 13
1.0
 23
0.0
 33
0.0
 40
0.0
 40
0.0
 40
0.0
 40
0.0
 40
0.4643027904215974
 40
0.9277613024743488
 40
1.0
 40
1.0
 40
1.0
 40
1.0
 10
646.5981524033826
 20
865.856938238177
 30
0.0
 10
646.5523100630788
 20
865.3491408111664
 30
0.0
 10
646.4607087412129
 20
864.3344693252408
 30
0.0
 10
645.9603057309453
 20
863.3641199285265
 30
0.0
 10
645.6308666109682
 20
862.9172124709338
 30
0.0
 10
645.5864417894167
 20
862.8569470596644
 30
0.0
  0
SPLINE
  5
213
330
1F
100
AcDbEntity
  8
0
  6
Continuous
 62
     7
370
    15
100
AcDbSpline
210
0.0
220
0.0
230
1.0
 70
     8
 71
     3
 72
    12
 73
     8
 74
     0
 42
0.00000001
 43
0.00000001
 12
1.0
 22
0.0
 32
0.0
 13
1.0
 23
0.0
 33
0.0
 40
0.0
 40
0.0
 40
0.0
 40
0.0
 40
0.0033602858914995
 40
0.2260393832237132
 40
0.5243421854983947
 40
0.783613603055316
 40
1.0
 40
1.0
 40
1.0
 40
1.0
 10
643.4920500560087
 20
860.8569430065486
 30
0.0
 10
643.4940840534807
 20
860.8569502656725
 30
0.0
 10
643.6309067968192
 20
860.8574385717076
 30
0.0
 10
643.9486410414042
 20
860.9428055657837
 30
0.0
 10
644.4467960638333
 20
861.3608295471115
 30
0.0
 10
644.9931175249056
 20
862.0562612600421
 30
0.0
 10
645.4009228620216
 20
862.6065909228751
 30
0.0
 10
645.5864417894167
 20
862.8569470596644
 30
0.0
  0
LINE
  5
214
330
1F
100
AcDbEntity
  8
0
  6
Continuous
 62
     7
370
    15
100
AcDbLine
 10
643.492050056
 20
860.8569430065
 30
0.0
 11
584.6682559295
 21
860.8569430065
 31
0.0
  0
SPLINE
  5
215
330
1F
100
AcDbEntity
  8
0
  6
Continuous
 62
     7
370
    15
100
AcDbSpline
210
0.0
220
0.0
230
1.0
 70
     8
 71
     3
 72
    12
 73
     8
 74
     0
 42
0.00000001
 43
0.00000001
 12
1.0
 22
0.0
 32
0.0
 13
1.0
 23
0.0
 33
0.0
 40
0.0
 40
0.0
 40
0.0
 40
0.0
 40
0.216386396944684
 40
0.4756578145016053
 40
0.7739606167762869
 40
0.9966397141085005
 40
1.0
 40
1.0
 40
1.0
 40
1.0
 10
582.5738641960901
 20
862.8569470596644
 30
0.0
 10
582.759383123485
 20
862.6065909228751
 30
0.0
 10
583.1671884606011
 20
862.0562612600418
 30
0.0
 10
583.7135099216733
 20
861.3608295471118
 30
0.0
 10
584.2116649441024
 20
860.9428055657826
 30
0.0
 10
584.5293991886874
 20
860.8574385717101
 30
0.0
 10
584.6662219320259
 20
860.8569502656725
 30
0.0
 10
584.6682559294981
 20
860.8569430065486
 30
0.0
  0
SPLINE
  5
216
330
1F
100
AcDbEntity
  8
0
  6
Continuous
 62
     7
370
    15
100
AcDbSpline
210
0.0
220
0.0
230
1.0
 70
     8
 71
     3
 72
     9
 73
     5
 74
     0
 42
0.00000001
 43
0.00000001
 12
1.0
 22
0.0
 32
0.0
 13
1.0
 23
0.0
 33
0.0
 40
0.0
 40
0.0
 40
0.0
 40
0.0
 40
0.4706116931513912
 40
1.0
 40
1.0
 40
1.0
 40
1.0
 10
582.5738641960901
 20
862.8569470596644
 30
0.0
 10
582.3011739227971
 20
863.2762689524648
 30
0.0
 10
581.7217359758416
 20
864.1672835594168
 30
0.0
 10
581.6173920410783
 20
865.2720747175508
 30
0.0
 10
581.5621535821241
 20
865.856938238177
 30
0.0
  0
LINE
  5
217
330
1F
100
AcDbEntity
  8
0
  6
Continuous
 62
     7
370
    15
100
AcDbLine
 10
564.2624716802
 20
875.8569585038
 30
0.0
 11
581.5621535821
 21
875.8569585038
 31
0.0
  0
LINE
  5
218
330
1F
100
AcDbEntity
  8
0
  6
Continuous
 62
     7
370
    15
100
AcDbLine
 10
584.6682559295
 20
860.8569430065
 30
0.0
 11
563.3104178651
 21
860.8569430065
 31
0.0
  0
LINE
  5
219
330
1F
100
AcDbEntity
  8
0
  6
Continuous
 62
     7
370
    15
100
AcDbLine
 10
646.5981524034
 20
875.8569585038
 30
0.0
 11
663.8978343053
 21
875.8569585038
 31
0.0
  0
LINE
  5
21A
330
1F
100
AcDbEntity
  8
0
  6
Continuous
 62
     7
370
    15
100
AcDbLine
 10
664.8498881204
 20
860.8569430065
 30
0.0
 11
643.492050056
 21
860.8569430065
 31
0.0
  0
LINE
  5
21B
330
1F
100
AcDbEntity
  8
0
  6
Continuous
 62
     7
370
    15
100
AcDbLine
 10
553.3466670258
 20
875.8569585038
 30
0.0
 11
562.0086300714
 21
875.8569585038
 31
0.0
  0
LINE
  5
21C
330
1F
100
AcDbEntity
  8
0
  6
Continuous
 62
     7
370
    15
100
AcDbLine
 10
563.3104178651
 20
860.8569430065
 30
0.0
 11
554.8650022192
 21
860.8569430065
 31
0.0
  0
LINE
  5
21D
330
1F
100
AcDbEntity
  8
0
  6
Continuous
 62
     7
370
    15
100
AcDbLine
 10
666.1516759141
 20
875.8569585038
 30
0.0
 11
674.8136389597
 21
875.8569585038
 31
0.0
  0
LINE
  5
21E
330
1F
100
AcDbEntity
  8
0
  6
Continuous
 62
     7
370
    15
100
AcDbLine
 10
673.2953037663
 20
860.8569430065
 30
0.0
 11
664.8498881204
 21
860.8569430065
 31
0.0
  0
LINE
  5
21F
330
1F
100
AcDbEntity
  8
0
  6
Continuous
 62
     7
370
    15
100
AcDbLine
 10
552.8650018914
 20
875.8569585038
 30
0.0
 11
553.3466670258
 21
875.8569585038
 31
0.0
  0
LINE
  5
220
330
1F
100
AcDbEntity
  8
0
  6
Continuous
 62
     7
370
    15
100
AcDbLine
 10
674.8136389597
 20
875.8569585038
 30
0.0
 11
675.2953040941
 21
875.8569585038
 31
0.0
  0
LINE
  5
221
330
1F
100
AcDbEntity
  8
0
  6
Continuous
 62
     7
370
    15
100
AcDbLine
 10
618.0760185762
 20
835.8569370461
 30
0.0
 11
610.0842874093
 21
835.8569370461
 31
0.0
  0
LINE
  5
222
330
1F
100
AcDbEntity
  8
0
  6
Continuous
 62
     7
370
    15
100
AcDbLine
 10
610.0842874093
 20
835.8569370461
 30
0.0
 11
604.9676300554
 21
835.8569370461
 31
0.0
  0
LINE
  5
223
330
1F
100
AcDbEntity
  8
0
  6
Continuous
 62
     7
370
    15
100
AcDbLine
 10
623.1926759301
 20
835.8569370461
 30
0.0
 11
618.0760185762
 21
835.8569370461
 31
0.0
  0
LINE
  5
224
330
1F
100
AcDbEntity
  8
0
  6
Continuous
 62
     7
370
    15
100
AcDbLine
 10
604.9676300554
 20
835.8569370461
 30
0.0
 11
580.080151145
 21
835.8569370461
 31
0.0
  0
LINE
  5
225
330
1F
100
AcDbEntity
  8
0
  6
Continuous
 62
     7
370
    15
100
AcDbLine
 10
648.0801548405
 20
835.8569370461
 30
0.0
 11
623.1926759301
 21
835.8569370461
 31
0.0
  0
LINE
  5
226
330
1F
100
AcDbEntity
  8
0
  6
Continuous
 62
     7
370
    15
100
AcDbLine
 10
580.080151145
 20
835.8569370461
 30
0.0
 11
578.1497690423
 21
835.8569370461
 31
0.0
  0
LINE
  5
227
330
1F
100
AcDbEntity
  8
0
  6
Continuous
 62
     7
370
    15
100
AcDbLine
 10
650.0105369432
 20
835.8569370461
 30
0.0
 11
648.0801548405
 21
835.8569370461
 31
0.0
  0
LINE
  5
228
330
1F
100
AcDbEntity
  8
0
  6
Continuous
 62
     7
370
    15
100
AcDbLine
 10
578.1497690423
 20
835.8569370461
 30
0.0
 11
576.3051617487
 21
835.8569370461
 31
0.0
  0
LINE
  5
229
330
1F
100
AcDbEntity
  8
0
  6
Continuous
 62
     7
370
    15
100
AcDbLine
 10
651.8551442368
 20
835.8569370461
 30
0.0
 11
650.0105369432
 21
835.8569370461
 31
0.0
  0
LINE
  5
22A
330
1F
100
AcDbEntity
  8
0
  6
Continuous
 62
     7
370
    15
100
AcDbLine
 10
675.0801536782
 20
973.8569484902
 30
0.0
 11
666.1634143038
 21
973.8569484902
 31
0.0
  0
LINE
  5
22B
330
1F
100
AcDbEntity
  8
0
  6
Continuous
 62
     7
370
    15
100
AcDbLine
 10
658.1634129925
 20
973.8569484902
 30
0.0
 11
569.996892993
 21
973.8569484902
 31
0.0
  0
LINE
  5
22C
330
1F
100
AcDbEntity
  8
0
  6
Continuous
 62
     7
370
    15
100
AcDbLine
 10
561.9968916817
 20
973.8569484902
 30
0.0
 11
553.0801523073
 21
973.8569484902
 31
0.0
  0
LINE
  5
22D
330
1F
100
AcDbEntity
  8
0
  6
Continuous
 62
     7
370
    15
100
AcDbLine
 10
675.0801536782
 20
1010.3569554043
 30
0.0
 11
666.1634143038
 21
1010.3569554043
 31
0.0
  0
LINE
  5
22E
330
1F
100
AcDbEntity
  8
0
  6
Continuous
 62
     7
370
    15
100
AcDbLine
 10
658.1634129925
 20
1010.3569554043
 30
0.0
 11
569.996892993
 21
1010.3569554043
 31
0.0
  0
LINE
  5
22F
330
1F
100
AcDbEntity
  8
0
  6
Continuous
 62
     7
370
    15
100
AcDbLine
 10
561.9968916817
 20
1010.3569554043
 30
0.0
 11
553.0801523073
 21
1010.3569554043
 31
0.0
  0
LINE
  5
230
330
1F
100
AcDbEntity
  8
0
  6
Continuous
 62
     7
370
    15
100
AcDbLine
 10
675.0801536782
 20
937.356941576
 30
0.0
 11
666.1634143038
 21
937.356941576
 31
0.0
  0
LINE
  5
231
330
1F
100
AcDbEntity
  8
0
  6
Continuous
 62
     7
370
    15
100
AcDbLine
 10
658.1634129925
 20
937.356941576
 30
0.0
 11
569.996892993
 21
937.356941576
 31
0.0
  0
LINE
  5
232
330
1F
100
AcDbEntity
  8
0
  6
Continuous
 62
     7
370
    15
100
AcDbLine
 10
561.9968916817
 20
937.356941576
 30
0.0
 11
553.0801523073
 21
937.356941576
 31
0.0
  0
LINE
  5
233
330
1F
100
AcDbEntity
  8
0
  6
Continuous
 62
     7
370
    15
100
AcDbLine
 10
675.0801536782
 20
1046.8569474173
 30
0.0
 11
666.1634143038
 21
1046.8569474173
 31
0.0
  0
LINE
  5
234
330
1F
100
AcDbEntity
  8
0
  6
Continuous
 62
     7
370
    15
100
AcDbLine
 10
658.1634129925
 20
1046.8569474173
 30
0.0
 11
569.996892993
 21
1046.8569474173
 31
0.0
  0
LINE
  5
235
330
1F
100
AcDbEntity
  8
0
  6
Continuous
 62
     7
370
    15
100
AcDbLine
 10
561.9968916817
 20
1046.8569474173
 30
0.0
 11
553.0801523073
 21
1046.8569474173
 31
0.0
  0
LINE
  5
236
330
1F
100
AcDbEntity
  8
0
  6
Continuous
 62
     7
370
    15
100
AcDbLine
 10
704.317316
 20
1398.8569455099
 30
0.0
 11
705.5241684957
 21
1398.8569455099
 31
0.0
  0
SPLINE
  5
237
330
1F
100
AcDbEntity
  8
0
  6
Continuous
 62
     7
370
    15
100
AcDbSpline
210
0.0
220
0.0
230
1.0
 70
     8
 71
     3
 72
    12
 73
     8
 74
     0
 42
0.00000001
 43
0.00000001
 12
1.0
 22
0.0
 32
0.0
 13
1.0
 23
0.0
 33
0.0
 40
0.0
 40
0.0
 40
0.0
 40
0.0
 40
0.2146876038026866
 40
0.4293739940522705
 40
0.644055957015825
 40
0.8587259275918144
 40
1.0
 40
1.0
 40
1.0
 40
1.0
 10
703.1280096216482
 20
1400.85694956306
 30
0.0
 10
703.1413249644144
 20
1400.632100985905
 30
0.0
 10
703.1679555746799
 20
1400.182405102585
 30
0.0
 10
703.3750691605698
 20
1399.583056595829
 30
0.0
 10
703.678197800282
 20
1399.130773583514
 30
0.0
 10
704.011895590285
 20
1398.891106012165
 30
0.0
 10
704.2305372127097
 20
1398.866651498352
 30
0.0
 10
704.3173160000126
 20
1398.856945509944
 30
0.0
  0
LINE
  5
238
330
1F
100
AcDbEntity
  8
0
  6
Continuous
 62
     7
370
    15
100
AcDbLine
 10
703.1280096216
 20
1408.8569508744
 30
0.0
 11
703.1280096216
 21
1400.8569495631
 31
0.0
  0
SPLINE
  5
239
330
1F
100
AcDbEntity
  8
0
  6
Continuous
 62
     7
370
    15
100
AcDbSpline
210
0.0
220
0.0
230
1.0
 70
     8
 71
     3
 72
    12
 73
     8
 74
     0
 42
0.00000001
 43
0.00000001
 12
1.0
 22
0.0
 32
0.0
 13
1.0
 23
0.0
 33
0.0
 40
0.0
 40
0.0
 40
0.0
 40
0.0
 40
0.2146545010796739
 40
0.4293135616822014
 40
0.6439010524015749
 40
0.8585202212191037
 40
1.0
 40
1.0
 40
1.0
 40
1.0
 10
700.6634320659917
 20
1412.856944079432
 30
0.0
 10
700.9454969270894
 20
1412.812787289476
 30
0.0
 10
701.5096326406858
 20
1412.72447277162
 30
0.0
 10
702.2471557224309
 20
1412.035320425091
 30
0.0
 10
702.7975823558362
 20
1411.020818850889
 30
0.0
 10
703.0868076816115
 20
1409.896030939751
 30
0.0
 10
703.1162944074465
 20
1409.152399232568
 30
0.0
 10
703.1280096216482
 20
1408.856950874362
 30
0.0
  0
LINE
  5
23A
330
1F
100
AcDbEntity
  8
0
  6
Continuous
 62
     7
370
    15
100
AcDbLine
 10
700.663432066
 20
1412.8569440794
 30
0.0
 11
672.0621507211
 21
1412.8569440794
 31
0.0
  0
LINE
  5
23B
330
1F
100
AcDbEntity
  8
0
  6
Continuous
 62
     7
370
    15
100
AcDbLine
 10
672.0621507211
 20
1471.3569508744
 30
0.0
 11
672.0621507211
 21
1412.8569440794
 31
0.0
  0
LINE
  5
23C
330
1F
100
AcDbEntity
  8
0
  6
Continuous
 62
     7
370
    15
100
AcDbLine
 10
610.7428975465
 20
1412.8569440794
 30
0.0
 11
574.2236967726
 21
1412.8569440794
 31
0.0
  0
SPLINE
  5
23D
330
1F
100
AcDbEntity
  8
0
  6
Continuous
 62
     7
370
    15
100
AcDbSpline
210
0.0
220
0.0
230
1.0
 70
     8
 71
     3
 72
    12
 73
     8
 74
     0
 42
0.00000001
 43
0.00000001
 12
1.0
 22
0.0
 32
0.0
 13
1.0
 23
0.0
 33
0.0
 40
0.0
 40
0.0
 40
0.0
 40
0.0
 40
0.2146645757996789
 40
0.4293279953901298
 40
0.6439791046643968
 40
0.8585831052308343
 40
1.0
 40
1.0
 40
1.0
 40
1.0
 10
570.5136317355913
 20
1408.856950874362
 30
0.0
 10
570.5543167376768
 20
1409.306643097033
 30
0.0
 10
570.6356865227136
 20
1410.206025120278
 30
0.0
 10
571.2712594122723
 20
1411.404692220595
 30
0.0
 10
572.209877966817
 20
1412.309177710306
 30
0.0
 10
573.2544224444879
 20
1412.788616139934
 30
0.0
 10
573.9481411787417
 20
1412.83751908756
 30
0.0
 10
574.2236967726034
 20
1412.856944079432
 30
0.0
  0
LINE
  5
23E
330
1F
100
AcDbEntity
  8
0
  6
Continuous
 62
     7
370
    15
100
AcDbLine
 10
570.5136317356
 20
1408.8569508744
 30
0.0
 11
570.5136317356
 21
1400.8569495631
 31
0.0
  0
SPLINE
  5
23F
330
1F
100
AcDbEntity
  8
0
  6
Continuous
 62
     7
370
    15
100
AcDbSpline
210
0.0
220
0.0
230
1.0
 70
     8
 71
     3
 72
    12
 73
     8
 74
     0
 42
0.00000001
 43
0.00000001
 12
1.0
 22
0.0
 32
0.0
 13
1.0
 23
0.0
 33
0.0
 40
0.0
 40
0.0
 40
0.0
 40
0.0
 40
0.2146859745765152
 40
0.4293708725761948
 40
0.6440351189116643
 40
0.8587128954237666
 40
1.0
 40
1.0
 40
1.0
 40
1.0
 10
568.6796303434652
 20
1398.856945509944
 30
0.0
 10
568.8851583066646
 20
1398.87905207518
 30
0.0
 10
569.2962132024109
 20
1398.923265094796
 30
0.0
 10
569.845924236493
 20
1399.268017417254
 30
0.0
 10
570.2615666034271
 20
1399.775443421206
 30
0.0
 10
570.4821766555739
 20
1400.337804536983
 30
0.0
 10
570.5046942203918
 20
1400.709441861323
 30
0.0
 10
570.5136317355913
 20
1400.85694956306
 30
0.0
  0
LINE
  5
240
330
1F
100
AcDbEntity
  8
0
  6
Continuous
 62
     7
370
    15
100
AcDbLine
 10
566.7865421219
 20
1398.8569455099
 30
0.0
 11
568.6796303435
 21
1398.8569455099
 31
0.0
  0
LINE
  5
241
330
1F
100
AcDbEntity
  8
0
  6
Continuous
 62
     7
370
    15
100
AcDbLine
 10
502.580150549
 20
1398.8569455099
 30
0.0
 11
550.2817030592
 21
1398.8569455099
 31
0.0
  0
LINE
  5
242
330
1F
100
AcDbEntity
  8
0
  6
Continuous
 62
     7
370
    15
100
AcDbLine
 10
716.5404926582
 20
1398.8569455099
 30
0.0
 11
725.5801554365
 21
1398.8569455099
 31
0.0
  0
SPLINE
  5
243
330
1F
100
AcDbEntity
  8
0
  6
Continuous
 62
     7
370
    15
100
AcDbSpline
210
0.0
220
0.0
230
1.0
 70
     8
 71
     3
 72
    13
 73
     9
 74
     0
 42
0.00000001
 43
0.00000001
 12
1.0
 22
0.0
 32
0.0
 13
1.0
 23
0.0
 33
0.0
 40
0.0
 40
0.0
 40
0.0
 40
0.0
 40
0.211954519320638
 40
0.4238796699155364
 40
0.6367584005378412
 40
0.8516951633249797
 40
0.9946592381089727
 40
1.0
 40
1.0
 40
1.0
 40
1.0
 10
672.0621507211011
 20
1471.356950874361
 30
0.0
 10
672.053490131226
 20
1471.58014739529
 30
0.0
 10
672.0361701514994
 20
1472.026509510714
 30
0.0
 10
671.9012299284217
 20
1472.621177005818
 30
0.0
 10
671.7021035382941
 20
1473.076434844751
 30
0.0
 10
671.4798886585434
 20
1473.31092385215
 30
0.0
 10
671.3295447244711
 20
1473.356611201235
 30
0.0
 10
671.2682019343
 20
1473.356942979462
 30
0.0
 10
671.2659928543848
 20
1473.356954927478
 30
0.0
  0
LINE
  5
244
330
1F
100
AcDbEntity
  8
0
  6
Continuous
 62
     7
370
    15
100
AcDbLine
 10
671.2659928544
 20
1473.3569549275
 30
0.0
 11
723.5801513834
 21
1473.3569549275
 31
0.0
  0
LINE
  5
245
330
1F
100
AcDbEntity
  8
0
  6
Continuous
 62
     7
370
    15
100
AcDbLine
 10
504.5801546021
 20
1473.3569549275
 30
0.0
 11
610.8027587707
 21
1473.3569549275
 31
0.0
  0
SPLINE
  5
246
330
1F
100
AcDbEntity
  8
0
  6
Continuous
 62
     7
370
    15
100
AcDbSpline
210
0.0
220
0.0
230
1.0
 70
     8
 71
     3
 72
    12
 73
     8
 74
     0
 42
0.00000001
 43
0.00000001
 12
1.0
 22
0.0
 32
0.0
 13
1.0
 23
0.0
 33
0.0
 40
0.0
 40
0.0
 40
0.0
 40
0.0
 40
0.214687578787586
 40
0.4293739295398867
 40
0.644055931717046
 40
0.8587260307579163
 40
0.9999999999999999
 40
0.9999999999999999
 40
0.9999999999999999
 40
0.9999999999999999
 10
570.8262171192449
 20
1400.85694956306
 30
0.0
 10
570.8058615728226
 20
1400.632100992621
 30
0.0
 10
570.7651505964136
 20
1400.1824051379
 30
0.0
 10
570.4479471643192
 20
1399.583056481578
 30
0.0
 10
569.9819327266613
 20
1399.13077350617
 30
0.0
 10
569.4666198300274
 20
1398.891106102191
 30
0.0
 10
569.1270449358622
 20
1398.866651518363
 30
0.0
 10
568.992267881183
 20
1398.856945509944
 30
0.0
  0
LINE
  5
247
330
1F
100
AcDbEntity
  8
0
  6
Continuous
 62
     7
370
    15
100
AcDbLine
 10
570.8262171192
 20
1408.8569508744
 30
0.0
 11
570.8262171192
 21
1400.8569495631
 31
0.0
  0
SPLINE
  5
248
330
1F
100
AcDbEntity
  8
0
  6
Continuous
 62
     7
370
    15
100
AcDbSpline
210
0.0
220
0.0
230
1.0
 70
     8
 71
     3
 72
    12
 73
     8
 74
     0
 42
0.00000001
 43
0.00000001
 12
1.0
 22
0.0
 32
0.0
 13
1.0
 23
0.0
 33
0.0
 40
0.0
 40
0.0
 40
0.0
 40
0.0
 40
0.2146546584883233
 40
0.4293131663812146
 40
0.6438983722813965
 40
0.8585156218452055
 40
1.0
 40
1.0
 40
1.0
 40
1.0
 10
574.5364833219331
 20
1412.856944079432
 30
0.0
 10
574.1170618740053
 20
1412.812787639951
 30
0.0
 10
573.27821145666
 20
1412.724473969131
 30
0.0
 10
572.1669296475534
 20
1412.035320660602
 30
0.0
 10
571.3312173401919
 20
1411.02083293566
 30
0.0
 10
570.8892493199284
 20
1409.896048563611
 30
0.0
 10
570.8441397931388
 20
1409.152409526072
 30
0.0
 10
570.8262171192449
 20
1408.856950874362
 30
0.0
  0
SPLINE
  5
249
330
1F
100
AcDbEntity
  8
0
  6
Continuous
 62
     7
370
    15
100
AcDbSpline
210
0.0
220
0.0
230
1.0
 70
     8
 71
     3
 72
    12
 73
     8
 74
     0
 42
0.00000001
 43
0.00000001
 12
1.0
 22
0.0
 32
0.0
 13
1.0
 23
0.0
 33
0.0
 40
0.0
 40
0.0
 40
0.0
 40
0.0
 40
0.214664410857389
 40
0.4293274441887173
 40
0.6439776908431046
 40
0.8585804831914506
 40
1.0
 40
1.0
 40
1.0
 40
1.0
 10
702.4891074343008
 20
1408.856950874362
 30
0.0
 10
702.4625304453659
 20
1409.30664302786
 30
0.0
 10
702.4093766380439
 20
1410.206024449131
 30
0.0
 10
701.9927404745996
 20
1411.404690953939
 30
0.0
 10
701.3728330546802
 20
1412.309177104679
 30
0.0
 10
700.6769108715927
 20
1412.788619244206
 30
0.0
 10
700.2096989896979
 20
1412.837519767524
 30
0.0
 10
700.0241126461309
 20
1412.856944079432
 30
0.0
  0
LINE
  5
24A
330
1F
100
AcDbEntity
  8
0
  6
Continuous
 62
     7
370
    15
100
AcDbLine
 10
702.4891074343
 20
1408.8569508744
 30
0.0
 11
702.4891074343
 21
1400.8569495631
 31
0.0
  0
SPLINE
  5
24B
330
1F
100
AcDbEntity
  8
0
  6
Continuous
 62
     7
370
    15
100
AcDbSpline
210
0.0
220
0.0
230
1.0
 70
     8
 71
     3
 72
    12
 73
     8
 74
     0
 42
0.00000001
 43
0.00000001
 12
1.0
 22
0.0
 32
0.0
 13
1.0
 23
0.0
 33
0.0
 40
0.0
 40
0.0
 40
0.0
 40
0.0
 40
0.2146847498630595
 40
0.4293716662638554
 40
0.644034848788942
 40
0.8587130618695397
 40
1.0
 40
1.0
 40
1.0
 40
1.0
 10
703.6783020539563
 20
1398.856945509944
 30
0.0
 10
703.5459213469335
 20
1398.879044795657
 30
0.0
 10
703.2811585969391
 20
1398.923243590104
 30
0.0
 10
702.9245517199068
 20
1399.268019623252
 30
0.0
 10
702.6538336078075
 20
1399.775444742882
 30
0.0
 10
702.509671989803
 20
1400.337803532582
 30
0.0
 10
702.4949505531999
 20
1400.709441780466
 30
0.0
 10
702.4891074343008
 20
1400.85694956306
 30
0.0
  0
LINE
  5
24C
330
1F
100
AcDbEntity
  8
0
  6
Continuous
 62
     7
370
    15
100
AcDbLine
 10
610.8027587707
 20
1473.3569549275
 30
0.0
 11
611.6690075087
 21
1473.3569549275
 31
0.0
  0
LINE
  5
24D
330
1F
100
AcDbEntity
  8
0
  6
Continuous
 62
     7
370
    15
100
AcDbLine
 10
610.7428975465
 20
1412.8569440794
 30
0.0
 11
612.1866455596
 21
1412.8569440794
 31
0.0
  0
LINE
  5
24E
330
1F
100
AcDbEntity
  8
0
  6
Continuous
 62
     7
370
    15
100
AcDbLine
 10
611.6690075087
 20
1473.3569549275
 30
0.0
 11
612.4761468327
 21
1473.3569549275
 31
0.0
  0
LINE
  5
24F
330
1F
100
AcDbEntity
  8
0
  6
Continuous
 62
     7
370
    15
100
AcDbLine
 10
672.0621507211
 20
1412.8569440794
 30
0.0
 11
612.1866455596
 21
1412.8569440794
 31
0.0
  0
LINE
  5
250
330
1F
100
AcDbEntity
  8
0
  6
Continuous
 62
     7
370
    15
100
AcDbLine
 10
561.6825591369
 20
1398.8569455099
 30
0.0
 11
551.7777461155
 21
1398.8569455099
 31
0.0
  0
LINE
  5
251
330
1F
100
AcDbEntity
  8
0
  6
Continuous
 62
     7
370
    15
100
AcDbLine
 10
568.9922678812
 20
1398.8569455099
 30
0.0
 11
568.6796303435
 21
1398.8569455099
 31
0.0
  0
LINE
  5
252
330
1F
100
AcDbEntity
  8
0
  6
Continuous
 62
     7
370
    15
100
AcDbLine
 10
564.3103938146
 20
1398.8569455099
 30
0.0
 11
561.6825591369
 21
1398.8569455099
 31
0.0
  0
LINE
  5
253
330
1F
100
AcDbEntity
  8
0
  6
Continuous
 62
     7
370
    15
100
AcDbLine
 10
566.7865421219
 20
1398.8569455099
 30
0.0
 11
564.3103938146
 21
1398.8569455099
 31
0.0
  0
LINE
  5
254
330
1F
100
AcDbEntity
  8
0
  6
Continuous
 62
     7
370
    15
100
AcDbLine
 10
670.0361590429
 20
1473.3569549275
 30
0.0
 11
671.2659928544
 21
1473.3569549275
 31
0.0
  0
LINE
  5
255
330
1F
100
AcDbEntity
  8
0
  6
Continuous
 62
     7
370
    15
100
AcDbLine
 10
537.7720143242
 20
1494.8569463444
 30
0.0
 11
693.0801566286
 21
1494.8569463444
 31
0.0
  0
LINE
  5
256
330
1F
100
AcDbEntity
  8
0
  6
Continuous
 62
     7
370
    15
100
AcDbLine
 10
535.0801493569
 20
1494.8569463444
 30
0.0
 11
537.7720143242
 21
1494.8569463444
 31
0.0
  0
LINE
  5
257
330
1F
100
AcDbEntity
  8
0
  6
Continuous
 62
     7
370
    15
100
AcDbLine
 10
551.7777461155
 20
1398.8569455099
 30
0.0
 11
550.7777478142
 21
1398.8569455099
 31
0.0
  0
LINE
  5
258
330
1F
100
AcDbEntity
  8
0
  6
Continuous
 62
     7
370
    15
100
AcDbLine
 10
551.9696320935
 20
1444.7400199128
 30
0.0
 11
552.0409676774
 21
1444.7702841711
 31
0.0
  0
LINE
  5
259
330
1F
100
AcDbEntity
  8
0
  6
Continuous
 62
     7
370
    15
100
AcDbLine
 10
550.7777478142
 20
1398.8569455099
 30
0.0
 11
550.2817030592
 21
1398.8569455099
 31
0.0
  0
LINE
  5
25A
330
1F
100
AcDbEntity
  8
0
  6
Continuous
 62
     7
370
    15
100
AcDbLine
 10
704.317316
 20
1398.8569455099
 30
0.0
 11
703.678302054
 21
1398.8569455099
 31
0.0
  0
LINE
  5
25B
330
1F
100
AcDbEntity
  8
0
  6
Continuous
 62
     7
370
    15
100
AcDbLine
 10
707.9931791468
 20
1398.8569455099
 30
0.0
 11
705.5241684957
 21
1398.8569455099
 31
0.0
  0
SPLINE
  5
25C
330
1F
100
AcDbEntity
  8
0
  6
Continuous
 62
     7
370
    15
100
AcDbSpline
210
0.0
220
0.0
230
1.0
 70
     8
 71
     3
 72
     9
 73
     5
 74
     0
 42
0.00000001
 43
0.00000001
 12
1.0
 22
0.0
 32
0.0
 13
1.0
 23
0.0
 33
0.0
 40
0.0
 40
0.0
 40
0.0
 40
0.0
 40
0.3004327936688702
 40
1.0
 40
1.0
 40
1.0
 40
1.0
 10
709.096908156423
 20
1444.883950228724
 30
0.0
 10
709.6926766799254
 20
1444.888439240015
 30
0.0
 10
711.6757109426869
 20
1444.90338105524
 30
0.0
 10
713.5328550562618
 20
1444.891948246674
 30
0.0
 10
714.8320521755498
 20
1444.883950228724
 30
0.0
  0
LINE
  5
25D
330
1F
100
AcDbEntity
  8
0
  6
Continuous
 62
     7
370
    15
100
AcDbLine
 10
710.553995852
 20
1398.8569455099
 30
0.0
 11
707.9931791468
 21
1398.8569455099
 31
0.0
  0
LINE
  5
25E
330
1F
100
AcDbEntity
  8
0
  6
Continuous
 62
     7
370
    15
100
AcDbLine
 10
716.2725399776
 20
1398.8569455099
 30
0.0
 11
710.553995852
 21
1398.8569455099
 31
0.0
  0
LINE
  5
25F
330
1F
100
AcDbEntity
  8
0
  6
Continuous
 62
     7
370
    15
100
AcDbLine
 10
716.5404926582
 20
1398.8569455099
 30
0.0
 11
716.2725399776
 21
1398.8569455099
 31
0.0
  0
SPLINE
  5
260
330
1F
100
AcDbEntity
  8
0
  6
Continuous
 62
     7
370
    15
100
AcDbSpline
210
0.0
220
0.0
230
1.0
 70
     8
 71
     3
 72
     9
 73
     5
 74
     0
 42
0.00000001
 43
0.00000001
 12
1.0
 22
0.0
 32
0.0
 13
1.0
 23
0.0
 33
0.0
 40
0.0
 40
0.0
 40
0.0
 40
0.0
 40
0.4836299871059549
 40
1.0
 40
1.0
 40
1.0
 40
1.0
 10
714.8841317339223
 20
1445.16661035541
 30
0.0
 10
714.874710316001
 20
1445.105254198149
 30
0.0
 10
714.8552296837568
 20
1444.97838829054
 30
0.0
 10
714.879375110514
 20
1444.861245875925
 30
0.0
 10
714.8918430848402
 20
1444.800757045779
 30
0.0
  0
SPLINE
  5
261
330
1F
100
AcDbEntity
  8
0
  6
Continuous
 62
     7
370
    15
100
AcDbSpline
210
0.0
220
0.0
230
1.0
 70
     8
 71
     3
 72
    14
 73
    10
 74
     0
 42
0.00000001
 43
0.00000001
 12
1.0
 22
0.0
 32
0.0
 13
1.0
 23
0.0
 33
0.0
 40
0.0
 40
0.0
 40
0.0
 40
0.0
 40
0.096311775454302
 40
0.2658714843576211
 40
0.4354685896738637
 40
0.6050043150203305
 40
0.7744794764977462
 40
0.9439849971044938
 40
1.0
 40
1.0
 40
1.0
 40
1.0
 10
612.7070910824817
 20
1325.236655945811
 30
0.0
 10
612.5345433075909
 20
1325.320755032673
 30
0.0
 10
612.0582201081019
 20
1325.552913031543
 30
0.0
 10
611.4924884818274
 20
1326.24453194227
 30
0.0
 10
611.0968266442856
 20
1327.181842481654
 30
0.0
 10
611.0411717546546
 20
1328.213909578619
 30
0.0
 10
611.3398744918521
 20
1329.183017683173
 30
0.0
 10
611.7717373005147
 20
1329.875001894746
 30
0.0
 10
612.1479976413003
 20
1330.11900404532
 30
0.0
 10
612.2414535438996
 20
1330.179609532389
 30
0.0
  0
ARC
  5
262
330
1F
100
AcDbEntity
  8
0
  6
Continuous
 62
     7
370
    15
100
AcDbCircle
 10
614.0801529928
 20
1159.8569506359
 30
0.0
 40
35.00000000000009
100
AcDbArc
 50
0.0000000011
 51
60.1656761817
  0
LINE
  5
263
330
1F
100
AcDbEntity
  8
0
  6
Continuous
 62
     7
370
    15
100
AcDbLine
 10
631.4924336566
 20
1190.2183156339
 30
0.0
 11
630.5625378682
 21
1190.6601462391
 31
0.0
  0
SPLINE
  5
264
330
1F
100
AcDbEntity
  8
0
  6
Continuous
 62
     7
370
    15
100
AcDbSpline
210
0.0
220
0.0
230
1.0
 70
     8
 71
     3
 72
    14
 73
    10
 74
     0
 42
0.00000001
 43
0.00000001
 12
1.0
 22
0.0
 32
0.0
 13
1.0
 23
0.0
 33
0.0
 40
0.0
 40
0.0
 40
0.0
 40
0.0
 40
0.5000000000000003
 40
0.5000000000000003
 40
0.7500000000000004
 40
0.7500000000000004
 40
0.8750000000000002
 40
0.8750000000000002
 40
1.0
 40
1.0
 40
1.0
 40
1.0
 10
596.6323375721707
 20
1190.203524291796
 30
0.0
 10
597.9975993393169
 20
1190.974903466257
 30
0.0
 10
599.4049759390754
 20
1191.651463365508
 30
0.0
 10
601.5785775759084
 20
1192.525575647129
 30
0.0
 10
602.3138757715889
 20
1192.793515161626
 30
0.0
 10
603.4317773652361
 20
1193.159303469618
 30
0.0
 10
603.8062775423114
 20
1193.275007900063
 30
0.0
 10
604.5590091026876
 20
1193.493973059498
 30
0.0
 10
604.9389213321616
 20
1193.597651467634
 30
0.0
 10
605.3170747642729
 20
1193.694186953567
 30
0.0
  0
LINE
  5
265
330
1F
100
AcDbEntity
  8
0
  6
Continuous
 62
     7
370
    15
100
AcDbLine
 10
596.6323367847
 20
1190.2035243687
 30
0.0
 11
596.6726705028
 21
1190.2211869014
 31
0.0
  0
LINE
  5
266
330
1F
100
AcDbEntity
  8
0
  6
Continuous
 62
     7
370
    15
100
AcDbLine
 10
649.0801531418
 20
1159.8569491756
 30
0.0
 11
649.0801531418
 21
1136.5651564551
 31
0.0
  0
LINE
  5
267
330
1F
100
AcDbEntity
  8
0
  6
Continuous
 62
     7
370
    15
100
AcDbLine
 10
648.4798598631
 20
1119.856953795
 30
0.0
 11
647.0801528139
 21
1119.856953795
 31
0.0
  0
CIRCLE
  5
268
330
1F
100
AcDbEntity
  8
0
  6
Continuous
 62
     7
370
    15
100
AcDbCircle
 10
614.0801529928
 20
1159.8569506359
 30
0.0
 40
25.5
  0
LINE
  5
269
330
1F
100
AcDbEntity
  8
0
  6
Continuous
 62
     7
370
    15
100
AcDbLine
 10
581.0801531716
 20
1119.856953795
 30
0.0
 11
647.0801528139
 21
1119.856953795
 31
0.0
  0
LINE
  5
26A
330
1F
100
AcDbEntity
  8
0
  6
Continuous
 62
     7
370
    15
100
AcDbLine
 10
579.0801528437
 20
1136.5651564551
 30
0.0
 11
579.0801528437
 21
1153.5891221714
 31
0.0
  0
LINE
  5
26B
330
1F
100
AcDbEntity
  8
0
  6
Continuous
 62
     7
370
    15
100
AcDbLine
 10
581.0801531716
 20
1119.856953795
 30
0.0
 11
579.6804461224
 21
1119.856953795
 31
0.0
  0
LINE
  5
26C
330
1F
100
AcDbEntity
  8
0
  6
Continuous
 62
     7
370
    15
100
AcDbLine
 10
579.6804461224
 20
1119.856953795
 30
0.0
 11
576.1811729117
 21
1119.856953795
 31
0.0
  0
LINE
  5
26D
330
1F
100
AcDbEntity
  8
0
  6
Continuous
 62
     7
370
    15
100
AcDbLine
 10
651.9791330738
 20
1119.856953795
 30
0.0
 11
648.4798598631
 21
1119.856953795
 31
0.0
  0
SPLINE
  5
26E
330
1F
100
AcDbEntity
  8
0
  6
Continuous
 62
     7
370
    15
100
AcDbSpline
210
0.0
220
0.0
230
1.0
 70
    24
 71
     3
 72
    20
 73
    16
 74
     0
 42
0.00000001
 43
0.00000001
 12
1.0
 22
0.0
 32
0.0
 13
1.0
 23
0.0
 33
0.0
 40
0.0
 40
0.0
 40
0.0
 40
0.0
 40
0.25
 40
0.25
 40
0.375
 40
0.375
 40
0.5
 40
0.5
 40
0.625
 40
0.625
 40
0.75
 40
0.75
 40
0.875
 40
0.875
 40
1.0
 40
1.0
 40
1.0
 40
1.0
 10
586.7668190159375
 20
1188.856950635943
 30
0.0
 10
587.5057841748297
 20
1188.856950635943
 30
0.0
 10
588.2318632593432
 20
1188.856950635943
 30
0.0
 10
589.3036161413188
 20
1188.856950635943
 30
0.0
 10
589.6579246999762
 20
1188.856950635943
 30
0.0
 10
590.3603643659567
 20
1188.856950635943
 30
0.0
 10
590.7093535747126
 20
1188.856950635943
 30
0.0
 10
591.3857044312854
 20
1188.856950635943
 30
0.0
 10
591.7148496699637
 20
1188.856950635943
 30
0.0
 10
592.3524640553078
 20
1188.856950635943
 30
0.0
 10
592.6620740824475
 20
1188.856950635943
 30
0.0
 10
593.2500193001159
 20
1188.856950635943
 30
0.0
 10
593.5239602677484
 20
1188.856950635943
 30
0.0
 10
594.0183643734588
 20
1188.856950635943
 30
0.0
 10
594.2403888527973
 20
1188.856950635943
 30
0.0
 10
594.4129027422782
 20
1188.856950635943
 30
0.0
  0
SPLINE
  5
26F
330
1F
100
AcDbEntity
  8
0
  6
Continuous
 62
     7
370
    15
100
AcDbSpline
210
0.0
220
0.0
230
1.0
 70
     8
 71
     3
 72
     8
 73
     4
 74
     0
 42
0.00000001
 43
0.00000001
 12
1.0
 22
0.0
 32
0.0
 13
1.0
 23
0.0
 33
0.0
 40
0.0
 40
0.0
 40
0.0
 40
0.0
 40
1.0
 40
1.0
 40
1.0
 40
1.0
 10
594.4129027422782
 20
1188.856950635943
 30
0.0
 10
595.1379580765042
 20
1189.328817050616
 30
0.0
 10
595.877849664864
 20
1189.777235155833
 30
0.0
 10
596.6323375721707
 20
1190.203524291795
 30
0.0
  0
ARC
  5
270
330
1F
100
AcDbEntity
  8
0
  6
Continuous
 62
     7
370
    15
100
AcDbCircle
 10
574.0801529928
 20
1136.8569506359
 30
0.0
 40
5.000000000000114
100
AcDbArc
 50
270.0
 51
0.0
  0
ARC
  5
271
330
1F
100
AcDbEntity
  8
0
  6
Continuous
 62
     7
370
    15
100
AcDbCircle
 10
654.0801529928
 20
1136.8569506359
 30
0.0
 40
5.0
100
AcDbArc
 50
180.0
 51
270.0
  0
LINE
  5
272
330
1F
100
AcDbEntity
  8
0
  6
Continuous
 62
     7
370
    15
100
AcDbLine
 10
516.0801555558
 20
1129.8569517088
 30
0.0
 11
516.0801555558
 21
1119.856953795
 31
0.0
  0
LINE
  5
273
330
1F
100
AcDbEntity
  8
0
  6
Continuous
 62
     7
370
    15
100
AcDbLine
 10
549.255385582
 20
1129.8569517088
 30
0.0
 11
549.255385582
 21
1119.856953795
 31
0.0
  0
LINE
  5
274
330
1F
100
AcDbEntity
  8
0
  6
Continuous
 62
     7
370
    15
100
AcDbLine
 10
549.255385582
 20
1119.856953795
 30
0.0
 11
516.0801555558
 21
1119.856953795
 31
0.0
  0
SPLINE
  5
275
330
1F
100
AcDbEntity
  8
0
  6
Continuous
 62
     7
370
    15
100
AcDbSpline
210
0.0
220
0.0
230
1.0
 70
     8
 71
     3
 72
    18
 73
    14
 74
     0
 42
0.00000001
 43
0.00000001
 12
1.0
 22
0.0
 32
0.0
 13
1.0
 23
0.0
 33
0.0
 40
0.0
 40
0.0
 40
0.0
 40
0.0
 40
0.1250000000000052
 40
0.1250000000000052
 40
0.2500000000000103
 40
0.2500000000000103
 40
0.3750000000000155
 40
0.3750000000000155
 40
0.5000000000000207
 40
0.5000000000000207
 40
0.7500000000000103
 40
0.7500000000000103
 40
1.0
 40
1.0
 40
1.0
 40
1.0
 10
516.0801529927534
 20
1129.856950635943
 30
0.0
 10
516.0801529927535
 20
1129.992013006967
 30
0.0
 10
516.0936934932383
 20
1130.124644907386
 30
0.0
 10
516.1466172631463
 20
1130.385269808896
 30
0.0
 10
516.1867293983715
 20
1130.514661665936
 30
0.0
 10
516.2903157173915
 20
1130.759236197426
 30
0.0
 10
516.3535324363183
 20
1130.874910821601
 30
0.0
 10
516.5024721465788
 20
1131.093229177819
 30
0.0
 10
516.5880200593125
 20
1131.195046523781
 30
0.0
 10
516.867219009226
 20
1131.46835882012
 30
0.0
 10
517.0896925120584
 20
1131.613330085835
 30
0.0
 10
517.5652994899724
 20
1131.806516384128
 30
0.0
 10
517.8254152257235
 20
1131.856950635943
 30
0.0
 10
518.0801529927534
 20
1131.856950635943
 30
0.0
  0
LINE
  5
276
330
1F
100
AcDbEntity
  8
0
  6
Continuous
 62
     7
370
    15
100
AcDbLine
 10
518.0801521583
 20
1131.8569483114
 30
0.0
 11
549.8598288341
 21
1131.8569483114
 31
0.0
  0
SPLINE
  5
277
330
1F
100
AcDbEntity
  8
0
  6
Continuous
 62
     7
370
    15
100
AcDbSpline
210
0.0
220
0.0
230
1.0
 70
     8
 71
     3
 72
    18
 73
    14
 74
     0
 42
0.00000001
 43
0.00000001
 12
1.0
 22
0.0
 32
0.0
 13
1.0
 23
0.0
 33
0.0
 40
0.0
 40
0.0
 40
0.0
 40
0.0
 40
0.1250000000000023
 40
0.1250000000000023
 40
0.2500000000000046
 40
0.2500000000000046
 40
0.3750000000000068
 40
0.3750000000000068
 40
0.5000000000000091
 40
0.5000000000000091
 40
0.7500000000000046
 40
0.7500000000000046
 40
1.0
 40
1.0
 40
1.0
 40
1.0
 10
549.2553892060646
 20
1129.856950635943
 30
0.0
 10
549.2553892060646
 20
1129.992013006967
 30
0.0
 10
549.2594619761757
 20
1130.124644907386
 30
0.0
 10
549.2753849826739
 20
1130.385269808896
 30
0.0
 10
549.2874546134371
 20
1130.514661665936
 30
0.0
 10
549.3186374389055
 20
1130.759236197426
 30
0.0
 10
549.3376730808232
 20
1130.874910821601
 30
0.0
 10
549.382548273208
 20
1131.093229177819
 30
0.0
 10
549.4083355407876
 20
1131.195046523781
 30
0.0
 10
549.4925568313977
 20
1131.46835882012
 30
0.0
 10
549.5597443163016
 20
1131.613330085835
 30
0.0
 10
549.703647467541
 20
1131.806516384128
 30
0.0
 10
549.7824820713138
 20
1131.856950635943
 30
0.0
 10
549.8598291069304
 20
1131.856950635943
 30
0.0
  0
LINE
  5
278
330
1F
100
AcDbEntity
  8
0
  6
Continuous
 62
     7
370
    15
100
AcDbLine
 10
549.8598288341
 20
1131.8569483114
 30
0.0
 11
574.0801538868
 21
1131.8569483114
 31
0.0
  0
LINE
  5
279
330
1F
100
AcDbEntity
  8
0
  6
Continuous
 62
     7
370
    15
100
AcDbLine
 10
576.1811729117
 20
1119.856953795
 30
0.0
 11
549.255385582
 21
1119.856953795
 31
0.0
  0
LINE
  5
27A
330
1F
100
AcDbEntity
  8
0
  6
Continuous
 62
     7
370
    15
100
AcDbLine
 10
678.9049204035
 20
1129.8569517088
 30
0.0
 11
678.9049204035
 21
1119.856953795
 31
0.0
  0
LINE
  5
27B
330
1F
100
AcDbEntity
  8
0
  6
Continuous
 62
     7
370
    15
100
AcDbLine
 10
678.9049204035
 20
1119.856953795
 30
0.0
 11
651.9791330738
 21
1119.856953795
 31
0.0
  0
SPLINE
  5
27C
330
1F
100
AcDbEntity
  8
0
  6
Continuous
 62
     7
370
    15
100
AcDbSpline
210
0.0
220
0.0
230
1.0
 70
     8
 71
     3
 72
    18
 73
    14
 74
     0
 42
0.00000001
 43
0.00000001
 12
1.0
 22
0.0
 32
0.0
 13
1.0
 23
0.0
 33
0.0
 40
0.0
 40
0.0
 40
0.0
 40
0.0
 40
0.1250000000000023
 40
0.1250000000000023
 40
0.2500000000000046
 40
0.2500000000000046
 40
0.3750000000000068
 40
0.3750000000000068
 40
0.5000000000000091
 40
0.5000000000000091
 40
0.7500000000000046
 40
0.7500000000000046
 40
1.0
 40
1.0
 40
1.0
 40
1.0
 10
678.9049167794421
 20
1129.856950635943
 30
0.0
 10
678.9049167794421
 20
1129.992013006967
 30
0.0
 10
678.900844009331
 20
1130.124644907386
 30
0.0
 10
678.8849210028328
 20
1130.385269808896
 30
0.0
 10
678.8728513720695
 20
1130.514661665936
 30
0.0
 10
678.8416685466011
 20
1130.759236197426
 30
0.0
 10
678.8226329046835
 20
1130.874910821601
 30
0.0
 10
678.7777577122986
 20
1131.093229177819
 30
0.0
 10
678.7519704447192
 20
1131.195046523781
 30
0.0
 10
678.667749154109
 20
1131.46835882012
 30
0.0
 10
678.600561669205
 20
1131.613330085835
 30
0.0
 10
678.4566585179656
 20
1131.806516384128
 30
0.0
 10
678.3778239141939
 20
1131.856950635943
 30
0.0
 10
678.3004768785763
 20
1131.856950635943
 30
0.0
  0
LINE
  5
27D
330
1F
100
AcDbEntity
  8
0
  6
Continuous
 62
     7
370
    15
100
AcDbLine
 10
654.0801520987
 20
1131.8569483114
 30
0.0
 11
678.3004771514
 21
1131.8569483114
 31
0.0
  0
LINE
  5
27E
330
1F
100
AcDbEntity
  8
0
  6
Continuous
 62
     7
370
    15
100
AcDbLine
 10
678.3004771514
 20
1131.8569483114
 30
0.0
 11
710.0801538272
 21
1131.8569483114
 31
0.0
  0
SPLINE
  5
27F
330
1F
100
AcDbEntity
  8
0
  6
Continuous
 62
     7
370
    15
100
AcDbSpline
210
0.0
220
0.0
230
1.0
 70
     8
 71
     3
 72
    18
 73
    14
 74
     0
 42
0.00000001
 43
0.00000001
 12
1.0
 22
0.0
 32
0.0
 13
1.0
 23
0.0
 33
0.0
 40
0.0
 40
0.0
 40
0.0
 40
0.0
 40
0.1250000000000052
 40
0.1250000000000052
 40
0.2500000000000103
 40
0.2500000000000103
 40
0.3750000000000155
 40
0.3750000000000155
 40
0.5000000000000207
 40
0.5000000000000207
 40
0.7500000000000103
 40
0.7500000000000103
 40
1.0
 40
1.0
 40
1.0
 40
1.0
 10
712.0801529927533
 20
1129.856950635943
 30
0.0
 10
712.0801529927533
 20
1129.992013006967
 30
0.0
 10
712.0666124922683
 20
1130.124644907386
 30
0.0
 10
712.0136887223604
 20
1130.385269808896
 30
0.0
 10
711.9735765871351
 20
1130.514661665936
 30
0.0
 10
711.8699902681152
 20
1130.759236197426
 30
0.0
 10
711.8067735491883
 20
1130.874910821601
 30
0.0
 10
711.6578338389278
 20
1131.093229177819
 30
0.0
 10
711.5722859261942
 20
1131.195046523781
 30
0.0
 10
711.2930869762806
 20
1131.46835882012
 30
0.0
 10
711.0706134734484
 20
1131.613330085835
 30
0.0
 10
710.5950064955342
 20
1131.806516384128
 30
0.0
 10
710.3348907597831
 20
1131.856950635943
 30
0.0
 10
710.0801529927534
 20
1131.856950635943
 30
0.0
  0
LINE
  5
280
330
1F
100
AcDbEntity
  8
0
  6
Continuous
 62
     7
370
    15
100
AcDbLine
 10
712.0801504298
 20
1129.8569517088
 30
0.0
 11
712.0801504298
 21
1119.856953795
 31
0.0
  0
LINE
  5
281
330
1F
100
AcDbEntity
  8
0
  6
Continuous
 62
     7
370
    15
100
AcDbLine
 10
712.0801504298
 20
1119.856953795
 30
0.0
 11
678.9049204035
 21
1119.856953795
 31
0.0
  0
LINE
  5
282
330
1F
100
AcDbEntity
  8
0
  6
Continuous
 62
     7
370
    15
100
AcDbLine
 10
519.0801541848
 20
1199.8569506099
 30
0.0
 11
560.3301520987
 21
1199.8569506099
 31
0.0
  0
LINE
  5
283
330
1F
100
AcDbEntity
  8
0
  6
Continuous
 62
     7
370
    15
100
AcDbLine
 10
568.33015341
 20
1199.8569506099
 30
0.0
 11
696.2496783181
 21
1199.8569506099
 31
0.0
  0
LINE
  5
284
330
1F
100
AcDbEntity
  8
0
  6
Continuous
 62
     7
370
    15
100
AcDbLine
 10
704.2496796294
 20
1199.8569506099
 30
0.0
 11
709.0801518007
 21
1199.8569506099
 31
0.0
  0
ARC
  5
285
330
1F
100
AcDbEntity
  8
0
  6
Continuous
 62
     7
370
    15
100
AcDbCircle
 10
804.0574276052
 20
1182.8570698513
 30
0.0
 40
95.06146411380244
100
AcDbArc
 50
177.588466321
 51
182.3821116771
  0
LINE
  5
286
330
1F
100
AcDbEntity
  8
0
  6
Continuous
 62
     7
370
    15
100
AcDbLine
 10
561.1108239336
 20
1153.8569519174
 30
0.0
 11
560.0243206663
 21
1153.8569519174
 31
0.0
  0
LINE
  5
287
330
1F
100
AcDbEntity
  8
0
  6
Continuous
 62
     7
370
    15
100
AcDbLine
 10
560.2958608015
 20
1188.8569502038
 30
0.0
 11
586.7668181254
 21
1188.8569502038
 31
0.0
  0
LINE
  5
288
330
1F
100
AcDbEntity
  8
0
  6
Continuous
 62
     7
370
    15
100
AcDbLine
 10
559.290546511
 20
1188.8569502038
 30
0.0
 11
560.2958608015
 21
1188.8569502038
 31
0.0
  0
LINE
  5
289
330
1F
100
AcDbEntity
  8
0
  6
Continuous
 62
     7
370
    15
100
AcDbLine
 10
569.4735381348
 20
1153.8569519174
 30
0.0
 11
561.1108239336
 21
1153.8569519174
 31
0.0
  0
LINE
  5
28A
330
1F
100
AcDbEntity
  8
0
  6
Continuous
 62
     7
370
    15
100
AcDbLine
 10
555.6142661317
 20
1188.8569502038
 30
0.0
 11
559.290546511
 21
1188.8569502038
 31
0.0
  0
LINE
  5
28B
330
1F
100
AcDbEntity
  8
0
  6
Continuous
 62
     7
370
    15
100
AcDbLine
 10
554.6870376511
 20
1188.8569502038
 30
0.0
 11
555.6142661317
 21
1188.8569502038
 31
0.0
  0
SPLINE
  5
28C
330
1F
100
AcDbEntity
  8
0
  6
Continuous
 62
     7
370
    15
100
AcDbSpline
210
0.0
220
0.0
230
1.0
 70
     8
 71
     3
 72
    22
 73
    18
 74
     0
 42
0.00000001
 43
0.00000001
 12
1.0
 22
0.0
 32
0.0
 13
1.0
 23
0.0
 33
0.0
 40
0.0
 40
0.0
 40
0.0
 40
0.0
 40
0.2499999999999999
 40
0.2499999999999999
 40
0.3749999999999999
 40
0.3749999999999999
 40
0.4374999999999998
 40
0.4374999999999998
 40
0.4999999999999998
 40
0.4999999999999998
 40
0.7499999999999997
 40
0.7499999999999997
 40
0.8124999999999996
 40
0.8124999999999996
 40
0.8749999999999996
 40
0.8749999999999996
 40
1.0
 40
1.0
 40
1.0
 40
1.0
 10
646.1172261259195
 20
1097.801642346525
 30
0.0
 10
641.0196219732111
 20
1097.69357347601
 30
0.0
 10
635.7911460698035
 20
1097.603474502246
 30
0.0
 10
627.7567181260329
 20
1097.510154665113
 30
0.0
 10
625.0464016236656
 20
1097.485974869761
 30
0.0
 10
620.9311897397247
 20
1097.461529290113
 30
0.0
 10
619.5567737028815
 20
1097.455389813445
 30
0.0
 10
616.8179367267498
 20
1097.447228876042
 30
0.0
 10
615.4511398711112
 20
1097.445192659321
 30
0.0
 10
608.6300698691778
 20
1097.445159096337
 30
0.0
 10
603.2141858390629
 20
1097.477929930509
 30
0.0
 10
596.4960466362786
 20
1097.555441172943
 30
0.0
 10
595.1550268420615
 20
1097.57275032499
 30
0.0
 10
592.4783085354846
 20
1097.610787884047
 30
0.0
 10
591.1470709689903
 20
1097.631456750314
 30
0.0
 10
587.1903905648871
 20
1097.69767487448
 30
0.0
 10
584.5953155108859
 20
1097.747535119706
 30
0.0
 10
582.0430798595871
 20
1097.801642346525
 30
0.0
  0
SPLINE
  5
28D
330
1F
100
AcDbEntity
  8
0
  6
Continuous
 62
     7
370
    15
100
AcDbSpline
210
0.0
220
0.0
230
1.0
 70
     8
 71
     3
 72
    28
 73
    24
 74
     0
 42
0.00000001
 43
0.00000001
 12
1.0
 22
0.0
 32
0.0
 13
1.0
 23
0.0
 33
0.0
 40
0.0
 40
0.0
 40
0.0
 40
0.0
 40
0.1249999999999997
 40
0.1249999999999997
 40
0.2499999999999993
 40
0.2499999999999993
 40
0.3124999999999993
 40
0.3124999999999993
 40
0.3749999999999992
 40
0.3749999999999992
 40
0.4374999999999992
 40
0.4374999999999992
 40
0.4999999999999991
 40
0.4999999999999991
 40
0.624999999999999
 40
0.624999999999999
 40
0.6874999999999983
 40
0.6874999999999983
 40
0.7499999999999978
 40
0.7499999999999978
 40
0.8749999999999989
 40
0.8749999999999989
 40
1.0
 40
1.0
 40
1.0
 40
1.0
 10
657.0801529927534
 20
1112.157033565451
 30
0.0
 10
657.0801529927534
 20
1111.272890881581
 30
0.0
 10
657.0350117810412
 20
1110.396585181165
 30
0.0
 10
656.8417076734495
 20
1108.661800326725
 30
0.0
 10
656.6937453389575
 20
1107.803289501594
 30
0.0
 10
656.3773219871184
 20
1106.531716555912
 30
0.0
 10
656.2554803169387
 20
1106.109514159355
 30
0.0
 10
655.9813289120318
 20
1105.28678632011
 30
0.0
 10
655.8286702910132
 20
1104.884472134035
 30
0.0
 10
655.4899611718768
 20
1104.099057245819
 30
0.0
 10
655.3039193737355
 20
1103.715952055036
 30
0.0
 10
654.8953717764144
 20
1102.970503214747
 30
0.0
 10
654.6714151505092
 20
1102.606113690708
 30
0.0
 10
653.9493682131216
 20
1101.562636552759
 30
0.0
 10
653.4074210369391
 20
1100.939525395535
 30
0.0
 10
652.4986951010968
 20
1100.116073253171
 30
0.0
 10
652.1797429802202
 20
1099.860210565446
 30
0.0
 10
651.5078089751794
 20
1099.387372061677
 30
0.0
 10
651.1580572149846
 20
1099.17301405675
 30
0.0
 10
650.0853196986066
 20
1098.603811415995
 30
0.0
 10
649.3322677394128
 20
1098.317356105315
 30
0.0
 10
647.7505531922478
 20
1097.922514858944
 30
0.0
 10
646.9401578188791
 20
1097.819088443928
 30
0.0
 10
646.1172261259195
 20
1097.801642346525
 30
0.0
  0
SPLINE
  5
28E
330
1F
100
AcDbEntity
  8
0
  6
Continuous
 62
     7
370
    15
100
AcDbSpline
210
0.0
220
0.0
230
1.0
 70
     8
 71
     3
 72
    26
 73
    22
 74
     0
 42
0.00000001
 43
0.00000001
 12
1.0
 22
0.0
 32
0.0
 13
1.0
 23
0.0
 33
0.0
 40
0.0
 40
0.0
 40
0.0
 40
0.0
 40
0.1250000000000015
 40
0.1250000000000015
 40
0.1875000000000026
 40
0.1875000000000026
 40
0.2500000000000038
 40
0.2500000000000038
 40
0.3750000000000036
 40
0.3750000000000036
 40
0.4375000000000028
 40
0.4375000000000028
 40
0.5000000000000021
 40
0.5000000000000021
 40
0.6250000000000016
 40
0.6250000000000016
 40
0.7500000000000011
 40
0.7500000000000011
 40
0.8750000000000006
 40
0.8750000000000006
 40
1.0
 40
1.0
 40
1.0
 40
1.0
 10
582.0430798595871
 20
1097.801642346525
 30
0.0
 10
581.2215845093073
 20
1097.819057993558
 30
0.0
 10
580.4195783209113
 20
1097.9216162584
 30
0.0
 10
579.2464031383312
 20
1098.212170535644
 30
0.0
 10
578.8603402691389
 20
1098.331950619272
 30
0.0
 10
578.0986386180336
 20
1098.620978313382
 30
0.0
 10
577.7288094936032
 20
1098.788154467492
 30
0.0
 10
576.6585443306949
 20
1099.354101500231
 30
0.0
 10
575.9939192278148
 20
1099.817943888286
 30
0.0
 10
575.0709463557602
 20
1100.649884311608
 30
0.0
 10
574.7791198407764
 20
1100.947238638614
 30
0.0
 10
574.2330328553193
 20
1101.572234964111
 30
0.0
 10
573.9774418485919
 20
1101.901068232386
 30
0.0
 10
573.260241131198
 20
1102.934621130025
 30
0.0
 10
572.8460149030252
 20
1103.69344579572
 30
0.0
 10
572.1650124416446
 20
1105.269128337273
 30
0.0
 10
571.8934523992727
 20
1106.090727527687
 30
0.0
 10
571.4684632753726
 20
1107.792753764755
 30
0.0
 10
571.3194222832353
 20
1108.655777173161
 30
0.0
 10
571.1253050436262
 20
1110.395122317809
 30
0.0
 10
571.0801529927533
 20
1111.272650071171
 30
0.0
 10
571.0801529927533
 20
1112.15703356545
 30
0.0
  0
LINE
  5
28F
330
1F
100
AcDbEntity
  8
0
  6
Continuous
 62
     7
370
    15
100
AcDbLine
 10
571.0801515324
 20
1116.8569477153
 30
0.0
 11
571.0801515324
 21
1112.1570320678
 31
0.0
  0
LINE
  5
290
330
1F
100
AcDbEntity
  8
0
  6
Continuous
 62
     7
370
    15
100
AcDbLine
 10
571.0801515324
 20
1116.8569477153
 30
0.0
 11
529.0801520987
 21
1116.8569477153
 31
0.0
  0
LINE
  5
291
330
1F
100
AcDbEntity
  8
0
  6
Continuous
 62
     7
370
    15
100
AcDbLine
 10
699.0801538868
 20
1116.8569477153
 30
0.0
 11
657.0801544531
 21
1116.8569477153
 31
0.0
  0
LINE
  5
292
330
1F
100
AcDbEntity
  8
0
  6
Continuous
 62
     7
370
    15
100
AcDbLine
 10
657.0801544531
 20
1112.1570320678
 30
0.0
 11
657.0801544531
 21
1116.8569477153
 31
0.0
  0
SPLINE
  5
293
330
1F
100
AcDbEntity
  8
0
  6
Continuous
 62
     7
370
    15
100
AcDbSpline
210
0.0
220
0.0
230
1.0
 70
    24
 71
     3
 72
    11
 73
     7
 74
     0
 42
0.00000001
 43
0.00000001
 12
1.0
 22
0.0
 32
0.0
 13
1.0
 23
0.0
 33
0.0
 40
0.0119064377404772
 40
0.0119064377404772
 40
0.0119064377404772
 40
0.0119064377404772
 40
0.0324335571087825
 40
0.0324335571087825
 40
0.0324335571087825
 40
0.0404937031833303
 40
0.0404937031833303
 40
0.0404937031833303
 40
0.0404937031833303
 10
657.0801529927534
 20
1112.157033565446
 30
0.0
 10
657.0801529927534
 20
1107.730844396741
 30
0.0
 10
657.0801529927534
 20
1103.302624051722
 30
0.0
 10
657.0801529927534
 20
1098.872718384701
 30
0.0
 10
657.0801529927534
 20
1097.133278572926
 30
0.0
 10
657.0801529927534
 20
1095.39357921338
 30
0.0
 10
657.0801529927534
 20
1093.65364281788
 30
0.0
  0
SPLINE
  5
294
330
1F
100
AcDbEntity
  8
0
  6
Continuous
 62
     7
370
    15
100
AcDbSpline
210
0.0
220
0.0
230
1.0
 70
    24
 71
     3
 72
    11
 73
     7
 74
     0
 42
0.00000001
 43
0.00000001
 12
1.0
 22
0.0
 32
0.0
 13
1.0
 23
0.0
 33
0.0
 40
0.0290123505835298
 40
0.0290123505835298
 40
0.0290123505835298
 40
0.0290123505835298
 40
0.0370724961796032
 40
0.0370724961796032
 40
0.0370724961796032
 40
0.0575996145222678
 40
0.0575996145222678
 40
0.0575996145222678
 40
0.0575996145222678
 10
571.0801529927533
 20
1093.653642817897
 30
0.0
 10
571.0801529927533
 20
1095.393579213392
 30
0.0
 10
571.0801529927533
 20
1097.133278572932
 30
0.0
 10
571.0801529927533
 20
1098.872718384701
 30
0.0
 10
571.0801529927533
 20
1103.302624051717
 30
0.0
 10
571.0801529927533
 20
1107.730844396732
 30
0.0
 10
571.0801529927533
 20
1112.157033565431
 30
0.0
  0
LINE
  5
295
330
1F
100
AcDbEntity
  8
0
  6
Continuous
 62
     7
370
    15
100
AcDbLine
 10
660.1420674069
 20
1074.8569445563
 30
0.0
 11
670.0801547213
 21
1074.8569445563
 31
0.0
  0
LINE
  5
296
330
1F
100
AcDbEntity
  8
0
  6
Continuous
 62
     7
370
    15
100
AcDbLine
 10
558.0801512642
 20
1074.8569445563
 30
0.0
 11
568.0182385786
 21
1074.8569445563
 31
0.0
  0
LINE
  5
297
330
1F
100
AcDbEntity
  8
0
  6
Continuous
 62
     7
370
    15
100
AcDbLine
 10
603.2547443701
 20
1049.856953497
 30
0.0
 11
602.8998126803
 21
1049.856953497
 31
0.0
  0
LINE
  5
298
330
1F
100
AcDbEntity
  8
0
  6
Continuous
 62
     7
370
    15
100
AcDbLine
 10
625.2604933052
 20
1049.856953497
 30
0.0
 11
624.9055616154
 21
1049.856953497
 31
0.0
  0
LINE
  5
299
330
1F
100
AcDbEntity
  8
0
  6
Continuous
 62
     7
370
    15
100
AcDbLine
 10
561.9265321238
 20
1064.856954093
 30
0.0
 11
589.4834059818
 21
1064.856954093
 31
0.0
  0
LINE
  5
29A
330
1F
100
AcDbEntity
  8
0
  6
Continuous
 62
     7
370
    15
100
AcDbLine
 10
561.9265321238
 20
1049.856953497
 30
0.0
 11
560.5892609401
 21
1049.856953497
 31
0.0
  0
LINE
  5
29B
330
1F
100
AcDbEntity
  8
0
  6
Continuous
 62
     7
370
    15
100
AcDbLine
 10
602.8998126803
 20
1049.856953497
 30
0.0
 11
561.9265321238
 21
1049.856953497
 31
0.0
  0
LINE
  5
29C
330
1F
100
AcDbEntity
  8
0
  6
Continuous
 62
     7
370
    15
100
AcDbLine
 10
638.6769000037
 20
1064.856954093
 30
0.0
 11
666.2337738617
 21
1064.856954093
 31
0.0
  0
LINE
  5
29D
330
1F
100
AcDbEntity
  8
0
  6
Continuous
 62
     7
370
    15
100
AcDbLine
 10
666.2337738617
 20
1049.856953497
 30
0.0
 11
625.2604933052
 21
1049.856953497
 31
0.0
  0
LINE
  5
29E
330
1F
100
AcDbEntity
  8
0
  6
Continuous
 62
     7
370
    15
100
AcDbLine
 10
667.5710450454
 20
1049.856953497
 30
0.0
 11
666.2337738617
 21
1049.856953497
 31
0.0
  0
LINE
  5
29F
330
1F
100
AcDbEntity
  8
0
  6
Continuous
 62
     7
370
    15
100
AcDbLine
 10
687.8566886826
 20
1188.8569502038
 30
0.0
 11
691.7396630688
 21
1188.8569502038
 31
0.0
  0
LINE
  5
2A0
330
1F
100
AcDbEntity
  8
0
  6
Continuous
 62
     7
370
    15
100
AcDbLine
 10
560.5892609401
 20
1049.856953497
 30
0.0
 11
553.3466670258
 21
1049.856953497
 31
0.0
  0
LINE
  5
2A1
330
1F
100
AcDbEntity
  8
0
  6
Continuous
 62
     7
370
    15
100
AcDbLine
 10
554.8650022192
 20
1064.856954093
 30
0.0
 11
561.9265321238
 21
1064.856954093
 31
0.0
  0
LINE
  5
2A2
330
1F
100
AcDbEntity
  8
0
  6
Continuous
 62
     7
370
    15
100
AcDbLine
 10
674.8136389597
 20
1049.856953497
 30
0.0
 11
667.5710450454
 21
1049.856953497
 31
0.0
  0
LINE
  5
2A3
330
1F
100
AcDbEntity
  8
0
  6
Continuous
 62
     7
370
    15
100
AcDbLine
 10
666.2337738617
 20
1064.856954093
 30
0.0
 11
673.2953037663
 21
1064.856954093
 31
0.0
  0
LINE
  5
2A4
330
1F
100
AcDbEntity
  8
0
  6
Continuous
 62
     7
370
    15
100
AcDbLine
 10
691.7396630688
 20
1188.8569502038
 30
0.0
 11
704.7494720264
 21
1188.8569502038
 31
0.0
  0
LINE
  5
2A5
330
1F
100
AcDbEntity
  8
0
  6
Continuous
 62
     7
370
    15
100
AcDbLine
 10
704.7494720264
 20
1188.8569502038
 30
0.0
 11
706.7054431482
 21
1188.8569502038
 31
0.0
  0
LINE
  5
2A6
330
1F
100
AcDbEntity
  8
0
  6
Continuous
 62
     7
370
    15
100
AcDbLine
 10
702.3220654173
 20
1153.8569519174
 30
0.0
 11
698.8799195333
 21
1153.8569519174
 31
0.0
  0
LINE
  5
2A7
330
1F
100
AcDbEntity
  8
0
  6
Continuous
 62
     7
370
    15
100
AcDbLine
 10
708.393610601
 20
1188.8569502038
 30
0.0
 11
706.7054431482
 21
1188.8569502038
 31
0.0
  0
ELLIPSE
  5
2A8
330
1F
100
AcDbEntity
  8
0
  6
Continuous
 62
     7
370
    15
100
AcDbEllipse
 10
703.2238774776
 20
1158.8569506359
 30
0.0
 11
5.169734142418406
 21
0.0
 31
0.0
210
0.0
220
0.0
230
1.0
 40
0.9671677232
 41
4.712388980384703
 42
6.283185307179586
  0
LINE
  5
2A9
330
1F
100
AcDbEntity
  8
0
  6
Continuous
 62
     7
370
    15
100
AcDbLine
 10
703.2238762422
 20
1153.8569519174
 30
0.0
 11
702.3220654173
 21
1153.8569519174
 31
0.0
  0
LINE
  5
2AA
330
1F
100
AcDbEntity
  8
0
  6
Continuous
 62
     7
370
    15
100
AcDbLine
 10
553.3466670258
 20
1049.856953497
 30
0.0
 11
552.8650018914
 21
1049.856953497
 31
0.0
  0
LINE
  5
2AB
330
1F
100
AcDbEntity
  8
0
  6
Continuous
 62
     7
370
    15
100
AcDbLine
 10
675.2953040941
 20
1049.856953497
 30
0.0
 11
674.8136389597
 21
1049.856953497
 31
0.0
  0
LINE
  5
2AC
330
1F
100
AcDbEntity
  8
0
  6
Continuous
 62
     7
370
    15
100
AcDbLine
 10
708.393610601
 20
1188.8569502038
 30
0.0
 11
708.4376435323
 21
1188.8569502038
 31
0.0
  0
LINE
  5
2AD
330
1F
100
AcDbEntity
  8
0
  6
Continuous
 62
     7
370
    15
100
AcDbLine
 10
516.9397364898
 20
1132.335625763
 30
0.0
 11
517.0107181711
 21
1132.3165001226
 31
0.0
  0
SPLINE
  5
2AE
330
1F
100
AcDbEntity
  8
0
  6
Continuous
 62
     7
370
    15
100
AcDbSpline
210
0.0
220
0.0
230
1.0
 70
    24
 71
     3
 72
     9
 73
     5
 74
     0
 42
0.00000001
 43
0.00000001
 12
1.0
 22
0.0
 32
0.0
 13
1.0
 23
0.0
 33
0.0
 40
0.0
 40
0.0
 40
0.0
 40
0.0
 40
0.2707154754649054
 40
0.9999999999999999
 40
0.9999999999999999
 40
0.9999999999999999
 40
0.9999999999999999
 10
516.0801555557531
 20
1130.511053080592
 30
0.0
 10
516.0801555557531
 20
1130.56553797836
 30
0.0
 10
516.0801555557531
 20
1130.766800568444
 30
0.0
 10
516.0801555557531
 20
1130.702161165621
 30
0.0
 10
516.0801555557531
 20
1130.655020649466
 30
0.0
  0
SPLINE
  5
2AF
330
1F
100
AcDbEntity
  8
0
  6
Continuous
 62
     7
370
    15
100
AcDbSpline
210
0.0
220
0.0
230
1.0
 70
    24
 71
     3
 72
     9
 73
     5
 74
     0
 42
0.00000001
 43
0.00000001
 12
1.0
 22
0.0
 32
0.0
 13
1.0
 23
0.0
 33
0.0
 40
0.0
 40
0.0
 40
0.0
 40
0.0
 40
0.7292845245350945
 40
0.9999999999999999
 40
0.9999999999999999
 40
0.9999999999999999
 40
0.9999999999999999
 10
712.0801504297536
 20
1130.655020649466
 30
0.0
 10
712.0801504297535
 20
1130.702161165621
 30
0.0
 10
712.0801504297535
 20
1130.766800568444
 30
0.0
 10
712.0801504297536
 20
1130.56553797836
 30
0.0
 10
712.0801504297536
 20
1130.511053080592
 30
0.0
  0
LINE
  5
2B0
330
1F
100
AcDbEntity
  8
0
  6
Continuous
 62
     7
370
    15
100
AcDbLine
 10
617.2121936052
 20
1395.2900396538
 30
0.0
 11
623.705494736
 21
1326.3608144474
 31
0.0
  0
LINE
  5
2B1
330
1F
100
AcDbEntity
  8
0
  6
Continuous
 62
     7
370
    15
100
AcDbLine
 10
628.9777304573
 20
1321.6623516631
 30
0.0
 11
668.9670603318
 21
1321.6623516631
 31
0.0
  0
ARC
  5
2B2
330
1F
100
AcDbEntity
  8
0
  6
Continuous
 62
     7
370
    15
100
AcDbCircle
 10
628.9989603657
 20
1326.993444246
 30
0.0
 40
5.331134854369581
100
AcDbArc
 50
186.8151778139
 51
269.7718333151
  0
ARC
  5
2B3
330
1F
100
AcDbEntity
  8
0
  6
Continuous
 62
     7
370
    15
100
AcDbCircle
 10
629.4801103062
 20
1395.3638156015
 30
0.0
 40
4.942372933365721
100
AcDbArc
 50
100.9010709933
 51
180.8552991616
  0
LINE
  5
2B4
330
1F
100
AcDbEntity
  8
0
  6
Continuous
 62
     7
370
    15
100
AcDbLine
 10
624.5382880388
 20
1327.5319488597
 30
0.0
 11
624.5382880388
 21
1395.2900396538
 31
0.0
  0
ELLIPSE
  5
2B5
330
1F
100
AcDbEntity
  8
0
  6
Continuous
 62
     7
370
    15
100
AcDbEllipse
 10
629.3679173603
 20
1327.5319501367
 30
0.0
 11
-1.626370277716319
 21
4.835421110376274
 31
0.0
210
0.0
220
0.0
230
1.0
 40
0.9411792146
 41
1.26421601685913
 42
2.835012343654026
  0
SPLINE
  5
2B6
330
1F
100
AcDbEntity
  8
0
  6
Continuous
 62
     7
370
    15
100
AcDbSpline
210
0.0
220
0.0
230
1.0
 70
     8
 71
     3
 72
    12
 73
     8
 74
     0
 42
0.00000001
 43
0.00000001
 12
1.0
 22
0.0
 32
0.0
 13
1.0
 23
0.0
 33
0.0
 40
0.0
 40
0.0
 40
0.0
 40
0.0
 40
0.1587197312017941
 40
0.3618528802152643
 40
0.5618193081891235
 40
0.7661834214880697
 40
1.0
 40
1.0
 40
1.0
 40
1.0
 10
630.5625378681701
 20
1190.660146239135
 30
0.0
 10
629.3368269417771
 20
1191.286033322506
 30
0.0
 10
626.5424230849387
 20
1192.712945037215
 30
0.0
 10
621.8280529214824
 20
1194.053711031559
 30
0.0
 10
616.6091690764721
 20
1194.80737032844
 30
0.0
 10
611.0421202231231
 20
1194.835860855542
 30
0.0
 10
607.3090625851523
 20
1194.091423861634
 30
0.0
 10
605.3170743925851
 20
1193.694186570975
 30
0.0
  0
ARC
  5
2B7
330
1F
100
AcDbEntity
  8
0
  6
Continuous
 62
     7
370
    15
100
AcDbCircle
 10
614.0801529928
 20
1159.8569506359
 30
0.0
 40
34.95354204731189
100
AcDbArc
 50
104.5193198234
 51
179.9999999999
  0
LINE
  5
2B8
330
1F
100
AcDbEntity
  8
0
  6
Continuous
 62
     7
370
    15
100
AcDbLine
 10
579.1266109391
 20
1159.8569491756
 30
0.0
 11
579.1266109391
 21
1158.8569508744
 31
0.0
  0
SPLINE
  5
2B9
330
1F
100
AcDbEntity
  8
0
  6
Continuous
 62
     7
370
    15
100
AcDbSpline
210
0.0
220
0.0
230
1.0
 70
     8
 71
     3
 72
    10
 73
     6
 74
     0
 42
0.00000001
 43
0.00000001
 12
1.0
 22
0.0
 32
0.0
 13
1.0
 23
0.0
 33
0.0
 40
0.0
 40
0.0
 40
0.0
 40
0.0
 40
0.5
 40
0.5
 40
1.0
 40
1.0
 40
1.0
 40
1.0
 10
579.1266109454423
 20
1158.856950635943
 30
0.0
 10
579.1266109454423
 20
1157.974336443016
 30
0.0
 10
579.1184535854516
 20
1157.091729912192
 30
0.0
 10
579.0956377678759
 20
1155.333681098106
 30
0.0
 10
579.0801529927517
 20
1154.458668715318
 30
0.0
 10
579.0801529927512
 20
1153.58912375954
 30
0.0
  0
INSERT
  5
2C5
330
1F
100
AcDbEntity
  8
SLD-0
 62
     7
100
AcDbBlockReference
  2
SW_CENTERMARKSYMBOL_0
 10
614.0801529928
 20
1159.8569506359
 30
0.0
  0
ARC
  5
2C6
330
1F
100
AcDbEntity
  8
0
  6
Continuous
 62
     7
370
    15
100
AcDbCircle
 10
740.0801529928
 20
490.0869944767
 30
0.0
 40
3.000000000000057
100
AcDbArc
 50
270.0
 51
0.0
  0
ARC
  5
2C7
330
1F
100
AcDbEntity
  8
0
  6
Continuous
 62
     7
370
    15
100
AcDbCircle
 10
740.0801529928
 20
490.0869944767
 30
0.0
 40
3.0
100
AcDbArc
 50
0.0
 51
90.0
  0
ARC
  5
2C8
330
1F
100
AcDbEntity
  8
0
  6
Continuous
 62
     7
370
    15
100
AcDbCircle
 10
711.0801529928
 20
495.0869944767
 30
0.0
 40
3.0
100
AcDbArc
 50
0.0
 51
70.4572085695
  0
ARC
  5
2C9
330
1F
100
AcDbEntity
  8
0
  6
Continuous
 62
     7
370
    15
100
AcDbCircle
 10
711.0801529928
 20
485.0869944767
 30
0.0
 40
3.000000000000031
100
AcDbArc
 50
289.6945792304
 51
0.0
  0
SPLINE
  5
2CA
330
1F
100
AcDbEntity
  8
0
  6
Continuous
 62
     7
370
    15
100
AcDbSpline
210
0.0
220
0.0
230
1.0
 70
     8
 71
     3
 72
     9
 73
     5
 74
     0
 42
0.00000001
 43
0.00000001
 12
1.0
 22
0.0
 32
0.0
 13
1.0
 23
0.0
 33
0.0
 40
0.0
 40
0.0
 40
0.0
 40
0.0
 40
0.0416551609522632
 40
1.0
 40
1.0
 40
1.0
 40
1.0
 10
714.4600670380871
 20
487.0342403819212
 30
0.0
 10
714.4624525819999
 20
487.0364400971848
 30
0.0
 10
714.5197214499647
 20
487.0892478456927
 30
0.0
 10
714.5317031320433
 20
487.0842065757333
 30
0.0
 10
714.5431857152265
 20
487.0793753006854
 30
0.0
  0
SPLINE
  5
2CB
330
1F
100
AcDbEntity
  8
0
  6
Continuous
 62
     7
370
    15
100
AcDbSpline
210
0.0
220
0.0
230
1.0
 70
     8
 71
     3
 72
     9
 73
     5
 74
     0
 42
0.00000001
 43
0.00000001
 12
1.0
 22
0.0
 32
0.0
 13
1.0
 23
0.0
 33
0.0
 40
0.0
 40
0.0
 40
0.0
 40
0.0
 40
0.6721397820542825
 40
1.0
 40
1.0
 40
1.0
 40
1.0
 10
714.5432080669683
 20
493.0927614850351
 30
0.0
 10
714.5428262180329
 20
493.0872207206298
 30
0.0
 10
714.5422581086224
 20
493.078977250219
 30
0.0
 10
714.4764274388333
 20
493.1383414338134
 30
0.0
 10
714.4548441810888
 20
493.157804587985
 30
0.0
  0
SPLINE
  5
2CC
330
1F
100
AcDbEntity
  8
0
  6
Continuous
 62
     7
370
    15
100
AcDbSpline
210
0.0
220
0.0
230
1.0
 70
     8
 71
     3
 72
    12
 73
     8
 74
     0
 42
0.00000001
 43
0.00000001
 12
1.0
 22
0.0
 32
0.0
 13
1.0
 23
0.0
 33
0.0
 40
0.0
 40
0.0
 40
0.0
 40
0.0
 40
0.2381100633916881
 40
0.4200343393266455
 40
0.6098270199440488
 40
0.8930008120548069
 40
1.0
 40
1.0
 40
1.0
 40
1.0
 10
714.0801544828694
 20
485.9769138210812
 30
0.0
 10
714.1001092513864
 20
486.1720191127934
 30
0.0
 10
714.1353101492024
 20
486.5161915561424
 30
0.0
 10
714.2811097877533
 20
486.8108649534961
 30
0.0
 10
714.390155816995
 20
486.9766409779849
 30
0.0
 10
714.4685286182903
 20
487.0411104226369
 30
0.0
 10
714.4560176137334
 20
487.0341899050286
 30
0.0
 10
714.4525866551679
 20
487.0322920550951
 30
0.0
  0
ARC
  5
2CD
330
1F
100
AcDbEntity
  8
0
  6
Continuous
 62
     7
370
    15
100
AcDbCircle
 10
715.6534256415
 20
494.1609139727
 30
0.0
 40
1.573686669718122
100
AcDbArc
 50
178.6833226974
 51
220.0301477287
  0
SPLINE
  5
2CE
330
1F
100
AcDbEntity
  8
0
  6
Continuous
 62
     7
370
    15
100
AcDbSpline
210
0.0
220
0.0
230
1.0
 70
     8
 71
     3
 72
    12
 73
     8
 74
     0
 42
0.00000001
 43
0.00000001
 12
1.0
 22
0.0
 32
0.0
 13
1.0
 23
0.0
 33
0.0
 40
0.0
 40
0.0
 40
0.0
 40
0.0
 40
0.2383495940913514
 40
0.4204622012171179
 40
0.6104464766310284
 40
0.8939090555740918
 40
1.0
 40
1.0
 40
1.0
 40
1.0
 10
714.0801544828694
 20
485.9769138210812
 30
0.0
 10
714.1001049595344
 20
486.1720153483027
 30
0.0
 10
714.1352987317994
 20
486.5161855068847
 30
0.0
 10
714.2811145177943
 20
486.8108616627215
 30
0.0
 10
714.3901384467899
 20
486.976624993652
 30
0.0
 10
714.4684640989258
 20
487.0410532184583
 30
0.0
 10
714.456026156491
 20
487.0341810756655
 30
0.0
 10
714.4526388092321
 20
487.0323095173933
 30
0.0
  0
ARC
  5
2CF
330
1F
100
AcDbEntity
  8
0
  6
Continuous
 62
     7
370
    15
100
AcDbCircle
 10
488.0801529928
 20
490.0869944767
 30
0.0
 40
3.0
100
AcDbArc
 50
90.0
 51
180.0
  0
ARC
  5
2D0
330
1F
100
AcDbEntity
  8
0
  6
Continuous
 62
     7
370
    15
100
AcDbCircle
 10
488.0801529928
 20
490.0869944767
 30
0.0
 40
3.000000000000057
100
AcDbArc
 50
180.0
 51
270.0
  0
ARC
  5
2D1
330
1F
100
AcDbEntity
  8
0
  6
Continuous
 62
     7
370
    15
100
AcDbCircle
 10
517.0801529928
 20
485.0869944767
 30
0.0
 40
3.000000000000019
100
AcDbArc
 50
180.0
 51
250.4572085695
  0
ARC
  5
2D2
330
1F
100
AcDbEntity
  8
0
  6
Continuous
 62
     7
370
    15
100
AcDbCircle
 10
517.0801529928
 20
495.0869944767
 30
0.0
 40
3.0
100
AcDbArc
 50
109.6945792304
 51
180.0
  0
SPLINE
  5
2D3
330
1F
100
AcDbEntity
  8
0
  6
Continuous
 62
     7
370
    15
100
AcDbSpline
210
0.0
220
0.0
230
1.0
 70
     8
 71
     3
 72
     9
 73
     5
 74
     0
 42
0.00000001
 43
0.00000001
 12
1.0
 22
0.0
 32
0.0
 13
1.0
 23
0.0
 33
0.0
 40
0.0
 40
0.0
 40
0.0
 40
0.0
 40
0.6721397820542825
 40
1.0
 40
1.0
 40
1.0
 40
1.0
 10
513.6170979185384
 20
487.0812274684557
 30
0.0
 10
513.6174797674738
 20
487.086768232861
 30
0.0
 10
513.6180478768842
 20
487.0950117032718
 30
0.0
 10
513.6838785466734
 20
487.0356475196772
 30
0.0
 10
513.705461804418
 20
487.0161843655059
 30
0.0
  0
SPLINE
  5
2D4
330
1F
100
AcDbEntity
  8
0
  6
Continuous
 62
     7
370
    15
100
AcDbSpline
210
0.0
220
0.0
230
1.0
 70
     8
 71
     3
 72
     9
 73
     5
 74
     0
 42
0.00000001
 43
0.00000001
 12
1.0
 22
0.0
 32
0.0
 13
1.0
 23
0.0
 33
0.0
 40
0.0
 40
0.0
 40
0.0
 40
0.0
 40
0.0416551609522632
 40
1.0
 40
1.0
 40
1.0
 40
1.0
 10
513.7002389474195
 20
493.1397485715696
 30
0.0
 10
513.6978534035068
 20
493.137548856306
 30
0.0
 10
513.6405845355421
 20
493.0847411077982
 30
0.0
 10
513.6286028534635
 20
493.0897823777575
 30
0.0
 10
513.6171202702802
 20
493.0946136528054
 30
0.0
  0
SPLINE
  5
2D5
330
1F
100
AcDbEntity
  8
0
  6
Continuous
 62
     7
370
    15
100
AcDbSpline
210
0.0
220
0.0
230
1.0
 70
     8
 71
     3
 72
    12
 73
     8
 74
     0
 42
0.00000001
 43
0.00000001
 12
1.0
 22
0.0
 32
0.0
 13
1.0
 23
0.0
 33
0.0
 40
0.0
 40
0.0
 40
0.0
 40
0.0
 40
0.2381064776652277
 40
0.4200323224718345
 40
0.6098226093217296
 40
0.8929951467723176
 40
1.0
 40
1.0
 40
1.0
 40
1.0
 10
514.0801515026372
 20
494.1970751324096
 30
0.0
 10
514.0602006983447
 20
494.0019722211101
 30
0.0
 10
514.0250064325509
 20
493.6578004465421
 30
0.0
 10
513.8791947651896
 20
493.3631290803926
 30
0.0
 10
513.7701503707938
 20
493.1973495113026
 30
0.0
 10
513.6917771711871
 20
493.1328788708361
 30
0.0
 10
513.70428821746
 20
493.1397996077733
 30
0.0
 10
513.7077193303388
 20
493.1416975968876
 30
0.0
  0
ARC
  5
2D6
330
1F
100
AcDbEntity
  8
0
  6
Continuous
 62
     7
370
    15
100
AcDbCircle
 10
512.506880344
 20
486.0130749808
 30
0.0
 40
1.573686669712939
100
AcDbArc
 50
358.6833226973
 51
40.0301477288
  0
SPLINE
  5
2D7
330
1F
100
AcDbEntity
  8
0
  6
Continuous
 62
     7
370
    15
100
AcDbSpline
210
0.0
220
0.0
230
1.0
 70
     8
 71
     3
 72
    12
 73
     8
 74
     0
 42
0.00000001
 43
0.00000001
 12
1.0
 22
0.0
 32
0.0
 13
1.0
 23
0.0
 33
0.0
 40
0.0
 40
0.0
 40
0.0
 40
0.0
 40
0.2383538832703036
 40
0.4204647120564352
 40
0.6104513332080121
 40
0.8939153883358479
 40
1.0
 40
1.0
 40
1.0
 40
1.0
 10
514.0801515026372
 20
494.1970751324096
 30
0.0
 10
514.0601971371601
 20
494.0019706001648
 30
0.0
 10
514.0249969280445
 20
493.6577992787426
 30
0.0
 10
513.8791928319056
 20
493.3631219364936
 30
0.0
 10
513.7701673037539
 20
493.1973616664808
 30
0.0
 10
513.6918420980242
 20
493.1329354927236
 30
0.0
 10
513.7042800000019
 20
493.1398073464413
 30
0.0
 10
513.7076671762746
 20
493.1416787376055
 30
0.0
  0
ARC
  5
2D8
330
1F
100
AcDbEntity
  8
0
  6
Continuous
 62
     7
370
    15
100
AcDbCircle
 10
512.5067277208
 20
486.0130585232
 30
0.0
 40
1.573838874587384
100
AcDbArc
 50
358.6840493537
 51
40.0188266994
  0
ARC
  5
2D9
330
1F
100
AcDbEntity
  8
0
  6
Continuous
 62
     7
370
    15
100
AcDbCircle
 10
675.3548325255
 20
391.2361363085
 30
0.0
 40
0.3600000000000421
100
AcDbArc
 50
336.3583676093
 51
30.0
  0
ARC
  5
2DA
330
1F
100
AcDbEntity
  8
0
  6
Continuous
 62
     7
370
    15
100
AcDbCircle
 10
669.050167586
 20
387.5961363085
 30
0.0
 40
0.360000000000048
100
AcDbArc
 50
210.0
 51
263.6416323907
  0
LINE
  5
2DB
330
1F
100
AcDbEntity
  8
0
  6
Continuous
 62
     7
370
    15
100
AcDbLine
 10
675.6666000529
 20
391.4161393122
 30
0.0
 11
675.2792816205
 21
392.0869970397
 31
0.0
  0
LINE
  5
2DC
330
1F
100
AcDbEntity
  8
0
  6
Continuous
 62
     7
370
    15
100
AcDbLine
 10
667.9660524769
 20
388.7538829522
 30
0.0
 11
668.738398288
 21
387.4161386566
 31
0.0
  0
ARC
  5
2DD
330
1F
100
AcDbEntity
  8
0
  6
Continuous
 62
     7
370
    15
100
AcDbCircle
 10
669.7301529928
 20
393.6983670355
 30
0.0
 40
6.500000000000028
100
AcDbArc
 50
263.6416323907
 51
282.1374195081
  0
ARC
  5
2DE
330
1F
100
AcDbEntity
  8
0
  6
Continuous
 62
     7
370
    15
100
AcDbCircle
 10
669.7301529928
 20
393.6983670355
 30
0.0
 40
6.500000000000038
100
AcDbArc
 50
317.8625804919
 51
336.3583676093
  0
LINE
  5
2DF
330
1F
100
AcDbEntity
  8
0
  6
Continuous
 62
     7
370
    15
100
AcDbLine
 10
669.0981011434
 20
390.7931143121
 30
0.0
 11
669.2981008036
 21
390.4466995673
 31
0.0
  0
ARC
  5
2E0
330
1F
100
AcDbEntity
  8
0
  6
Continuous
 62
     7
370
    15
100
AcDbCircle
 10
712.931011161
 20
551.3616740095
 30
0.0
 40
0.3599999999999809
100
AcDbArc
 50
66.3583676093
 51
120.0
  0
ARC
  5
2E1
330
1F
100
AcDbEntity
  8
0
  6
Continuous
 62
     7
370
    15
100
AcDbCircle
 10
716.571011161
 20
545.05700907
 30
0.0
 40
0.360000000000048
100
AcDbArc
 50
300.0
 51
353.6416323907
  0
LINE
  5
2E2
330
1F
100
AcDbEntity
  8
0
  6
Continuous
 62
     7
370
    15
100
AcDbLine
 10
712.7510081573
 20
551.6734415369
 30
0.0
 11
712.0801504298
 21
551.2861231045
 31
0.0
  0
LINE
  5
2E3
330
1F
100
AcDbEntity
  8
0
  6
Continuous
 62
     7
370
    15
100
AcDbLine
 10
715.4132645173
 20
543.9728939609
 30
0.0
 11
716.7510088129
 21
544.745239772
 31
0.0
  0
ARC
  5
2E4
330
1F
100
AcDbEntity
  8
0
  6
Continuous
 62
     7
370
    15
100
AcDbCircle
 10
710.468780434
 20
545.7369944767
 30
0.0
 40
6.499999999999954
100
AcDbArc
 50
47.8625804919
 51
66.3583676093
  0
ARC
  5
2E5
330
1F
100
AcDbEntity
  8
0
  6
Continuous
 62
     7
370
    15
100
AcDbCircle
 10
710.468780434
 20
545.7369944767
 30
0.0
 40
6.500000000000115
100
AcDbArc
 50
353.6416323907
 51
12.1374195081
  0
LINE
  5
2E6
330
1F
100
AcDbEntity
  8
0
  6
Continuous
 62
     7
370
    15
100
AcDbLine
 10
713.3740331574
 20
545.1049426274
 30
0.0
 11
713.7204479022
 21
545.3049422876
 31
0.0
  0
LINE
  5
2E7
330
1F
100
AcDbEntity
  8
0
  6
Continuous
 62
     7
370
    15
100
AcDbLine
 10
515.4092978282
 20
428.5005474166
 30
0.0
 11
516.0801555558
 21
428.887865849
 31
0.0
  0
LINE
  5
2E8
330
1F
100
AcDbEntity
  8
0
  6
Continuous
 62
     7
370
    15
100
AcDbLine
 10
512.7470414682
 20
436.2010949926
 30
0.0
 11
511.4092971726
 21
435.4287491815
 31
0.0
  0
ARC
  5
2E9
330
1F
100
AcDbEntity
  8
0
  6
Continuous
 62
     7
370
    15
100
AcDbCircle
 10
515.2292948245
 20
428.812314944
 30
0.0
 40
0.3600000000000128
100
AcDbArc
 50
246.3583676093
 51
300.0
  0
ARC
  5
2EA
330
1F
100
AcDbEntity
  8
0
  6
Continuous
 62
     7
370
    15
100
AcDbCircle
 10
511.5892948245
 20
435.1169798835
 30
0.0
 40
0.3600000000000586
100
AcDbArc
 50
120.0
 51
173.6416323907
  0
ARC
  5
2EB
330
1F
100
AcDbEntity
  8
0
  6
Continuous
 62
     7
370
    15
100
AcDbCircle
 10
517.6915255515
 20
434.4369944767
 30
0.0
 40
6.499999999999996
100
AcDbArc
 50
227.8625804919
 51
246.3583676093
  0
ARC
  5
2EC
330
1F
100
AcDbEntity
  8
0
  6
Continuous
 62
     7
370
    15
100
AcDbCircle
 10
517.6915255515
 20
434.4369944767
 30
0.0
 40
6.499999999999941
100
AcDbArc
 50
173.6416323907
 51
192.1374195081
  0
LINE
  5
2ED
330
1F
100
AcDbEntity
  8
0
  6
Continuous
 62
     7
370
    15
100
AcDbLine
 10
514.7862728281
 20
435.0690463261
 30
0.0
 11
514.4398580833
 21
434.8690466659
 31
0.0
  0
LINE
  5
2EE
330
1F
100
AcDbEntity
  8
0
  6
Continuous
 62
     7
370
    15
100
AcDbLine
 10
673.6016828163
 20
607.9043814616
 30
0.0
 11
673.2033375247
 21
606.4177373127
 31
0.0
  0
LINE
  5
2EF
330
1F
100
AcDbEntity
  8
0
  6
Continuous
 62
     7
370
    15
100
AcDbLine
 10
677.0670409842
 20
605.3824567871
 30
0.0
 11
677.4554248495
 21
606.8319374399
 31
0.0
  0
LINE
  5
2F0
330
1F
100
AcDbEntity
  8
0
  6
Continuous
 62
     7
370
    15
100
AcDbLine
 10
680.7417045875
 20
611.3690802531
 30
0.0
 11
680.8338384671
 21
611.7129394488
 31
0.0
  0
LINE
  5
2F1
330
1F
100
AcDbEntity
  8
0
  6
Continuous
 62
     7
370
    15
100
AcDbLine
 10
673.192664568
 20
613.9126563148
 30
0.0
 11
673.1387856944
 21
613.8053456025
 31
0.0
  0
LINE
  5
2F2
330
1F
100
AcDbEntity
  8
0
  6
Continuous
 62
     7
370
    15
100
AcDbLine
 10
680.8338384671
 20
611.7129394488
 30
0.0
 11
680.8436508818
 21
611.931263812
 31
0.0
  0
ARC
  5
2F3
330
1F
100
AcDbEntity
  8
0
  6
Continuous
 62
     7
370
    15
100
AcDbCircle
 10
675.7675362793
 20
608.2600472385
 30
0.0
 40
6.499999999999951
100
AcDbArc
 50
43.9823638146
 51
106.0176361854
  0
LINE
  5
2F4
330
1F
100
AcDbEntity
  8
0
  6
Continuous
 62
     7
370
    15
100
AcDbLine
 10
609.6349405652
 20
593.2720372157
 30
0.0
 11
609.1241990744
 21
591.3659253792
 31
0.0
  0
LINE
  5
2F5
330
1F
100
AcDbEntity
  8
0
  6
Continuous
 62
     7
370
    15
100
AcDbLine
 10
612.987902301
 20
590.3306523041
 30
0.0
 11
613.4986440829
 21
592.2367641406
 31
0.0
  0
LINE
  5
2F6
330
1F
100
AcDbEntity
  8
0
  6
Continuous
 62
     7
370
    15
100
AcDbLine
 10
552.4937059326
 20
588.7578496413
 30
0.0
 11
552.881024365
 21
588.0869919137
 31
0.0
  0
LINE
  5
2F7
330
1F
100
AcDbEntity
  8
0
  6
Continuous
 62
     7
370
    15
100
AcDbLine
 10
560.1942535086
 20
591.4201060013
 30
0.0
 11
559.4219076975
 21
592.7578502969
 31
0.0
  0
ARC
  5
2F8
330
1F
100
AcDbEntity
  8
0
  6
Continuous
 62
     7
370
    15
100
AcDbCircle
 10
552.80547346
 20
588.937852645
 30
0.0
 40
0.3600000000000377
100
AcDbArc
 50
156.3583676093
 51
210.0
  0
ARC
  5
2F9
330
1F
100
AcDbEntity
  8
0
  6
Continuous
 62
     7
370
    15
100
AcDbCircle
 10
559.1101383995
 20
592.577852645
 30
0.0
 40
0.3600000000000354
100
AcDbArc
 50
30.0
 51
83.6416323907
  0
ARC
  5
2FA
330
1F
100
AcDbEntity
  8
0
  6
Continuous
 62
     7
370
    15
100
AcDbCircle
 10
558.4301529928
 20
586.475621918
 30
0.0
 40
6.500000000000054
100
AcDbArc
 50
83.6416323907
 51
102.1374195081
  0
ARC
  5
2FB
330
1F
100
AcDbEntity
  8
0
  6
Continuous
 62
     7
370
    15
100
AcDbCircle
 10
558.4301529928
 20
586.475621918
 30
0.0
 40
6.50000000000003
100
AcDbArc
 50
137.8625804919
 51
156.3583676093
  0
LINE
  5
2FC
330
1F
100
AcDbEntity
  8
0
  6
Continuous
 62
     7
370
    15
100
AcDbLine
 10
559.0622048421
 20
589.3808746414
 30
0.0
 11
558.8622051819
 21
589.7272893862
 31
0.0
  0
LINE
  5
2FD
330
1F
100
AcDbEntity
  8
0
  6
Continuous
 62
     7
370
    15
100
AcDbLine
 10
617.5364805913
 20
622.7609881834
 30
0.0
 11
617.1796396902
 21
621.4292416052
 31
0.0
  0
LINE
  5
2FE
330
1F
100
AcDbEntity
  8
0
  6
Continuous
 62
     7
370
    15
100
AcDbLine
 10
621.0433431497
 20
620.3939685301
 30
0.0
 11
621.441688907
 21
621.880612679
 31
0.0
  0
LINE
  5
2FF
330
1F
100
AcDbEntity
  8
0
  6
Continuous
 62
     7
370
    15
100
AcDbLine
 10
617.0827358092
 20
628.7949898915
 30
0.0
 11
616.8911862715
 21
628.0801215844
 31
0.0
  0
LINE
  5
300
330
1F
100
AcDbEntity
  8
0
  6
Continuous
 62
     7
370
    15
100
AcDbLine
 10
617.1689669663
 20
628.9241531567
 30
0.0
 11
617.1150866958
 21
628.816849895
 31
0.0
  0
LINE
  5
301
330
1F
100
AcDbEntity
  8
0
  6
Continuous
 62
     7
370
    15
100
AcDbLine
 10
624.8101420297
 20
626.7244437413
 30
0.0
 11
624.819953513
 21
626.9427755551
 31
0.0
  0
ARC
  5
302
330
1F
100
AcDbEntity
  8
0
  6
Continuous
 62
     7
370
    15
100
AcDbCircle
 10
619.7438383545
 20
623.2715518545
 30
0.0
 40
6.499999999999992
100
AcDbArc
 50
43.9823638146
 51
106.0176361854
  0
LINE
  5
303
330
1F
100
AcDbEntity
  8
0
  6
Continuous
 62
     7
370
    15
100
AcDbLine
 10
659.7982976182
 20
619.1052714066
 30
0.0
 11
659.8112392767
 21
619.15356607
 31
0.0
  0
LINE
  5
304
330
1F
100
AcDbEntity
  8
0
  6
Continuous
 62
     7
370
    15
100
AcDbLine
 10
639.0091586454
 20
624.7274646239
 30
0.0
 11
638.9962169869
 21
624.6791699604
 31
0.0
  0
SPLINE
  5
305
330
1F
100
AcDbEntity
  8
0
  6
Continuous
 62
     7
370
    15
100
AcDbSpline
210
0.0
220
0.0
230
1.0
 70
     8
 71
     3
 72
    15
 73
    11
 74
     0
 42
0.00000001
 43
0.00000001
 12
1.0
 22
0.0
 32
0.0
 13
1.0
 23
0.0
 33
0.0
 40
0.0
 40
0.0
 40
0.0
 40
0.0
 40
0.1127078965766954
 40
0.219872296803491
 40
0.3293853036466634
 40
0.4560124429049431
 40
0.6132187827228558
 40
0.7803863563983706
 40
0.9394137820169735
 40
1.0
 40
1.0
 40
1.0
 40
1.0
 10
682.652696554212
 20
608.0690020398595
 30
0.0
 10
682.6934064129416
 20
608.3337052757369
 30
0.0
 10
682.7728238310046
 20
608.8500924164024
 30
0.0
 10
682.554572357893
 20
609.5849145976732
 30
0.0
 10
682.169006720255
 20
610.2189390814963
 30
0.0
 10
681.5827468259974
 20
610.8153491673978
 30
0.0
 10
680.7496630375708
 20
611.3979182151315
 30
0.0
 10
679.663632875676
 20
611.9393032649697
 30
0.0
 10
678.679494476102
 20
612.300875702742
 30
0.0
 10
678.1006763422494
 20
612.4630672677865
 30
0.0
 10
677.9409940882009
 20
612.5078120903471
 30
0.0
  0
LINE
  5
306
330
1F
100
AcDbEntity
  8
0
  6
Continuous
 62
     7
370
    15
100
AcDbLine
 10
677.9409940882
 20
612.5078120903
 30
0.0
 11
620.9513736485
 21
627.7781346516
 31
0.0
  0
SPLINE
  5
307
330
1F
100
AcDbEntity
  8
0
  6
Continuous
 62
     7
370
    15
100
AcDbSpline
210
0.0
220
0.0
230
1.0
 70
     8
 71
     3
 72
    15
 73
    11
 74
     0
 42
0.00000001
 43
0.00000001
 12
1.0
 22
0.0
 32
0.0
 13
1.0
 23
0.0
 33
0.0
 40
0.0
 40
0.0
 40
0.0
 40
0.0
 40
0.0815962351968372
 40
0.2376381515951714
 40
0.3974093250183019
 40
0.5672459989721922
 40
0.7066724470912276
 40
0.8222275385943608
 40
0.9331896333796059
 40
1.0
 40
1.0
 40
1.0
 40
1.0
 10
620.9513736484927
 20
627.7781346516111
 30
0.0
 10
620.7346941941101
 20
627.8327037290402
 30
0.0
 10
620.1036441842185
 20
627.9916288885554
 30
0.0
 10
619.0470507386142
 20
628.1601323931529
 30
0.0
 10
617.840765314096
 20
628.2203460229134
 30
0.0
 10
616.8003700229123
 20
628.1115858508683
 30
0.0
 10
615.943982350987
 20
627.8308221708228
 30
0.0
 10
615.2718286978068
 20
627.3800435264635
 30
0.0
 10
614.8371874152759
 20
626.8369895366307
 30
0.0
 10
614.7022360961519
 20
626.4393187374111
 30
0.0
 10
614.6515187519957
 20
626.2898662762144
 30
0.0
  0
SPLINE
  5
308
330
1F
100
AcDbEntity
  8
0
  6
Continuous
 62
     7
370
    15
100
AcDbSpline
210
0.0
220
0.0
230
1.0
 70
     8
 71
     3
 72
    16
 73
    12
 74
     0
 42
0.00000001
 43
0.00000001
 12
1.0
 22
0.0
 32
0.0
 13
1.0
 23
0.0
 33
0.0
 40
0.0
 40
0.0
 40
0.0
 40
0.0
 40
0.3147778535536576
 40
0.6025899420663167
 40
0.7249589459447698
 40
0.7574722702380533
 40
0.7798331895034265
 40
0.8054134437014268
 40
0.8479655029964607
 40
0.9445120016947093
 40
1.0
 40
1.0
 40
1.0
 40
1.0
 10
621.9601682914775
 20
429.5326428191164
 30
0.0
 10
622.0555705582944
 20
429.5611284772715
 30
0.0
 10
622.2382023596908
 20
429.6156595406981
 30
0.0
 10
622.4600024342709
 20
429.6602957069177
 30
0.0
 10
622.6013412006624
 20
429.6842375039815
 30
0.0
 10
622.6502824603108
 20
429.6917410601168
 30
0.0
 10
622.6652887139794
 20
429.6939960595351
 30
0.0
 10
622.6755772660888
 20
429.6955075081066
 30
0.0
 10
622.684500823215
 20
429.6968167212567
 30
0.0
 10
622.6884384893176
 20
429.6973687235438
 30
0.0
 10
622.6865975202322
 20
429.6971114319166
 30
0.0
 10
622.6859256221336
 20
429.6970175282457
 30
0.0
  0
LINE
  5
309
330
1F
100
AcDbEntity
  8
0
  6
Continuous
 62
     7
370
    15
100
AcDbLine
 10
740.0801550193
 20
487.0869944507
 30
0.0
 11
714.1862209482
 21
487.0869944507
 31
0.0
  0
LINE
  5
30A
330
1F
100
AcDbEntity
  8
0
  6
Continuous
 62
     7
370
    15
100
AcDbLine
 10
714.1862209482
 20
493.0869945028
 30
0.0
 11
740.0801550193
 21
493.0869945028
 31
0.0
  0
LINE
  5
30B
330
1F
100
AcDbEntity
  8
0
  6
Continuous
 62
     7
370
    15
100
AcDbLine
 10
714.0801544829
 20
495.086994365
 30
0.0
 11
714.0801544829
 21
494.1970769951
 31
0.0
  0
LINE
  5
30C
330
1F
100
AcDbEntity
  8
0
  6
Continuous
 62
     7
370
    15
100
AcDbLine
 10
714.0801544829
 20
485.9769119584
 30
0.0
 11
714.0801544829
 21
485.0869945885
 31
0.0
  0
LINE
  5
30D
330
1F
100
AcDbEntity
  8
0
  6
Continuous
 62
     7
370
    15
100
AcDbLine
 10
488.0801509662
 20
493.0869945028
 30
0.0
 11
513.9740850373
 21
493.0869945028
 31
0.0
  0
LINE
  5
30E
330
1F
100
AcDbEntity
  8
0
  6
Continuous
 62
     7
370
    15
100
AcDbLine
 10
513.9740850373
 20
487.0869944507
 30
0.0
 11
488.0801509662
 21
487.0869944507
 31
0.0
  0
LINE
  5
30F
330
1F
100
AcDbEntity
  8
0
  6
Continuous
 62
     7
370
    15
100
AcDbLine
 10
514.0801515026
 20
485.0869945885
 30
0.0
 11
514.0801515026
 21
485.9769119584
 31
0.0
  0
LINE
  5
310
330
1F
100
AcDbEntity
  8
0
  6
Continuous
 62
     7
370
    15
100
AcDbLine
 10
514.0801515026
 20
494.1970769951
 30
0.0
 11
514.0801515026
 21
495.086994365
 31
0.0
  0
ARC
  5
311
330
1F
100
AcDbEntity
  8
0
  6
Continuous
 62
     7
370
    15
100
AcDbCircle
 10
669.7301529928
 20
393.6983670355
 30
0.0
 40
6.479565957685798
100
AcDbArc
 50
282.1648678204
 51
292.3032352969
  0
LWPOLYLINE
  5
312
330
1F
100
AcDbEntity
  8
0
  6
Continuous
 62
     7
370
    15
100
AcDbPolyline
 90
        5
 70
   128
 43
0.0
 10
671.0968236966
 20
387.3436668591
 10
671.0967454655
 20
387.3449558095
 10
671.096507047
 20
387.3488301115
 10
671.0961158915
 20
387.3552748637
 10
671.0955608232
 20
387.3642975168
  0
LWPOLYLINE
  5
313
330
1F
100
AcDbEntity
  8
0
  6
Continuous
 62
     7
370
    15
100
AcDbPolyline
 90
        5
 70
   128
 43
0.0
 10
674.5329122587
 20
389.3488565163
 10
674.5404522462
 20
389.3438646273
 10
674.545839016
 20
389.3402957992
 10
674.549072568
 20
389.3381574826
 10
674.5501491769
 20
389.3374422268
  0
ARC
  5
314
330
1F
100
AcDbEntity
  8
0
  6
Continuous
 62
     7
370
    15
100
AcDbCircle
 10
669.7301529928
 20
393.6983670355
 30
0.0
 40
6.47956595768575
100
AcDbArc
 50
307.6967647031
 51
317.8351321796
  0
LWPOLYLINE
  5
315
330
1F
100
AcDbEntity
  8
0
  6
Continuous
 62
     7
370
    15
100
AcDbPolyline
 90
        9
 70
   128
 43
0.0
 10
673.6922930522
 20
388.5713586287
 10
673.662993644
 20
388.5544383602
 10
673.6308741911
 20
388.5359013156
 10
673.5960688038
 20
388.5157996492
 10
673.5587041421
 20
388.4942302184
 10
673.5189329429
 20
388.471267529
 10
673.4769042177
 20
388.447000988
 10
673.4327856047
 20
388.4215349035
 10
673.3867521925
 20
388.3949512319
  0
LWPOLYLINE
  5
316
330
1F
100
AcDbEntity
  8
0
  6
Continuous
 62
     7
370
    15
100
AcDbPolyline
 90
        9
 70
   128
 43
0.0
 10
673.3867521925
 20
388.3949512319
 10
673.3763698085
 20
388.4129369335
 10
673.3644228025
 20
388.4336271958
 10
673.3509148999
 20
388.4570220189
 10
673.3358535512
 20
388.4831065015
 10
673.3192499323
 20
388.5118731932
 10
673.3011040433
 20
388.5432997422
 10
673.2814307852
 20
388.5773712472
 10
673.260241334
 20
388.6140728073
  0
ARC
  5
317
330
1F
100
AcDbEntity
  8
0
  6
Continuous
 62
     7
370
    15
100
AcDbCircle
 10
669.2339856993
 20
394.5577624136
 30
0.0
 40
7.179009720917189
100
AcDbArc
 50
295.8862089471
 51
304.1137147606
  0
LWPOLYLINE
  5
318
330
1F
100
AcDbEntity
  8
0
  6
Continuous
 62
     7
370
    15
100
AcDbPolyline
 90
        9
 70
   128
 43
0.0
 10
672.3682354732
 20
388.0990737752
 10
672.3894249244
 20
388.0623722152
 10
672.4090981825
 20
388.0283007102
 10
672.4272403462
 20
387.9968741612
 10
672.4438476904
 20
387.9681074695
 10
672.458909039
 20
387.9420229868
 10
672.4724169417
 20
387.9186281638
 10
672.4843639477
 20
387.8979379014
 10
672.4947463317
 20
387.8799521999
  0
LWPOLYLINE
  5
319
330
1F
100
AcDbEntity
  8
0
  6
Continuous
 62
     7
370
    15
100
AcDbPolyline
 90
        9
 70
   128
 43
0.0
 10
672.4947463317
 20
387.8799521999
 10
672.4487091942
 20
387.8533759789
 10
672.4045905812
 20
387.8279024438
 10
672.3625655813
 20
387.8036359028
 10
672.3227906568
 20
387.7806732134
 10
672.2854297204
 20
387.7591037826
 10
672.2506206079
 20
387.7390095667
 10
672.2185048802
 20
387.7204650716
 10
672.1892017467
 20
387.7035448031
  0
ARC
  5
31A
330
1F
100
AcDbEntity
  8
0
  6
Continuous
 62
     7
370
    15
100
AcDbCircle
 10
710.468780434
 20
545.7369944767
 30
0.0
 40
6.479565957685777
100
AcDbArc
 50
12.1648678204
 51
22.3032352969
  0
LWPOLYLINE
  5
31B
330
1F
100
AcDbEntity
  8
0
  6
Continuous
 62
     7
370
    15
100
AcDbPolyline
 90
        5
 70
   128
 43
0.0
 10
716.8234806104
 20
547.1036651806
 10
716.82219166
 20
547.1035869495
 10
716.818317358
 20
547.103348531
 10
716.8118726058
 20
547.1029573755
 10
716.8028499527
 20
547.1024023072
  0
LWPOLYLINE
  5
31C
330
1F
100
AcDbEntity
  8
0
  6
Continuous
 62
     7
370
    15
100
AcDbPolyline
 90
        5
 70
   128
 43
0.0
 10
714.8182909532
 20
550.5397537426
 10
714.8232828422
 20
550.5472937302
 10
714.8268516703
 20
550.5526805
 10
714.8289899869
 20
550.555914052
 10
714.8297052427
 20
550.5569906609
  0
ARC
  5
31D
330
1F
100
AcDbEntity
  8
0
  6
Continuous
 62
     7
370
    15
100
AcDbCircle
 10
710.468780434
 20
545.7369944767
 30
0.0
 40
6.479565957685803
100
AcDbArc
 50
37.6967647031
 51
47.8351321796
  0
LWPOLYLINE
  5
31E
330
1F
100
AcDbEntity
  8
0
  6
Continuous
 62
     7
370
    15
100
AcDbPolyline
 90
        9
 70
   128
 43
0.0
 10
715.5957888408
 20
549.6991345362
 10
715.6127091093
 20
549.669835128
 10
715.6312461539
 20
549.6377156751
 10
715.6513478203
 20
549.6029102878
 10
715.6729172511
 20
549.5655456261
 10
715.6958799405
 20
549.5257744269
 10
715.7201464815
 20
549.4837457017
 10
715.745612566
 20
549.4396270887
 10
715.7721962376
 20
549.3935936765
  0
LWPOLYLINE
  5
31F
330
1F
100
AcDbEntity
  8
0
  6
Continuous
 62
     7
370
    15
100
AcDbPolyline
 90
        9
 70
   128
 43
0.0
 10
715.7721962376
 20
549.3935936765
 10
715.754210536
 20
549.3832112925
 10
715.7335202737
 20
549.3712642865
 10
715.7101254506
 20
549.3577563838
 10
715.684040968
 20
549.3426950352
 10
715.6552742763
 20
549.3260914163
 10
715.6238477273
 20
549.3079455273
 10
715.5897762223
 20
549.2882722692
 10
715.5530746622
 20
549.267082818
  0
ARC
  5
320
330
1F
100
AcDbEntity
  8
0
  6
Continuous
 62
     7
370
    15
100
AcDbCircle
 10
709.6093850559
 20
545.2408271833
 30
0.0
 40
7.179009720894382
100
AcDbArc
 50
25.8862089471
 51
34.1137147606
  0
LWPOLYLINE
  5
321
330
1F
100
AcDbEntity
  8
0
  6
Continuous
 62
     7
370
    15
100
AcDbPolyline
 90
        9
 70
   128
 43
0.0
 10
716.0680736943
 20
548.3750769572
 10
716.1047752543
 20
548.3962664084
 10
716.1388467593
 20
548.4159396665
 10
716.1702733083
 20
548.4340818302
 10
716.19904
 20
548.4506891744
 10
716.2251244827
 20
548.465750523
 10
716.2485193057
 20
548.4792584257
 10
716.2692095681
 20
548.4912054316
 10
716.2871952696
 20
548.5015878157
  0
LWPOLYLINE
  5
322
330
1F
100
AcDbEntity
  8
0
  6
Continuous
 62
     7
370
    15
100
AcDbPolyline
 90
        9
 70
   128
 43
0.0
 10
716.2871952696
 20
548.5015878157
 10
716.3137714906
 20
548.4555506782
 10
716.3392450257
 20
548.4114320652
 10
716.3635115667
 20
548.3694070653
 10
716.3864742561
 20
548.3296321408
 10
716.4080436869
 20
548.2922712044
 10
716.4281379028
 20
548.2574620919
 10
716.4466823979
 20
548.2253463642
 10
716.4636026664
 20
548.1960432307
  0
ARC
  5
323
330
1F
100
AcDbEntity
  8
0
  6
Continuous
 62
     7
370
    15
100
AcDbCircle
 10
517.6915255515
 20
434.4369944767
 30
0.0
 40
6.479565957685687
100
AcDbArc
 50
192.1648678204
 51
202.3032352969
  0
LWPOLYLINE
  5
324
330
1F
100
AcDbEntity
  8
0
  6
Continuous
 62
     7
370
    15
100
AcDbPolyline
 90
        5
 70
   128
 43
0.0
 10
511.3368253751
 20
433.0703237729
 10
511.3381143256
 20
433.070402004
 10
511.3419886275
 20
433.0706404225
 10
511.3484333797
 20
433.071031578
 10
511.3574560328
 20
433.0715866463
  0
LWPOLYLINE
  5
325
330
1F
100
AcDbEntity
  8
0
  6
Continuous
 62
     7
370
    15
100
AcDbPolyline
 90
        5
 70
   128
 43
0.0
 10
513.3420150323
 20
429.6342352108
 10
513.3370231433
 20
429.6266952233
 10
513.3334543152
 20
429.6213084535
 10
513.3313159986
 20
429.6180749015
 10
513.3306007428
 20
429.6169982926
  0
ARC
  5
326
330
1F
100
AcDbEntity
  8
0
  6
Continuous
 62
     7
370
    15
100
AcDbCircle
 10
517.6915255515
 20
434.4369944767
 30
0.0
 40
6.479565957685678
100
AcDbArc
 50
217.6967647031
 51
227.8351321796
  0
LWPOLYLINE
  5
327
330
1F
100
AcDbEntity
  8
0
  6
Continuous
 62
     7
370
    15
100
AcDbPolyline
 90
        9
 70
   128
 43
0.0
 10
512.5645171447
 20
430.4748544173
 10
512.5475968762
 20
430.5041538255
 10
512.5290598316
 20
430.5362732784
 10
512.5089581652
 20
430.5710786657
 10
512.4873887344
 20
430.6084433274
 10
512.464426045
 20
430.6482145266
 10
512.440159504
 20
430.6902432518
 10
512.4146934195
 20
430.7343618648
 10
512.3881097479
 20
430.780395277
  0
LWPOLYLINE
  5
328
330
1F
100
AcDbEntity
  8
0
  6
Continuous
 62
     7
370
    15
100
AcDbPolyline
 90
        9
 70
   128
 43
0.0
 10
512.3881097479
 20
430.780395277
 10
512.4060954495
 20
430.790777661
 10
512.4267857118
 20
430.802724667
 10
512.4501805349
 20
430.8162325696
 10
512.4762650175
 20
430.8312939183
 10
512.5050317092
 20
430.8478975372
 10
512.5364582582
 20
430.8660434262
 10
512.5705297632
 20
430.8857166843
 10
512.6072313233
 20
430.9069061355
  0
ARC
  5
329
330
1F
100
AcDbEntity
  8
0
  6
Continuous
 62
     7
370
    15
100
AcDbCircle
 10
518.5509209297
 20
434.9331617702
 30
0.0
 40
7.179009720919848
100
AcDbArc
 50
205.8862089471
 51
214.1137147606
  0
LWPOLYLINE
  5
32A
330
1F
100
AcDbEntity
  8
0
  6
Continuous
 62
     7
370
    15
100
AcDbPolyline
 90
        9
 70
   128
 43
0.0
 10
512.0922322912
 20
431.7989119963
 10
512.0555307312
 20
431.7777225451
 10
512.0214592262
 20
431.758049287
 10
511.9900326772
 20
431.7399071233
 10
511.9612659855
 20
431.7232997791
 10
511.9351815028
 20
431.7082384305
 10
511.9117866798
 20
431.6947305278
 10
511.8910964175
 20
431.6827835218
 10
511.8731107159
 20
431.6724011378
  0
LWPOLYLINE
  5
32B
330
1F
100
AcDbEntity
  8
0
  6
Continuous
 62
     7
370
    15
100
AcDbPolyline
 90
        9
 70
   128
 43
0.0
 10
511.8731107159
 20
431.6724011378
 10
511.8465344949
 20
431.7184382753
 10
511.8210609598
 20
431.7625568883
 10
511.7967944188
 20
431.8045818881
 10
511.7738317294
 20
431.8443568127
 10
511.7522622986
 20
431.8817177491
 10
511.7321680827
 20
431.9165268616
 10
511.7136235876
 20
431.9486425893
 10
511.6967033191
 20
431.9779457228
  0
LWPOLYLINE
  5
32C
330
1F
100
AcDbEntity
  8
0
  6
Continuous
 62
     7
370
    15
100
AcDbPolyline
 90
       17
 70
   128
 43
0.0
 10
677.0670409842
 20
605.3824567871
 10
676.852233295
 20
605.1690125541
 10
676.3760257108
 20
605.0668650941
 10
675.710912381
 20
605.0915712194
 10
674.9581466956
 20
605.2393609361
 10
674.2323372109
 20
605.4877483921
 10
673.6439760371
 20
605.7989144401
 10
673.2826415046
 20
606.1254808382
 10
673.2033375247
 20
606.4177373127
 10
673.4181414886
 20
606.6311815457
 10
673.894352798
 20
606.7333290057
 10
674.5594661279
 20
606.7086228804
 10
675.3122318132
 20
606.5608257131
 10
676.0380412979
 20
606.3124382572
 10
676.6264061971
 20
606.0012796597
 10
676.9877370043
 20
605.6747132616
 10
677.0670409842
 20
605.3824567871
  0
LWPOLYLINE
  5
32D
330
1F
100
AcDbEntity
  8
0
  6
Continuous
 62
     7
370
    15
100
AcDbPolyline
 90
       11
 70
   128
 43
0.0
 10
673.3478303595
 20
614.0877971129
 10
673.6061121865
 20
614.3532836513
 10
674.2298896952
 20
614.5665043668
 10
675.1288059695
 20
614.6274948196
 10
676.2148659272
 20
614.5302945451
 10
677.3817609592
 20
614.2844030337
 10
678.5152624889
 20
613.9139005618
 10
679.5044164701
 20
613.4550565557
 10
680.2524026079
 20
612.9527756648
 10
680.6860040469
 20
612.4562317209
 10
680.7783390923
 20
612.1394777374
  0
LWPOLYLINE
  5
32E
330
1F
100
AcDbEntity
  8
0
  6
Continuous
 62
     7
370
    15
100
AcDbPolyline
 90
        3
 70
   128
 43
0.0
 10
612.987902301
 20
590.3306523041
 10
612.7730976386
 20
590.1172006206
 10
612.6966530519
 20
590.0869959669
  0
LWPOLYLINE
  5
32F
330
1F
100
AcDbEntity
  8
0
  6
Continuous
 62
     7
370
    15
100
AcDbPolyline
 90
       14
 70
   128
 43
0.0
 10
611.3238165217
 20
590.0869959669
 10
610.8790080125
 20
590.1875564532
 10
610.153196898
 20
590.4359439091
 10
609.5648371211
 20
590.7471025066
 10
609.2035011916
 20
591.0736689047
 10
609.1241990744
 20
591.3659253792
 10
609.3390039696
 20
591.5793770627
 10
609.8152134164
 20
591.6815170722
 10
610.4803290746
 20
591.6568183975
 10
611.2330933629
 20
591.5090212302
 10
611.9589044774
 20
591.2606337742
 10
612.5472641379
 20
590.9494677262
 10
612.9086001838
 20
590.622901328
 10
612.987902301
 20
590.3306523041
  0
ARC
  5
330
330
1F
100
AcDbEntity
  8
0
  6
Continuous
 62
     7
370
    15
100
AcDbCircle
 10
558.4301529928
 20
586.475621918
 30
0.0
 40
6.479565957685734
100
AcDbArc
 50
102.1648678204
 51
112.3032352969
  0
LWPOLYLINE
  5
331
330
1F
100
AcDbEntity
  8
0
  6
Continuous
 62
     7
370
    15
100
AcDbPolyline
 90
        5
 70
   128
 43
0.0
 10
557.0634822889
 20
592.8303220944
 10
557.06356052
 20
592.8290331439
 10
557.0637989385
 20
592.825158842
 10
557.064190094
 20
592.8187140898
 10
557.0647451623
 20
592.8096914367
  0
LWPOLYLINE
  5
332
330
1F
100
AcDbEntity
  8
0
  6
Continuous
 62
     7
370
    15
100
AcDbPolyline
 90
        5
 70
   128
 43
0.0
 10
553.6273937269
 20
590.8251324372
 10
553.6198537393
 20
590.8301243262
 10
553.6144669695
 20
590.8336931543
 10
553.6112334175
 20
590.8358314709
 10
553.6101568086
 20
590.8365467267
  0
ARC
  5
333
330
1F
100
AcDbEntity
  8
0
  6
Continuous
 62
     7
370
    15
100
AcDbCircle
 10
558.4301529928
 20
586.475621918
 30
0.0
 40
6.479565957685733
100
AcDbArc
 50
127.6967647031
 51
137.8351321796
  0
LWPOLYLINE
  5
334
330
1F
100
AcDbEntity
  8
0
  6
Continuous
 62
     7
370
    15
100
AcDbPolyline
 90
        9
 70
   128
 43
0.0
 10
554.4680129333
 20
591.6026303248
 10
554.4973123415
 20
591.6195505933
 10
554.5294317944
 20
591.6380876379
 10
554.5642371817
 20
591.6581893043
 10
554.6016018434
 20
591.6797587351
 10
554.6413730426
 20
591.7027214245
 10
554.6834017678
 20
591.7269879655
 10
554.7275203808
 20
591.75245405
 10
554.773553793
 20
591.7790377216
  0
LWPOLYLINE
  5
335
330
1F
100
AcDbEntity
  8
0
  6
Continuous
 62
     7
370
    15
100
AcDbPolyline
 90
        9
 70
   128
 43
0.0
 10
554.773553793
 20
591.7790377216
 10
554.783936177
 20
591.76105202
 10
554.795883183
 20
591.7403617577
 10
554.8093910857
 20
591.7169669346
 10
554.8244524343
 20
591.690882452
 10
554.8410560532
 20
591.6621157603
 10
554.8592019422
 20
591.6306892113
 10
554.8788752003
 20
591.5966177062
 10
554.9000646515
 20
591.5599161462
  0
ARC
  5
336
330
1F
100
AcDbEntity
  8
0
  6
Continuous
 62
     7
370
    15
100
AcDbCircle
 10
558.9263202862
 20
585.6162265398
 30
0.0
 40
7.179009720925863
100
AcDbArc
 50
115.8862089471
 51
124.1137147606
  0
LWPOLYLINE
  5
337
330
1F
100
AcDbEntity
  8
0
  6
Continuous
 62
     7
370
    15
100
AcDbPolyline
 90
        9
 70
   128
 43
0.0
 10
555.7920705123
 20
592.0749151782
 10
555.7708810611
 20
592.1116167383
 10
555.751207803
 20
592.1456882433
 10
555.7330656393
 20
592.1771147923
 10
555.7164582951
 20
592.205881484
 10
555.7013969465
 20
592.2319659667
 10
555.6878890438
 20
592.2553607897
 10
555.6759420378
 20
592.276051052
 10
555.6655596538
 20
592.2940367536
  0
LWPOLYLINE
  5
338
330
1F
100
AcDbEntity
  8
0
  6
Continuous
 62
     7
370
    15
100
AcDbPolyline
 90
        9
 70
   128
 43
0.0
 10
555.6655596538
 20
592.2940367536
 10
555.7115967913
 20
592.3206129746
 10
555.7557154043
 20
592.3460865097
 10
555.7977404042
 20
592.3703530507
 10
555.8375153287
 20
592.3933157401
 10
555.8748762651
 20
592.4148851709
 10
555.9096853776
 20
592.4349793868
 10
555.9418011053
 20
592.4535238819
 10
555.9711042388
 20
592.4704441504
  0
LWPOLYLINE
  5
339
330
1F
100
AcDbEntity
  8
0
  6
Continuous
 62
     7
370
    15
100
AcDbPolyline
 90
       17
 70
   128
 43
0.0
 10
621.0433431497
 20
620.3939685301
 10
620.8285382545
 20
620.180509396
 10
620.3523288077
 20
620.078361936
 10
619.6872131495
 20
620.1030680613
 10
618.9344488612
 20
620.2508726792
 10
618.2086379795
 20
620.4992601351
 10
617.6202779698
 20
620.810411282
 10
617.2589420403
 20
621.1369851307
 10
617.1796396902
 20
621.4292416052
 10
617.3944445854
 20
621.6426858382
 10
617.8706540322
 20
621.7448332982
 10
618.5357696904
 20
621.7201271729
 10
619.2885339788
 20
621.5723374562
 10
620.0143453261
 20
621.3239500002
 10
620.602705103
 20
621.0127839522
 10
620.9640410325
 20
620.6862101035
 10
621.0433431497
 20
620.3939685301
  0
LWPOLYLINE
  5
33A
330
1F
100
AcDbEntity
  8
0
  6
Continuous
 62
     7
370
    15
100
AcDbPolyline
 90
       11
 70
   128
 43
0.0
 10
617.3241322922
 20
629.0993014054
 10
617.5824141192
 20
629.3647804932
 10
618.2061923264
 20
629.5780012087
 10
619.1051076694
 20
629.6390065627
 10
620.1911671615
 20
629.541791387
 10
621.3580598651
 20
629.2959073262
 10
622.4915623261
 20
628.9254048542
 10
623.4807200326
 20
628.4665533976
 10
624.2287061705
 20
627.9642799572
 10
624.6623029529
 20
627.4677285628
 10
624.7546389295
 20
627.1509745793
  0
LWPOLYLINE
  5
33B
330
1F
100
AcDbEntity
  8
0
  6
Continuous
 62
     7
370
    15
100
AcDbPolyline
 90
        7
 70
   128
 43
0.0
 10
658.8453124805
 20
619.4123843388
 10
659.0953129871
 20
619.3454036192
 10
659.3282740159
 20
619.282982655
 10
659.5283258302
 20
619.229368277
 10
659.6818301423
 20
619.1882410721
 10
659.7783263369
 20
619.1623875575
 10
659.8112392767
 20
619.15356607
  0
LINE
  5
33C
330
1F
100
AcDbEntity
  8
0
  6
Continuous
 62
     7
370
    15
100
AcDbLine
 10
639.975083579
 20
624.4686463551
 30
0.0
 11
658.8453124805
 21
619.4123843388
 31
0.0
  0
LWPOLYLINE
  5
33D
330
1F
100
AcDbEntity
  8
0
  6
Continuous
 62
     7
370
    15
100
AcDbPolyline
 90
        7
 70
   128
 43
0.0
 10
639.0091586454
 20
624.7274646239
 10
639.0420715852
 20
624.7186431365
 10
639.1385677798
 20
624.6927896218
 10
639.2920702292
 20
624.6516624169
 10
639.4921201809
 20
624.5980629401
 10
639.7250830723
 20
624.5356419758
 10
639.975083579
 20
624.4686463551
  0
LINE
  5
33E
330
1F
100
AcDbEntity
  8
0
  6
Continuous
 62
     7
370
    15
100
AcDbLine
 10
658.0217364772
 20
619.6848222689
 30
0.0
 11
658.0087948187
 21
619.6365276055
 31
0.0
  0
LINE
  5
33F
330
1F
100
AcDbEntity
  8
0
  6
Continuous
 62
     7
370
    15
100
AcDbLine
 10
640.8245410366
 20
624.2927977519
 30
0.0
 11
658.0217364772
 21
619.6848222689
 31
0.0
  0
LINE
  5
340
330
1F
100
AcDbEntity
  8
0
  6
Continuous
 62
     7
370
    15
100
AcDbLine
 10
640.8245410366
 20
624.2927977519
 30
0.0
 11
640.8115993781
 21
624.2445030884
 31
0.0
  0
LWPOLYLINE
  5
341
330
1F
100
AcDbEntity
  8
0
  6
Continuous
 62
     7
370
    15
100
AcDbPolyline
 90
        6
 70
   128
 43
0.0
 10
605.4617525606
 20
591.9931897597
 10
605.469107215
 20
591.5974670724
 10
605.687763129
 20
591.160267003
 10
606.1093179105
 20
590.6983757095
 10
606.7175712033
 20
590.2295479254
 10
606.9383635713
 20
590.0869959669
  0
LINE
  5
342
330
1F
100
AcDbEntity
  8
0
  6
Continuous
 62
     7
370
    15
100
AcDbLine
 10
613.6057142521
 20
622.3868647294
 30
0.0
 11
605.4617525606
 21
591.9931897597
 31
0.0
  0
LWPOLYLINE
  5
343
330
1F
100
AcDbEntity
  8
0
  6
Continuous
 62
     7
370
    15
100
AcDbPolyline
 90
        9
 70
   128
 43
0.0
 10
619.6160628988
 20
622.7946946101
 10
618.5322441688
 20
623.046315618
 10
617.4706849797
 20
623.2159057335
 10
616.4721814512
 20
623.2969531493
 10
615.5751050046
 20
623.2863137202
 10
614.8139299421
 20
623.1844344811
 10
614.2179077524
 20
622.9952046351
 10
613.8099432228
 20
622.7258959488
 10
613.6057142521
 20
622.3868647294
  0
LINE
  5
344
330
1F
100
AcDbEntity
  8
0
  6
Continuous
 62
     7
370
    15
100
AcDbLine
 10
676.6056861325
 20
607.5243645982
 30
0.0
 11
619.6160628988
 21
622.7946946101
 31
0.0
  0
LWPOLYLINE
  5
345
330
1F
100
AcDbEntity
  8
0
  6
Continuous
 62
     7
370
    15
100
AcDbPolyline
 90
        9
 70
   128
 43
0.0
 10
681.6068958087
 20
604.1660079436
 10
681.5995346351
 20
604.5617306308
 10
681.3808824463
 20
604.9989307003
 10
680.9593285961
 20
605.4608219938
 10
680.3510706468
 20
605.9296497778
 10
679.5794959708
 20
606.387391098
 10
678.6742504282
 20
606.816462584
 10
677.6701133294
 20
607.2003686504
 10
676.6056861325
 20
607.5243645982
  0
LINE
  5
346
330
1F
100
AcDbEntity
  8
0
  6
Continuous
 62
     7
370
    15
100
AcDbLine
 10
677.2985305233
 20
588.0869919137
 30
0.0
 11
681.6068958087
 21
604.1660079436
 31
0.0
  0
LWPOLYLINE
  5
347
330
1F
100
AcDbEntity
  8
0
  6
Continuous
 62
     7
370
    15
100
AcDbPolyline
 90
        6
 70
   128
 43
0.0
 10
607.9370687312
 20
590.0869959669
 10
607.6122988543
 20
590.2902627067
 10
607.1320991559
 20
590.660385199
 10
606.7992928965
 20
591.0250315146
 10
606.6266694634
 20
591.3701945619
 10
606.6208631328
 20
591.6826048569
  0
LINE
  5
348
330
1F
100
AcDbEntity
  8
0
  6
Continuous
 62
     7
370
    15
100
AcDbLine
 10
676.0562020881
 20
588.0869919137
 30
0.0
 11
680.4477791829
 21
604.4765928463
 31
0.0
  0
LWPOLYLINE
  5
349
330
1F
100
AcDbEntity
  8
0
  6
Continuous
 62
     7
370
    15
100
AcDbPolyline
 90
        9
 70
   128
 43
0.0
 10
676.4994594796
 20
607.1279266552
 10
677.3397992893
 20
606.8721407728
 10
678.1325336142
 20
606.5690511541
 10
678.8472082062
 20
606.2303179578
 10
679.4563453241
 20
605.8689424471
 10
679.9365426941
 20
605.4988125042
 10
680.2693526788
 20
605.1341661887
 10
680.4419751807
 20
604.7890031414
 10
680.4477791829
 20
604.4765928463
  0
LINE
  5
34A
330
1F
100
AcDbEntity
  8
0
  6
Continuous
 62
     7
370
    15
100
AcDbLine
 10
676.4994594796
 20
607.1279266552
 30
0.0
 11
619.5098376429
 21
622.3982492165
 31
0.0
  0
LWPOLYLINE
  5
34B
330
1F
100
AcDbEntity
  8
0
  6
Continuous
 62
     7
370
    15
100
AcDbPolyline
 90
        9
 70
   128
 43
0.0
 10
614.7648252609
 20
622.0762798266
 10
614.9260586772
 20
622.343934484
 10
615.2481359259
 20
622.5565442519
 10
615.7186797882
 20
622.705943294
 10
616.3196075304
 20
622.7863797621
 10
617.0278257287
 20
622.7947691159
 10
617.8161181106
 20
622.7307835297
 10
618.6541906154
 20
622.5968965964
 10
619.5098376429
 20
622.3982492165
  0
LINE
  5
34C
330
1F
100
AcDbEntity
  8
0
  6
Continuous
 62
     7
370
    15
100
AcDbLine
 10
614.7648252609
 20
622.0762798266
 30
0.0
 11
606.6208631328
 21
591.6826048569
 31
0.0
  0
LINE
  5
34D
330
1F
100
AcDbEntity
  8
0
  6
Continuous
 62
     7
370
    15
100
AcDbLine
 10
682.6526965542
 20
608.0690020399
 30
0.0
 11
681.6068958087
 21
604.1660079436
 31
0.0
  0
LINE
  5
34E
330
1F
100
AcDbEntity
  8
0
  6
Continuous
 62
     7
370
    15
100
AcDbLine
 10
613.6057142521
 20
622.3868647294
 30
0.0
 11
614.651518752
 21
626.2898662762
 31
0.0
  0
LWPOLYLINE
  5
34F
330
1F
100
AcDbEntity
  8
0
  6
Continuous
 62
     7
370
    15
100
AcDbPolyline
 90
        9
 70
   128
 43
0.0
 10
669.8748837753
 20
616.4052555041
 10
670.4402114792
 20
616.2537852005
 10
670.9838170154
 20
616.1081263499
 10
671.4848052306
 20
615.9738817887
 10
671.9239238246
 20
615.8562222199
 10
672.2842972322
 20
615.7596626954
 10
672.5520822747
 20
615.687898703
 10
672.7169822498
 20
615.6437167601
 10
672.7726604386
 20
615.6288006978
  0
ARC
  5
350
330
1F
100
AcDbEntity
  8
0
  6
Continuous
 62
     7
370
    15
100
AcDbCircle
 10
672.2550240475
 20
613.6969489922
 30
0.0
 40
2.000000000000039
100
AcDbArc
 50
24.7655702542
 51
75.0
  0
LINE
  5
351
330
1F
100
AcDbEntity
  8
0
  6
Continuous
 62
     7
370
    15
100
AcDbLine
 10
629.8855557634
 20
627.1203675942
 30
0.0
 11
669.8748837753
 21
616.4052555041
 31
0.0
  0
ARC
  5
352
330
1F
100
AcDbEntity
  8
0
  6
Continuous
 62
     7
370
    15
100
AcDbCircle
 10
626.4701398814
 20
625.96497173
 30
0.0
 40
1.999999999999951
100
AcDbArc
 50
75.0
 51
152.937198034
  0
LWPOLYLINE
  5
353
330
1F
100
AcDbEntity
  8
0
  6
Continuous
 62
     7
370
    15
100
AcDbPolyline
 90
       10
 70
   128
 43
0.0
 10
626.9877781688
 20
627.8968224005
 10
627.0318017869
 20
627.8850206809
 10
627.162535262
 20
627.850002952
 10
627.3760065033
 20
627.7927973942
 10
627.665728849
 20
627.7151623444
 10
628.0229003696
 20
627.6194670872
 10
628.4366665004
 20
627.5085875468
 10
628.8944571806
 20
627.385936089
 10
629.382361245
 20
627.2551933007
 10
629.8855557634
 20
627.1203675942
  0
LINE
  5
354
330
1F
100
AcDbEntity
  8
0
  6
Continuous
 62
     7
370
    15
100
AcDbLine
 10
679.2958002134
 20
605.9729003982
 30
0.0
 11
674.5032887502
 21
588.0869919137
 31
0.0
  0
ARC
  5
355
330
1F
100
AcDbEntity
  8
0
  6
Continuous
 62
     7
370
    15
100
AcDbCircle
 10
608.6540297389
 20
594.4975433649
 30
0.0
 40
0.7493455654091088
100
AcDbArc
 50
176.0990407692
 51
236.6968268291
  0
LINE
  5
356
330
1F
100
AcDbEntity
  8
0
  6
Continuous
 62
     7
370
    15
100
AcDbLine
 10
607.9064203022
 20
594.5485228376
 30
0.0
 11
615.4302795712
 21
622.6279506163
 31
0.0
  0
LINE
  5
357
330
1F
100
AcDbEntity
  8
0
  6
Continuous
 62
     7
370
    15
100
AcDbLine
 10
674.4808066232
 20
605.389758356
 30
0.0
 11
669.8445450111
 21
588.0869919137
 31
0.0
  0
ARC
  5
358
330
1F
100
AcDbEntity
  8
0
  6
Continuous
 62
     7
370
    15
100
AcDbCircle
 10
675.0482565301
 20
610.5293386202
 30
0.0
 40
3.531761732341066
100
AcDbArc
 50
223.0567946764
 51
243.2718705102
  0
LINE
  5
359
330
1F
100
AcDbEntity
  8
0
  6
Continuous
 62
     7
370
    15
100
AcDbLine
 10
672.3544928773
 20
608.2385623531
 30
0.0
 11
672.4676783724
 21
608.1181237177
 31
0.0
  0
LINE
  5
35A
330
1F
100
AcDbEntity
  8
0
  6
Continuous
 62
     7
370
    15
100
AcDbLine
 10
622.5306406213
 20
621.4987108187
 30
0.0
 11
622.688878846
 21
621.5464243369
 31
0.0
  0
ARC
  5
35B
330
1F
100
AcDbEntity
  8
0
  6
Continuous
 62
     7
370
    15
100
AcDbCircle
 10
621.5014721189
 20
624.8767243803
 30
0.0
 40
3.531311856616743
100
AcDbArc
 50
266.7265067665
 51
286.9442368608
  0
LINE
  5
35C
330
1F
100
AcDbEntity
  8
0
  6
Continuous
 62
     7
370
    15
100
AcDbLine
 10
612.519836106
 20
594.3793574051
 30
0.0
 11
619.4230337223
 21
620.1424369292
 31
0.0
  0
LWPOLYLINE
  5
35D
330
1F
100
AcDbEntity
  8
0
  6
Continuous
 62
     7
370
    15
100
AcDbPolyline
 90
        9
 70
   128
 43
0.0
 10
613.5770588826
 20
593.2772228198
 10
613.3192896905
 20
593.4163102583
 10
613.0913699108
 20
593.5597637372
 10
612.8970613299
 20
593.7051990704
 10
612.7395708409
 20
593.8502395229
 10
612.6214977648
 20
593.9924711065
 10
612.544790778
 20
594.1295543389
 10
612.5107161297
 20
594.2592316942
 10
612.519836106
 20
594.3793574051
  0
ARC
  5
35E
330
1F
100
AcDbEntity
  8
0
  6
Continuous
 62
     7
370
    15
100
AcDbCircle
 10
612.0404936311
 20
589.8927183666
 30
0.0
 40
3.71697500199353
100
AcDbArc
 50
43.3125842649
 51
65.5819481475
  0
LINE
  5
35F
330
1F
100
AcDbEntity
  8
0
  6
Continuous
 62
     7
370
    15
100
AcDbLine
 10
614.8655026864
 20
592.3151367979
 30
0.0
 11
614.7450468216
 21
592.4424821214
 31
0.0
  0
LINE
  5
360
330
1F
100
AcDbEntity
  8
0
  6
Continuous
 62
     7
370
    15
100
AcDbLine
 10
614.4445230257
 20
590.7440179662
 30
0.0
 11
613.1888194304
 21
591.0804787354
 31
0.0
  0
LWPOLYLINE
  5
361
330
1F
100
AcDbEntity
  8
0
  6
Continuous
 62
     7
370
    15
100
AcDbPolyline
 90
        7
 70
   128
 43
0.0
 10
608.1417915939
 20
593.495085247
 10
608.1456621705
 20
593.286811717
 10
608.2607447697
 20
593.0567005352
 10
608.4826156093
 20
592.8136029915
 10
608.8027484311
 20
592.5668546633
 10
609.2088413952
 20
592.3259326891
 10
609.360694938
 20
592.2485435085
  0
LINE
  5
362
330
1F
100
AcDbEntity
  8
0
  6
Continuous
 62
     7
370
    15
100
AcDbLine
 10
608.1417915939
 20
593.495085247
 30
0.0
 11
615.9811271882
 21
622.751883574
 31
0.0
  0
LINE
  5
363
330
1F
100
AcDbEntity
  8
0
  6
Continuous
 62
     7
370
    15
100
AcDbLine
 10
678.8471486016
 20
606.2303477602
 30
0.0
 11
673.9856484874
 21
588.0869919137
 31
0.0
  0
LWPOLYLINE
  5
364
330
1F
100
AcDbEntity
  8
0
  6
Continuous
 62
     7
370
    15
100
AcDbPolyline
 90
        5
 70
   128
 43
0.0
 10
611.7438350866
 20
593.4151330666
 10
612.4696460847
 20
593.1667456107
 10
613.0580058616
 20
592.8555870132
 10
613.4193419075
 20
592.5290206151
 10
613.4986440829
 20
592.2367641406
  0
LWPOLYLINE
  5
365
330
1F
100
AcDbEntity
  8
0
  6
Continuous
 62
     7
370
    15
100
AcDbPolyline
 90
        5
 70
   128
 43
0.0
 10
609.6349405652
 20
593.2720372157
 10
609.8497454604
 20
593.4854888992
 10
610.3259551401
 20
593.5876363592
 10
610.9910707983
 20
593.5629302339
 10
611.7438350866
 20
593.4151330666
  0
LWPOLYLINE
  5
366
330
1F
100
AcDbEntity
  8
0
  6
Continuous
 62
     7
370
    15
100
AcDbPolyline
 90
        3
 70
   128
 43
0.0
 10
621.1905978216
 20
620.943523355
 10
621.3401444784
 20
620.9485599474
 10
621.5244862778
 20
620.9432551341
  0
ARC
  5
367
330
1F
100
AcDbEntity
  8
0
  6
Continuous
 62
     7
370
    15
100
AcDbCircle
 10
621.9893019155
 20
625.6997962245
 30
0.0
 40
4.779198334671558
100
AcDbArc
 50
264.4186999464
 51
286.6869743631
  0
ARC
  5
368
330
1F
100
AcDbEntity
  8
0
  6
Continuous
 62
     7
370
    15
100
AcDbCircle
 10
623.870506477
 20
619.4447862333
 30
0.0
 40
1.752583626147367
100
AcDbArc
 50
85.3246752757
 51
106.879925885
  0
ARC
  5
369
330
1F
100
AcDbEntity
  8
0
  6
Continuous
 62
     7
370
    15
100
AcDbCircle
 10
670.2803872435
 20
607.0093171944
 30
0.0
 40
1.752551309411742
100
AcDbArc
 50
43.1205112122
 51
64.6761126188
  0
ARC
  5
36A
330
1F
100
AcDbEntity
  8
0
  6
Continuous
 62
     7
370
    15
100
AcDbCircle
 10
675.0369745566
 20
611.4856220543
 30
0.0
 40
4.779104101483481
100
AcDbArc
 50
223.3128041935
 51
245.5815405226
  0
LWPOLYLINE
  5
36B
330
1F
100
AcDbEntity
  8
0
  6
Continuous
 62
     7
370
    15
100
AcDbPolyline
 90
        3
 70
   128
 43
0.0
 10
673.0613033815
 20
607.134006329
 10
673.2236031039
 20
607.0464322047
 10
673.3505907996
 20
606.9672995882
  0
LINE
  5
36C
330
1F
100
AcDbEntity
  8
0
  6
Continuous
 62
     7
370
    15
100
AcDbLine
 10
673.5691982849
 20
605.8512920217
 30
0.0
 11
668.8092682107
 21
588.0869919137
 31
0.0
  0
ARC
  5
36D
330
1F
100
AcDbEntity
  8
0
  6
Continuous
 62
     7
370
    15
100
AcDbCircle
 10
611.1364793365
 20
587.3189593478
 30
0.0
 40
6.81125097302218
100
AcDbArc
 50
55.1854709433
 51
63.7274680978
  0
LWPOLYLINE
  5
36E
330
1F
100
AcDbEntity
  8
0
  6
Continuous
 62
     7
370
    15
100
AcDbPolyline
 90
        9
 70
   128
 43
0.0
 10
614.1514207065
 20
593.4265995101
 10
613.9891216026
 20
593.5141736345
 10
613.8456165736
 20
593.6044970231
 10
613.7232740821
 20
593.6960721092
 10
613.6241134027
 20
593.787386425
 10
613.5497710729
 20
593.8769424037
 10
613.5014741394
 20
593.96325738
 10
613.4800197269
 20
594.0449008421
 10
613.4857619127
 20
594.1205391364
  0
LINE
  5
36F
330
1F
100
AcDbEntity
  8
0
  6
Continuous
 62
     7
370
    15
100
AcDbLine
 10
613.4857619127
 20
594.1205391364
 30
0.0
 11
620.4432775794
 21
620.0863340573
 31
0.0
  0
LINE
  5
370
330
1F
100
AcDbEntity
  8
0
  6
Continuous
 62
     7
370
    15
100
AcDbLine
 10
671.3877539678
 20
604.6646902041
 30
0.0
 11
666.94576997
 21
588.0869919137
 31
0.0
  0
ARC
  5
371
330
1F
100
AcDbEntity
  8
0
  6
Continuous
 62
     7
370
    15
100
AcDbCircle
 10
643.1196498533
 20
598.4638721864
 30
0.0
 40
11.00000000000009
100
AcDbArc
 50
301.2808987196
 51
229.5996490148
  0
LWPOLYLINE
  5
372
330
1F
100
AcDbEntity
  8
0
  6
Continuous
 62
     7
370
    15
100
AcDbPolyline
 90
        3
 70
   128
 43
0.0
 10
614.4130704288
 20
590.6266340689
 10
614.3492042556
 20
590.2397999243
 10
614.3450431064
 20
590.0869959669
  0
LINE
  5
373
330
1F
100
AcDbEntity
  8
0
  6
Continuous
 62
     7
370
    15
100
AcDbLine
 10
614.4130704288
 20
590.6266340689
 30
0.0
 11
621.7391649789
 21
617.967984982
 31
0.0
  0
LINE
  5
374
330
1F
100
AcDbEntity
  8
0
  6
Continuous
 62
     7
370
    15
100
AcDbLine
 10
572.3199989243
 20
534.747626044
 30
0.0
 11
566.1943625255
 21
530.9829668776
 31
0.0
  0
LINE
  5
375
330
1F
100
AcDbEntity
  8
0
  6
Continuous
 62
     7
370
    15
100
AcDbLine
 10
566.1943625255
 20
530.9829668776
 30
0.0
 11
559.8712522133
 21
534.4055959658
 31
0.0
  0
LINE
  5
376
330
1F
100
AcDbEntity
  8
0
  6
Continuous
 62
     7
370
    15
100
AcDbLine
 10
559.8712522133
 20
534.4055959658
 30
0.0
 11
559.6737820251
 21
541.5928842203
 31
0.0
  0
LINE
  5
377
330
1F
100
AcDbEntity
  8
0
  6
Continuous
 62
     7
370
    15
100
AcDbLine
 10
559.6737820251
 20
541.5928842203
 30
0.0
 11
565.7994221492
 21
545.3575433866
 31
0.0
  0
LINE
  5
378
330
1F
100
AcDbEntity
  8
0
  6
Continuous
 62
     7
370
    15
100
AcDbLine
 10
572.1225324614
 20
541.9349142985
 30
0.0
 11
572.3199989243
 21
534.747626044
 31
0.0
  0
LINE
  5
379
330
1F
100
AcDbEntity
  8
0
  6
Continuous
 62
     7
370
    15
100
AcDbLine
 10
565.7994221492
 20
545.3575433866
 30
0.0
 11
572.1225324614
 21
541.9349142985
 31
0.0
  0
ARC
  5
37A
330
1F
100
AcDbEntity
  8
0
  6
Continuous
 62
     7
370
    15
100
AcDbCircle
 10
565.9968918721
 20
538.1702555974
 30
0.0
 40
7.190000000000032
100
AcDbArc
 50
91.5737995268
 51
151.5737995268
  0
ARC
  5
37B
330
1F
100
AcDbEntity
  8
0
  6
Continuous
 62
     7
370
    15
100
AcDbCircle
 10
565.9968918721
 20
538.1702555974
 30
0.0
 40
7.190000000000001
100
AcDbArc
 50
151.5737995268
 51
211.5737995268
  0
ARC
  5
37C
330
1F
100
AcDbEntity
  8
0
  6
Continuous
 62
     7
370
    15
100
AcDbCircle
 10
565.9968918721
 20
538.1702555974
 30
0.0
 40
7.190000000000032
100
AcDbArc
 50
31.5737995268
 51
91.5737995268
  0
ARC
  5
37D
330
1F
100
AcDbEntity
  8
0
  6
Continuous
 62
     7
370
    15
100
AcDbCircle
 10
565.9968918721
 20
538.1702555974
 30
0.0
 40
7.19000000000002
100
AcDbArc
 50
331.5737995268
 51
31.5737995268
  0
ARC
  5
37E
330
1F
100
AcDbEntity
  8
0
  6
Continuous
 62
     7
370
    15
100
AcDbCircle
 10
565.9968918721
 20
538.1702555974
 30
0.0
 40
7.190000000000032
100
AcDbArc
 50
211.5737995268
 51
271.5737995268
  0
ARC
  5
37F
330
1F
100
AcDbEntity
  8
0
  6
Continuous
 62
     7
370
    15
100
AcDbCircle
 10
565.9968918721
 20
538.1702555974
 30
0.0
 40
7.190000000000032
100
AcDbArc
 50
271.5737995268
 51
331.5737995268
  0
LINE
  5
380
330
1F
100
AcDbEntity
  8
0
  6
Continuous
 62
     7
370
    15
100
AcDbLine
 10
668.2890537722
 20
534.4055959658
 30
0.0
 11
661.96594346
 21
530.9829668776
 31
0.0
  0
LINE
  5
381
330
1F
100
AcDbEntity
  8
0
  6
Continuous
 62
     7
370
    15
100
AcDbLine
 10
661.96594346
 20
530.9829668776
 30
0.0
 11
655.8403070612
 21
534.747626044
 31
0.0
  0
LINE
  5
382
330
1F
100
AcDbEntity
  8
0
  6
Continuous
 62
     7
370
    15
100
AcDbLine
 10
656.0377735241
 20
541.9349142985
 30
0.0
 11
662.3608838363
 21
545.3575433866
 31
0.0
  0
LINE
  5
383
330
1F
100
AcDbEntity
  8
0
  6
Continuous
 62
     7
370
    15
100
AcDbLine
 10
662.3608838363
 20
545.3575433866
 30
0.0
 11
668.4865239604
 21
541.5928842203
 31
0.0
  0
LINE
  5
384
330
1F
100
AcDbEntity
  8
0
  6
Continuous
 62
     7
370
    15
100
AcDbLine
 10
655.8403070612
 20
534.747626044
 30
0.0
 11
656.0377735241
 21
541.9349142985
 31
0.0
  0
LINE
  5
385
330
1F
100
AcDbEntity
  8
0
  6
Continuous
 62
     7
370
    15
100
AcDbLine
 10
668.4865239604
 20
541.5928842203
 30
0.0
 11
668.2890537722
 21
534.4055959658
 31
0.0
  0
ARC
  5
386
330
1F
100
AcDbEntity
  8
0
  6
Continuous
 62
     7
370
    15
100
AcDbCircle
 10
662.1634141134
 20
538.1702555974
 30
0.0
 40
7.19000000000002
100
AcDbArc
 50
28.4262004732
 51
88.4262004732
  0
ARC
  5
387
330
1F
100
AcDbEntity
  8
0
  6
Continuous
 62
     7
370
    15
100
AcDbCircle
 10
662.1634141134
 20
538.1702555974
 30
0.0
 40
7.189999999999926
100
AcDbArc
 50
88.4262004732
 51
148.4262004732
  0
ARC
  5
388
330
1F
100
AcDbEntity
  8
0
  6
Continuous
 62
     7
370
    15
100
AcDbCircle
 10
662.1634141134
 20
538.1702555974
 30
0.0
 40
7.190000000000032
100
AcDbArc
 50
208.4262004732
 51
268.4262004732
  0
ARC
  5
389
330
1F
100
AcDbEntity
  8
0
  6
Continuous
 62
     7
370
    15
100
AcDbCircle
 10
662.1634141134
 20
538.1702555974
 30
0.0
 40
7.189999999999974
100
AcDbArc
 50
148.4262004732
 51
208.4262004732
  0
ARC
  5
38A
330
1F
100
AcDbEntity
  8
0
  6
Continuous
 62
     7
370
    15
100
AcDbCircle
 10
662.1634141134
 20
538.1702555974
 30
0.0
 40
7.190000000000098
100
AcDbArc
 50
328.4262004732
 51
28.4262004732
  0
ARC
  5
38B
330
1F
100
AcDbEntity
  8
0
  6
Continuous
 62
     7
370
    15
100
AcDbCircle
 10
662.1634141134
 20
538.1702555974
 30
0.0
 40
7.190000000000098
100
AcDbArc
 50
268.4262004732
 51
328.4262004732
  0
LINE
  5
38C
330
1F
100
AcDbEntity
  8
0
  6
Continuous
 62
     7
370
    15
100
AcDbLine
 10
654.9761253937
 20
442.2012040095
 30
0.0
 11
658.74078456
 21
448.3268404083
 31
0.0
  0
LINE
  5
38D
330
1F
100
AcDbEntity
  8
0
  6
Continuous
 62
     7
370
    15
100
AcDbLine
 10
658.74078456
 20
448.3268404083
 30
0.0
 11
665.9280728145
 21
448.1293739454
 31
0.0
  0
LINE
  5
38E
330
1F
100
AcDbEntity
  8
0
  6
Continuous
 62
     7
370
    15
100
AcDbLine
 10
669.3507019027
 20
441.8062636332
 30
0.0
 11
665.5860427363
 21
435.6806235091
 31
0.0
  0
LINE
  5
38F
330
1F
100
AcDbEntity
  8
0
  6
Continuous
 62
     7
370
    15
100
AcDbLine
 10
658.3987544818
 20
435.8780936973
 30
0.0
 11
654.9761253937
 21
442.2012040095
 31
0.0
  0
LINE
  5
390
330
1F
100
AcDbEntity
  8
0
  6
Continuous
 62
     7
370
    15
100
AcDbLine
 10
665.5860427363
 20
435.6806235091
 30
0.0
 11
658.3987544818
 21
435.8780936973
 31
0.0
  0
LINE
  5
391
330
1F
100
AcDbEntity
  8
0
  6
Continuous
 62
     7
370
    15
100
AcDbLine
 10
665.9280728145
 20
448.1293739454
 30
0.0
 11
669.3507019027
 21
441.8062636332
 31
0.0
  0
ARC
  5
392
330
1F
100
AcDbEntity
  8
0
  6
Continuous
 62
     7
370
    15
100
AcDbCircle
 10
662.1634141134
 20
442.0037333561
 30
0.0
 40
7.190000000000034
100
AcDbArc
 50
358.4262004732
 51
58.4262004732
  0
ARC
  5
393
330
1F
100
AcDbEntity
  8
0
  6
Continuous
 62
     7
370
    15
100
AcDbCircle
 10
662.1634141134
 20
442.0037333561
 30
0.0
 40
7.190000000000074
100
AcDbArc
 50
298.4262004732
 51
358.4262004732
  0
ARC
  5
394
330
1F
100
AcDbEntity
  8
0
  6
Continuous
 62
     7
370
    15
100
AcDbCircle
 10
662.1634141134
 20
442.0037333561
 30
0.0
 40
7.189999999999952
100
AcDbArc
 50
178.4262004732
 51
238.4262004732
  0
ARC
  5
395
330
1F
100
AcDbEntity
  8
0
  6
Continuous
 62
     7
370
    15
100
AcDbCircle
 10
662.1634141134
 20
442.0037333561
 30
0.0
 40
7.189999999999974
100
AcDbArc
 50
118.4262004732
 51
178.4262004732
  0
ARC
  5
396
330
1F
100
AcDbEntity
  8
0
  6
Continuous
 62
     7
370
    15
100
AcDbCircle
 10
662.1634141134
 20
442.0037333561
 30
0.0
 40
7.190000000000012
100
AcDbArc
 50
58.4262004732
 51
118.4262004732
  0
ARC
  5
397
330
1F
100
AcDbEntity
  8
0
  6
Continuous
 62
     7
370
    15
100
AcDbCircle
 10
662.1634141134
 20
442.0037333561
 30
0.0
 40
7.190000000000074
100
AcDbArc
 50
238.4262004732
 51
298.4262004732
  0
LINE
  5
398
330
1F
100
AcDbEntity
  8
0
  6
Continuous
 62
     7
370
    15
100
AcDbLine
 10
562.5742632492
 20
435.6806235091
 30
0.0
 11
558.8096040829
 21
441.8062636332
 31
0.0
  0
LINE
  5
399
330
1F
100
AcDbEntity
  8
0
  6
Continuous
 62
     7
370
    15
100
AcDbLine
 10
562.232233171
 20
448.1293739454
 30
0.0
 11
569.4195214255
 21
448.3268404083
 31
0.0
  0
LINE
  5
39A
330
1F
100
AcDbEntity
  8
0
  6
Continuous
 62
     7
370
    15
100
AcDbLine
 10
558.8096040829
 20
441.8062636332
 30
0.0
 11
562.232233171
 21
448.1293739454
 31
0.0
  0
LINE
  5
39B
330
1F
100
AcDbEntity
  8
0
  6
Continuous
 62
     7
370
    15
100
AcDbLine
 10
569.4195214255
 20
448.3268404083
 30
0.0
 11
573.1841805918
 21
442.2012040095
 31
0.0
  0
LINE
  5
39C
330
1F
100
AcDbEntity
  8
0
  6
Continuous
 62
     7
370
    15
100
AcDbLine
 10
569.7615515037
 20
435.8780936973
 30
0.0
 11
562.5742632492
 21
435.6806235091
 31
0.0
  0
LINE
  5
39D
330
1F
100
AcDbEntity
  8
0
  6
Continuous
 62
     7
370
    15
100
AcDbLine
 10
573.1841805918
 20
442.2012040095
 30
0.0
 11
569.7615515037
 21
435.8780936973
 31
0.0
  0
ARC
  5
39E
330
1F
100
AcDbEntity
  8
0
  6
Continuous
 62
     7
370
    15
100
AcDbCircle
 10
565.9968918721
 20
442.0037333561
 30
0.0
 40
7.190000000000028
100
AcDbArc
 50
61.5737995268
 51
121.5737995268
  0
ARC
  5
39F
330
1F
100
AcDbEntity
  8
0
  6
Continuous
 62
     7
370
    15
100
AcDbCircle
 10
565.9968918721
 20
442.0037333561
 30
0.0
 40
7.190000000000031
100
AcDbArc
 50
301.5737995268
 51
1.5737995268
  0
ARC
  5
3A0
330
1F
100
AcDbEntity
  8
0
  6
Continuous
 62
     7
370
    15
100
AcDbCircle
 10
565.9968918721
 20
442.0037333561
 30
0.0
 40
7.190000000000031
100
AcDbArc
 50
121.5737995268
 51
181.5737995268
  0
ARC
  5
3A1
330
1F
100
AcDbEntity
  8
0
  6
Continuous
 62
     7
370
    15
100
AcDbCircle
 10
565.9968918721
 20
442.0037333561
 30
0.0
 40
7.18999999999999
100
AcDbArc
 50
241.5737995268
 51
301.5737995268
  0
ARC
  5
3A2
330
1F
100
AcDbEntity
  8
0
  6
Continuous
 62
     7
370
    15
100
AcDbCircle
 10
565.9968918721
 20
442.0037333561
 30
0.0
 40
7.190000000000031
100
AcDbArc
 50
181.5737995268
 51
241.5737995268
  0
ARC
  5
3A3
330
1F
100
AcDbEntity
  8
0
  6
Continuous
 62
     7
370
    15
100
AcDbCircle
 10
565.9968918721
 20
442.0037333561
 30
0.0
 40
7.190000000000031
100
AcDbArc
 50
1.5737995268
 51
61.5737995268
  0
ARC
  5
3A4
330
1F
100
AcDbEntity
  8
0
  6
Continuous
 62
     7
370
    15
100
AcDbCircle
 10
603.0915225048
 20
529.5869944767
 30
0.0
 40
5.000000000000044
100
AcDbArc
 50
285.5462043307
 51
357.3947487349
  0
ARC
  5
3A5
330
1F
100
AcDbEntity
  8
0
  6
Continuous
 62
     7
370
    15
100
AcDbCircle
 10
653.7824716862
 20
479.8534276321
 30
0.0
 40
5.000000000000059
100
AcDbArc
 50
165.5462043307
 51
237.3947487349
  0
ARC
  5
3A6
330
1F
100
AcDbEntity
  8
0
  6
Continuous
 62
     7
370
    15
100
AcDbCircle
 10
614.0801529928
 20
490.0869944767
 30
0.0
 40
35.99999999999998
100
AcDbArc
 50
105.5462043307
 51
194.4537956693
  0
ARC
  5
3A7
330
1F
100
AcDbEntity
  8
0
  6
Continuous
 62
     7
370
    15
100
AcDbCircle
 10
647.8551437403
 20
470.5869944767
 30
0.0
 40
6.00000000000002
100
AcDbArc
 50
242.6052512651
 51
57.3947487349
  0
ARC
  5
3A8
330
1F
100
AcDbEntity
  8
0
  6
Continuous
 62
     7
370
    15
100
AcDbCircle
 10
574.3778342993
 20
479.8534276321
 30
0.0
 40
5.000000000000043
100
AcDbArc
 50
302.6052512651
 51
14.4537956693
  0
ARC
  5
3A9
330
1F
100
AcDbEntity
  8
0
  6
Continuous
 62
     7
370
    15
100
AcDbCircle
 10
642.7938411983
 20
460.8205613214
 30
0.0
 40
5.000000000000036
100
AcDbArc
 50
62.6052512651
 51
134.4537956693
  0
ARC
  5
3AA
330
1F
100
AcDbEntity
  8
0
  6
Continuous
 62
     7
370
    15
100
AcDbCircle
 10
580.3051622452
 20
470.5869944767
 30
0.0
 40
6.00000000000007
100
AcDbArc
 50
122.6052512651
 51
297.3947487349
  0
ARC
  5
3AB
330
1F
100
AcDbEntity
  8
0
  6
Continuous
 62
     7
370
    15
100
AcDbCircle
 10
614.0801529928
 20
490.0869944767
 30
0.0
 40
36.00000000000009
100
AcDbArc
 50
225.5462043307
 51
314.4537956693
  0
ARC
  5
3AC
330
1F
100
AcDbEntity
  8
0
  6
Continuous
 62
     7
370
    15
100
AcDbCircle
 10
585.3664647872
 20
460.8205613214
 30
0.0
 40
4.999999999999991
100
AcDbArc
 50
45.5462043307
 51
117.3947487349
  0
ARC
  5
3AD
330
1F
100
AcDbEntity
  8
0
  6
Continuous
 62
     7
370
    15
100
AcDbCircle
 10
614.0801529928
 20
490.0869944767
 30
0.0
 40
35.99999999999999
100
AcDbArc
 50
345.5462043307
 51
74.4537956693
  0
ARC
  5
3AE
330
1F
100
AcDbEntity
  8
0
  6
Continuous
 62
     7
370
    15
100
AcDbCircle
 10
625.0687834807
 20
529.5869944767
 30
0.0
 40
5.000000000000044
100
AcDbArc
 50
182.6052512651
 51
254.4537956693
  0
ARC
  5
3AF
330
1F
100
AcDbEntity
  8
0
  6
Continuous
 62
     7
370
    15
100
AcDbCircle
 10
614.0801529928
 20
529.0869944767
 30
0.0
 40
6.000000000000078
100
AcDbArc
 50
2.6052512651
 51
177.3947487349
  0
CIRCLE
  5
3B0
330
1F
100
AcDbEntity
  8
0
  6
Continuous
 62
     7
370
    15
100
AcDbCircle
 10
614.0801529928
 20
490.0869944767
 30
0.0
 40
25.0
  0
CIRCLE
  5
3B1
330
1F
100
AcDbEntity
  8
0
  6
Continuous
 62
     7
370
    15
100
AcDbCircle
 10
614.0801529928
 20
529.0869944767
 30
0.0
 40
2.5
  0
CIRCLE
  5
3B2
330
1F
100
AcDbEntity
  8
0
  6
Continuous
 62
     7
370
    15
100
AcDbCircle
 10
647.8551437403
 20
470.5869944767
 30
0.0
 40
2.5
  0
CIRCLE
  5
3B3
330
1F
100
AcDbEntity
  8
0
  6
Continuous
 62
     7
370
    15
100
AcDbCircle
 10
580.3051622452
 20
470.5869944767
 30
0.0
 40
2.5
  0
CIRCLE
  5
3B4
330
1F
100
AcDbEntity
  8
0
  6
Continuous
 62
     7
370
    15
100
AcDbCircle
 10
614.0801529928
 20
529.0869944767
 30
0.0
 40
2.099999999999909
  0
CIRCLE
  5
3B5
330
1F
100
AcDbEntity
  8
0
  6
Continuous
 62
     7
370
    15
100
AcDbCircle
 10
580.3051622452
 20
470.5869944767
 30
0.0
 40
2.100000000000023
  0
CIRCLE
  5
3B6
330
1F
100
AcDbEntity
  8
0
  6
Continuous
 62
     7
370
    15
100
AcDbCircle
 10
647.8551437403
 20
470.5869944767
 30
0.0
 40
2.100000000000023
  0
LINE
  5
3B7
330
1F
100
AcDbEntity
  8
0
  6
Continuous
 62
     7
370
    15
100
AcDbLine
 10
564.2624716802
 20
551.0610075371
 30
0.0
 11
582.5738641961
 21
541.1492468492
 31
0.0
  0
SPLINE
  5
3B8
330
1F
100
AcDbEntity
  8
0
  6
Continuous
 62
     7
370
    15
100
AcDbSpline
210
0.0
220
0.0
230
1.0
 70
     8
 71
     3
 72
    12
 73
     8
 74
     0
 42
0.00000001
 43
0.00000001
 12
1.0
 22
0.0
 32
0.0
 13
1.0
 23
0.0
 33
0.0
 40
0.0
 40
0.0
 40
0.0
 40
0.0
 40
0.216386396944684
 40
0.4756578145016053
 40
0.7739606167762869
 40
0.9966397141085005
 40
1.0
 40
1.0
 40
1.0
 40
1.0
 10
582.5738641960901
 20
541.1492468492487
 30
0.0
 10
582.759383123485
 20
541.015971281878
 30
0.0
 10
583.1671884606011
 20
540.7230066316179
 30
0.0
 10
583.7135099216733
 20
539.8663873905452
 30
0.0
 10
584.2116649441024
 20
538.8246717509778
 30
0.0
 10
584.5293991886874
 20
538.0702893896798
 30
0.0
 10
584.6662219320259
 20
537.7461953213301
 30
0.0
 10
584.6682559294981
 20
537.7413773612478
 30
0.0
  0
ARC
  5
3B9
330
1F
100
AcDbEntity
  8
0
  6
Continuous
 62
     7
370
    15
100
AcDbCircle
 10
614.0801529928
 20
490.0869944767
 30
0.0
 40
61.00000000000006
100
AcDbArc
 50
237.7860739307
 51
302.2139260693
  0
SPLINE
  5
3BA
330
1F
100
AcDbEntity
  8
0
  6
Continuous
 62
     7
370
    15
100
AcDbSpline
210
0.0
220
0.0
230
1.0
 70
     8
 71
     3
 72
    12
 73
     8
 74
     0
 42
0.00000001
 43
0.00000001
 12
1.0
 22
0.0
 32
0.0
 13
1.0
 23
0.0
 33
0.0
 40
0.0
 40
0.0
 40
0.0
 40
0.0
 40
0.0033602858914995
 40
0.2260393832237132
 40
0.5243421854983947
 40
0.783613603055316
 40
1.0
 40
1.0
 40
1.0
 40
1.0
 10
584.6682559294981
 20
442.432611592243
 30
0.0
 10
584.6662219320259
 20
442.4277936321607
 30
0.0
 10
584.5293991886874
 20
442.1036995638109
 30
0.0
 10
584.2116649441024
 20
441.3493172025129
 30
0.0
 10
583.7135099216733
 20
440.3076015629454
 30
0.0
 10
583.1671884606011
 20
439.450982321873
 30
0.0
 10
582.759383123485
 20
439.1580176716127
 30
0.0
 10
582.5738641960901
 20
439.0247421042421
 30
0.0
  0
SPLINE
  5
3BB
330
1F
100
AcDbEntity
  8
0
  6
Continuous
 62
     7
370
    15
100
AcDbSpline
210
0.0
220
0.0
230
1.0
 70
     8
 71
     3
 72
    12
 73
     8
 74
     0
 42
0.00000001
 43
0.00000001
 12
1.0
 22
0.0
 32
0.0
 13
1.0
 23
0.0
 33
0.0
 40
0.0
 40
0.0
 40
0.0
 40
0.0
 40
0.216386396944684
 40
0.4756578145016053
 40
0.7739606167762869
 40
0.9966397141085005
 40
1.0
 40
1.0
 40
1.0
 40
1.0
 10
645.5864417894167
 20
439.0247421042421
 30
0.0
 10
645.4009228620216
 20
439.1580176716127
 30
0.0
 10
644.9931175249056
 20
439.4509823218729
 30
0.0
 10
644.4467960638333
 20
440.3076015629454
 30
0.0
 10
643.9486410414042
 20
441.349317202513
 30
0.0
 10
643.6309067968192
 20
442.1036995638109
 30
0.0
 10
643.4940840534807
 20
442.4277936321607
 30
0.0
 10
643.4920500560087
 20
442.432611592243
 30
0.0
  0
ARC
  5
3BC
330
1F
100
AcDbEntity
  8
0
  6
Continuous
 62
     7
370
    15
100
AcDbCircle
 10
614.0801529928
 20
490.0869944767
 30
0.0
 40
60.99999999999999
100
AcDbArc
 50
327.7860739307
 51
32.2139260693
  0
SPLINE
  5
3BD
330
1F
100
AcDbEntity
  8
0
  6
Continuous
 62
     7
370
    15
100
AcDbSpline
210
0.0
220
0.0
230
1.0
 70
     8
 71
     3
 72
    12
 73
     8
 74
     0
 42
0.00000001
 43
0.00000001
 12
1.0
 22
0.0
 32
0.0
 13
1.0
 23
0.0
 33
0.0
 40
0.0
 40
0.0
 40
0.0
 40
0.0
 40
0.0033602858914995
 40
0.2260393832237132
 40
0.5243421854983947
 40
0.783613603055316
 40
1.0
 40
1.0
 40
1.0
 40
1.0
 10
661.7345358772558
 20
460.6750974134901
 30
0.0
 10
661.7393538373381
 20
460.673063416018
 30
0.0
 10
662.0634479056878
 20
460.5362406726795
 30
0.0
 10
662.8178302669858
 20
460.2185064280944
 30
0.0
 10
663.8595459065533
 20
459.7203514056654
 30
0.0
 10
664.7161651476257
 20
459.174029944593
 30
0.0
 10
665.009129797886
 20
458.7662246074771
 30
0.0
 10
665.1424053652566
 20
458.5807056800821
 30
0.0
  0
SPLINE
  5
3BE
330
1F
100
AcDbEntity
  8
0
  6
Continuous
 62
     7
370
    15
100
AcDbSpline
210
0.0
220
0.0
230
1.0
 70
     8
 71
     3
 72
    12
 73
     8
 74
     0
 42
0.00000001
 43
0.00000001
 12
1.0
 22
0.0
 32
0.0
 13
1.0
 23
0.0
 33
0.0
 40
0.0
 40
0.0
 40
0.0
 40
0.0
 40
0.216386396944684
 40
0.4756578145016053
 40
0.7739606167762869
 40
0.9966397141085005
 40
1.0
 40
1.0
 40
1.0
 40
1.0
 10
665.1424053652566
 20
521.5932832734087
 30
0.0
 10
665.009129797886
 20
521.4077643460138
 30
0.0
 10
664.7161651476258
 20
520.9999590088977
 30
0.0
 10
663.8595459065533
 20
520.4536375478253
 30
0.0
 10
662.8178302669858
 20
519.9554825253963
 30
0.0
 10
662.0634479056878
 20
519.6377482808113
 30
0.0
 10
661.7393538373381
 20
519.5009255374728
 30
0.0
 10
661.7345358772558
 20
519.4988915400007
 30
0.0
  0
LINE
  5
3BF
330
1F
100
AcDbEntity
  8
0
  6
Continuous
 62
     7
370
    15
100
AcDbLine
 10
675.0541660531
 20
539.9046757893
 30
0.0
 11
665.1424053653
 21
521.5932832734
 31
0.0
  0
ARC
  5
3C0
330
1F
100
AcDbEntity
  8
0
  6
Continuous
 62
     7
370
    15
100
AcDbCircle
 10
614.0801529928
 20
490.0869944767
 30
0.0
 40
61.00000000000004
100
AcDbArc
 50
147.7860739307
 51
212.2139260693
  0
SPLINE
  5
3C1
330
1F
100
AcDbEntity
  8
0
  6
Continuous
 62
     7
370
    15
100
AcDbSpline
210
0.0
220
0.0
230
1.0
 70
     8
 71
     3
 72
    12
 73
     8
 74
     0
 42
0.00000001
 43
0.00000001
 12
1.0
 22
0.0
 32
0.0
 13
1.0
 23
0.0
 33
0.0
 40
0.0
 40
0.0
 40
0.0
 40
0.0
 40
0.0033602858914995
 40
0.2260393832237132
 40
0.5243421854983947
 40
0.783613603055316
 40
1.0
 40
1.0
 40
1.0
 40
1.0
 10
566.425770108251
 20
519.4988915400007
 30
0.0
 10
566.4209521481687
 20
519.5009255374728
 30
0.0
 10
566.096858079819
 20
519.6377482808113
 30
0.0
 10
565.3424757185209
 20
519.9554825253964
 30
0.0
 10
564.3007600789534
 20
520.4536375478253
 30
0.0
 10
563.4441408378809
 20
520.9999590088977
 30
0.0
 10
563.1511761876206
 20
521.4077643460138
 30
0.0
 10
563.0179006202501
 20
521.5932832734087
 30
0.0
  0
SPLINE
  5
3C2
330
1F
100
AcDbEntity
  8
0
  6
Continuous
 62
     7
370
    15
100
AcDbSpline
210
0.0
220
0.0
230
1.0
 70
     8
 71
     3
 72
    12
 73
     8
 74
     0
 42
0.00000001
 43
0.00000001
 12
1.0
 22
0.0
 32
0.0
 13
1.0
 23
0.0
 33
0.0
 40
0.0
 40
0.0
 40
0.0
 40
0.0
 40
0.216386396944684
 40
0.4756578145016053
 40
0.7739606167762869
 40
0.9966397141085005
 40
1.0
 40
1.0
 40
1.0
 40
1.0
 10
563.0179006202501
 20
458.5807056800821
 30
0.0
 10
563.1511761876206
 20
458.7662246074771
 30
0.0
 10
563.4441408378809
 20
459.174029944593
 30
0.0
 10
564.3007600789534
 20
459.7203514056654
 30
0.0
 10
565.3424757185209
 20
460.2185064280945
 30
0.0
 10
566.096858079819
 20
460.5362406726795
 30
0.0
 10
566.4209521481687
 20
460.673063416018
 30
0.0
 10
566.425770108251
 20
460.6750974134901
 30
0.0
  0
LINE
  5
3C3
330
1F
100
AcDbEntity
  8
0
  6
Continuous
 62
     7
370
    15
100
AcDbLine
 10
663.8978343053
 20
429.1129814164
 30
0.0
 11
645.5864417894
 21
439.0247421042
 31
0.0
  0
ARC
  5
3C4
330
1F
100
AcDbEntity
  8
0
  6
Continuous
 62
     7
370
    15
100
AcDbCircle
 10
614.0801529928
 20
490.0869944767
 30
0.0
 40
61.00000000000006
100
AcDbArc
 50
57.7860739307
 51
122.2139260693
  0
SPLINE
  5
3C5
330
1F
100
AcDbEntity
  8
0
  6
Continuous
 62
     7
370
    15
100
AcDbSpline
210
0.0
220
0.0
230
1.0
 70
     8
 71
     3
 72
    12
 73
     8
 74
     0
 42
0.00000001
 43
0.00000001
 12
1.0
 22
0.0
 32
0.0
 13
1.0
 23
0.0
 33
0.0
 40
0.0
 40
0.0
 40
0.0
 40
0.0
 40
0.0033602858914995
 40
0.2260393832237132
 40
0.5243421854983947
 40
0.783613603055316
 40
1.0
 40
1.0
 40
1.0
 40
1.0
 10
643.4920500560087
 20
537.7413773612478
 30
0.0
 10
643.4940840534807
 20
537.7461953213301
 30
0.0
 10
643.6309067968192
 20
538.0702893896798
 30
0.0
 10
643.9486410414042
 20
538.8246717509779
 30
0.0
 10
644.4467960638333
 20
539.8663873905452
 30
0.0
 10
644.9931175249056
 20
540.7230066316177
 30
0.0
 10
645.4009228620216
 20
541.015971281878
 30
0.0
 10
645.5864417894167
 20
541.1492468492487
 30
0.0
  0
LINE
  5
3C6
330
1F
100
AcDbEntity
  8
0
  6
Continuous
 62
     7
370
    15
100
AcDbLine
 10
553.1061399324
 20
440.2693131642
 30
0.0
 11
563.0179006203
 21
458.5807056801
 31
0.0
  0
LINE
  5
3C7
330
1F
100
AcDbEntity
  8
0
  6
Continuous
 62
     7
370
    15
100
AcDbLine
 10
563.0179006203
 20
521.5932832734
 30
0.0
 11
553.1061399324
 21
539.9046757893
 31
0.0
  0
LINE
  5
3C8
330
1F
100
AcDbEntity
  8
0
  6
Continuous
 62
     7
370
    15
100
AcDbLine
 10
582.5738641961
 20
439.0247421042
 30
0.0
 11
564.2624716802
 21
429.1129814164
 31
0.0
  0
LINE
  5
3C9
330
1F
100
AcDbEntity
  8
0
  6
Continuous
 62
     7
370
    15
100
AcDbLine
 10
665.1424053653
 20
458.5807056801
 30
0.0
 11
675.0541660531
 21
440.2693131642
 31
0.0
  0
LINE
  5
3CA
330
1F
100
AcDbEntity
  8
0
  6
Continuous
 62
     7
370
    15
100
AcDbLine
 10
645.5864417894
 20
541.1492468492
 30
0.0
 11
663.8978343053
 21
551.0610075371
 31
0.0
  0
ARC
  5
3CB
330
1F
100
AcDbEntity
  8
0
  6
Continuous
 62
     7
370
    15
100
AcDbCircle
 10
563.3104175919
 20
549.3021442893
 30
0.0
 40
2.000000000000016
100
AcDbArc
 50
61.5737995268
 51
130.6090428911
  0
ARC
  5
3CC
330
1F
100
AcDbEntity
  8
0
  6
Continuous
 62
     7
370
    15
100
AcDbCircle
 10
614.0801529928
 20
490.0869944767
 30
0.0
 40
79.99999999999997
100
AcDbArc
 50
310.6090428911
 51
319.3909571089
  0
ARC
  5
3CD
330
1F
100
AcDbEntity
  8
0
  6
Continuous
 62
     7
370
    15
100
AcDbCircle
 10
664.8498883936
 20
430.8718446642
 30
0.0
 40
2.000000000000036
100
AcDbArc
 50
241.5737995268
 51
310.6090428911
  0
ARC
  5
3CE
330
1F
100
AcDbEntity
  8
0
  6
Continuous
 62
     7
370
    15
100
AcDbCircle
 10
673.2953028053
 20
439.3172590759
 30
0.0
 40
1.99999999999993
100
AcDbArc
 50
319.3909571089
 51
28.4262004732
  0
ARC
  5
3CF
330
1F
100
AcDbEntity
  8
0
  6
Continuous
 62
     7
370
    15
100
AcDbCircle
 10
554.8650031802
 20
540.8567298776
 30
0.0
 40
2.000000000000016
100
AcDbArc
 50
139.3909571089
 51
208.4262004732
  0
ARC
  5
3D0
330
1F
100
AcDbEntity
  8
0
  6
Continuous
 62
     7
370
    15
100
AcDbCircle
 10
563.3104175919
 20
430.8718446642
 30
0.0
 40
1.999999999999973
100
AcDbArc
 50
229.3909571089
 51
298.4262004732
  0
ARC
  5
3D1
330
1F
100
AcDbEntity
  8
0
  6
Continuous
 62
     7
370
    15
100
AcDbCircle
 10
664.8498883936
 20
549.3021442893
 30
0.0
 40
2.000000000000016
100
AcDbArc
 50
49.3909571089
 51
118.4262004732
  0
ARC
  5
3D2
330
1F
100
AcDbEntity
  8
0
  6
Continuous
 62
     7
370
    15
100
AcDbCircle
 10
614.0801529928
 20
490.0869944767
 30
0.0
 40
80.00000000000004
100
AcDbArc
 50
220.6090428911
 51
229.3909571089
  0
ARC
  5
3D3
330
1F
100
AcDbEntity
  8
0
  6
Continuous
 62
     7
370
    15
100
AcDbCircle
 10
614.0801529928
 20
490.0869944767
 30
0.0
 40
79.99999999999996
100
AcDbArc
 50
40.6090428911
 51
49.3909571089
  0
ARC
  5
3D4
330
1F
100
AcDbEntity
  8
0
  6
Continuous
 62
     7
370
    15
100
AcDbCircle
 10
673.2953028053
 20
540.8567298776
 30
0.0
 40
2.000000000000016
100
AcDbArc
 50
331.5737995268
 51
40.6090428911
  0
ARC
  5
3D5
330
1F
100
AcDbEntity
  8
0
  6
Continuous
 62
     7
370
    15
100
AcDbCircle
 10
614.0801529928
 20
490.0869944767
 30
0.0
 40
80.00000000000006
100
AcDbArc
 50
130.6090428911
 51
139.3909571089
  0
ARC
  5
3D6
330
1F
100
AcDbEntity
  8
0
  6
Continuous
 62
     7
370
    15
100
AcDbCircle
 10
554.8650031802
 20
439.3172590759
 30
0.0
 40
2.00000000000004
100
AcDbArc
 50
151.5737995268
 51
220.6090428911
  0
ARC
  5
3D7
330
1F
100
AcDbEntity
  8
0
  6
Continuous
 62
     7
370
    15
100
AcDbCircle
 10
614.0801529928
 20
490.0869944767
 30
0.0
 40
61.0
100
AcDbArc
 50
0.0
 51
32.2139260693
  0
ARC
  5
3D8
330
1F
100
AcDbEntity
  8
0
  6
Continuous
 62
     7
370
    15
100
AcDbCircle
 10
614.0801529928
 20
490.0869944767
 30
0.0
 40
61.0
100
AcDbArc
 50
327.7860739307
 51
0.0
  0
SPLINE
  5
3D9
330
1F
100
AcDbEntity
  8
0
  6
Continuous
 62
     7
370
    15
100
AcDbSpline
210
0.0
220
0.0
230
1.0
 70
     8
 71
     3
 72
    11
 73
     7
 74
     0
 42
0.00000001
 43
0.00000001
 12
1.0
 22
0.0
 32
0.0
 13
1.0
 23
0.0
 33
0.0
 40
0.0
 40
0.0
 40
0.0
 40
0.0
 40
0.2764932556847963
 40
0.5533549364876637
 40
0.8196270464860324
 40
1.0
 40
1.0
 40
1.0
 40
1.0
 10
724.0106608314794
 20
471.4447496162155
 30
0.0
 10
723.9249575664006
 20
470.9515157137413
 30
0.0
 10
723.7534368373073
 20
469.9643906784445
 30
0.0
 10
723.5069259802448
 20
468.6758660279482
 30
0.0
 10
723.3311721389254
 20
467.8028194195896
 30
0.0
 10
723.2748534755287
 20
467.5310377064126
 30
0.0
 10
723.252109770326
 20
467.4212814943293
 30
0.0
  0
SPLINE
  5
3DA
330
1F
100
AcDbEntity
  8
0
  6
Continuous
 62
     7
370
    15
100
AcDbSpline
210
0.0
220
0.0
230
1.0
 70
     8
 71
     3
 72
    11
 73
     7
 74
     0
 42
0.00000001
 43
0.00000001
 12
1.0
 22
0.0
 32
0.0
 13
1.0
 23
0.0
 33
0.0
 40
0.0
 40
0.0
 40
0.0
 40
0.0
 40
0.2451747186697942
 40
0.4900340914608044
 40
0.743238086778523
 40
1.0
 40
1.0
 40
1.0
 40
1.0
 10
722.5222136421484
 20
467.8426844702461
 30
0.0
 10
722.5551019502926
 20
468.0033401992918
 30
0.0
 10
722.6208362653502
 20
468.3244450205721
 30
0.0
 10
722.8115636534602
 20
469.2940127546348
 30
0.0
 10
723.0375706731573
 20
470.5028308888531
 30
0.0
 10
723.1929807773167
 20
471.4132666168027
 30
0.0
 10
723.2712279601377
 20
471.8716604338387
 30
0.0
  0
LINE
  5
3DB
330
1F
100
AcDbEntity
  8
0
  6
Continuous
 62
     7
370
    15
100
AcDbLine
 10
570.5136317356
 20
592.7232870535
 30
0.0
 11
570.8262171192
 21
591.9868791179
 31
0.0
  0
SPLINE
  5
3DC
330
1F
100
AcDbEntity
  8
0
  6
Continuous
 62
     7
370
    15
100
AcDbSpline
210
0.0
220
0.0
230
1.0
 70
     8
 71
     3
 72
    12
 73
     8
 74
     0
 42
0.00000001
 43
0.00000001
 12
1.0
 22
0.0
 32
0.0
 13
1.0
 23
0.0
 33
0.0
 40
0.0
 40
0.0
 40
0.0
 40
0.0
 40
0.2146859745765152
 40
0.4293708725761948
 40
0.6440351189116643
 40
0.8587128954237666
 40
1.0
 40
1.0
 40
1.0
 40
1.0
 10
568.6796303434652
 20
591.9253075198629
 30
0.0
 10
568.8851583066646
 20
592.0164907670312
 30
0.0
 10
569.2962132024109
 20
592.198856804115
 30
0.0
 10
569.845924236493
 20
592.4376982228296
 30
0.0
 10
570.2615666034271
 20
592.6161502101265
 30
0.0
 10
570.4821766555739
 20
592.7099411041592
 30
0.0
 10
570.5046942203918
 20
592.7194949911614
 30
0.0
 10
570.5136317355913
 20
592.7232870535352
 30
0.0
  0
SPLINE
  5
3DD
330
1F
100
AcDbEntity
  8
0
  6
Continuous
 62
     7
370
    15
100
AcDbSpline
210
0.0
220
0.0
230
1.0
 70
     8
 71
     3
 72
    12
 73
     8
 74
     0
 42
0.00000001
 43
0.00000001
 12
1.0
 22
0.0
 32
0.0
 13
1.0
 23
0.0
 33
0.0
 40
0.0
 40
0.0
 40
0.0
 40
0.0
 40
0.214687578787586
 40
0.4293739295398867
 40
0.644055931717046
 40
0.8587260307579163
 40
0.9999999999999999
 40
0.9999999999999999
 40
0.9999999999999999
 40
0.9999999999999999
 10
570.8262171192449
 20
591.9868791179158
 30
0.0
 10
570.8058615728226
 20
591.9782521962028
 30
0.0
 10
570.7651505964136
 20
591.9609984021237
 30
0.0
 10
570.4479471643192
 20
591.8258040495169
 30
0.0
 10
569.9819327266613
 20
591.6248685862687
 30
0.0
 10
569.4666198300274
 20
591.3996554776876
 30
0.0
 10
569.1270449358622
 20
591.2487014005784
 30
0.0
 10
568.992267881183
 20
591.1887878255345
 30
0.0
  0
LINE
  5
3DE
330
1F
100
AcDbEntity
  8
0
  6
Continuous
 62
     7
370
    15
100
AcDbLine
 10
666.4777468486
 20
387.8946074919
 30
0.0
 11
673.7391721053
 21
392.0869970397
 31
0.0
  0
ARC
  5
3DF
330
1F
100
AcDbEntity
  8
0
  6
Continuous
 62
     7
370
    15
100
AcDbCircle
 10
665.4777462104
 20
389.6266580813
 30
0.0
 40
1.999999999999984
100
AcDbArc
 50
215.5196281464
 51
300.0
  0
ARC
  5
3E0
330
1F
100
AcDbEntity
  8
0
  6
Continuous
 62
     7
370
    15
100
AcDbCircle
 10
662.2220800671
 20
387.3027308097
 30
0.0
 40
2.000000000000055
100
AcDbArc
 50
35.5196281464
 51
115.0973758876
  0
LINE
  5
3E1
330
1F
100
AcDbEntity
  8
0
  6
Continuous
 62
     7
370
    15
100
AcDbLine
 10
511.8877660079
 20
437.6894006209
 30
0.0
 11
516.0801555558
 21
430.4279753642
 31
0.0
  0
ARC
  5
3E2
330
1F
100
AcDbEntity
  8
0
  6
Continuous
 62
     7
370
    15
100
AcDbCircle
 10
513.6198165973
 20
438.6894012591
 30
0.0
 40
1.999999999999971
100
AcDbArc
 50
125.5196281464
 51
210.0
  0
ARC
  5
3E3
330
1F
100
AcDbEntity
  8
0
  6
Continuous
 62
     7
370
    15
100
AcDbCircle
 10
511.2958893257
 20
441.9450674024
 30
0.0
 40
2.000000000000064
100
AcDbArc
 50
305.5196281464
 51
25.0973758876
  0
ARC
  5
3E4
330
1F
100
AcDbEntity
  8
0
  6
Continuous
 62
     7
370
    15
100
AcDbCircle
 10
562.6825597751
 20
590.5473308722
 30
0.0
 40
2.000000000000017
100
AcDbArc
 50
35.5196281464
 51
120.0
  0
ARC
  5
3E5
330
1F
100
AcDbEntity
  8
0
  6
Continuous
 62
     7
370
    15
100
AcDbCircle
 10
511.2958893257
 20
441.9450674024
 30
0.0
 40
2.800000000000058
100
AcDbArc
 50
305.5196281464
 51
25.0973758876
  0
ARC
  5
3E6
330
1F
100
AcDbEntity
  8
0
  6
Continuous
 62
     7
370
    15
100
AcDbCircle
 10
513.6198165973
 20
438.6894012591
 30
0.0
 40
1.200000000000031
100
AcDbArc
 50
125.5196281464
 51
210.0
  0
LINE
  5
3E7
330
1F
100
AcDbEntity
  8
0
  6
Continuous
 62
     7
370
    15
100
AcDbLine
 10
512.5805880471
 20
438.0893999414
 30
0.0
 11
516.0801555558
 21
432.0279726462
 31
0.0
  0
ARC
  5
3E8
330
1F
100
AcDbEntity
  8
0
  6
Continuous
 62
     7
370
    15
100
AcDbCircle
 10
662.2220800671
 20
387.3027308097
 30
0.0
 40
2.800000000000046
100
AcDbArc
 50
35.5196281464
 51
115.0973758876
  0
ARC
  5
3E9
330
1F
100
AcDbEntity
  8
0
  6
Continuous
 62
     7
370
    15
100
AcDbCircle
 10
665.4777462104
 20
389.6266580813
 30
0.0
 40
1.199999999999991
100
AcDbArc
 50
215.5196281464
 51
300.0
  0
LINE
  5
3EA
330
1F
100
AcDbEntity
  8
0
  6
Continuous
 62
     7
370
    15
100
AcDbLine
 10
666.0777475281
 20
388.587429531
 30
0.0
 11
672.1391748233
 21
392.0869970397
 31
0.0
  0
LINE
  5
3EB
330
1F
100
AcDbEntity
  8
0
  6
Continuous
 62
     7
370
    15
100
AcDbLine
 10
561.6825591369
 20
592.2793814616
 30
0.0
 11
554.4211338802
 21
588.0869919137
 31
0.0
  0
ARC
  5
3EC
330
1F
100
AcDbEntity
  8
0
  6
Continuous
 62
     7
370
    15
100
AcDbCircle
 10
562.6825597751
 20
590.5473308722
 30
0.0
 40
1.200000000000023
100
AcDbArc
 50
35.5196281464
 51
120.0
  0
ARC
  5
3ED
330
1F
100
AcDbEntity
  8
0
  6
Continuous
 62
     7
370
    15
100
AcDbCircle
 10
565.9382259184
 20
592.8712581438
 30
0.0
 40
2.800000000000011
100
AcDbArc
 50
215.5196281464
 51
295.0973758876
  0
LINE
  5
3EE
330
1F
100
AcDbEntity
  8
0
  6
Continuous
 62
     7
370
    15
100
AcDbLine
 10
562.0825584574
 20
591.5865594224
 30
0.0
 11
556.0211311622
 21
588.0869919137
 31
0.0
  0
ARC
  5
3EF
330
1F
100
AcDbEntity
  8
0
  6
Continuous
 62
     7
370
    15
100
AcDbCircle
 10
565.9382259184
 20
592.8712581438
 30
0.0
 40
2.000000000000017
100
AcDbArc
 50
215.5196281464
 51
295.0973758876
  0
ARC
  5
3F0
330
1F
100
AcDbEntity
  8
0
  6
Continuous
 62
     7
370
    15
100
AcDbCircle
 10
614.0801529928
 20
490.0869944767
 30
0.0
 40
111.5
100
AcDbArc
 50
114.0277821056
 51
115.0973758876
  0
ARC
  5
3F1
330
1F
100
AcDbEntity
  8
0
  6
Continuous
 62
     7
370
    15
100
AcDbCircle
 10
614.0801529928
 20
490.0869944767
 30
0.0
 40
111.5000000000001
100
AcDbArc
 50
181.5417765398
 51
205.0973758876
  0
ARC
  5
3F2
330
1F
100
AcDbEntity
  8
0
  6
Continuous
 62
     7
370
    15
100
AcDbCircle
 10
614.0801529928
 20
490.0869944767
 30
0.0
 40
111.5
100
AcDbArc
 50
151.5128093452
 51
178.4582234602
  0
LWPOLYLINE
  5
3F3
330
1F
100
AcDbEntity
  8
0
  6
Continuous
 62
     7
370
    15
100
AcDbPolyline
 90
        3
 70
   128
 43
0.0
 10
532.0836226983
 20
565.6437197403
 10
535.338304524
 20
569.0298298077
 10
538.5234277292
 20
572.0835247712
  0
ARC
  5
3F4
330
1F
100
AcDbEntity
  8
0
  6
Continuous
 62
     7
370
    15
100
AcDbCircle
 10
614.0801529928
 20
490.0869944767
 30
0.0
 40
111.5000000000001
100
AcDbArc
 50
241.5128093452
 51
295.0973758876
  0
LWPOLYLINE
  5
3F5
330
1F
100
AcDbEntity
  8
0
  6
Continuous
 62
     7
370
    15
100
AcDbPolyline
 90
        3
 70
   128
 43
0.0
 10
538.5234277292
 20
408.0904641823
 10
535.1373176618
 20
411.345146008
 10
532.0836226983
 20
414.5302692131
  0
ARC
  5
3F6
330
1F
100
AcDbEntity
  8
0
  6
Continuous
 62
     7
370
    15
100
AcDbCircle
 10
614.0801529928
 20
490.0869944767
 30
0.0
 40
110.7
100
AcDbArc
 50
242.2854458996
 51
295.0973758876
  0
LWPOLYLINE
  5
3F7
330
1F
100
AcDbEntity
  8
0
  6
Continuous
 62
     7
370
    15
100
AcDbPolyline
 90
        3
 70
   128
 43
0.0
 10
539.5290623946
 20
408.2540863828
 10
535.7037182493
 20
411.910116084
 10
532.2472448988
 20
415.5359038786
  0
ARC
  5
3F8
330
1F
100
AcDbEntity
  8
0
  6
Continuous
 62
     7
370
    15
100
AcDbCircle
 10
614.0801529928
 20
490.0869944767
 30
0.0
 40
110.7000000000001
100
AcDbArc
 50
181.5529212756
 51
205.0973758876
  0
ARC
  5
3F9
330
1F
100
AcDbEntity
  8
0
  6
Continuous
 62
     7
370
    15
100
AcDbCircle
 10
614.0801529928
 20
490.0869944767
 30
0.0
 40
110.7000000000001
100
AcDbArc
 50
152.2854458996
 51
178.4470787244
  0
LWPOLYLINE
  5
3FA
330
1F
100
AcDbEntity
  8
0
  6
Continuous
 62
     7
370
    15
100
AcDbPolyline
 90
        3
 70
   128
 43
0.0
 10
532.2472448988
 20
564.6380850749
 10
535.9032746001
 20
568.4634292201
 10
539.5290623946
 20
571.9199025707
  0
ARC
  5
3FB
330
1F
100
AcDbEntity
  8
0
  6
Continuous
 62
     7
370
    15
100
AcDbCircle
 10
614.0801529928
 20
490.0869944767
 30
0.0
 40
110.7
100
AcDbArc
 50
114.035210424
 51
115.0973758876
  0
ARC
  5
3FC
330
1F
100
AcDbEntity
  8
0
  6
Continuous
 62
     7
370
    15
100
AcDbCircle
 10
716.8644166598
 20
538.2289215511
 30
0.0
 40
2.800000000000097
100
AcDbArc
 50
125.5196281464
 51
205.0973758876
  0
ARC
  5
3FD
330
1F
100
AcDbEntity
  8
0
  6
Continuous
 62
     7
370
    15
100
AcDbCircle
 10
714.5404893882
 20
541.4845876944
 30
0.0
 40
1.200000000000031
100
AcDbArc
 50
305.5196281464
 51
30.0
  0
LINE
  5
3FE
330
1F
100
AcDbEntity
  8
0
  6
Continuous
 62
     7
370
    15
100
AcDbLine
 10
715.5797179385
 20
542.0845890121
 30
0.0
 11
712.0801504298
 21
548.1460163073
 31
0.0
  0
ARC
  5
3FF
330
1F
100
AcDbEntity
  8
0
  6
Continuous
 62
     7
370
    15
100
AcDbCircle
 10
714.5404893882
 20
541.4845876944
 30
0.0
 40
2.000000000000017
100
AcDbArc
 50
305.5196281464
 51
30.0
  0
LINE
  5
400
330
1F
100
AcDbEntity
  8
0
  6
Continuous
 62
     7
370
    15
100
AcDbLine
 10
716.2725399776
 20
542.4845883326
 30
0.0
 11
712.0801504298
 21
549.7460135893
 31
0.0
  0
ARC
  5
401
330
1F
100
AcDbEntity
  8
0
  6
Continuous
 62
     7
370
    15
100
AcDbCircle
 10
716.8644166598
 20
538.2289215511
 30
0.0
 40
2.000000000000055
100
AcDbArc
 50
125.5196281464
 51
205.0973758876
  0
ARC
  5
402
330
1F
100
AcDbEntity
  8
0
  6
Continuous
 62
     7
370
    15
100
AcDbCircle
 10
614.0801529928
 20
490.0869944767
 30
0.0
 40
111.5
100
AcDbArc
 50
1.5417765398
 51
25.0973758876
  0
ARC
  5
403
330
1F
100
AcDbEntity
  8
0
  6
Continuous
 62
     7
370
    15
100
AcDbCircle
 10
614.0801529928
 20
490.0869944767
 30
0.0
 40
111.4999999999999
100
AcDbArc
 50
350.375228486
 51
358.4582234602
  0
ARC
  5
404
330
1F
100
AcDbEntity
  8
0
  6
Continuous
 62
     7
370
    15
100
AcDbCircle
 10
614.0801529928
 20
490.0869944767
 30
0.0
 40
110.6999999999999
100
AcDbArc
 50
1.5529212756
 51
25.0973758876
  0
ARC
  5
405
330
1F
100
AcDbEntity
  8
0
  6
Continuous
 62
     7
370
    15
100
AcDbCircle
 10
614.0801529928
 20
490.0869944767
 30
0.0
 40
110.6999999999999
100
AcDbArc
 50
350.5290897987
 51
358.4470787244
  0
ARC
  5
406
330
1F
100
AcDbEntity
  8
0
  6
Continuous
 62
     7
370
    15
100
AcDbCircle
 10
614.0801529928
 20
490.0869944767
 30
0.0
 40
111.5
100
AcDbArc
 50
312.6594055927
 51
312.8952155163
  0
ARC
  5
407
330
1F
100
AcDbEntity
  8
0
  6
Continuous
 62
     7
370
    15
100
AcDbCircle
 10
614.0801529928
 20
490.0869944767
 30
0.0
 40
110.7
100
AcDbArc
 50
312.3340211617
 51
312.7677519376
  0
ARC
  5
408
330
1F
100
AcDbEntity
  8
0
  6
Continuous
 62
     7
370
    15
100
AcDbCircle
 10
614.0801529928
 20
490.0869944767
 30
0.0
 40
111.5
100
AcDbArc
 50
347.1047844837
 51
348.2711731774
  0
ARC
  5
409
330
1F
100
AcDbEntity
  8
0
  6
Continuous
 62
     7
370
    15
100
AcDbCircle
 10
614.0801529928
 20
490.0869944767
 30
0.0
 40
110.7
100
AcDbArc
 50
347.2322480624
 51
348.4079339197
  0
SPLINE
  5
40A
330
1F
100
AcDbEntity
  8
0
  6
Continuous
 62
     7
370
    15
100
AcDbSpline
210
0.0
220
0.0
230
1.0
 70
     8
 71
     3
 72
    12
 73
     8
 74
     0
 42
0.00000001
 43
0.00000001
 12
1.0
 22
0.0
 32
0.0
 13
1.0
 23
0.0
 33
0.0
 40
0.0
 40
0.0
 40
0.0
 40
0.0
 40
0.2146645757996789
 40
0.4293279953901298
 40
0.6439791046643968
 40
0.8585831052308343
 40
1.0
 40
1.0
 40
1.0
 40
1.0
 10
570.5136317355913
 20
592.7232870535353
 30
0.0
 10
570.5543167376768
 20
592.7406004827845
 30
0.0
 10
570.6356865227136
 20
592.7752272480309
 30
0.0
 10
571.2712594122723
 20
593.042841444104
 30
0.0
 10
572.209877966817
 20
593.428853484086
 30
0.0
 10
573.2544224444879
 20
593.8465232981455
 30
0.0
 10
573.9481411787417
 20
594.1139285357314
 30
0.0
 10
574.2236967726034
 20
594.2201459483603
 30
0.0
  0
SPLINE
  5
40B
330
1F
100
AcDbEntity
  8
0
  6
Continuous
 62
     7
370
    15
100
AcDbSpline
210
0.0
220
0.0
230
1.0
 70
     8
 71
     3
 72
    12
 73
     8
 74
     0
 42
0.00000001
 43
0.00000001
 12
1.0
 22
0.0
 32
0.0
 13
1.0
 23
0.0
 33
0.0
 40
0.0
 40
0.0
 40
0.0
 40
0.0
 40
0.2146546584883233
 40
0.4293131663812146
 40
0.6438983722813965
 40
0.8585156218452055
 40
1.0
 40
1.0
 40
1.0
 40
1.0
 10
574.5364833219331
 20
593.4832611755826
 30
0.0
 10
574.1170618740053
 20
593.3210998212811
 30
0.0
 10
573.27821145666
 20
592.9967742046366
 30
0.0
 10
572.1669296475534
 20
592.5472517664563
 30
0.0
 10
571.3312173401919
 20
592.2006683143984
 30
0.0
 10
570.8892493199284
 20
592.0136544613025
 30
0.0
 10
570.8441397931388
 20
591.9944924606632
 30
0.0
 10
570.8262171192449
 20
591.9868791179159
 30
0.0
  0
SPLINE
  5
40C
330
1F
100
AcDbEntity
  8
0
  6
Continuous
 62
     7
370
    15
100
AcDbSpline
210
0.0
220
0.0
230
1.0
 70
     8
 71
     3
 72
    11
 73
     7
 74
     0
 42
0.00000001
 43
0.00000001
 12
1.0
 22
0.0
 32
0.0
 13
1.0
 23
0.0
 33
0.0
 40
0.0
 40
0.0
 40
0.0
 40
0.0
 40
0.249839843892029
 40
0.4993818005781694
 40
0.7564370842555276
 40
1.0
 40
1.0
 40
1.0
 40
1.0
 10
722.7681051535886
 20
465.2036832348803
 30
0.0
 10
722.731404700113
 20
465.0436821189058
 30
0.0
 10
722.6580475515766
 20
464.7238706583115
 30
0.0
 10
722.4292272077429
 20
463.7599909335923
 30
0.0
 10
722.1391659522083
 20
462.5874649433958
 30
0.0
 10
721.9111753492944
 20
461.7220821207342
 30
0.0
 10
721.8002523823064
 20
461.3010523544052
 30
0.0
  0
SPLINE
  5
40D
330
1F
100
AcDbEntity
  8
0
  6
Continuous
 62
     7
370
    15
100
AcDbSpline
210
0.0
220
0.0
230
1.0
 70
     8
 71
     3
 72
    11
 73
     7
 74
     0
 42
0.00000001
 43
0.00000001
 12
1.0
 22
0.0
 32
0.0
 13
1.0
 23
0.0
 33
0.0
 40
0.0
 40
0.0
 40
0.0
 40
0.0
 40
0.2693918558668694
 40
0.5388812678987286
 40
0.8047876489570333
 40
0.9999999999999999
 40
0.9999999999999999
 40
0.9999999999999999
 40
0.9999999999999999
 10
721.0826720638555
 20
461.7153456137875
 30
0.0
 10
721.2043962511095
 20
462.1818214740762
 30
0.0
 10
721.4478887061814
 20
463.1149421217946
 30
0.0
 10
721.7486787557095
 20
464.3504763291318
 30
0.0
 10
721.9529359591291
 20
465.2257089796713
 30
0.0
 10
722.0161911654241
 20
465.5043680130512
 30
0.0
 10
722.0429699464124
 20
465.6223369465569
 30
0.0
  0
SPLINE
  5
40E
330
1F
100
AcDbEntity
  8
0
  6
Continuous
 62
     7
370
    15
100
AcDbSpline
210
0.0
220
0.0
230
1.0
 70
     8
 71
     3
 72
    11
 73
     7
 74
     0
 42
0.00000001
 43
0.00000001
 12
1.0
 22
0.0
 32
0.0
 13
1.0
 23
0.0
 33
0.0
 40
0.0
 40
0.0
 40
0.0
 40
0.0
 40
0.269212220174649
 40
0.5385215531930779
 40
0.8043054742481812
 40
1.0
 40
1.0
 40
1.0
 40
1.0
 10
692.8695585174839
 20
411.1916267947653
 30
0.0
 10
692.5274608759647
 20
410.8526441903349
 30
0.0
 10
691.8431421881459
 20
410.1745567003806
 30
0.0
 10
690.9262867736362
 20
409.2952256019912
 30
0.0
 10
690.2717910665663
 20
408.6792858619692
 30
0.0
 10
690.0624743783096
 20
408.4846564899174
 30
0.0
 10
689.9737115545553
 20
408.4021219686964
 30
0.0
  0
SPLINE
  5
40F
330
1F
100
AcDbEntity
  8
0
  6
Continuous
 62
     7
370
    15
100
AcDbSpline
210
0.0
220
0.0
230
1.0
 70
     8
 71
     3
 72
    11
 73
     7
 74
     0
 42
0.00000001
 43
0.00000001
 12
1.0
 22
0.0
 32
0.0
 13
1.0
 23
0.0
 33
0.0
 40
0.0
 40
0.0
 40
0.0
 40
0.0
 40
0.2497238261342808
 40
0.4991464509131198
 40
0.7561928435345276
 40
1.0
 40
1.0
 40
1.0
 40
1.0
 10
689.2485763473791
 20
408.8207775430182
 30
0.0
 10
689.3690998350704
 20
408.9323492689825
 30
0.0
 10
689.6100014425142
 20
409.1553581500309
 30
0.0
 10
690.3319721365216
 20
409.8340532097941
 30
0.0
 10
691.2045708054173
 20
410.6701226664883
 30
0.0
 10
691.841795361024
 20
411.2995308969962
 30
0.0
 10
692.1519856496137
 20
411.6059163288572
 30
0.0
  0
ARC
  5
410
330
1F
100
AcDbEntity
  8
0
  6
Continuous
 62
     7
370
    15
100
AcDbCircle
 10
614.0801529928
 20
490.0869944767
 30
0.0
 40
111.4999999999999
100
AcDbArc
 50
42.6594055927
 51
47.3405944073
  0
ARC
  5
411
330
1F
100
AcDbEntity
  8
0
  6
Continuous
 62
     7
370
    15
100
AcDbCircle
 10
614.0801529928
 20
490.0869944767
 30
0.0
 40
111.5
100
AcDbArc
 50
93.1322118007
 51
110.9441048845
  0
ARC
  5
412
330
1F
100
AcDbEntity
  8
0
  6
Continuous
 62
     7
370
    15
100
AcDbCircle
 10
614.0801529928
 20
490.0869944767
 30
0.0
 40
110.7
100
AcDbArc
 50
93.2678584176
 51
110.9292410181
  0
ARC
  5
413
330
1F
100
AcDbEntity
  8
0
  6
Continuous
 62
     7
370
    15
100
AcDbCircle
 10
614.0801529928
 20
490.0869944767
 30
0.0
 40
110.6999999999999
100
AcDbArc
 50
42.3340211617
 51
47.6659788383
  0
ARC
  5
414
330
1F
100
AcDbEntity
  8
0
  6
Continuous
 62
     7
370
    15
100
AcDbCircle
 10
614.0801529928
 20
490.0869944767
 30
0.0
 40
111.5
100
AcDbArc
 50
331.5128093452
 51
345.0385028438
  0
LINE
  5
415
330
1F
100
AcDbEntity
  8
0
  6
Continuous
 62
     7
370
    15
100
AcDbLine
 10
696.0766832872
 20
414.5302692131
 30
0.0
 11
692.8695585175
 21
411.1916267948
 31
0.0
  0
ARC
  5
416
330
1F
100
AcDbEntity
  8
0
  6
Continuous
 62
     7
370
    15
100
AcDbCircle
 10
614.0801529928
 20
490.0869944767
 30
0.0
 40
110.7
100
AcDbArc
 50
332.2854458996
 51
345.149777708
  0
LINE
  5
417
330
1F
100
AcDbEntity
  8
0
  6
Continuous
 62
     7
370
    15
100
AcDbLine
 10
695.9130610867
 20
415.5359038786
 30
0.0
 11
692.1519856496
 21
411.6059163289
 31
0.0
  0
LWPOLYLINE
  5
418
330
1F
100
AcDbEntity
  8
0
  6
Continuous
 62
     7
370
    15
100
AcDbPolyline
 90
        3
 70
   128
 43
0.0
 10
563.5616514428
 20
588.5876113252
 10
564.9922821267
 20
589.3083208875
 10
567.1258676393
 20
590.3356143908
  0
LWPOLYLINE
  5
419
330
1F
100
AcDbEntity
  8
0
  6
Continuous
 62
     7
370
    15
100
AcDbPolyline
 90
        3
 70
   128
 43
0.0
 10
515.5795361443
 20
439.5684929268
 10
514.858826582
 20
440.9991236107
 10
513.8315330787
 20
443.1327091233
  0
LWPOLYLINE
  5
41A
330
1F
100
AcDbEntity
  8
0
  6
Continuous
 62
     7
370
    15
100
AcDbPolyline
 90
        3
 70
   128
 43
0.0
 10
664.5986545427
 20
391.5863776283
 10
663.1680238588
 20
390.865668066
 10
661.0344383462
 20
389.8383745627
  0
LWPOLYLINE
  5
41B
330
1F
100
AcDbEntity
  8
0
  6
Continuous
 62
     7
370
    15
100
AcDbPolyline
 90
        3
 70
   128
 43
0.0
 10
712.5807698412
 20
540.6054960267
 10
713.3014794035
 20
539.1748653428
 10
714.3287729068
 20
537.0412798302
  0
ARC
  5
41C
330
1F
100
AcDbEntity
  8
0
  6
Continuous
 62
     7
370
    15
100
AcDbCircle
 10
614.0801529928
 20
490.0869944767
 30
0.0
 40
105.7403510868838
100
AcDbArc
 50
157.9411369238
 51
165.0
  0
ARC
  5
41D
330
1F
100
AcDbEntity
  8
0
  6
Continuous
 62
     7
370
    15
100
AcDbCircle
 10
614.0801529928
 20
490.0869944767
 30
0.0
 40
105.7403510868838
100
AcDbArc
 50
131.9170082361
 51
138.0829917639
  0
ARC
  5
41E
330
1F
100
AcDbEntity
  8
0
  6
Continuous
 62
     7
370
    15
100
AcDbCircle
 10
614.0801529928
 20
490.0869944767
 30
0.0
 40
105.7403510868838
100
AcDbArc
 50
94.1572743072
 51
112.0588630762
  0
ARC
  5
41F
330
1F
100
AcDbEntity
  8
0
  6
Continuous
 62
     7
370
    15
100
AcDbCircle
 10
614.0801529928
 20
490.0869944767
 30
0.0
 40
105.7403510868837
100
AcDbArc
 50
41.9170082361
 51
48.0829917639
  0
ARC
  5
420
330
1F
100
AcDbEntity
  8
0
  6
Continuous
 62
     7
370
    15
100
AcDbCircle
 10
614.0801529928
 20
490.0869944767
 30
0.0
 40
105.7403510868837
100
AcDbArc
 50
1.6257786628
 51
22.0588630762
  0
ARC
  5
421
330
1F
100
AcDbEntity
  8
0
  6
Continuous
 62
     7
370
    15
100
AcDbCircle
 10
614.0801529928
 20
490.0869944767
 30
0.0
 40
105.7403510868837
100
AcDbArc
 50
337.9411369238
 51
358.3742213372
  0
ARC
  5
422
330
1F
100
AcDbEntity
  8
0
  6
Continuous
 62
     7
370
    15
100
AcDbCircle
 10
614.0801529928
 20
490.0869944767
 30
0.0
 40
105.7403510868837
100
AcDbArc
 50
311.9170082361
 51
318.0829917639
  0
ARC
  5
423
330
1F
100
AcDbEntity
  8
0
  6
Continuous
 62
     7
370
    15
100
AcDbCircle
 10
614.0801529928
 20
490.0869944767
 30
0.0
 40
105.7403510868838
100
AcDbArc
 50
247.9411369238
 51
292.0588630762
  0
ARC
  5
424
330
1F
100
AcDbEntity
  8
0
  6
Continuous
 62
     7
370
    15
100
AcDbCircle
 10
614.0801529928
 20
490.0869944767
 30
0.0
 40
105.7403510868838
100
AcDbArc
 50
221.9170082361
 51
228.0829917639
  0
ARC
  5
425
330
1F
100
AcDbEntity
  8
0
  6
Continuous
 62
     7
370
    15
100
AcDbCircle
 10
614.0801529928
 20
490.0869944767
 30
0.0
 40
105.7403510868838
100
AcDbArc
 50
181.6257786628
 51
202.0588630762
  0
ARC
  5
426
330
1F
100
AcDbEntity
  8
0
  6
Continuous
 62
     7
370
    15
100
AcDbCircle
 10
614.0801529928
 20
490.0869944767
 30
0.0
 40
105.7403510868838
100
AcDbArc
 50
165.0
 51
178.3742213372
  0
LINE
  5
427
330
1F
100
AcDbEntity
  8
0
  6
Continuous
 62
     7
370
    15
100
AcDbLine
 10
556.8211335285
 20
588.0869919137
 30
0.0
 11
562.0932910188
 21
591.1308744626
 31
0.0
  0
LINE
  5
428
330
1F
100
AcDbEntity
  8
0
  6
Continuous
 62
     7
370
    15
100
AcDbLine
 10
562.0932910188
 20
591.1308744626
 30
0.0
 11
563.8506780906
 21
588.0869919137
 31
0.0
  0
LINE
  5
429
330
1F
100
AcDbEntity
  8
0
  6
Continuous
 62
     7
370
    15
100
AcDbLine
 10
516.0801555558
 20
432.8279750125
 30
0.0
 11
513.0362730069
 21
438.1001325027
 31
0.0
  0
LINE
  5
42A
330
1F
100
AcDbEntity
  8
0
  6
Continuous
 62
     7
370
    15
100
AcDbLine
 10
513.0362730069
 20
438.1001325027
 30
0.0
 11
516.0801555558
 21
439.8575195746
 31
0.0
  0
LINE
  5
42B
330
1F
100
AcDbEntity
  8
0
  6
Continuous
 62
     7
370
    15
100
AcDbLine
 10
715.1240329786
 20
542.0738564507
 30
0.0
 11
712.0801504298
 21
540.3164693789
 31
0.0
  0
LINE
  5
42C
330
1F
100
AcDbEntity
  8
0
  6
Continuous
 62
     7
370
    15
100
AcDbLine
 10
712.0801504298
 20
547.346013941
 30
0.0
 11
715.1240329786
 21
542.0738564507
 31
0.0
  0
LINE
  5
42D
330
1F
100
AcDbEntity
  8
0
  6
Continuous
 62
     7
370
    15
100
AcDbLine
 10
671.339172457
 20
392.0869970397
 30
0.0
 11
666.0670149668
 21
389.0431144909
 31
0.0
  0
LINE
  5
42E
330
1F
100
AcDbEntity
  8
0
  6
Continuous
 62
     7
370
    15
100
AcDbLine
 10
666.0670149668
 20
389.0431144909
 30
0.0
 11
664.3096278949
 21
392.0869970397
 31
0.0
  0
LINE
  5
42F
330
1F
100
AcDbEntity
  8
0
  6
Continuous
 62
     7
370
    15
100
AcDbLine
 10
602.8998126803
 20
430.0869958178
 30
0.0
 11
566.0618986531
 21
430.0869958178
 31
0.0
  0
ARC
  5
430
330
1F
100
AcDbEntity
  8
0
  6
Continuous
 62
     7
370
    15
100
AcDbCircle
 10
560.1606215247
 20
457.503499786
 30
0.0
 40
2.00000000000004
100
AcDbArc
 50
331.5737995268
 51
31.1445078433
  0
ARC
  5
431
330
1F
100
AcDbEntity
  8
0
  6
Continuous
 62
     7
370
    15
100
AcDbCircle
 10
602.8998131053
 20
428.0869944767
 30
0.0
 40
2.0
100
AcDbArc
 50
79.7778206094
 51
90.0
  0
LINE
  5
432
330
1F
100
AcDbEntity
  8
0
  6
Continuous
 62
     7
370
    15
100
AcDbLine
 10
662.0984073324
 20
430.0869958178
 30
0.0
 11
625.2604933052
 21
430.0869958178
 31
0.0
  0
ARC
  5
433
330
1F
100
AcDbEntity
  8
0
  6
Continuous
 62
     7
370
    15
100
AcDbCircle
 10
625.2604928803
 20
428.0869944767
 30
0.0
 40
2.000000000000016
100
AcDbArc
 50
90.0
 51
100.2221793906
  0
ARC
  5
434
330
1F
100
AcDbEntity
  8
0
  6
Continuous
 62
     7
370
    15
100
AcDbCircle
 10
667.9996844608
 20
457.503499786
 30
0.0
 40
2.00000000000014
100
AcDbArc
 50
148.8554921567
 51
208.4262004732
  0
ARC
  5
435
330
1F
100
AcDbEntity
  8
0
  6
Continuous
 62
     7
370
    15
100
AcDbCircle
 10
667.9996844608
 20
522.6704891675
 30
0.0
 40
2.00000000000014
100
AcDbArc
 50
151.5737995268
 51
211.1445078433
  0
LINE
  5
436
330
1F
100
AcDbEntity
  8
0
  6
Continuous
 62
     7
370
    15
100
AcDbLine
 10
662.0984073324
 20
550.0869931356
 30
0.0
 11
625.2604933052
 21
550.0869931356
 31
0.0
  0
ARC
  5
437
330
1F
100
AcDbEntity
  8
0
  6
Continuous
 62
     7
370
    15
100
AcDbCircle
 10
625.2604928803
 20
552.0869944767
 30
0.0
 40
2.000000000000016
100
AcDbArc
 50
259.7778206094
 51
270.0
  0
ARC
  5
438
330
1F
100
AcDbEntity
  8
0
  6
Continuous
 62
     7
370
    15
100
AcDbCircle
 10
602.8998131053
 20
552.0869944767
 30
0.0
 40
2.0
100
AcDbArc
 50
270.0
 51
280.2221793906
  0
LINE
  5
439
330
1F
100
AcDbEntity
  8
0
  6
Continuous
 62
     7
370
    15
100
AcDbLine
 10
602.8998126803
 20
550.0869931356
 30
0.0
 11
566.0618986531
 21
550.0869931356
 31
0.0
  0
ARC
  5
43A
330
1F
100
AcDbEntity
  8
0
  6
Continuous
 62
     7
370
    15
100
AcDbCircle
 10
560.1606215247
 20
522.6704891675
 30
0.0
 40
2.00000000000004
100
AcDbArc
 50
328.8554921567
 51
28.4262004732
  0
ARC
  5
43B
330
1F
100
AcDbEntity
  8
0
  6
Continuous
 62
     7
370
    15
100
AcDbCircle
 10
623.4020270836
 20
424.7486239474
 30
0.0
 40
5.000000000000097
100
AcDbArc
 50
106.770514101
 51
176.1859251657
  0
ARC
  5
43C
330
1F
100
AcDbEntity
  8
0
  6
Continuous
 62
     7
370
    15
100
AcDbCircle
 10
604.7582789019
 20
424.7486239474
 30
0.0
 40
4.999999999999984
100
AcDbArc
 50
3.8140748343
 51
81.8803640555
  0
LWPOLYLINE
  5
43D
330
1F
100
AcDbEntity
  8
0
  6
Continuous
 62
     7
370
    15
100
AcDbPolyline
 90
       10
 70
   128
 43
0.0
 10
618.4131014688
 20
425.081222661
 10
618.3773396133
 20
424.5447957592
 10
618.342451804
 20
424.0214818792
 10
618.3095560937
 20
423.5280448274
 10
618.2797067395
 20
423.0803021864
 10
618.2538597441
 20
422.6925963239
 10
618.2328439845
 20
422.3773548083
 10
618.2173318757
 20
422.1446806268
 10
618.2078216752
 20
422.0020243601
 10
618.2046169943
 20
421.9539532141
  0
ARC
  5
43E
330
1F
100
AcDbEntity
  8
0
  6
Continuous
 62
     7
370
    15
100
AcDbCircle
 10
616.209046809
 20
422.0869944767
 30
0.0
 40
2.000000000000057
100
AcDbArc
 50
270.0
 51
356.1859251657
  0
LWPOLYLINE
  5
43F
330
1F
100
AcDbEntity
  8
0
  6
Continuous
 62
     7
370
    15
100
AcDbPolyline
 90
       10
 70
   128
 43
0.0
 10
609.9556889912
 20
421.9539532141
 10
609.9524843103
 20
422.0020243601
 10
609.9429741098
 20
422.1446806268
 10
609.927462001
 20
422.3773548083
 10
609.9064462414
 20
422.6925963239
 10
609.880599246
 20
423.0803021864
 10
609.8507498918
 20
423.5280448274
 10
609.8178541815
 20
424.0214818792
 10
609.7829663722
 20
424.5447957592
 10
609.7472045167
 20
425.081222661
  0
ARC
  5
440
330
1F
100
AcDbEntity
  8
0
  6
Continuous
 62
     7
370
    15
100
AcDbCircle
 10
611.9512591765
 20
422.0869944767
 30
0.0
 40
1.999999999999943
100
AcDbArc
 50
183.8140748343
 51
270.0
  0
LINE
  5
441
330
1F
100
AcDbEntity
  8
0
  6
Continuous
 62
     7
370
    15
100
AcDbLine
 10
616.2090467351
 20
420.0869941787
 30
0.0
 11
611.9512592504
 21
420.0869941787
 31
0.0
  0
LINE
  5
442
330
1F
100
AcDbEntity
  8
0
  6
Continuous
 62
     7
370
    15
100
AcDbLine
 10
571.0801515324
 20
550.0869931356
 30
0.0
 11
571.0801515324
 21
563.4082028346
 31
0.0
  0
SPLINE
  5
443
330
1F
100
AcDbEntity
  8
0
  6
Continuous
 62
     7
370
    15
100
AcDbSpline
210
0.0
220
0.0
230
1.0
 70
     8
 71
     3
 72
    26
 73
    22
 74
     0
 42
0.00000001
 43
0.00000001
 12
1.0
 22
0.0
 32
0.0
 13
1.0
 23
0.0
 33
0.0
 40
0.0
 40
0.0
 40
0.0
 40
0.0
 40
0.1250000000000015
 40
0.1250000000000015
 40
0.1875000000000026
 40
0.1875000000000026
 40
0.2500000000000038
 40
0.2500000000000038
 40
0.3750000000000036
 40
0.3750000000000036
 40
0.4375000000000028
 40
0.4375000000000028
 40
0.5000000000000021
 40
0.5000000000000021
 40
0.6250000000000016
 40
0.6250000000000016
 40
0.7500000000000011
 40
0.7500000000000011
 40
0.8750000000000006
 40
0.8750000000000006
 40
1.0
 40
1.0
 40
1.0
 40
1.0
 10
582.0430798595871
 20
568.8183474757899
 30
0.0
 10
581.2215845093073
 20
568.4840676036303
 30
0.0
 10
580.4195783209113
 20
568.1427283392925
 30
0.0
 10
579.2464031383312
 20
567.6227464889262
 30
0.0
 10
578.8603402691389
 20
567.4481003127509
 30
0.0
 10
578.0986386180336
 20
567.0967765031735
 30
0.0
 10
577.7288094936032
 20
566.9227692106945
 30
0.0
 10
576.6585443306949
 20
566.4103134414056
 30
0.0
 10
575.9939192278148
 20
566.0798653766769
 30
0.0
 10
575.0709463557602
 20
565.6078605010116
 30
0.0
 10
574.7791198407764
 20
565.4562453588437
 30
0.0
 10
574.2330328553193
 20
565.1689643636255
 30
0.0
 10
573.9774418485919
 20
565.0326169562386
 30
0.0
 10
573.260241131198
 20
564.6458965302087
 30
0.0
 10
572.8460149030252
 20
564.4166538062524
 30
0.0
 10
572.1650124416446
 20
564.0347692412652
 30
0.0
 10
571.8934523992727
 20
563.8795578103969
 30
0.0
 10
571.4684632753726
 20
563.6349652831831
 30
0.0
 10
571.3194222832353
 20
563.5480899006585
 30
0.0
 10
571.1253050436262
 20
563.4347529248437
 30
0.0
 10
571.0801529927533
 20
563.4082055960387
 30
0.0
 10
571.0801529927533
 20
563.4082055960388
 30
0.0
  0
SPLINE
  5
444
330
1F
100
AcDbEntity
  8
0
  6
Continuous
 62
     7
370
    15
100
AcDbSpline
210
0.0
220
0.0
230
1.0
 70
     8
 71
     3
 72
    28
 73
    24
 74
     0
 42
0.00000001
 43
0.00000001
 12
1.0
 22
0.0
 32
0.0
 13
1.0
 23
0.0
 33
0.0
 40
0.0
 40
0.0
 40
0.0
 40
0.0
 40
0.1249999999999997
 40
0.1249999999999997
 40
0.2499999999999993
 40
0.2499999999999993
 40
0.3124999999999993
 40
0.3124999999999993
 40
0.3749999999999992
 40
0.3749999999999992
 40
0.4374999999999992
 40
0.4374999999999992
 40
0.4999999999999991
 40
0.4999999999999991
 40
0.624999999999999
 40
0.624999999999999
 40
0.6874999999999983
 40
0.6874999999999983
 40
0.7499999999999978
 40
0.7499999999999978
 40
0.8749999999999989
 40
0.8749999999999989
 40
1.0
 40
1.0
 40
1.0
 40
1.0
 10
657.0801529927534
 20
563.4082055960453
 30
0.0
 10
657.0801529927534
 20
563.4082055960453
 30
0.0
 10
657.0350117810412
 20
563.4347458577605
 30
0.0
 10
656.8417076734495
 20
563.5476095535523
 30
0.0
 10
656.6937453389575
 20
563.6338570173594
 30
0.0
 10
656.3773219871184
 20
563.8159867770355
 30
0.0
 10
656.2554803169387
 20
563.885819934271
 30
0.0
 10
655.9813289120318
 20
564.0418207587006
 30
0.0
 10
655.8286702910132
 20
564.1281925085877
 30
0.0
 10
655.4899611718768
 20
564.3181569973592
 30
0.0
 10
655.3039193737355
 20
564.4217473259177
 30
0.0
 10
654.8953717764144
 20
564.6468517152301
 30
0.0
 10
654.6714151505092
 20
564.7691490800662
 30
0.0
 10
653.9493682131216
 20
565.1585922799616
 30
0.0
 10
653.4074210369391
 20
565.445000761924
 30
0.0
 10
652.4986951010968
 20
565.9100213422266
 30
0.0
 10
652.1797429802202
 20
566.0709524876575
 30
0.0
 10
651.5078089751794
 20
566.404169476075
 30
0.0
 10
651.1580572149846
 20
566.5748119336372
 30
0.0
 10
650.0853196986066
 20
567.0886618211009
 30
0.0
 10
649.3322677394128
 20
567.4370874951929
 30
0.0
 10
647.7505531922478
 20
568.138596859272
 30
0.0
 10
646.9401578188791
 20
568.48348313234
 30
0.0
 10
646.1172261259195
 20
568.8183474757899
 30
0.0
  0
LINE
  5
445
330
1F
100
AcDbEntity
  8
0
  6
Continuous
 62
     7
370
    15
100
AcDbLine
 10
657.0801544531
 20
563.4082028346
 30
0.0
 11
657.0801544531
 21
550.0869931356
 31
0.0
  0
SPLINE
  5
446
330
1F
100
AcDbEntity
  8
0
  6
Continuous
 62
     7
370
    15
100
AcDbSpline
210
0.0
220
0.0
230
1.0
 70
     8
 71
     3
 72
    22
 73
    18
 74
     0
 42
0.00000001
 43
0.00000001
 12
1.0
 22
0.0
 32
0.0
 13
1.0
 23
0.0
 33
0.0
 40
0.0
 40
0.0
 40
0.0
 40
0.0
 40
0.2499999999999999
 40
0.2499999999999999
 40
0.3749999999999999
 40
0.3749999999999999
 40
0.4374999999999998
 40
0.4374999999999998
 40
0.4999999999999998
 40
0.4999999999999998
 40
0.7499999999999997
 40
0.7499999999999997
 40
0.8124999999999996
 40
0.8124999999999996
 40
0.8749999999999996
 40
0.8749999999999996
 40
1.0
 40
1.0
 40
1.0
 40
1.0
 10
646.1172261259195
 20
568.8183474757899
 30
0.0
 10
641.0196219732111
 20
570.8926458438903
 30
0.0
 10
635.7911460698035
 20
572.4485481778107
 30
0.0
 10
627.7567181260329
 20
574.0238740545951
 30
0.0
 10
625.0464016236656
 20
574.4216797857589
 30
0.0
 10
620.9311897397247
 20
574.8216552378116
 30
0.0
 10
619.5567737028815
 20
574.9214587077014
 30
0.0
 10
616.8179367267498
 20
575.0539541492077
 30
0.0
 10
615.4511398711112
 20
575.0868855050875
 30
0.0
 10
608.6300698691778
 20
575.087429014204
 30
0.0
 10
603.2141858390629
 20
574.5672321757639
 30
0.0
 10
596.4960466362786
 20
573.2595436825136
 30
0.0
 10
595.1550268420615
 20
572.9648487956015
 30
0.0
 10
592.4783085354846
 20
572.3077914344562
 30
0.0
 10
591.1470709689903
 20
571.9464312079829
 30
0.0
 10
587.1903905648871
 20
570.7685611994451
 30
0.0
 10
584.5953155108859
 20
569.8568938375516
 30
0.0
 10
582.0430798595871
 20
568.81834747579
 30
0.0
  0
ARC
  5
447
330
1F
100
AcDbEntity
  8
0
  6
Continuous
 62
     7
370
    15
100
AcDbCircle
 10
614.0801529928
 20
490.0869944767
 30
0.0
 40
85.0
100
AcDbArc
 50
120.3899424493
 51
59.6100575507
  0
ARC
  5
448
330
1F
100
AcDbEntity
  8
0
  6
Continuous
 62
     7
370
    15
100
AcDbCircle
 10
614.0801529928
 20
490.0869944767
 30
0.0
 40
117.5
100
AcDbArc
 50
33.483726477
 51
56.516273523
  0
LINE
  5
449
330
1F
100
AcDbEntity
  8
0
  6
Continuous
 62
     7
370
    15
100
AcDbLine
 10
712.0801504298
 20
425.262227066
 30
0.0
 11
712.0801504298
 21
554.9117618875
 31
0.0
  0
ARC
  5
44A
330
1F
100
AcDbEntity
  8
0
  6
Continuous
 62
     7
370
    15
100
AcDbCircle
 10
614.0801529928
 20
490.0869944767
 30
0.0
 40
117.5
100
AcDbArc
 50
303.483726477
 51
326.516273523
  0
LINE
  5
44B
330
1F
100
AcDbEntity
  8
0
  6
Continuous
 62
     7
370
    15
100
AcDbLine
 10
549.255385582
 20
392.0869970397
 30
0.0
 11
678.9049204035
 21
392.0869970397
 31
0.0
  0
ARC
  5
44C
330
1F
100
AcDbEntity
  8
0
  6
Continuous
 62
     7
370
    15
100
AcDbCircle
 10
614.0801529928
 20
490.0869944767
 30
0.0
 40
117.5
100
AcDbArc
 50
213.483726477
 51
236.516273523
  0
LINE
  5
44D
330
1F
100
AcDbEntity
  8
0
  6
Continuous
 62
     7
370
    15
100
AcDbLine
 10
516.0801555558
 20
554.9117618875
 30
0.0
 11
516.0801555558
 21
425.262227066
 31
0.0
  0
ARC
  5
44E
330
1F
100
AcDbEntity
  8
0
  6
Continuous
 62
     7
370
    15
100
AcDbCircle
 10
614.0801529928
 20
490.0869944767
 30
0.0
 40
117.5
100
AcDbArc
 50
123.483726477
 51
146.516273523
  0
LINE
  5
44F
330
1F
100
AcDbEntity
  8
0
  6
Continuous
 62
     7
370
    15
100
AcDbLine
 10
576.1811729117
 20
588.0869919137
 30
0.0
 11
549.255385582
 21
588.0869919137
 31
0.0
  0
ARC
  5
450
330
1F
100
AcDbEntity
  8
0
  6
Continuous
 62
     7
370
    15
100
AcDbCircle
 10
576.1811735072
 20
593.0869944767
 30
0.0
 40
5.000000000000114
100
AcDbArc
 50
270.0
 51
314.4153085972
  0
ARC
  5
451
330
1F
100
AcDbEntity
  8
0
  6
Continuous
 62
     7
370
    15
100
AcDbCircle
 10
581.0801529928
 20
588.0869944767
 30
0.0
 40
2.000000000000119
100
AcDbArc
 50
90.0
 51
134.4153085972
  0
LINE
  5
452
330
1F
100
AcDbEntity
  8
0
  6
Continuous
 62
     7
370
    15
100
AcDbLine
 10
581.0801531716
 20
590.0869959669
 30
0.0
 11
647.0801528139
 21
590.0869959669
 31
0.0
  0
ARC
  5
453
330
1F
100
AcDbEntity
  8
0
  6
Continuous
 62
     7
370
    15
100
AcDbCircle
 10
647.0801529928
 20
588.0869944767
 30
0.0
 40
2.000000000000119
100
AcDbArc
 50
45.5846914028
 51
90.0
  0
ARC
  5
454
330
1F
100
AcDbEntity
  8
0
  6
Continuous
 62
     7
370
    15
100
AcDbCircle
 10
651.9791324783
 20
593.0869944767
 30
0.0
 40
5.000000000000114
100
AcDbArc
 50
225.5846914028
 51
270.0
  0
LINE
  5
455
330
1F
100
AcDbEntity
  8
0
  6
Continuous
 62
     7
370
    15
100
AcDbLine
 10
678.9049204035
 20
588.0869919137
 30
0.0
 11
651.9791330738
 21
588.0869919137
 31
0.0
  0
CIRCLE
  5
456
330
1F
100
AcDbEntity
  8
0
  6
Continuous
 62
     7
370
    15
100
AcDbCircle
 10
538.0661740152
 20
566.1009734543
 30
0.0
 40
6.0
  0
CIRCLE
  5
457
330
1F
100
AcDbEntity
  8
0
  6
Continuous
 62
     7
370
    15
100
AcDbCircle
 10
538.0661740152
 20
414.0730154992
 30
0.0
 40
6.0
  0
CIRCLE
  5
458
330
1F
100
AcDbEntity
  8
0
  6
Continuous
 62
     7
370
    15
100
AcDbCircle
 10
690.0941319703
 20
414.0730154992
 30
0.0
 40
6.0
  0
CIRCLE
  5
459
330
1F
100
AcDbEntity
  8
0
  6
Continuous
 62
     7
370
    15
100
AcDbCircle
 10
690.0941319703
 20
566.1009734543
 30
0.0
 40
6.0
  0
INSERT
  5
49E
330
1F
100
AcDbEntity
  8
SLD-0
 62
     7
100
AcDbBlockReference
  2
SW_CENTERMARKSYMBOL_1
 10
538.0661740152
 20
566.1009734543
 30
0.0
  0
ENDSEC
  0
SECTION
  2
OBJECTS
  0
DICTIONARY
  5
C
330
0
100
AcDbDictionary
281
     1
  3
ACAD_GROUP
350
D
  3
ACAD_LAYOUT
350
1A
  3
ACAD_MLINESTYLE
350
17
  3
ACAD_PLOTSETTINGS
350
19
  3
ACAD_PLOTSTYLENAME
350
E
  0
DICTIONARY
  5
D
102
{ACAD_REACTORS
330
C
102
}
330
C
100
AcDbDictionary
281
     1
  0
DICTIONARY
  5
1A
102
{ACAD_REACTORS
330
C
102
}
330
C
100
AcDbDictionary
281
     1
  3
Layout1
350
1E
  3
Layout2
350
26
  3
Model
350
22
  0
DICTIONARY
  5
17
102
{ACAD_REACTORS
330
C
102
}
330
C
100
AcDbDictionary
281
     1
  3
Standard
350
18
  0
DICTIONARY
  5
19
102
{ACAD_REACTORS
330
C
102
}
330
C
100
AcDbDictionary
281
     1
  0
ACDBDICTIONARYWDFLT
  5
E
102
{ACAD_REACTORS
330
C
102
}
330
C
100
AcDbDictionary
281
     1
  3
Normal
350
F
100
AcDbDictionaryWithDefault
340
F
  0
LAYOUT
  5
1E
102
{ACAD_REACTORS
330
1A
102
}
330
1A
100
AcDbPlotSettings
  1

  2
none_device
  4

  6

 40
0.0
 41
0.0
 42
0.0
 43
0.0
 44
0.0
 45
0.0
 46
0.0
 47
0.0
 48
0.0
 49
0.0
140
0.0
141
0.0
142
1.0
143
1.0
 70
   688
 72
     0
 73
     0
 74
     5
  7

 75
    16
147
1.0
148
0.0
149
0.0
100
AcDbLayout
  1
Layout1
 70
     1
 71
     1
 10
0.0
 20
0.0
 11
420.0
 21
297.0
 12
0.0
 22
0.0
 32
0.0
 14
1.0000000000E+20
 24
1.0000000000E+20
 34
1.0000000000E+20
 15
-1.0000000000E+20
 25
-1.0000000000E+20
 35
-1.0000000000E+20
146
0.0
 13
0.0
 23
0.0
 33
0.0
 16
1.0
 26
0.0
 36
0.0
 17
0.0
 27
1.0
 37
0.0
 76
     0
330
1B
  0
LAYOUT
  5
26
102
{ACAD_REACTORS
330
1A
102
}
330
1A
100
AcDbPlotSettings
  1

  2
none_device
  4

  6

 40
0.0
 41
0.0
 42
0.0
 43
0.0
 44
0.0
 45
0.0
 46
0.0
 47
0.0
 48
0.0
 49
0.0
140
0.0
141
0.0
142
1.0
143
1.0
 70
   688
 72
     0
 73
     0
 74
     5
  7

 75
    16
147
1.0
148
0.0
149
0.0
100
AcDbLayout
  1
Layout2
 70
     1
 71
     2
 10
0.0
 20
0.0
 11
0.0
 21
0.0
 12
0.0
 22
0.0
 32
0.0
 14
0.0
 24
0.0
 34
0.0
 15
0.0
 25
0.0
 35
0.0
146
0.0
 13
0.0
 23
0.0
 33
0.0
 16
1.0
 26
0.0
 36
0.0
 17
0.0
 27
1.0
 37
0.0
 76
     0
330
23
  0
LAYOUT
  5
22
102
{ACAD_REACTORS
330
1A
102
}
330
1A
100
AcDbPlotSettings
  1

  2
none_device
  4

  6

 40
0.0
 41
0.0
 42
0.0
 43
0.0
 44
0.0
 45
0.0
 46
0.0
 47
0.0
 48
0.0
 49
0.0
140
0.0
141
0.0
142
1.0
143
1.0
 70
  1712
 72
     0
 73
     0
 74
     0
  7

 75
     0
147
1.0
148
0.0
149
0.0
100
AcDbLayout
  1
Model
 70
     1
 71
     0
 10
0.0
 20
0.0
 11
1260.0
 21
1782.0
 12
0.0
 22
0.0
 32
0.0
 14
0.0
 24
0.0
 34
0.0
 15
1260.0
 25
1782.0
 35
0.0
146
0.0
 13
0.0
 23
0.0
 33
0.0
 16
1.0
 26
0.0
 36
0.0
 17
0.0
 27
1.0
 37
0.0
 76
     0
330
1F
331
29
  0
MLINESTYLE
  5
18
102
{ACAD_REACTORS
330
17
102
}
330
17
100
AcDbMlineStyle
  2
Standard
 70
     0
  3

 62
   256
 51
90.0
 52
90.0
 71
     2
 49
0.5
 62
   256
  6
BYLAYER
 49
-0.5
 62
   256
  6
BYLAYER
  0
ACDBPLACEHOLDER
  5
F
102
{ACAD_REACTORS
330
E
102
}
330
E
  0
ENDSEC
  0
EOF
