  0
SECTION
  2
HEADER
  9
$ACADVER
  1
AC1015
  9
$ACADMAINTVER
 70
     6
  9
$DWGCODEPAGE
  3
DOS932
  9
$INSBASE
 10
0.0
 20
0.0
 30
0.0
  9
$EXTMIN
 10
0.0
 20
0.0
 30
0.0
  9
$EXTMAX
 10
1260.0
 20
1782.0
 30
0.0
  9
$LIMMIN
 10
0.0
 20
0.0
  9
$LIMMAX
 10
1260.0
 20
1782.0
  9
$ORTHOMODE
 70
     0
  9
$REGENMODE
 70
     1
  9
$FILLMODE
 70
     1
  9
$QTEXTMODE
 70
     0
  9
$MIRRTEXT
 70
     1
  9
$LTSCALE
 40
6.0
  9
$ATTMODE
 70
     1
  9
$TEXTSIZE
 40
21.0
  9
$TRACEWID
 40
1.0
  9
$TEXTSTYLE
  7
Standard
  9
$CLAYER
  8
0
  9
$CELTYPE
  6
ByLayer
  9
$CECOLOR
 62
   256
  9
$CELTSCALE
 40
1.0
  9
$DISPSILH
 70
     0
  9
$DIMSCALE
 40
1.0
  9
$DIMASZ
 40
15.0
  9
$DIMEXO
 40
6.0
  9
$DIMDLI
 40
3.75
  9
$DIMRND
 40
0.0
  9
$DIMDLE
 40
0.0
  9
$DIMEXE
 40
6.0
  9
$DIMTP
 40
0.0
  9
$DIMTM
 40
0.0
  9
$DIMTXT
 40
21.0
  9
$DIMCEN
 40
2.5
  9
$DIMTSZ
 40
0.0
  9
$DIMTOL
 70
     0
  9
$DIMLIM
 70
     0
  9
$DIMTIH
 70
     1
  9
$DIMTOH
 70
     1
  9
$DIMSE1
 70
     0
  9
$DIMSE2
 70
     0
  9
$DIMTAD
 70
     1
  9
$DIMZIN
 70
     1
  9
$DIMBLK
  1

  9
$DIMASO
 70
     1
  9
$DIMSHO
 70
     1
  9
$DIMPOST
  1

  9
$DIMAPOST
  1

  9
$DIMALT
 70
     0
  9
$DIMALTD
 70
     3
  9
$DIMALTF
 40
0.0393700787
  9
$DIMLFAC
 40
1.0
  9
$DIMTOFL
 70
     1
  9
$DIMTVP
 40
0.0
  9
$DIMTIX
 70
     0
  9
$DIMSOXD
 70
     0
  9
$DIMSAH
 70
     0
  9
$DIMBLK1
  1

  9
$DIMBLK2
  1

  9
$DIMSTYLE
  2
ISO-25
  9
$DIMCLRD
 70
     0
  9
$DIMCLRE
 70
     0
  9
$DIMCLRT
 70
     0
  9
$DIMTFAC
 40
1.0
  9
$DIMGAP
 40
9.144
  9
$DIMJUST
 70
     0
  9
$DIMSD1
 70
     0
  9
$DIMSD2
 70
     0
  9
$DIMTOLJ
 70
     0
  9
$DIMTZIN
 70
     1
  9
$DIMALTZ
 70
     0
  9
$DIMALTTZ
 70
     0
  9
$DIMUPT
 70
     0
  9
$DIMDEC
 70
     0
  9
$DIMTDEC
 70
     0
  9
$DIMALTU
 70
     2
  9
$DIMALTTD
 70
     3
  9
$DIMTXSTY
  7
Standard
  9
$DIMAUNIT
 70
     0
  9
$DIMADEC
 70
     0
  9
$DIMALTRND
 40
0.0
  9
$DIMAZIN
 70
     0
  9
$DIMDSEP
 70
    44
  9
$DIMATFIT
 70
     3
  9
$DIMFRAC
 70
     0
  9
$DIMLDRBLK
  1

  9
$DIMLUNIT
 70
     2
  9
$DIMLWD
 70
    -2
  9
$DIMLWE
 70
    -2
  9
$DIMTMOVE
 70
     0
  9
$LUNITS
 70
     2
  9
$LUPREC
 70
     0
  9
$SKETCHINC
 40
1.0
  9
$FILLETRAD
 40
10.0
  9
$AUNITS
 70
     0
  9
$AUPREC
 70
     0
  9
$MENU
  1
.
  9
$ELEVATION
 40
0.0
  9
$PELEVATION
 40
0.0
  9
$THICKNESS
 40
0.0
  9
$LIMCHECK
 70
     0
  9
$CHAMFERA
 40
10.0
  9
$CHAMFERB
 40
10.0
  9
$CHAMFERC
 40
20.0
  9
$CHAMFERD
 40
0.0
  9
$SKPOLY
 70
     0
  9
$TDCREATE
 40
2456954.648993507
  9
$TDUCREATE
 40
2456954.273993507
  9
$TDUPDATE
 40
2456954.648995683
  9
$TDUUPDATE
 40
2456954.273995683
  9
$TDINDWG
 40
0.0000000116
  9
$TDUSRTIMER
 40
0.0000000116
  9
$USRTIMER
 70
     1
  9
$ANGBASE
 50
0.0
  9
$ANGDIR
 70
     0
  9
$PDMODE
 70
     0
  9
$PDSIZE
 40
-1.0
  9
$PLINEWID
 40
0.0
  9
$SPLFRAME
 70
     0
  9
$SPLINETYPE
 70
     6
  9
$SPLINESEGS
 70
     8
  9
$HANDSEED
  5
426
  9
$SURFTAB1
 70
     6
  9
$SURFTAB2
 70
     6
  9
$SURFTYPE
 70
     6
  9
$SURFU
 70
     6
  9
$SURFV
 70
     6
  9
$UCSBASE
  2

  9
$UCSNAME
  2

  9
$UCSORG
 10
0.0
 20
0.0
 30
0.0
  9
$UCSXDIR
 10
1.0
 20
0.0
 30
0.0
  9
$UCSYDIR
 10
0.0
 20
1.0
 30
0.0
  9
$UCSORTHOREF
  2

  9
$UCSORTHOVIEW
 70
     0
  9
$UCSORGTOP
 10
0.0
 20
0.0
 30
0.0
  9
$UCSORGBOTTOM
 10
0.0
 20
0.0
 30
0.0
  9
$UCSORGLEFT
 10
0.0
 20
0.0
 30
0.0
  9
$UCSORGRIGHT
 10
0.0
 20
0.0
 30
0.0
  9
$UCSORGFRONT
 10
0.0
 20
0.0
 30
0.0
  9
$UCSORGBACK
 10
0.0
 20
0.0
 30
0.0
  9
$PUCSBASE
  2

  9
$PUCSNAME
  2

  9
$PUCSORG
 10
0.0
 20
0.0
 30
0.0
  9
$PUCSXDIR
 10
1.0
 20
0.0
 30
0.0
  9
$PUCSYDIR
 10
0.0
 20
1.0
 30
0.0
  9
$PUCSORTHOREF
  2

  9
$PUCSORTHOVIEW
 70
     0
  9
$PUCSORGTOP
 10
0.0
 20
0.0
 30
0.0
  9
$PUCSORGBOTTOM
 10
0.0
 20
0.0
 30
0.0
  9
$PUCSORGLEFT
 10
0.0
 20
0.0
 30
0.0
  9
$PUCSORGRIGHT
 10
0.0
 20
0.0
 30
0.0
  9
$PUCSORGFRONT
 10
0.0
 20
0.0
 30
0.0
  9
$PUCSORGBACK
 10
0.0
 20
0.0
 30
0.0
  9
$USERI1
 70
     0
  9
$USERI2
 70
     0
  9
$USERI3
 70
     0
  9
$USERI4
 70
     0
  9
$USERI5
 70
     0
  9
$USERR1
 40
0.0
  9
$USERR2
 40
0.0
  9
$USERR3
 40
0.0
  9
$USERR4
 40
0.0
  9
$USERR5
 40
0.0
  9
$WORLDVIEW
 70
     1
  9
$SHADEDGE
 70
     3
  9
$SHADEDIF
 70
    70
  9
$TILEMODE
 70
     1
  9
$MAXACTVP
 70
    64
  9
$PINSBASE
 10
0.0
 20
0.0
 30
0.0
  9
$PLIMCHECK
 70
     0
  9
$PEXTMIN
 10
1.0000000000E+20
 20
1.0000000000E+20
 30
1.0000000000E+20
  9
$PEXTMAX
 10
-1.0000000000E+20
 20
-1.0000000000E+20
 30
-1.0000000000E+20
  9
$PLIMMIN
 10
0.0
 20
0.0
  9
$PLIMMAX
 10
420.0
 20
297.0
  9
$UNITMODE
 70
     0
  9
$VISRETAIN
 70
     1
  9
$PLINEGEN
 70
     0
  9
$PSLTSCALE
 70
     1
  9
$TREEDEPTH
 70
  3020
  9
$CMLSTYLE
  2
Standard
  9
$CMLJUST
 70
     0
  9
$CMLSCALE
 40
20.0
  9
$PROXYGRAPHICS
 70
     1
  9
$MEASUREMENT
 70
     1
  9
$CELWEIGHT
370
    -1
  9
$ENDCAPS
280
     0
  9
$JOINSTYLE
280
     0
  9
$LWDISPLAY
290
     1
  9
$INSUNITS
 70
     4
  9
$HYPERLINKBASE
  1

  9
$STYLESHEET
  1

  9
$XEDIT
290
     1
  9
$CEPSNTYPE
380
     0
  9
$PSTYLEMODE
290
     1
  9
$FINGERPRINTGUID
  2
{347B58AC-AA70-42AC-83A4-E1C191BE4D3A}
  9
$VERSIONGUID
  2
{FAEB1C32-E019-11D5-929B-00C0DF256EC4}
  9
$EXTNAMES
290
     1
  9
$PSVPSCALE
 40
0.0
  9
$OLESTARTUP
290
     0
  0
ENDSEC
  0
SECTION
  2
CLASSES
  0
CLASS
  1
ACDBDICTIONARYWDFLT
  2
AcDbDictionaryWithDefault
  3
ObjectDBX Classes
 90
        0
280
     0
281
     0
  0
CLASS
  1
VISUALSTYLE
  2
AcDbVisualStyle
  3
ObjectDBX Classes
 90
     4095
280
     0
281
     0
  0
CLASS
  1
MATERIAL
  2
AcDbMaterial
  3
ObjectDBX Classes
 90
     1153
280
     0
281
     0
  0
CLASS
  1
ACDBPLACEHOLDER
  2
AcDbPlaceHolder
  3
ObjectDBX Classes
 90
        0
280
     0
281
     0
  0
CLASS
  1
LAYOUT
  2
AcDbLayout
  3
ObjectDBX Classes
 90
        0
280
     0
281
     0
  0
ENDSEC
  0
SECTION
  2
TABLES
  0
TABLE
  2
VPORT
  5
8
330
0
100
AcDbSymbolTable
 70
     1
  0
VPORT
  5
29
330
8
100
AcDbSymbolTableRecord
100
AcDbViewportTableRecord
  2
*Active
 70
     0
 10
0.0
 20
0.0
 11
1.0
 21
1.0
 12
630.0
 22
891.0
 13
0.0
 23
0.0
 14
10.0
 24
10.0
 15
10.0
 25
10.0
 16
0.0
 26
0.0
 36
1.0
 17
0.0
 27
0.0
 37
0.0
 40
1782.0
 41
0.7070707071
 42
50.0
 43
0.0
 44
0.0
 50
0.0
 51
0.0
 71
     0
 72
  2000
 73
     1
 74
     3
 75
     0
 76
     0
 77
     0
 78
     0
281
     0
 65
     1
110
0.0
120
0.0
130
0.0
111
1.0
121
0.0
131
0.0
112
0.0
122
1.0
132
0.0
 79
     0
146
0.0
  0
ENDTAB
  0
TABLE
  2
LTYPE
  5
5
330
0
100
AcDbSymbolTable
 70
     6
  0
LTYPE
  5
14
330
5
100
AcDbSymbolTableRecord
100
AcDbLinetypeTableRecord
  2
ByBlock
 70
     0
  3

 72
    65
 73
     0
 40
0.0
  0
LTYPE
  5
15
330
5
100
AcDbSymbolTableRecord
100
AcDbLinetypeTableRecord
  2
ByLayer
 70
     0
  3

 72
    65
 73
     0
 40
0.0
  0
LTYPE
  5
16
330
5
100
AcDbSymbolTableRecord
100
AcDbLinetypeTableRecord
  2
Continuous
 70
     0
  3
Solid line
 72
    65
 73
     0
 40
0.0
  0
LTYPE
  5
3F
330
5
100
AcDbSymbolTableRecord
100
AcDbLinetypeTableRecord
  2
HIDDEN
 70
     0
  3
Hidden __ __ __ __ __ __ __ __ __ __ __ __ __ __
 72
    65
 73
     2
 40
1.905
 49
1.27
 74
     0
 49
-0.635
 74
     0
  0
LTYPE
  5
40
330
5
100
AcDbSymbolTableRecord
100
AcDbLinetypeTableRecord
  2
PHANTOM
 70
     0
  3
Phantom ______  __  __  ______  __  __  ______
 72
    65
 73
     6
 40
12.7
 49
6.35
 74
     0
 49
-1.27
 74
     0
 49
1.27
 74
     0
 49
-1.27
 74
     0
 49
1.27
 74
     0
 49
-1.27
 74
     0
  0
LTYPE
  5
41
330
5
100
AcDbSymbolTableRecord
100
AcDbLinetypeTableRecord
  2
CENTER
 70
     0
  3
Center ____ _ ____ _ ____ _ ____ _ ____ _ ____
 72
    65
 73
     4
 40
10.16
 49
6.35
 74
     0
 49
-1.27
 74
     0
 49
1.27
 74
     0
 49
-1.27
 74
     0
  0
LTYPE
  5
42
330
5
100
AcDbSymbolTableRecord
100
AcDbLinetypeTableRecord
  2
CENTERX2
 70
     0
  3
Center (2x) ________  __  ________  __  _____
 72
    65
 73
     4
 40
20.32
 49
12.7
 74
     0
 49
-2.54
 74
     0
 49
2.54
 74
     0
 49
-2.54
 74
     0
  0
LTYPE
  5
43
330
5
100
AcDbSymbolTableRecord
100
AcDbLinetypeTableRecord
  2
DOT2
 70
     0
  3
Dot (.5x) ........................................
 72
    65
 73
     2
 40
0.635
 49
0.0
 74
     0
 49
-0.635
 74
     0
  0
ENDTAB
  0
TABLE
  2
LAYER
  5
2
330
0
100
AcDbSymbolTable
 70
    11
  0
LAYER
  5
10
330
2
100
AcDbSymbolTableRecord
100
AcDbLayerTableRecord
  2
0
 70
     0
 62
     7
  6
Continuous
370
    -3
390
F
  0
LAYER
  5
44
330
2
100
AcDbSymbolTableRecord
100
AcDbLayerTableRecord
  2
SLD-0
 70
     0
 62
   179
  6
Continuous
370
    -3
390
F
  0
LAYER
  5
45
330
2
100
AcDbSymbolTableRecord
100
AcDbLayerTableRecord
  2
AM_6
 70
     0
 62
     2
  6
Continuous
370
    40
390
F
  0
LAYER
  5
46
330
2
100
AcDbSymbolTableRecord
100
AcDbLayerTableRecord
  2
AM_5
 70
     0
 62
     3
  6
Continuous
370
    15
390
F
  0
LAYER
  5
47
330
2
100
AcDbSymbolTableRecord
100
AcDbLayerTableRecord
  2
AM_7
 70
     0
 62
     4
  6
Continuous
370
    15
390
F
  0
LAYER
  5
48
330
2
100
AcDbSymbolTableRecord
100
AcDbLayerTableRecord
  2
SLD-DEFPOINTS
 70
     0
 62
   179
  6
Continuous
370
    -3
390
F
  0
LAYER
  5
49
330
2
100
AcDbSymbolTableRecord
100
AcDbLayerTableRecord
  2
AM_0
 70
     0
 62
   179
  6
Continuous
370
    60
390
F
  0
LAYER
  5
4A
330
2
100
AcDbSymbolTableRecord
100
AcDbLayerTableRecord
  2
AM_CL
 70
     0
 62
     1
  6
Continuous
370
    15
390
F
  0
LAYER
  5
4B
330
2
100
AcDbSymbolTableRecord
100
AcDbLayerTableRecord
  2
6
 70
     0
 62
     2
  6
Continuous
370
    -3
390
F
  0
LAYER
  5
4C
330
2
100
AcDbSymbolTableRecord
100
AcDbLayerTableRecord
  2
AM_4
 70
     0
 62
     3
  6
Continuous
370
    15
390
F
  0
LAYER
  5
4D
330
2
100
AcDbSymbolTableRecord
100
AcDbLayerTableRecord
  2
AM_8
 70
     0
 62
     1
  6
Continuous
370
    15
390
F
  0
ENDTAB
  0
TABLE
  2
STYLE
  5
3
330
0
100
AcDbSymbolTable
 70
     1
  0
STYLE
  5
11
330
3
100
AcDbSymbolTableRecord
100
AcDbTextStyleTableRecord
  2
Standard
 70
     0
 40
0.0
 41
1.0
 50
0.0
 71
     0
 42
21.0
  3
txt
  4
bigfont
  0
ENDTAB
  0
TABLE
  2
VIEW
  5
6
330
0
100
AcDbSymbolTable
 70
     0
  0
ENDTAB
  0
TABLE
  2
UCS
  5
7
330
0
100
AcDbSymbolTable
 70
     0
  0
ENDTAB
  0
TABLE
  2
APPID
  5
9
330
0
100
AcDbSymbolTable
 70
     1
  0
APPID
  5
12
330
9
100
AcDbSymbolTableRecord
100
AcDbRegAppTableRecord
  2
ACAD
 70
     0
  0
ENDTAB
  0
TABLE
  2
DIMSTYLE
  5
A
330
0
100
AcDbSymbolTable
 70
     1
100
AcDbDimStyleTable
  0
DIMSTYLE
105
27
330
A
100
AcDbSymbolTableRecord
100
AcDbDimStyleTableRecord
  2
ISO-25
 70
     0
 41
2.5
 42
0.625
 43
3.75
 44
1.25
 73
     0
 74
     0
 77
     1
 78
     8
140
2.5
141
2.5
143
0.0393700787
147
0.625
171
     3
172
     1
178
     0
271
     2
272
     2
274
     3
278
    44
283
     0
284
     8
340
11
  0
ENDTAB
  0
TABLE
  2
BLOCK_RECORD
  5
1
330
0
100
AcDbSymbolTable
 70
     3
  0
BLOCK_RECORD
  5
1F
330
1
100
AcDbSymbolTableRecord
100
AcDbBlockTableRecord
  2
*Model_Space
340
22
  0
BLOCK_RECORD
  5
1B
330
1
100
AcDbSymbolTableRecord
100
AcDbBlockTableRecord
  2
*Paper_Space
340
1E
  0
BLOCK_RECORD
  5
23
330
1
100
AcDbSymbolTableRecord
100
AcDbBlockTableRecord
  2
*Paper_Space0
340
26
  0
BLOCK_RECORD
  5
281
330
1
100
AcDbSymbolTableRecord
100
AcDbBlockTableRecord
  2
SW_CENTERMARKSYMBOL_0
340
0
102
{BLKREFS
331
28C
102
}
  0
BLOCK_RECORD
  5
3E1
330
1
100
AcDbSymbolTableRecord
100
AcDbBlockTableRecord
  2
SW_CENTERMARKSYMBOL_1
340
0
102
{BLKREFS
331
425
102
}
  0
ENDTAB
  0
ENDSEC
  0
SECTION
  2
BLOCKS
  0
BLOCK
  5
20
330
1F
100
AcDbEntity
  8
0
100
AcDbBlockBegin
  2
*Model_Space
 70
     0
 10
0.0
 20
0.0
 30
0.0
  3
*Model_Space
  1

  0
ENDBLK
  5
21
330
1F
100
AcDbEntity
  8
0
100
AcDbBlockEnd
  0
BLOCK
  5
1C
330
1B
100
AcDbEntity
 67
     1
  8
0
100
AcDbBlockBegin
  2
*Paper_Space
 70
     0
 10
0.0
 20
0.0
 30
0.0
  3
*Paper_Space
  1

  0
ENDBLK
  5
1D
330
1B
100
AcDbEntity
 67
     1
  8
0
100
AcDbBlockEnd
  0
BLOCK
  5
24
330
23
100
AcDbEntity
  8
0
100
AcDbBlockBegin
  2
*Paper_Space0
 70
     0
 10
0.0
 20
0.0
 30
0.0
  3
*Paper_Space0
  1

  0
ENDBLK
  5
25
330
23
100
AcDbEntity
  8
0
100
AcDbBlockEnd
  0
BLOCK
  5
282
330
281
100
AcDbEntity
  8
0
100
AcDbBlockBegin
  2
SW_CENTERMARKSYMBOL_0
 70
     0
 10
0.0
 20
0.0
 30
0.0
  3
SW_CENTERMARKSYMBOL_0
  1

  0
LINE
  5
284
330
281
100
AcDbEntity
  8
SLD-0
 62
     0
100
AcDbLine
 10
0.0
 20
0.0
 30
0.0
 11
0.0
 21
2.5
 31
0.0
  0
LINE
  5
285
330
281
100
AcDbEntity
  8
SLD-0
 62
     0
100
AcDbLine
 10
0.0
 20
0.0
 30
0.0
 11
-2.5
 21
0.0
 31
0.0
  0
LINE
  5
286
330
281
100
AcDbEntity
  8
SLD-0
 62
     0
100
AcDbLine
 10
0.0
 20
0.0
 30
0.0
 11
0.0
 21
-2.5
 31
0.0
  0
LINE
  5
287
330
281
100
AcDbEntity
  8
SLD-0
 62
     0
100
AcDbLine
 10
0.0
 20
0.0
 30
0.0
 11
2.5
 21
0.0
 31
0.0
  0
LINE
  5
288
330
281
100
AcDbEntity
  8
SLD-0
 62
     0
100
AcDbLine
 10
0.0
 20
5.0
 30
0.0
 11
0.0
 21
351.1199585295
 31
0.0
  0
LINE
  5
289
330
281
100
AcDbEntity
  8
SLD-0
 62
     0
100
AcDbLine
 10
-5.0
 20
0.0
 30
0.0
 11
-28.0
 21
0.0
 31
0.0
  0
LINE
  5
28A
330
281
100
AcDbEntity
  8
SLD-0
 62
     0
100
AcDbLine
 10
0.0
 20
-5.0
 30
0.0
 11
0.0
 21
-310.0198057973
 31
0.0
  0
LINE
  5
28B
330
281
100
AcDbEntity
  8
SLD-0
 62
     0
100
AcDbLine
 10
5.0
 20
0.0
 30
0.0
 11
28.0
 21
0.0
 31
0.0
  0
ENDBLK
  5
283
330
281
100
AcDbEntity
  8
0
100
AcDbBlockEnd
  0
BLOCK
  5
3E2
330
3E1
100
AcDbEntity
  8
0
100
AcDbBlockBegin
  2
SW_CENTERMARKSYMBOL_1
 70
     0
 10
0.0
 20
0.0
 30
0.0
  3
SW_CENTERMARKSYMBOL_1
  1

  0
ARC
  5
3E4
330
3E1
100
AcDbEntity
  8
SLD-0
 62
     0
100
AcDbCircle
 10
76.0139789776
 20
-76.0139789776
 30
0.0
 40
107.5
100
AcDbArc
 50
135.0
 51
136.3324599887
  0
ARC
  5
3E5
330
3E1
100
AcDbEntity
  8
SLD-0
 62
     0
100
AcDbCircle
 10
76.0139789776
 20
-76.0139789776
 30
0.0
 40
107.5
100
AcDbArc
 50
133.6675400113
 51
135.0
  0
ARC
  5
3E6
330
3E1
100
AcDbEntity
  8
SLD-0
 62
     0
100
AcDbCircle
 10
76.0139789776
 20
-76.0139789776
 30
0.0
 40
107.5
100
AcDbArc
 50
45.0
 51
46.3324599887
  0
ARC
  5
3E7
330
3E1
100
AcDbEntity
  8
SLD-0
 62
     0
100
AcDbCircle
 10
76.0139789776
 20
-76.0139789776
 30
0.0
 40
107.4999999999999
100
AcDbArc
 50
43.6675400113
 51
45.0
  0
ARC
  5
3E8
330
3E1
100
AcDbEntity
  8
SLD-0
 62
     0
100
AcDbCircle
 10
76.0139789776
 20
-76.0139789776
 30
0.0
 40
107.5000000000001
100
AcDbArc
 50
315.0
 51
316.3324599887
  0
ARC
  5
3E9
330
3E1
100
AcDbEntity
  8
SLD-0
 62
     0
100
AcDbCircle
 10
76.0139789776
 20
-76.0139789776
 30
0.0
 40
107.5
100
AcDbArc
 50
313.6675400113
 51
315.0
  0
ARC
  5
3EA
330
3E1
100
AcDbEntity
  8
SLD-0
 62
     0
100
AcDbCircle
 10
76.0139789776
 20
-76.0139789776
 30
0.0
 40
107.4999999999999
100
AcDbArc
 50
225.0
 51
226.3324599887
  0
ARC
  5
3EB
330
3E1
100
AcDbEntity
  8
SLD-0
 62
     0
100
AcDbCircle
 10
76.0139789776
 20
-76.0139789776
 30
0.0
 40
107.5
100
AcDbArc
 50
223.6675400113
 51
225.0
  0
ARC
  5
3EC
330
3E1
100
AcDbEntity
  8
SLD-0
 62
     0
100
AcDbCircle
 10
76.0139789776
 20
-76.0139789776
 30
0.0
 40
39.00000000000005
100
AcDbArc
 50
210.0
 51
213.672806379
  0
ARC
  5
3ED
330
3E1
100
AcDbEntity
  8
SLD-0
 62
     0
100
AcDbCircle
 10
76.0139789776
 20
-76.0139789776
 30
0.0
 40
39.00000000000005
100
AcDbArc
 50
206.327193621
 51
210.0
  0
ARC
  5
3EE
330
3E1
100
AcDbEntity
  8
SLD-0
 62
     0
100
AcDbCircle
 10
76.0139789776
 20
-76.0139789776
 30
0.0
 40
38.99999999999995
100
AcDbArc
 50
90.0
 51
93.672806379
  0
ARC
  5
3EF
330
3E1
100
AcDbEntity
  8
SLD-0
 62
     0
100
AcDbCircle
 10
76.0139789776
 20
-76.0139789776
 30
0.0
 40
38.99999999999995
100
AcDbArc
 50
86.327193621
 51
90.0
  0
ARC
  5
3F0
330
3E1
100
AcDbEntity
  8
SLD-0
 62
     0
100
AcDbCircle
 10
76.0139789776
 20
-76.0139789776
 30
0.0
 40
39.00000000000004
100
AcDbArc
 50
330.0
 51
333.672806379
  0
ARC
  5
3F1
330
3E1
100
AcDbEntity
  8
SLD-0
 62
     0
100
AcDbCircle
 10
76.0139789776
 20
-76.0139789776
 30
0.0
 40
39.00000000000005
100
AcDbArc
 50
326.327193621
 51
330.0
  0
ARC
  5
3F2
330
3E1
100
AcDbEntity
  8
SLD-0
 62
     0
100
AcDbCircle
 10
76.0139789776
 20
-76.0139789776
 30
0.0
 40
112.2
100
AcDbArc
 50
75.0
 51
76.2766439285
  0
ARC
  5
3F3
330
3E1
100
AcDbEntity
  8
SLD-0
 62
     0
100
AcDbCircle
 10
76.0139789776
 20
-76.0139789776
 30
0.0
 40
112.2
100
AcDbArc
 50
73.7233560715
 51
75.0
  0
ARC
  5
3F4
330
3E1
100
AcDbEntity
  8
SLD-0
 62
     0
100
AcDbCircle
 10
76.0139789776
 20
-76.0139789776
 30
0.0
 40
112.2
100
AcDbArc
 50
77.5532878571
 51
81.8938772141
  0
ARC
  5
3F5
330
3E1
100
AcDbEntity
  8
SLD-0
 62
     0
100
AcDbCircle
 10
76.0139789776
 20
-76.0139789776
 30
0.0
 40
112.2
100
AcDbArc
 50
68.1061227859
 51
72.4467121429
  0
ARC
  5
3F6
330
3E1
100
AcDbEntity
  8
SLD-0
 62
     0
100
AcDbCircle
 10
76.0139789776
 20
-76.0139789776
 30
0.0
 40
107.5
100
AcDbArc
 50
47.6649199774
 51
132.3350800226
  0
ARC
  5
3F7
330
3E1
100
AcDbEntity
  8
SLD-0
 62
     0
100
AcDbCircle
 10
76.0139789776
 20
-76.0139789776
 30
0.0
 40
107.5
100
AcDbArc
 50
317.6649199774
 51
42.3350800226
  0
ARC
  5
3F8
330
3E1
100
AcDbEntity
  8
SLD-0
 62
     0
100
AcDbCircle
 10
76.0139789776
 20
-76.0139789776
 30
0.0
 40
107.4999999999999
100
AcDbArc
 50
137.6649199774
 51
222.3350800226
  0
ARC
  5
3F9
330
3E1
100
AcDbEntity
  8
SLD-0
 62
     0
100
AcDbCircle
 10
76.0139789776
 20
-76.0139789776
 30
0.0
 40
107.5
100
AcDbArc
 50
227.6649199774
 51
312.3350800226
  0
ARC
  5
3FA
330
3E1
100
AcDbEntity
  8
SLD-0
 62
     0
100
AcDbCircle
 10
76.0139789776
 20
-76.0139789776
 30
0.0
 40
39.00000000000005
100
AcDbArc
 50
97.3456127581
 51
202.6543872419
  0
ARC
  5
3FB
330
3E1
100
AcDbEntity
  8
SLD-0
 62
     0
100
AcDbCircle
 10
76.0139789776
 20
-76.0139789776
 30
0.0
 40
39.00000000000004
100
AcDbArc
 50
217.3456127581
 51
322.6543872419
  0
ARC
  5
3FC
330
3E1
100
AcDbEntity
  8
SLD-0
 62
     0
100
AcDbCircle
 10
76.0139789776
 20
-76.0139789776
 30
0.0
 40
39.00000000000006
100
AcDbArc
 50
337.3456127581
 51
82.6543872419
  0
LINE
  5
3FD
330
3E1
100
AcDbEntity
  8
SLD-0
 62
     0
100
AcDbLine
 10
0.0
 20
0.0
 30
0.0
 11
-1.767766953
 21
1.767766953
 31
0.0
  0
LINE
  5
3FE
330
3E1
100
AcDbEntity
  8
SLD-0
 62
     0
100
AcDbLine
 10
0.0
 20
0.0
 30
0.0
 11
1.767766953
 21
-1.767766953
 31
0.0
  0
LINE
  5
3FF
330
3E1
100
AcDbEntity
  8
SLD-0
 62
     0
100
AcDbLine
 10
-3.5355339059
 20
3.5355339059
 30
0.0
 11
-6.0104076401
 21
6.0104076401
 31
0.0
  0
LINE
  5
400
330
3E1
100
AcDbEntity
  8
SLD-0
 62
     0
100
AcDbLine
 10
3.5355339059
 20
-3.5355339059
 30
0.0
 11
6.0104076401
 21
-6.0104076401
 31
0.0
  0
LINE
  5
401
330
3E1
100
AcDbEntity
  8
SLD-0
 62
     0
100
AcDbLine
 10
152.0279579551
 20
0.0
 30
0.0
 11
153.7957249081
 21
1.767766953
 31
0.0
  0
LINE
  5
402
330
3E1
100
AcDbEntity
  8
SLD-0
 62
     0
100
AcDbLine
 10
152.0279579551
 20
0.0
 30
0.0
 11
150.2601910021
 21
-1.767766953
 31
0.0
  0
LINE
  5
403
330
3E1
100
AcDbEntity
  8
SLD-0
 62
     0
100
AcDbLine
 10
155.563491861
 20
3.5355339059
 30
0.0
 11
158.0383655952
 21
6.0104076401
 31
0.0
  0
LINE
  5
404
330
3E1
100
AcDbEntity
  8
SLD-0
 62
     0
100
AcDbLine
 10
148.4924240492
 20
-3.5355339059
 30
0.0
 11
146.017550315
 21
-6.0104076401
 31
0.0
  0
LINE
  5
405
330
3E1
100
AcDbEntity
  8
SLD-0
 62
     0
100
AcDbLine
 10
152.0279579551
 20
-152.0279579551
 30
0.0
 11
153.7957249081
 21
-153.7957249081
 31
0.0
  0
LINE
  5
406
330
3E1
100
AcDbEntity
  8
SLD-0
 62
     0
100
AcDbLine
 10
152.0279579551
 20
-152.0279579551
 30
0.0
 11
150.2601910021
 21
-150.2601910021
 31
0.0
  0
LINE
  5
407
330
3E1
100
AcDbEntity
  8
SLD-0
 62
     0
100
AcDbLine
 10
155.563491861
 20
-155.563491861
 30
0.0
 11
158.0383655952
 21
-158.0383655952
 31
0.0
  0
LINE
  5
408
330
3E1
100
AcDbEntity
  8
SLD-0
 62
     0
100
AcDbLine
 10
148.4924240492
 20
-148.4924240492
 30
0.0
 11
146.017550315
 21
-146.017550315
 31
0.0
  0
LINE
  5
409
330
3E1
100
AcDbEntity
  8
SLD-0
 62
     0
100
AcDbLine
 10
76.0139789776
 20
-76.0139789776
 30
0.0
 11
76.0139789776
 21
-73.5139789776
 31
0.0
  0
LINE
  5
40A
330
3E1
100
AcDbEntity
  8
SLD-0
 62
     0
100
AcDbLine
 10
76.0139789776
 20
-76.0139789776
 30
0.0
 11
73.5139789776
 21
-76.0139789776
 31
0.0
  0
LINE
  5
40B
330
3E1
100
AcDbEntity
  8
SLD-0
 62
     0
100
AcDbLine
 10
76.0139789776
 20
-76.0139789776
 30
0.0
 11
76.0139789776
 21
-78.5139789776
 31
0.0
  0
LINE
  5
40C
330
3E1
100
AcDbEntity
  8
SLD-0
 62
     0
100
AcDbLine
 10
76.0139789776
 20
-76.0139789776
 30
0.0
 11
78.5139789776
 21
-76.0139789776
 31
0.0
  0
LINE
  5
40D
330
3E1
100
AcDbEntity
  8
SLD-0
 62
     0
100
AcDbLine
 10
76.0139789776
 20
-71.0139789776
 30
0.0
 11
76.0139789776
 21
2.5
 31
0.0
  0
LINE
  5
40E
330
3E1
100
AcDbEntity
  8
SLD-0
 62
     0
100
AcDbLine
 10
71.0139789776
 20
-76.0139789776
 30
0.0
 11
-2.5
 21
-76.0139789776
 31
0.0
  0
LINE
  5
40F
330
3E1
100
AcDbEntity
  8
SLD-0
 62
     0
100
AcDbLine
 10
76.0139789776
 20
-81.0139789776
 30
0.0
 11
76.0139789776
 21
-154.5279579551
 31
0.0
  0
LINE
  5
410
330
3E1
100
AcDbEntity
  8
SLD-0
 62
     0
100
AcDbLine
 10
81.0139789776
 20
-76.0139789776
 30
0.0
 11
154.5279579551
 21
-76.0139789776
 31
0.0
  0
LINE
  5
411
330
3E1
100
AcDbEntity
  8
SLD-0
 62
     0
100
AcDbLine
 10
0.0
 20
-152.0279579551
 30
0.0
 11
-1.767766953
 21
-153.7957249081
 31
0.0
  0
LINE
  5
412
330
3E1
100
AcDbEntity
  8
SLD-0
 62
     0
100
AcDbLine
 10
0.0
 20
-152.0279579551
 30
0.0
 11
1.767766953
 21
-150.2601910021
 31
0.0
  0
LINE
  5
413
330
3E1
100
AcDbEntity
  8
SLD-0
 62
     0
100
AcDbLine
 10
-3.5355339059
 20
-155.563491861
 30
0.0
 11
-6.0104076401
 21
-158.0383655952
 31
0.0
  0
LINE
  5
414
330
3E1
100
AcDbEntity
  8
SLD-0
 62
     0
100
AcDbLine
 10
3.5355339059
 20
-148.4924240492
 30
0.0
 11
6.0104076401
 21
-146.017550315
 31
0.0
  0
LINE
  5
415
330
3E1
100
AcDbEntity
  8
SLD-0
 62
     0
100
AcDbLine
 10
42.23898823
 20
-95.5139789776
 30
0.0
 11
40.0739247205
 21
-96.7639789776
 31
0.0
  0
LINE
  5
416
330
3E1
100
AcDbEntity
  8
SLD-0
 62
     0
100
AcDbLine
 10
42.23898823
 20
-95.5139789776
 30
0.0
 11
44.4040517394
 21
-94.2639789776
 31
0.0
  0
LINE
  5
417
330
3E1
100
AcDbEntity
  8
SLD-0
 62
     0
100
AcDbLine
 10
40.0739247205
 20
-96.7639789776
 30
0.0
 11
37.908861211
 21
-98.0139789776
 31
0.0
  0
LINE
  5
418
330
3E1
100
AcDbEntity
  8
SLD-0
 62
     0
100
AcDbLine
 10
44.4040517394
 20
-94.2639789776
 30
0.0
 11
46.5691152489
 21
-93.0139789776
 31
0.0
  0
LINE
  5
419
330
3E1
100
AcDbEntity
  8
SLD-0
 62
     0
100
AcDbLine
 10
76.0139789776
 20
-37.0139789776
 30
0.0
 11
76.0139789776
 21
-34.5139789776
 31
0.0
  0
LINE
  5
41A
330
3E1
100
AcDbEntity
  8
SLD-0
 62
     0
100
AcDbLine
 10
76.0139789776
 20
-37.0139789776
 30
0.0
 11
76.0139789776
 21
-39.5139789776
 31
0.0
  0
LINE
  5
41B
330
3E1
100
AcDbEntity
  8
SLD-0
 62
     0
100
AcDbLine
 10
76.0139789776
 20
-34.5139789776
 30
0.0
 11
76.0139789776
 21
-32.0139789776
 31
0.0
  0
LINE
  5
41C
330
3E1
100
AcDbEntity
  8
SLD-0
 62
     0
100
AcDbLine
 10
76.0139789776
 20
-39.5139789776
 30
0.0
 11
76.0139789776
 21
-42.0139789776
 31
0.0
  0
LINE
  5
41D
330
3E1
100
AcDbEntity
  8
SLD-0
 62
     0
100
AcDbLine
 10
109.7889697251
 20
-95.5139789776
 30
0.0
 11
111.9540332346
 21
-96.7639789776
 31
0.0
  0
LINE
  5
41E
330
3E1
100
AcDbEntity
  8
SLD-0
 62
     0
100
AcDbLine
 10
109.7889697251
 20
-95.5139789776
 30
0.0
 11
107.6239062157
 21
-94.2639789776
 31
0.0
  0
LINE
  5
41F
330
3E1
100
AcDbEntity
  8
SLD-0
 62
     0
100
AcDbLine
 10
111.9540332346
 20
-96.7639789776
 30
0.0
 11
114.1190967441
 21
-98.0139789776
 31
0.0
  0
LINE
  5
420
330
3E1
100
AcDbEntity
  8
SLD-0
 62
     0
100
AcDbLine
 10
107.6239062157
 20
-94.2639789776
 30
0.0
 11
105.4588427062
 21
-93.0139789776
 31
0.0
  0
LINE
  5
421
330
3E1
100
AcDbEntity
  8
SLD-0
 62
     0
100
AcDbLine
 10
105.0534758381
 20
32.3628987321
 30
0.0
 11
105.7005234508
 21
34.7777132978
 31
0.0
  0
LINE
  5
422
330
3E1
100
AcDbEntity
  8
SLD-0
 62
     0
100
AcDbLine
 10
105.0534758381
 20
32.3628987321
 30
0.0
 11
104.4064282253
 21
29.9480841664
 31
0.0
  0
LINE
  5
423
330
3E1
100
AcDbEntity
  8
SLD-0
 62
     0
100
AcDbLine
 10
106.3475710636
 20
37.1925278635
 30
0.0
 11
108.5475329469
 21
45.402897387
 31
0.0
  0
LINE
  5
424
330
3E1
100
AcDbEntity
  8
SLD-0
 62
     0
100
AcDbLine
 10
103.7593806125
 20
27.5332696006
 30
0.0
 11
101.5594187292
 21
19.3229000772
 31
0.0
  0
ENDBLK
  5
3E3
330
3E1
100
AcDbEntity
  8
0
100
AcDbBlockEnd
  0
ENDSEC
  0
SECTION
  2
ENTITIES
  0
LINE
  5
4E
330
1F
100
AcDbEntity
  8
0
  6
Continuous
 62
     7
370
    15
100
AcDbLine
 10
769.370099584
 20
1132.7887452143
 30
0.0
 11
770.2146079935
 21
1132.7887452143
 31
0.0
  0
LINE
  5
4F
330
1F
100
AcDbEntity
  8
0
  6
Continuous
 62
     7
370
    15
100
AcDbLine
 10
770.2146079935
 20
1148.7887459743
 30
0.0
 11
769.370099584
 21
1148.7887459743
 31
0.0
  0
LINE
  5
50
330
1F
100
AcDbEntity
  8
0
  6
Continuous
 62
     7
370
    15
100
AcDbLine
 10
579.3701019682
 20
1148.7887459743
 30
0.0
 11
578.5255935587
 21
1148.7887459743
 31
0.0
  0
LINE
  5
51
330
1F
100
AcDbEntity
  8
0
  6
Continuous
 62
     7
370
    15
100
AcDbLine
 10
578.5255935587
 20
1132.7887452143
 30
0.0
 11
579.3701019682
 21
1132.7887452143
 31
0.0
  0
LINE
  5
52
330
1F
100
AcDbEntity
  8
0
  6
Continuous
 62
     7
370
    15
100
AcDbLine
 10
677.9765477948
 20
1278.5276784497
 30
0.0
 11
677.6008620471
 21
1277.9993652302
 31
0.0
  0
LINE
  5
53
330
1F
100
AcDbEntity
  8
0
  6
Continuous
 62
     7
370
    15
100
AcDbLine
 10
684.1205405615
 20
1273.3632265526
 30
0.0
 11
684.4962258436
 21
1273.8915397721
 31
0.0
  0
LINE
  5
54
330
1F
100
AcDbEntity
  8
0
  6
Continuous
 62
     7
370
    15
100
AcDbLine
 10
734.0002451636
 20
1278.5276784497
 30
0.0
 11
733.6245608129
 21
1277.9993652302
 31
0.0
  0
LINE
  5
55
330
1F
100
AcDbEntity
  8
0
  6
Continuous
 62
     7
370
    15
100
AcDbLine
 10
740.1442360677
 20
1273.3632265526
 30
0.0
 11
740.5199241437
 21
1273.8915397721
 31
0.0
  0
LINE
  5
56
330
1F
100
AcDbEntity
  8
0
  6
Continuous
 62
     7
370
    15
100
AcDbLine
 10
725.9448040821
 20
1364.0397055942
 30
0.0
 11
725.5691197314
 21
1363.5113998252
 31
0.0
  0
LINE
  5
57
330
1F
100
AcDbEntity
  8
0
  6
Continuous
 62
     7
370
    15
100
AcDbLine
 10
732.0887987115
 20
1358.8752462464
 30
0.0
 11
732.4644830622
 21
1359.4035669166
 31
0.0
  0
LINE
  5
58
330
1F
100
AcDbEntity
  8
0
  6
Continuous
 62
     7
370
    15
100
AcDbLine
 10
669.9211071789
 20
1364.0397055942
 30
0.0
 11
669.5454214312
 21
1363.5113998252
 31
0.0
  0
LINE
  5
59
330
1F
100
AcDbEntity
  8
0
  6
Continuous
 62
     7
370
    15
100
AcDbLine
 10
676.0650997128
 20
1358.8752462464
 30
0.0
 11
676.4407854606
 21
1359.4035669166
 31
0.0
  0
LINE
  5
5A
330
1F
100
AcDbEntity
  8
0
  6
Continuous
 62
     7
370
    15
100
AcDbLine
 10
709.7001467444
 20
1333.7073340016
 30
0.0
 11
709.6872050859
 21
1333.7073340016
 31
0.0
  0
SPLINE
  5
5B
330
1F
100
AcDbEntity
  8
0
  6
Continuous
 62
     7
370
    15
100
AcDbSpline
210
0.0
220
0.0
230
1.0
 70
     8
 71
     3
 72
    14
 73
    10
 74
     0
 42
0.00000001
 43
0.00000001
 12
1.0
 22
0.0
 32
0.0
 13
1.0
 23
0.0
 33
0.0
 40
0.0
 40
0.0
 40
0.0
 40
0.0
 40
0.1062530595064407
 40
0.2679106726009684
 40
0.4299649563996162
 40
0.5918395780583736
 40
0.7532306136326259
 40
0.9139434617080561
 40
0.9999999999999999
 40
0.9999999999999999
 40
0.9999999999999999
 40
0.9999999999999999
 10
734.5449720122066
 20
1353.221835096458
 30
0.0
 10
734.5316072055383
 20
1353.498431226718
 30
0.0
 10
734.4979086526654
 20
1354.195851664689
 30
0.0
 10
734.1660008356957
 20
1355.279527698167
 30
0.0
 10
733.5192663503117
 20
1356.372413307531
 30
0.0
 10
732.6176563121289
 20
1357.265968256354
 30
0.0
 10
731.527295918823
 20
1357.894683990751
 30
0.0
 10
730.5028710393243
 20
1358.186206511466
 30
0.0
 10
729.8684413560953
 20
1358.212630368102
 30
0.0
 10
729.6471950210777
 20
1358.221845229247
 30
0.0
  0
SPLINE
  5
5C
330
1F
100
AcDbEntity
  8
0
  6
Continuous
 62
     7
370
    15
100
AcDbSpline
210
0.0
220
0.0
230
1.0
 70
     8
 71
     3
 72
    10
 73
     6
 74
     0
 42
0.00000001
 43
0.00000001
 12
1.0
 22
0.0
 32
0.0
 13
1.0
 23
0.0
 33
0.0
 40
0.0
 40
0.0
 40
0.0
 40
0.0
 40
0.2657854506831164
 40
0.6945998875585181
 40
1.0
 40
1.0
 40
1.0
 40
1.0
 10
733.7213550307002
 20
1282.645487685779
 30
0.0
 10
733.8608913585695
 20
1282.869277334442
 30
0.0
 10
734.225553597978
 20
1283.454125994887
 30
0.0
 10
734.4902781796887
 20
1284.432556539137
 30
0.0
 10
734.5289049989033
 20
1285.160819699223
 30
0.0
 10
734.5449720122066
 20
1285.463744302371
 30
0.0
  0
LINE
  5
5D
330
1F
100
AcDbEntity
  8
0
  6
Continuous
 62
     7
370
    15
100
AcDbLine
 10
734.5449720122
 20
1285.4637443024
 30
0.0
 11
734.5449720122
 21
1353.2218350965
 31
0.0
  0
LINE
  5
5E
330
1F
100
AcDbEntity
  8
0
  6
Continuous
 62
     7
370
    15
100
AcDbLine
 10
732.8891996838
 20
1281.3950194913
 30
0.0
 11
733.5582171179
 21
1282.3358415562
 31
0.0
  0
SPLINE
  5
5F
330
1F
100
AcDbEntity
  8
0
  6
Continuous
 62
     7
370
    15
100
AcDbSpline
210
0.0
220
0.0
230
1.0
 70
     8
 71
     3
 72
    11
 73
     7
 74
     0
 42
0.00000001
 43
0.00000001
 12
1.0
 22
0.0
 32
0.0
 13
1.0
 23
0.0
 33
0.0
 40
0.0
 40
0.0
 40
0.0
 40
0.0
 40
0.2634791908729899
 40
0.6086828864336185
 40
0.9403360954444828
 40
1.0
 40
1.0
 40
1.0
 40
1.0
 10
742.0584466852393
 20
1271.813423832038
 30
0.0
 10
742.2388384403749
 20
1272.077687904393
 30
0.0
 10
742.6555748583096
 20
1272.688184003946
 30
0.0
 10
742.9732340069334
 20
1273.803581610982
 30
0.0
 10
743.0380806936183
 20
1274.706931257881
 30
0.0
 10
742.9990311760533
 20
1275.186224830233
 30
0.0
 10
742.9930773176399
 20
1275.259302456954
 30
0.0
  0
LINE
  5
60
330
1F
100
AcDbEntity
  8
0
  6
Continuous
 62
     7
370
    15
100
AcDbLine
 10
741.0363313355
 20
1270.3259228664
 30
0.0
 11
742.0821395315
 21
1271.7966078716
 31
0.0
  0
LINE
  5
61
330
1F
100
AcDbEntity
  8
0
  6
Continuous
 62
     7
370
    15
100
AcDbLine
 10
742.9930773176
 20
1275.259302457
 30
0.0
 11
734.849115888
 21
1361.7110266286
 31
0.0
  0
SPLINE
  5
62
330
1F
100
AcDbEntity
  8
0
  6
Continuous
 62
     7
370
    15
100
AcDbSpline
210
0.0
220
0.0
230
1.0
 70
     8
 71
     3
 72
    12
 73
     8
 74
     0
 42
0.00000001
 43
0.00000001
 12
1.0
 22
0.0
 32
0.0
 13
1.0
 23
0.0
 33
0.0
 40
0.0
 40
0.0
 40
0.0
 40
0.0
 40
0.1595846157960304
 40
0.4207787702501692
 40
0.6809499518407461
 40
0.9385470492008223
 40
1.0
 40
1.0
 40
1.0
 40
1.0
 10
671.9491964284476
 20
1367.010356386283
 30
0.0
 10
671.6802085846041
 20
1366.998777734846
 30
0.0
 10
670.9709649424138
 20
1366.968248158492
 30
0.0
 10
669.8588549208189
 20
1366.659332734587
 30
0.0
 10
668.7418655352562
 20
1366.013840350671
 30
0.0
 10
667.9989321454293
 20
1365.378267003061
 30
0.0
 10
667.7329364911624
 20
1364.925272666794
 30
0.0
 10
667.6817024670687
 20
1364.83802040396
 30
0.0
  0
LINE
  5
63
330
1F
100
AcDbEntity
  8
0
  6
Continuous
 62
     7
370
    15
100
AcDbLine
 10
667.6580110178
 20
1364.8548289138
 30
0.0
 11
666.6122060813
 21
1363.3841439086
 31
0.0
  0
LINE
  5
64
330
1F
100
AcDbEntity
  8
0
  6
Continuous
 62
     7
370
    15
100
AcDbLine
 10
728.938819895
 20
1367.0103563863
 30
0.0
 11
671.9491964284
 21
1367.0103563863
 31
0.0
  0
SPLINE
  5
65
330
1F
100
AcDbEntity
  8
0
  6
Continuous
 62
     7
370
    15
100
AcDbSpline
210
0.0
220
0.0
230
1.0
 70
     8
 71
     3
 72
    14
 73
    10
 74
     0
 42
0.00000001
 43
0.00000001
 12
1.0
 22
0.0
 32
0.0
 13
1.0
 23
0.0
 33
0.0
 40
0.0
 40
0.0
 40
0.0
 40
0.0
 40
0.0944008206953519
 40
0.2458327634380908
 40
0.3982164986151904
 40
0.5517660946392043
 40
0.706257291829777
 40
0.86137535411008
 40
1.0
 40
1.0
 40
1.0
 40
1.0
 10
734.8491158880439
 20
1361.711026628593
 30
0.0
 10
734.8121425236318
 20
1361.97695298015
 30
0.0
 10
734.7158587807568
 20
1362.669461894721
 30
0.0
 10
734.301335612221
 20
1363.749158164031
 30
0.0
 10
733.5697253825755
 20
1364.863762031637
 30
0.0
 10
732.5936421485677
 20
1365.802342569711
 30
0.0
 10
731.4293326012579
 20
1366.503511896949
 30
0.0
 10
730.1829985990452
 20
1366.934154052244
 30
0.0
 10
729.3377256649176
 20
1366.985924565812
 30
0.0
 10
728.9388198949542
 20
1367.010356386283
 30
0.0
  0
LINE
  5
66
330
1F
100
AcDbEntity
  8
0
  6
Continuous
 62
     7
370
    15
100
AcDbLine
 10
729.6433616974
 20
854.2887582379
 30
0.0
 11
729.6433616974
 21
855.2887453633
 31
0.0
  0
LINE
  5
67
330
1F
100
AcDbEntity
  8
0
  6
Continuous
 62
     7
370
    15
100
AcDbLine
 10
715.2633611657
 20
855.2887453633
 30
0.0
 11
715.2633611657
 21
854.2887582379
 31
0.0
  0
LINE
  5
68
330
1F
100
AcDbEntity
  8
0
  6
Continuous
 62
     7
370
    15
100
AcDbLine
 10
726.4533620872
 20
870.2887608605
 30
0.0
 11
726.4533620872
 21
1007.7887489396
 31
0.0
  0
LINE
  5
69
330
1F
100
AcDbEntity
  8
0
  6
Continuous
 62
     7
370
    15
100
AcDbLine
 10
726.4533620872
 20
1022.7887495357
 30
0.0
 11
726.4533620872
 21
1024.2887451249
 31
0.0
  0
LINE
  5
6A
330
1F
100
AcDbEntity
  8
0
  6
Continuous
 62
     7
370
    15
100
AcDbLine
 10
718.4533607759
 20
1024.2887451249
 30
0.0
 11
718.4533607759
 21
1022.7887495357
 31
0.0
  0
LINE
  5
6B
330
1F
100
AcDbEntity
  8
0
  6
Continuous
 62
     7
370
    15
100
AcDbLine
 10
718.4533607759
 20
1007.7887489396
 30
0.0
 11
718.4533607759
 21
870.2887608605
 31
0.0
  0
LINE
  5
6C
330
1F
100
AcDbEntity
  8
0
  6
Continuous
 62
     7
370
    15
100
AcDbLine
 10
633.4768403866
 20
854.2887582379
 30
0.0
 11
633.4768403866
 21
855.2887453633
 31
0.0
  0
LINE
  5
6D
330
1F
100
AcDbEntity
  8
0
  6
Continuous
 62
     7
370
    15
100
AcDbLine
 10
619.0968398549
 20
855.2887453633
 30
0.0
 11
619.0968398549
 21
854.2887582379
 31
0.0
  0
LINE
  5
6E
330
1F
100
AcDbEntity
  8
0
  6
Continuous
 62
     7
370
    15
100
AcDbLine
 10
630.2868407764
 20
870.2887608605
 30
0.0
 11
630.2868407764
 21
1007.7887489396
 31
0.0
  0
LINE
  5
6F
330
1F
100
AcDbEntity
  8
0
  6
Continuous
 62
     7
370
    15
100
AcDbLine
 10
630.2868407764
 20
1022.7887495357
 30
0.0
 11
630.2868407764
 21
1024.2887451249
 31
0.0
  0
LINE
  5
70
330
1F
100
AcDbEntity
  8
0
  6
Continuous
 62
     7
370
    15
100
AcDbLine
 10
622.2868394651
 20
1024.2887451249
 30
0.0
 11
622.2868394651
 21
1022.7887495357
 31
0.0
  0
LINE
  5
71
330
1F
100
AcDbEntity
  8
0
  6
Continuous
 62
     7
370
    15
100
AcDbLine
 10
622.2868394651
 20
1007.7887489396
 30
0.0
 11
622.2868394651
 21
870.2887608605
 31
0.0
  0
LINE
  5
72
330
1F
100
AcDbEntity
  8
0
  6
Continuous
 62
     7
370
    15
100
AcDbLine
 10
613.3701000907
 20
895.2887370187
 30
0.0
 11
613.3701000907
 21
870.2887608605
 31
0.0
  0
LINE
  5
73
330
1F
100
AcDbEntity
  8
0
  6
Continuous
 62
     7
370
    15
100
AcDbLine
 10
735.3701014616
 20
870.2887608605
 30
0.0
 11
735.3701014616
 21
895.2887370187
 31
0.0
  0
LINE
  5
74
330
1F
100
AcDbEntity
  8
0
  6
Continuous
 62
     7
370
    15
100
AcDbLine
 10
613.1549496748
 20
870.2887608605
 30
0.0
 11
613.1549496748
 21
857.2887494164
 31
0.0
  0
ARC
  5
75
330
1F
100
AcDbEntity
  8
0
  6
Continuous
 62
     7
370
    15
100
AcDbCircle
 10
615.1549509636
 20
857.2887460786
 30
0.0
 40
2.0
100
AcDbArc
 50
180.0
 51
270.0
  0
LINE
  5
76
330
1F
100
AcDbEntity
  8
0
  6
Continuous
 62
     7
370
    15
100
AcDbLine
 10
735.5852518775
 20
857.2887494164
 30
0.0
 11
735.5852518775
 21
870.2887608605
 31
0.0
  0
ARC
  5
77
330
1F
100
AcDbEntity
  8
0
  6
Continuous
 62
     7
370
    15
100
AcDbCircle
 10
733.5852505887
 20
857.2887460786
 30
0.0
 40
2.0
100
AcDbArc
 50
270.0
 51
0.0
  0
ARC
  5
78
330
1F
100
AcDbEntity
  8
0
  6
Continuous
 62
     7
370
    15
100
AcDbCircle
 10
633.3701007761
 20
850.2887460786
 30
0.0
 40
5.000000000000036
100
AcDbArc
 50
0.0
 51
88.7767696191
  0
ARC
  5
79
330
1F
100
AcDbEntity
  8
0
  6
Continuous
 62
     7
370
    15
100
AcDbCircle
 10
715.3701007761
 20
850.2887460786
 30
0.0
 40
5.000000000000114
100
AcDbArc
 50
91.2232303809
 51
180.0
  0
LINE
  5
7A
330
1F
100
AcDbEntity
  8
0
  6
Continuous
 62
     7
370
    15
100
AcDbLine
 10
638.3701023258
 20
850.2887501317
 30
0.0
 11
638.3701023258
 21
832.288743456
 31
0.0
  0
ARC
  5
7B
330
1F
100
AcDbEntity
  8
0
  6
Continuous
 62
     7
370
    15
100
AcDbCircle
 10
640.3701007761
 20
832.2887460786
 30
0.0
 40
2.0
100
AcDbArc
 50
180.0
 51
270.0
  0
LINE
  5
7C
330
1F
100
AcDbEntity
  8
0
  6
Continuous
 62
     7
370
    15
100
AcDbLine
 10
710.3700992264
 20
832.288743456
 30
0.0
 11
710.3700992264
 21
850.2887501317
 31
0.0
  0
ARC
  5
7D
330
1F
100
AcDbEntity
  8
0
  6
Continuous
 62
     7
370
    15
100
AcDbCircle
 10
708.3701007761
 20
832.2887460786
 30
0.0
 40
2.0
100
AcDbArc
 50
270.0
 51
0.0
  0
ARC
  5
7E
330
1F
100
AcDbEntity
  8
0
  6
Continuous
 62
     7
370
    15
100
AcDbCircle
 10
629.5951100285
 20
850.2887460786
 30
0.0
 40
5.000000000000114
100
AcDbArc
 50
0.0
 51
53.1301023542
  0
ARC
  5
7F
330
1F
100
AcDbEntity
  8
0
  6
Continuous
 62
     7
370
    15
100
AcDbCircle
 10
719.1450915237
 20
850.2887460786
 30
0.0
 40
5.000000000000091
100
AcDbArc
 50
126.8698976458
 51
180.0
  0
LINE
  5
80
330
1F
100
AcDbEntity
  8
0
  6
Continuous
 62
     7
370
    15
100
AcDbLine
 10
634.5951092042
 20
850.2887501317
 30
0.0
 11
634.5951092042
 21
832.288743456
 31
0.0
  0
ARC
  5
81
330
1F
100
AcDbEntity
  8
0
  6
Continuous
 62
     7
370
    15
100
AcDbCircle
 10
636.5951100285
 20
832.2887460786
 30
0.0
 40
2.0
100
AcDbArc
 50
180.0
 51
270.0
  0
LINE
  5
82
330
1F
100
AcDbEntity
  8
0
  6
Continuous
 62
     7
370
    15
100
AcDbLine
 10
714.145092348
 20
832.288743456
 30
0.0
 11
714.145092348
 21
850.2887501317
 31
0.0
  0
ARC
  5
83
330
1F
100
AcDbEntity
  8
0
  6
Continuous
 62
     7
370
    15
100
AcDbCircle
 10
712.1450915237
 20
832.2887460786
 30
0.0
 40
2.0
100
AcDbArc
 50
270.0
 51
0.0
  0
LINE
  5
84
330
1F
100
AcDbEntity
  8
0
  6
Continuous
 62
     7
370
    15
100
AcDbLine
 10
735.3701014616
 20
931.7887439328
 30
0.0
 11
735.3701014616
 21
968.288750847
 31
0.0
  0
LINE
  5
85
330
1F
100
AcDbEntity
  8
0
  6
Continuous
 62
     7
370
    15
100
AcDbLine
 10
613.3701000907
 20
968.288750847
 30
0.0
 11
613.3701000907
 21
931.7887439328
 31
0.0
  0
LINE
  5
86
330
1F
100
AcDbEntity
  8
0
  6
Continuous
 62
     7
370
    15
100
AcDbLine
 10
735.3701014616
 20
968.288750847
 30
0.0
 11
735.3701014616
 21
1004.7887428599
 31
0.0
  0
LINE
  5
87
330
1F
100
AcDbEntity
  8
0
  6
Continuous
 62
     7
370
    15
100
AcDbLine
 10
613.3701000907
 20
1004.7887428599
 30
0.0
 11
613.3701000907
 21
968.288750847
 31
0.0
  0
LINE
  5
88
330
1F
100
AcDbEntity
  8
0
  6
Continuous
 62
     7
370
    15
100
AcDbLine
 10
735.3701014616
 20
895.2887370187
 30
0.0
 11
735.3701014616
 21
931.7887439328
 31
0.0
  0
LINE
  5
89
330
1F
100
AcDbEntity
  8
0
  6
Continuous
 62
     7
370
    15
100
AcDbLine
 10
613.3701000907
 20
931.7887439328
 30
0.0
 11
613.3701000907
 21
895.2887370187
 31
0.0
  0
LINE
  5
8A
330
1F
100
AcDbEntity
  8
0
  6
Continuous
 62
     7
370
    15
100
AcDbLine
 10
562.8700983323
 20
1429.288746317
 30
0.0
 11
562.8700983323
 21
1356.7887409526
 31
0.0
  0
LINE
  5
8B
330
1F
100
AcDbEntity
  8
0
  6
Continuous
 62
     7
370
    15
100
AcDbLine
 10
785.8701032199
 20
1356.7887409526
 30
0.0
 11
785.8701032199
 21
1429.288746317
 31
0.0
  0
ARC
  5
8C
330
1F
100
AcDbEntity
  8
0
  6
Continuous
 62
     7
370
    15
100
AcDbCircle
 10
783.8701007761
 20
1429.2887460786
 30
0.0
 40
2.000000000000114
100
AcDbArc
 50
0.0
 51
90.0
  0
ARC
  5
8D
330
1F
100
AcDbEntity
  8
0
  6
Continuous
 62
     7
370
    15
100
AcDbCircle
 10
564.8701007761
 20
1429.2887460786
 30
0.0
 40
2.0
100
AcDbArc
 50
90.0
 51
180.0
  0
ARC
  5
8E
330
1F
100
AcDbEntity
  8
0
  6
Continuous
 62
     7
370
    15
100
AcDbCircle
 10
783.5156787829
 20
1441.2887460786
 30
0.0
 40
10.00000000000007
100
AcDbArc
 50
235.0
 51
270.0
  0
ARC
  5
8F
330
1F
100
AcDbEntity
  8
0
  6
Continuous
 62
     7
370
    15
100
AcDbCircle
 10
565.2245227693
 20
1441.2887460786
 30
0.0
 40
10.00000000000007
100
AcDbArc
 50
270.0
 51
305.0
  0
LINE
  5
90
330
1F
100
AcDbEntity
  8
0
  6
Continuous
 62
     7
370
    15
100
AcDbLine
 10
777.7799126305
 20
1433.0972148973
 30
0.0
 11
756.2229466237
 21
1448.1915845471
 31
0.0
  0
LINE
  5
91
330
1F
100
AcDbEntity
  8
0
  6
Continuous
 62
     7
370
    15
100
AcDbLine
 10
592.5172549285
 20
1448.1915845471
 30
0.0
 11
570.9602889218
 21
1433.0972148973
 31
0.0
  0
ARC
  5
92
330
1F
100
AcDbEntity
  8
0
  6
Continuous
 62
     7
370
    15
100
AcDbCircle
 10
591.3701007761
 20
1449.8298801797
 30
0.0
 40
2.0
100
AcDbArc
 50
305.0
 51
0.0
  0
ARC
  5
93
330
1F
100
AcDbEntity
  8
0
  6
Continuous
 62
     7
370
    15
100
AcDbCircle
 10
757.3701007761
 20
1449.8298801797
 30
0.0
 40
1.999999999999886
100
AcDbArc
 50
180.0
 51
235.0
  0
ARC
  5
94
330
1F
100
AcDbEntity
  8
0
  6
Continuous
 62
     7
370
    15
100
AcDbCircle
 10
753.3701007761
 20
1450.7887460786
 30
0.0
 40
2.0
100
AcDbArc
 50
0.0
 51
90.0
  0
ARC
  5
95
330
1F
100
AcDbEntity
  8
0
  6
Continuous
 62
     7
370
    15
100
AcDbCircle
 10
595.3701007761
 20
1450.7887460786
 30
0.0
 40
2.0
100
AcDbArc
 50
90.0
 51
180.0
  0
LINE
  5
96
330
1F
100
AcDbEntity
  8
0
  6
Continuous
 62
     7
370
    15
100
AcDbLine
 10
593.3701005377
 20
1450.7887377339
 30
0.0
 11
593.3701005377
 21
1449.8298778134
 31
0.0
  0
LINE
  5
97
330
1F
100
AcDbEntity
  8
0
  6
Continuous
 62
     7
370
    15
100
AcDbLine
 10
755.3701010145
 20
1449.8298778134
 30
0.0
 11
755.3701010145
 21
1450.7887377339
 31
0.0
  0
ARC
  5
98
330
1F
100
AcDbEntity
  8
0
  6
Continuous
 62
     7
370
    15
100
AcDbCircle
 10
613.0676939937
 20
1400.8427402559
 30
0.0
 40
2.0
100
AcDbArc
 50
111.6163568324
 51
180.0
  0
LINE
  5
99
330
1F
100
AcDbEntity
  8
0
  6
Continuous
 62
     7
370
    15
100
AcDbLine
 10
611.0676955976
 20
1400.8427425223
 30
0.0
 11
611.0676955976
 21
1356.7887409526
 31
0.0
  0
ARC
  5
9A
330
1F
100
AcDbEntity
  8
0
  6
Continuous
 62
     7
370
    15
100
AcDbCircle
 10
774.8304371716
 20
1400.8427402559
 30
0.0
 40
2.000000000000114
100
AcDbArc
 50
0.0
 51
78.5940653952
  0
LINE
  5
9B
330
1F
100
AcDbEntity
  8
0
  6
Continuous
 62
     7
370
    15
100
AcDbLine
 10
776.8304404415
 20
1356.7887409526
 30
0.0
 11
776.8304404415
 21
1400.8427425223
 31
0.0
  0
SPLINE
  5
9C
330
1F
100
AcDbEntity
  8
0
  6
Continuous
 62
     7
370
    15
100
AcDbSpline
210
0.0
220
0.0
230
1.0
 70
     8
 71
     3
 72
     9
 73
     5
 74
     0
 42
0.00000001
 43
0.00000001
 12
1.0
 22
0.0
 32
0.0
 13
1.0
 23
0.0
 33
0.0
 40
0.0
 40
0.0
 40
0.0
 40
0.0
 40
0.4236147456438044
 40
1.0
 40
1.0
 40
1.0
 40
1.0
 10
775.2351966299261
 20
1402.803303201774
 30
0.0
 10
775.2131753345838
 20
1402.808223683142
 30
0.0
 10
775.1611910834007
 20
1402.819839146056
 30
0.0
 10
775.1696978709982
 20
1402.817535433383
 30
0.0
 10
775.1746010579316
 20
1402.816207607368
 30
0.0
  0
SPLINE
  5
9D
330
1F
100
AcDbEntity
  8
0
  6
Continuous
 62
     7
370
    15
100
AcDbSpline
210
0.0
220
0.0
230
1.0
 70
     8
 71
     3
 72
     9
 73
     5
 74
     0
 42
0.00000001
 43
0.00000001
 12
1.0
 22
0.0
 32
0.0
 13
1.0
 23
0.0
 33
0.0
 40
0.0
 40
0.0
 40
0.0
 40
0.0
 40
0.6948334474924088
 40
0.9999999999999999
 40
0.9999999999999999
 40
0.9999999999999999
 40
0.9999999999999999
 10
775.4089516200271
 20
1402.789087493995
 30
0.0
 10
775.3505936774512
 20
1402.791106764208
 30
0.0
 10
775.2666052874473
 20
1402.794012885408
 30
0.0
 10
775.2425404219626
 20
1402.801130993322
 30
0.0
 10
775.2351966299261
 20
1402.803303201774
 30
0.0
  0
LINE
  5
9E
330
1F
100
AcDbEntity
  8
0
  6
Continuous
 62
     7
370
    15
100
AcDbLine
 10
756.5396261014
 20
1370.7887395221
 30
0.0
 11
756.5396261014
 21
1146.7887456465
 31
0.0
  0
LINE
  5
9F
330
1F
100
AcDbEntity
  8
0
  6
Continuous
 62
     7
370
    15
100
AcDbLine
 10
764.5396274127
 20
1146.7887456465
 30
0.0
 11
764.5396274127
 21
1356.7887409526
 31
0.0
  0
LINE
  5
A0
330
1F
100
AcDbEntity
  8
0
  6
Continuous
 62
     7
370
    15
100
AcDbLine
 10
620.6200998821
 20
1356.7887409526
 30
0.0
 11
620.6200998821
 21
1146.7887456465
 31
0.0
  0
LINE
  5
A1
330
1F
100
AcDbEntity
  8
0
  6
Continuous
 62
     7
370
    15
100
AcDbLine
 10
628.6201011934
 20
1146.7887456465
 30
0.0
 11
628.6201011934
 21
1356.7887409526
 31
0.0
  0
LINE
  5
A2
330
1F
100
AcDbEntity
  8
0
  6
Continuous
 62
     7
370
    15
100
AcDbLine
 10
767.5700989165
 20
1157.7887460525
 30
0.0
 11
767.5700989165
 21
1356.7887409526
 31
0.0
  0
LINE
  5
A3
330
1F
100
AcDbEntity
  8
0
  6
Continuous
 62
     7
370
    15
100
AcDbLine
 10
581.1701026358
 20
1356.7887409526
 30
0.0
 11
581.1701026358
 21
1157.7887460525
 31
0.0
  0
LINE
  5
A4
330
1F
100
AcDbEntity
  8
0
  6
Continuous
 62
     7
370
    15
100
AcDbLine
 10
691.3879681923
 20
1148.3085886511
 30
0.0
 11
691.7371005364
 21
1148.0929762992
 31
0.0
  0
SPLINE
  5
A5
330
1F
100
AcDbEntity
  8
0
  6
Continuous
 62
     7
370
    15
100
AcDbSpline
210
0.0
220
0.0
230
1.0
 70
     8
 71
     3
 72
     9
 73
     5
 74
     0
 42
0.00000001
 43
0.00000001
 12
1.0
 22
0.0
 32
0.0
 13
1.0
 23
0.0
 33
0.0
 40
0.0
 40
0.0
 40
0.0
 40
0.0
 40
0.3507975772025784
 40
1.0
 40
1.0
 40
1.0
 40
1.0
 10
657.0059955664125
 20
1148.089870338419
 30
0.0
 10
657.1569729973514
 20
1148.185759568239
 30
0.0
 10
657.5873563316461
 20
1148.459105896866
 30
0.0
 10
658.0566370883298
 20
1148.667451089686
 30
0.0
 10
658.3612952925411
 20
1148.802709293643
 30
0.0
  0
LINE
  5
A6
330
1F
100
AcDbEntity
  8
0
  6
Continuous
 62
     7
370
    15
100
AcDbLine
 10
769.370099584
 20
1148.7887459743
 30
0.0
 11
769.370099584
 21
1157.7887460525
 31
0.0
  0
LINE
  5
A7
330
1F
100
AcDbEntity
  8
0
  6
Continuous
 62
     7
370
    15
100
AcDbLine
 10
769.370099584
 20
1094.3897156912
 30
0.0
 11
769.370099584
 21
1132.7887452143
 31
0.0
  0
LINE
  5
A8
330
1F
100
AcDbEntity
  8
0
  6
Continuous
 62
     7
370
    15
100
AcDbLine
 10
579.3701019682
 20
1132.7887452143
 30
0.0
 11
579.3701019682
 21
1094.3897156912
 31
0.0
  0
LINE
  5
A9
330
1F
100
AcDbEntity
  8
0
  6
Continuous
 62
     7
370
    15
100
AcDbLine
 10
579.3701019682
 20
1157.7887460525
 30
0.0
 11
579.3701019682
 21
1148.7887459743
 31
0.0
  0
SPLINE
  5
AA
330
1F
100
AcDbEntity
  8
0
  6
Continuous
 62
     7
370
    15
100
AcDbSpline
210
0.0
220
0.0
230
1.0
 70
     8
 71
     3
 72
    15
 73
    11
 74
     0
 42
0.00000001
 43
0.00000001
 12
1.0
 22
0.0
 32
0.0
 13
1.0
 23
0.0
 33
0.0
 40
0.0
 40
0.0
 40
0.0
 40
0.0
 40
0.02658357810492
 40
0.1713720302660536
 40
0.3127478474883284
 40
0.4557340578732636
 40
0.6014133498560075
 40
0.7521751844958163
 40
0.9103501011776147
 40
1.0
 40
1.0
 40
1.0
 40
1.0
 10
615.0008012153354
 20
1116.790001739839
 30
0.0
 10
614.993323266856
 20
1116.717026607677
 30
0.0
 10
614.9451163923682
 20
1116.246589689509
 30
0.0
 10
615.1566355683087
 20
1115.385611968487
 30
0.0
 10
615.622381845056
 20
1114.302866350099
 30
0.0
 10
616.3536443248595
 20
1113.370415588706
 30
0.0
 10
617.2818924458148
 20
1112.618341046952
 30
0.0
 10
618.3818275457701
 20
1112.080066108254
 30
0.0
 10
619.4200123859144
 20
1111.8225392214
 30
0.0
 10
620.0767100127737
 20
1111.797724142109
 30
0.0
 10
620.3142684497085
 20
1111.78874736009
 30
0.0
  0
LINE
  5
AB
330
1F
100
AcDbEntity
  8
0
  6
Continuous
 62
     7
370
    15
100
AcDbLine
 10
614.9769854345
 20
1146.7887456465
 30
0.0
 11
614.9769854345
 21
1116.788746317
 31
0.0
  0
LINE
  5
AC
330
1F
100
AcDbEntity
  8
0
  6
Continuous
 62
     7
370
    15
100
AcDbLine
 10
759.3701016702
 20
1074.788743158
 30
0.0
 11
759.3701016702
 21
1077.7887492376
 31
0.0
  0
LINE
  5
AD
330
1F
100
AcDbEntity
  8
0
  6
Continuous
 62
     7
370
    15
100
AcDbLine
 10
589.3700998821
 20
1077.7887492376
 30
0.0
 11
589.3700998821
 21
1074.788743158
 31
0.0
  0
ARC
  5
AE
330
1F
100
AcDbEntity
  8
0
  6
Continuous
 62
     7
370
    15
100
AcDbCircle
 10
730.3701007761
 20
1027.7887460786
 30
0.0
 40
5.000000000000227
100
AcDbArc
 50
0.0
 51
90.0
  0
ARC
  5
AF
330
1F
100
AcDbEntity
  8
0
  6
Continuous
 62
     7
370
    15
100
AcDbCircle
 10
618.3701007761
 20
1027.7887460786
 30
0.0
 40
5.000000000000227
100
AcDbArc
 50
90.0
 51
180.0
  0
LINE
  5
B0
330
1F
100
AcDbEntity
  8
0
  6
Continuous
 62
     7
370
    15
100
AcDbLine
 10
613.3701000907
 20
1027.7887447673
 30
0.0
 11
613.3701000907
 21
1021.6911300021
 31
0.0
  0
LINE
  5
B1
330
1F
100
AcDbEntity
  8
0
  6
Continuous
 62
     7
370
    15
100
AcDbLine
 10
613.3701000907
 20
1007.7887489396
 30
0.0
 11
613.3701000907
 21
1004.7887428599
 31
0.0
  0
LINE
  5
B2
330
1F
100
AcDbEntity
  8
0
  6
Continuous
 62
     7
370
    15
100
AcDbLine
 10
735.3701014616
 20
1004.7887428599
 30
0.0
 11
735.3701014616
 21
1007.7887489396
 31
0.0
  0
LINE
  5
B3
330
1F
100
AcDbEntity
  8
0
  6
Continuous
 62
     7
370
    15
100
AcDbLine
 10
735.3701014616
 20
1021.6911300021
 30
0.0
 11
735.3701014616
 21
1027.7887447673
 31
0.0
  0
ARC
  5
B4
330
1F
100
AcDbEntity
  8
0
  6
Continuous
 62
     7
370
    15
100
AcDbCircle
 10
615.1549509636
 20
1020.7887460786
 30
0.0
 40
2.000000000000114
100
AcDbArc
 50
90.0
 51
180.0
  0
LINE
  5
B5
330
1F
100
AcDbEntity
  8
0
  6
Continuous
 62
     7
370
    15
100
AcDbLine
 10
613.1549496748
 20
1020.7887454825
 30
0.0
 11
613.1549496748
 21
1007.7887489396
 31
0.0
  0
ARC
  5
B6
330
1F
100
AcDbEntity
  8
0
  6
Continuous
 62
     7
370
    15
100
AcDbCircle
 10
733.5852505887
 20
1020.7887460786
 30
0.0
 40
1.999999999999886
100
AcDbArc
 50
0.0
 51
90.0
  0
LINE
  5
B7
330
1F
100
AcDbEntity
  8
0
  6
Continuous
 62
     7
370
    15
100
AcDbLine
 10
735.5852518775
 20
1007.7887489396
 30
0.0
 11
735.5852518775
 21
1020.7887454825
 31
0.0
  0
SPLINE
  5
B8
330
1F
100
AcDbEntity
  8
0
  6
Continuous
 62
     7
370
    15
100
AcDbSpline
210
0.0
220
0.0
230
1.0
 70
     8
 71
     3
 72
    10
 73
     6
 74
     0
 42
0.00000001
 43
0.00000001
 12
1.0
 22
0.0
 32
0.0
 13
1.0
 23
0.0
 33
0.0
 40
0.0
 40
0.0
 40
0.0
 40
0.0
 40
0.1932354939951318
 40
0.703025481980165
 40
1.0
 40
1.0
 40
1.0
 40
1.0
 10
631.4030234314647
 20
1050.873877008537
 30
0.0
 10
631.3969853580919
 20
1049.96140813787
 30
0.0
 10
631.3750177611698
 20
1046.64168227214
 30
0.0
 10
631.595182440153
 20
1041.928112255483
 30
0.0
 10
631.9385871507681
 20
1038.096986193716
 30
0.0
 10
632.0649963416305
 20
1036.686727305034
 30
0.0
  0
SPLINE
  5
B9
330
1F
100
AcDbEntity
  8
0
  6
Continuous
 62
     7
370
    15
100
AcDbSpline
210
0.0
220
0.0
230
1.0
 70
     8
 71
     3
 72
    11
 73
     7
 74
     0
 42
0.00000001
 43
0.00000001
 12
1.0
 22
0.0
 32
0.0
 13
1.0
 23
0.0
 33
0.0
 40
0.0
 40
0.0
 40
0.0
 40
0.0
 40
0.0519877107052306
 40
0.4179727327273273
 40
0.8535849723730596
 40
1.0
 40
1.0
 40
1.0
 40
1.0
 10
716.6848723389354
 20
1036.736959119418
 30
0.0
 10
716.7129649924522
 20
1036.987190474148
 30
0.0
 10
716.9388253544624
 20
1038.999009839368
 30
0.0
 10
717.1644299869887
 20
1043.046129888746
 30
0.0
 10
717.3816333928991
 20
1047.564042006479
 30
0.0
 10
717.3516528133916
 20
1050.331901954169
 30
0.0
 10
717.3441108860221
 20
1051.02818598328
 30
0.0
  0
SPLINE
  5
BA
330
1F
100
AcDbEntity
  8
0
  6
Continuous
 62
     7
370
    15
100
AcDbSpline
210
0.0
220
0.0
230
1.0
 70
     8
 71
     3
 72
    12
 73
     8
 74
     0
 42
0.00000001
 43
0.00000001
 12
1.0
 22
0.0
 32
0.0
 13
1.0
 23
0.0
 33
0.0
 40
0.0
 40
0.0
 40
0.0
 40
0.0
 40
0.1896132978382742
 40
0.4199527715914485
 40
0.646167683746157
 40
0.8685595848340149
 40
0.9999999999999999
 40
0.9999999999999999
 40
0.9999999999999999
 40
0.9999999999999999
 10
765.8385318316665
 20
1112.340183456519
 30
0.0
 10
766.1526621326553
 20
1112.50264341843
 30
0.0
 10
766.8483933500598
 20
1112.862457376918
 30
0.0
 10
767.7075897755996
 20
1113.735414458254
 30
0.0
 10
768.3675298853451
 20
1114.826178789253
 30
0.0
 10
768.6857208781569
 20
1115.880958253112
 30
0.0
 10
768.716250337014
 20
1116.542863883738
 30
0.0
 10
768.7275913156715
 20
1116.788746317008
 30
0.0
  0
LINE
  5
BB
330
1F
100
AcDbEntity
  8
0
  6
Continuous
 62
     7
370
    15
100
AcDbLine
 10
768.7275913157
 20
1116.788746317
 30
0.0
 11
768.7275913157
 21
1146.7887456465
 31
0.0
  0
SPLINE
  5
BC
330
1F
100
AcDbEntity
  8
0
  6
Continuous
 62
     7
370
    15
100
AcDbSpline
210
0.0
220
0.0
230
1.0
 70
     8
 71
     3
 72
    11
 73
     7
 74
     0
 42
0.00000001
 43
0.00000001
 12
1.0
 22
0.0
 32
0.0
 13
1.0
 23
0.0
 33
0.0
 40
0.0
 40
0.0
 40
0.0
 40
0.0
 40
0.1681463692598937
 40
0.4631435710616363
 40
0.7870044472575374
 40
1.0
 40
1.0
 40
1.0
 40
1.0
 10
761.1690220035757
 20
1111.359776456931
 30
0.0
 10
761.166145821858
 20
1111.357691000961
 30
0.0
 10
761.1582236462101
 20
1111.351946806008
 30
0.0
 10
761.464433911867
 20
1111.579744024781
 30
0.0
 10
761.9418190228918
 20
1111.770223543581
 30
0.0
 10
762.3022107743709
 20
1111.759942989607
 30
0.0
 10
762.4451947011198
 20
1111.755864222625
 30
0.0
  0
SPLINE
  5
BD
330
1F
100
AcDbEntity
  8
0
  6
Continuous
 62
     7
370
    15
100
AcDbSpline
210
0.0
220
0.0
230
1.0
 70
     8
 71
     3
 72
    15
 73
    11
 74
     0
 42
0.00000001
 43
0.00000001
 12
1.0
 22
0.0
 32
0.0
 13
1.0
 23
0.0
 33
0.0
 40
0.0
 40
0.0
 40
0.0
 40
0.0
 40
0.0106802597803033
 40
0.1798432845096492
 40
0.3359758605660673
 40
0.5082365247150175
 40
0.6650957714446066
 40
0.8136954625584758
 40
0.9637535077098319
 40
1.0
 40
1.0
 40
1.0
 40
1.0
 10
720.3860786356178
 20
1032.794849475005
 30
0.0
 10
720.3678923248211
 20
1032.793180791299
 30
0.0
 10
720.0616557787013
 20
1032.765082077903
 30
0.0
 10
719.3544867917384
 20
1032.917423614589
 30
0.0
 10
718.3805895921914
 20
1033.359690255051
 30
0.0
 10
717.5289691124623
 20
1034.111321789846
 30
0.0
 10
716.9692216659755
 20
1035.010069086899
 30
0.0
 10
716.7112826508189
 20
1035.85628745525
 30
0.0
 10
716.6563949105629
 20
1036.445381802266
 30
0.0
 10
716.697613999117
 20
1036.680825792711
 30
0.0
 10
716.7056333817687
 20
1036.726632614711
 30
0.0
  0
SPLINE
  5
BE
330
1F
100
AcDbEntity
  8
0
  6
Continuous
 62
     7
370
    15
100
AcDbSpline
210
0.0
220
0.0
230
1.0
 70
     8
 71
     3
 72
    14
 73
    10
 74
     0
 42
0.00000001
 43
0.00000001
 12
1.0
 22
0.0
 32
0.0
 13
1.0
 23
0.0
 33
0.0
 40
0.0
 40
0.0
 40
0.0
 40
0.0
 40
0.1104660884268396
 40
0.2574550217573887
 40
0.4312851361137556
 40
0.6031769406816423
 40
0.7704136942928665
 40
0.9321114988596629
 40
0.9999999999999999
 40
0.9999999999999999
 40
0.9999999999999999
 40
0.9999999999999999
 10
632.0352498985973
 20
1036.69541468201
 30
0.0
 10
632.046677529109
 20
1036.541601358024
 30
0.0
 10
632.0733110498929
 20
1036.183120187583
 30
0.0
 10
631.9090931810367
 20
1035.357004269796
 30
0.0
 10
631.4320264808506
 20
1034.391031868279
 30
0.0
 10
630.6480543177481
 20
1033.564121886447
 30
0.0
 10
629.7085540165685
 20
1033.026981939017
 30
0.0
 10
628.888903786047
 20
1032.793226207511
 30
0.0
 10
628.4752512875174
 20
1032.810660192355
 30
0.0
 10
628.3529345490184
 20
1032.815815408805
 30
0.0
  0
SPLINE
  5
BF
330
1F
100
AcDbEntity
  8
0
  6
Continuous
 62
     7
370
    15
100
AcDbSpline
210
0.0
220
0.0
230
1.0
 70
     8
 71
     3
 72
    16
 73
    12
 74
     0
 42
0.00000001
 43
0.00000001
 12
1.0
 22
0.0
 32
0.0
 13
1.0
 23
0.0
 33
0.0
 40
0.0
 40
0.0
 40
0.0
 40
0.0
 40
0.0244930956562287
 40
0.1494704747836723
 40
0.2648385244356484
 40
0.3711105059926725
 40
0.4719427003867264
 40
0.5784633959376353
 40
0.7015140875477508
 40
0.8601640132673838
 40
1.0
 40
1.0
 40
1.0
 40
1.0
 10
579.3552827634064
 20
1094.387182493785
 30
0.0
 10
579.3602596686139
 20
1094.325268527986
 30
0.0
 10
579.3906315086944
 20
1093.947435117561
 30
0.0
 10
579.2650167158564
 20
1093.286259520047
 30
0.0
 10
579.0154153697858
 20
1092.478552139802
 30
0.0
 10
578.6749512578939
 20
1091.821328075431
 30
0.0
 10
578.3212204360151
 20
1091.3156216202
 30
0.0
 10
577.9901029988862
 20
1090.941799804315
 30
0.0
 10
577.6872993473189
 20
1090.658480902302
 30
0.0
 10
577.4341893455278
 20
1090.45712939465
 30
0.0
 10
577.306946148491
 20
1090.375422256538
 30
0.0
 10
577.2473346986023
 20
1090.337143738845
 30
0.0
  0
ARC
  5
C0
330
1F
100
AcDbEntity
  8
0
  6
Continuous
 62
     7
370
    15
100
AcDbCircle
 10
578.3700696761
 20
1088.6264064317
 30
0.0
 40
1.999966186602499
100
AcDbArc
 50
124.8095587335
 51
179.8451921161
  0
SPLINE
  5
C1
330
1F
100
AcDbEntity
  8
0
  6
Continuous
 62
     7
370
    15
100
AcDbSpline
210
0.0
220
0.0
230
1.0
 70
     8
 71
     3
 72
    15
 73
    11
 74
     0
 42
0.00000001
 43
0.00000001
 12
1.0
 22
0.0
 32
0.0
 13
1.0
 23
0.0
 33
0.0
 40
0.0
 40
0.0
 40
0.0
 40
0.0
 40
0.1986987442270139
 40
0.3464734446092329
 40
0.4690721962750892
 40
0.5845356275299146
 40
0.6993118311652945
 40
0.8262456435212403
 40
0.9648126553208536
 40
0.9999999999999999
 40
0.9999999999999999
 40
0.9999999999999999
 40
0.9999999999999999
 10
771.4945730365959
 20
1090.333172579387
 30
0.0
 10
771.4044046120159
 20
1090.393758731498
 30
0.0
 10
771.2471768208653
 20
1090.499403550238
 30
0.0
 10
770.9390727893397
 20
1090.758631661006
 30
0.0
 10
770.6035814490012
 20
1091.09538220835
 30
0.0
 10
770.2196948253903
 20
1091.578463930823
 30
0.0
 10
769.8206873357053
 20
1092.254462501829
 30
0.0
 10
769.5118105179972
 20
1093.116168503224
 30
0.0
 10
769.3509234920604
 20
1093.860457425889
 30
0.0
 10
769.384955864504
 20
1094.298366528913
 30
0.0
 10
769.3918478287901
 20
1094.387048383334
 30
0.0
  0
ARC
  5
C2
330
1F
100
AcDbEntity
  8
0
  6
Continuous
 62
     7
370
    15
100
AcDbCircle
 10
770.3701250235
 20
1088.626404571
 30
0.0
 40
1.999973044251526
100
AcDbArc
 50
0.1548606581
 51
55.2126928453
  0
SPLINE
  5
C3
330
1F
100
AcDbEntity
  8
0
  6
Continuous
 62
     7
370
    15
100
AcDbSpline
210
0.0
220
0.0
230
1.0
 70
     8
 71
     3
 72
    12
 73
     8
 74
     0
 42
0.00000001
 43
0.00000001
 12
1.0
 22
0.0
 32
0.0
 13
1.0
 23
0.0
 33
0.0
 40
0.0
 40
0.0
 40
0.0
 40
0.0
 40
0.0431197161761631
 40
0.3213518316013138
 40
0.5912362114869324
 40
0.8646549635909657
 40
1.0
 40
1.0
 40
1.0
 40
1.0
 10
577.5352400340286
 20
1116.78926785765
 30
0.0
 10
577.5283870077659
 20
1116.728184411987
 30
0.0
 10
577.4773144883517
 20
1116.272956992024
 30
0.0
 10
577.6874239729898
 20
1115.428516205264
 30
0.0
 10
578.1614865370028
 20
1114.364284827406
 30
0.0
 10
578.7509664424789
 20
1113.574092881935
 30
0.0
 10
579.2160943204151
 20
1113.22412585609
 30
0.0
 10
579.3701019682137
 20
1113.108248909095
 30
0.0
  0
LINE
  5
C4
330
1F
100
AcDbEntity
  8
0
  6
Continuous
 62
     7
370
    15
100
AcDbLine
 10
577.513603548
 20
1132.5138169277
 30
0.0
 11
577.513603548
 21
1116.788746317
 31
0.0
  0
LINE
  5
C5
330
1F
100
AcDbEntity
  8
0
  6
Continuous
 62
     7
370
    15
100
AcDbLine
 10
769.370099584
 20
1140.7887465256
 30
0.0
 11
769.370099584
 21
1132.7887452143
 31
0.0
  0
LINE
  5
C6
330
1F
100
AcDbEntity
  8
0
  6
Continuous
 62
     7
370
    15
100
AcDbLine
 10
769.370099584
 20
1148.7887459743
 30
0.0
 11
769.370099584
 21
1140.7887465256
 31
0.0
  0
LINE
  5
C7
330
1F
100
AcDbEntity
  8
0
  6
Continuous
 62
     7
370
    15
100
AcDbLine
 10
774.3701022662
 20
1143.6360641318
 30
0.0
 11
774.3701022662
 21
1137.9414270568
 31
0.0
  0
ARC
  5
C8
330
1F
100
AcDbEntity
  8
0
  6
Continuous
 62
     7
370
    15
100
AcDbCircle
 10
786.3701007761
 20
1140.7887460786
 30
0.0
 40
10.50000000000005
100
AcDbArc
 50
207.2660444507
 51
152.7339555493
  0
ARC
  5
C9
330
1F
100
AcDbEntity
  8
0
  6
Continuous
 62
     7
370
    15
100
AcDbCircle
 10
786.3701007761
 20
1140.7887460786
 30
0.0
 40
17.00000000000002
100
AcDbArc
 50
211.7568638593
 51
148.2431361407
  0
SPLINE
  5
CA
330
1F
100
AcDbEntity
  8
0
  6
Continuous
 62
     7
370
    15
100
AcDbSpline
210
0.0
220
0.0
230
1.0
 70
     8
 71
     3
 72
    11
 73
     7
 74
     0
 42
0.00000001
 43
0.00000001
 12
1.0
 22
0.0
 32
0.0
 13
1.0
 23
0.0
 33
0.0
 40
0.0
 40
0.0
 40
0.0
 40
0.0
 40
0.2447166957955963
 40
0.5563133692791886
 40
0.8818541298181874
 40
1.0
 40
1.0
 40
1.0
 40
1.0
 10
777.0367693700041
 20
1145.599036005417
 30
0.0
 10
776.7130996185531
 20
1144.850422486141
 30
0.0
 10
775.977302621221
 20
1143.148602723323
 30
0.0
 10
775.7406000938804
 20
1140.161568019411
 30
0.0
 10
776.2368879467436
 20
1137.671189672411
 30
0.0
 10
776.868564991223
 20
1136.334415370806
 30
0.0
 10
777.0367693700041
 20
1135.97845611451
 30
0.0
  0
ARC
  5
CB
330
1F
100
AcDbEntity
  8
0
  6
Continuous
 62
     7
370
    15
100
AcDbCircle
 10
770.2146063547
 20
1130.7887460786
 30
0.0
 40
2.000000000000129
100
AcDbArc
 50
31.7568638593
 51
90.0
  0
ARC
  5
CC
330
1F
100
AcDbEntity
  8
0
  6
Continuous
 62
     7
370
    15
100
AcDbCircle
 10
770.2146063547
 20
1150.7887460786
 30
0.0
 40
2.00000000000001
100
AcDbArc
 50
270.0
 51
328.2431361407
  0
SPLINE
  5
CD
330
1F
100
AcDbEntity
  8
0
  6
Continuous
 62
     7
370
    15
100
AcDbSpline
210
0.0
220
0.0
230
1.0
 70
     8
 71
     3
 72
    11
 73
     7
 74
     0
 42
0.00000001
 43
0.00000001
 12
1.0
 22
0.0
 32
0.0
 13
1.0
 23
0.0
 33
0.0
 40
0.0
 40
0.0
 40
0.0
 40
0.0
 40
0.2447167831514378
 40
0.5563132720191927
 40
0.8818542145576577
 40
1.0
 40
1.0
 40
1.0
 40
1.0
 10
777.0367693700043
 20
1135.97845611451
 30
0.0
 10
776.713099604763
 20
1136.727069951145
 30
0.0
 10
775.9773029673757
 20
1138.428889530392
 30
0.0
 10
775.7406002966062
 20
1141.415924274784
 30
0.0
 10
776.2368873121949
 20
1143.906302698168
 30
0.0
 10
776.8685649821781
 20
1145.243077065072
 30
0.0
 10
777.0367693700041
 20
1145.599036005417
 30
0.0
  0
LINE
  5
CE
330
1F
100
AcDbEntity
  8
0
  6
Continuous
 62
     7
370
    15
100
AcDbLine
 10
579.3701019682
 20
1132.7887452143
 30
0.0
 11
579.3701019682
 21
1148.7887459743
 31
0.0
  0
ARC
  5
CF
330
1F
100
AcDbEntity
  8
0
  6
Continuous
 62
     7
370
    15
100
AcDbCircle
 10
562.3701007761
 20
1140.7887460786
 30
0.0
 40
10.50000000000005
100
AcDbArc
 50
27.2660444507
 51
332.7339555493
  0
ARC
  5
D0
330
1F
100
AcDbEntity
  8
0
  6
Continuous
 62
     7
370
    15
100
AcDbCircle
 10
562.3701007761
 20
1140.7887460786
 30
0.0
 40
17.00000000000011
100
AcDbArc
 50
31.7568638593
 51
328.2431361407
  0
SPLINE
  5
D1
330
1F
100
AcDbEntity
  8
0
  6
Continuous
 62
     7
370
    15
100
AcDbSpline
210
0.0
220
0.0
230
1.0
 70
     8
 71
     3
 72
    11
 73
     7
 74
     0
 42
0.00000001
 43
0.00000001
 12
1.0
 22
0.0
 32
0.0
 13
1.0
 23
0.0
 33
0.0
 40
0.0
 40
0.0
 40
0.0
 40
0.0
 40
0.2447167831514378
 40
0.5563132720191926
 40
0.8818542145576577
 40
1.0
 40
1.0
 40
1.0
 40
1.0
 10
571.7034321822373
 20
1135.97845611451
 30
0.0
 10
572.0271019474784
 20
1136.727069951145
 30
0.0
 10
572.7628985848656
 20
1138.428889530392
 30
0.0
 10
572.9996012556351
 20
1141.415924274784
 30
0.0
 10
572.5033142400465
 20
1143.906302698168
 30
0.0
 10
571.8716365700633
 20
1145.243077065072
 30
0.0
 10
571.7034321822373
 20
1145.599036005417
 30
0.0
  0
ARC
  5
D2
330
1F
100
AcDbEntity
  8
0
  6
Continuous
 62
     7
370
    15
100
AcDbCircle
 10
578.5255951975
 20
1150.7887460786
 30
0.0
 40
2.0
100
AcDbArc
 50
211.7568638593
 51
270.0
  0
ARC
  5
D3
330
1F
100
AcDbEntity
  8
0
  6
Continuous
 62
     7
370
    15
100
AcDbCircle
 10
578.5255951975
 20
1130.7887460786
 30
0.0
 40
2.0
100
AcDbArc
 50
90.0
 51
148.2431361407
  0
SPLINE
  5
D4
330
1F
100
AcDbEntity
  8
0
  6
Continuous
 62
     7
370
    15
100
AcDbSpline
210
0.0
220
0.0
230
1.0
 70
     8
 71
     3
 72
    11
 73
     7
 74
     0
 42
0.00000001
 43
0.00000001
 12
1.0
 22
0.0
 32
0.0
 13
1.0
 23
0.0
 33
0.0
 40
0.0
 40
0.0
 40
0.0
 40
0.0
 40
0.2447166957955963
 40
0.5563133692791886
 40
0.8818541298181874
 40
1.0
 40
1.0
 40
1.0
 40
1.0
 10
571.7034321822373
 20
1145.599036005417
 30
0.0
 10
572.0271019336882
 20
1144.850422486141
 30
0.0
 10
572.7628989310205
 20
1143.148602723323
 30
0.0
 10
572.9996014583611
 20
1140.161568019411
 30
0.0
 10
572.5033136054979
 20
1137.671189672411
 30
0.0
 10
571.8716365610182
 20
1136.334415370806
 30
0.0
 10
571.7034321822373
 20
1135.97845611451
 30
0.0
  0
ARC
  5
D5
330
1F
100
AcDbEntity
  8
0
  6
Continuous
 62
     7
370
    15
100
AcDbCircle
 10
656.7838113361
 20
1274.5292363636
 30
0.0
 40
24.42948137909977
100
AcDbArc
 50
0.5487139789
 51
3.2145680842
  0
ARC
  5
D6
330
1F
100
AcDbEntity
  8
0
  6
Continuous
 62
     7
370
    15
100
AcDbCircle
 10
681.7096241828
 20
1327.7006094222
 30
0.0
 40
52.93975599541677
100
AcDbArc
 50
269.4616086771
 51
270.5383913229
  0
ARC
  5
D7
330
1F
100
AcDbEntity
  8
0
  6
Continuous
 62
     7
370
    15
100
AcDbCircle
 10
657.7808164543
 20
1274.5293054073
 30
0.0
 40
24.427379197219
100
AcDbArc
 50
0.5485992486
 51
3.2146828145
  0
ARC
  5
D8
330
1F
100
AcDbEntity
  8
0
  6
Continuous
 62
     7
370
    15
100
AcDbCircle
 10
681.7346250848
 20
1276.6156999847
 30
0.0
 40
0.8383404898594804
100
AcDbArc
 50
301.267881764
 51
332.65914969
  0
ARC
  5
D9
330
1F
100
AcDbEntity
  8
0
  6
Continuous
 62
     7
370
    15
100
AcDbCircle
 10
681.8124749553
 20
1262.3717726359
 30
0.0
 40
13.87492549240326
100
AcDbArc
 50
83.0288410658
 51
87.2452595138
  0
ARC
  5
DA
330
1F
100
AcDbEntity
  8
0
  6
Continuous
 62
     7
370
    15
100
AcDbCircle
 10
675.0228947199
 20
1275.8341258348
 30
0.0
 40
8.479244575373556
100
AcDbArc
 50
2.0951934719
 51
8.6679085521
  0
ARC
  5
DB
330
1F
100
AcDbEntity
  8
0
  6
Continuous
 62
     7
370
    15
100
AcDbCircle
 10
681.7217287394
 20
1263.3447233955
 30
0.0
 40
13.86984244086501
100
AcDbArc
 50
83.0280680954
 51
87.2460324842
  0
ARC
  5
DC
330
1F
100
AcDbEntity
  8
0
  6
Continuous
 62
     7
370
    15
100
AcDbCircle
 10
681.4865655793
 20
1276.5613553618
 30
0.0
 40
1.10401291277688
100
AcDbArc
 50
35.2510118017
 51
61.3367066167
  0
ARC
  5
DD
330
1F
100
AcDbEntity
  8
0
  6
Continuous
 62
     7
370
    15
100
AcDbCircle
 10
666.6841626917
 20
1275.4708762893
 30
0.0
 40
15.46962040803521
100
AcDbArc
 50
7.6494867039
 51
11.2654337749
  0
ARC
  5
DE
330
1F
100
AcDbEntity
  8
0
  6
Continuous
 62
     7
370
    15
100
AcDbCircle
 10
681.3582734283
 20
1270.2487138891
 30
0.0
 40
8.25921684714053
100
AcDbArc
 50
86.5469914438
 51
93.4530085562
  0
ARC
  5
DF
330
1F
100
AcDbEntity
  8
0
  6
Continuous
 62
     7
370
    15
100
AcDbCircle
 10
665.6892591906
 20
1275.4708762893
 30
0.0
 40
15.46962040803521
100
AcDbArc
 50
7.6494867039
 51
11.2654337749
  0
ARC
  5
E0
330
1F
100
AcDbEntity
  8
0
  6
Continuous
 62
     7
370
    15
100
AcDbCircle
 10
681.4563344653
 20
1276.813507956
 30
0.0
 40
0.8383307394993826
100
AcDbArc
 50
121.2672997842
 51
152.6585330609
  0
ARC
  5
E1
330
1F
100
AcDbEntity
  8
0
  6
Continuous
 62
     7
370
    15
100
AcDbCircle
 10
681.6166557268
 20
1257.7191911744
 30
0.0
 40
19.50036732017753
100
AcDbArc
 50
92.6600111023
 51
96.0203421441
  0
ARC
  5
E2
330
1F
100
AcDbEntity
  8
0
  6
Continuous
 62
     7
370
    15
100
AcDbCircle
 10
710.5784205436
 20
1279.5447086092
 30
0.0
 40
31.10227770885293
100
AcDbArc
 50
184.486036696
 51
186.2770106815
  0
ARC
  5
E3
330
1F
100
AcDbEntity
  8
0
  6
Continuous
 62
     7
370
    15
100
AcDbCircle
 10
681.7084136231
 20
1256.7436539986
 30
0.0
 40
19.50804063744763
100
AcDbArc
 50
92.6606721701
 51
96.0196810763
  0
ARC
  5
E4
330
1F
100
AcDbEntity
  8
0
  6
Continuous
 62
     7
370
    15
100
AcDbCircle
 10
681.7044182196
 20
1276.8678477089
 30
0.0
 40
1.104017786694369
100
AcDbArc
 50
215.2502988051
 51
241.3361404954
  0
LWPOLYLINE
  5
E5
330
1F
100
AcDbEntity
  8
0
  6
Continuous
 62
     7
370
    15
100
AcDbPolyline
 90
       22
 70
   128
 43
0.0
 10
685.100089813
 20
1276.2096091109
 10
684.8240681537
 20
1277.3175253469
 10
684.2292650215
 20
1278.3270045119
 10
683.3685311102
 20
1279.1483341652
 10
682.3183475606
 20
1279.7085507709
 10
681.1720263757
 20
1279.9578695494
 10
680.0314244427
 20
1279.8741399246
 10
678.9978882842
 20
1279.4648050266
 10
678.1632528253
 20
1278.7662236887
 10
677.6016785842
 20
1277.840481599
 10
677.3630641945
 20
1276.7698257166
 10
677.4686116804
 20
1275.6493925053
 10
677.9089423906
 20
1274.5787440735
 10
678.6449309983
 20
1273.6529945332
 10
679.6111823604
 20
1272.9544206458
 10
680.7218394786
 20
1272.5450782972
 10
681.8782170847
 20
1272.4613486725
 10
682.9775646873
 20
1272.710667451
 10
683.9222014494
 20
1273.2708840567
 10
684.6281914584
 20
1274.0922211605
 10
685.0328054823
 20
1275.101692875
 10
685.100089813
 20
1276.2096091109
  0
ARC
  5
E6
330
1F
100
AcDbEntity
  8
0
  6
Continuous
 62
     7
370
    15
100
AcDbCircle
 10
681.0274821971
 20
1275.915835425
 30
0.0
 40
4.010339399781083
100
AcDbArc
 50
148.6986315493
 51
320.468158556
  0
LINE
  5
E7
330
1F
100
AcDbEntity
  8
0
  6
Continuous
 62
     7
370
    15
100
AcDbLine
 10
681.2083931253
 20
1275.0172107416
 30
0.0
 11
681.6300377794
 21
1275.0172107416
 31
0.0
  0
LINE
  5
E8
330
1F
100
AcDbEntity
  8
0
  6
Continuous
 62
     7
370
    15
100
AcDbLine
 10
682.2070759334
 20
1274.7631906467
 30
0.0
 11
681.6300377794
 21
1275.0172107416
 31
0.0
  0
LINE
  5
E9
330
1F
100
AcDbEntity
  8
0
  6
Continuous
 62
     7
370
    15
100
AcDbLine
 10
681.6029642321
 20
1275.3046094376
 30
0.0
 11
681.6300377794
 21
1275.0172107416
 31
0.0
  0
SPLINE
  5
EA
330
1F
100
AcDbEntity
  8
0
  6
Continuous
 62
     7
370
    15
100
AcDbSpline
210
0.0
220
0.0
230
1.0
 70
     8
 71
     3
 72
    10
 73
     6
 74
     0
 42
0.00000001
 43
0.00000001
 12
1.0
 22
0.0
 32
0.0
 13
1.0
 23
0.0
 33
0.0
 40
0.0
 40
0.0
 40
0.0
 40
0.0
 40
0.1133818092225445
 40
0.9300196260959495
 40
1.0
 40
1.0
 40
1.0
 40
1.0
 10
682.1697573721555
 20
1275.899128516296
 30
0.0
 10
682.1483526073641
 20
1275.876439165716
 30
0.0
 10
681.9727790168176
 20
1275.690328699788
 30
0.0
 10
681.7838643983994
 20
1275.491798424482
 30
0.0
 10
681.6161980605546
 20
1275.31830332733
 30
0.0
 10
681.6029642321315
 20
1275.304609437564
 30
0.0
  0
LINE
  5
EB
330
1F
100
AcDbEntity
  8
0
  6
Continuous
 62
     7
370
    15
100
AcDbLine
 10
679.5714269936
 20
1277.1120085317
 30
0.0
 11
680.0501393698
 21
1276.4251693088
 31
0.0
  0
LINE
  5
EC
330
1F
100
AcDbEntity
  8
0
  6
Continuous
 62
     7
370
    15
100
AcDbLine
 10
680.0501393698
 20
1276.4251693088
 30
0.0
 11
680.0729516506
 21
1276.1830105382
 31
0.0
  0
SPLINE
  5
ED
330
1F
100
AcDbEntity
  8
0
  6
Continuous
 62
     7
370
    15
100
AcDbSpline
210
0.0
220
0.0
230
1.0
 70
     8
 71
     3
 72
    10
 73
     6
 74
     0
 42
0.00000001
 43
0.00000001
 12
1.0
 22
0.0
 32
0.0
 13
1.0
 23
0.0
 33
0.0
 40
0.0
 40
0.0
 40
0.0
 40
0.0
 40
0.0699831819746181
 40
0.8866218164959538
 40
1.0
 40
1.0
 40
1.0
 40
1.0
 10
680.3455595471111
 20
1276.425169308761
 30
0.0
 10
680.3539216565956
 20
1276.443204468183
 30
0.0
 10
680.459861805239
 20
1276.671693161554
 30
0.0
 10
680.5822592010283
 20
1276.929515714797
 30
0.0
 10
680.6975969859085
 20
1277.169313339837
 30
0.0
 10
680.7116577945795
 20
1277.198547025302
 30
0.0
  0
LINE
  5
EE
330
1F
100
AcDbEntity
  8
0
  6
Continuous
 62
     7
370
    15
100
AcDbLine
 10
680.0501393698
 20
1276.4251693088
 30
0.0
 11
680.3455595471
 21
1276.4251693088
 31
0.0
  0
SPLINE
  5
EF
330
1F
100
AcDbEntity
  8
0
  6
Continuous
 62
     7
370
    15
100
AcDbSpline
210
0.0
220
0.0
230
1.0
 70
     8
 71
     3
 72
     9
 73
     5
 74
     0
 42
0.00000001
 43
0.00000001
 12
1.0
 22
0.0
 32
0.0
 13
1.0
 23
0.0
 33
0.0
 40
0.0
 40
0.0
 40
0.0
 40
0.0
 40
0.6128091334312215
 40
1.0
 40
1.0
 40
1.0
 40
1.0
 10
682.2650321371999
 20
1276.004174252132
 30
0.0
 10
682.3090417960188
 20
1276.050431399216
 30
0.0
 10
682.380858053999
 20
1276.125915174768
 30
0.0
 10
682.4518335115453
 20
1276.201426973075
 30
0.0
 10
682.4793145604577
 20
1276.230664451698
 30
0.0
  0
SPLINE
  5
F0
330
1F
100
AcDbEntity
  8
0
  6
Continuous
 62
     7
370
    15
100
AcDbSpline
210
0.0
220
0.0
230
1.0
 70
     8
 71
     3
 72
    10
 73
     6
 74
     0
 42
0.00000001
 43
0.00000001
 12
1.0
 22
0.0
 32
0.0
 13
1.0
 23
0.0
 33
0.0
 40
0.0
 40
0.0
 40
0.0
 40
0.0
 40
0.1133786580483524
 40
0.9300202421964536
 40
1.0
 40
1.0
 40
1.0
 40
1.0
 10
681.0212145172205
 20
1277.530075510124
 30
0.0
 10
681.0010426416487
 20
1277.494297373536
 30
0.0
 10
680.8355771746219
 20
1277.200817173411
 30
0.0
 10
680.6578403806728
 20
1276.883734176437
 30
0.0
 10
680.5005339936674
 20
1276.600230590564
 30
0.0
 10
680.48811802493
 20
1276.577854056934
 30
0.0
  0
ARC
  5
F1
330
1F
100
AcDbEntity
  8
0
  6
Continuous
 62
     7
370
    15
100
AcDbCircle
 10
680.926612542
 20
1276.0255468497
 30
0.0
 40
0.7052096798883694
100
AcDbArc
 50
128.4471951153
 51
145.4815331895
  0
LINE
  5
F2
330
1F
100
AcDbEntity
  8
0
  6
Continuous
 62
     7
370
    15
100
AcDbLine
 10
682.0143121839
 20
1275.7399841147
 30
0.0
 11
681.9497659415
 21
1276.4251693088
 31
0.0
  0
LINE
  5
F3
330
1F
100
AcDbEntity
  8
0
  6
Continuous
 62
     7
370
    15
100
AcDbLine
 10
683.4052932061
 20
1277.1120085317
 30
0.0
 11
681.9497659415
 21
1276.4251693088
 31
0.0
  0
SPLINE
  5
F4
330
1F
100
AcDbEntity
  8
0
  6
Continuous
 62
     7
370
    15
100
AcDbSpline
210
0.0
220
0.0
230
1.0
 70
     8
 71
     3
 72
    10
 73
     6
 74
     0
 42
0.00000001
 43
0.00000001
 12
1.0
 22
0.0
 32
0.0
 13
1.0
 23
0.0
 33
0.0
 40
0.0
 40
0.0
 40
0.0
 40
0.0
 40
0.0699797578076336
 40
0.8866213902116045
 40
0.9999999999999999
 40
0.9999999999999999
 40
0.9999999999999999
 40
0.9999999999999999
 10
681.4830215260532
 20
1276.577854056934
 30
0.0
 10
681.4954374919305
 20
1276.600230590861
 30
0.0
 10
681.6527438512524
 20
1276.883734195914
 30
0.0
 10
681.8304821577921
 20
1277.200817035544
 30
0.0
 10
681.9959463114684
 20
1277.494297372129
 30
0.0
 10
682.0161180183437
 20
1277.530075510124
 30
0.0
  0
SPLINE
  5
F5
330
1F
100
AcDbEntity
  8
0
  6
Continuous
 62
     7
370
    15
100
AcDbSpline
210
0.0
220
0.0
230
1.0
 70
     8
 71
     3
 72
    10
 73
     6
 74
     0
 42
0.00000001
 43
0.00000001
 12
1.0
 22
0.0
 32
0.0
 13
1.0
 23
0.0
 33
0.0
 40
0.0
 40
0.0
 40
0.0
 40
0.0
 40
0.1133761226469268
 40
0.9300172359439731
 40
1.0
 40
1.0
 40
1.0
 40
1.0
 10
682.3881371490803
 20
1277.198547025302
 30
0.0
 10
682.3606212754685
 20
1277.169313283204
 30
0.0
 10
682.1349102869151
 20
1276.929510727002
 30
0.0
 10
681.8906537413651
 20
1276.671695280658
 30
0.0
 10
681.6716334190469
 20
1276.443204484535
 30
0.0
 10
681.6543457642343
 20
1276.425169308761
 30
0.0
  0
ARC
  5
F6
330
1F
100
AcDbEntity
  8
0
  6
Continuous
 62
     7
370
    15
100
AcDbCircle
 10
680.9525408526
 20
1275.8101512437
 30
0.0
 40
0.9331545179010406
100
AcDbArc
 50
41.2293039975
 51
55.3556264768
  0
LINE
  5
F7
330
1F
100
AcDbEntity
  8
0
  6
Continuous
 62
     7
370
    15
100
AcDbLine
 10
681.6543457642
 20
1276.4251693088
 30
0.0
 11
681.9497659415
 21
1276.4251693088
 31
0.0
  0
LINE
  5
F8
330
1F
100
AcDbEntity
  8
0
  6
Continuous
 62
     7
370
    15
100
AcDbLine
 10
681.8557251789
 20
1278.4929363924
 30
0.0
 11
681.4559484445
 21
1276.8652453023
 31
0.0
  0
LINE
  5
F9
330
1F
100
AcDbEntity
  8
0
  6
Continuous
 62
     7
370
    15
100
AcDbLine
 10
681.4559484445
 20
1276.8652453023
 30
0.0
 11
681.4830215261
 21
1276.5778540569
 31
0.0
  0
LINE
  5
FA
330
1F
100
AcDbEntity
  8
0
  6
Continuous
 62
     7
370
    15
100
AcDbLine
 10
681.4559484445
 20
1276.8652453023
 30
0.0
 11
680.6486663953
 21
1276.8652453023
 31
0.0
  0
ARC
  5
FB
330
1F
100
AcDbEntity
  8
0
  6
Continuous
 62
     7
370
    15
100
AcDbCircle
 10
681.0782458718
 20
1275.8826634317
 30
0.0
 40
0.7913303435677734
100
AcDbArc
 50
327.4832395926
 51
43.2798077849
  0
ARC
  5
FC
330
1F
100
AcDbEntity
  8
0
  6
Continuous
 62
     7
370
    15
100
AcDbCircle
 10
681.1320895787
 20
1275.9065012703
 30
0.0
 40
0.7641967793497598
100
AcDbArc
 50
275.511614885
 51
308.0369385255
  0
LWPOLYLINE
  5
FD
330
1F
100
AcDbEntity
  8
0
  6
Continuous
 62
     7
370
    15
100
AcDbPolyline
 90
        4
 70
   128
 43
0.0
 10
680.3455595471
 20
1276.4251693088
 10
680.2840047129
 20
1276.3158022362
 10
680.2425133608
 20
1276.1965631443
 10
680.2425068416
 20
1276.1965407926
  0
ARC
  5
FE
330
1F
100
AcDbEntity
  8
0
  6
Continuous
 62
     7
370
    15
100
AcDbCircle
 10
680.9855697755
 20
1275.9019350944
 30
0.0
 40
0.8392405424530897
100
AcDbArc
 50
53.6482846396
 51
126.3517153604
  0
ARC
  5
FF
330
1F
100
AcDbEntity
  8
0
  6
Continuous
 62
     7
370
    15
100
AcDbCircle
 10
712.8112504896
 20
1274.529329223
 30
0.0
 40
24.42574120496111
100
AcDbArc
 50
0.5485801715
 51
3.2148426651
  0
ARC
  5
100
330
1F
100
AcDbEntity
  8
0
  6
Continuous
 62
     7
370
    15
100
AcDbCircle
 10
737.7333213188
 20
1327.6998095023
 30
0.0
 40
52.93895608675568
100
AcDbArc
 50
269.4616033138
 51
270.5383966862
  0
ARC
  5
101
330
1F
100
AcDbEntity
  8
0
  6
Continuous
 62
     7
370
    15
100
AcDbCircle
 10
713.8014615663
 20
1274.5293352132
 30
0.0
 40
24.43042823493265
100
AcDbArc
 50
0.5484608725
 51
3.2142111718
  0
ARC
  5
102
330
1F
100
AcDbEntity
  8
0
  6
Continuous
 62
     7
370
    15
100
AcDbCircle
 10
737.7582578781
 20
1276.6157622767
 30
0.0
 40
0.8384289433821744
100
AcDbArc
 50
301.2696346083
 51
332.6574828325
  0
ARC
  5
103
330
1F
100
AcDbEntity
  8
0
  6
Continuous
 62
     7
370
    15
100
AcDbCircle
 10
737.8361879469
 20
1262.3719777928
 30
0.0
 40
13.87471995604983
100
AcDbArc
 50
83.0288022795
 51
87.2452717126
  0
ARC
  5
104
330
1F
100
AcDbEntity
  8
0
  6
Continuous
 62
     7
370
    15
100
AcDbCircle
 10
731.0469411665
 20
1275.8341990461
 30
0.0
 40
8.47889305452992
100
AcDbArc
 50
2.0947853203
 51
8.6677702376
  0
ARC
  5
105
330
1F
100
AcDbEntity
  8
0
  6
Continuous
 62
     7
370
    15
100
AcDbCircle
 10
737.7453725119
 20
1263.3440028397
 30
0.0
 40
13.8705647396566
100
AcDbArc
 50
83.0281905351
 51
87.2459543565
  0
ARC
  5
106
330
1F
100
AcDbEntity
  8
0
  6
Continuous
 62
     7
370
    15
100
AcDbCircle
 10
737.5102488017
 20
1276.5613461821
 30
0.0
 40
1.104029763268822
100
AcDbArc
 50
35.2509771187
 51
61.3361000965
  0
ARC
  5
107
330
1F
100
AcDbEntity
  8
0
  6
Continuous
 62
     7
370
    15
100
AcDbCircle
 10
722.7048508964
 20
1275.4703229549
 30
0.0
 40
15.47268060344002
100
AcDbArc
 50
7.6500321421
 51
11.265265796
  0
ARC
  5
108
330
1F
100
AcDbEntity
  8
0
  6
Continuous
 62
     7
370
    15
100
AcDbCircle
 10
737.3819705643
 20
1270.2486904436
 30
0.0
 40
8.259240320192696
100
AcDbArc
 50
86.5469931786
 51
93.4530068214
  0
ARC
  5
109
330
1F
100
AcDbEntity
  8
0
  6
Continuous
 62
     7
370
    15
100
AcDbCircle
 10
721.709945067
 20
1275.4703229549
 30
0.0
 40
15.4726806034398
100
AcDbArc
 50
7.6500321421
 51
11.265265796
  0
ARC
  5
10A
330
1F
100
AcDbEntity
  8
0
  6
Continuous
 62
     7
370
    15
100
AcDbCircle
 10
737.4799968483
 20
1276.8135423624
 30
0.0
 40
0.8382822051405391
100
AcDbArc
 50
121.2663676116
 51
152.6594652336
  0
ARC
  5
10B
330
1F
100
AcDbEntity
  8
0
  6
Continuous
 62
     7
370
    15
100
AcDbCircle
 10
737.64034881
 20
1257.7192171576
 30
0.0
 40
19.50034107965896
100
AcDbArc
 50
92.6599965999
 51
96.0203389892
  0
ARC
  5
10C
330
1F
100
AcDbEntity
  8
0
  6
Continuous
 62
     7
370
    15
100
AcDbCircle
 10
766.6074663274
 20
1279.5451976105
 30
0.0
 40
31.10764845061416
100
AcDbArc
 50
184.4861640315
 51
186.2768286993
  0
ARC
  5
10D
330
1F
100
AcDbEntity
  8
0
  6
Continuous
 62
     7
370
    15
100
AcDbCircle
 10
737.7321062256
 20
1256.743680164
 30
0.0
 40
19.50801421415425
100
AcDbArc
 50
92.6606576551
 51
96.019677934
  0
ARC
  5
10E
330
1F
100
AcDbEntity
  8
0
  6
Continuous
 62
     7
370
    15
100
AcDbCircle
 10
737.728125784
 20
1276.8678568381
 30
0.0
 40
1.104030240949617
100
AcDbArc
 50
215.2504221713
 51
241.3359458846
  0
LWPOLYLINE
  5
10F
330
1F
100
AcDbEntity
  8
0
  6
Continuous
 62
     7
370
    15
100
AcDbPolyline
 90
       22
 70
   128
 43
0.0
 10
741.1237862505
 20
1276.2096091109
 10
740.8477645911
 20
1277.3175253469
 10
740.2529623903
 20
1278.3270045119
 10
739.3922266163
 20
1279.1483341652
 10
738.3420449294
 20
1279.7085507709
 10
737.1957209505
 20
1279.9578695494
 10
736.0551227428
 20
1279.8741399246
 10
735.021585653
 20
1279.4648050266
 10
734.1869492628
 20
1278.7662236887
 10
733.6253766515
 20
1277.840481599
 10
733.386760632
 20
1276.7698257166
 10
733.492309282
 20
1275.6493925053
 10
733.9326385953
 20
1274.5787440735
 10
734.6686292984
 20
1273.6529945332
 10
735.6348801948
 20
1272.9544206458
 10
736.7455382444
 20
1272.5450782972
 10
737.9019167818
 20
1272.4613486725
 10
739.0012648501
 20
1272.710667451
 10
739.9459016122
 20
1273.2708840567
 10
740.6518888272
 20
1274.0922211605
 10
741.0565000571
 20
1275.101692875
 10
741.1237862505
 20
1276.2096091109
  0
ARC
  5
110
330
1F
100
AcDbEntity
  8
0
  6
Continuous
 62
     7
370
    15
100
AcDbCircle
 10
737.0511788005
 20
1275.9158345588
 30
0.0
 40
4.010338002166061
100
AcDbArc
 50
148.6986049246
 51
320.4681581225
  0
LINE
  5
111
330
1F
100
AcDbEntity
  8
0
  6
Continuous
 62
     7
370
    15
100
AcDbLine
 10
737.232094685
 20
1275.0172107416
 30
0.0
 11
737.6537379421
 21
1275.0172107416
 31
0.0
  0
LINE
  5
112
330
1F
100
AcDbEntity
  8
0
  6
Continuous
 62
     7
370
    15
100
AcDbLine
 10
738.2307705082
 20
1274.7631906467
 30
0.0
 11
737.6537379421
 21
1275.0172107416
 31
0.0
  0
LINE
  5
113
330
1F
100
AcDbEntity
  8
0
  6
Continuous
 62
     7
370
    15
100
AcDbLine
 10
737.6266625323
 20
1275.3046094376
 30
0.0
 11
737.6537379421
 21
1275.0172107416
 31
0.0
  0
SPLINE
  5
114
330
1F
100
AcDbEntity
  8
0
  6
Continuous
 62
     7
370
    15
100
AcDbSpline
210
0.0
220
0.0
230
1.0
 70
     8
 71
     3
 72
    10
 73
     6
 74
     0
 42
0.00000001
 43
0.00000001
 12
1.0
 22
0.0
 32
0.0
 13
1.0
 23
0.0
 33
0.0
 40
0.0
 40
0.0
 40
0.0
 40
0.0
 40
0.1133760608494772
 40
0.930019840529873
 40
1.0
 40
1.0
 40
1.0
 40
1.0
 10
738.1934580005851
 20
1275.899128516296
 30
0.0
 10
738.1720530656182
 20
1275.876439057898
 30
0.0
 10
737.9964691367427
 20
1275.690318228485
 30
0.0
 10
737.8075466784975
 20
1275.491800419622
 30
0.0
 10
737.6398950716281
 20
1275.318303352105
 30
0.0
 10
737.6266625322547
 20
1275.304609437564
 30
0.0
  0
LINE
  5
115
330
1F
100
AcDbEntity
  8
0
  6
Continuous
 62
     7
370
    15
100
AcDbLine
 10
735.5951238968
 20
1277.1120085317
 30
0.0
 11
736.0738386013
 21
1276.4251693088
 31
0.0
  0
LINE
  5
116
330
1F
100
AcDbEntity
  8
0
  6
Continuous
 62
     7
370
    15
100
AcDbLine
 10
736.0738386013
 20
1276.4251693088
 30
0.0
 11
736.0966485538
 21
1276.1830105382
 31
0.0
  0
SPLINE
  5
117
330
1F
100
AcDbEntity
  8
0
  6
Continuous
 62
     7
370
    15
100
AcDbSpline
210
0.0
220
0.0
230
1.0
 70
     8
 71
     3
 72
    10
 73
     6
 74
     0
 42
0.00000001
 43
0.00000001
 12
1.0
 22
0.0
 32
0.0
 13
1.0
 23
0.0
 33
0.0
 40
0.0
 40
0.0
 40
0.0
 40
0.0
 40
0.0699802495416939
 40
0.8866243174366133
 40
1.0
 40
1.0
 40
1.0
 40
1.0
 10
736.3692578472343
 20
1276.425169308761
 30
0.0
 10
736.3776195074611
 20
1276.443204522772
 30
0.0
 10
736.4835587023015
 20
1276.671704126835
 30
0.0
 10
736.605946028016
 20
1276.929508619497
 30
0.0
 10
736.7212951854553
 20
1277.169313225796
 30
0.0
 10
736.7353570260253
 20
1277.198547025302
 30
0.0
  0
LINE
  5
118
330
1F
100
AcDbEntity
  8
0
  6
Continuous
 62
     7
370
    15
100
AcDbLine
 10
736.0738386013
 20
1276.4251693088
 30
0.0
 11
736.3692578472
 21
1276.4251693088
 31
0.0
  0
SPLINE
  5
119
330
1F
100
AcDbEntity
  8
0
  6
Continuous
 62
     7
370
    15
100
AcDbSpline
210
0.0
220
0.0
230
1.0
 70
     8
 71
     3
 72
     9
 73
     5
 74
     0
 42
0.00000001
 43
0.00000001
 12
1.0
 22
0.0
 32
0.0
 13
1.0
 23
0.0
 33
0.0
 40
0.0
 40
0.0
 40
0.0
 40
0.0
 40
0.6128269357230715
 40
1.0
 40
1.0
 40
1.0
 40
1.0
 10
738.288728574678
 20
1276.004174252132
 30
0.0
 10
738.3327355205472
 20
1276.050430335283
 30
0.0
 10
738.404545265361
 20
1276.125910181966
 30
0.0
 10
738.4755309703181
 20
1276.201426548618
 30
0.0
 10
738.5030147232261
 20
1276.230664451698
 30
0.0
  0
SPLINE
  5
11A
330
1F
100
AcDbEntity
  8
0
  6
Continuous
 62
     7
370
    15
100
AcDbSpline
210
0.0
220
0.0
230
1.0
 70
     8
 71
     3
 72
    10
 73
     6
 74
     0
 42
0.00000001
 43
0.00000001
 12
1.0
 22
0.0
 32
0.0
 13
1.0
 23
0.0
 33
0.0
 40
0.0
 40
0.0
 40
0.0
 40
0.0
 40
0.1133758250108393
 40
0.930017415470334
 40
1.0
 40
1.0
 40
1.0
 40
1.0
 10
737.0449137486663
 20
1277.530075510124
 30
0.0
 10
737.0247417049624
 20
1277.4942973564
 30
0.0
 10
736.8592712270328
 20
1277.200810574246
 30
0.0
 10
736.6815313153069
 20
1276.883723189131
 30
0.0
 10
736.5242330462046
 20
1276.600230558235
 30
0.0
 10
736.5118172563758
 20
1276.577854056934
 30
0.0
  0
ARC
  5
11B
330
1F
100
AcDbEntity
  8
0
  6
Continuous
 62
     7
370
    15
100
AcDbCircle
 10
736.9502853164
 20
1276.0255680081
 30
0.0
 40
0.7051766582805999
100
AcDbArc
 50
128.4465804915
 51
145.4817743857
  0
LINE
  5
11C
330
1F
100
AcDbEntity
  8
0
  6
Continuous
 62
     7
370
    15
100
AcDbLine
 10
738.038009087
 20
1275.7399841147
 30
0.0
 11
737.9734647073
 21
1276.4251693088
 31
0.0
  0
LINE
  5
11D
330
1F
100
AcDbEntity
  8
0
  6
Continuous
 62
     7
370
    15
100
AcDbLine
 10
739.4289952316
 20
1277.1120085317
 30
0.0
 11
737.9734647073
 21
1276.4251693088
 31
0.0
  0
SPLINE
  5
11E
330
1F
100
AcDbEntity
  8
0
  6
Continuous
 62
     7
370
    15
100
AcDbSpline
210
0.0
220
0.0
230
1.0
 70
     8
 71
     3
 72
    10
 73
     6
 74
     0
 42
0.00000001
 43
0.00000001
 12
1.0
 22
0.0
 32
0.0
 13
1.0
 23
0.0
 33
0.0
 40
0.0
 40
0.0
 40
0.0
 40
0.0
 40
0.0699821994293269
 40
0.8866241750582096
 40
1.0
 40
1.0
 40
1.0
 40
1.0
 10
737.5067230858054
 20
1276.577854056934
 30
0.0
 10
737.5191375686726
 20
1276.600230565017
 30
0.0
 10
737.6764201451084
 20
1276.883724841879
 30
0.0
 10
737.854177770706
 20
1277.200810370454
 30
0.0
 10
738.0196476194584
 20
1277.49429734748
 30
0.0
 10
738.039819578096
 20
1277.530075510124
 30
0.0
  0
SPLINE
  5
11F
330
1F
100
AcDbEntity
  8
0
  6
Continuous
 62
     7
370
    15
100
AcDbSpline
210
0.0
220
0.0
230
1.0
 70
     8
 71
     3
 72
    10
 73
     6
 74
     0
 42
0.00000001
 43
0.00000001
 12
1.0
 22
0.0
 32
0.0
 13
1.0
 23
0.0
 33
0.0
 40
0.0
 40
0.0
 40
0.0
 40
0.0
 40
0.1133758362578013
 40
0.9300171161121863
 40
1.0
 40
1.0
 40
1.0
 40
1.0
 10
738.411834517881
 20
1277.198547025302
 30
0.0
 10
738.3843193026247
 20
1277.169313278658
 30
0.0
 10
738.1586131734664
 20
1276.929510110319
 30
0.0
 10
737.9143536801196
 20
1276.67169495944
 30
0.0
 10
737.6953297033351
 20
1276.443204484259
 30
0.0
 10
737.6780417360511
 20
1276.425169308761
 30
0.0
  0
ARC
  5
120
330
1F
100
AcDbEntity
  8
0
  6
Continuous
 62
     7
370
    15
100
AcDbCircle
 10
736.97612878
 20
1275.8100494279
 30
0.0
 40
0.9333028799232241
100
AcDbArc
 50
41.2296333024
 51
55.3534406993
  0
LINE
  5
121
330
1F
100
AcDbEntity
  8
0
  6
Continuous
 62
     7
370
    15
100
AcDbLine
 10
737.6780417361
 20
1276.4251693088
 30
0.0
 11
737.9734647073
 21
1276.4251693088
 31
0.0
  0
LINE
  5
122
330
1F
100
AcDbEntity
  8
0
  6
Continuous
 62
     7
370
    15
100
AcDbLine
 10
737.879423479
 20
1278.4929363924
 30
0.0
 11
737.4796476759
 21
1276.8652453023
 31
0.0
  0
LINE
  5
123
330
1F
100
AcDbEntity
  8
0
  6
Continuous
 62
     7
370
    15
100
AcDbLine
 10
737.4796476759
 20
1276.8652453023
 30
0.0
 11
737.5067230858
 21
1276.5778540569
 31
0.0
  0
LINE
  5
124
330
1F
100
AcDbEntity
  8
0
  6
Continuous
 62
     7
370
    15
100
AcDbLine
 10
737.4796476759
 20
1276.8652453023
 30
0.0
 11
736.6723623671
 21
1276.8652453023
 31
0.0
  0
ARC
  5
125
330
1F
100
AcDbEntity
  8
0
  6
Continuous
 62
     7
370
    15
100
AcDbCircle
 10
737.1019404822
 20
1275.8826610562
 30
0.0
 40
0.7913329633132321
100
AcDbArc
 50
327.483564483
 51
43.2798654205
  0
ARC
  5
126
330
1F
100
AcDbEntity
  8
0
  6
Continuous
 62
     7
370
    15
100
AcDbCircle
 10
737.1557827166
 20
1275.9065133324
 30
0.0
 40
0.7642094604500607
100
AcDbArc
 50
275.5120522713
 51
308.0366861274
  0
LWPOLYLINE
  5
127
330
1F
100
AcDbEntity
  8
0
  6
Continuous
 62
     7
370
    15
100
AcDbPolyline
 90
        4
 70
   128
 43
0.0
 10
736.3692578472
 20
1276.4251693088
 10
736.3077011503
 20
1276.3158022362
 10
736.2662125923
 20
1276.1965631443
 10
736.2662051417
 20
1276.1965407926
  0
ARC
  5
128
330
1F
100
AcDbEntity
  8
0
  6
Continuous
 62
     7
370
    15
100
AcDbCircle
 10
737.0092701711
 20
1275.9019315653
 30
0.0
 40
0.8392440747570541
100
AcDbArc
 50
53.6483634377
 51
126.3516365623
  0
ARC
  5
129
330
1F
100
AcDbEntity
  8
0
  6
Continuous
 62
     7
370
    15
100
AcDbCircle
 10
729.7813468161
 20
1347.8922129517
 30
0.0
 40
13.86649241509847
100
AcDbArc
 50
83.02714289
 51
87.246133212
  0
ARC
  5
12A
330
1F
100
AcDbEntity
  8
0
  6
Continuous
 62
     7
370
    15
100
AcDbCircle
 10
722.9921042787
 20
1361.3462532306
 30
0.0
 40
8.478288003899477
100
AcDbArc
 50
2.0947016392
 51
8.6682087272
  0
ARC
  5
12B
330
1F
100
AcDbEntity
  8
0
  6
Continuous
 62
     7
370
    15
100
AcDbCircle
 10
729.6906418206
 20
1348.8632600597
 30
0.0
 40
13.8633014443147
100
AcDbArc
 50
83.0274930722
 51
87.2474497108
  0
ARC
  5
12C
330
1F
100
AcDbEntity
  8
0
  6
Continuous
 62
     7
370
    15
100
AcDbCircle
 10
729.4549261376
 20
1362.0735145727
 30
0.0
 40
1.1038472394489
100
AcDbArc
 50
35.2482217245
 51
61.3381463314
  0
ARC
  5
12D
330
1F
100
AcDbEntity
  8
0
  6
Continuous
 62
     7
370
    15
100
AcDbCircle
 10
714.6510528735
 20
1360.9827065152
 30
0.0
 40
15.47100103027603
100
AcDbArc
 50
7.649535806
 51
11.2651870327
  0
ARC
  5
12E
330
1F
100
AcDbEntity
  8
0
  6
Continuous
 62
     7
370
    15
100
AcDbCircle
 10
729.3265313454
 20
1355.7571239858
 30
0.0
 40
8.26283472616379
100
AcDbArc
 50
86.5485100264
 51
93.4514899736
  0
ARC
  5
12F
330
1F
100
AcDbEntity
  8
0
  6
Continuous
 62
     7
370
    15
100
AcDbCircle
 10
713.6561507694
 20
1360.9827065152
 30
0.0
 40
15.47100103027607
100
AcDbArc
 50
7.649535806
 51
11.2651870327
  0
ARC
  5
130
330
1F
100
AcDbEntity
  8
0
  6
Continuous
 62
     7
370
    15
100
AcDbCircle
 10
729.4245064754
 20
1362.3256241825
 30
0.0
 40
0.8382098873850938
100
AcDbArc
 50
121.2654274009
 51
152.6616900399
  0
ARC
  5
131
330
1F
100
AcDbEntity
  8
0
  6
Continuous
 62
     7
370
    15
100
AcDbCircle
 10
729.5839786649
 20
1343.2418094901
 30
0.0
 40
19.48973672079721
100
AcDbArc
 50
92.6587107446
 51
96.0208803614
  0
ARC
  5
132
330
1F
100
AcDbEntity
  8
0
  6
Continuous
 62
     7
370
    15
100
AcDbCircle
 10
758.5712395797
 20
1365.0590085891
 30
0.0
 40
31.12694344634992
100
AcDbArc
 50
184.486671066
 51
186.2762393004
  0
ARC
  5
133
330
1F
100
AcDbEntity
  8
0
  6
Continuous
 62
     7
370
    15
100
AcDbCircle
 10
729.6758498248
 20
1342.2681191972
 30
0.0
 40
19.49557785943681
100
AcDbArc
 50
92.6599573898
 51
96.0211226818
  0
ARC
  5
134
330
1F
100
AcDbEntity
  8
0
  6
Continuous
 62
     7
370
    15
100
AcDbCircle
 10
729.6726553818
 20
1362.3798510816
 30
0.0
 40
1.103987307844929
100
AcDbArc
 50
215.2499060023
 51
241.3364620536
  0
ARC
  5
135
330
1F
100
AcDbEntity
  8
0
  6
Continuous
 62
     7
370
    15
100
AcDbCircle
 10
704.7551449702
 20
1360.041333004
 30
0.0
 40
24.4264059074324
100
AcDbArc
 50
0.548637525
 51
3.2148099782
  0
ARC
  5
136
330
1F
100
AcDbEntity
  8
0
  6
Continuous
 62
     7
370
    15
100
AcDbCircle
 10
729.6778820999
 20
1413.0628807213
 30
0.0
 40
52.78999932347832
100
AcDbArc
 50
269.4600820611
 51
270.5399179389
  0
ARC
  5
137
330
1F
100
AcDbEntity
  8
0
  6
Continuous
 62
     7
370
    15
100
AcDbCircle
 10
705.7500470743
 20
1360.041333004
 30
0.0
 40
24.4264059074324
100
AcDbArc
 50
0.548637525
 51
3.2148099782
  0
ARC
  5
138
330
1F
100
AcDbEntity
  8
0
  6
Continuous
 62
     7
370
    15
100
AcDbCircle
 10
729.7029130811
 20
1362.1276960415
 30
0.0
 40
0.8382972177746912
100
AcDbArc
 50
301.2671049494
 51
332.6600124913
  0
LWPOLYLINE
  5
139
330
1F
100
AcDbEntity
  8
0
  6
Continuous
 62
     7
370
    15
100
AcDbPolyline
 90
       11
 70
   128
 43
0.0
 10
728.8505603172
 20
1365.480409463
 10
727.7274448969
 20
1365.3134121495
 10
726.7355826296
 20
1364.8272766667
 10
725.9631101586
 20
1364.065201481
 10
725.4786622323
 20
1363.0948676663
 10
725.3252845802
 20
1362.002538045
 10
725.516604314
 20
1360.8852340776
 10
726.0356229343
 20
1359.8422571021
 10
726.836221347
 20
1358.966262539
 10
727.847265134
 20
1358.3351089555
 10
728.1250153281
 20
1358.2218452292
  0
LWPOLYLINE
  5
13A
330
1F
100
AcDbEntity
  8
0
  6
Continuous
 62
     7
370
    15
100
AcDbPolyline
 90
       11
 70
   128
 43
0.0
 10
730.4624673523
 20
1358.0695106584
 10
731.2000636555
 20
1358.3351089555
 10
732.0921924509
 20
1358.966262539
 10
732.7277530529
 20
1359.8422571021
 10
733.0502663352
 20
1360.8852340776
 10
733.0310810901
 20
1362.002538045
 10
732.6719035007
 20
1363.0948676663
 10
732.0046406783
 20
1364.065201481
 10
731.0885880686
 20
1364.8272766667
 10
730.0051358141
 20
1365.3134121495
 10
728.8505603172
 20
1365.480409463
  0
ARC
  5
13B
330
1F
100
AcDbEntity
  8
0
  6
Continuous
 62
     7
370
    15
100
AcDbCircle
 10
728.8326170899
 20
1361.4605122487
 30
0.0
 40
3.854420171768104
100
AcDbArc
 50
147.8534137678
 51
237.1662671556
  0
LWPOLYLINE
  5
13C
330
1F
100
AcDbEntity
  8
0
  6
Continuous
 62
     7
370
    15
100
AcDbPolyline
 90
        3
 70
   128
 43
0.0
 10
731.0738172926
 20
1357.9419120151
 10
731.7165081002
 20
1358.43795677
 10
732.0887987115
 20
1358.8752462464
  0
LINE
  5
13D
330
1F
100
AcDbEntity
  8
0
  6
Continuous
 62
     7
370
    15
100
AcDbLine
 10
729.1766498782
 20
1360.5292453366
 30
0.0
 11
729.5982931353
 21
1360.5292453366
 31
0.0
  0
LINE
  5
13E
330
1F
100
AcDbEntity
  8
0
  6
Continuous
 62
     7
370
    15
100
AcDbLine
 10
730.175333152
 20
1360.2752252418
 30
0.0
 11
729.5982931353
 21
1360.5292453366
 31
0.0
  0
LINE
  5
13F
330
1F
100
AcDbEntity
  8
0
  6
Continuous
 62
     7
370
    15
100
AcDbLine
 10
729.5712214507
 20
1360.8166440326
 30
0.0
 11
729.5982931353
 21
1360.5292453366
 31
0.0
  0
SPLINE
  5
140
330
1F
100
AcDbEntity
  8
0
  6
Continuous
 62
     7
370
    15
100
AcDbSpline
210
0.0
220
0.0
230
1.0
 70
     8
 71
     3
 72
    10
 73
     6
 74
     0
 42
0.00000001
 43
0.00000001
 12
1.0
 22
0.0
 32
0.0
 13
1.0
 23
0.0
 33
0.0
 40
0.0
 40
0.0
 40
0.0
 40
0.0
 40
0.1133753370729086
 40
0.9300162774159823
 40
1.0
 40
1.0
 40
1.0
 40
1.0
 10
730.1380131937709
 20
1361.411155660728
 30
0.0
 10
730.1166081858187
 20
1361.388468913045
 30
0.0
 10
729.9410232100397
 20
1361.202369844492
 30
0.0
 10
729.7521147437035
 20
1361.00382536866
 30
0.0
 10
729.5844552737084
 20
1360.830337877306
 30
0.0
 10
729.5712214507308
 20
1360.816644032577
 30
0.0
  0
LINE
  5
141
330
1F
100
AcDbEntity
  8
0
  6
Continuous
 62
     7
370
    15
100
AcDbLine
 10
727.5396828152
 20
1362.6240356761
 30
0.0
 11
728.0183975198
 21
1361.9371964532
 31
0.0
  0
LINE
  5
142
330
1F
100
AcDbEntity
  8
0
  6
Continuous
 62
     7
370
    15
100
AcDbLine
 10
728.0183975198
 20
1361.9371964532
 30
0.0
 11
728.0412074722
 21
1361.6950376826
 31
0.0
  0
SPLINE
  5
143
330
1F
100
AcDbEntity
  8
0
  6
Continuous
 62
     7
370
    15
100
AcDbSpline
210
0.0
220
0.0
230
1.0
 70
     8
 71
     3
 72
    10
 73
     6
 74
     0
 42
0.00000001
 43
0.00000001
 12
1.0
 22
0.0
 32
0.0
 13
1.0
 23
0.0
 33
0.0
 40
0.0
 40
0.0
 40
0.0
 40
0.0
 40
0.0699833707067661
 40
0.8866253099858022
 40
1.0
 40
1.0
 40
1.0
 40
1.0
 10
728.3138167657104
 20
1361.937196453193
 30
0.0
 10
728.3221784070781
 20
1361.955231594186
 30
0.0
 10
728.428112756836
 20
1362.18372033819
 30
0.0
 10
728.5505044707479
 20
1362.441551941233
 30
0.0
 10
728.6658541199016
 20
1362.68133562772
 30
0.0
 10
728.6799159445014
 20
1362.710566719154
 30
0.0
  0
LINE
  5
144
330
1F
100
AcDbEntity
  8
0
  6
Continuous
 62
     7
370
    15
100
AcDbLine
 10
728.0183975198
 20
1361.9371964532
 30
0.0
 11
728.3138167657
 21
1361.9371964532
 31
0.0
  0
SPLINE
  5
145
330
1F
100
AcDbEntity
  8
0
  6
Continuous
 62
     7
370
    15
100
AcDbSpline
210
0.0
220
0.0
230
1.0
 70
     8
 71
     3
 72
     9
 73
     5
 74
     0
 42
0.00000001
 43
0.00000001
 12
1.0
 22
0.0
 32
0.0
 13
1.0
 23
0.0
 33
0.0
 40
0.0
 40
0.0
 40
0.0
 40
0.0
 40
0.6128274904741421
 40
1.0
 40
1.0
 40
1.0
 40
1.0
 10
730.2332874931541
 20
1361.516193945983
 30
0.0
 10
730.2772972346727
 20
1361.562453240491
 30
0.0
 10
730.3491114763682
 20
1361.637938259077
 30
0.0
 10
730.4200892670666
 20
1361.713453983569
 30
0.0
 10
730.4475699164119
 20
1361.74269159613
 30
0.0
  0
SPLINE
  5
146
330
1F
100
AcDbEntity
  8
0
  6
Continuous
 62
     7
370
    15
100
AcDbSpline
210
0.0
220
0.0
230
1.0
 70
     8
 71
     3
 72
    10
 73
     6
 74
     0
 42
0.00000001
 43
0.00000001
 12
1.0
 22
0.0
 32
0.0
 13
1.0
 23
0.0
 33
0.0
 40
0.0
 40
0.0
 40
0.0
 40
0.0
 40
0.1133746236831178
 40
0.9300201856412205
 40
1.0
 40
1.0
 40
1.0
 40
1.0
 10
728.9894726671424
 20
1363.042102654555
 30
0.0
 10
728.969300568183
 20
1363.006327151878
 30
0.0
 10
728.8038273907684
 20
1362.712858132437
 30
0.0
 10
728.6260971046272
 20
1362.395754388029
 30
0.0
 10
728.4687919962108
 20
1362.112250244681
 30
0.0
 10
728.4563761748519
 20
1362.089873750785
 30
0.0
  0
ARC
  5
147
330
1F
100
AcDbEntity
  8
0
  6
Continuous
 62
     7
370
    15
100
AcDbCircle
 10
728.8946797508
 20
1361.5377217851
 30
0.0
 40
0.7049693737739464
100
AcDbArc
 50
128.442886494
 51
145.4826790086
  0
LINE
  5
148
330
1F
100
AcDbEntity
  8
0
  6
Continuous
 62
     7
370
    15
100
AcDbLine
 10
729.9825680055
 20
1361.2520112592
 30
0.0
 11
729.9180236258
 21
1361.9371964532
 31
0.0
  0
LINE
  5
149
330
1F
100
AcDbEntity
  8
0
  6
Continuous
 62
     7
370
    15
100
AcDbLine
 10
731.3735504247
 20
1362.6240356761
 30
0.0
 11
729.9180236258
 21
1361.9371964532
 31
0.0
  0
SPLINE
  5
14A
330
1F
100
AcDbEntity
  8
0
  6
Continuous
 62
     7
370
    15
100
AcDbSpline
210
0.0
220
0.0
230
1.0
 70
     8
 71
     3
 72
    10
 73
     6
 74
     0
 42
0.00000001
 43
0.00000001
 12
1.0
 22
0.0
 32
0.0
 13
1.0
 23
0.0
 33
0.0
 40
0.0
 40
0.0
 40
0.0
 40
0.0
 40
0.1133752328989757
 40
0.9300202284897949
 40
1.0
 40
1.0
 40
1.0
 40
1.0
 10
730.356393436357
 20
1362.710566719154
 30
0.0
 10
730.328878222671
 20
1362.681335573335
 30
0.0
 10
730.103170149886
 20
1362.441551660941
 30
0.0
 10
729.8589090160493
 20
1362.183732617464
 30
0.0
 10
729.6398910889882
 20
1361.955231643022
 30
0.0
 10
729.6226043798175
 20
1361.937196453193
 30
0.0
  0
ARC
  5
14B
330
1F
100
AcDbEntity
  8
0
  6
Continuous
 62
     7
370
    15
100
AcDbCircle
 10
728.9209886465
 20
1361.3223467385
 30
0.0
 40
0.9329012856949258
100
AcDbArc
 50
41.229185459
 51
55.3591413073
  0
SPLINE
  5
14C
330
1F
100
AcDbEntity
  8
0
  6
Continuous
 62
     7
370
    15
100
AcDbSpline
210
0.0
220
0.0
230
1.0
 70
     8
 71
     3
 72
    10
 73
     6
 74
     0
 42
0.00000001
 43
0.00000001
 12
1.0
 22
0.0
 32
0.0
 13
1.0
 23
0.0
 33
0.0
 40
0.0
 40
0.0
 40
0.0
 40
0.0
 40
0.0699824875325859
 40
0.8866257021916095
 40
1.0
 40
1.0
 40
1.0
 40
1.0
 10
729.4512782789913
 20
1362.089873750785
 30
0.0
 10
729.4636940750777
 20
1362.112250199608
 30
0.0
 10
729.6209929124227
 20
1362.395743046879
 30
0.0
 10
729.7987297624154
 20
1362.712858614682
 30
0.0
 10
729.9642027013895
 20
1363.006327204278
 30
0.0
 10
729.9843747712818
 20
1363.042102654555
 30
0.0
  0
LINE
  5
14D
330
1F
100
AcDbEntity
  8
0
  6
Continuous
 62
     7
370
    15
100
AcDbLine
 10
729.6226043798
 20
1361.9371964532
 30
0.0
 11
729.9180236258
 21
1361.9371964532
 31
0.0
  0
LINE
  5
14E
330
1F
100
AcDbEntity
  8
0
  6
Continuous
 62
     7
370
    15
100
AcDbLine
 10
729.8239823975
 20
1364.0049709874
 30
0.0
 11
729.4242065944
 21
1362.3772724467
 31
0.0
  0
LINE
  5
14F
330
1F
100
AcDbEntity
  8
0
  6
Continuous
 62
     7
370
    15
100
AcDbLine
 10
729.4242065944
 20
1362.3772724467
 30
0.0
 11
729.451278279
 21
1362.0898737508
 31
0.0
  0
LINE
  5
150
330
1F
100
AcDbEntity
  8
0
  6
Continuous
 62
     7
370
    15
100
AcDbLine
 10
729.4242065944
 20
1362.3772724467
 30
0.0
 11
728.6169250108
 21
1362.3772724467
 31
0.0
  0
ARC
  5
151
330
1F
100
AcDbEntity
  8
0
  6
Continuous
 62
     7
370
    15
100
AcDbCircle
 10
728.9538272269
 20
1361.4140361682
 30
0.0
 40
0.8391745868725959
100
AcDbArc
 50
53.6450295895
 51
126.3549704105
  0
ARC
  5
152
330
1F
100
AcDbEntity
  8
0
  6
Continuous
 62
     7
370
    15
100
AcDbCircle
 10
729.0465143319
 20
1361.394695099
 30
0.0
 40
0.7913200759632802
100
AcDbArc
 50
327.4830170605
 51
43.2800580361
  0
ARC
  5
153
330
1F
100
AcDbEntity
  8
0
  6
Continuous
 62
     7
370
    15
100
AcDbCircle
 10
729.1004526077
 20
1361.4182701157
 30
0.0
 40
0.7639222784014675
100
AcDbArc
 50
275.5057690255
 51
308.0429693733
  0
LWPOLYLINE
  5
154
330
1F
100
AcDbEntity
  8
0
  6
Continuous
 62
     7
370
    15
100
AcDbPolyline
 90
        4
 70
   128
 43
0.0
 10
728.3138167657
 20
1361.9371964532
 10
728.2522600688
 20
1361.8278368312
 10
728.2107715108
 20
1361.7085977393
 10
728.2107640602
 20
1361.708567937
  0
ARC
  5
155
330
1F
100
AcDbEntity
  8
0
  6
Continuous
 62
     7
370
    15
100
AcDbCircle
 10
648.7281826457
 20
1360.0412557985
 30
0.0
 40
24.42966947381698
100
AcDbArc
 50
0.5487453111
 51
3.2145614176
  0
ARC
  5
156
330
1F
100
AcDbEntity
  8
0
  6
Continuous
 62
     7
370
    15
100
AcDbCircle
 10
673.6541835015
 20
1413.0630389747
 30
0.0
 40
52.79015757691855
100
AcDbArc
 50
269.4600828663
 51
270.5399171337
  0
ARC
  5
157
330
1F
100
AcDbEntity
  8
0
  6
Continuous
 62
     7
370
    15
100
AcDbCircle
 10
649.7232507468
 20
1360.0412602654
 30
0.0
 40
24.42950494039449
100
AcDbArc
 50
0.5487385302
 51
3.2145725977
  0
ARC
  5
158
330
1F
100
AcDbEntity
  8
0
  6
Continuous
 62
     7
370
    15
100
AcDbCircle
 10
673.6791999795
 20
1362.1277118816
 30
0.0
 40
0.8383193761781189
100
AcDbArc
 50
301.2675131526
 51
332.6595767455
  0
ARC
  5
159
330
1F
100
AcDbEntity
  8
0
  6
Continuous
 62
     7
370
    15
100
AcDbCircle
 10
673.757619734
 20
1347.8918648139
 30
0.0
 40
13.86684162757594
100
AcDbArc
 50
83.0271942218
 51
87.2460754752
  0
ARC
  5
15A
330
1F
100
AcDbEntity
  8
0
  6
Continuous
 62
     7
370
    15
100
AcDbCircle
 10
666.9676915165
 20
1361.3461807658
 30
0.0
 40
8.479005917091142
100
AcDbArc
 50
2.0950142017
 51
8.6679644724
  0
ARC
  5
15B
330
1F
100
AcDbEntity
  8
0
  6
Continuous
 62
     7
370
    15
100
AcDbCircle
 10
673.6669284214
 20
1348.8630802687
 30
0.0
 40
13.86348182330457
100
AcDbArc
 50
83.0275184673
 51
87.2474170117
  0
ARC
  5
15C
330
1F
100
AcDbEntity
  8
0
  6
Continuous
 62
     7
370
    15
100
AcDbCircle
 10
673.4312278997
 20
1362.0735120968
 30
0.0
 40
1.103849814834457
100
AcDbArc
 50
35.2482846182
 51
61.3381697104
  0
ARC
  5
15D
330
1F
100
AcDbEntity
  8
0
  6
Continuous
 62
     7
370
    15
100
AcDbCircle
 10
658.6293584162
 20
1360.9830296135
 30
0.0
 40
15.46897290564237
100
AcDbArc
 50
7.6493372576
 51
11.2654630945
  0
ARC
  5
15E
330
1F
100
AcDbEntity
  8
0
  6
Continuous
 62
     7
370
    15
100
AcDbCircle
 10
673.3028325214
 20
1355.7570990307
 30
0.0
 40
8.262859681492767
100
AcDbArc
 50
86.5485152066
 51
93.4514847934
  0
ARC
  5
15F
330
1F
100
AcDbEntity
  8
0
  6
Continuous
 62
     7
370
    15
100
AcDbCircle
 10
657.6343753339
 20
1360.983015913
 30
0.0
 40
15.46905351573956
100
AcDbArc
 50
7.6493483589
 51
11.2654553634
  0
ARC
  5
160
330
1F
100
AcDbEntity
  8
0
  6
Continuous
 62
     7
370
    15
100
AcDbCircle
 10
673.4008234914
 20
1362.3256090768
 30
0.0
 40
0.8382310504869752
100
AcDbArc
 50
121.2658203921
 51
152.661275552
  0
ARC
  5
161
330
1F
100
AcDbEntity
  8
0
  6
Continuous
 62
     7
370
    15
100
AcDbCircle
 10
673.5602879557
 20
1343.2417552654
 30
0.0
 40
19.48979127163076
100
AcDbArc
 50
92.658727693
 51
96.0208810686
  0
ARC
  5
162
330
1F
100
AcDbEntity
  8
0
  6
Continuous
 62
     7
370
    15
100
AcDbCircle
 10
702.5303925582
 20
1365.0574078816
 30
0.0
 40
31.10972043358974
100
AcDbArc
 50
184.4862029367
 51
186.2767620758
  0
ARC
  5
163
330
1F
100
AcDbEntity
  8
0
  6
Continuous
 62
     7
370
    15
100
AcDbCircle
 10
673.6521590253
 20
1342.2680723251
 30
0.0
 40
19.49562503998465
100
AcDbArc
 50
92.6599737004
 51
96.0211240299
  0
ARC
  5
164
330
1F
100
AcDbEntity
  8
0
  6
Continuous
 62
     7
370
    15
100
AcDbCircle
 10
673.6489570528
 20
1362.3798522402
 30
0.0
 40
1.103988143064151
100
AcDbArc
 50
215.249948997
 51
241.3365081146
  0
LWPOLYLINE
  5
165
330
1F
100
AcDbEntity
  8
0
  6
Continuous
 62
     7
370
    15
100
AcDbPolyline
 90
       22
 70
   128
 43
0.0
 10
677.04464943
 20
1361.7216362554
 10
676.7686275378
 20
1362.8295524913
 10
676.1738242893
 20
1363.8390316564
 10
675.3130907271
 20
1364.6603687602
 10
674.2629067701
 20
1365.2205779153
 10
673.1165858762
 20
1365.4699041444
 10
671.975983594
 20
1365.3861745196
 10
670.9424476683
 20
1364.9768247205
 10
670.1078122094
 20
1364.2782582837
 10
669.5462377355
 20
1363.3525087434
 10
669.3076235786
 20
1362.2818603116
 10
669.4131708317
 20
1361.1614271003
 10
669.8535015419
 20
1360.0907637673
 10
670.5894903824
 20
1359.1650291282
 10
671.5557412788
 20
1358.4664477902
 10
672.6663989792
 20
1358.0571128922
 10
673.8227762942
 20
1357.9733832675
 10
674.9221241878
 20
1358.2226945954
 10
675.8667608336
 20
1358.7829186517
 10
676.5727510754
 20
1359.6042557555
 10
676.9773644008
 20
1360.6137200194
 10
677.04464943
 20
1361.7216362554
  0
ARC
  5
166
330
1F
100
AcDbEntity
  8
0
  6
Continuous
 62
     7
370
    15
100
AcDbCircle
 10
672.9720471073
 20
1361.4278697421
 30
0.0
 40
4.010344265918523
100
AcDbArc
 50
148.698669175
 51
320.4679450498
  0
LINE
  5
167
330
1F
100
AcDbEntity
  8
0
  6
Continuous
 62
     7
370
    15
100
AcDbLine
 10
673.1529525094
 20
1360.5292453366
 30
0.0
 11
673.5745969307
 21
1360.5292453366
 31
0.0
  0
LINE
  5
168
330
1F
100
AcDbEntity
  8
0
  6
Continuous
 62
     7
370
    15
100
AcDbLine
 10
674.151635303
 20
1360.2752252418
 30
0.0
 11
673.5745969307
 21
1360.5292453366
 31
0.0
  0
LINE
  5
169
330
1F
100
AcDbEntity
  8
0
  6
Continuous
 62
     7
370
    15
100
AcDbLine
 10
673.5475234416
 20
1360.8166440326
 30
0.0
 11
673.5745969307
 21
1360.5292453366
 31
0.0
  0
SPLINE
  5
16A
330
1F
100
AcDbEntity
  8
0
  6
Continuous
 62
     7
370
    15
100
AcDbSpline
210
0.0
220
0.0
230
1.0
 70
     8
 71
     3
 72
    10
 73
     6
 74
     0
 42
0.00000001
 43
0.00000001
 12
1.0
 22
0.0
 32
0.0
 13
1.0
 23
0.0
 33
0.0
 40
0.0
 40
0.0
 40
0.0
 40
0.0
 40
0.1133752765633622
 40
0.9300162762519805
 40
1.0
 40
1.0
 40
1.0
 40
1.0
 10
674.1143166980852
 20
1361.411155660728
 30
0.0
 10
674.0929118318062
 20
1361.388468911959
 30
0.0
 10
673.9173279246802
 20
1361.202369735404
 30
0.0
 10
673.7284172303595
 20
1361.003825380663
 30
0.0
 10
673.5607573002579
 20
1360.830337877529
 30
0.0
 10
673.5475234416459
 20
1360.816644032577
 30
0.0
  0
LINE
  5
16B
330
1F
100
AcDbEntity
  8
0
  6
Continuous
 62
     7
370
    15
100
AcDbLine
 10
671.5159861449
 20
1362.6240356761
 30
0.0
 11
671.994698754
 21
1361.9371964532
 31
0.0
  0
LINE
  5
16C
330
1F
100
AcDbEntity
  8
0
  6
Continuous
 62
     7
370
    15
100
AcDbLine
 10
671.994698754
 20
1361.9371964532
 30
0.0
 11
672.0175108019
 21
1361.6950376826
 31
0.0
  0
SPLINE
  5
16D
330
1F
100
AcDbEntity
  8
0
  6
Continuous
 62
     7
370
    15
100
AcDbSpline
210
0.0
220
0.0
230
1.0
 70
     8
 71
     3
 72
    10
 73
     6
 74
     0
 42
0.00000001
 43
0.00000001
 12
1.0
 22
0.0
 32
0.0
 13
1.0
 23
0.0
 33
0.0
 40
0.0
 40
0.0
 40
0.0
 40
0.0
 40
0.069983473021838
 40
0.8866255120666445
 40
1.0
 40
1.0
 40
1.0
 40
1.0
 10
672.2901186984178
 20
1361.937196453193
 30
0.0
 10
672.2984808140836
 20
1361.955231593737
 30
0.0
 10
672.4044210420269
 20
1362.183720050074
 30
0.0
 10
672.5268146601542
 20
1362.441551513747
 30
0.0
 10
672.6421561406152
 20
1362.681335624843
 30
0.0
 10
672.6562169458863
 20
1362.710566719154
 30
0.0
  0
LINE
  5
16E
330
1F
100
AcDbEntity
  8
0
  6
Continuous
 62
     7
370
    15
100
AcDbLine
 10
671.994698754
 20
1361.9371964532
 30
0.0
 11
672.2901186984
 21
1361.9371964532
 31
0.0
  0
SPLINE
  5
16F
330
1F
100
AcDbEntity
  8
0
  6
Continuous
 62
     7
370
    15
100
AcDbSpline
210
0.0
220
0.0
230
1.0
 70
     8
 71
     3
 72
     9
 73
     5
 74
     0
 42
0.00000001
 43
0.00000001
 12
1.0
 22
0.0
 32
0.0
 13
1.0
 23
0.0
 33
0.0
 40
0.0
 40
0.0
 40
0.0
 40
0.0
 40
0.6128265367157958
 40
1.0
 40
1.0
 40
1.0
 40
1.0
 10
674.2095914194739
 20
1361.516193945983
 30
0.0
 10
674.2535999834142
 20
1361.562453297495
 30
0.0
 10
674.3254124153239
 20
1361.637938526577
 30
0.0
 10
674.3963921140894
 20
1361.71345400631
 30
0.0
 10
674.4238735698833
 20
1361.74269159613
 30
0.0
  0
SPLINE
  5
170
330
1F
100
AcDbEntity
  8
0
  6
Continuous
 62
     7
370
    15
100
AcDbSpline
210
0.0
220
0.0
230
1.0
 70
     8
 71
     3
 72
    10
 73
     6
 74
     0
 42
0.00000001
 43
0.00000001
 12
1.0
 22
0.0
 32
0.0
 13
1.0
 23
0.0
 33
0.0
 40
0.0
 40
0.0
 40
0.0
 40
0.0
 40
0.1133771081045064
 40
0.9300203624174461
 40
1.0
 40
1.0
 40
1.0
 40
1.0
 10
672.9657737849426
 20
1363.042102654555
 30
0.0
 10
672.9456019722794
 20
1363.006327220221
 30
0.0
 10
672.7801347378678
 20
1362.712865136369
 30
0.0
 10
672.6023992624743
 20
1362.395754143139
 30
0.0
 10
672.4450933011702
 20
1362.112250232491
 30
0.0
 10
672.4326774090674
 20
1362.089873750785
 30
0.0
  0
ARC
  5
171
330
1F
100
AcDbEntity
  8
0
  6
Continuous
 62
     7
370
    15
100
AcDbCircle
 10
672.8709499982
 20
1361.5377533757
 30
0.0
 40
0.7049253655476381
100
AcDbArc
 50
128.4425102693
 51
145.4833353048
  0
LINE
  5
172
330
1F
100
AcDbEntity
  8
0
  6
Continuous
 62
     7
370
    15
100
AcDbLine
 10
673.958871277
 20
1361.2520112592
 30
0.0
 11
673.8943252383
 21
1361.9371964532
 31
0.0
  0
LINE
  5
173
330
1F
100
AcDbEntity
  8
0
  6
Continuous
 62
     7
370
    15
100
AcDbLine
 10
675.3498528231
 20
1362.6240356761
 30
0.0
 11
673.8943252383
 21
1361.9371964532
 31
0.0
  0
SPLINE
  5
174
330
1F
100
AcDbEntity
  8
0
  6
Continuous
 62
     7
370
    15
100
AcDbSpline
210
0.0
220
0.0
230
1.0
 70
     8
 71
     3
 72
    10
 73
     6
 74
     0
 42
0.00000001
 43
0.00000001
 12
1.0
 22
0.0
 32
0.0
 13
1.0
 23
0.0
 33
0.0
 40
0.0
 40
0.0
 40
0.0
 40
0.0
 40
0.0699825126628233
 40
0.8866257698556913
 40
1.0
 40
1.0
 40
1.0
 40
1.0
 10
673.4275810266059
 20
1362.089873750785
 30
0.0
 10
673.4399969005452
 20
1362.112250199582
 30
0.0
 10
673.5972966797466
 20
1362.395742966361
 30
0.0
 10
673.7750344465118
 20
1362.712858434662
 30
0.0
 10
673.940505539959
 20
1363.006327202887
 30
0.0
 10
673.9606773733773
 20
1363.042102654555
 30
0.0
  0
SPLINE
  5
175
330
1F
100
AcDbEntity
  8
0
  6
Continuous
 62
     7
370
    15
100
AcDbSpline
210
0.0
220
0.0
230
1.0
 70
     8
 71
     3
 72
    10
 73
     6
 74
     0
 42
0.00000001
 43
0.00000001
 12
1.0
 22
0.0
 32
0.0
 13
1.0
 23
0.0
 33
0.0
 40
0.0
 40
0.0
 40
0.0
 40
0.0
 40
0.1133754568993252
 40
0.93001985889254
 40
1.0
 40
1.0
 40
1.0
 40
1.0
 10
674.3326966023393
 20
1362.710566719154
 30
0.0
 10
674.3051806699518
 20
1362.681335585548
 30
0.0
 10
674.0794672372914
 20
1362.441552342376
 30
0.0
 10
673.8352217463864
 20
1362.183731265138
 30
0.0
 10
673.6161928212716
 20
1361.9552316366
 30
0.0
 10
673.5989051483717
 20
1361.937196453193
 30
0.0
  0
ARC
  5
176
330
1F
100
AcDbEntity
  8
0
  6
Continuous
 62
     7
370
    15
100
AcDbCircle
 10
672.8973882765
 20
1361.322464548
 30
0.0
 40
0.9327492893972605
100
AcDbArc
 50
41.2277452982
 51
55.3599239867
  0
LINE
  5
177
330
1F
100
AcDbEntity
  8
0
  6
Continuous
 62
     7
370
    15
100
AcDbLine
 10
673.5989051484
 20
1361.9371964532
 30
0.0
 11
673.8943252383
 21
1361.9371964532
 31
0.0
  0
LINE
  5
178
330
1F
100
AcDbEntity
  8
0
  6
Continuous
 62
     7
370
    15
100
AcDbLine
 10
673.8002843302
 20
1364.0049709874
 30
0.0
 11
673.4005075376
 21
1362.3772724467
 31
0.0
  0
LINE
  5
179
330
1F
100
AcDbEntity
  8
0
  6
Continuous
 62
     7
370
    15
100
AcDbLine
 10
673.4005075376
 20
1362.3772724467
 30
0.0
 11
673.4275810266
 21
1362.0898737508
 31
0.0
  0
LINE
  5
17A
330
1F
100
AcDbEntity
  8
0
  6
Continuous
 62
     7
370
    15
100
AcDbLine
 10
673.4005075376
 20
1362.3772724467
 30
0.0
 11
672.5932254302
 21
1362.3772724467
 31
0.0
  0
ARC
  5
17B
330
1F
100
AcDbEntity
  8
0
  6
Continuous
 62
     7
370
    15
100
AcDbCircle
 10
673.0228217249
 20
1361.394695402
 30
0.0
 40
0.7913150455801508
100
AcDbArc
 50
327.4827588505
 51
43.2803708932
  0
ARC
  5
17C
330
1F
100
AcDbEntity
  8
0
  6
Continuous
 62
     7
370
    15
100
AcDbCircle
 10
673.0767549348
 20
1361.4182700534
 30
0.0
 40
0.7639220222006451
100
AcDbArc
 50
275.5056183569
 51
308.0429523962
  0
LWPOLYLINE
  5
17D
330
1F
100
AcDbEntity
  8
0
  6
Continuous
 62
     7
370
    15
100
AcDbPolyline
 90
        4
 70
   128
 43
0.0
 10
672.2901186984
 20
1361.9371964532
 10
672.2285638642
 20
1361.8278368312
 10
672.187072745
 20
1361.7085977393
 10
672.1870662257
 20
1361.708567937
  0
ARC
  5
17E
330
1F
100
AcDbEntity
  8
0
  6
Continuous
 62
     7
370
    15
100
AcDbCircle
 10
672.9301292178
 20
1361.4140327748
 30
0.0
 40
0.8391777683354605
100
AcDbArc
 50
53.6451253221
 51
126.3548746779
  0
LINE
  5
17F
330
1F
100
AcDbEntity
  8
0
  6
Continuous
 62
     7
370
    15
100
AcDbLine
 10
709.7001467444
 20
1331.7073299485
 30
0.0
 11
701.1015471615
 21
1316.2887408334
 31
0.0
  0
ARC
  5
180
330
1F
100
AcDbEntity
  8
0
  6
Continuous
 62
     7
370
    15
100
AcDbCircle
 10
709.7001448818
 20
1332.7545913544
 30
0.0
 40
0.9511713426566958
100
AcDbArc
 50
28.4228788237
 51
151.5771211763
  0
LINE
  5
181
330
1F
100
AcDbEntity
  8
0
  6
Continuous
 62
     7
370
    15
100
AcDbLine
 10
719.9717779257
 20
1316.2887408334
 30
0.0
 11
710.5366606809
 21
1333.2073255378
 31
0.0
  0
ARC
  5
182
330
1F
100
AcDbEntity
  8
0
  6
Continuous
 62
     7
370
    15
100
AcDbCircle
 10
719.1065742009
 20
1315.7879953034
 30
0.0
 40
0.9996617283291312
100
AcDbArc
 50
271.6443722314
 51
30.060552768
  0
LINE
  5
183
330
1F
100
AcDbEntity
  8
0
  6
Continuous
 62
     7
370
    15
100
AcDbLine
 10
700.2650313623
 20
1314.7887452441
 30
0.0
 11
719.1352602638
 21
1314.7887452441
 31
0.0
  0
ARC
  5
184
330
1F
100
AcDbEntity
  8
0
  6
Continuous
 62
     7
370
    15
100
AcDbCircle
 10
700.2937178371
 20
1315.7879944586
 30
0.0
 40
0.9996608957742935
100
AcDbArc
 50
149.9393636753
 51
268.3556027858
  0
LINE
  5
185
330
1F
100
AcDbEntity
  8
0
  6
Continuous
 62
     7
370
    15
100
AcDbLine
 10
708.8636290826
 20
1333.2073255378
 30
0.0
 11
699.4285155632
 21
1316.2887408334
 31
0.0
  0
LINE
  5
186
330
1F
100
AcDbEntity
  8
0
  6
Continuous
 62
     7
370
    15
100
AcDbLine
 10
700.2650313623
 20
1314.7887452441
 30
0.0
 11
700.2520897038
 21
1314.7887452441
 31
0.0
  0
ARC
  5
187
330
1F
100
AcDbEntity
  8
0
  6
Continuous
 62
     7
370
    15
100
AcDbCircle
 10
700.2807769359
 20
1315.787994881
 30
0.0
 40
0.9996613396940642
100
AcDbArc
 50
149.9394063706
 51
268.3555600904
  0
LINE
  5
188
330
1F
100
AcDbEntity
  8
0
  6
Continuous
 62
     7
370
    15
100
AcDbLine
 10
708.8506874241
 20
1333.2073255378
 30
0.0
 11
699.4155739047
 21
1316.2887408334
 31
0.0
  0
LINE
  5
189
330
1F
100
AcDbEntity
  8
0
  6
Continuous
 62
     7
370
    15
100
AcDbLine
 10
709.7130884029
 20
1331.7073299485
 30
0.0
 11
709.7001467444
 21
1331.7073299485
 31
0.0
  0
LINE
  5
18A
330
1F
100
AcDbEntity
  8
0
  6
Continuous
 62
     7
370
    15
100
AcDbLine
 10
709.7130884029
 20
1331.7073299485
 30
0.0
 11
701.11448882
 21
1316.2887408334
 31
0.0
  0
LINE
  5
18B
330
1F
100
AcDbEntity
  8
0
  6
Continuous
 62
     7
370
    15
100
AcDbLine
 10
701.11448882
 20
1316.2887408334
 30
0.0
 11
701.1015471615
 21
1316.2887408334
 31
0.0
  0
LINE
  5
18C
330
1F
100
AcDbEntity
  8
0
  6
Continuous
 62
     7
370
    15
100
AcDbLine
 10
718.3116842605
 20
1316.2887408334
 30
0.0
 11
709.7130884029
 21
1331.7073299485
 31
0.0
  0
LINE
  5
18D
330
1F
100
AcDbEntity
  8
0
  6
Continuous
 62
     7
370
    15
100
AcDbLine
 10
701.11448882
 20
1316.2887408334
 30
0.0
 11
718.3116842605
 21
1316.2887408334
 31
0.0
  0
LINE
  5
18E
330
1F
100
AcDbEntity
  8
0
  6
Continuous
 62
     7
370
    15
100
AcDbLine
 10
710.4398925401
 20
1323.107452591
 30
0.0
 11
709.0677712657
 21
1319.0532489615
 31
0.0
  0
LINE
  5
18F
330
1F
100
AcDbEntity
  8
0
  6
Continuous
 62
     7
370
    15
100
AcDbLine
 10
709.0677712657
 20
1319.0532489615
 30
0.0
 11
708.7094095148
 21
1319.4899125892
 31
0.0
  0
LINE
  5
190
330
1F
100
AcDbEntity
  8
0
  6
Continuous
 62
     7
370
    15
100
AcDbLine
 10
708.7094095148
 20
1319.4899125892
 30
0.0
 11
709.2301231422
 21
1316.5387525159
 31
0.0
  0
LINE
  5
191
330
1F
100
AcDbEntity
  8
0
  6
Continuous
 62
     7
370
    15
100
AcDbLine
 10
709.2301231422
 20
1316.5387525159
 30
0.0
 11
710.204476545
 21
1319.3640722829
 31
0.0
  0
LINE
  5
192
330
1F
100
AcDbEntity
  8
0
  6
Continuous
 62
     7
370
    15
100
AcDbLine
 10
710.204476545
 20
1319.3640722829
 30
0.0
 11
709.6553948321
 21
1318.8811107474
 31
0.0
  0
LINE
  5
193
330
1F
100
AcDbEntity
  8
0
  6
Continuous
 62
     7
370
    15
100
AcDbLine
 10
709.6553948321
 20
1318.8811107474
 30
0.0
 11
711.64493827
 21
1325.5387409526
 31
0.0
  0
LINE
  5
194
330
1F
100
AcDbEntity
  8
0
  6
Continuous
 62
     7
370
    15
100
AcDbLine
 10
711.64493827
 20
1325.5387409526
 30
0.0
 11
708.7094095148
 21
1322.7191581327
 31
0.0
  0
LINE
  5
195
330
1F
100
AcDbEntity
  8
0
  6
Continuous
 62
     7
370
    15
100
AcDbLine
 10
708.7094095148
 20
1322.7191581327
 30
0.0
 11
710.6790114738
 21
1328.5387470323
 31
0.0
  0
LINE
  5
196
330
1F
100
AcDbEntity
  8
0
  6
Continuous
 62
     7
370
    15
100
AcDbLine
 10
710.6790114738
 20
1328.5387470323
 30
0.0
 11
708.7471616067
 21
1328.5387470323
 31
0.0
  0
LINE
  5
197
330
1F
100
AcDbEntity
  8
0
  6
Continuous
 62
     7
370
    15
100
AcDbLine
 10
708.7471616067
 20
1328.5387470323
 30
0.0
 11
707.8153957226
 21
1321.5387477475
 31
0.0
  0
LINE
  5
198
330
1F
100
AcDbEntity
  8
0
  6
Continuous
 62
     7
370
    15
100
AcDbLine
 10
707.8153957226
 20
1321.5387477475
 30
0.0
 11
710.4398925401
 21
1323.107452591
 31
0.0
  0
LINE
  5
199
330
1F
100
AcDbEntity
  8
0
  6
Continuous
 62
     7
370
    15
100
AcDbLine
 10
710.4269508816
 20
1323.107452591
 30
0.0
 11
710.4398925401
 21
1323.107452591
 31
0.0
  0
LINE
  5
19A
330
1F
100
AcDbEntity
  8
0
  6
Continuous
 62
     7
370
    15
100
AcDbLine
 10
710.4269508816
 20
1323.107452591
 30
0.0
 11
707.8165170349
 21
1321.5471520024
 31
0.0
  0
LINE
  5
19B
330
1F
100
AcDbEntity
  8
0
  6
Continuous
 62
     7
370
    15
100
AcDbLine
 10
710.6660735406
 20
1328.5387470323
 30
0.0
 11
708.6964678563
 21
1322.7191581327
 31
0.0
  0
LINE
  5
19C
330
1F
100
AcDbEntity
  8
0
  6
Continuous
 62
     7
370
    15
100
AcDbLine
 10
711.6267886557
 20
1325.521306594
 30
0.0
 11
709.6424531736
 21
1318.8811107474
 31
0.0
  0
LINE
  5
19D
330
1F
100
AcDbEntity
  8
0
  6
Continuous
 62
     7
370
    15
100
AcDbLine
 10
710.1858985223
 20
1319.3477406102
 30
0.0
 11
709.2257422008
 21
1316.5635629493
 31
0.0
  0
LINE
  5
19E
330
1F
100
AcDbEntity
  8
0
  6
Continuous
 62
     7
370
    15
100
AcDbLine
 10
708.7129522659
 20
1319.4698258239
 30
0.0
 11
709.0548296072
 21
1319.0532489615
 31
0.0
  0
LINE
  5
19F
330
1F
100
AcDbEntity
  8
0
  6
Continuous
 62
     7
370
    15
100
AcDbLine
 10
708.6964678563
 20
1322.7191581327
 30
0.0
 11
708.7094095148
 21
1322.7191581327
 31
0.0
  0
LINE
  5
1A0
330
1F
100
AcDbEntity
  8
0
  6
Continuous
 62
     7
370
    15
100
AcDbLine
 10
709.0548296072
 20
1319.0532489615
 30
0.0
 11
709.0677712657
 21
1319.0532489615
 31
0.0
  0
ARC
  5
1A1
330
1F
100
AcDbEntity
  8
0
  6
Continuous
 62
     7
370
    15
100
AcDbCircle
 10
709.6937578933
 20
1332.7466169238
 30
0.0
 40
0.9607394251053438
100
AcDbArc
 50
90.390793909
 51
151.3449339839
  0
LINE
  5
1A2
330
1F
100
AcDbEntity
  8
0
  6
Continuous
 62
     7
370
    15
100
AcDbLine
 10
709.6424531736
 20
1318.8811107474
 30
0.0
 11
709.6553948321
 21
1318.8811107474
 31
0.0
  0
LINE
  5
1A3
330
1F
100
AcDbEntity
  8
0
  6
Continuous
 62
     7
370
    15
100
AcDbLine
 10
688.8353871726
 20
1358.1487997371
 30
0.0
 11
689.6578651466
 21
1358.2218452292
 31
0.0
  0
ARC
  5
1A4
330
1F
100
AcDbEntity
  8
0
  6
Continuous
 62
     7
370
    15
100
AcDbCircle
 10
679.9302219139
 20
1274.3503779225
 30
0.0
 40
6.077503314885294
100
AcDbArc
 50
186.8152137822
 51
269.771747543
  0
LINE
  5
1A5
330
1F
100
AcDbEntity
  8
0
  6
Continuous
 62
     7
370
    15
100
AcDbLine
 10
689.6578651466
 20
1358.2218452292
 30
0.0
 11
729.6471950211
 21
1358.2218452292
 31
0.0
  0
LINE
  5
1A6
330
1F
100
AcDbEntity
  8
0
  6
Continuous
 62
     7
370
    15
100
AcDbLine
 10
736.8956339158
 20
1268.2729228335
 30
0.0
 11
679.9060106822
 21
1268.2729228335
 31
0.0
  0
ELLIPSE
  5
1A7
330
1F
100
AcDbEntity
  8
0
  6
Continuous
 62
     7
370
    15
100
AcDbEllipse
 10
682.3317704202
 20
1353.2218398045
 30
0.0
 11
-3.231092164139227
 21
4.097390466981778
 31
0.0
210
0.0
220
0.0
230
1.0
 40
0.8868680913
 41
5.672888749213135
 42
7.243685076008071
  0
LINE
  5
1A8
330
1F
100
AcDbEntity
  8
0
  6
Continuous
 62
     7
370
    15
100
AcDbLine
 10
681.766555699
 20
1358.2218452292
 30
0.0
 11
689.6578651466
 21
1358.2218452292
 31
0.0
  0
LINE
  5
1A9
330
1F
100
AcDbEntity
  8
0
  6
Continuous
 62
     7
370
    15
100
AcDbLine
 10
673.8956620355
 20
1273.629175027
 30
0.0
 11
665.751700344
 21
1360.0808991986
 31
0.0
  0
ELLIPSE
  5
1AA
330
1F
100
AcDbEntity
  8
0
  6
Continuous
 62
     7
370
    15
100
AcDbEllipse
 10
729.647194352
 20
1285.4637455793
 30
0.0
 11
-1.626370277716206
 21
4.835421110376048
 31
0.0
210
0.0
220
0.0
230
1.0
 40
0.9411792146
 41
3.741252730197051
 42
3.808284244208984
  0
ARC
  5
1AB
330
1F
100
AcDbEntity
  8
0
  6
Continuous
 62
     7
370
    15
100
AcDbCircle
 10
736.9847103779
 20
1273.2954524421
 30
0.0
 40
5.023319448778409
100
AcDbArc
 50
268.9839442044
 51
323.7614226157
  0
ARC
  5
1AC
330
1F
100
AcDbEntity
  8
0
  6
Continuous
 62
     7
370
    15
100
AcDbCircle
 10
670.591656069
 20
1360.5837799552
 30
0.0
 40
4.866010735312438
100
AcDbArc
 50
144.8657081615
 51
185.9318573543
  0
LINE
  5
1AD
330
1F
100
AcDbEntity
  8
0
  6
Continuous
 62
     7
370
    15
100
AcDbLine
 10
728.7764717437
 20
854.2887582379
 30
0.0
 11
729.6433616974
 21
854.2887582379
 31
0.0
  0
LINE
  5
1AE
330
1F
100
AcDbEntity
  8
0
  6
Continuous
 62
     7
370
    15
100
AcDbLine
 10
722.6508316197
 20
854.2887582379
 30
0.0
 11
728.7764717437
 21
854.2887582379
 31
0.0
  0
LINE
  5
1AF
330
1F
100
AcDbEntity
  8
0
  6
Continuous
 62
     7
370
    15
100
AcDbLine
 10
716.3277213074
 20
854.2887582379
 30
0.0
 11
722.6508316197
 21
854.2887582379
 31
0.0
  0
LINE
  5
1B0
330
1F
100
AcDbEntity
  8
0
  6
Continuous
 62
     7
370
    15
100
AcDbLine
 10
715.2633611657
 20
854.2887582379
 30
0.0
 11
716.3277213074
 21
854.2887582379
 31
0.0
  0
LINE
  5
1B1
330
1F
100
AcDbEntity
  8
0
  6
Continuous
 62
     7
370
    15
100
AcDbLine
 10
722.6508316197
 20
854.2887582379
 30
0.0
 11
722.6508316197
 21
848.9887430268
 31
0.0
  0
LINE
  5
1B2
330
1F
100
AcDbEntity
  8
0
  6
Continuous
 62
     7
370
    15
100
AcDbLine
 10
728.7764717437
 20
854.2887582379
 30
0.0
 11
728.7764717437
 21
848.9887430268
 31
0.0
  0
LINE
  5
1B3
330
1F
100
AcDbEntity
  8
0
  6
Continuous
 62
     7
370
    15
100
AcDbLine
 10
722.6508316197
 20
848.9887430268
 30
0.0
 11
728.7764717437
 21
848.9887430268
 31
0.0
  0
LINE
  5
1B4
330
1F
100
AcDbEntity
  8
0
  6
Continuous
 62
     7
370
    15
100
AcDbLine
 10
716.3277213074
 20
854.2887582379
 30
0.0
 11
716.3277213074
 21
848.9887430268
 31
0.0
  0
LINE
  5
1B5
330
1F
100
AcDbEntity
  8
0
  6
Continuous
 62
     7
370
    15
100
AcDbLine
 10
716.3277213074
 20
848.9887430268
 30
0.0
 11
722.6508316197
 21
848.9887430268
 31
0.0
  0
LINE
  5
1B6
330
1F
100
AcDbEntity
  8
0
  6
Continuous
 62
     7
370
    15
100
AcDbLine
 10
718.4533607759
 20
1024.2887451249
 30
0.0
 11
726.4533620872
 21
1024.2887451249
 31
0.0
  0
LINE
  5
1B7
330
1F
100
AcDbEntity
  8
0
  6
Continuous
 62
     7
370
    15
100
AcDbLine
 10
716.1302548446
 20
854.2887582379
 30
0.0
 11
716.1302548446
 21
848.9887430268
 31
0.0
  0
LINE
  5
1B8
330
1F
100
AcDbEntity
  8
0
  6
Continuous
 62
     7
370
    15
100
AcDbLine
 10
716.1302548446
 20
848.9887430268
 30
0.0
 11
716.3277213074
 21
848.9887430268
 31
0.0
  0
LINE
  5
1B9
330
1F
100
AcDbEntity
  8
0
  6
Continuous
 62
     7
370
    15
100
AcDbLine
 10
632.4124802448
 20
854.2887582379
 30
0.0
 11
633.4768403866
 21
854.2887582379
 31
0.0
  0
LINE
  5
1BA
330
1F
100
AcDbEntity
  8
0
  6
Continuous
 62
     7
370
    15
100
AcDbLine
 10
626.0893699326
 20
854.2887582379
 30
0.0
 11
632.4124802448
 21
854.2887582379
 31
0.0
  0
LINE
  5
1BB
330
1F
100
AcDbEntity
  8
0
  6
Continuous
 62
     7
370
    15
100
AcDbLine
 10
619.9637298085
 20
854.2887582379
 30
0.0
 11
626.0893699326
 21
854.2887582379
 31
0.0
  0
LINE
  5
1BC
330
1F
100
AcDbEntity
  8
0
  6
Continuous
 62
     7
370
    15
100
AcDbLine
 10
619.0968398549
 20
854.2887582379
 30
0.0
 11
619.9637298085
 21
854.2887582379
 31
0.0
  0
LINE
  5
1BD
330
1F
100
AcDbEntity
  8
0
  6
Continuous
 62
     7
370
    15
100
AcDbLine
 10
626.0893699326
 20
854.2887582379
 30
0.0
 11
626.0893699326
 21
848.9887430268
 31
0.0
  0
LINE
  5
1BE
330
1F
100
AcDbEntity
  8
0
  6
Continuous
 62
     7
370
    15
100
AcDbLine
 10
632.4124802448
 20
854.2887582379
 30
0.0
 11
632.4124802448
 21
848.9887430268
 31
0.0
  0
LINE
  5
1BF
330
1F
100
AcDbEntity
  8
0
  6
Continuous
 62
     7
370
    15
100
AcDbLine
 10
626.0893699326
 20
848.9887430268
 30
0.0
 11
632.4124802448
 21
848.9887430268
 31
0.0
  0
LINE
  5
1C0
330
1F
100
AcDbEntity
  8
0
  6
Continuous
 62
     7
370
    15
100
AcDbLine
 10
619.9637298085
 20
854.2887582379
 30
0.0
 11
619.9637298085
 21
848.9887430268
 31
0.0
  0
LINE
  5
1C1
330
1F
100
AcDbEntity
  8
0
  6
Continuous
 62
     7
370
    15
100
AcDbLine
 10
619.9637298085
 20
848.9887430268
 30
0.0
 11
626.0893699326
 21
848.9887430268
 31
0.0
  0
LINE
  5
1C2
330
1F
100
AcDbEntity
  8
0
  6
Continuous
 62
     7
370
    15
100
AcDbLine
 10
622.2868394651
 20
1024.2887451249
 30
0.0
 11
630.2868407764
 21
1024.2887451249
 31
0.0
  0
LINE
  5
1C3
330
1F
100
AcDbEntity
  8
0
  6
Continuous
 62
     7
370
    15
100
AcDbLine
 10
632.6099467077
 20
854.2887582379
 30
0.0
 11
632.6099467077
 21
848.9887430268
 31
0.0
  0
LINE
  5
1C4
330
1F
100
AcDbEntity
  8
0
  6
Continuous
 62
     7
370
    15
100
AcDbLine
 10
632.4124802448
 20
848.9887430268
 30
0.0
 11
632.6099467077
 21
848.9887430268
 31
0.0
  0
LINE
  5
1C5
330
1F
100
AcDbEntity
  8
0
  6
Continuous
 62
     7
370
    15
100
AcDbLine
 10
715.266073177
 20
853.4436239797
 30
0.0
 11
715.266073177
 21
848.9887430268
 31
0.0
  0
LINE
  5
1C6
330
1F
100
AcDbEntity
  8
0
  6
Continuous
 62
     7
370
    15
100
AcDbLine
 10
715.266073177
 20
848.9887430268
 30
0.0
 11
716.1302548446
 21
848.9887430268
 31
0.0
  0
LINE
  5
1C7
330
1F
100
AcDbEntity
  8
0
  6
Continuous
 62
     7
370
    15
100
AcDbLine
 10
729.640649686
 20
854.2887582379
 30
0.0
 11
729.640649686
 21
848.9887430268
 31
0.0
  0
LINE
  5
1C8
330
1F
100
AcDbEntity
  8
0
  6
Continuous
 62
     7
370
    15
100
AcDbLine
 10
728.7764717437
 20
848.9887430268
 30
0.0
 11
729.640649686
 21
848.9887430268
 31
0.0
  0
LINE
  5
1C9
330
1F
100
AcDbEntity
  8
0
  6
Continuous
 62
     7
370
    15
100
AcDbLine
 10
633.4741283752
 20
853.4436239797
 30
0.0
 11
633.4741283752
 21
848.9887430268
 31
0.0
  0
LINE
  5
1CA
330
1F
100
AcDbEntity
  8
0
  6
Continuous
 62
     7
370
    15
100
AcDbLine
 10
632.6099467077
 20
848.9887430268
 30
0.0
 11
633.4741283752
 21
848.9887430268
 31
0.0
  0
LINE
  5
1CB
330
1F
100
AcDbEntity
  8
0
  6
Continuous
 62
     7
370
    15
100
AcDbLine
 10
619.0995518662
 20
854.2887582379
 30
0.0
 11
619.0995518662
 21
848.9887430268
 31
0.0
  0
LINE
  5
1CC
330
1F
100
AcDbEntity
  8
0
  6
Continuous
 62
     7
370
    15
100
AcDbLine
 10
619.0995518662
 20
848.9887430268
 30
0.0
 11
619.9637298085
 21
848.9887430268
 31
0.0
  0
LINE
  5
1CD
330
1F
100
AcDbEntity
  8
0
  6
Continuous
 62
     7
370
    15
100
AcDbLine
 10
622.2985778548
 20
870.2887608605
 30
0.0
 11
624.5524194636
 21
870.2887608605
 31
0.0
  0
LINE
  5
1CE
330
1F
100
AcDbEntity
  8
0
  6
Continuous
 62
     7
370
    15
100
AcDbLine
 10
724.1877820887
 20
870.2887608605
 30
0.0
 11
726.4416236974
 21
870.2887608605
 31
0.0
  0
LINE
  5
1CF
330
1F
100
AcDbEntity
  8
0
  6
Continuous
 62
     7
370
    15
100
AcDbLine
 10
706.8881001867
 20
870.2887608605
 30
0.0
 11
706.8881001867
 21
860.288740595
 31
0.0
  0
LINE
  5
1D0
330
1F
100
AcDbEntity
  8
0
  6
Continuous
 62
     7
370
    15
100
AcDbLine
 10
641.8521013655
 20
870.2887608605
 30
0.0
 11
641.8521013655
 21
860.288740595
 31
0.0
  0
LINE
  5
1D1
330
1F
100
AcDbEntity
  8
0
  6
Continuous
 62
     7
370
    15
100
AcDbLine
 10
613.3701000907
 20
895.2887370187
 30
0.0
 11
622.2868394651
 21
895.2887370187
 31
0.0
  0
LINE
  5
1D2
330
1F
100
AcDbEntity
  8
0
  6
Continuous
 62
     7
370
    15
100
AcDbLine
 10
630.2868407764
 20
895.2887370187
 30
0.0
 11
718.4533607759
 21
895.2887370187
 31
0.0
  0
LINE
  5
1D3
330
1F
100
AcDbEntity
  8
0
  6
Continuous
 62
     7
370
    15
100
AcDbLine
 10
726.4533620872
 20
895.2887370187
 30
0.0
 11
735.3701014616
 21
895.2887370187
 31
0.0
  0
SPLINE
  5
1D4
330
1F
100
AcDbEntity
  8
0
  6
Continuous
 62
     7
370
    15
100
AcDbSpline
210
0.0
220
0.0
230
1.0
 70
     8
 71
     3
 72
    10
 73
     6
 74
     0
 42
0.00000001
 43
0.00000001
 12
1.0
 22
0.0
 32
0.0
 13
1.0
 23
0.0
 33
0.0
 40
0.0
 40
0.0
 40
0.0
 40
0.0
 40
0.4643027904215974
 40
0.9277613024743488
 40
1.0
 40
1.0
 40
1.0
 40
1.0
 10
706.88810018675
 20
860.2887405949624
 30
0.0
 10
706.8422578464462
 20
859.7809431679518
 30
0.0
 10
706.7506565245802
 20
858.7662716820262
 30
0.0
 10
706.2502535143126
 20
857.7959222853123
 30
0.0
 10
705.9208143943355
 20
857.3490148277191
 30
0.0
 10
705.876389572784
 20
857.2887494164497
 30
0.0
  0
SPLINE
  5
1D5
330
1F
100
AcDbEntity
  8
0
  6
Continuous
 62
     7
370
    15
100
AcDbSpline
210
0.0
220
0.0
230
1.0
 70
     8
 71
     3
 72
    12
 73
     8
 74
     0
 42
0.00000001
 43
0.00000001
 12
1.0
 22
0.0
 32
0.0
 13
1.0
 23
0.0
 33
0.0
 40
0.0
 40
0.0
 40
0.0
 40
0.0
 40
0.0033602808459721
 40
0.2260383746389615
 40
0.5243428997068316
 40
0.7836139279632343
 40
1.0
 40
1.0
 40
1.0
 40
1.0
 10
703.781997839376
 20
855.288745363334
 30
0.0
 10
703.7840318367438
 20
855.2887526242233
 30
0.0
 10
703.9208541680018
 20
855.2892410475757
 30
0.0
 10
704.2385925914351
 20
855.3745527162372
 30
0.0
 10
704.7367407563679
 20
855.7926437434317
 30
0.0
 10
705.2830656047616
 20
856.4880609935605
 30
0.0
 10
705.6908707380943
 20
857.0383924594249
 30
0.0
 10
705.876389572784
 20
857.2887494164497
 30
0.0
  0
LINE
  5
1D6
330
1F
100
AcDbEntity
  8
0
  6
Continuous
 62
     7
370
    15
100
AcDbLine
 10
703.7819978394
 20
855.2887453633
 30
0.0
 11
644.9582037129
 21
855.2887453633
 31
0.0
  0
SPLINE
  5
1D7
330
1F
100
AcDbEntity
  8
0
  6
Continuous
 62
     7
370
    15
100
AcDbSpline
210
0.0
220
0.0
230
1.0
 70
     8
 71
     3
 72
    12
 73
     8
 74
     0
 42
0.00000001
 43
0.00000001
 12
1.0
 22
0.0
 32
0.0
 13
1.0
 23
0.0
 33
0.0
 40
0.0
 40
0.0
 40
0.0
 40
0.0
 40
0.2163860720367657
 40
0.4756571002931684
 40
0.7739616253610384
 40
0.9966397191540278
 40
1.0
 40
1.0
 40
1.0
 40
1.0
 10
642.8638119794574
 20
857.2887494164497
 30
0.0
 10
643.0493308141471
 20
857.0383924594248
 30
0.0
 10
643.4571359474796
 20
856.4880609935605
 30
0.0
 10
644.0034607958736
 20
855.7926437434323
 30
0.0
 10
644.5016089608063
 20
855.3745527162351
 30
0.0
 10
644.8193473842394
 20
855.2892410475793
 30
0.0
 10
644.9561697154976
 20
855.2887526242233
 30
0.0
 10
644.9582037128654
 20
855.288745363334
 30
0.0
  0
SPLINE
  5
1D8
330
1F
100
AcDbEntity
  8
0
  6
Continuous
 62
     7
370
    15
100
AcDbSpline
210
0.0
220
0.0
230
1.0
 70
     8
 71
     3
 72
     9
 73
     5
 74
     0
 42
0.00000001
 43
0.00000001
 12
1.0
 22
0.0
 32
0.0
 13
1.0
 23
0.0
 33
0.0
 40
0.0
 40
0.0
 40
0.0
 40
0.0
 40
0.4706116931513912
 40
1.0
 40
1.0
 40
1.0
 40
1.0
 10
642.8638119794574
 20
857.2887494164497
 30
0.0
 10
642.5911217061646
 20
857.70807130925
 30
0.0
 10
642.0116837592091
 20
858.5990859162021
 30
0.0
 10
641.9073398244457
 20
859.7038770743363
 30
0.0
 10
641.8521013654914
 20
860.2887405949624
 30
0.0
  0
LINE
  5
1D9
330
1F
100
AcDbEntity
  8
0
  6
Continuous
 62
     7
370
    15
100
AcDbLine
 10
624.5524194636
 20
870.2887608605
 30
0.0
 11
641.8521013655
 21
870.2887608605
 31
0.0
  0
LINE
  5
1DA
330
1F
100
AcDbEntity
  8
0
  6
Continuous
 62
     7
370
    15
100
AcDbLine
 10
644.9582037129
 20
855.2887453633
 30
0.0
 11
623.6003656484
 21
855.2887453633
 31
0.0
  0
LINE
  5
1DB
330
1F
100
AcDbEntity
  8
0
  6
Continuous
 62
     7
370
    15
100
AcDbLine
 10
706.8881001867
 20
870.2887608605
 30
0.0
 11
724.1877820887
 21
870.2887608605
 31
0.0
  0
LINE
  5
1DC
330
1F
100
AcDbEntity
  8
0
  6
Continuous
 62
     7
370
    15
100
AcDbLine
 10
725.1398359038
 20
855.2887453633
 30
0.0
 11
703.7819978394
 21
855.2887453633
 31
0.0
  0
LINE
  5
1DD
330
1F
100
AcDbEntity
  8
0
  6
Continuous
 62
     7
370
    15
100
AcDbLine
 10
613.6366148092
 20
870.2887608605
 30
0.0
 11
622.2985778548
 21
870.2887608605
 31
0.0
  0
LINE
  5
1DE
330
1F
100
AcDbEntity
  8
0
  6
Continuous
 62
     7
370
    15
100
AcDbLine
 10
623.6003656484
 20
855.2887453633
 30
0.0
 11
615.1549500026
 21
855.2887453633
 31
0.0
  0
LINE
  5
1DF
330
1F
100
AcDbEntity
  8
0
  6
Continuous
 62
     7
370
    15
100
AcDbLine
 10
726.4416236974
 20
870.2887608605
 30
0.0
 11
735.103586743
 21
870.2887608605
 31
0.0
  0
LINE
  5
1E0
330
1F
100
AcDbEntity
  8
0
  6
Continuous
 62
     7
370
    15
100
AcDbLine
 10
733.5852515496
 20
855.2887453633
 30
0.0
 11
725.1398359038
 21
855.2887453633
 31
0.0
  0
LINE
  5
1E1
330
1F
100
AcDbEntity
  8
0
  6
Continuous
 62
     7
370
    15
100
AcDbLine
 10
613.1549496748
 20
870.2887608605
 30
0.0
 11
613.6366148092
 21
870.2887608605
 31
0.0
  0
LINE
  5
1E2
330
1F
100
AcDbEntity
  8
0
  6
Continuous
 62
     7
370
    15
100
AcDbLine
 10
735.103586743
 20
870.2887608605
 30
0.0
 11
735.5852518775
 21
870.2887608605
 31
0.0
  0
LINE
  5
1E3
330
1F
100
AcDbEntity
  8
0
  6
Continuous
 62
     7
370
    15
100
AcDbLine
 10
678.3659663595
 20
830.2887394029
 30
0.0
 11
670.3742351927
 21
830.2887394029
 31
0.0
  0
LINE
  5
1E4
330
1F
100
AcDbEntity
  8
0
  6
Continuous
 62
     7
370
    15
100
AcDbLine
 10
670.3742351927
 20
830.2887394029
 30
0.0
 11
665.2575778388
 21
830.2887394029
 31
0.0
  0
LINE
  5
1E5
330
1F
100
AcDbEntity
  8
0
  6
Continuous
 62
     7
370
    15
100
AcDbLine
 10
683.4826237135
 20
830.2887394029
 30
0.0
 11
678.3659663595
 21
830.2887394029
 31
0.0
  0
LINE
  5
1E6
330
1F
100
AcDbEntity
  8
0
  6
Continuous
 62
     7
370
    15
100
AcDbLine
 10
665.2575778388
 20
830.2887394029
 30
0.0
 11
640.3700989284
 21
830.2887394029
 31
0.0
  0
LINE
  5
1E7
330
1F
100
AcDbEntity
  8
0
  6
Continuous
 62
     7
370
    15
100
AcDbLine
 10
708.3701026239
 20
830.2887394029
 30
0.0
 11
683.4826237135
 21
830.2887394029
 31
0.0
  0
LINE
  5
1E8
330
1F
100
AcDbEntity
  8
0
  6
Continuous
 62
     7
370
    15
100
AcDbLine
 10
640.3700989284
 20
830.2887394029
 30
0.0
 11
638.4397168256
 21
830.2887394029
 31
0.0
  0
LINE
  5
1E9
330
1F
100
AcDbEntity
  8
0
  6
Continuous
 62
     7
370
    15
100
AcDbLine
 10
710.3004847266
 20
830.2887394029
 30
0.0
 11
708.3701026239
 21
830.2887394029
 31
0.0
  0
LINE
  5
1EA
330
1F
100
AcDbEntity
  8
0
  6
Continuous
 62
     7
370
    15
100
AcDbLine
 10
638.4397168256
 20
830.2887394029
 30
0.0
 11
636.595109532
 21
830.2887394029
 31
0.0
  0
LINE
  5
1EB
330
1F
100
AcDbEntity
  8
0
  6
Continuous
 62
     7
370
    15
100
AcDbLine
 10
712.1450920202
 20
830.2887394029
 30
0.0
 11
710.3004847266
 21
830.2887394029
 31
0.0
  0
LINE
  5
1EC
330
1F
100
AcDbEntity
  8
0
  6
Continuous
 62
     7
370
    15
100
AcDbLine
 10
735.3701014616
 20
931.7887439328
 30
0.0
 11
726.4533620872
 21
931.7887439328
 31
0.0
  0
LINE
  5
1ED
330
1F
100
AcDbEntity
  8
0
  6
Continuous
 62
     7
370
    15
100
AcDbLine
 10
718.4533607759
 20
931.7887439328
 30
0.0
 11
630.2868407764
 21
931.7887439328
 31
0.0
  0
LINE
  5
1EE
330
1F
100
AcDbEntity
  8
0
  6
Continuous
 62
     7
370
    15
100
AcDbLine
 10
622.2868394651
 20
931.7887439328
 30
0.0
 11
613.3701000907
 21
931.7887439328
 31
0.0
  0
LINE
  5
1EF
330
1F
100
AcDbEntity
  8
0
  6
Continuous
 62
     7
370
    15
100
AcDbLine
 10
735.3701014616
 20
968.288750847
 30
0.0
 11
726.4533620872
 21
968.288750847
 31
0.0
  0
LINE
  5
1F0
330
1F
100
AcDbEntity
  8
0
  6
Continuous
 62
     7
370
    15
100
AcDbLine
 10
718.4533607759
 20
968.288750847
 30
0.0
 11
630.2868407764
 21
968.288750847
 31
0.0
  0
LINE
  5
1F1
330
1F
100
AcDbEntity
  8
0
  6
Continuous
 62
     7
370
    15
100
AcDbLine
 10
622.2868394651
 20
968.288750847
 30
0.0
 11
613.3701000907
 21
968.288750847
 31
0.0
  0
LINE
  5
1F2
330
1F
100
AcDbEntity
  8
0
  6
Continuous
 62
     7
370
    15
100
AcDbLine
 10
735.3701014616
 20
1004.7887428599
 30
0.0
 11
726.4533620872
 21
1004.7887428599
 31
0.0
  0
LINE
  5
1F3
330
1F
100
AcDbEntity
  8
0
  6
Continuous
 62
     7
370
    15
100
AcDbLine
 10
718.4533607759
 20
1004.7887428599
 30
0.0
 11
630.2868407764
 21
1004.7887428599
 31
0.0
  0
LINE
  5
1F4
330
1F
100
AcDbEntity
  8
0
  6
Continuous
 62
     7
370
    15
100
AcDbLine
 10
622.2868394651
 20
1004.7887428599
 30
0.0
 11
613.3701000907
 21
1004.7887428599
 31
0.0
  0
LINE
  5
1F5
330
1F
100
AcDbEntity
  8
0
  6
Continuous
 62
     7
370
    15
100
AcDbLine
 10
764.6072637834
 20
1356.7887409526
 30
0.0
 11
765.8141162791
 21
1356.7887409526
 31
0.0
  0
SPLINE
  5
1F6
330
1F
100
AcDbEntity
  8
0
  6
Continuous
 62
     7
370
    15
100
AcDbSpline
210
0.0
220
0.0
230
1.0
 70
     8
 71
     3
 72
    12
 73
     8
 74
     0
 42
0.00000001
 43
0.00000001
 12
1.0
 22
0.0
 32
0.0
 13
1.0
 23
0.0
 33
0.0
 40
0.0
 40
0.0
 40
0.0
 40
0.0
 40
0.2146876038026866
 40
0.4293739940522705
 40
0.644055957015825
 40
0.8587259275918144
 40
1.0
 40
1.0
 40
1.0
 40
1.0
 10
763.4179574050155
 20
1358.788745005706
 30
0.0
 10
763.4312727477817
 20
1358.563896428551
 30
0.0
 10
763.4579033580474
 20
1358.114200545231
 30
0.0
 10
763.6650169439372
 20
1357.514852038475
 30
0.0
 10
763.9681455836494
 20
1357.06256902616
 30
0.0
 10
764.3018433736524
 20
1356.822901454811
 30
0.0
 10
764.5204849960771
 20
1356.798446940998
 30
0.0
 10
764.6072637833801
 20
1356.78874095259
 30
0.0
  0
LINE
  5
1F7
330
1F
100
AcDbEntity
  8
0
  6
Continuous
 62
     7
370
    15
100
AcDbLine
 10
763.417957405
 20
1366.788746317
 30
0.0
 11
763.417957405
 21
1358.7887450057
 31
0.0
  0
SPLINE
  5
1F8
330
1F
100
AcDbEntity
  8
0
  6
Continuous
 62
     7
370
    15
100
AcDbSpline
210
0.0
220
0.0
230
1.0
 70
     8
 71
     3
 72
    12
 73
     8
 74
     0
 42
0.00000001
 43
0.00000001
 12
1.0
 22
0.0
 32
0.0
 13
1.0
 23
0.0
 33
0.0
 40
0.0
 40
0.0
 40
0.0
 40
0.0
 40
0.2146545010796739
 40
0.4293135616822014
 40
0.6439010524015749
 40
0.8585202212191037
 40
1.0
 40
1.0
 40
1.0
 40
1.0
 10
760.9533798493591
 20
1370.788739522079
 30
0.0
 10
761.2354447104568
 20
1370.744582732123
 30
0.0
 10
761.799580424053
 20
1370.656268214266
 30
0.0
 10
762.5371035057982
 20
1369.967115867738
 30
0.0
 10
763.0875301392036
 20
1368.952614293536
 30
0.0
 10
763.3767554649789
 20
1367.827826382398
 30
0.0
 10
763.4062421908137
 20
1367.084194675214
 30
0.0
 10
763.4179574050155
 20
1366.788746317008
 30
0.0
  0
LINE
  5
1F9
330
1F
100
AcDbEntity
  8
0
  6
Continuous
 62
     7
370
    15
100
AcDbLine
 10
760.9533798494
 20
1370.7887395221
 30
0.0
 11
732.3520985045
 21
1370.7887395221
 31
0.0
  0
LINE
  5
1FA
330
1F
100
AcDbEntity
  8
0
  6
Continuous
 62
     7
370
    15
100
AcDbLine
 10
732.3520985045
 20
1429.288746317
 30
0.0
 11
732.3520985045
 21
1370.7887395221
 31
0.0
  0
LINE
  5
1FB
330
1F
100
AcDbEntity
  8
0
  6
Continuous
 62
     7
370
    15
100
AcDbLine
 10
671.0328453299
 20
1370.7887395221
 30
0.0
 11
634.513644556
 21
1370.7887395221
 31
0.0
  0
SPLINE
  5
1FC
330
1F
100
AcDbEntity
  8
0
  6
Continuous
 62
     7
370
    15
100
AcDbSpline
210
0.0
220
0.0
230
1.0
 70
     8
 71
     3
 72
    12
 73
     8
 74
     0
 42
0.00000001
 43
0.00000001
 12
1.0
 22
0.0
 32
0.0
 13
1.0
 23
0.0
 33
0.0
 40
0.0
 40
0.0
 40
0.0
 40
0.0
 40
0.2146645757996789
 40
0.4293279953901298
 40
0.6439791046643968
 40
0.8585831052308343
 40
1.0
 40
1.0
 40
1.0
 40
1.0
 10
630.8035795189586
 20
1366.788746317008
 30
0.0
 10
630.8442645210442
 20
1367.238438539679
 30
0.0
 10
630.9256343060811
 20
1368.137820562925
 30
0.0
 10
631.5612071956398
 20
1369.336487663241
 30
0.0
 10
632.4998257501842
 20
1370.240973152952
 30
0.0
 10
633.5443702278552
 20
1370.72041158258
 30
0.0
 10
634.238088962109
 20
1370.769314530206
 30
0.0
 10
634.5136445559707
 20
1370.788739522079
 30
0.0
  0
LINE
  5
1FD
330
1F
100
AcDbEntity
  8
0
  6
Continuous
 62
     7
370
    15
100
AcDbLine
 10
630.803579519
 20
1366.788746317
 30
0.0
 11
630.803579519
 21
1358.7887450057
 31
0.0
  0
SPLINE
  5
1FE
330
1F
100
AcDbEntity
  8
0
  6
Continuous
 62
     7
370
    15
100
AcDbSpline
210
0.0
220
0.0
230
1.0
 70
     8
 71
     3
 72
    12
 73
     8
 74
     0
 42
0.00000001
 43
0.00000001
 12
1.0
 22
0.0
 32
0.0
 13
1.0
 23
0.0
 33
0.0
 40
0.0
 40
0.0
 40
0.0
 40
0.0
 40
0.2146859745765152
 40
0.4293708725761948
 40
0.6440351189116643
 40
0.8587128954237666
 40
1.0
 40
1.0
 40
1.0
 40
1.0
 10
628.9695781268325
 20
1356.78874095259
 30
0.0
 10
629.1751060900319
 20
1356.810847517827
 30
0.0
 10
629.5861609857782
 20
1356.855060537443
 30
0.0
 10
630.1358720198605
 20
1357.1998128599
 30
0.0
 10
630.5515143867945
 20
1357.707238863852
 30
0.0
 10
630.7721244389413
 20
1358.26959997963
 30
0.0
 10
630.7946420037591
 20
1358.641237303969
 30
0.0
 10
630.8035795189586
 20
1358.788745005706
 30
0.0
  0
LINE
  5
1FF
330
1F
100
AcDbEntity
  8
0
  6
Continuous
 62
     7
370
    15
100
AcDbLine
 10
627.0764899053
 20
1356.7887409526
 30
0.0
 11
628.9695781268
 21
1356.7887409526
 31
0.0
  0
LINE
  5
200
330
1F
100
AcDbEntity
  8
0
  6
Continuous
 62
     7
370
    15
100
AcDbLine
 10
562.8700983323
 20
1356.7887409526
 30
0.0
 11
610.5716508426
 21
1356.7887409526
 31
0.0
  0
LINE
  5
201
330
1F
100
AcDbEntity
  8
0
  6
Continuous
 62
     7
370
    15
100
AcDbLine
 10
776.8304404415
 20
1356.7887409526
 30
0.0
 11
785.8701032199
 21
1356.7887409526
 31
0.0
  0
SPLINE
  5
202
330
1F
100
AcDbEntity
  8
0
  6
Continuous
 62
     7
370
    15
100
AcDbSpline
210
0.0
220
0.0
230
1.0
 70
     8
 71
     3
 72
    13
 73
     9
 74
     0
 42
0.00000001
 43
0.00000001
 12
1.0
 22
0.0
 32
0.0
 13
1.0
 23
0.0
 33
0.0
 40
0.0
 40
0.0
 40
0.0
 40
0.0
 40
0.211954519320638
 40
0.4238796699155364
 40
0.6367584005378412
 40
0.8516951633249797
 40
0.9946592381089727
 40
1.0
 40
1.0
 40
1.0
 40
1.0
 10
732.3520985044685
 20
1429.288746317008
 30
0.0
 10
732.3434379145932
 20
1429.511942837937
 30
0.0
 10
732.3261179348668
 20
1429.95830495336
 30
0.0
 10
732.191177711789
 20
1430.552972448465
 30
0.0
 10
731.9920513216615
 20
1431.008230287398
 30
0.0
 10
731.7698364419107
 20
1431.242719294797
 30
0.0
 10
731.6194925078386
 20
1431.288406643882
 30
0.0
 10
731.5581497176673
 20
1431.288738422109
 30
0.0
 10
731.5559406377521
 20
1431.288750370124
 30
0.0
  0
LINE
  5
203
330
1F
100
AcDbEntity
  8
0
  6
Continuous
 62
     7
370
    15
100
AcDbLine
 10
731.5559406378
 20
1431.2887503701
 30
0.0
 11
783.8700991668
 21
1431.2887503701
 31
0.0
  0
LINE
  5
204
330
1F
100
AcDbEntity
  8
0
  6
Continuous
 62
     7
370
    15
100
AcDbLine
 10
564.8701023854
 20
1431.2887503701
 30
0.0
 11
671.092706554
 21
1431.2887503701
 31
0.0
  0
SPLINE
  5
205
330
1F
100
AcDbEntity
  8
0
  6
Continuous
 62
     7
370
    15
100
AcDbSpline
210
0.0
220
0.0
230
1.0
 70
     8
 71
     3
 72
    12
 73
     8
 74
     0
 42
0.00000001
 43
0.00000001
 12
1.0
 22
0.0
 32
0.0
 13
1.0
 23
0.0
 33
0.0
 40
0.0
 40
0.0
 40
0.0
 40
0.0
 40
0.214687578787586
 40
0.4293739295398867
 40
0.644055931717046
 40
0.8587260307579163
 40
0.9999999999999999
 40
0.9999999999999999
 40
0.9999999999999999
 40
0.9999999999999999
 10
631.1161649026122
 20
1358.788745005706
 30
0.0
 10
631.0958093561898
 20
1358.563896435267
 30
0.0
 10
631.0550983797809
 20
1358.114200580547
 30
0.0
 10
630.7378949476865
 20
1357.514851924224
 30
0.0
 10
630.2718805100287
 20
1357.062568948817
 30
0.0
 10
629.7565676133949
 20
1356.822901544838
 30
0.0
 10
629.4169927192295
 20
1356.79844696101
 30
0.0
 10
629.2822156645503
 20
1356.78874095259
 30
0.0
  0
LINE
  5
206
330
1F
100
AcDbEntity
  8
0
  6
Continuous
 62
     7
370
    15
100
AcDbLine
 10
631.1161649026
 20
1366.788746317
 30
0.0
 11
631.1161649026
 21
1358.7887450057
 31
0.0
  0
SPLINE
  5
207
330
1F
100
AcDbEntity
  8
0
  6
Continuous
 62
     7
370
    15
100
AcDbSpline
210
0.0
220
0.0
230
1.0
 70
     8
 71
     3
 72
    12
 73
     8
 74
     0
 42
0.00000001
 43
0.00000001
 12
1.0
 22
0.0
 32
0.0
 13
1.0
 23
0.0
 33
0.0
 40
0.0
 40
0.0
 40
0.0
 40
0.0
 40
0.2146546584883233
 40
0.4293131663812146
 40
0.6438983722813965
 40
0.8585156218452055
 40
1.0
 40
1.0
 40
1.0
 40
1.0
 10
634.8264311053005
 20
1370.788739522079
 30
0.0
 10
634.4070096573727
 20
1370.744583082598
 30
0.0
 10
633.5681592400273
 20
1370.656269411778
 30
0.0
 10
632.4568774309207
 20
1369.967116103248
 30
0.0
 10
631.6211651235592
 20
1368.952628378307
 30
0.0
 10
631.1791971032958
 20
1367.827844006257
 30
0.0
 10
631.1340875765062
 20
1367.084204968719
 30
0.0
 10
631.1161649026122
 20
1366.788746317008
 30
0.0
  0
SPLINE
  5
208
330
1F
100
AcDbEntity
  8
0
  6
Continuous
 62
     7
370
    15
100
AcDbSpline
210
0.0
220
0.0
230
1.0
 70
     8
 71
     3
 72
    12
 73
     8
 74
     0
 42
0.00000001
 43
0.00000001
 12
1.0
 22
0.0
 32
0.0
 13
1.0
 23
0.0
 33
0.0
 40
0.0
 40
0.0
 40
0.0
 40
0.0
 40
0.214664410857389
 40
0.4293274441887173
 40
0.6439776908431046
 40
0.8585804831914506
 40
1.0
 40
1.0
 40
1.0
 40
1.0
 10
762.7790552176681
 20
1366.788746317008
 30
0.0
 10
762.7524782287334
 20
1367.238438470507
 30
0.0
 10
762.6993244214112
 20
1368.137819891778
 30
0.0
 10
762.282688257967
 20
1369.336486396586
 30
0.0
 10
761.6627808380476
 20
1370.240972547326
 30
0.0
 10
760.96685865496
 20
1370.720414686853
 30
0.0
 10
760.4996467730653
 20
1370.769315210171
 30
0.0
 10
760.3140604294982
 20
1370.788739522079
 30
0.0
  0
LINE
  5
209
330
1F
100
AcDbEntity
  8
0
  6
Continuous
 62
     7
370
    15
100
AcDbLine
 10
762.7790552177
 20
1366.788746317
 30
0.0
 11
762.7790552177
 21
1358.7887450057
 31
0.0
  0
SPLINE
  5
20A
330
1F
100
AcDbEntity
  8
0
  6
Continuous
 62
     7
370
    15
100
AcDbSpline
210
0.0
220
0.0
230
1.0
 70
     8
 71
     3
 72
    12
 73
     8
 74
     0
 42
0.00000001
 43
0.00000001
 12
1.0
 22
0.0
 32
0.0
 13
1.0
 23
0.0
 33
0.0
 40
0.0
 40
0.0
 40
0.0
 40
0.0
 40
0.2146847498630595
 40
0.4293716662638554
 40
0.644034848788942
 40
0.8587130618695397
 40
1.0
 40
1.0
 40
1.0
 40
1.0
 10
763.9682498373237
 20
1356.78874095259
 30
0.0
 10
763.8358691303008
 20
1356.810840238304
 30
0.0
 10
763.5711063803066
 20
1356.855039032751
 30
0.0
 10
763.2144995032743
 20
1357.199815065899
 30
0.0
 10
762.9437813911749
 20
1357.707240185529
 30
0.0
 10
762.7996197731702
 20
1358.269598975229
 30
0.0
 10
762.7848983365673
 20
1358.641237223113
 30
0.0
 10
762.7790552176681
 20
1358.788745005706
 30
0.0
  0
LINE
  5
20B
330
1F
100
AcDbEntity
  8
0
  6
Continuous
 62
     7
370
    15
100
AcDbLine
 10
671.092706554
 20
1431.2887503701
 30
0.0
 11
671.958955292
 21
1431.2887503701
 31
0.0
  0
LINE
  5
20C
330
1F
100
AcDbEntity
  8
0
  6
Continuous
 62
     7
370
    15
100
AcDbLine
 10
671.0328453299
 20
1370.7887395221
 30
0.0
 11
672.476593343
 21
1370.7887395221
 31
0.0
  0
LINE
  5
20D
330
1F
100
AcDbEntity
  8
0
  6
Continuous
 62
     7
370
    15
100
AcDbLine
 10
732.3520985045
 20
1370.7887395221
 30
0.0
 11
672.476593343
 21
1370.7887395221
 31
0.0
  0
LINE
  5
20E
330
1F
100
AcDbEntity
  8
0
  6
Continuous
 62
     7
370
    15
100
AcDbLine
 10
671.958955292
 20
1431.2887503701
 30
0.0
 11
672.7660946161
 21
1431.2887503701
 31
0.0
  0
LWPOLYLINE
  5
20F
330
1F
100
AcDbEntity
  8
0
  6
Continuous
 62
     7
370
    15
100
AcDbPolyline
 90
       18
 70
   128
 43
0.0
 10
619.5315737821
 20
1391.7887522775
 10
619.3619799413
 20
1392.8363486129
 10
618.8761015035
 20
1393.7424584228
 10
618.1395594575
 20
1394.3847133714
 10
617.2518302299
 20
1394.6763737994
 10
616.3328048386
 20
1394.5780410367
 10
615.5065987803
 20
1394.1029920178
 10
614.884803126
 20
1393.3154060441
 10
614.5513896443
 20
1392.3216178018
 10
614.5513896443
 20
1391.255871852
 10
614.884803126
 20
1390.2620985108
 10
615.5065987803
 20
1389.4744976359
 10
616.3328048386
 20
1388.9994486171
 10
617.2518302299
 20
1388.9011158544
 10
618.1395594575
 20
1389.1927762824
 10
618.8761015035
 20
1389.835031231
 10
619.3619799413
 20
1390.7411410409
 10
619.5315737821
 20
1391.7887522775
  0
LINE
  5
210
330
1F
100
AcDbEntity
  8
0
  6
Continuous
 62
     7
370
    15
100
AcDbLine
 10
621.9725069203
 20
1356.7887409526
 30
0.0
 11
612.0676938988
 21
1356.7887409526
 31
0.0
  0
LINE
  5
211
330
1F
100
AcDbEntity
  8
0
  6
Continuous
 62
     7
370
    15
100
AcDbLine
 10
629.2822156646
 20
1356.7887409526
 30
0.0
 11
628.9695781268
 21
1356.7887409526
 31
0.0
  0
LINE
  5
212
330
1F
100
AcDbEntity
  8
0
  6
Continuous
 62
     7
370
    15
100
AcDbLine
 10
624.600341598
 20
1356.7887409526
 30
0.0
 11
621.9725069203
 21
1356.7887409526
 31
0.0
  0
LINE
  5
213
330
1F
100
AcDbEntity
  8
0
  6
Continuous
 62
     7
370
    15
100
AcDbLine
 10
627.0764899053
 20
1356.7887409526
 30
0.0
 11
624.600341598
 21
1356.7887409526
 31
0.0
  0
ARC
  5
214
330
1F
100
AcDbEntity
  8
0
  6
Continuous
 62
     7
370
    15
100
AcDbCircle
 10
617.7587488819
 20
1391.7887448269
 30
0.0
 40
2.940543471073611
100
AcDbArc
 50
100.5550051477
 51
259.4449948523
  0
LINE
  5
215
330
1F
100
AcDbEntity
  8
0
  6
Continuous
 62
     7
370
    15
100
AcDbLine
 10
730.3261068262
 20
1431.2887503701
 30
0.0
 11
731.5559406378
 21
1431.2887503701
 31
0.0
  0
LINE
  5
216
330
1F
100
AcDbEntity
  8
0
  6
Continuous
 62
     7
370
    15
100
AcDbLine
 10
598.0619621076
 20
1452.7887417871
 30
0.0
 11
753.370104412
 21
1452.7887417871
 31
0.0
  0
LINE
  5
217
330
1F
100
AcDbEntity
  8
0
  6
Continuous
 62
     7
370
    15
100
AcDbLine
 10
595.3700971402
 20
1452.7887417871
 30
0.0
 11
598.0619621076
 21
1452.7887417871
 31
0.0
  0
LINE
  5
218
330
1F
100
AcDbEntity
  8
0
  6
Continuous
 62
     7
370
    15
100
AcDbLine
 10
612.2595798768
 20
1402.6718153554
 30
0.0
 11
612.3309154608
 21
1402.7020796138
 31
0.0
  0
LINE
  5
219
330
1F
100
AcDbEntity
  8
0
  6
Continuous
 62
     7
370
    15
100
AcDbLine
 10
612.0676938988
 20
1356.7887409526
 30
0.0
 11
611.0676955976
 21
1356.7887409526
 31
0.0
  0
LINE
  5
21A
330
1F
100
AcDbEntity
  8
0
  6
Continuous
 62
     7
370
    15
100
AcDbLine
 10
611.0676955976
 20
1356.7887409526
 30
0.0
 11
610.5716508426
 21
1356.7887409526
 31
0.0
  0
LINE
  5
21B
330
1F
100
AcDbEntity
  8
0
  6
Continuous
 62
     7
370
    15
100
AcDbLine
 10
764.6072637834
 20
1356.7887409526
 30
0.0
 11
763.9682498373
 21
1356.7887409526
 31
0.0
  0
LINE
  5
21C
330
1F
100
AcDbEntity
  8
0
  6
Continuous
 62
     7
370
    15
100
AcDbLine
 10
768.2831269302
 20
1356.7887409526
 30
0.0
 11
765.8141162791
 21
1356.7887409526
 31
0.0
  0
SPLINE
  5
21D
330
1F
100
AcDbEntity
  8
0
  6
Continuous
 62
     7
370
    15
100
AcDbSpline
210
0.0
220
0.0
230
1.0
 70
     8
 71
     3
 72
     9
 73
     5
 74
     0
 42
0.00000001
 43
0.00000001
 12
1.0
 22
0.0
 32
0.0
 13
1.0
 23
0.0
 33
0.0
 40
0.0
 40
0.0
 40
0.0
 40
0.0
 40
0.3004327936688702
 40
1.0
 40
1.0
 40
1.0
 40
1.0
 10
769.3868559397903
 20
1402.815745671371
 30
0.0
 10
769.9826244632928
 20
1402.820234682661
 30
0.0
 10
771.9656587260544
 20
1402.835176497887
 30
0.0
 10
773.8228028396293
 20
1402.82374368932
 30
0.0
 10
775.1219999589172
 20
1402.815745671371
 30
0.0
  0
LINE
  5
21E
330
1F
100
AcDbEntity
  8
0
  6
Continuous
 62
     7
370
    15
100
AcDbLine
 10
770.8439436354
 20
1356.7887409526
 30
0.0
 11
768.2831269302
 21
1356.7887409526
 31
0.0
  0
LWPOLYLINE
  5
21F
330
1F
100
AcDbEntity
  8
0
  6
Continuous
 62
     7
370
    15
100
AcDbPolyline
 90
       18
 70
   128
 43
0.0
 10
775.1532178916
 20
1391.7887522775
 10
775.0553023614
 20
1392.8363486129
 10
774.7747805514
 20
1393.7424584228
 10
774.3495386638
 20
1394.3847133714
 10
773.8370057739
 20
1394.6763737994
 10
773.3064052262
 20
1394.5780410367
 10
772.8293967046
 20
1394.1029920178
 10
772.4703979291
 20
1393.3154060441
 10
772.2779047288
 20
1392.3216178018
 10
772.2779047288
 20
1391.255871852
 10
772.4703979291
 20
1390.2620985108
 10
772.8293967046
 20
1389.4744976359
 10
773.3064052262
 20
1388.9994486171
 10
773.8370057739
 20
1388.9011158544
 10
774.3495386638
 20
1389.1927762824
 10
774.7747805514
 20
1389.835031231
 10
775.0553023614
 20
1390.7411410409
 10
775.1532178916
 20
1391.7887522775
  0
LINE
  5
220
330
1F
100
AcDbEntity
  8
0
  6
Continuous
 62
     7
370
    15
100
AcDbLine
 10
776.5624877609
 20
1356.7887409526
 30
0.0
 11
770.8439436354
 21
1356.7887409526
 31
0.0
  0
ARC
  5
221
330
1F
100
AcDbEntity
  8
0
  6
Continuous
 62
     7
370
    15
100
AcDbCircle
 10
771.3916226541
 20
1391.3671281926
 30
0.0
 40
3.097601622584297
100
AcDbArc
 50
309.376929433
 51
7.8229885942
  0
ARC
  5
222
330
1F
100
AcDbEntity
  8
0
  6
Continuous
 62
     7
370
    15
100
AcDbCircle
 10
771.3916273424
 20
1392.2103655296
 30
0.0
 40
3.097595503434418
100
AcDbArc
 50
352.1771981103
 51
50.6230898587
  0
LINE
  5
223
330
1F
100
AcDbEntity
  8
0
  6
Continuous
 62
     7
370
    15
100
AcDbLine
 10
776.8304404415
 20
1356.7887409526
 30
0.0
 11
776.5624877609
 21
1356.7887409526
 31
0.0
  0
SPLINE
  5
224
330
1F
100
AcDbEntity
  8
0
  6
Continuous
 62
     7
370
    15
100
AcDbSpline
210
0.0
220
0.0
230
1.0
 70
     8
 71
     3
 72
     9
 73
     5
 74
     0
 42
0.00000001
 43
0.00000001
 12
1.0
 22
0.0
 32
0.0
 13
1.0
 23
0.0
 33
0.0
 40
0.0
 40
0.0
 40
0.0
 40
0.0
 40
0.4836299871059549
 40
1.0
 40
1.0
 40
1.0
 40
1.0
 10
775.1740795172897
 20
1403.098405798057
 30
0.0
 10
775.1646580993685
 20
1403.037049640796
 30
0.0
 10
775.1451774671242
 20
1402.910183733187
 30
0.0
 10
775.1693228938815
 20
1402.793041318571
 30
0.0
 10
775.1817908682075
 20
1402.732552488426
 30
0.0
  0
LWPOLYLINE
  5
225
330
1F
100
AcDbEntity
  8
0
  6
Continuous
 62
     7
370
    15
100
AcDbPolyline
 90
       13
 70
   128
 43
0.0
 10
618.6701004006
 20
1393.975065549
 10
618.4486356177
 20
1394.0984471637
 10
617.620101253
 20
1394.2887498933
 10
616.7915668883
 20
1394.0984471637
 10
616.0891708531
 20
1393.5565068322
 10
615.6198438801
 20
1392.7454515296
 10
615.4550370373
 20
1391.7887522775
 10
615.6198438801
 20
1390.8320381242
 10
616.0891708531
 20
1390.0209828216
 10
616.7915668883
 20
1389.4790424901
 10
617.620101253
 20
1389.2887397605
 10
618.4486356177
 20
1389.4790424901
 10
618.6701004006
 20
1389.6024241048
  0
ARC
  5
226
330
1F
100
AcDbEntity
  8
0
  6
Continuous
 62
     7
370
    15
100
AcDbCircle
 10
771.3870937447
 20
1392.1887337667
 30
0.0
 40
2.558352102490323
100
AcDbArc
 50
351.0052821191
 51
53.0829701976
  0
ARC
  5
227
330
1F
100
AcDbEntity
  8
0
  6
Continuous
 62
     7
370
    15
100
AcDbCircle
 10
771.3870892964
 20
1391.3887601257
 30
0.0
 40
2.55835816319847
100
AcDbArc
 50
306.9170524346
 51
8.9949381633
  0
SPLINE
  5
228
330
1F
100
AcDbEntity
  8
0
  6
Continuous
 62
     7
370
    15
100
AcDbSpline
210
0.0
220
0.0
230
1.0
 70
     8
 71
     3
 72
    14
 73
    10
 74
     0
 42
0.00000001
 43
0.00000001
 12
1.0
 22
0.0
 32
0.0
 13
1.0
 23
0.0
 33
0.0
 40
0.0
 40
0.0
 40
0.0
 40
0.0
 40
0.096311775454302
 40
0.2658714843576211
 40
0.4354685896738637
 40
0.6050043150203305
 40
0.7744794764977462
 40
0.9439849971044938
 40
1.0
 40
1.0
 40
1.0
 40
1.0
 10
672.997038865849
 20
1283.168451388457
 30
0.0
 10
672.8244910909581
 20
1283.252550475319
 30
0.0
 10
672.3481678914693
 20
1283.484708474189
 30
0.0
 10
671.7824362651947
 20
1284.176327384916
 30
0.0
 10
671.3867744276529
 20
1285.113637924301
 30
0.0
 10
671.3311195380219
 20
1286.145705021265
 30
0.0
 10
671.6298222752196
 20
1287.114813125819
 30
0.0
 10
672.0616850838821
 20
1287.806797337393
 30
0.0
 10
672.4379454246676
 20
1288.050799487967
 30
0.0
 10
672.531401327267
 20
1288.111404975036
 30
0.0
  0
ARC
  5
229
330
1F
100
AcDbEntity
  8
0
  6
Continuous
 62
     7
370
    15
100
AcDbCircle
 10
674.3701007761
 20
1117.7887460786
 30
0.0
 40
35.00000000000009
100
AcDbArc
 50
0.0000000011
 51
60.1656761817
  0
LINE
  5
22A
330
1F
100
AcDbEntity
  8
0
  6
Continuous
 62
     7
370
    15
100
AcDbLine
 10
691.78238144
 20
1148.1501110765
 30
0.0
 11
690.8524856515
 21
1148.5919416818
 31
0.0
  0
SPLINE
  5
22B
330
1F
100
AcDbEntity
  8
0
  6
Continuous
 62
     7
370
    15
100
AcDbSpline
210
0.0
220
0.0
230
1.0
 70
     8
 71
     3
 72
    14
 73
    10
 74
     0
 42
0.00000001
 43
0.00000001
 12
1.0
 22
0.0
 32
0.0
 13
1.0
 23
0.0
 33
0.0
 40
0.0
 40
0.0
 40
0.0
 40
0.0
 40
0.5000000000000003
 40
0.5000000000000003
 40
0.7500000000000004
 40
0.7500000000000004
 40
0.8750000000000002
 40
0.8750000000000002
 40
1.0
 40
1.0
 40
1.0
 40
1.0
 10
656.9222853555381
 20
1148.135319734442
 30
0.0
 10
658.2875471226843
 20
1148.906698908904
 30
0.0
 10
659.6949237224427
 20
1149.583258808155
 30
0.0
 10
661.8685253592757
 20
1150.457371089775
 30
0.0
 10
662.6038235549562
 20
1150.725310604272
 30
0.0
 10
663.7217251486036
 20
1151.091098912265
 30
0.0
 10
664.0962253256787
 20
1151.20680334271
 30
0.0
 10
664.8489568860549
 20
1151.425768502145
 30
0.0
 10
665.2288691155289
 20
1151.529446910281
 30
0.0
 10
665.6070225476403
 20
1151.625982396214
 30
0.0
  0
LINE
  5
22C
330
1F
100
AcDbEntity
  8
0
  6
Continuous
 62
     7
370
    15
100
AcDbLine
 10
656.9222845681
 20
1148.1353198114
 30
0.0
 11
656.9626182862
 21
1148.152982344
 31
0.0
  0
LINE
  5
22D
330
1F
100
AcDbEntity
  8
0
  6
Continuous
 62
     7
370
    15
100
AcDbLine
 10
709.3701009251
 20
1117.7887446183
 30
0.0
 11
709.3701009251
 21
1094.4969518977
 31
0.0
  0
LINE
  5
22E
330
1F
100
AcDbEntity
  8
0
  6
Continuous
 62
     7
370
    15
100
AcDbLine
 10
708.7698076464
 20
1077.7887492376
 30
0.0
 11
707.3701005973
 21
1077.7887492376
 31
0.0
  0
CIRCLE
  5
22F
330
1F
100
AcDbEntity
  8
0
  6
Continuous
 62
     7
370
    15
100
AcDbCircle
 10
674.3701007761
 20
1117.7887460786
 30
0.0
 40
25.5
  0
LINE
  5
230
330
1F
100
AcDbEntity
  8
0
  6
Continuous
 62
     7
370
    15
100
AcDbLine
 10
641.3701009549
 20
1077.7887492376
 30
0.0
 11
707.3701005973
 21
1077.7887492376
 31
0.0
  0
LINE
  5
231
330
1F
100
AcDbEntity
  8
0
  6
Continuous
 62
     7
370
    15
100
AcDbLine
 10
639.3701006271
 20
1094.4969518977
 30
0.0
 11
639.3701006271
 21
1111.5209176141
 31
0.0
  0
LINE
  5
232
330
1F
100
AcDbEntity
  8
0
  6
Continuous
 62
     7
370
    15
100
AcDbLine
 10
641.3701009549
 20
1077.7887492376
 30
0.0
 11
639.9703939058
 21
1077.7887492376
 31
0.0
  0
LINE
  5
233
330
1F
100
AcDbEntity
  8
0
  6
Continuous
 62
     7
370
    15
100
AcDbLine
 10
639.9703939058
 20
1077.7887492376
 30
0.0
 11
636.471120695
 21
1077.7887492376
 31
0.0
  0
LINE
  5
234
330
1F
100
AcDbEntity
  8
0
  6
Continuous
 62
     7
370
    15
100
AcDbLine
 10
712.2690808572
 20
1077.7887492376
 30
0.0
 11
708.7698076464
 21
1077.7887492376
 31
0.0
  0
SPLINE
  5
235
330
1F
100
AcDbEntity
  8
0
  6
Continuous
 62
     7
370
    15
100
AcDbSpline
210
0.0
220
0.0
230
1.0
 70
    24
 71
     3
 72
    20
 73
    16
 74
     0
 42
0.00000001
 43
0.00000001
 12
1.0
 22
0.0
 32
0.0
 13
1.0
 23
0.0
 33
0.0
 40
0.0
 40
0.0
 40
0.0
 40
0.0
 40
0.25
 40
0.25
 40
0.375
 40
0.375
 40
0.5
 40
0.5
 40
0.625
 40
0.625
 40
0.75
 40
0.75
 40
0.875
 40
0.875
 40
1.0
 40
1.0
 40
1.0
 40
1.0
 10
647.0567667993049
 20
1146.78874607859
 30
0.0
 10
647.7957319581972
 20
1146.78874607859
 30
0.0
 10
648.5218110427105
 20
1146.78874607859
 30
0.0
 10
649.593563924686
 20
1146.78874607859
 30
0.0
 10
649.9478724833436
 20
1146.78874607859
 30
0.0
 10
650.6503121493241
 20
1146.78874607859
 30
0.0
 10
650.9993013580801
 20
1146.78874607859
 30
0.0
 10
651.6756522146527
 20
1146.78874607859
 30
0.0
 10
652.004797453331
 20
1146.78874607859
 30
0.0
 10
652.6424118386752
 20
1146.78874607859
 30
0.0
 10
652.9520218658148
 20
1146.78874607859
 30
0.0
 10
653.5399670834832
 20
1146.78874607859
 30
0.0
 10
653.8139080511158
 20
1146.78874607859
 30
0.0
 10
654.3083121568261
 20
1146.78874607859
 30
0.0
 10
654.5303366361646
 20
1146.78874607859
 30
0.0
 10
654.7028505256457
 20
1146.78874607859
 30
0.0
  0
SPLINE
  5
236
330
1F
100
AcDbEntity
  8
0
  6
Continuous
 62
     7
370
    15
100
AcDbSpline
210
0.0
220
0.0
230
1.0
 70
     8
 71
     3
 72
     8
 73
     4
 74
     0
 42
0.00000001
 43
0.00000001
 12
1.0
 22
0.0
 32
0.0
 13
1.0
 23
0.0
 33
0.0
 40
0.0
 40
0.0
 40
0.0
 40
0.0
 40
1.0
 40
1.0
 40
1.0
 40
1.0
 10
654.7028505256457
 20
1146.78874607859
 30
0.0
 10
655.4279058598715
 20
1147.260612493262
 30
0.0
 10
656.1677974482315
 20
1147.70903059848
 30
0.0
 10
656.9222853555381
 20
1148.135319734442
 30
0.0
  0
ARC
  5
237
330
1F
100
AcDbEntity
  8
0
  6
Continuous
 62
     7
370
    15
100
AcDbCircle
 10
634.3701007761
 20
1094.7887460786
 30
0.0
 40
5.0
100
AcDbArc
 50
270.0
 51
0.0
  0
ARC
  5
238
330
1F
100
AcDbEntity
  8
0
  6
Continuous
 62
     7
370
    15
100
AcDbCircle
 10
714.3701007761
 20
1094.7887460786
 30
0.0
 40
5.0
100
AcDbArc
 50
180.0
 51
270.0
  0
SPLINE
  5
239
330
1F
100
AcDbEntity
  8
0
  6
Continuous
 62
     7
370
    15
100
AcDbSpline
210
0.0
220
0.0
230
1.0
 70
     8
 71
     3
 72
    18
 73
    14
 74
     0
 42
0.00000001
 43
0.00000001
 12
1.0
 22
0.0
 32
0.0
 13
1.0
 23
0.0
 33
0.0
 40
0.0
 40
0.0
 40
0.0
 40
0.0
 40
0.1250000000000052
 40
0.1250000000000052
 40
0.2500000000000103
 40
0.2500000000000103
 40
0.3750000000000155
 40
0.3750000000000155
 40
0.5000000000000207
 40
0.5000000000000207
 40
0.7500000000000103
 40
0.7500000000000103
 40
1.0
 40
1.0
 40
1.0
 40
1.0
 10
576.3701007761207
 20
1087.78874607859
 30
0.0
 10
576.3701007761207
 20
1087.923808449613
 30
0.0
 10
576.3836412766057
 20
1088.056440350033
 30
0.0
 10
576.4365650465136
 20
1088.317065251542
 30
0.0
 10
576.4766771817389
 20
1088.446457108582
 30
0.0
 10
576.5802635007589
 20
1088.691031640073
 30
0.0
 10
576.6434802196858
 20
1088.806706264248
 30
0.0
 10
576.7924199299462
 20
1089.025024620466
 30
0.0
 10
576.8779678426798
 20
1089.126841966427
 30
0.0
 10
577.1571667925934
 20
1089.400154262767
 30
0.0
 10
577.3796402954256
 20
1089.545125528482
 30
0.0
 10
577.8552472733398
 20
1089.738311826775
 30
0.0
 10
578.115363009091
 20
1089.78874607859
 30
0.0
 10
578.3701007761207
 20
1089.78874607859
 30
0.0
  0
LINE
  5
23A
330
1F
100
AcDbEntity
  8
0
  6
Continuous
 62
     7
370
    15
100
AcDbLine
 10
578.3700999417
 20
1089.788743754
 30
0.0
 11
610.1497766175
 21
1089.788743754
 31
0.0
  0
SPLINE
  5
23B
330
1F
100
AcDbEntity
  8
0
  6
Continuous
 62
     7
370
    15
100
AcDbSpline
210
0.0
220
0.0
230
1.0
 70
     8
 71
     3
 72
    18
 73
    14
 74
     0
 42
0.00000001
 43
0.00000001
 12
1.0
 22
0.0
 32
0.0
 13
1.0
 23
0.0
 33
0.0
 40
0.0
 40
0.0
 40
0.0
 40
0.0
 40
0.1250000000000023
 40
0.1250000000000023
 40
0.2500000000000046
 40
0.2500000000000046
 40
0.3750000000000068
 40
0.3750000000000068
 40
0.5000000000000091
 40
0.5000000000000091
 40
0.7500000000000046
 40
0.7500000000000046
 40
1.0
 40
1.0
 40
1.0
 40
1.0
 10
609.5453369894319
 20
1087.78874607859
 30
0.0
 10
609.5453369894319
 20
1087.923808449613
 30
0.0
 10
609.5494097595431
 20
1088.056440350033
 30
0.0
 10
609.5653327660413
 20
1088.317065251542
 30
0.0
 10
609.5774023968045
 20
1088.446457108582
 30
0.0
 10
609.608585222273
 20
1088.691031640073
 30
0.0
 10
609.6276208641905
 20
1088.806706264248
 30
0.0
 10
609.6724960565754
 20
1089.025024620466
 30
0.0
 10
609.6982833241549
 20
1089.126841966427
 30
0.0
 10
609.7825046147651
 20
1089.400154262767
 30
0.0
 10
609.8496920996689
 20
1089.545125528482
 30
0.0
 10
609.9935952509085
 20
1089.738311826775
 30
0.0
 10
610.0724298546811
 20
1089.78874607859
 30
0.0
 10
610.1497768902977
 20
1089.78874607859
 30
0.0
  0
LINE
  5
23C
330
1F
100
AcDbEntity
  8
0
  6
Continuous
 62
     7
370
    15
100
AcDbLine
 10
576.3701033391
 20
1087.7887471515
 30
0.0
 11
576.3701033391
 21
1077.7887492376
 31
0.0
  0
LINE
  5
23D
330
1F
100
AcDbEntity
  8
0
  6
Continuous
 62
     7
370
    15
100
AcDbLine
 10
609.5453333654
 20
1087.7887471515
 30
0.0
 11
609.5453333654
 21
1077.7887492376
 31
0.0
  0
LINE
  5
23E
330
1F
100
AcDbEntity
  8
0
  6
Continuous
 62
     7
370
    15
100
AcDbLine
 10
609.5453333654
 20
1077.7887492376
 30
0.0
 11
576.3701033391
 21
1077.7887492376
 31
0.0
  0
LINE
  5
23F
330
1F
100
AcDbEntity
  8
0
  6
Continuous
 62
     7
370
    15
100
AcDbLine
 10
610.1497766175
 20
1089.788743754
 30
0.0
 11
634.3701016702
 21
1089.788743754
 31
0.0
  0
LINE
  5
240
330
1F
100
AcDbEntity
  8
0
  6
Continuous
 62
     7
370
    15
100
AcDbLine
 10
636.471120695
 20
1077.7887492376
 30
0.0
 11
609.5453333654
 21
1077.7887492376
 31
0.0
  0
LINE
  5
241
330
1F
100
AcDbEntity
  8
0
  6
Continuous
 62
     7
370
    15
100
AcDbLine
 10
739.1948681869
 20
1087.7887471515
 30
0.0
 11
739.1948681869
 21
1077.7887492376
 31
0.0
  0
LINE
  5
242
330
1F
100
AcDbEntity
  8
0
  6
Continuous
 62
     7
370
    15
100
AcDbLine
 10
739.1948681869
 20
1077.7887492376
 30
0.0
 11
712.2690808572
 21
1077.7887492376
 31
0.0
  0
SPLINE
  5
243
330
1F
100
AcDbEntity
  8
0
  6
Continuous
 62
     7
370
    15
100
AcDbSpline
210
0.0
220
0.0
230
1.0
 70
     8
 71
     3
 72
    18
 73
    14
 74
     0
 42
0.00000001
 43
0.00000001
 12
1.0
 22
0.0
 32
0.0
 13
1.0
 23
0.0
 33
0.0
 40
0.0
 40
0.0
 40
0.0
 40
0.0
 40
0.1250000000000023
 40
0.1250000000000023
 40
0.2500000000000046
 40
0.2500000000000046
 40
0.3750000000000068
 40
0.3750000000000068
 40
0.5000000000000091
 40
0.5000000000000091
 40
0.7500000000000046
 40
0.7500000000000046
 40
1.0
 40
1.0
 40
1.0
 40
1.0
 10
739.1948645628096
 20
1087.78874607859
 30
0.0
 10
739.1948645628096
 20
1087.923808449613
 30
0.0
 10
739.1907917926983
 20
1088.056440350033
 30
0.0
 10
739.1748687862001
 20
1088.317065251542
 30
0.0
 10
739.1627991554369
 20
1088.446457108582
 30
0.0
 10
739.1316163299684
 20
1088.691031640073
 30
0.0
 10
739.1125806880509
 20
1088.806706264248
 30
0.0
 10
739.067705495666
 20
1089.025024620466
 30
0.0
 10
739.0419182280865
 20
1089.126841966427
 30
0.0
 10
738.9576969374763
 20
1089.400154262767
 30
0.0
 10
738.8905094525724
 20
1089.545125528482
 30
0.0
 10
738.746606301333
 20
1089.738311826775
 30
0.0
 10
738.6677716975612
 20
1089.78874607859
 30
0.0
 10
738.5904246619436
 20
1089.78874607859
 30
0.0
  0
LINE
  5
244
330
1F
100
AcDbEntity
  8
0
  6
Continuous
 62
     7
370
    15
100
AcDbLine
 10
714.3700998821
 20
1089.788743754
 30
0.0
 11
738.5904249348
 21
1089.788743754
 31
0.0
  0
LINE
  5
245
330
1F
100
AcDbEntity
  8
0
  6
Continuous
 62
     7
370
    15
100
AcDbLine
 10
738.5904249348
 20
1089.788743754
 30
0.0
 11
770.3701016106
 21
1089.788743754
 31
0.0
  0
SPLINE
  5
246
330
1F
100
AcDbEntity
  8
0
  6
Continuous
 62
     7
370
    15
100
AcDbSpline
210
0.0
220
0.0
230
1.0
 70
     8
 71
     3
 72
    18
 73
    14
 74
     0
 42
0.00000001
 43
0.00000001
 12
1.0
 22
0.0
 32
0.0
 13
1.0
 23
0.0
 33
0.0
 40
0.0
 40
0.0
 40
0.0
 40
0.0
 40
0.1250000000000052
 40
0.1250000000000052
 40
0.2500000000000103
 40
0.2500000000000103
 40
0.3750000000000155
 40
0.3750000000000155
 40
0.5000000000000207
 40
0.5000000000000207
 40
0.7500000000000103
 40
0.7500000000000103
 40
1.0
 40
1.0
 40
1.0
 40
1.0
 10
772.3701007761206
 20
1087.78874607859
 30
0.0
 10
772.3701007761206
 20
1087.923808449613
 30
0.0
 10
772.3565602756357
 20
1088.056440350033
 30
0.0
 10
772.3036365057278
 20
1088.317065251542
 30
0.0
 10
772.2635243705025
 20
1088.446457108582
 30
0.0
 10
772.1599380514825
 20
1088.691031640073
 30
0.0
 10
772.0967213325557
 20
1088.806706264248
 30
0.0
 10
771.9477816222952
 20
1089.025024620466
 30
0.0
 10
771.8622337095615
 20
1089.126841966427
 30
0.0
 10
771.583034759648
 20
1089.400154262767
 30
0.0
 10
771.3605612568157
 20
1089.545125528482
 30
0.0
 10
770.8849542789015
 20
1089.738311826775
 30
0.0
 10
770.6248385431505
 20
1089.78874607859
 30
0.0
 10
770.3701007761207
 20
1089.78874607859
 30
0.0
  0
LINE
  5
247
330
1F
100
AcDbEntity
  8
0
  6
Continuous
 62
     7
370
    15
100
AcDbLine
 10
772.3700982131
 20
1087.7887471515
 30
0.0
 11
772.3700982131
 21
1077.7887492376
 31
0.0
  0
LINE
  5
248
330
1F
100
AcDbEntity
  8
0
  6
Continuous
 62
     7
370
    15
100
AcDbLine
 10
772.3700982131
 20
1077.7887492376
 30
0.0
 11
739.1948681869
 21
1077.7887492376
 31
0.0
  0
LINE
  5
249
330
1F
100
AcDbEntity
  8
0
  6
Continuous
 62
     7
370
    15
100
AcDbLine
 10
579.3701019682
 20
1157.7887460525
 30
0.0
 11
620.6200998821
 21
1157.7887460525
 31
0.0
  0
LINE
  5
24A
330
1F
100
AcDbEntity
  8
0
  6
Continuous
 62
     7
370
    15
100
AcDbLine
 10
628.6201011934
 20
1157.7887460525
 30
0.0
 11
756.5396261014
 21
1157.7887460525
 31
0.0
  0
LINE
  5
24B
330
1F
100
AcDbEntity
  8
0
  6
Continuous
 62
     7
370
    15
100
AcDbLine
 10
764.5396274127
 20
1157.7887460525
 30
0.0
 11
769.370099584
 21
1157.7887460525
 31
0.0
  0
ARC
  5
24C
330
1F
100
AcDbEntity
  8
0
  6
Continuous
 62
     7
370
    15
100
AcDbCircle
 10
864.3473753895
 20
1140.7888652939
 30
0.0
 40
95.06146411473006
100
AcDbArc
 50
177.588466321
 51
182.3821116771
  0
LINE
  5
24D
330
1F
100
AcDbEntity
  8
0
  6
Continuous
 62
     7
370
    15
100
AcDbLine
 10
621.400771717
 20
1111.7887473601
 30
0.0
 11
620.3142684497
 21
1111.7887473601
 31
0.0
  0
LINE
  5
24E
330
1F
100
AcDbEntity
  8
0
  6
Continuous
 62
     7
370
    15
100
AcDbLine
 10
620.5858085849
 20
1146.7887456465
 30
0.0
 11
647.0567659088
 21
1146.7887456465
 31
0.0
  0
LINE
  5
24F
330
1F
100
AcDbEntity
  8
0
  6
Continuous
 62
     7
370
    15
100
AcDbLine
 10
619.5804942943
 20
1146.7887456465
 30
0.0
 11
620.5858085849
 21
1146.7887456465
 31
0.0
  0
LINE
  5
250
330
1F
100
AcDbEntity
  8
0
  6
Continuous
 62
     7
370
    15
100
AcDbLine
 10
629.7634859182
 20
1111.7887473601
 30
0.0
 11
621.400771717
 21
1111.7887473601
 31
0.0
  0
LINE
  5
251
330
1F
100
AcDbEntity
  8
0
  6
Continuous
 62
     7
370
    15
100
AcDbLine
 10
615.904213915
 20
1146.7887456465
 30
0.0
 11
619.5804942943
 21
1146.7887456465
 31
0.0
  0
LINE
  5
252
330
1F
100
AcDbEntity
  8
0
  6
Continuous
 62
     7
370
    15
100
AcDbLine
 10
614.9769854345
 20
1146.7887456465
 30
0.0
 11
615.904213915
 21
1146.7887456465
 31
0.0
  0
SPLINE
  5
253
330
1F
100
AcDbEntity
  8
0
  6
Continuous
 62
     7
370
    15
100
AcDbSpline
210
0.0
220
0.0
230
1.0
 70
     8
 71
     3
 72
    22
 73
    18
 74
     0
 42
0.00000001
 43
0.00000001
 12
1.0
 22
0.0
 32
0.0
 13
1.0
 23
0.0
 33
0.0
 40
0.0
 40
0.0
 40
0.0
 40
0.0
 40
0.2499999999999999
 40
0.2499999999999999
 40
0.3749999999999999
 40
0.3749999999999999
 40
0.4374999999999998
 40
0.4374999999999998
 40
0.4999999999999998
 40
0.4999999999999998
 40
0.7499999999999997
 40
0.7499999999999997
 40
0.8124999999999996
 40
0.8124999999999996
 40
0.8749999999999996
 40
0.8749999999999996
 40
1.0
 40
1.0
 40
1.0
 40
1.0
 10
706.4071739092868
 20
1055.733437789172
 30
0.0
 10
701.3095697565784
 20
1055.625368918657
 30
0.0
 10
696.0810938531708
 20
1055.535269944893
 30
0.0
 10
688.0466659094002
 20
1055.44195010776
 30
0.0
 10
685.336349407033
 20
1055.417770312407
 30
0.0
 10
681.221137523092
 20
1055.393324732759
 30
0.0
 10
679.8467214862488
 20
1055.387185256091
 30
0.0
 10
677.1078845101172
 20
1055.379024318689
 30
0.0
 10
675.7410876544785
 20
1055.376988101967
 30
0.0
 10
668.9200176525452
 20
1055.376954538983
 30
0.0
 10
663.5041336224303
 20
1055.409725373156
 30
0.0
 10
656.7859944196459
 20
1055.487236615589
 30
0.0
 10
655.4449746254288
 20
1055.504545767637
 30
0.0
 10
652.768256318852
 20
1055.542583326693
 30
0.0
 10
651.4370187523576
 20
1055.563252192961
 30
0.0
 10
647.4803383482545
 20
1055.629470317127
 30
0.0
 10
644.8852632942533
 20
1055.679330562353
 30
0.0
 10
642.3330276429544
 20
1055.733437789172
 30
0.0
  0
SPLINE
  5
254
330
1F
100
AcDbEntity
  8
0
  6
Continuous
 62
     7
370
    15
100
AcDbSpline
210
0.0
220
0.0
230
1.0
 70
     8
 71
     3
 72
    28
 73
    24
 74
     0
 42
0.00000001
 43
0.00000001
 12
1.0
 22
0.0
 32
0.0
 13
1.0
 23
0.0
 33
0.0
 40
0.0
 40
0.0
 40
0.0
 40
0.0
 40
0.1249999999999997
 40
0.1249999999999997
 40
0.2499999999999993
 40
0.2499999999999993
 40
0.3124999999999993
 40
0.3124999999999993
 40
0.3749999999999992
 40
0.3749999999999992
 40
0.4374999999999992
 40
0.4374999999999992
 40
0.4999999999999991
 40
0.4999999999999991
 40
0.624999999999999
 40
0.624999999999999
 40
0.6874999999999983
 40
0.6874999999999983
 40
0.7499999999999978
 40
0.7499999999999978
 40
0.8749999999999989
 40
0.8749999999999989
 40
1.0
 40
1.0
 40
1.0
 40
1.0
 10
717.3701007761207
 20
1070.088829008097
 30
0.0
 10
717.3701007761207
 20
1069.204686324228
 30
0.0
 10
717.3249595644086
 20
1068.328380623812
 30
0.0
 10
717.1316554568168
 20
1066.593595769371
 30
0.0
 10
716.9836931223248
 20
1065.73508494424
 30
0.0
 10
716.6672697704857
 20
1064.463511998559
 30
0.0
 10
716.5454281003061
 20
1064.041309602001
 30
0.0
 10
716.2712766953991
 20
1063.218581762756
 30
0.0
 10
716.1186180743805
 20
1062.816267576682
 30
0.0
 10
715.7799089552442
 20
1062.030852688465
 30
0.0
 10
715.593867157103
 20
1061.647747497682
 30
0.0
 10
715.1853195597818
 20
1060.902298657394
 30
0.0
 10
714.9613629338766
 20
1060.537909133355
 30
0.0
 10
714.2393159964889
 20
1059.494431995406
 30
0.0
 10
713.6973688203065
 20
1058.871320838182
 30
0.0
 10
712.7886428844641
 20
1058.047868695818
 30
0.0
 10
712.4696907635877
 20
1057.792006008093
 30
0.0
 10
711.7977567585467
 20
1057.319167504323
 30
0.0
 10
711.448004998352
 20
1057.104809499397
 30
0.0
 10
710.3752674819739
 20
1056.535606858642
 30
0.0
 10
709.6222155227803
 20
1056.249151547962
 30
0.0
 10
708.0405009756151
 20
1055.85431030159
 30
0.0
 10
707.2301056022465
 20
1055.750883886575
 30
0.0
 10
706.4071739092869
 20
1055.733437789172
 30
0.0
  0
SPLINE
  5
255
330
1F
100
AcDbEntity
  8
0
  6
Continuous
 62
     7
370
    15
100
AcDbSpline
210
0.0
220
0.0
230
1.0
 70
     8
 71
     3
 72
    26
 73
    22
 74
     0
 42
0.00000001
 43
0.00000001
 12
1.0
 22
0.0
 32
0.0
 13
1.0
 23
0.0
 33
0.0
 40
0.0
 40
0.0
 40
0.0
 40
0.0
 40
0.1250000000000015
 40
0.1250000000000015
 40
0.1875000000000026
 40
0.1875000000000026
 40
0.2500000000000038
 40
0.2500000000000038
 40
0.3750000000000036
 40
0.3750000000000036
 40
0.4375000000000028
 40
0.4375000000000028
 40
0.5000000000000021
 40
0.5000000000000021
 40
0.6250000000000016
 40
0.6250000000000016
 40
0.7500000000000011
 40
0.7500000000000011
 40
0.8750000000000006
 40
0.8750000000000006
 40
1.0
 40
1.0
 40
1.0
 40
1.0
 10
642.3330276429544
 20
1055.733437789172
 30
0.0
 10
641.5115322926746
 20
1055.750853436205
 30
0.0
 10
640.7095261042787
 20
1055.853411701047
 30
0.0
 10
639.5363509216986
 20
1056.143965978291
 30
0.0
 10
639.1502880525062
 20
1056.263746061919
 30
0.0
 10
638.388586401401
 20
1056.552773756029
 30
0.0
 10
638.0187572769705
 20
1056.719949910138
 30
0.0
 10
636.9484921140622
 20
1057.285896942877
 30
0.0
 10
636.2838670111822
 20
1057.749739330932
 30
0.0
 10
635.3608941391275
 20
1058.581679754255
 30
0.0
 10
635.0690676241436
 20
1058.879034081261
 30
0.0
 10
634.5229806386866
 20
1059.504030406758
 30
0.0
 10
634.2673896319592
 20
1059.832863675033
 30
0.0
 10
633.5501889145653
 20
1060.866416572671
 30
0.0
 10
633.1359626863925
 20
1061.625241238367
 30
0.0
 10
632.454960225012
 20
1063.20092377992
 30
0.0
 10
632.1834001826401
 20
1064.022522970333
 30
0.0
 10
631.7584110587401
 20
1065.724549207401
 30
0.0
 10
631.6093700666027
 20
1066.587572615808
 30
0.0
 10
631.4152528269937
 20
1068.326917760456
 30
0.0
 10
631.3701007761205
 20
1069.204445513818
 30
0.0
 10
631.3701007761207
 20
1070.088829008097
 30
0.0
  0
LINE
  5
256
330
1F
100
AcDbEntity
  8
0
  6
Continuous
 62
     7
370
    15
100
AcDbLine
 10
631.3700993158
 20
1074.788743158
 30
0.0
 11
631.3700993158
 21
1070.0888275105
 31
0.0
  0
LINE
  5
257
330
1F
100
AcDbEntity
  8
0
  6
Continuous
 62
     7
370
    15
100
AcDbLine
 10
631.3700993158
 20
1074.788743158
 30
0.0
 11
589.3700998821
 21
1074.788743158
 31
0.0
  0
LINE
  5
258
330
1F
100
AcDbEntity
  8
0
  6
Continuous
 62
     7
370
    15
100
AcDbLine
 10
759.3701016702
 20
1074.788743158
 30
0.0
 11
717.3701022364
 21
1074.788743158
 31
0.0
  0
LINE
  5
259
330
1F
100
AcDbEntity
  8
0
  6
Continuous
 62
     7
370
    15
100
AcDbLine
 10
717.3701022364
 20
1070.0888275105
 30
0.0
 11
717.3701022364
 21
1074.788743158
 31
0.0
  0
SPLINE
  5
25A
330
1F
100
AcDbEntity
  8
0
  6
Continuous
 62
     7
370
    15
100
AcDbSpline
210
0.0
220
0.0
230
1.0
 70
    24
 71
     3
 72
    11
 73
     7
 74
     0
 42
0.00000001
 43
0.00000001
 12
1.0
 22
0.0
 32
0.0
 13
1.0
 23
0.0
 33
0.0
 40
0.0119064377404772
 40
0.0119064377404772
 40
0.0119064377404772
 40
0.0119064377404772
 40
0.0324335571087825
 40
0.0324335571087825
 40
0.0324335571087825
 40
0.0404937031833303
 40
0.0404937031833303
 40
0.0404937031833303
 40
0.0404937031833303
 10
717.3701007761207
 20
1070.088829008092
 30
0.0
 10
717.3701007761207
 20
1065.662639839388
 30
0.0
 10
717.3701007761207
 20
1061.234419494368
 30
0.0
 10
717.3701007761207
 20
1056.804513827348
 30
0.0
 10
717.3701007761207
 20
1055.065074015573
 30
0.0
 10
717.3701007761207
 20
1053.325374656026
 30
0.0
 10
717.3701007761207
 20
1051.585438260526
 30
0.0
  0
SPLINE
  5
25B
330
1F
100
AcDbEntity
  8
0
  6
Continuous
 62
     7
370
    15
100
AcDbSpline
210
0.0
220
0.0
230
1.0
 70
    24
 71
     3
 72
    11
 73
     7
 74
     0
 42
0.00000001
 43
0.00000001
 12
1.0
 22
0.0
 32
0.0
 13
1.0
 23
0.0
 33
0.0
 40
0.0290123505835298
 40
0.0290123505835298
 40
0.0290123505835298
 40
0.0290123505835298
 40
0.0370724961796032
 40
0.0370724961796032
 40
0.0370724961796032
 40
0.0575996145222678
 40
0.0575996145222678
 40
0.0575996145222678
 40
0.0575996145222678
 10
631.3701007761207
 20
1051.585438260544
 30
0.0
 10
631.3701007761207
 20
1053.325374656038
 30
0.0
 10
631.3701007761207
 20
1055.065074015578
 30
0.0
 10
631.3701007761207
 20
1056.804513827348
 30
0.0
 10
631.3701007761207
 20
1061.234419494363
 30
0.0
 10
631.3701007761207
 20
1065.662639839378
 30
0.0
 10
631.3701007761207
 20
1070.088829008077
 30
0.0
  0
LINE
  5
25C
330
1F
100
AcDbEntity
  8
0
  6
Continuous
 62
     7
370
    15
100
AcDbLine
 10
720.4320151903
 20
1032.7887399989
 30
0.0
 11
730.3701025047
 21
1032.7887399989
 31
0.0
  0
LINE
  5
25D
330
1F
100
AcDbEntity
  8
0
  6
Continuous
 62
     7
370
    15
100
AcDbLine
 10
618.3700990476
 20
1032.7887399989
 30
0.0
 11
628.308186362
 21
1032.7887399989
 31
0.0
  0
LINE
  5
25E
330
1F
100
AcDbEntity
  8
0
  6
Continuous
 62
     7
370
    15
100
AcDbLine
 10
663.5446921535
 20
1007.7887489396
 30
0.0
 11
663.1897604637
 21
1007.7887489396
 31
0.0
  0
LINE
  5
25F
330
1F
100
AcDbEntity
  8
0
  6
Continuous
 62
     7
370
    15
100
AcDbLine
 10
685.5504410885
 20
1007.7887489396
 30
0.0
 11
685.1955093987
 21
1007.7887489396
 31
0.0
  0
LINE
  5
260
330
1F
100
AcDbEntity
  8
0
  6
Continuous
 62
     7
370
    15
100
AcDbLine
 10
622.2164799072
 20
1022.7887495357
 30
0.0
 11
649.7733537652
 21
1022.7887495357
 31
0.0
  0
LINE
  5
261
330
1F
100
AcDbEntity
  8
0
  6
Continuous
 62
     7
370
    15
100
AcDbLine
 10
622.2164799072
 20
1007.7887489396
 30
0.0
 11
620.8792087235
 21
1007.7887489396
 31
0.0
  0
LINE
  5
262
330
1F
100
AcDbEntity
  8
0
  6
Continuous
 62
     7
370
    15
100
AcDbLine
 10
663.1897604637
 20
1007.7887489396
 30
0.0
 11
622.2164799072
 21
1007.7887489396
 31
0.0
  0
LINE
  5
263
330
1F
100
AcDbEntity
  8
0
  6
Continuous
 62
     7
370
    15
100
AcDbLine
 10
698.9668477871
 20
1022.7887495357
 30
0.0
 11
726.523721645
 21
1022.7887495357
 31
0.0
  0
LINE
  5
264
330
1F
100
AcDbEntity
  8
0
  6
Continuous
 62
     7
370
    15
100
AcDbLine
 10
726.523721645
 20
1007.7887489396
 30
0.0
 11
685.5504410885
 21
1007.7887489396
 31
0.0
  0
LINE
  5
265
330
1F
100
AcDbEntity
  8
0
  6
Continuous
 62
     7
370
    15
100
AcDbLine
 10
727.8609928288
 20
1007.7887489396
 30
0.0
 11
726.523721645
 21
1007.7887489396
 31
0.0
  0
LINE
  5
266
330
1F
100
AcDbEntity
  8
0
  6
Continuous
 62
     7
370
    15
100
AcDbLine
 10
748.146636466
 20
1146.7887456465
 30
0.0
 11
752.0296108522
 21
1146.7887456465
 31
0.0
  0
LINE
  5
267
330
1F
100
AcDbEntity
  8
0
  6
Continuous
 62
     7
370
    15
100
AcDbLine
 10
620.8792087235
 20
1007.7887489396
 30
0.0
 11
613.6366148092
 21
1007.7887489396
 31
0.0
  0
LINE
  5
268
330
1F
100
AcDbEntity
  8
0
  6
Continuous
 62
     7
370
    15
100
AcDbLine
 10
615.1549500026
 20
1022.7887495357
 30
0.0
 11
622.2164799072
 21
1022.7887495357
 31
0.0
  0
LINE
  5
269
330
1F
100
AcDbEntity
  8
0
  6
Continuous
 62
     7
370
    15
100
AcDbLine
 10
726.523721645
 20
1022.7887495357
 30
0.0
 11
733.5852515496
 21
1022.7887495357
 31
0.0
  0
LINE
  5
26A
330
1F
100
AcDbEntity
  8
0
  6
Continuous
 62
     7
370
    15
100
AcDbLine
 10
735.103586743
 20
1007.7887489396
 30
0.0
 11
727.8609928288
 21
1007.7887489396
 31
0.0
  0
LINE
  5
26B
330
1F
100
AcDbEntity
  8
0
  6
Continuous
 62
     7
370
    15
100
AcDbLine
 10
752.0296108522
 20
1146.7887456465
 30
0.0
 11
765.0394198097
 21
1146.7887456465
 31
0.0
  0
LINE
  5
26C
330
1F
100
AcDbEntity
  8
0
  6
Continuous
 62
     7
370
    15
100
AcDbLine
 10
765.0394198097
 20
1146.7887456465
 30
0.0
 11
766.9953909315
 21
1146.7887456465
 31
0.0
  0
LINE
  5
26D
330
1F
100
AcDbEntity
  8
0
  6
Continuous
 62
     7
370
    15
100
AcDbLine
 10
762.6120132007
 20
1111.7887473601
 30
0.0
 11
759.1698673166
 21
1111.7887473601
 31
0.0
  0
LINE
  5
26E
330
1F
100
AcDbEntity
  8
0
  6
Continuous
 62
     7
370
    15
100
AcDbLine
 10
768.6835583843
 20
1146.7887456465
 30
0.0
 11
766.9953909315
 21
1146.7887456465
 31
0.0
  0
ELLIPSE
  5
26F
330
1F
100
AcDbEntity
  8
0
  6
Continuous
 62
     7
370
    15
100
AcDbEllipse
 10
763.513825261
 20
1116.7887460786
 30
0.0
 11
5.16973414241852
 21
0.0
 31
0.0
210
0.0
220
0.0
230
1.0
 40
0.9671677232
 41
4.712388980384703
 42
6.283185307179586
  0
LINE
  5
270
330
1F
100
AcDbEntity
  8
0
  6
Continuous
 62
     7
370
    15
100
AcDbLine
 10
763.5138240256
 20
1111.7887473601
 30
0.0
 11
762.6120132007
 21
1111.7887473601
 31
0.0
  0
LINE
  5
271
330
1F
100
AcDbEntity
  8
0
  6
Continuous
 62
     7
370
    15
100
AcDbLine
 10
613.6366148092
 20
1007.7887489396
 30
0.0
 11
613.1549496748
 21
1007.7887489396
 31
0.0
  0
LINE
  5
272
330
1F
100
AcDbEntity
  8
0
  6
Continuous
 62
     7
370
    15
100
AcDbLine
 10
735.5852518775
 20
1007.7887489396
 30
0.0
 11
735.103586743
 21
1007.7887489396
 31
0.0
  0
LINE
  5
273
330
1F
100
AcDbEntity
  8
0
  6
Continuous
 62
     7
370
    15
100
AcDbLine
 10
768.6835583843
 20
1146.7887456465
 30
0.0
 11
768.7275913157
 21
1146.7887456465
 31
0.0
  0
LINE
  5
274
330
1F
100
AcDbEntity
  8
0
  6
Continuous
 62
     7
370
    15
100
AcDbLine
 10
577.2296842732
 20
1090.2674212056
 30
0.0
 11
577.3006659545
 21
1090.2482955652
 31
0.0
  0
SPLINE
  5
275
330
1F
100
AcDbEntity
  8
0
  6
Continuous
 62
     7
370
    15
100
AcDbSpline
210
0.0
220
0.0
230
1.0
 70
    24
 71
     3
 72
     9
 73
     5
 74
     0
 42
0.00000001
 43
0.00000001
 12
1.0
 22
0.0
 32
0.0
 13
1.0
 23
0.0
 33
0.0
 40
0.0
 40
0.0
 40
0.0
 40
0.0
 40
0.2707154754649054
 40
0.9999999999999999
 40
0.9999999999999999
 40
0.9999999999999999
 40
0.9999999999999999
 10
576.3701033391204
 20
1088.442848523238
 30
0.0
 10
576.3701033391204
 20
1088.497333421006
 30
0.0
 10
576.3701033391204
 20
1088.698596011091
 30
0.0
 10
576.3701033391204
 20
1088.633956608267
 30
0.0
 10
576.3701033391204
 20
1088.586816092113
 30
0.0
  0
SPLINE
  5
276
330
1F
100
AcDbEntity
  8
0
  6
Continuous
 62
     7
370
    15
100
AcDbSpline
210
0.0
220
0.0
230
1.0
 70
    24
 71
     3
 72
     9
 73
     5
 74
     0
 42
0.00000001
 43
0.00000001
 12
1.0
 22
0.0
 32
0.0
 13
1.0
 23
0.0
 33
0.0
 40
0.0
 40
0.0
 40
0.0
 40
0.0
 40
0.7292845245350945
 40
0.9999999999999999
 40
0.9999999999999999
 40
0.9999999999999999
 40
0.9999999999999999
 10
772.370098213121
 20
1088.586816092113
 30
0.0
 10
772.370098213121
 20
1088.633956608267
 30
0.0
 10
772.370098213121
 20
1088.698596011091
 30
0.0
 10
772.370098213121
 20
1088.497333421006
 30
0.0
 10
772.370098213121
 20
1088.442848523238
 30
0.0
  0
LINE
  5
277
330
1F
100
AcDbEntity
  8
0
  6
Continuous
 62
     7
370
    15
100
AcDbLine
 10
677.5021413885
 20
1353.2218350965
 30
0.0
 11
683.9954425194
 21
1284.2926098901
 31
0.0
  0
LINE
  5
278
330
1F
100
AcDbEntity
  8
0
  6
Continuous
 62
     7
370
    15
100
AcDbLine
 10
689.2676782407
 20
1279.5941471058
 30
0.0
 11
729.2570081152
 21
1279.5941471058
 31
0.0
  0
ARC
  5
279
330
1F
100
AcDbEntity
  8
0
  6
Continuous
 62
     7
370
    15
100
AcDbCircle
 10
689.2889081491
 20
1284.9252396886
 30
0.0
 40
5.331134854369125
100
AcDbArc
 50
186.8151778139
 51
269.7718333151
  0
ARC
  5
27A
330
1F
100
AcDbEntity
  8
0
  6
Continuous
 62
     7
370
    15
100
AcDbCircle
 10
689.7700580895
 20
1353.2956110441
 30
0.0
 40
4.942372933366109
100
AcDbArc
 50
100.9010709933
 51
180.8552991616
  0
LINE
  5
27B
330
1F
100
AcDbEntity
  8
0
  6
Continuous
 62
     7
370
    15
100
AcDbLine
 10
684.8282358222
 20
1285.4637443024
 30
0.0
 11
684.8282358222
 21
1353.2218350965
 31
0.0
  0
ELLIPSE
  5
27C
330
1F
100
AcDbEntity
  8
0
  6
Continuous
 62
     7
370
    15
100
AcDbEllipse
 10
689.6578651437
 20
1285.4637455793
 30
0.0
 11
-1.626370277716205
 21
4.835421110376274
 31
0.0
210
0.0
220
0.0
230
1.0
 40
0.9411792146
 41
1.264216016859108
 42
2.835012343654045
  0
SPLINE
  5
27D
330
1F
100
AcDbEntity
  8
0
  6
Continuous
 62
     7
370
    15
100
AcDbSpline
210
0.0
220
0.0
230
1.0
 70
     8
 71
     3
 72
    12
 73
     8
 74
     0
 42
0.00000001
 43
0.00000001
 12
1.0
 22
0.0
 32
0.0
 13
1.0
 23
0.0
 33
0.0
 40
0.0
 40
0.0
 40
0.0
 40
0.0
 40
0.1587197312017941
 40
0.3618528802152643
 40
0.5618193081891235
 40
0.7661834214880697
 40
1.0
 40
1.0
 40
1.0
 40
1.0
 10
690.8524856515374
 20
1148.591941681781
 30
0.0
 10
689.6267747251444
 20
1149.217828765152
 30
0.0
 10
686.8323708683062
 20
1150.644740479861
 30
0.0
 10
682.1180007048498
 20
1151.985506474206
 30
0.0
 10
676.8991168598394
 20
1152.739165771087
 30
0.0
 10
671.3320680064905
 20
1152.767656298189
 30
0.0
 10
667.5990103685197
 20
1152.02321930428
 30
0.0
 10
665.6070221759525
 20
1151.625982013622
 30
0.0
  0
ARC
  5
27E
330
1F
100
AcDbEntity
  8
0
  6
Continuous
 62
     7
370
    15
100
AcDbCircle
 10
674.3701007761
 20
1117.7887460786
 30
0.0
 40
34.95354204731186
100
AcDbArc
 50
104.5193198234
 51
179.9999999999
  0
LINE
  5
27F
330
1F
100
AcDbEntity
  8
0
  6
Continuous
 62
     7
370
    15
100
AcDbLine
 10
639.4165587224
 20
1117.7887446183
 30
0.0
 11
639.4165587224
 21
1116.788746317
 31
0.0
  0
SPLINE
  5
280
330
1F
100
AcDbEntity
  8
0
  6
Continuous
 62
     7
370
    15
100
AcDbSpline
210
0.0
220
0.0
230
1.0
 70
     8
 71
     3
 72
    10
 73
     6
 74
     0
 42
0.00000001
 43
0.00000001
 12
1.0
 22
0.0
 32
0.0
 13
1.0
 23
0.0
 33
0.0
 40
0.0
 40
0.0
 40
0.0
 40
0.0
 40
0.5
 40
0.5
 40
1.0
 40
1.0
 40
1.0
 40
1.0
 10
639.4165587288096
 20
1116.78874607859
 30
0.0
 10
639.4165587288096
 20
1115.906131885662
 30
0.0
 10
639.4084013688189
 20
1115.023525354839
 30
0.0
 10
639.3855855512434
 20
1113.265476540752
 30
0.0
 10
639.370100776119
 20
1112.390464157965
 30
0.0
 10
639.3701007761186
 20
1111.520919202187
 30
0.0
  0
INSERT
  5
28C
330
1F
100
AcDbEntity
  8
SLD-0
 62
     7
100
AcDbBlockReference
  2
SW_CENTERMARKSYMBOL_0
 10
674.3701007761
 20
1117.7887460786
 30
0.0
  0
ARC
  5
28D
330
1F
100
AcDbEntity
  8
0
  6
Continuous
 62
     7
370
    15
100
AcDbCircle
 10
800.3701007761
 20
469.2520507158
 30
0.0
 40
3.0
100
AcDbArc
 50
0.0
 51
90.0
  0
ARC
  5
28E
330
1F
100
AcDbEntity
  8
0
  6
Continuous
 62
     7
370
    15
100
AcDbCircle
 10
800.3701007761
 20
469.2520507158
 30
0.0
 40
3.0
100
AcDbArc
 50
270.0
 51
0.0
  0
ARC
  5
28F
330
1F
100
AcDbEntity
  8
0
  6
Continuous
 62
     7
370
    15
100
AcDbCircle
 10
771.3701007761
 20
474.2520507158
 30
0.0
 40
3.0
100
AcDbArc
 50
0.0
 51
70.4572085695
  0
ARC
  5
290
330
1F
100
AcDbEntity
  8
0
  6
Continuous
 62
     7
370
    15
100
AcDbCircle
 10
771.3701007761
 20
464.2520507158
 30
0.0
 40
3.0
100
AcDbArc
 50
289.6945792304
 51
0.0
  0
SPLINE
  5
291
330
1F
100
AcDbEntity
  8
0
  6
Continuous
 62
     7
370
    15
100
AcDbSpline
210
0.0
220
0.0
230
1.0
 70
     8
 71
     3
 72
     9
 73
     5
 74
     0
 42
0.00000001
 43
0.00000001
 12
1.0
 22
0.0
 32
0.0
 13
1.0
 23
0.0
 33
0.0
 40
0.0
 40
0.0
 40
0.0
 40
0.0
 40
0.0416551609522632
 40
1.0
 40
1.0
 40
1.0
 40
1.0
 10
774.7500148214546
 20
466.1992966210241
 30
0.0
 10
774.7524003653671
 20
466.2014963362877
 30
0.0
 10
774.809669233332
 20
466.2543040847956
 30
0.0
 10
774.8216509154106
 20
466.2492628148362
 30
0.0
 10
774.8331334985937
 20
466.2444315397884
 30
0.0
  0
SPLINE
  5
292
330
1F
100
AcDbEntity
  8
0
  6
Continuous
 62
     7
370
    15
100
AcDbSpline
210
0.0
220
0.0
230
1.0
 70
     8
 71
     3
 72
     9
 73
     5
 74
     0
 42
0.00000001
 43
0.00000001
 12
1.0
 22
0.0
 32
0.0
 13
1.0
 23
0.0
 33
0.0
 40
0.0
 40
0.0
 40
0.0
 40
0.0
 40
0.6721397820542825
 40
1.0
 40
1.0
 40
1.0
 40
1.0
 10
774.8331558503355
 20
472.257817724138
 30
0.0
 10
774.8327740014003
 20
472.2522769597327
 30
0.0
 10
774.8322058919897
 20
472.2440334893219
 30
0.0
 10
774.7663752222006
 20
472.3033976729164
 30
0.0
 10
774.7447919644561
 20
472.3228608270879
 30
0.0
  0
SPLINE
  5
293
330
1F
100
AcDbEntity
  8
0
  6
Continuous
 62
     7
370
    15
100
AcDbSpline
210
0.0
220
0.0
230
1.0
 70
     8
 71
     3
 72
    12
 73
     8
 74
     0
 42
0.00000001
 43
0.00000001
 12
1.0
 22
0.0
 32
0.0
 13
1.0
 23
0.0
 33
0.0
 40
0.0
 40
0.0
 40
0.0
 40
0.0
 40
0.2381093436393169
 40
0.4200336852175452
 40
0.6098257761267866
 40
0.8929995551599273
 40
1.0
 40
1.0
 40
1.0
 40
1.0
 10
774.3701022662368
 20
465.1419700601842
 30
0.0
 10
774.3900571080482
 20
465.3370749062244
 30
0.0
 10
774.4252581867455
 20
465.6812470677765
 30
0.0
 10
774.5710573017154
 20
465.9759200939505
 30
0.0
 10
774.6801039075328
 20
466.1416971863245
 30
0.0
 10
774.7584764123661
 20
466.2061664700225
 30
0.0
 10
774.7459654224507
 20
466.1992459328968
 30
0.0
 10
774.7425344385352
 20
466.1973480613674
 30
0.0
  0
ARC
  5
294
330
1F
100
AcDbEntity
  8
0
  6
Continuous
 62
     7
370
    15
100
AcDbCircle
 10
775.9433734249
 20
473.3259702118
 30
0.0
 40
1.573686669707467
100
AcDbArc
 50
178.6833226973
 51
220.0301477289
  0
SPLINE
  5
295
330
1F
100
AcDbEntity
  8
0
  6
Continuous
 62
     7
370
    15
100
AcDbSpline
210
0.0
220
0.0
230
1.0
 70
     8
 71
     3
 72
    12
 73
     8
 74
     0
 42
0.00000001
 43
0.00000001
 12
1.0
 22
0.0
 32
0.0
 13
1.0
 23
0.0
 33
0.0
 40
0.0
 40
0.0
 40
0.0
 40
0.0
 40
0.2383532852748292
 40
0.4204647111323602
 40
0.6104507203600128
 40
0.8939147630462964
 40
1.0
 40
1.0
 40
1.0
 40
1.0
 10
774.3701022662368
 20
465.1419700601842
 30
0.0
 10
774.390056756596
 20
465.337074431172
 30
0.0
 10
774.4252572742436
 20
465.6812463308522
 30
0.0
 10
774.5710604544054
 20
465.975922219597
 30
0.0
 10
774.6800868176732
 20
466.1416837424192
 30
0.0
 10
774.7584116613231
 20
466.2061097127659
 30
0.0
 10
774.7459737783364
 20
466.1992378552681
 30
0.0
 10
774.7425865925993
 20
466.1973664549882
 30
0.0
  0
ARC
  5
296
330
1F
100
AcDbEntity
  8
0
  6
Continuous
 62
     7
370
    15
100
AcDbCircle
 10
775.9435260481
 20
473.3259866694
 30
0.0
 40
1.573838874582651
100
AcDbArc
 50
178.6840493536
 51
220.0188266995
  0
ARC
  5
297
330
1F
100
AcDbEntity
  8
0
  6
Continuous
 62
     7
370
    15
100
AcDbCircle
 10
548.3701007761
 20
469.2520507158
 30
0.0
 40
3.0
100
AcDbArc
 50
90.0
 51
180.0
  0
ARC
  5
298
330
1F
100
AcDbEntity
  8
0
  6
Continuous
 62
     7
370
    15
100
AcDbCircle
 10
548.3701007761
 20
469.2520507158
 30
0.0
 40
3.0
100
AcDbArc
 50
180.0
 51
270.0
  0
ARC
  5
299
330
1F
100
AcDbEntity
  8
0
  6
Continuous
 62
     7
370
    15
100
AcDbCircle
 10
577.3701007761
 20
464.2520507158
 30
0.0
 40
3.0
100
AcDbArc
 50
180.0
 51
250.4572085695
  0
ARC
  5
29A
330
1F
100
AcDbEntity
  8
0
  6
Continuous
 62
     7
370
    15
100
AcDbCircle
 10
577.3701007761
 20
474.2520507158
 30
0.0
 40
3.0
100
AcDbArc
 50
109.6945792304
 51
180.0
  0
SPLINE
  5
29B
330
1F
100
AcDbEntity
  8
0
  6
Continuous
 62
     7
370
    15
100
AcDbSpline
210
0.0
220
0.0
230
1.0
 70
     8
 71
     3
 72
     9
 73
     5
 74
     0
 42
0.00000001
 43
0.00000001
 12
1.0
 22
0.0
 32
0.0
 13
1.0
 23
0.0
 33
0.0
 40
0.0
 40
0.0
 40
0.0
 40
0.0
 40
0.6721397820542825
 40
1.0
 40
1.0
 40
1.0
 40
1.0
 10
573.9070457019059
 20
466.2462837075587
 30
0.0
 10
573.9074275508411
 20
466.251824471964
 30
0.0
 10
573.9079956602517
 20
466.2600679423747
 30
0.0
 10
573.9738263300407
 20
466.2007037587802
 30
0.0
 10
573.9954095877853
 20
466.1812406046088
 30
0.0
  0
SPLINE
  5
29C
330
1F
100
AcDbEntity
  8
0
  6
Continuous
 62
     7
370
    15
100
AcDbSpline
210
0.0
220
0.0
230
1.0
 70
     8
 71
     3
 72
     9
 73
     5
 74
     0
 42
0.00000001
 43
0.00000001
 12
1.0
 22
0.0
 32
0.0
 13
1.0
 23
0.0
 33
0.0
 40
0.0
 40
0.0
 40
0.0
 40
0.0
 40
0.0416551609522632
 40
1.0
 40
1.0
 40
1.0
 40
1.0
 10
573.9901867307868
 20
472.3048048106725
 30
0.0
 10
573.9878011868742
 20
472.3026050954089
 30
0.0
 10
573.9305323189094
 20
472.2497973469011
 30
0.0
 10
573.9185506368307
 20
472.2548386168605
 30
0.0
 10
573.9070680536477
 20
472.2596698919083
 30
0.0
  0
SPLINE
  5
29D
330
1F
100
AcDbEntity
  8
0
  6
Continuous
 62
     7
370
    15
100
AcDbSpline
210
0.0
220
0.0
230
1.0
 70
     8
 71
     3
 72
    12
 73
     8
 74
     0
 42
0.00000001
 43
0.00000001
 12
1.0
 22
0.0
 32
0.0
 13
1.0
 23
0.0
 33
0.0
 40
0.0
 40
0.0
 40
0.0
 40
0.0
 40
0.238107524931723
 40
0.4200331157880475
 40
0.609824581229989
 40
0.8929976858589449
 40
0.9999999999999999
 40
0.9999999999999999
 40
0.9999999999999999
 40
0.9999999999999999
 10
574.3700992860046
 20
473.3621313715125
 30
0.0
 10
574.350148611996
 20
473.1670273395264
 30
0.0
 10
574.3149546643531
 20
472.8228544517465
 30
0.0
 10
574.16914197234
 20
472.5281836626182
 30
0.0
 10
574.0600986528451
 20
472.36240483207
 30
0.0
 10
573.9817249881429
 20
472.2979350682278
 30
0.0
 10
573.9942360583416
 20
472.3048556829946
 30
0.0
 10
573.9976671137061
 20
472.3067536031599
 30
0.0
  0
ARC
  5
29E
330
1F
100
AcDbEntity
  8
0
  6
Continuous
 62
     7
370
    15
100
AcDbCircle
 10
572.7968281274
 20
465.1781312199
 30
0.0
 40
1.573686669707641
100
AcDbArc
 50
358.6833226973
 51
40.0301477288
  0
SPLINE
  5
29F
330
1F
100
AcDbEntity
  8
0
  6
Continuous
 62
     7
370
    15
100
AcDbSpline
210
0.0
220
0.0
230
1.0
 70
     8
 71
     3
 72
    12
 73
     8
 74
     0
 42
0.00000001
 43
0.00000001
 12
1.0
 22
0.0
 32
0.0
 13
1.0
 23
0.0
 33
0.0
 40
0.0
 40
0.0
 40
0.0
 40
0.0
 40
0.2383525155778555
 40
0.4204640560036389
 40
0.610450082027662
 40
0.8939134995469121
 40
1.0
 40
1.0
 40
1.0
 40
1.0
 10
574.3700992860046
 20
473.3621313715125
 30
0.0
 10
574.3501447253699
 20
473.1670275847303
 30
0.0
 10
574.3149440249289
 20
472.822856140459
 30
0.0
 10
574.1691411406603
 20
472.5281798403662
 30
0.0
 10
574.0601148408928
 20
472.3624183287483
 30
0.0
 10
573.9817898490007
 20
472.297991854554
 30
0.0
 10
573.9942277375881
 20
472.3048637733448
 30
0.0
 10
573.9976149596421
 20
472.3067352095391
 30
0.0
  0
LINE
  5
2A0
330
1F
100
AcDbEntity
  8
0
  6
Continuous
 62
     7
370
    15
100
AcDbLine
 10
677.8264283747
 20
601.9260444226
 30
0.0
 11
677.4695874736
 21
600.5942978443
 31
0.0
  0
LINE
  5
2A1
330
1F
100
AcDbEntity
  8
0
  6
Continuous
 62
     7
370
    15
100
AcDbLine
 10
681.3332909331
 20
599.5590247692
 30
0.0
 11
681.7316366904
 21
601.0456689181
 31
0.0
  0
LINE
  5
2A2
330
1F
100
AcDbEntity
  8
0
  6
Continuous
 62
     7
370
    15
100
AcDbLine
 10
677.3726835925
 20
607.9600461306
 30
0.0
 11
677.1811340548
 21
607.2451778235
 31
0.0
  0
LINE
  5
2A3
330
1F
100
AcDbEntity
  8
0
  6
Continuous
 62
     7
370
    15
100
AcDbLine
 10
677.4589147497
 20
608.0892093958
 30
0.0
 11
677.4050344791
 21
607.9819061341
 31
0.0
  0
LINE
  5
2A4
330
1F
100
AcDbEntity
  8
0
  6
Continuous
 62
     7
370
    15
100
AcDbLine
 10
685.100089813
 20
605.8894999804
 30
0.0
 11
685.1099012964
 21
606.1078317942
 31
0.0
  0
ARC
  5
2A5
330
1F
100
AcDbEntity
  8
0
  6
Continuous
 62
     7
370
    15
100
AcDbCircle
 10
680.0337861379
 20
602.4366080936
 30
0.0
 40
6.499999999999992
100
AcDbArc
 50
43.9823638146
 51
106.0176361854
  0
LINE
  5
2A6
330
1F
100
AcDbEntity
  8
0
  6
Continuous
 62
     7
370
    15
100
AcDbLine
 10
733.8916305997
 20
587.0694377007
 30
0.0
 11
733.493285308
 21
585.5827935518
 31
0.0
  0
LINE
  5
2A7
330
1F
100
AcDbEntity
  8
0
  6
Continuous
 62
     7
370
    15
100
AcDbLine
 10
737.3569887675
 20
584.5475130262
 30
0.0
 11
737.7453726329
 21
585.996993679
 31
0.0
  0
LINE
  5
2A8
330
1F
100
AcDbEntity
  8
0
  6
Continuous
 62
     7
370
    15
100
AcDbLine
 10
741.0316523709
 20
590.5341364922
 30
0.0
 11
741.1237862505
 21
590.8779956879
 31
0.0
  0
LINE
  5
2A9
330
1F
100
AcDbEntity
  8
0
  6
Continuous
 62
     7
370
    15
100
AcDbLine
 10
733.4826123513
 20
593.0777125539
 30
0.0
 11
733.4287334778
 21
592.9704018416
 31
0.0
  0
LINE
  5
2AA
330
1F
100
AcDbEntity
  8
0
  6
Continuous
 62
     7
370
    15
100
AcDbLine
 10
741.1237862505
 20
590.8779956879
 30
0.0
 11
741.1335986652
 21
591.0963200511
 31
0.0
  0
ARC
  5
2AB
330
1F
100
AcDbEntity
  8
0
  6
Continuous
 62
     7
370
    15
100
AcDbCircle
 10
736.0574840627
 20
587.4251034776
 30
0.0
 40
6.499999999999992
100
AcDbArc
 50
43.9823638146
 51
106.0176361854
  0
LINE
  5
2AC
330
1F
100
AcDbEntity
  8
0
  6
Continuous
 62
     7
370
    15
100
AcDbLine
 10
669.9248883486
 20
572.4370934548
 30
0.0
 11
669.4141468577
 21
570.5309816183
 31
0.0
  0
LINE
  5
2AD
330
1F
100
AcDbEntity
  8
0
  6
Continuous
 62
     7
370
    15
100
AcDbLine
 10
673.2778500844
 20
569.4957085432
 30
0.0
 11
673.7885918663
 21
571.4018203797
 31
0.0
  0
LINE
  5
2AE
330
1F
100
AcDbEntity
  8
0
  6
Continuous
 62
     7
370
    15
100
AcDbLine
 10
720.0882454015
 20
598.2703276457
 30
0.0
 11
720.10118706
 21
598.3186223091
 31
0.0
  0
LINE
  5
2AF
330
1F
100
AcDbEntity
  8
0
  6
Continuous
 62
     7
370
    15
100
AcDbLine
 10
699.2991064288
 20
603.892520863
 30
0.0
 11
699.2861647703
 21
603.8442261996
 31
0.0
  0
LINE
  5
2B0
330
1F
100
AcDbEntity
  8
0
  6
Continuous
 62
     7
370
    15
100
AcDbLine
 10
738.2309418716
 20
591.6728683295
 30
0.0
 11
681.2413214319
 21
606.9431908907
 31
0.0
  0
SPLINE
  5
2B1
330
1F
100
AcDbEntity
  8
0
  6
Continuous
 62
     7
370
    15
100
AcDbSpline
210
0.0
220
0.0
230
1.0
 70
     8
 71
     3
 72
    15
 73
    11
 74
     0
 42
0.00000001
 43
0.00000001
 12
1.0
 22
0.0
 32
0.0
 13
1.0
 23
0.0
 33
0.0
 40
0.0
 40
0.0
 40
0.0
 40
0.0
 40
0.1127078965766954
 40
0.219872296803491
 40
0.3293853036466634
 40
0.4560124429049431
 40
0.6132187827228558
 40
0.7803863563983706
 40
0.9394137820169735
 40
1.0
 40
1.0
 40
1.0
 40
1.0
 10
742.9426443375793
 20
587.2340582789625
 30
0.0
 10
742.9833541963089
 20
587.4987615148398
 30
0.0
 10
743.062771614372
 20
588.0151486555053
 30
0.0
 10
742.8445201412603
 20
588.7499708367761
 30
0.0
 10
742.4589545036223
 20
589.3839953205993
 30
0.0
 10
741.8726946093649
 20
589.9804054065008
 30
0.0
 10
741.0396108209382
 20
590.5629744542344
 30
0.0
 10
739.9535806590433
 20
591.1043595040727
 30
0.0
 10
738.9694422594694
 20
591.4659319418449
 30
0.0
 10
738.3906241256167
 20
591.6281235068896
 30
0.0
 10
738.2309418715682
 20
591.67286832945
 30
0.0
  0
SPLINE
  5
2B2
330
1F
100
AcDbEntity
  8
0
  6
Continuous
 62
     7
370
    15
100
AcDbSpline
210
0.0
220
0.0
230
1.0
 70
     8
 71
     3
 72
    15
 73
    11
 74
     0
 42
0.00000001
 43
0.00000001
 12
1.0
 22
0.0
 32
0.0
 13
1.0
 23
0.0
 33
0.0
 40
0.0
 40
0.0
 40
0.0
 40
0.0
 40
0.0815962351968372
 40
0.2376381515951714
 40
0.3974093250183019
 40
0.5672459989721922
 40
0.7066724470912276
 40
0.8222275385943608
 40
0.9331896333796059
 40
1.0
 40
1.0
 40
1.0
 40
1.0
 10
681.24132143186
 20
606.943190890714
 30
0.0
 10
681.0246419774776
 20
606.9977599681431
 30
0.0
 10
680.3935919675858
 20
607.1566851276583
 30
0.0
 10
679.3369985219816
 20
607.3251886322558
 30
0.0
 10
678.1307130974634
 20
607.3854022620164
 30
0.0
 10
677.0903178062796
 20
607.2766420899712
 30
0.0
 10
676.2339301343544
 20
606.9958784099257
 30
0.0
 10
675.5617764811741
 20
606.5450997655665
 30
0.0
 10
675.1271351986433
 20
606.0020457757336
 30
0.0
 10
674.9921838795191
 20
605.604374976514
 30
0.0
 10
674.941466535363
 20
605.4549225153173
 30
0.0
  0
SPLINE
  5
2B3
330
1F
100
AcDbEntity
  8
0
  6
Continuous
 62
     7
370
    15
100
AcDbSpline
210
0.0
220
0.0
230
1.0
 70
     8
 71
     3
 72
    16
 73
    12
 74
     0
 42
0.00000001
 43
0.00000001
 12
1.0
 22
0.0
 32
0.0
 13
1.0
 23
0.0
 33
0.0
 40
0.0
 40
0.0
 40
0.0
 40
0.0
 40
0.3147778535536576
 40
0.6025899420663167
 40
0.7249589459447698
 40
0.7574722702380533
 40
0.7798331895034265
 40
0.8054134437014268
 40
0.8479655029964607
 40
0.9445120016947093
 40
1.0
 40
1.0
 40
1.0
 40
1.0
 10
682.2501160748449
 20
408.6976990582194
 30
0.0
 10
682.3455183416618
 20
408.7261847163745
 30
0.0
 10
682.5281501430582
 20
408.7807157798011
 30
0.0
 10
682.7499502176382
 20
408.8253519460206
 30
0.0
 10
682.8912889840298
 20
408.8492937430844
 30
0.0
 10
682.9402302436781
 20
408.8567972992197
 30
0.0
 10
682.9552364973467
 20
408.859052298638
 30
0.0
 10
682.9655250494561
 20
408.8605637472095
 30
0.0
 10
682.9744486065823
 20
408.8618729603596
 30
0.0
 10
682.9783862726849
 20
408.8624249626467
 30
0.0
 10
682.9765453035997
 20
408.8621676710195
 30
0.0
 10
682.9758734055009
 20
408.8620737673487
 30
0.0
  0
LINE
  5
2B4
330
1F
100
AcDbEntity
  8
0
  6
Continuous
 62
     7
370
    15
100
AcDbLine
 10
774.4761687316
 20
472.2520507419
 30
0.0
 11
800.3701028027
 21
472.2520507419
 31
0.0
  0
LINE
  5
2B5
330
1F
100
AcDbEntity
  8
0
  6
Continuous
 62
     7
370
    15
100
AcDbLine
 10
800.3701028027
 20
466.2520506898
 30
0.0
 11
774.4761687316
 21
466.2520506898
 31
0.0
  0
LINE
  5
2B6
330
1F
100
AcDbEntity
  8
0
  6
Continuous
 62
     7
370
    15
100
AcDbLine
 10
774.3701022662
 20
474.2520506041
 30
0.0
 11
774.3701022662
 21
473.3621332342
 31
0.0
  0
LINE
  5
2B7
330
1F
100
AcDbEntity
  8
0
  6
Continuous
 62
     7
370
    15
100
AcDbLine
 10
774.3701022662
 20
465.1419681975
 30
0.0
 11
774.3701022662
 21
464.2520508276
 31
0.0
  0
LINE
  5
2B8
330
1F
100
AcDbEntity
  8
0
  6
Continuous
 62
     7
370
    15
100
AcDbLine
 10
548.3700987496
 20
472.2520507419
 30
0.0
 11
574.2640328206
 21
472.2520507419
 31
0.0
  0
LINE
  5
2B9
330
1F
100
AcDbEntity
  8
0
  6
Continuous
 62
     7
370
    15
100
AcDbLine
 10
574.2640328206
 20
466.2520506898
 30
0.0
 11
548.3700987496
 21
466.2520506898
 31
0.0
  0
LINE
  5
2BA
330
1F
100
AcDbEntity
  8
0
  6
Continuous
 62
     7
370
    15
100
AcDbLine
 10
574.370099286
 20
464.2520508276
 30
0.0
 11
574.370099286
 21
465.1419681975
 31
0.0
  0
LINE
  5
2BB
330
1F
100
AcDbEntity
  8
0
  6
Continuous
 62
     7
370
    15
100
AcDbLine
 10
574.370099286
 20
473.3621332342
 30
0.0
 11
574.370099286
 21
474.2520506041
 31
0.0
  0
LWPOLYLINE
  5
2BC
330
1F
100
AcDbEntity
  8
0
  6
Continuous
 62
     7
370
    15
100
AcDbPolyline
 90
       17
 70
   128
 43
0.0
 10
681.3332909331
 20
599.5590247692
 10
681.1184860379
 20
599.3455656351
 10
680.6422765911
 20
599.2434181751
 10
679.9771609329
 20
599.2681243004
 10
679.2243966445
 20
599.4159289183
 10
678.4985857628
 20
599.6643163742
 10
677.9102257531
 20
599.9754675211
 10
677.5488898236
 20
600.3020413698
 10
677.4695874736
 20
600.5942978443
 10
677.6843923688
 20
600.8077420773
 10
678.1606018156
 20
600.9098895373
 10
678.8257174738
 20
600.885183412
 10
679.5784817621
 20
600.7373936953
 10
680.3042931095
 20
600.4890062393
 10
680.8926528864
 20
600.1778401913
 10
681.2539888159
 20
599.8512663426
 10
681.3332909331
 20
599.5590247692
  0
LWPOLYLINE
  5
2BD
330
1F
100
AcDbEntity
  8
0
  6
Continuous
 62
     7
370
    15
100
AcDbPolyline
 90
       11
 70
   128
 43
0.0
 10
677.6140800756
 20
608.2643576445
 10
677.8723619025
 20
608.5298367323
 10
678.4961401098
 20
608.7430574478
 10
679.3950554527
 20
608.8040628018
 10
680.4811149448
 20
608.7068476261
 10
681.6480076485
 20
608.4609635653
 10
682.7815101095
 20
608.0904610934
 10
683.770667816
 20
607.6316096367
 10
684.5186539538
 20
607.1293361963
 10
684.9522507362
 20
606.6327848019
 10
685.0445867129
 20
606.3160308184
  0
LWPOLYLINE
  5
2BE
330
1F
100
AcDbEntity
  8
0
  6
Continuous
 62
     7
370
    15
100
AcDbPolyline
 90
       17
 70
   128
 43
0.0
 10
737.3569887675
 20
584.5475130262
 10
737.1421810784
 20
584.3340687932
 10
736.6659734942
 20
584.2319213332
 10
736.0008601643
 20
584.2566274585
 10
735.248094479
 20
584.4044171752
 10
734.5222849943
 20
584.6528046312
 10
733.9339238204
 20
584.9639706792
 10
733.5725892879
 20
585.2905370774
 10
733.493285308
 20
585.5827935518
 10
733.7080892719
 20
585.7962377848
 10
734.1843005814
 20
585.8983852448
 10
734.8494139113
 20
585.8736791195
 10
735.6021795966
 20
585.7258819522
 10
736.3279890813
 20
585.4774944963
 10
736.9163539805
 20
585.1663358988
 10
737.2776847877
 20
584.8397695007
 10
737.3569887675
 20
584.5475130262
  0
LWPOLYLINE
  5
2BF
330
1F
100
AcDbEntity
  8
0
  6
Continuous
 62
     7
370
    15
100
AcDbPolyline
 90
       11
 70
   128
 43
0.0
 10
733.6377781429
 20
593.252853352
 10
733.8960599698
 20
593.5183398904
 10
734.5198374786
 20
593.7315606059
 10
735.4187537529
 20
593.7925510587
 10
736.5048137106
 20
593.6953507842
 10
737.6717087425
 20
593.4494592728
 10
738.8052102722
 20
593.0789568009
 10
739.7943642534
 20
592.6201127948
 10
740.5423503913
 20
592.1178319039
 10
740.9759518303
 20
591.62128796
 10
741.0682868756
 20
591.3045339765
  0
LWPOLYLINE
  5
2C0
330
1F
100
AcDbEntity
  8
0
  6
Continuous
 62
     7
370
    15
100
AcDbPolyline
 90
        3
 70
   128
 43
0.0
 10
673.2778500844
 20
569.4957085432
 10
673.063045422
 20
569.2822568597
 10
672.9866008353
 20
569.252052206
  0
LWPOLYLINE
  5
2C1
330
1F
100
AcDbEntity
  8
0
  6
Continuous
 62
     7
370
    15
100
AcDbPolyline
 90
       14
 70
   128
 43
0.0
 10
671.6137643051
 20
569.252052206
 10
671.1689557959
 20
569.3526126923
 10
670.4431446813
 20
569.6010001482
 10
669.8547849044
 20
569.9121587457
 10
669.493448975
 20
570.2387251438
 10
669.4141468577
 20
570.5309816183
 10
669.6289517529
 20
570.7444333019
 10
670.1051611997
 20
570.8465733113
 10
670.7702768579
 20
570.8218746366
 10
671.5230411463
 20
570.6740774693
 10
672.2488522608
 20
570.4256900133
 10
672.8372119213
 20
570.1145239653
 10
673.1985479672
 20
569.7879575671
 10
673.2778500844
 20
569.4957085432
  0
LWPOLYLINE
  5
2C2
330
1F
100
AcDbEntity
  8
0
  6
Continuous
 62
     7
370
    15
100
AcDbPolyline
 90
        7
 70
   128
 43
0.0
 10
719.1352602638
 20
598.5774405779
 10
719.3852607705
 20
598.5104598583
 10
719.6182217993
 20
598.4480388941
 10
719.8182736136
 20
598.3944245161
 10
719.9717779257
 20
598.3532973112
 10
720.0682741203
 20
598.3274437966
 10
720.10118706
 20
598.3186223091
  0
LINE
  5
2C3
330
1F
100
AcDbEntity
  8
0
  6
Continuous
 62
     7
370
    15
100
AcDbLine
 10
700.2650313623
 20
603.6337025942
 30
0.0
 11
719.1352602638
 21
598.5774405779
 31
0.0
  0
LWPOLYLINE
  5
2C4
330
1F
100
AcDbEntity
  8
0
  6
Continuous
 62
     7
370
    15
100
AcDbPolyline
 90
        7
 70
   128
 43
0.0
 10
699.2991064288
 20
603.892520863
 10
699.3320193686
 20
603.8836993756
 10
699.4285155632
 20
603.8578458609
 10
699.5820180126
 20
603.816718656
 10
699.7820679642
 20
603.7631191792
 10
700.0150308557
 20
603.7006982149
 10
700.2650313623
 20
603.6337025942
  0
LINE
  5
2C5
330
1F
100
AcDbEntity
  8
0
  6
Continuous
 62
     7
370
    15
100
AcDbLine
 10
701.11448882
 20
603.457853991
 30
0.0
 11
701.1015471615
 21
603.4095593275
 31
0.0
  0
LINE
  5
2C6
330
1F
100
AcDbEntity
  8
0
  6
Continuous
 62
     7
370
    15
100
AcDbLine
 10
701.11448882
 20
603.457853991
 30
0.0
 11
718.3116842605
 21
598.849878508
 31
0.0
  0
LINE
  5
2C7
330
1F
100
AcDbEntity
  8
0
  6
Continuous
 62
     7
370
    15
100
AcDbLine
 10
718.3116842605
 20
598.849878508
 30
0.0
 11
718.298742602
 21
598.8015838446
 31
0.0
  0
LINE
  5
2C8
330
1F
100
AcDbEntity
  8
0
  6
Continuous
 62
     7
370
    15
100
AcDbLine
 10
736.8956339158
 20
586.6894208373
 30
0.0
 11
679.9060106822
 21
601.9597508492
 31
0.0
  0
LWPOLYLINE
  5
2C9
330
1F
100
AcDbEntity
  8
0
  6
Continuous
 62
     7
370
    15
100
AcDbPolyline
 90
        6
 70
   128
 43
0.0
 10
665.751700344
 20
571.1582459988
 10
665.7590549983
 20
570.7625233115
 10
665.9777109124
 20
570.3253232421
 10
666.3992656939
 20
569.8634319486
 10
667.0075189866
 20
569.3946041645
 10
667.2283113547
 20
569.252052206
  0
LINE
  5
2CA
330
1F
100
AcDbEntity
  8
0
  6
Continuous
 62
     7
370
    15
100
AcDbLine
 10
673.8956620355
 20
601.5519209685
 30
0.0
 11
665.751700344
 21
571.1582459988
 31
0.0
  0
LWPOLYLINE
  5
2CB
330
1F
100
AcDbEntity
  8
0
  6
Continuous
 62
     7
370
    15
100
AcDbPolyline
 90
        9
 70
   128
 43
0.0
 10
679.9060106822
 20
601.9597508492
 10
678.8221919522
 20
602.2113718571
 10
677.7606327631
 20
602.3809619726
 10
676.7621292345
 20
602.4620093884
 10
675.865052788
 20
602.4513699593
 10
675.1038777255
 20
602.3494907202
 10
674.5078555358
 20
602.1602608742
 10
674.0998910062
 20
601.8909521879
 10
673.8956620355
 20
601.5519209685
  0
LWPOLYLINE
  5
2CC
330
1F
100
AcDbEntity
  8
0
  6
Continuous
 62
     7
370
    15
100
AcDbPolyline
 90
        9
 70
   128
 43
0.0
 10
741.8968435921
 20
583.3310641827
 10
741.8894824185
 20
583.7267868699
 10
741.6708302297
 20
584.1639869394
 10
741.2492763795
 20
584.6258782329
 10
740.6410184302
 20
585.0947060169
 10
739.8694437541
 20
585.5524473371
 10
738.9641982116
 20
585.9815188231
 10
737.9600611128
 20
586.3654248895
 10
736.8956339158
 20
586.6894208373
  0
LINE
  5
2CD
330
1F
100
AcDbEntity
  8
0
  6
Continuous
 62
     7
370
    15
100
AcDbLine
 10
737.5884783067
 20
567.2520481528
 30
0.0
 11
741.8968435921
 21
583.3310641827
 31
0.0
  0
LWPOLYLINE
  5
2CE
330
1F
100
AcDbEntity
  8
0
  6
Continuous
 62
     7
370
    15
100
AcDbPolyline
 90
        6
 70
   128
 43
0.0
 10
668.2270165146
 20
569.252052206
 10
667.9022466377
 20
569.4553189458
 10
667.4220469393
 20
569.8254414381
 10
667.0892406799
 20
570.1900877537
 10
666.9166172467
 20
570.535250801
 10
666.9108109161
 20
570.847661096
  0
LINE
  5
2CF
330
1F
100
AcDbEntity
  8
0
  6
Continuous
 62
     7
370
    15
100
AcDbLine
 10
736.3461498715
 20
567.2520481528
 30
0.0
 11
740.7377269663
 21
583.6416490854
 31
0.0
  0
LWPOLYLINE
  5
2D0
330
1F
100
AcDbEntity
  8
0
  6
Continuous
 62
     7
370
    15
100
AcDbPolyline
 90
        9
 70
   128
 43
0.0
 10
736.789407263
 20
586.2929828943
 10
737.6297470726
 20
586.0371970119
 10
738.4224813976
 20
585.7341073932
 10
739.1371559896
 20
585.3953741969
 10
739.7462931074
 20
585.0339986862
 10
740.2264904775
 20
584.6638687433
 10
740.5593004622
 20
584.2992224278
 10
740.731922964
 20
583.9540593805
 10
740.7377269663
 20
583.6416490854
  0
LINE
  5
2D1
330
1F
100
AcDbEntity
  8
0
  6
Continuous
 62
     7
370
    15
100
AcDbLine
 10
736.789407263
 20
586.2929828943
 30
0.0
 11
679.7997854263
 21
601.5633054556
 31
0.0
  0
LWPOLYLINE
  5
2D2
330
1F
100
AcDbEntity
  8
0
  6
Continuous
 62
     7
370
    15
100
AcDbPolyline
 90
        9
 70
   128
 43
0.0
 10
675.0547730442
 20
601.2413360657
 10
675.2160064605
 20
601.5089907231
 10
675.5380837092
 20
601.721600491
 10
676.0086275716
 20
601.8709995331
 10
676.6095553138
 20
601.9514360012
 10
677.317773512
 20
601.959825355
 10
678.1060658939
 20
601.8958397688
 10
678.9441383988
 20
601.7619528355
 10
679.7997854263
 20
601.5633054556
  0
LINE
  5
2D3
330
1F
100
AcDbEntity
  8
0
  6
Continuous
 62
     7
370
    15
100
AcDbLine
 10
675.0547730442
 20
601.2413360657
 30
0.0
 11
666.9108109161
 21
570.847661096
 31
0.0
  0
LINE
  5
2D4
330
1F
100
AcDbEntity
  8
0
  6
Continuous
 62
     7
370
    15
100
AcDbLine
 10
742.9426443376
 20
587.234058279
 30
0.0
 11
741.8968435921
 21
583.3310641827
 31
0.0
  0
LINE
  5
2D5
330
1F
100
AcDbEntity
  8
0
  6
Continuous
 62
     7
370
    15
100
AcDbLine
 10
673.8956620355
 20
601.5519209685
 30
0.0
 11
674.9414665354
 21
605.4549225153
 31
0.0
  0
LWPOLYLINE
  5
2D6
330
1F
100
AcDbEntity
  8
0
  6
Continuous
 62
     7
370
    15
100
AcDbPolyline
 90
        9
 70
   128
 43
0.0
 10
730.1648315586
 20
595.5703117432
 10
730.7301592626
 20
595.4188414396
 10
731.2737647988
 20
595.273182589
 10
731.774753014
 20
595.1389380278
 10
732.2138716079
 20
595.021278459
 10
732.5742450155
 20
594.9247189345
 10
732.8420300581
 20
594.8529549422
 10
733.0069300331
 20
594.8087729992
 10
733.0626082219
 20
594.7938569369
  0
ARC
  5
2D7
330
1F
100
AcDbEntity
  8
0
  6
Continuous
 62
     7
370
    15
100
AcDbCircle
 10
732.5449718309
 20
592.8620052313
 30
0.0
 40
2.000000000000061
100
AcDbArc
 50
24.7655702545
 51
75.0
  0
LINE
  5
2D8
330
1F
100
AcDbEntity
  8
0
  6
Continuous
 62
     7
370
    15
100
AcDbLine
 10
690.1755035468
 20
606.2854238333
 30
0.0
 11
730.1648315586
 21
595.5703117432
 31
0.0
  0
ARC
  5
2D9
330
1F
100
AcDbEntity
  8
0
  6
Continuous
 62
     7
370
    15
100
AcDbCircle
 10
686.7600876648
 20
605.1300279691
 30
0.0
 40
1.999999999999951
100
AcDbArc
 50
75.0
 51
152.6654072805
  0
LWPOLYLINE
  5
2DA
330
1F
100
AcDbEntity
  8
0
  6
Continuous
 62
     7
370
    15
100
AcDbPolyline
 90
       10
 70
   128
 43
0.0
 10
687.2777259521
 20
607.0618786396
 10
687.3217495702
 20
607.05007692
 10
687.4524830453
 20
607.0150591912
 10
687.6659542866
 20
606.9578536333
 10
687.9556766324
 20
606.8802185835
 10
688.312848153
 20
606.7845233263
 10
688.7266142838
 20
606.6736437859
 10
689.184404964
 20
606.5509923281
 10
689.6723090284
 20
606.4202495398
 10
690.1755035468
 20
606.2854238333
  0
LINE
  5
2DB
330
1F
100
AcDbEntity
  8
0
  6
Continuous
 62
     7
370
    15
100
AcDbLine
 10
739.5857479967
 20
585.1379566373
 30
0.0
 11
734.7932365336
 21
567.2520481528
 31
0.0
  0
ARC
  5
2DC
330
1F
100
AcDbEntity
  8
0
  6
Continuous
 62
     7
370
    15
100
AcDbCircle
 10
668.9439775223
 20
573.662599604
 30
0.0
 40
0.7493455654093352
100
AcDbArc
 50
176.0990407692
 51
236.6968268291
  0
LINE
  5
2DD
330
1F
100
AcDbEntity
  8
0
  6
Continuous
 62
     7
370
    15
100
AcDbLine
 10
668.1963680856
 20
573.7135790767
 30
0.0
 11
675.7202273546
 21
601.7930068554
 31
0.0
  0
LINE
  5
2DE
330
1F
100
AcDbEntity
  8
0
  6
Continuous
 62
     7
370
    15
100
AcDbLine
 10
734.7707544066
 20
584.5548145951
 30
0.0
 11
730.1344927944
 21
567.2520481528
 31
0.0
  0
ARC
  5
2DF
330
1F
100
AcDbEntity
  8
0
  6
Continuous
 62
     7
370
    15
100
AcDbCircle
 10
735.3382043135
 20
589.6943948593
 30
0.0
 40
3.531761732343508
100
AcDbArc
 50
223.0567946764
 51
243.2718705102
  0
LINE
  5
2E0
330
1F
100
AcDbEntity
  8
0
  6
Continuous
 62
     7
370
    15
100
AcDbLine
 10
732.6444406606
 20
587.4036185922
 30
0.0
 11
732.7576261558
 21
587.2831799568
 31
0.0
  0
LINE
  5
2E1
330
1F
100
AcDbEntity
  8
0
  6
Continuous
 62
     7
370
    15
100
AcDbLine
 10
682.8205884047
 20
600.6637670578
 30
0.0
 11
682.9788266294
 21
600.711480576
 31
0.0
  0
ARC
  5
2E2
330
1F
100
AcDbEntity
  8
0
  6
Continuous
 62
     7
370
    15
100
AcDbCircle
 10
681.7914199023
 20
604.0417806194
 30
0.0
 40
3.531311856615145
100
AcDbArc
 50
266.7265067665
 51
286.9442368609
  0
LINE
  5
2E3
330
1F
100
AcDbEntity
  8
0
  6
Continuous
 62
     7
370
    15
100
AcDbLine
 10
672.8097838894
 20
573.5444136442
 30
0.0
 11
679.7129815057
 21
599.3074931683
 31
0.0
  0
LWPOLYLINE
  5
2E4
330
1F
100
AcDbEntity
  8
0
  6
Continuous
 62
     7
370
    15
100
AcDbPolyline
 90
        9
 70
   128
 43
0.0
 10
673.8670066659
 20
572.4422790589
 10
673.6092374738
 20
572.5813664974
 10
673.3813176941
 20
572.7248199763
 10
673.1870091133
 20
572.8702553095
 10
673.0295186242
 20
573.015295762
 10
672.9114455482
 20
573.1575273456
 10
672.8347385613
 20
573.294610578
 10
672.8006639131
 20
573.4242879333
 10
672.8097838894
 20
573.5444136442
  0
ARC
  5
2E5
330
1F
100
AcDbEntity
  8
0
  6
Continuous
 62
     7
370
    15
100
AcDbCircle
 10
672.3304414144
 20
569.0577746057
 30
0.0
 40
3.716975001996783
100
AcDbArc
 50
43.3125842649
 51
65.5819481474
  0
LINE
  5
2E6
330
1F
100
AcDbEntity
  8
0
  6
Continuous
 62
     7
370
    15
100
AcDbLine
 10
675.1554504697
 20
571.480193037
 30
0.0
 11
675.0349946049
 21
571.6075383605
 31
0.0
  0
LINE
  5
2E7
330
1F
100
AcDbEntity
  8
0
  6
Continuous
 62
     7
370
    15
100
AcDbLine
 10
674.734470809
 20
569.9090742053
 30
0.0
 11
673.4787672138
 21
570.2455349745
 31
0.0
  0
LWPOLYLINE
  5
2E8
330
1F
100
AcDbEntity
  8
0
  6
Continuous
 62
     7
370
    15
100
AcDbPolyline
 90
        7
 70
   128
 43
0.0
 10
668.4317393772
 20
572.6601414861
 10
668.4356099539
 20
572.4518679561
 10
668.5506925531
 20
572.2217567744
 10
668.7725633927
 20
571.9786592306
 10
669.0926962145
 20
571.7319109024
 10
669.4987891786
 20
571.4909889282
 10
669.6506427214
 20
571.4135997476
  0
LINE
  5
2E9
330
1F
100
AcDbEntity
  8
0
  6
Continuous
 62
     7
370
    15
100
AcDbLine
 10
668.4317393772
 20
572.6601414861
 30
0.0
 11
676.2710749716
 21
601.9169398131
 31
0.0
  0
LINE
  5
2EA
330
1F
100
AcDbEntity
  8
0
  6
Continuous
 62
     7
370
    15
100
AcDbLine
 10
739.1370963849
 20
585.3954039993
 30
0.0
 11
734.2755962707
 21
567.2520481528
 31
0.0
  0
LWPOLYLINE
  5
2EB
330
1F
100
AcDbEntity
  8
0
  6
Continuous
 62
     7
370
    15
100
AcDbPolyline
 90
        5
 70
   128
 43
0.0
 10
672.03378287
 20
572.5801893057
 10
672.7595938681
 20
572.3318018498
 10
673.347953645
 20
572.0206432523
 10
673.7092896909
 20
571.6940768542
 10
673.7885918663
 20
571.4018203797
  0
LWPOLYLINE
  5
2EC
330
1F
100
AcDbEntity
  8
0
  6
Continuous
 62
     7
370
    15
100
AcDbPolyline
 90
        5
 70
   128
 43
0.0
 10
669.9248883486
 20
572.4370934548
 10
670.1396932438
 20
572.6505451383
 10
670.6159029234
 20
572.7526925983
 10
671.2810185816
 20
572.727986473
 10
672.03378287
 20
572.5801893057
  0
LWPOLYLINE
  5
2ED
330
1F
100
AcDbEntity
  8
0
  6
Continuous
 62
     7
370
    15
100
AcDbPolyline
 90
        3
 70
   128
 43
0.0
 10
681.480545605
 20
600.1085795941
 10
681.6300922617
 20
600.1136161865
 10
681.8144340612
 20
600.1083113732
  0
ARC
  5
2EE
330
1F
100
AcDbEntity
  8
0
  6
Continuous
 62
     7
370
    15
100
AcDbCircle
 10
682.2792496989
 20
604.8648524636
 30
0.0
 40
4.779198334671003
100
AcDbArc
 50
264.4186999464
 51
286.6869743631
  0
ARC
  5
2EF
330
1F
100
AcDbEntity
  8
0
  6
Continuous
 62
     7
370
    15
100
AcDbCircle
 10
684.1604542603
 20
598.6098424724
 30
0.0
 40
1.752583626146724
100
AcDbArc
 50
85.3246752757
 51
106.879925885
  0
ARC
  5
2F0
330
1F
100
AcDbEntity
  8
0
  6
Continuous
 62
     7
370
    15
100
AcDbCircle
 10
730.5703350269
 20
586.1743734335
 30
0.0
 40
1.752551309414302
100
AcDbArc
 50
43.1205112122
 51
64.6761126188
  0
ARC
  5
2F1
330
1F
100
AcDbEntity
  8
0
  6
Continuous
 62
     7
370
    15
100
AcDbCircle
 10
735.32692234
 20
590.6506782934
 30
0.0
 40
4.779104101479405
100
AcDbArc
 50
223.3128041935
 51
245.5815405226
  0
LWPOLYLINE
  5
2F2
330
1F
100
AcDbEntity
  8
0
  6
Continuous
 62
     7
370
    15
100
AcDbPolyline
 90
        3
 70
   128
 43
0.0
 10
733.3512511648
 20
586.2990625681
 10
733.5135508873
 20
586.2114884438
 10
733.640538583
 20
586.1323558273
  0
LINE
  5
2F3
330
1F
100
AcDbEntity
  8
0
  6
Continuous
 62
     7
370
    15
100
AcDbLine
 10
733.8591460683
 20
585.0163482608
 30
0.0
 11
729.099215994
 21
567.2520481528
 31
0.0
  0
ARC
  5
2F4
330
1F
100
AcDbEntity
  8
0
  6
Continuous
 62
     7
370
    15
100
AcDbCircle
 10
671.4264271198
 20
566.4840155869
 30
0.0
 40
6.81125097299956
100
AcDbArc
 50
55.1854709432
 51
63.7274680978
  0
LWPOLYLINE
  5
2F5
330
1F
100
AcDbEntity
  8
0
  6
Continuous
 62
     7
370
    15
100
AcDbPolyline
 90
        9
 70
   128
 43
0.0
 10
674.4413684899
 20
572.5916557492
 10
674.2790693859
 20
572.6792298736
 10
674.135564357
 20
572.7695532622
 10
674.0132218654
 20
572.8611283483
 10
673.9140611861
 20
572.9524426641
 10
673.8397188563
 20
573.0419986428
 10
673.7914219228
 20
573.1283136191
 10
673.7699675103
 20
573.2099570812
 10
673.775709696
 20
573.2855953755
  0
LINE
  5
2F6
330
1F
100
AcDbEntity
  8
0
  6
Continuous
 62
     7
370
    15
100
AcDbLine
 10
673.775709696
 20
573.2855953755
 30
0.0
 11
680.7332253628
 21
599.2513902964
 31
0.0
  0
LINE
  5
2F7
330
1F
100
AcDbEntity
  8
0
  6
Continuous
 62
     7
370
    15
100
AcDbLine
 10
731.6777017512
 20
583.8297464432
 30
0.0
 11
727.2357177533
 21
567.2520481528
 31
0.0
  0
ARC
  5
2F8
330
1F
100
AcDbEntity
  8
0
  6
Continuous
 62
     7
370
    15
100
AcDbCircle
 10
703.4095976366
 20
577.6289284255
 30
0.0
 40
10.99999999999998
100
AcDbArc
 50
301.8878091919
 51
229.5996490148
  0
LINE
  5
2F9
330
1F
100
AcDbEntity
  8
0
  6
Continuous
 62
     7
370
    15
100
AcDbLine
 10
674.7030182121
 20
569.791690308
 30
0.0
 11
682.0291127622
 21
597.1330412211
 31
0.0
  0
LWPOLYLINE
  5
2FA
330
1F
100
AcDbEntity
  8
0
  6
Continuous
 62
     7
370
    15
100
AcDbPolyline
 90
        3
 70
   128
 43
0.0
 10
674.7030182121
 20
569.791690308
 10
674.639152039
 20
569.4048561634
 10
674.6349908897
 20
569.252052206
  0
LINE
  5
2FB
330
1F
100
AcDbEntity
  8
0
  6
Continuous
 62
     7
370
    15
100
AcDbLine
 10
728.7764717437
 20
520.7579404594
 30
0.0
 11
728.5790015556
 21
513.5706522049
 31
0.0
  0
LINE
  5
2FC
330
1F
100
AcDbEntity
  8
0
  6
Continuous
 62
     7
370
    15
100
AcDbLine
 10
728.5790015556
 20
513.5706522049
 30
0.0
 11
722.2558912434
 21
510.1480231168
 31
0.0
  0
LINE
  5
2FD
330
1F
100
AcDbEntity
  8
0
  6
Continuous
 62
     7
370
    15
100
AcDbLine
 10
722.6508316197
 20
524.5225996258
 30
0.0
 11
728.7764717437
 21
520.7579404594
 31
0.0
  0
LINE
  5
2FE
330
1F
100
AcDbEntity
  8
0
  6
Continuous
 62
     7
370
    15
100
AcDbLine
 10
716.3277213074
 20
521.0999705376
 30
0.0
 11
722.6508316197
 21
524.5225996258
 31
0.0
  0
LINE
  5
2FF
330
1F
100
AcDbEntity
  8
0
  6
Continuous
 62
     7
370
    15
100
AcDbLine
 10
722.2558912434
 20
510.1480231168
 30
0.0
 11
716.1302548446
 21
513.9126822831
 31
0.0
  0
LINE
  5
300
330
1F
100
AcDbEntity
  8
0
  6
Continuous
 62
     7
370
    15
100
AcDbLine
 10
716.1302548446
 20
513.9126822831
 30
0.0
 11
716.3277213074
 21
521.0999705376
 31
0.0
  0
ARC
  5
301
330
1F
100
AcDbEntity
  8
0
  6
Continuous
 62
     7
370
    15
100
AcDbCircle
 10
722.4533618968
 20
517.3353118365
 30
0.0
 40
7.190000000000098
100
AcDbArc
 50
148.4262004732
 51
208.4262004732
  0
ARC
  5
302
330
1F
100
AcDbEntity
  8
0
  6
Continuous
 62
     7
370
    15
100
AcDbCircle
 10
722.4533618968
 20
517.3353118365
 30
0.0
 40
7.190000000000098
100
AcDbArc
 50
88.4262004732
 51
148.4262004732
  0
ARC
  5
303
330
1F
100
AcDbEntity
  8
0
  6
Continuous
 62
     7
370
    15
100
AcDbCircle
 10
722.4533618968
 20
517.3353118365
 30
0.0
 40
7.190000000000074
100
AcDbArc
 50
208.4262004732
 51
268.4262004732
  0
ARC
  5
304
330
1F
100
AcDbEntity
  8
0
  6
Continuous
 62
     7
370
    15
100
AcDbCircle
 10
722.4533618968
 20
517.3353118365
 30
0.0
 40
7.189999999999979
100
AcDbArc
 50
268.4262004732
 51
328.4262004732
  0
ARC
  5
305
330
1F
100
AcDbEntity
  8
0
  6
Continuous
 62
     7
370
    15
100
AcDbCircle
 10
722.4533618968
 20
517.3353118365
 30
0.0
 40
7.189999999999974
100
AcDbArc
 50
328.4262004732
 51
28.4262004732
  0
ARC
  5
306
330
1F
100
AcDbEntity
  8
0
  6
Continuous
 62
     7
370
    15
100
AcDbCircle
 10
722.4533618968
 20
517.3353118365
 30
0.0
 40
7.190000000000032
100
AcDbArc
 50
28.4262004732
 51
88.4262004732
  0
LINE
  5
307
330
1F
100
AcDbEntity
  8
0
  6
Continuous
 62
     7
370
    15
100
AcDbLine
 10
632.4124802448
 20
521.0999705376
 30
0.0
 11
632.6099467077
 21
513.9126822831
 31
0.0
  0
LINE
  5
308
330
1F
100
AcDbEntity
  8
0
  6
Continuous
 62
     7
370
    15
100
AcDbLine
 10
632.6099467077
 20
513.9126822831
 30
0.0
 11
626.4843103089
 21
510.1480231168
 31
0.0
  0
LINE
  5
309
330
1F
100
AcDbEntity
  8
0
  6
Continuous
 62
     7
370
    15
100
AcDbLine
 10
620.1611999966
 20
513.5706522049
 30
0.0
 11
619.9637298085
 21
520.7579404594
 31
0.0
  0
LINE
  5
30A
330
1F
100
AcDbEntity
  8
0
  6
Continuous
 62
     7
370
    15
100
AcDbLine
 10
626.0893699326
 20
524.5225996258
 30
0.0
 11
632.4124802448
 21
521.0999705376
 31
0.0
  0
LINE
  5
30B
330
1F
100
AcDbEntity
  8
0
  6
Continuous
 62
     7
370
    15
100
AcDbLine
 10
619.9637298085
 20
520.7579404594
 30
0.0
 11
626.0893699326
 21
524.5225996258
 31
0.0
  0
LINE
  5
30C
330
1F
100
AcDbEntity
  8
0
  6
Continuous
 62
     7
370
    15
100
AcDbLine
 10
626.4843103089
 20
510.1480231168
 30
0.0
 11
620.1611999966
 21
513.5706522049
 31
0.0
  0
ARC
  5
30D
330
1F
100
AcDbEntity
  8
0
  6
Continuous
 62
     7
370
    15
100
AcDbCircle
 10
626.2868396554
 20
517.3353118365
 30
0.0
 40
7.19000000000002
100
AcDbArc
 50
331.5737995268
 51
31.5737995268
  0
ARC
  5
30E
330
1F
100
AcDbEntity
  8
0
  6
Continuous
 62
     7
370
    15
100
AcDbCircle
 10
626.2868396554
 20
517.3353118365
 30
0.0
 40
7.19000000000002
100
AcDbArc
 50
151.5737995268
 51
211.5737995268
  0
ARC
  5
30F
330
1F
100
AcDbEntity
  8
0
  6
Continuous
 62
     7
370
    15
100
AcDbCircle
 10
626.2868396554
 20
517.3353118365
 30
0.0
 40
7.19000000000002
100
AcDbArc
 50
271.5737995268
 51
331.5737995268
  0
ARC
  5
310
330
1F
100
AcDbEntity
  8
0
  6
Continuous
 62
     7
370
    15
100
AcDbCircle
 10
626.2868396554
 20
517.3353118365
 30
0.0
 40
7.190000000000001
100
AcDbArc
 50
211.5737995268
 51
271.5737995268
  0
ARC
  5
311
330
1F
100
AcDbEntity
  8
0
  6
Continuous
 62
     7
370
    15
100
AcDbCircle
 10
626.2868396554
 20
517.3353118365
 30
0.0
 40
7.190000000000036
100
AcDbArc
 50
31.5737995268
 51
91.5737995268
  0
ARC
  5
312
330
1F
100
AcDbEntity
  8
0
  6
Continuous
 62
     7
370
    15
100
AcDbCircle
 10
626.2868396554
 20
517.3353118365
 30
0.0
 40
7.190000000000036
100
AcDbArc
 50
91.5737995268
 51
151.5737995268
  0
LINE
  5
313
330
1F
100
AcDbEntity
  8
0
  6
Continuous
 62
     7
370
    15
100
AcDbLine
 10
729.640649686
 20
420.9713198723
 30
0.0
 11
725.8759905197
 21
414.8456797482
 31
0.0
  0
LINE
  5
314
330
1F
100
AcDbEntity
  8
0
  6
Continuous
 62
     7
370
    15
100
AcDbLine
 10
725.8759905197
 20
414.8456797482
 30
0.0
 11
718.6887022652
 21
415.0431499364
 31
0.0
  0
LINE
  5
315
330
1F
100
AcDbEntity
  8
0
  6
Continuous
 62
     7
370
    15
100
AcDbLine
 10
719.0307323434
 20
427.4918966474
 30
0.0
 11
726.2180205979
 21
427.2944301845
 31
0.0
  0
LINE
  5
316
330
1F
100
AcDbEntity
  8
0
  6
Continuous
 62
     7
370
    15
100
AcDbLine
 10
726.2180205979
 20
427.2944301845
 30
0.0
 11
729.640649686
 21
420.9713198723
 31
0.0
  0
LINE
  5
317
330
1F
100
AcDbEntity
  8
0
  6
Continuous
 62
     7
370
    15
100
AcDbLine
 10
715.266073177
 20
421.3662602486
 30
0.0
 11
719.0307323434
 21
427.4918966474
 31
0.0
  0
LINE
  5
318
330
1F
100
AcDbEntity
  8
0
  6
Continuous
 62
     7
370
    15
100
AcDbLine
 10
718.6887022652
 20
415.0431499364
 30
0.0
 11
715.266073177
 21
421.3662602486
 31
0.0
  0
ARC
  5
319
330
1F
100
AcDbEntity
  8
0
  6
Continuous
 62
     7
370
    15
100
AcDbCircle
 10
722.4533618968
 20
421.1687895952
 30
0.0
 40
7.190000000000049
100
AcDbArc
 50
58.4262004732
 51
118.4262004732
  0
ARC
  5
31A
330
1F
100
AcDbEntity
  8
0
  6
Continuous
 62
     7
370
    15
100
AcDbCircle
 10
722.4533618968
 20
421.1687895952
 30
0.0
 40
7.190000000000049
100
AcDbArc
 50
358.4262004732
 51
58.4262004732
  0
ARC
  5
31B
330
1F
100
AcDbEntity
  8
0
  6
Continuous
 62
     7
370
    15
100
AcDbCircle
 10
722.4533618968
 20
421.1687895952
 30
0.0
 40
7.190000000000036
100
AcDbArc
 50
118.4262004732
 51
178.4262004732
  0
ARC
  5
31C
330
1F
100
AcDbEntity
  8
0
  6
Continuous
 62
     7
370
    15
100
AcDbCircle
 10
722.4533618968
 20
421.1687895952
 30
0.0
 40
7.190000000000036
100
AcDbArc
 50
178.4262004732
 51
238.4262004732
  0
ARC
  5
31D
330
1F
100
AcDbEntity
  8
0
  6
Continuous
 62
     7
370
    15
100
AcDbCircle
 10
722.4533618968
 20
421.1687895952
 30
0.0
 40
7.189999999999974
100
AcDbArc
 50
298.4262004732
 51
358.4262004732
  0
ARC
  5
31E
330
1F
100
AcDbEntity
  8
0
  6
Continuous
 62
     7
370
    15
100
AcDbCircle
 10
722.4533618968
 20
421.1687895952
 30
0.0
 40
7.189999999999974
100
AcDbArc
 50
238.4262004732
 51
298.4262004732
  0
LINE
  5
31F
330
1F
100
AcDbEntity
  8
0
  6
Continuous
 62
     7
370
    15
100
AcDbLine
 10
622.5221809544
 20
427.2944301845
 30
0.0
 11
629.7094692089
 21
427.4918966474
 31
0.0
  0
LINE
  5
320
330
1F
100
AcDbEntity
  8
0
  6
Continuous
 62
     7
370
    15
100
AcDbLine
 10
619.0995518662
 20
420.9713198723
 30
0.0
 11
622.5221809544
 21
427.2944301845
 31
0.0
  0
LINE
  5
321
330
1F
100
AcDbEntity
  8
0
  6
Continuous
 62
     7
370
    15
100
AcDbLine
 10
630.0514992871
 20
415.0431499364
 30
0.0
 11
622.8642110326
 21
414.8456797482
 31
0.0
  0
LINE
  5
322
330
1F
100
AcDbEntity
  8
0
  6
Continuous
 62
     7
370
    15
100
AcDbLine
 10
622.8642110326
 20
414.8456797482
 30
0.0
 11
619.0995518662
 21
420.9713198723
 31
0.0
  0
LINE
  5
323
330
1F
100
AcDbEntity
  8
0
  6
Continuous
 62
     7
370
    15
100
AcDbLine
 10
633.4741283752
 20
421.3662602486
 30
0.0
 11
630.0514992871
 21
415.0431499364
 31
0.0
  0
LINE
  5
324
330
1F
100
AcDbEntity
  8
0
  6
Continuous
 62
     7
370
    15
100
AcDbLine
 10
629.7094692089
 20
427.4918966474
 30
0.0
 11
633.4741283752
 21
421.3662602486
 31
0.0
  0
ARC
  5
325
330
1F
100
AcDbEntity
  8
0
  6
Continuous
 62
     7
370
    15
100
AcDbCircle
 10
626.2868396554
 20
421.1687895952
 30
0.0
 40
7.189999999999919
100
AcDbArc
 50
121.5737995268
 51
181.5737995268
  0
ARC
  5
326
330
1F
100
AcDbEntity
  8
0
  6
Continuous
 62
     7
370
    15
100
AcDbCircle
 10
626.2868396554
 20
421.1687895952
 30
0.0
 40
7.190000000000028
100
AcDbArc
 50
61.5737995268
 51
121.5737995268
  0
ARC
  5
327
330
1F
100
AcDbEntity
  8
0
  6
Continuous
 62
     7
370
    15
100
AcDbCircle
 10
626.2868396554
 20
421.1687895952
 30
0.0
 40
7.189999999999974
100
AcDbArc
 50
181.5737995268
 51
241.5737995268
  0
ARC
  5
328
330
1F
100
AcDbEntity
  8
0
  6
Continuous
 62
     7
370
    15
100
AcDbCircle
 10
626.2868396554
 20
421.1687895952
 30
0.0
 40
7.190000000000049
100
AcDbArc
 50
241.5737995268
 51
301.5737995268
  0
ARC
  5
329
330
1F
100
AcDbEntity
  8
0
  6
Continuous
 62
     7
370
    15
100
AcDbCircle
 10
626.2868396554
 20
421.1687895952
 30
0.0
 40
7.190000000000049
100
AcDbArc
 50
301.5737995268
 51
1.5737995268
  0
ARC
  5
32A
330
1F
100
AcDbEntity
  8
0
  6
Continuous
 62
     7
370
    15
100
AcDbCircle
 10
626.2868396554
 20
421.1687895952
 30
0.0
 40
7.190000000000031
100
AcDbArc
 50
1.5737995268
 51
61.5737995268
  0
ARC
  5
32B
330
1F
100
AcDbEntity
  8
0
  6
Continuous
 62
     7
370
    15
100
AcDbCircle
 10
640.5951100285
 20
449.7520507158
 30
0.0
 40
6.00000000000007
100
AcDbArc
 50
122.6052512651
 51
297.3947487349
  0
ARC
  5
32C
330
1F
100
AcDbEntity
  8
0
  6
Continuous
 62
     7
370
    15
100
AcDbCircle
 10
674.3701007761
 20
469.2520507158
 30
0.0
 40
36.00000000000001
100
AcDbArc
 50
225.5462043307
 51
314.4537956693
  0
ARC
  5
32D
330
1F
100
AcDbEntity
  8
0
  6
Continuous
 62
     7
370
    15
100
AcDbCircle
 10
645.6564125706
 20
439.9856175605
 30
0.0
 40
5.000000000000036
100
AcDbArc
 50
45.5462043307
 51
117.3947487349
  0
ARC
  5
32E
330
1F
100
AcDbEntity
  8
0
  6
Continuous
 62
     7
370
    15
100
AcDbCircle
 10
685.358731264
 20
508.7520507158
 30
0.0
 40
5.000000000000044
100
AcDbArc
 50
182.6052512651
 51
254.4537956693
  0
ARC
  5
32F
330
1F
100
AcDbEntity
  8
0
  6
Continuous
 62
     7
370
    15
100
AcDbCircle
 10
674.3701007761
 20
508.2520507158
 30
0.0
 40
6.000000000000078
100
AcDbArc
 50
2.6052512651
 51
177.3947487349
  0
ARC
  5
330
330
1F
100
AcDbEntity
  8
0
  6
Continuous
 62
     7
370
    15
100
AcDbCircle
 10
674.3701007761
 20
469.2520507158
 30
0.0
 40
35.99999999999999
100
AcDbArc
 50
345.5462043307
 51
74.4537956693
  0
ARC
  5
331
330
1F
100
AcDbEntity
  8
0
  6
Continuous
 62
     7
370
    15
100
AcDbCircle
 10
663.3814702882
 20
508.7520507158
 30
0.0
 40
5.000000000000074
100
AcDbArc
 50
285.5462043307
 51
357.3947487349
  0
ARC
  5
332
330
1F
100
AcDbEntity
  8
0
  6
Continuous
 62
     7
370
    15
100
AcDbCircle
 10
714.0724194696
 20
459.0184838712
 30
0.0
 40
4.999999999999949
100
AcDbArc
 50
165.5462043307
 51
237.3947487349
  0
ARC
  5
333
330
1F
100
AcDbEntity
  8
0
  6
Continuous
 62
     7
370
    15
100
AcDbCircle
 10
674.3701007761
 20
469.2520507158
 30
0.0
 40
35.99999999999996
100
AcDbArc
 50
105.5462043307
 51
194.4537956693
  0
ARC
  5
334
330
1F
100
AcDbEntity
  8
0
  6
Continuous
 62
     7
370
    15
100
AcDbCircle
 10
708.1450915237
 20
449.7520507158
 30
0.0
 40
5.999999999999989
100
AcDbArc
 50
242.6052512651
 51
57.3947487349
  0
ARC
  5
335
330
1F
100
AcDbEntity
  8
0
  6
Continuous
 62
     7
370
    15
100
AcDbCircle
 10
634.6677820827
 20
459.0184838712
 30
0.0
 40
5.000000000000057
100
AcDbArc
 50
302.6052512651
 51
14.4537956693
  0
ARC
  5
336
330
1F
100
AcDbEntity
  8
0
  6
Continuous
 62
     7
370
    15
100
AcDbCircle
 10
703.0837889816
 20
439.9856175605
 30
0.0
 40
4.999999999999991
100
AcDbArc
 50
62.6052512651
 51
134.4537956693
  0
CIRCLE
  5
337
330
1F
100
AcDbEntity
  8
0
  6
Continuous
 62
     7
370
    15
100
AcDbCircle
 10
674.3701007761
 20
469.2520507158
 30
0.0
 40
25.0
  0
CIRCLE
  5
338
330
1F
100
AcDbEntity
  8
0
  6
Continuous
 62
     7
370
    15
100
AcDbCircle
 10
640.5951100285
 20
449.7520507158
 30
0.0
 40
2.5
  0
CIRCLE
  5
339
330
1F
100
AcDbEntity
  8
0
  6
Continuous
 62
     7
370
    15
100
AcDbCircle
 10
674.3701007761
 20
508.2520507158
 30
0.0
 40
2.5
  0
CIRCLE
  5
33A
330
1F
100
AcDbEntity
  8
0
  6
Continuous
 62
     7
370
    15
100
AcDbCircle
 10
708.1450915237
 20
449.7520507158
 30
0.0
 40
2.5
  0
CIRCLE
  5
33B
330
1F
100
AcDbEntity
  8
0
  6
Continuous
 62
     7
370
    15
100
AcDbCircle
 10
708.1450915237
 20
449.7520507158
 30
0.0
 40
2.100000000000023
  0
CIRCLE
  5
33C
330
1F
100
AcDbEntity
  8
0
  6
Continuous
 62
     7
370
    15
100
AcDbCircle
 10
640.5951100285
 20
449.7520507158
 30
0.0
 40
2.100000000000023
  0
CIRCLE
  5
33D
330
1F
100
AcDbEntity
  8
0
  6
Continuous
 62
     7
370
    15
100
AcDbCircle
 10
674.3701007761
 20
508.2520507158
 30
0.0
 40
2.100000000000023
  0
ARC
  5
33E
330
1F
100
AcDbEntity
  8
0
  6
Continuous
 62
     7
370
    15
100
AcDbCircle
 10
674.3701007761
 20
469.2520507158
 30
0.0
 40
60.99999999999991
100
AcDbArc
 50
327.7860739307
 51
32.2139260693
  0
SPLINE
  5
33F
330
1F
100
AcDbEntity
  8
0
  6
Continuous
 62
     7
370
    15
100
AcDbSpline
210
0.0
220
0.0
230
1.0
 70
     8
 71
     3
 72
    12
 73
     8
 74
     0
 42
0.00000001
 43
0.00000001
 12
1.0
 22
0.0
 32
0.0
 13
1.0
 23
0.0
 33
0.0
 40
0.0
 40
0.0
 40
0.0
 40
0.0
 40
0.0033602808459721
 40
0.2260383746389615
 40
0.5243428997068316
 40
0.7836139279632343
 40
1.0
 40
1.0
 40
1.0
 40
1.0
 10
722.0244836606231
 20
439.840153652593
 30
0.0
 10
722.0293016204789
 20
439.8381196552252
 30
0.0
 10
722.3533947141212
 20
439.7012973239671
 30
0.0
 10
723.1077863247449
 20
439.3835589005339
 30
0.0
 10
724.1494878433053
 20
438.8854107356011
 30
0.0
 10
725.00611358616
 20
438.3390858872073
 30
0.0
 10
725.299077786109
 20
437.9312807538747
 30
0.0
 10
725.432353148624
 20
437.745761919185
 30
0.0
  0
SPLINE
  5
340
330
1F
100
AcDbEntity
  8
0
  6
Continuous
 62
     7
370
    15
100
AcDbSpline
210
0.0
220
0.0
230
1.0
 70
     8
 71
     3
 72
    12
 73
     8
 74
     0
 42
0.00000001
 43
0.00000001
 12
1.0
 22
0.0
 32
0.0
 13
1.0
 23
0.0
 33
0.0
 40
0.0
 40
0.0
 40
0.0
 40
0.0
 40
0.2163860720367657
 40
0.4756571002931684
 40
0.7739616253610384
 40
0.9966397191540278
 40
1.0
 40
1.0
 40
1.0
 40
1.0
 10
725.432353148624
 20
500.7583395125116
 30
0.0
 10
725.299077786109
 20
500.5728206778219
 30
0.0
 10
725.00611358616
 20
500.1650155444893
 30
0.0
 10
724.1494878433053
 20
499.6186906960955
 30
0.0
 10
723.107786324745
 20
499.1205425311628
 30
0.0
 10
722.353394714121
 20
498.8028041077295
 30
0.0
 10
722.0293016204789
 20
498.6659817764714
 30
0.0
 10
722.0244836606231
 20
498.6639477791036
 30
0.0
  0
LINE
  5
341
330
1F
100
AcDbEntity
  8
0
  6
Continuous
 62
     7
370
    15
100
AcDbLine
 10
624.5524194636
 20
530.2260637762
 30
0.0
 11
642.8638119795
 21
520.3143030884
 31
0.0
  0
SPLINE
  5
342
330
1F
100
AcDbEntity
  8
0
  6
Continuous
 62
     7
370
    15
100
AcDbSpline
210
0.0
220
0.0
230
1.0
 70
     8
 71
     3
 72
    12
 73
     8
 74
     0
 42
0.00000001
 43
0.00000001
 12
1.0
 22
0.0
 32
0.0
 13
1.0
 23
0.0
 33
0.0
 40
0.0
 40
0.0
 40
0.0
 40
0.0
 40
0.2163860720367657
 40
0.4756571002931684
 40
0.7739616253610384
 40
0.9966397191540278
 40
1.0
 40
1.0
 40
1.0
 40
1.0
 10
642.8638119794574
 20
520.3143030883516
 30
0.0
 10
643.0493308141471
 20
520.1810277258368
 30
0.0
 10
643.4571359474796
 20
519.8880635258878
 30
0.0
 10
644.0034607958736
 20
519.031437783033
 30
0.0
 10
644.5016089608063
 20
517.9897362644726
 30
0.0
 10
644.8193473842394
 20
517.2353446538486
 30
0.0
 10
644.9561697154976
 20
516.9112515602064
 30
0.0
 10
644.9582037128654
 20
516.9064336003507
 30
0.0
  0
LINE
  5
343
330
1F
100
AcDbEntity
  8
0
  6
Continuous
 62
     7
370
    15
100
AcDbLine
 10
613.3960877158
 20
419.4343694033
 30
0.0
 11
623.3078484036
 21
437.7457619192
 31
0.0
  0
SPLINE
  5
344
330
1F
100
AcDbEntity
  8
0
  6
Continuous
 62
     7
370
    15
100
AcDbSpline
210
0.0
220
0.0
230
1.0
 70
     8
 71
     3
 72
    12
 73
     8
 74
     0
 42
0.00000001
 43
0.00000001
 12
1.0
 22
0.0
 32
0.0
 13
1.0
 23
0.0
 33
0.0
 40
0.0
 40
0.0
 40
0.0
 40
0.0
 40
0.2163860720367657
 40
0.4756571002931684
 40
0.7739616253610384
 40
0.9966397191540278
 40
1.0
 40
1.0
 40
1.0
 40
1.0
 10
623.3078484036174
 20
437.745761919185
 30
0.0
 10
623.4411237661323
 20
437.9312807538747
 30
0.0
 10
623.7340879660812
 20
438.3390858872073
 30
0.0
 10
624.590713708936
 20
438.8854107356011
 30
0.0
 10
625.6324152274964
 20
439.3835589005339
 30
0.0
 10
626.3868068381204
 20
439.7012973239671
 30
0.0
 10
626.7108999317625
 20
439.8381196552252
 30
0.0
 10
626.7157178916183
 20
439.840153652593
 30
0.0
  0
ARC
  5
345
330
1F
100
AcDbEntity
  8
0
  6
Continuous
 62
     7
370
    15
100
AcDbCircle
 10
674.3701007761
 20
469.2520507158
 30
0.0
 40
61.00000000000001
100
AcDbArc
 50
237.7860739307
 51
302.2139260693
  0
SPLINE
  5
346
330
1F
100
AcDbEntity
  8
0
  6
Continuous
 62
     7
370
    15
100
AcDbSpline
210
0.0
220
0.0
230
1.0
 70
     8
 71
     3
 72
    12
 73
     8
 74
     0
 42
0.00000001
 43
0.00000001
 12
1.0
 22
0.0
 32
0.0
 13
1.0
 23
0.0
 33
0.0
 40
0.0
 40
0.0
 40
0.0
 40
0.0
 40
0.0033602808459721
 40
0.2260383746389615
 40
0.5243428997068316
 40
0.7836139279632343
 40
1.0
 40
1.0
 40
1.0
 40
1.0
 10
644.9582037128654
 20
421.5976678313459
 30
0.0
 10
644.9561697154976
 20
421.5928498714901
 30
0.0
 10
644.8193473842394
 20
421.2687567778478
 30
0.0
 10
644.5016089608063
 20
420.5143651672241
 30
0.0
 10
644.0034607958736
 20
419.4726636486636
 30
0.0
 10
643.4571359474796
 20
418.6160379058089
 30
0.0
 10
643.0493308141471
 20
418.3230737058599
 30
0.0
 10
642.8638119794574
 20
418.189798343345
 30
0.0
  0
SPLINE
  5
347
330
1F
100
AcDbEntity
  8
0
  6
Continuous
 62
     7
370
    15
100
AcDbSpline
210
0.0
220
0.0
230
1.0
 70
     8
 71
     3
 72
    12
 73
     8
 74
     0
 42
0.00000001
 43
0.00000001
 12
1.0
 22
0.0
 32
0.0
 13
1.0
 23
0.0
 33
0.0
 40
0.0
 40
0.0
 40
0.0
 40
0.0
 40
0.2163860720367657
 40
0.4756571002931684
 40
0.7739616253610384
 40
0.9966397191540278
 40
1.0
 40
1.0
 40
1.0
 40
1.0
 10
705.876389572784
 20
418.189798343345
 30
0.0
 10
705.6908707380943
 20
418.3230737058599
 30
0.0
 10
705.2830656047616
 20
418.6160379058089
 30
0.0
 10
704.7367407563679
 20
419.4726636486637
 30
0.0
 10
704.2385925914351
 20
420.514365167224
 30
0.0
 10
703.9208541680018
 20
421.268756777848
 30
0.0
 10
703.7840318367438
 20
421.5928498714901
 30
0.0
 10
703.781997839376
 20
421.5976678313459
 30
0.0
  0
ARC
  5
348
330
1F
100
AcDbEntity
  8
0
  6
Continuous
 62
     7
370
    15
100
AcDbCircle
 10
674.3701007761
 20
469.2520507158
 30
0.0
 40
61.0
100
AcDbArc
 50
57.7860739307
 51
122.2139260693
  0
SPLINE
  5
349
330
1F
100
AcDbEntity
  8
0
  6
Continuous
 62
     7
370
    15
100
AcDbSpline
210
0.0
220
0.0
230
1.0
 70
     8
 71
     3
 72
    12
 73
     8
 74
     0
 42
0.00000001
 43
0.00000001
 12
1.0
 22
0.0
 32
0.0
 13
1.0
 23
0.0
 33
0.0
 40
0.0
 40
0.0
 40
0.0
 40
0.0
 40
0.0033602808459721
 40
0.2260383746389615
 40
0.5243428997068316
 40
0.7836139279632343
 40
1.0
 40
1.0
 40
1.0
 40
1.0
 10
703.781997839376
 20
516.9064336003507
 30
0.0
 10
703.7840318367438
 20
516.9112515602064
 30
0.0
 10
703.9208541680018
 20
517.2353446538489
 30
0.0
 10
704.2385925914351
 20
517.9897362644726
 30
0.0
 10
704.7367407563679
 20
519.031437783033
 30
0.0
 10
705.2830656047616
 20
519.8880635258878
 30
0.0
 10
705.6908707380943
 20
520.1810277258368
 30
0.0
 10
705.876389572784
 20
520.3143030883516
 30
0.0
  0
ARC
  5
34A
330
1F
100
AcDbEntity
  8
0
  6
Continuous
 62
     7
370
    15
100
AcDbCircle
 10
674.3701007761
 20
469.2520507158
 30
0.0
 40
61.00000000000001
100
AcDbArc
 50
147.7860739307
 51
212.2139260693
  0
SPLINE
  5
34B
330
1F
100
AcDbEntity
  8
0
  6
Continuous
 62
     7
370
    15
100
AcDbSpline
210
0.0
220
0.0
230
1.0
 70
     8
 71
     3
 72
    12
 73
     8
 74
     0
 42
0.00000001
 43
0.00000001
 12
1.0
 22
0.0
 32
0.0
 13
1.0
 23
0.0
 33
0.0
 40
0.0
 40
0.0
 40
0.0
 40
0.0
 40
0.0033602808459721
 40
0.2260383746389615
 40
0.5243428997068316
 40
0.7836139279632343
 40
1.0
 40
1.0
 40
1.0
 40
1.0
 10
626.7157178916183
 20
498.6639477791036
 30
0.0
 10
626.7108999317625
 20
498.6659817764714
 30
0.0
 10
626.3868068381202
 20
498.8028041077295
 30
0.0
 10
625.6324152274965
 20
499.1205425311628
 30
0.0
 10
624.590713708936
 20
499.6186906960955
 30
0.0
 10
623.7340879660812
 20
500.1650155444893
 30
0.0
 10
623.4411237661323
 20
500.5728206778219
 30
0.0
 10
623.3078484036174
 20
500.7583395125116
 30
0.0
  0
LINE
  5
34C
330
1F
100
AcDbEntity
  8
0
  6
Continuous
 62
     7
370
    15
100
AcDbLine
 10
724.1877820887
 20
408.2780376555
 30
0.0
 11
705.8763895728
 21
418.1897983433
 31
0.0
  0
LINE
  5
34D
330
1F
100
AcDbEntity
  8
0
  6
Continuous
 62
     7
370
    15
100
AcDbLine
 10
735.3441138365
 20
519.0697320284
 30
0.0
 11
725.4323531486
 21
500.7583395125
 31
0.0
  0
LINE
  5
34E
330
1F
100
AcDbEntity
  8
0
  6
Continuous
 62
     7
370
    15
100
AcDbLine
 10
725.4323531486
 20
437.7457619192
 30
0.0
 11
735.3441138365
 21
419.4343694033
 31
0.0
  0
LINE
  5
34F
330
1F
100
AcDbEntity
  8
0
  6
Continuous
 62
     7
370
    15
100
AcDbLine
 10
623.3078484036
 20
500.7583395125
 30
0.0
 11
613.3960877158
 21
519.0697320284
 31
0.0
  0
LINE
  5
350
330
1F
100
AcDbEntity
  8
0
  6
Continuous
 62
     7
370
    15
100
AcDbLine
 10
642.8638119795
 20
418.1897983433
 30
0.0
 11
624.5524194636
 21
408.2780376555
 31
0.0
  0
LINE
  5
351
330
1F
100
AcDbEntity
  8
0
  6
Continuous
 62
     7
370
    15
100
AcDbLine
 10
705.8763895728
 20
520.3143030884
 30
0.0
 11
724.1877820887
 21
530.2260637762
 31
0.0
  0
ARC
  5
352
330
1F
100
AcDbEntity
  8
0
  6
Continuous
 62
     7
370
    15
100
AcDbCircle
 10
623.6003653752
 20
528.4672005284
 30
0.0
 40
2.00000000000004
100
AcDbArc
 50
61.5737995268
 51
130.6090428911
  0
ARC
  5
353
330
1F
100
AcDbEntity
  8
0
  6
Continuous
 62
     7
370
    15
100
AcDbCircle
 10
674.3701007761
 20
469.2520507158
 30
0.0
 40
80.00000000000004
100
AcDbArc
 50
220.6090428911
 51
229.3909571089
  0
ARC
  5
354
330
1F
100
AcDbEntity
  8
0
  6
Continuous
 62
     7
370
    15
100
AcDbCircle
 10
674.3701007761
 20
469.2520507158
 30
0.0
 40
79.99999999999996
100
AcDbArc
 50
40.6090428911
 51
49.3909571089
  0
ARC
  5
355
330
1F
100
AcDbEntity
  8
0
  6
Continuous
 62
     7
370
    15
100
AcDbCircle
 10
615.1549509636
 20
520.0217861167
 30
0.0
 40
2.000000000000091
100
AcDbArc
 50
139.3909571089
 51
208.4262004732
  0
ARC
  5
356
330
1F
100
AcDbEntity
  8
0
  6
Continuous
 62
     7
370
    15
100
AcDbCircle
 10
674.3701007761
 20
469.2520507158
 30
0.0
 40
80.00000000000006
100
AcDbArc
 50
130.6090428911
 51
139.3909571089
  0
ARC
  5
357
330
1F
100
AcDbEntity
  8
0
  6
Continuous
 62
     7
370
    15
100
AcDbCircle
 10
615.1549509636
 20
418.482315315
 30
0.0
 40
2.00000000000004
100
AcDbArc
 50
151.5737995268
 51
220.6090428911
  0
ARC
  5
358
330
1F
100
AcDbEntity
  8
0
  6
Continuous
 62
     7
370
    15
100
AcDbCircle
 10
725.139836177
 20
410.0369009033
 30
0.0
 40
2.00000000000004
100
AcDbArc
 50
241.5737995268
 51
310.6090428911
  0
ARC
  5
359
330
1F
100
AcDbEntity
  8
0
  6
Continuous
 62
     7
370
    15
100
AcDbCircle
 10
674.3701007761
 20
469.2520507158
 30
0.0
 40
80.00000000000003
100
AcDbArc
 50
310.6090428911
 51
319.3909571089
  0
ARC
  5
35A
330
1F
100
AcDbEntity
  8
0
  6
Continuous
 62
     7
370
    15
100
AcDbCircle
 10
733.5852505887
 20
520.0217861167
 30
0.0
 40
2.000000000000016
100
AcDbArc
 50
331.5737995268
 51
40.6090428911
  0
ARC
  5
35B
330
1F
100
AcDbEntity
  8
0
  6
Continuous
 62
     7
370
    15
100
AcDbCircle
 10
733.5852505887
 20
418.482315315
 30
0.0
 40
2.000000000000016
100
AcDbArc
 50
319.3909571089
 51
28.4262004732
  0
ARC
  5
35C
330
1F
100
AcDbEntity
  8
0
  6
Continuous
 62
     7
370
    15
100
AcDbCircle
 10
725.139836177
 20
528.4672005284
 30
0.0
 40
1.99999999999993
100
AcDbArc
 50
49.3909571089
 51
118.4262004732
  0
ARC
  5
35D
330
1F
100
AcDbEntity
  8
0
  6
Continuous
 62
     7
370
    15
100
AcDbCircle
 10
623.6003653752
 20
410.0369009033
 30
0.0
 40
2.000000000000036
100
AcDbArc
 50
229.3909571089
 51
298.4262004732
  0
ARC
  5
35E
330
1F
100
AcDbEntity
  8
0
  6
Continuous
 62
     7
370
    15
100
AcDbCircle
 10
674.3701007761
 20
469.2520507158
 30
0.0
 40
61.0
100
AcDbArc
 50
0.0
 51
32.2139260693
  0
ARC
  5
35F
330
1F
100
AcDbEntity
  8
0
  6
Continuous
 62
     7
370
    15
100
AcDbCircle
 10
674.3701007761
 20
469.2520507158
 30
0.0
 40
61.0
100
AcDbArc
 50
327.7860739307
 51
0.0
  0
SPLINE
  5
360
330
1F
100
AcDbEntity
  8
0
  6
Continuous
 62
     7
370
    15
100
AcDbSpline
210
0.0
220
0.0
230
1.0
 70
     8
 71
     3
 72
    11
 73
     7
 74
     0
 42
0.00000001
 43
0.00000001
 12
1.0
 22
0.0
 32
0.0
 13
1.0
 23
0.0
 33
0.0
 40
0.0
 40
0.0
 40
0.0
 40
0.0
 40
0.2764932556847963
 40
0.5533549364876637
 40
0.8196270464860324
 40
1.0
 40
1.0
 40
1.0
 40
1.0
 10
784.3006086148467
 20
450.6098058553184
 30
0.0
 10
784.2149053497681
 20
450.1165719528442
 30
0.0
 10
784.0433846206746
 20
449.1294469175475
 30
0.0
 10
783.796873763612
 20
447.8409222670512
 30
0.0
 10
783.6211199222927
 20
446.9678756586925
 30
0.0
 10
783.5648012588962
 20
446.6960939455155
 30
0.0
 10
783.5420575536933
 20
446.5863377334322
 30
0.0
  0
SPLINE
  5
361
330
1F
100
AcDbEntity
  8
0
  6
Continuous
 62
     7
370
    15
100
AcDbSpline
210
0.0
220
0.0
230
1.0
 70
     8
 71
     3
 72
    11
 73
     7
 74
     0
 42
0.00000001
 43
0.00000001
 12
1.0
 22
0.0
 32
0.0
 13
1.0
 23
0.0
 33
0.0
 40
0.0
 40
0.0
 40
0.0
 40
0.0
 40
0.2451747186697942
 40
0.4900340914608044
 40
0.743238086778523
 40
1.0
 40
1.0
 40
1.0
 40
1.0
 10
782.8121614255157
 20
447.0077407093491
 30
0.0
 10
782.8450497336601
 20
447.1683964383948
 30
0.0
 10
782.9107840487176
 20
447.4895012596751
 30
0.0
 10
783.1015114368275
 20
448.4590689937377
 30
0.0
 10
783.3275184565247
 20
449.667887127956
 30
0.0
 10
783.4829285606842
 20
450.5783228559056
 30
0.0
 10
783.5611757435049
 20
451.0367166729416
 30
0.0
  0
LINE
  5
362
330
1F
100
AcDbEntity
  8
0
  6
Continuous
 62
     7
370
    15
100
AcDbLine
 10
630.803579519
 20
571.8883432926
 30
0.0
 11
631.1161649026
 21
571.151935357
 31
0.0
  0
SPLINE
  5
363
330
1F
100
AcDbEntity
  8
0
  6
Continuous
 62
     7
370
    15
100
AcDbSpline
210
0.0
220
0.0
230
1.0
 70
     8
 71
     3
 72
    12
 73
     8
 74
     0
 42
0.00000001
 43
0.00000001
 12
1.0
 22
0.0
 32
0.0
 13
1.0
 23
0.0
 33
0.0
 40
0.0
 40
0.0
 40
0.0
 40
0.0
 40
0.2146859745765152
 40
0.4293708725761948
 40
0.6440351189116643
 40
0.8587128954237666
 40
1.0
 40
1.0
 40
1.0
 40
1.0
 10
628.9695781268325
 20
571.0903637589659
 30
0.0
 10
629.1751060900319
 20
571.1815470061341
 30
0.0
 10
629.5861609857782
 20
571.363913043218
 30
0.0
 10
630.1358720198605
 20
571.6027544619326
 30
0.0
 10
630.5515143867945
 20
571.7812064492296
 30
0.0
 10
630.7721244389413
 20
571.8749973432622
 30
0.0
 10
630.7946420037591
 20
571.8845512302644
 30
0.0
 10
630.8035795189586
 20
571.8883432926381
 30
0.0
  0
SPLINE
  5
364
330
1F
100
AcDbEntity
  8
0
  6
Continuous
 62
     7
370
    15
100
AcDbSpline
210
0.0
220
0.0
230
1.0
 70
     8
 71
     3
 72
    12
 73
     8
 74
     0
 42
0.00000001
 43
0.00000001
 12
1.0
 22
0.0
 32
0.0
 13
1.0
 23
0.0
 33
0.0
 40
0.0
 40
0.0
 40
0.0
 40
0.0
 40
0.214687578787586
 40
0.4293739295398867
 40
0.644055931717046
 40
0.8587260307579163
 40
0.9999999999999999
 40
0.9999999999999999
 40
0.9999999999999999
 40
0.9999999999999999
 10
631.1161649026122
 20
571.1519353570188
 30
0.0
 10
631.0958093561898
 20
571.1433084353058
 30
0.0
 10
631.0550983797809
 20
571.1260546412266
 30
0.0
 10
630.7378949476865
 20
570.99086028862
 30
0.0
 10
630.2718805100287
 20
570.7899248253716
 30
0.0
 10
629.7565676133949
 20
570.5647117167905
 30
0.0
 10
629.4169927192295
 20
570.4137576396813
 30
0.0
 10
629.2822156645503
 20
570.3538440646375
 30
0.0
  0
LINE
  5
365
330
1F
100
AcDbEntity
  8
0
  6
Continuous
 62
     7
370
    15
100
AcDbLine
 10
726.767694632
 20
367.059663731
 30
0.0
 11
734.0291198887
 21
371.2520532788
 31
0.0
  0
ARC
  5
366
330
1F
100
AcDbEntity
  8
0
  6
Continuous
 62
     7
370
    15
100
AcDbCircle
 10
725.7676939937
 20
368.7917143204
 30
0.0
 40
2.000000000000017
100
AcDbArc
 50
215.5196281464
 51
300.0
  0
ARC
  5
367
330
1F
100
AcDbEntity
  8
0
  6
Continuous
 62
     7
370
    15
100
AcDbCircle
 10
722.5120278505
 20
366.4677870488
 30
0.0
 40
2.000000000000003
100
AcDbArc
 50
35.5196281464
 51
115.0973758876
  0
LINE
  5
368
330
1F
100
AcDbEntity
  8
0
  6
Continuous
 62
     7
370
    15
100
AcDbLine
 10
572.1777137913
 20
416.85445686
 30
0.0
 11
576.3701033391
 21
409.5930316033
 31
0.0
  0
ARC
  5
369
330
1F
100
AcDbEntity
  8
0
  6
Continuous
 62
     7
370
    15
100
AcDbCircle
 10
573.9097643807
 20
417.8544574982
 30
0.0
 40
2.000000000000017
100
AcDbArc
 50
125.5196281464
 51
210.0
  0
ARC
  5
36A
330
1F
100
AcDbEntity
  8
0
  6
Continuous
 62
     7
370
    15
100
AcDbCircle
 10
571.5858371091
 20
421.1101236415
 30
0.0
 40
2.000000000000017
100
AcDbArc
 50
305.5196281464
 51
25.0973758876
  0
LINE
  5
36B
330
1F
100
AcDbEntity
  8
0
  6
Continuous
 62
     7
370
    15
100
AcDbLine
 10
621.9725069203
 20
571.4444377007
 30
0.0
 11
614.7110816635
 21
567.2520481528
 31
0.0
  0
ARC
  5
36C
330
1F
100
AcDbEntity
  8
0
  6
Continuous
 62
     7
370
    15
100
AcDbCircle
 10
626.2281737018
 20
572.0363143829
 30
0.0
 40
2.000000000000083
100
AcDbArc
 50
215.5196281464
 51
295.0973758876
  0
ARC
  5
36D
330
1F
100
AcDbEntity
  8
0
  6
Continuous
 62
     7
370
    15
100
AcDbCircle
 10
626.2281737018
 20
572.0363143829
 30
0.0
 40
2.800000000000097
100
AcDbArc
 50
215.5196281464
 51
295.0973758876
  0
ARC
  5
36E
330
1F
100
AcDbEntity
  8
0
  6
Continuous
 62
     7
370
    15
100
AcDbCircle
 10
571.5858371091
 20
421.1101236415
 30
0.0
 40
2.800000000000011
100
AcDbArc
 50
305.5196281464
 51
25.0973758876
  0
ARC
  5
36F
330
1F
100
AcDbEntity
  8
0
  6
Continuous
 62
     7
370
    15
100
AcDbCircle
 10
573.9097643807
 20
417.8544574982
 30
0.0
 40
1.200000000000023
100
AcDbArc
 50
125.5196281464
 51
210.0
  0
LINE
  5
370
330
1F
100
AcDbEntity
  8
0
  6
Continuous
 62
     7
370
    15
100
AcDbLine
 10
572.8705358304
 20
417.2544561805
 30
0.0
 11
576.3701033391
 21
411.1930288853
 31
0.0
  0
ARC
  5
371
330
1F
100
AcDbEntity
  8
0
  6
Continuous
 62
     7
370
    15
100
AcDbCircle
 10
722.5120278505
 20
366.4677870488
 30
0.0
 40
2.799999999999994
100
AcDbArc
 50
35.5196281464
 51
115.0973758876
  0
ARC
  5
372
330
1F
100
AcDbEntity
  8
0
  6
Continuous
 62
     7
370
    15
100
AcDbCircle
 10
725.7676939937
 20
368.7917143204
 30
0.0
 40
1.200000000000023
100
AcDbArc
 50
215.5196281464
 51
300.0
  0
LINE
  5
373
330
1F
100
AcDbEntity
  8
0
  6
Continuous
 62
     7
370
    15
100
AcDbLine
 10
726.3676953115
 20
367.7524857702
 30
0.0
 11
732.4291226067
 21
371.2520532788
 31
0.0
  0
ARC
  5
374
330
1F
100
AcDbEntity
  8
0
  6
Continuous
 62
     7
370
    15
100
AcDbCircle
 10
622.9725075585
 20
569.7123871113
 30
0.0
 40
1.200000000000031
100
AcDbArc
 50
35.5196281464
 51
120.0
  0
LINE
  5
375
330
1F
100
AcDbEntity
  8
0
  6
Continuous
 62
     7
370
    15
100
AcDbLine
 10
622.3725062408
 20
570.7516156615
 30
0.0
 11
616.3110789456
 21
567.2520481528
 31
0.0
  0
ARC
  5
376
330
1F
100
AcDbEntity
  8
0
  6
Continuous
 62
     7
370
    15
100
AcDbCircle
 10
622.9725075585
 20
569.7123871113
 30
0.0
 40
2.000000000000024
100
AcDbArc
 50
35.5196281464
 51
120.0
  0
ARC
  5
377
330
1F
100
AcDbEntity
  8
0
  6
Continuous
 62
     7
370
    15
100
AcDbCircle
 10
674.3701007761
 20
469.2520507158
 30
0.0
 40
111.5
100
AcDbArc
 50
114.0277821056
 51
115.0973758876
  0
ARC
  5
378
330
1F
100
AcDbEntity
  8
0
  6
Continuous
 62
     7
370
    15
100
AcDbCircle
 10
674.3701007761
 20
469.2520507158
 30
0.0
 40
111.5000000000001
100
AcDbArc
 50
181.5417765398
 51
205.0973758876
  0
ARC
  5
379
330
1F
100
AcDbEntity
  8
0
  6
Continuous
 62
     7
370
    15
100
AcDbCircle
 10
674.3701007761
 20
469.2520507158
 30
0.0
 40
111.5000000000001
100
AcDbArc
 50
151.5128093452
 51
178.4582234602
  0
LWPOLYLINE
  5
37A
330
1F
100
AcDbEntity
  8
0
  6
Continuous
 62
     7
370
    15
100
AcDbPolyline
 90
        3
 70
   128
 43
0.0
 10
592.3735704817
 20
544.8087759794
 10
595.6282523073
 20
548.1948860468
 10
598.8133755125
 20
551.2485810103
  0
ARC
  5
37B
330
1F
100
AcDbEntity
  8
0
  6
Continuous
 62
     7
370
    15
100
AcDbCircle
 10
674.3701007761
 20
469.2520507158
 30
0.0
 40
111.5
100
AcDbArc
 50
241.5128093452
 51
295.0973758876
  0
LWPOLYLINE
  5
37C
330
1F
100
AcDbEntity
  8
0
  6
Continuous
 62
     7
370
    15
100
AcDbPolyline
 90
        3
 70
   128
 43
0.0
 10
598.8133755125
 20
387.2555204214
 10
595.4272654452
 20
390.5102022471
 10
592.3735704817
 20
393.6953254523
  0
ARC
  5
37D
330
1F
100
AcDbEntity
  8
0
  6
Continuous
 62
     7
370
    15
100
AcDbCircle
 10
674.3701007761
 20
469.2520507158
 30
0.0
 40
110.7
100
AcDbArc
 50
242.2854458996
 51
295.0973758876
  0
LWPOLYLINE
  5
37E
330
1F
100
AcDbEntity
  8
0
  6
Continuous
 62
     7
370
    15
100
AcDbPolyline
 90
        3
 70
   128
 43
0.0
 10
599.819010178
 20
387.4191426219
 10
595.9936660327
 20
391.0751723232
 10
592.5371926822
 20
394.7009601177
  0
ARC
  5
37F
330
1F
100
AcDbEntity
  8
0
  6
Continuous
 62
     7
370
    15
100
AcDbCircle
 10
674.3701007761
 20
469.2520507158
 30
0.0
 40
110.7
100
AcDbArc
 50
181.5529212756
 51
205.0973758876
  0
ARC
  5
380
330
1F
100
AcDbEntity
  8
0
  6
Continuous
 62
     7
370
    15
100
AcDbCircle
 10
674.3701007761
 20
469.2520507158
 30
0.0
 40
110.7
100
AcDbArc
 50
152.2854458996
 51
178.4470787244
  0
LWPOLYLINE
  5
381
330
1F
100
AcDbEntity
  8
0
  6
Continuous
 62
     7
370
    15
100
AcDbPolyline
 90
        3
 70
   128
 43
0.0
 10
592.5371926822
 20
543.803141314
 10
596.1932223834
 20
547.6284854593
 10
599.819010178
 20
551.0849588098
  0
ARC
  5
382
330
1F
100
AcDbEntity
  8
0
  6
Continuous
 62
     7
370
    15
100
AcDbCircle
 10
674.3701007761
 20
469.2520507158
 30
0.0
 40
110.6999999999999
100
AcDbArc
 50
114.035210424
 51
115.0973758876
  0
ARC
  5
383
330
1F
100
AcDbEntity
  8
0
  6
Continuous
 62
     7
370
    15
100
AcDbCircle
 10
777.1543644431
 20
517.3939777902
 30
0.0
 40
2.000000000000083
100
AcDbArc
 50
125.5196281464
 51
205.0973758876
  0
ARC
  5
384
330
1F
100
AcDbEntity
  8
0
  6
Continuous
 62
     7
370
    15
100
AcDbCircle
 10
774.8304371716
 20
520.6496439335
 30
0.0
 40
2.000000000000123
100
AcDbArc
 50
305.5196281464
 51
30.0
  0
LINE
  5
385
330
1F
100
AcDbEntity
  8
0
  6
Continuous
 62
     7
370
    15
100
AcDbLine
 10
775.8696657218
 20
521.2496452512
 30
0.0
 11
772.3700982131
 21
527.3110725464
 31
0.0
  0
ARC
  5
386
330
1F
100
AcDbEntity
  8
0
  6
Continuous
 62
     7
370
    15
100
AcDbCircle
 10
774.8304371716
 20
520.6496439335
 30
0.0
 40
1.199999999999958
100
AcDbArc
 50
305.5196281464
 51
30.0
  0
ARC
  5
387
330
1F
100
AcDbEntity
  8
0
  6
Continuous
 62
     7
370
    15
100
AcDbCircle
 10
777.1543644431
 20
517.3939777902
 30
0.0
 40
2.80000000000005
100
AcDbArc
 50
125.5196281464
 51
205.0973758876
  0
LINE
  5
388
330
1F
100
AcDbEntity
  8
0
  6
Continuous
 62
     7
370
    15
100
AcDbLine
 10
776.5624877609
 20
521.6496445717
 30
0.0
 11
772.3700982131
 21
528.9110698284
 31
0.0
  0
ARC
  5
389
330
1F
100
AcDbEntity
  8
0
  6
Continuous
 62
     7
370
    15
100
AcDbCircle
 10
674.3701007761
 20
469.2520507158
 30
0.0
 40
111.5
100
AcDbArc
 50
1.5417765398
 51
25.0973758876
  0
ARC
  5
38A
330
1F
100
AcDbEntity
  8
0
  6
Continuous
 62
     7
370
    15
100
AcDbCircle
 10
674.3701007761
 20
469.2520507158
 30
0.0
 40
111.5
100
AcDbArc
 50
350.375228486
 51
358.4582234602
  0
ARC
  5
38B
330
1F
100
AcDbEntity
  8
0
  6
Continuous
 62
     7
370
    15
100
AcDbCircle
 10
674.3701007761
 20
469.2520507158
 30
0.0
 40
110.7
100
AcDbArc
 50
1.5529212756
 51
25.0973758876
  0
ARC
  5
38C
330
1F
100
AcDbEntity
  8
0
  6
Continuous
 62
     7
370
    15
100
AcDbCircle
 10
674.3701007761
 20
469.2520507158
 30
0.0
 40
110.6999999999999
100
AcDbArc
 50
350.5290897987
 51
358.4470787244
  0
ARC
  5
38D
330
1F
100
AcDbEntity
  8
0
  6
Continuous
 62
     7
370
    15
100
AcDbCircle
 10
674.3701007761
 20
469.2520507158
 30
0.0
 40
111.4999999999999
100
AcDbArc
 50
312.6594055927
 51
312.8952155163
  0
ARC
  5
38E
330
1F
100
AcDbEntity
  8
0
  6
Continuous
 62
     7
370
    15
100
AcDbCircle
 10
674.3701007761
 20
469.2520507158
 30
0.0
 40
110.6999999999999
100
AcDbArc
 50
312.3340211617
 51
312.7677519376
  0
ARC
  5
38F
330
1F
100
AcDbEntity
  8
0
  6
Continuous
 62
     7
370
    15
100
AcDbCircle
 10
674.3701007761
 20
469.2520507158
 30
0.0
 40
111.5
100
AcDbArc
 50
347.1047844837
 51
348.2711731774
  0
ARC
  5
390
330
1F
100
AcDbEntity
  8
0
  6
Continuous
 62
     7
370
    15
100
AcDbCircle
 10
674.3701007761
 20
469.2520507158
 30
0.0
 40
110.6999999999999
100
AcDbArc
 50
347.2322480624
 51
348.4079339197
  0
SPLINE
  5
391
330
1F
100
AcDbEntity
  8
0
  6
Continuous
 62
     7
370
    15
100
AcDbSpline
210
0.0
220
0.0
230
1.0
 70
     8
 71
     3
 72
    12
 73
     8
 74
     0
 42
0.00000001
 43
0.00000001
 12
1.0
 22
0.0
 32
0.0
 13
1.0
 23
0.0
 33
0.0
 40
0.0
 40
0.0
 40
0.0
 40
0.0
 40
0.2146645757996789
 40
0.4293279953901298
 40
0.6439791046643968
 40
0.8585831052308343
 40
1.0
 40
1.0
 40
1.0
 40
1.0
 10
630.8035795189586
 20
571.8883432926382
 30
0.0
 10
630.8442645210442
 20
571.9056567218875
 30
0.0
 10
630.9256343060811
 20
571.9402834871338
 30
0.0
 10
631.5612071956398
 20
572.207897683207
 30
0.0
 10
632.4998257501842
 20
572.593909723189
 30
0.0
 10
633.5443702278552
 20
573.0115795372484
 30
0.0
 10
634.238088962109
 20
573.2789847748343
 30
0.0
 10
634.5136445559707
 20
573.3852021874632
 30
0.0
  0
SPLINE
  5
392
330
1F
100
AcDbEntity
  8
0
  6
Continuous
 62
     7
370
    15
100
AcDbSpline
210
0.0
220
0.0
230
1.0
 70
     8
 71
     3
 72
    12
 73
     8
 74
     0
 42
0.00000001
 43
0.00000001
 12
1.0
 22
0.0
 32
0.0
 13
1.0
 23
0.0
 33
0.0
 40
0.0
 40
0.0
 40
0.0
 40
0.0
 40
0.2146546584883233
 40
0.4293131663812146
 40
0.6438983722813965
 40
0.8585156218452055
 40
1.0
 40
1.0
 40
1.0
 40
1.0
 10
634.8264311053005
 20
572.6483174146856
 30
0.0
 10
634.4070096573727
 20
572.486156060384
 30
0.0
 10
633.5681592400273
 20
572.1618304437396
 30
0.0
 10
632.4568774309207
 20
571.7123080055592
 30
0.0
 10
631.6211651235592
 20
571.3657245535013
 30
0.0
 10
631.1791971032958
 20
571.1787107004055
 30
0.0
 10
631.1340875765062
 20
571.1595486997661
 30
0.0
 10
631.1161649026122
 20
571.1519353570188
 30
0.0
  0
SPLINE
  5
393
330
1F
100
AcDbEntity
  8
0
  6
Continuous
 62
     7
370
    15
100
AcDbSpline
210
0.0
220
0.0
230
1.0
 70
     8
 71
     3
 72
    11
 73
     7
 74
     0
 42
0.00000001
 43
0.00000001
 12
1.0
 22
0.0
 32
0.0
 13
1.0
 23
0.0
 33
0.0
 40
0.0
 40
0.0
 40
0.0
 40
0.0
 40
0.249839843892029
 40
0.4993818005781694
 40
0.7564370842555276
 40
1.0
 40
1.0
 40
1.0
 40
1.0
 10
783.058052936956
 20
444.3687394739832
 30
0.0
 10
783.0213524834803
 20
444.2087383580088
 30
0.0
 10
782.9479953349439
 20
443.8889268974144
 30
0.0
 10
782.7191749911103
 20
442.9250471726953
 30
0.0
 10
782.4291137355756
 20
441.7525211824988
 30
0.0
 10
782.2011231326617
 20
440.8871383598372
 30
0.0
 10
782.0902001656738
 20
440.4661085935081
 30
0.0
  0
SPLINE
  5
394
330
1F
100
AcDbEntity
  8
0
  6
Continuous
 62
     7
370
    15
100
AcDbSpline
210
0.0
220
0.0
230
1.0
 70
     8
 71
     3
 72
    11
 73
     7
 74
     0
 42
0.00000001
 43
0.00000001
 12
1.0
 22
0.0
 32
0.0
 13
1.0
 23
0.0
 33
0.0
 40
0.0
 40
0.0
 40
0.0
 40
0.0
 40
0.2693918558668694
 40
0.5388812678987286
 40
0.8047876489570333
 40
0.9999999999999999
 40
0.9999999999999999
 40
0.9999999999999999
 40
0.9999999999999999
 10
781.3726198472228
 20
440.8804018528904
 30
0.0
 10
781.4943440344767
 20
441.3468777131791
 30
0.0
 10
781.7378364895486
 20
442.2799983608975
 30
0.0
 10
782.0386265390769
 20
443.5155325682347
 30
0.0
 10
782.2428837424965
 20
444.3907652187742
 30
0.0
 10
782.3061389487914
 20
444.6694242521542
 30
0.0
 10
782.3329177297798
 20
444.7873931856598
 30
0.0
  0
SPLINE
  5
395
330
1F
100
AcDbEntity
  8
0
  6
Continuous
 62
     7
370
    15
100
AcDbSpline
210
0.0
220
0.0
230
1.0
 70
     8
 71
     3
 72
    11
 73
     7
 74
     0
 42
0.00000001
 43
0.00000001
 12
1.0
 22
0.0
 32
0.0
 13
1.0
 23
0.0
 33
0.0
 40
0.0
 40
0.0
 40
0.0
 40
0.0
 40
0.269212220174649
 40
0.5385215531930779
 40
0.8043054742481812
 40
1.0
 40
1.0
 40
1.0
 40
1.0
 10
753.1595063008514
 20
390.3566830338682
 30
0.0
 10
752.8174086593319
 20
390.0177004294379
 30
0.0
 10
752.1330899715131
 20
389.3396129394836
 30
0.0
 10
751.2162345570036
 20
388.4602818410941
 30
0.0
 10
750.5617388499337
 20
387.8443421010721
 30
0.0
 10
750.3524221616768
 20
387.6497127290203
 30
0.0
 10
750.2636593379226
 20
387.5671782077994
 30
0.0
  0
SPLINE
  5
396
330
1F
100
AcDbEntity
  8
0
  6
Continuous
 62
     7
370
    15
100
AcDbSpline
210
0.0
220
0.0
230
1.0
 70
     8
 71
     3
 72
    11
 73
     7
 74
     0
 42
0.00000001
 43
0.00000001
 12
1.0
 22
0.0
 32
0.0
 13
1.0
 23
0.0
 33
0.0
 40
0.0
 40
0.0
 40
0.0
 40
0.0
 40
0.2497238261342808
 40
0.4991464509131198
 40
0.7561928435345276
 40
1.0
 40
1.0
 40
1.0
 40
1.0
 10
749.5385241307464
 20
387.9858337821211
 30
0.0
 10
749.6590476184377
 20
388.0974055080854
 30
0.0
 10
749.8999492258816
 20
388.3204143891338
 30
0.0
 10
750.621919919889
 20
388.999109448897
 30
0.0
 10
751.4945185887848
 20
389.8351789055912
 30
0.0
 10
752.1317431443913
 20
390.4645871360992
 30
0.0
 10
752.441933432981
 20
390.7709725679601
 30
0.0
  0
ARC
  5
397
330
1F
100
AcDbEntity
  8
0
  6
Continuous
 62
     7
370
    15
100
AcDbCircle
 10
674.3701007761
 20
469.2520507158
 30
0.0
 40
111.4999999999999
100
AcDbArc
 50
42.6594055927
 51
47.3405944073
  0
ARC
  5
398
330
1F
100
AcDbEntity
  8
0
  6
Continuous
 62
     7
370
    15
100
AcDbCircle
 10
674.3701007761
 20
469.2520507158
 30
0.0
 40
111.5
100
AcDbArc
 50
93.1322118007
 51
110.9441048845
  0
ARC
  5
399
330
1F
100
AcDbEntity
  8
0
  6
Continuous
 62
     7
370
    15
100
AcDbCircle
 10
674.3701007761
 20
469.2520507158
 30
0.0
 40
110.7
100
AcDbArc
 50
93.2678584176
 51
110.9292410181
  0
ARC
  5
39A
330
1F
100
AcDbEntity
  8
0
  6
Continuous
 62
     7
370
    15
100
AcDbCircle
 10
674.3701007761
 20
469.2520507158
 30
0.0
 40
110.7
100
AcDbArc
 50
42.3340211617
 51
47.6659788383
  0
ARC
  5
39B
330
1F
100
AcDbEntity
  8
0
  6
Continuous
 62
     7
370
    15
100
AcDbCircle
 10
674.3701007761
 20
469.2520507158
 30
0.0
 40
111.4999999999999
100
AcDbArc
 50
331.5128093452
 51
345.0385028438
  0
LINE
  5
39C
330
1F
100
AcDbEntity
  8
0
  6
Continuous
 62
     7
370
    15
100
AcDbLine
 10
756.3666310705
 20
393.6953254523
 30
0.0
 11
753.1595063009
 21
390.3566830339
 31
0.0
  0
ARC
  5
39D
330
1F
100
AcDbEntity
  8
0
  6
Continuous
 62
     7
370
    15
100
AcDbCircle
 10
674.3701007761
 20
469.2520507158
 30
0.0
 40
110.6999999999999
100
AcDbArc
 50
332.2854458996
 51
345.149777708
  0
LINE
  5
39E
330
1F
100
AcDbEntity
  8
0
  6
Continuous
 62
     7
370
    15
100
AcDbLine
 10
756.20300887
 20
394.7009601177
 30
0.0
 11
752.441933433
 21
390.770972568
 31
0.0
  0
LWPOLYLINE
  5
39F
330
1F
100
AcDbEntity
  8
0
  6
Continuous
 62
     7
370
    15
100
AcDbPolyline
 90
        3
 70
   128
 43
0.0
 10
623.8515992262
 20
567.7526675643
 10
625.2822299101
 20
568.4733771266
 10
627.4158154227
 20
569.5006706299
  0
LWPOLYLINE
  5
3A0
330
1F
100
AcDbEntity
  8
0
  6
Continuous
 62
     7
370
    15
100
AcDbPolyline
 90
        3
 70
   128
 43
0.0
 10
575.8694839277
 20
418.7335491659
 10
575.1487743654
 20
420.1641798498
 10
574.1214808621
 20
422.2977653624
  0
LWPOLYLINE
  5
3A1
330
1F
100
AcDbEntity
  8
0
  6
Continuous
 62
     7
370
    15
100
AcDbPolyline
 90
        3
 70
   128
 43
0.0
 10
724.8886023261
 20
370.7514338674
 10
723.4579716422
 20
370.0307243051
 10
721.3243861295
 20
369.0034308018
  0
LWPOLYLINE
  5
3A2
330
1F
100
AcDbEntity
  8
0
  6
Continuous
 62
     7
370
    15
100
AcDbPolyline
 90
        3
 70
   128
 43
0.0
 10
772.8707176246
 20
519.7705522658
 10
773.5914271869
 20
518.3399215819
 10
774.6187206902
 20
516.2063360693
  0
ARC
  5
3A3
330
1F
100
AcDbEntity
  8
0
  6
Continuous
 62
     7
370
    15
100
AcDbCircle
 10
674.3701007761
 20
469.2520507158
 30
0.0
 40
105.7403510868838
100
AcDbArc
 50
157.9411369238
 51
165.0
  0
ARC
  5
3A4
330
1F
100
AcDbEntity
  8
0
  6
Continuous
 62
     7
370
    15
100
AcDbCircle
 10
674.3701007761
 20
469.2520507158
 30
0.0
 40
105.7403510868838
100
AcDbArc
 50
131.9170082361
 51
138.0829917639
  0
ARC
  5
3A5
330
1F
100
AcDbEntity
  8
0
  6
Continuous
 62
     7
370
    15
100
AcDbCircle
 10
674.3701007761
 20
469.2520507158
 30
0.0
 40
105.7403510868838
100
AcDbArc
 50
94.1572743072
 51
112.0588630762
  0
ARC
  5
3A6
330
1F
100
AcDbEntity
  8
0
  6
Continuous
 62
     7
370
    15
100
AcDbCircle
 10
674.3701007761
 20
469.2520507158
 30
0.0
 40
105.7403510868837
100
AcDbArc
 50
41.9170082361
 51
48.0829917639
  0
ARC
  5
3A7
330
1F
100
AcDbEntity
  8
0
  6
Continuous
 62
     7
370
    15
100
AcDbCircle
 10
674.3701007761
 20
469.2520507158
 30
0.0
 40
105.7403510868837
100
AcDbArc
 50
1.6257786628
 51
22.0588630762
  0
ARC
  5
3A8
330
1F
100
AcDbEntity
  8
0
  6
Continuous
 62
     7
370
    15
100
AcDbCircle
 10
674.3701007761
 20
469.2520507158
 30
0.0
 40
105.7403510868837
100
AcDbArc
 50
337.9411369238
 51
358.3742213372
  0
ARC
  5
3A9
330
1F
100
AcDbEntity
  8
0
  6
Continuous
 62
     7
370
    15
100
AcDbCircle
 10
674.3701007761
 20
469.2520507158
 30
0.0
 40
105.7403510868837
100
AcDbArc
 50
311.9170082361
 51
318.0829917639
  0
ARC
  5
3AA
330
1F
100
AcDbEntity
  8
0
  6
Continuous
 62
     7
370
    15
100
AcDbCircle
 10
674.3701007761
 20
469.2520507158
 30
0.0
 40
105.7403510868838
100
AcDbArc
 50
247.9411369238
 51
292.0588630762
  0
ARC
  5
3AB
330
1F
100
AcDbEntity
  8
0
  6
Continuous
 62
     7
370
    15
100
AcDbCircle
 10
674.3701007761
 20
469.2520507158
 30
0.0
 40
105.7403510868838
100
AcDbArc
 50
221.9170082361
 51
228.0829917639
  0
ARC
  5
3AC
330
1F
100
AcDbEntity
  8
0
  6
Continuous
 62
     7
370
    15
100
AcDbCircle
 10
674.3701007761
 20
469.2520507158
 30
0.0
 40
105.7403510868838
100
AcDbArc
 50
181.6257786628
 51
202.0588630762
  0
ARC
  5
3AD
330
1F
100
AcDbEntity
  8
0
  6
Continuous
 62
     7
370
    15
100
AcDbCircle
 10
674.3701007761
 20
469.2520507158
 30
0.0
 40
105.7403510868838
100
AcDbArc
 50
165.0
 51
178.3742213372
  0
LINE
  5
3AE
330
1F
100
AcDbEntity
  8
0
  6
Continuous
 62
     7
370
    15
100
AcDbLine
 10
617.1110813119
 20
567.2520481528
 30
0.0
 11
622.3832388021
 21
570.2959307017
 31
0.0
  0
LINE
  5
3AF
330
1F
100
AcDbEntity
  8
0
  6
Continuous
 62
     7
370
    15
100
AcDbLine
 10
622.3832388021
 20
570.2959307017
 30
0.0
 11
624.140625874
 21
567.2520481528
 31
0.0
  0
LINE
  5
3B0
330
1F
100
AcDbEntity
  8
0
  6
Continuous
 62
     7
370
    15
100
AcDbLine
 10
731.6291202404
 20
371.2520532788
 30
0.0
 11
726.3569627501
 21
368.20817073
 31
0.0
  0
LINE
  5
3B1
330
1F
100
AcDbEntity
  8
0
  6
Continuous
 62
     7
370
    15
100
AcDbLine
 10
726.3569627501
 20
368.20817073
 30
0.0
 11
724.5995756783
 21
371.2520532788
 31
0.0
  0
LINE
  5
3B2
330
1F
100
AcDbEntity
  8
0
  6
Continuous
 62
     7
370
    15
100
AcDbLine
 10
775.4139807619
 20
521.2389126898
 30
0.0
 11
772.3700982131
 21
519.481525618
 31
0.0
  0
LINE
  5
3B3
330
1F
100
AcDbEntity
  8
0
  6
Continuous
 62
     7
370
    15
100
AcDbLine
 10
772.3700982131
 20
526.5110701801
 30
0.0
 11
775.4139807619
 21
521.2389126898
 31
0.0
  0
LINE
  5
3B4
330
1F
100
AcDbEntity
  8
0
  6
Continuous
 62
     7
370
    15
100
AcDbLine
 10
576.3701033391
 20
411.9930312516
 30
0.0
 11
573.3262207903
 21
417.2651887418
 31
0.0
  0
LINE
  5
3B5
330
1F
100
AcDbEntity
  8
0
  6
Continuous
 62
     7
370
    15
100
AcDbLine
 10
573.3262207903
 20
417.2651887418
 30
0.0
 11
576.3701033391
 21
419.0225758137
 31
0.0
  0
ARC
  5
3B6
330
1F
100
AcDbEntity
  8
0
  6
Continuous
 62
     7
370
    15
100
AcDbCircle
 10
663.1897608886
 20
531.2520507158
 30
0.0
 40
2.0
100
AcDbArc
 50
270.0
 51
280.2221793906
  0
ARC
  5
3B7
330
1F
100
AcDbEntity
  8
0
  6
Continuous
 62
     7
370
    15
100
AcDbCircle
 10
620.450569308
 20
501.8355454066
 30
0.0
 40
2.000000000000042
100
AcDbArc
 50
328.8554921567
 51
28.4262004732
  0
LINE
  5
3B8
330
1F
100
AcDbEntity
  8
0
  6
Continuous
 62
     7
370
    15
100
AcDbLine
 10
663.1897604637
 20
529.2520493747
 30
0.0
 11
626.3518464364
 21
529.2520493747
 31
0.0
  0
ARC
  5
3B9
330
1F
100
AcDbEntity
  8
0
  6
Continuous
 62
     7
370
    15
100
AcDbCircle
 10
728.2896322442
 20
501.8355454066
 30
0.0
 40
2.00000000000014
100
AcDbArc
 50
151.5737995268
 51
211.1445078433
  0
ARC
  5
3BA
330
1F
100
AcDbEntity
  8
0
  6
Continuous
 62
     7
370
    15
100
AcDbCircle
 10
685.5504406636
 20
531.2520507158
 30
0.0
 40
2.000000000000016
100
AcDbArc
 50
259.7778206094
 51
270.0
  0
LINE
  5
3BB
330
1F
100
AcDbEntity
  8
0
  6
Continuous
 62
     7
370
    15
100
AcDbLine
 10
722.3883551158
 20
529.2520493747
 30
0.0
 11
685.5504410885
 21
529.2520493747
 31
0.0
  0
LINE
  5
3BC
330
1F
100
AcDbEntity
  8
0
  6
Continuous
 62
     7
370
    15
100
AcDbLine
 10
663.1897604637
 20
409.252052057
 30
0.0
 11
626.3518464364
 21
409.252052057
 31
0.0
  0
ARC
  5
3BD
330
1F
100
AcDbEntity
  8
0
  6
Continuous
 62
     7
370
    15
100
AcDbCircle
 10
620.450569308
 20
436.6685560251
 30
0.0
 40
2.000000000000042
100
AcDbArc
 50
331.5737995268
 51
31.1445078433
  0
ARC
  5
3BE
330
1F
100
AcDbEntity
  8
0
  6
Continuous
 62
     7
370
    15
100
AcDbCircle
 10
663.1897608886
 20
407.2520507158
 30
0.0
 40
2.000000000000057
100
AcDbArc
 50
79.7778206094
 51
90.0
  0
ARC
  5
3BF
330
1F
100
AcDbEntity
  8
0
  6
Continuous
 62
     7
370
    15
100
AcDbCircle
 10
728.2896322442
 20
436.6685560251
 30
0.0
 40
2.00000000000014
100
AcDbArc
 50
148.8554921567
 51
208.4262004732
  0
LINE
  5
3C0
330
1F
100
AcDbEntity
  8
0
  6
Continuous
 62
     7
370
    15
100
AcDbLine
 10
722.3883551158
 20
409.252052057
 30
0.0
 11
685.5504410885
 21
409.252052057
 31
0.0
  0
ARC
  5
3C1
330
1F
100
AcDbEntity
  8
0
  6
Continuous
 62
     7
370
    15
100
AcDbCircle
 10
685.5504406636
 20
407.2520507158
 30
0.0
 40
2.000000000000057
100
AcDbArc
 50
90.0
 51
100.2221793906
  0
ARC
  5
3C2
330
1F
100
AcDbEntity
  8
0
  6
Continuous
 62
     7
370
    15
100
AcDbCircle
 10
683.691974867
 20
403.9136801865
 30
0.0
 40
4.999999999999988
100
AcDbArc
 50
106.770514101
 51
176.1859251657
  0
ARC
  5
3C3
330
1F
100
AcDbEntity
  8
0
  6
Continuous
 62
     7
370
    15
100
AcDbCircle
 10
665.0482266853
 20
403.9136801865
 30
0.0
 40
5.0000000000001
100
AcDbArc
 50
3.8140748343
 51
81.8803640555
  0
LWPOLYLINE
  5
3C4
330
1F
100
AcDbEntity
  8
0
  6
Continuous
 62
     7
370
    15
100
AcDbPolyline
 90
       10
 70
   128
 43
0.0
 10
678.7030492522
 20
404.2462789001
 10
678.6672873967
 20
403.7098519983
 10
678.6323995873
 20
403.1865381183
 10
678.599503877
 20
402.6931010665
 10
678.5696545229
 20
402.2453584255
 10
678.5438075274
 20
401.857652563
 10
678.5227917679
 20
401.5424110474
 10
678.5072796591
 20
401.3097368659
 10
678.4977694586
 20
401.1670805992
 10
678.4945647776
 20
401.1190094532
  0
ARC
  5
3C5
330
1F
100
AcDbEntity
  8
0
  6
Continuous
 62
     7
370
    15
100
AcDbCircle
 10
676.4989945923
 20
401.2520507158
 30
0.0
 40
1.999999999999947
100
AcDbArc
 50
270.0
 51
356.1859251657
  0
LWPOLYLINE
  5
3C6
330
1F
100
AcDbEntity
  8
0
  6
Continuous
 62
     7
370
    15
100
AcDbPolyline
 90
       10
 70
   128
 43
0.0
 10
670.2456367746
 20
401.1190094532
 10
670.2424320936
 20
401.1670805992
 10
670.2329218932
 20
401.3097368659
 10
670.2174097844
 20
401.5424110474
 10
670.1963940248
 20
401.857652563
 10
670.1705470294
 20
402.2453584255
 10
670.1406976752
 20
402.6931010665
 10
670.1078019649
 20
403.1865381183
 10
670.0729141556
 20
403.7098519983
 10
670.0371523
 20
404.2462789001
  0
ARC
  5
3C7
330
1F
100
AcDbEntity
  8
0
  6
Continuous
 62
     7
370
    15
100
AcDbCircle
 10
672.2412069599
 20
401.2520507158
 30
0.0
 40
2.00000000000006
100
AcDbArc
 50
183.8140748343
 51
270.0
  0
LINE
  5
3C8
330
1F
100
AcDbEntity
  8
0
  6
Continuous
 62
     7
370
    15
100
AcDbLine
 10
676.4989945185
 20
399.2520504178
 30
0.0
 11
672.2412070338
 21
399.2520504178
 31
0.0
  0
LINE
  5
3C9
330
1F
100
AcDbEntity
  8
0
  6
Continuous
 62
     7
370
    15
100
AcDbLine
 10
631.3700993158
 20
529.2520493747
 30
0.0
 11
631.3700993158
 21
542.5732590737
 31
0.0
  0
SPLINE
  5
3CA
330
1F
100
AcDbEntity
  8
0
  6
Continuous
 62
     7
370
    15
100
AcDbSpline
210
0.0
220
0.0
230
1.0
 70
     8
 71
     3
 72
    26
 73
    22
 74
     0
 42
0.00000001
 43
0.00000001
 12
1.0
 22
0.0
 32
0.0
 13
1.0
 23
0.0
 33
0.0
 40
0.0
 40
0.0
 40
0.0
 40
0.0
 40
0.1250000000000015
 40
0.1250000000000015
 40
0.1875000000000026
 40
0.1875000000000026
 40
0.2500000000000038
 40
0.2500000000000038
 40
0.3750000000000036
 40
0.3750000000000036
 40
0.4375000000000028
 40
0.4375000000000028
 40
0.5000000000000021
 40
0.5000000000000021
 40
0.6250000000000016
 40
0.6250000000000016
 40
0.7500000000000011
 40
0.7500000000000011
 40
0.8750000000000006
 40
0.8750000000000006
 40
1.0
 40
1.0
 40
1.0
 40
1.0
 10
642.3330276429544
 20
547.9834037148928
 30
0.0
 10
641.5115322926746
 20
547.6491238427333
 30
0.0
 10
640.7095261042787
 20
547.3077845783954
 30
0.0
 10
639.5363509216986
 20
546.7878027280291
 30
0.0
 10
639.1502880525062
 20
546.6131565518538
 30
0.0
 10
638.388586401401
 20
546.2618327422764
 30
0.0
 10
638.0187572769705
 20
546.0878254497974
 30
0.0
 10
636.9484921140622
 20
545.5753696805085
 30
0.0
 10
636.2838670111822
 20
545.2449216157798
 30
0.0
 10
635.3608941391275
 20
544.7729167401145
 30
0.0
 10
635.0690676241436
 20
544.6213015979466
 30
0.0
 10
634.5229806386866
 20
544.3340206027284
 30
0.0
 10
634.2673896319592
 20
544.1976731953416
 30
0.0
 10
633.5501889145653
 20
543.8109527693116
 30
0.0
 10
633.1359626863925
 20
543.5817100453554
 30
0.0
 10
632.454960225012
 20
543.1998254803681
 30
0.0
 10
632.1834001826401
 20
543.0446140494998
 30
0.0
 10
631.7584110587401
 20
542.800021522286
 30
0.0
 10
631.6093700666027
 20
542.7131461397614
 30
0.0
 10
631.4152528269937
 20
542.5998091639466
 30
0.0
 10
631.3701007761205
 20
542.5732618351417
 30
0.0
 10
631.3701007761207
 20
542.5732618351417
 30
0.0
  0
SPLINE
  5
3CB
330
1F
100
AcDbEntity
  8
0
  6
Continuous
 62
     7
370
    15
100
AcDbSpline
210
0.0
220
0.0
230
1.0
 70
     8
 71
     3
 72
    28
 73
    24
 74
     0
 42
0.00000001
 43
0.00000001
 12
1.0
 22
0.0
 32
0.0
 13
1.0
 23
0.0
 33
0.0
 40
0.0
 40
0.0
 40
0.0
 40
0.0
 40
0.1249999999999997
 40
0.1249999999999997
 40
0.2499999999999993
 40
0.2499999999999993
 40
0.3124999999999993
 40
0.3124999999999993
 40
0.3749999999999992
 40
0.3749999999999992
 40
0.4374999999999992
 40
0.4374999999999992
 40
0.4999999999999991
 40
0.4999999999999991
 40
0.624999999999999
 40
0.624999999999999
 40
0.6874999999999983
 40
0.6874999999999983
 40
0.7499999999999978
 40
0.7499999999999978
 40
0.8749999999999989
 40
0.8749999999999989
 40
1.0
 40
1.0
 40
1.0
 40
1.0
 10
717.3701007761207
 20
542.5732618351482
 30
0.0
 10
717.3701007761207
 20
542.5732618351482
 30
0.0
 10
717.3249595644086
 20
542.5998020968634
 30
0.0
 10
717.1316554568168
 20
542.7126657926552
 30
0.0
 10
716.9836931223248
 20
542.7989132564624
 30
0.0
 10
716.6672697704857
 20
542.9810430161384
 30
0.0
 10
716.5454281003061
 20
543.0508761733739
 30
0.0
 10
716.2712766953991
 20
543.2068769978036
 30
0.0
 10
716.1186180743805
 20
543.2932487476907
 30
0.0
 10
715.7799089552442
 20
543.4832132364622
 30
0.0
 10
715.593867157103
 20
543.5868035650208
 30
0.0
 10
715.1853195597818
 20
543.811907954333
 30
0.0
 10
714.9613629338766
 20
543.9342053191691
 30
0.0
 10
714.2393159964889
 20
544.3236485190645
 30
0.0
 10
713.6973688203065
 20
544.6100570010269
 30
0.0
 10
712.7886428844641
 20
545.0750775813297
 30
0.0
 10
712.4696907635877
 20
545.2360087267604
 30
0.0
 10
711.7977567585467
 20
545.5692257151779
 30
0.0
 10
711.448004998352
 20
545.7398681727402
 30
0.0
 10
710.3752674819739
 20
546.2537180602038
 30
0.0
 10
709.6222155227803
 20
546.602143734296
 30
0.0
 10
708.0405009756151
 20
547.3036530983749
 30
0.0
 10
707.2301056022465
 20
547.6485393714429
 30
0.0
 10
706.4071739092869
 20
547.9834037148928
 30
0.0
  0
LINE
  5
3CC
330
1F
100
AcDbEntity
  8
0
  6
Continuous
 62
     7
370
    15
100
AcDbLine
 10
717.3701022364
 20
542.5732590737
 30
0.0
 11
717.3701022364
 21
529.2520493747
 31
0.0
  0
SPLINE
  5
3CD
330
1F
100
AcDbEntity
  8
0
  6
Continuous
 62
     7
370
    15
100
AcDbSpline
210
0.0
220
0.0
230
1.0
 70
     8
 71
     3
 72
    22
 73
    18
 74
     0
 42
0.00000001
 43
0.00000001
 12
1.0
 22
0.0
 32
0.0
 13
1.0
 23
0.0
 33
0.0
 40
0.0
 40
0.0
 40
0.0
 40
0.0
 40
0.2499999999999999
 40
0.2499999999999999
 40
0.3749999999999999
 40
0.3749999999999999
 40
0.4374999999999998
 40
0.4374999999999998
 40
0.4999999999999998
 40
0.4999999999999998
 40
0.7499999999999997
 40
0.7499999999999997
 40
0.8124999999999996
 40
0.8124999999999996
 40
0.8749999999999996
 40
0.8749999999999996
 40
1.0
 40
1.0
 40
1.0
 40
1.0
 10
706.4071739092868
 20
547.9834037148928
 30
0.0
 10
701.3095697565784
 20
550.0577020829932
 30
0.0
 10
696.0810938531708
 20
551.6136044169137
 30
0.0
 10
688.0466659094002
 20
553.188930293698
 30
0.0
 10
685.336349407033
 20
553.5867360248618
 30
0.0
 10
681.221137523092
 20
553.9867114769145
 30
0.0
 10
679.8467214862488
 20
554.0865149468043
 30
0.0
 10
677.1078845101172
 20
554.2190103883106
 30
0.0
 10
675.7410876544785
 20
554.2519417441904
 30
0.0
 10
668.9200176525452
 20
554.2524852533069
 30
0.0
 10
663.5041336224303
 20
553.7322884148668
 30
0.0
 10
656.7859944196459
 20
552.4245999216165
 30
0.0
 10
655.4449746254288
 20
552.1299050347045
 30
0.0
 10
652.768256318852
 20
551.4728476735593
 30
0.0
 10
651.4370187523576
 20
551.1114874470858
 30
0.0
 10
647.4803383482545
 20
549.933617438548
 30
0.0
 10
644.8852632942533
 20
549.0219500766545
 30
0.0
 10
642.3330276429544
 20
547.9834037148929
 30
0.0
  0
ARC
  5
3CE
330
1F
100
AcDbEntity
  8
0
  6
Continuous
 62
     7
370
    15
100
AcDbCircle
 10
674.3701007761
 20
469.2520507158
 30
0.0
 40
85.0
100
AcDbArc
 50
120.3899424493
 51
59.6100575507
  0
ARC
  5
3CF
330
1F
100
AcDbEntity
  8
0
  6
Continuous
 62
     7
370
    15
100
AcDbCircle
 10
674.3701007761
 20
469.2520507158
 30
0.0
 40
117.5
100
AcDbArc
 50
33.483726477
 51
56.516273523
  0
LINE
  5
3D0
330
1F
100
AcDbEntity
  8
0
  6
Continuous
 62
     7
370
    15
100
AcDbLine
 10
772.3700982131
 20
404.4272833051
 30
0.0
 11
772.3700982131
 21
534.0768181266
 31
0.0
  0
ARC
  5
3D1
330
1F
100
AcDbEntity
  8
0
  6
Continuous
 62
     7
370
    15
100
AcDbCircle
 10
674.3701007761
 20
469.2520507158
 30
0.0
 40
117.5
100
AcDbArc
 50
303.483726477
 51
326.516273523
  0
LINE
  5
3D2
330
1F
100
AcDbEntity
  8
0
  6
Continuous
 62
     7
370
    15
100
AcDbLine
 10
609.5453333654
 20
371.2520532788
 30
0.0
 11
739.1948681869
 21
371.2520532788
 31
0.0
  0
ARC
  5
3D3
330
1F
100
AcDbEntity
  8
0
  6
Continuous
 62
     7
370
    15
100
AcDbCircle
 10
674.3701007761
 20
469.2520507158
 30
0.0
 40
117.5
100
AcDbArc
 50
213.483726477
 51
236.516273523
  0
LINE
  5
3D4
330
1F
100
AcDbEntity
  8
0
  6
Continuous
 62
     7
370
    15
100
AcDbLine
 10
576.3701033391
 20
534.0768181266
 30
0.0
 11
576.3701033391
 21
404.4272833051
 31
0.0
  0
ARC
  5
3D5
330
1F
100
AcDbEntity
  8
0
  6
Continuous
 62
     7
370
    15
100
AcDbCircle
 10
674.3701007761
 20
469.2520507158
 30
0.0
 40
117.5
100
AcDbArc
 50
123.483726477
 51
146.516273523
  0
LINE
  5
3D6
330
1F
100
AcDbEntity
  8
0
  6
Continuous
 62
     7
370
    15
100
AcDbLine
 10
636.471120695
 20
567.2520481528
 30
0.0
 11
609.5453333654
 21
567.2520481528
 31
0.0
  0
ARC
  5
3D7
330
1F
100
AcDbEntity
  8
0
  6
Continuous
 62
     7
370
    15
100
AcDbCircle
 10
636.4711212906
 20
572.2520507158
 30
0.0
 40
5.000000000000013
100
AcDbArc
 50
270.0
 51
314.4153085972
  0
ARC
  5
3D8
330
1F
100
AcDbEntity
  8
0
  6
Continuous
 62
     7
370
    15
100
AcDbCircle
 10
641.3701007761
 20
567.2520507158
 30
0.0
 40
2.000000000000037
100
AcDbArc
 50
90.0
 51
134.4153085972
  0
LINE
  5
3D9
330
1F
100
AcDbEntity
  8
0
  6
Continuous
 62
     7
370
    15
100
AcDbLine
 10
641.3701009549
 20
569.252052206
 30
0.0
 11
707.3701005973
 21
569.252052206
 31
0.0
  0
ARC
  5
3DA
330
1F
100
AcDbEntity
  8
0
  6
Continuous
 62
     7
370
    15
100
AcDbCircle
 10
707.3701007761
 20
567.2520507158
 30
0.0
 40
2.000000000000037
100
AcDbArc
 50
45.5846914028
 51
90.0
  0
ARC
  5
3DB
330
1F
100
AcDbEntity
  8
0
  6
Continuous
 62
     7
370
    15
100
AcDbCircle
 10
712.2690802617
 20
572.2520507158
 30
0.0
 40
5.0
100
AcDbArc
 50
225.5846914028
 51
270.0
  0
LINE
  5
3DC
330
1F
100
AcDbEntity
  8
0
  6
Continuous
 62
     7
370
    15
100
AcDbLine
 10
739.1948681869
 20
567.2520481528
 30
0.0
 11
712.2690808572
 21
567.2520481528
 31
0.0
  0
CIRCLE
  5
3DD
330
1F
100
AcDbEntity
  8
0
  6
Continuous
 62
     7
370
    15
100
AcDbCircle
 10
598.3561217986
 20
545.2660296934
 30
0.0
 40
6.0
  0
CIRCLE
  5
3DE
330
1F
100
AcDbEntity
  8
0
  6
Continuous
 62
     7
370
    15
100
AcDbCircle
 10
598.3561217986
 20
393.2380717383
 30
0.0
 40
6.0
  0
CIRCLE
  5
3DF
330
1F
100
AcDbEntity
  8
0
  6
Continuous
 62
     7
370
    15
100
AcDbCircle
 10
750.3840797537
 20
393.2380717383
 30
0.0
 40
6.0
  0
CIRCLE
  5
3E0
330
1F
100
AcDbEntity
  8
0
  6
Continuous
 62
     7
370
    15
100
AcDbCircle
 10
750.3840797537
 20
545.2660296934
 30
0.0
 40
6.0
  0
INSERT
  5
425
330
1F
100
AcDbEntity
  8
SLD-0
 62
     7
100
AcDbBlockReference
  2
SW_CENTERMARKSYMBOL_1
 10
598.3561217986
 20
545.2660296934
 30
0.0
  0
ENDSEC
  0
SECTION
  2
OBJECTS
  0
DICTIONARY
  5
C
330
0
100
AcDbDictionary
281
     1
  3
ACAD_GROUP
350
D
  3
ACAD_LAYOUT
350
1A
  3
ACAD_MLINESTYLE
350
17
  3
ACAD_PLOTSETTINGS
350
19
  3
ACAD_PLOTSTYLENAME
350
E
  0
DICTIONARY
  5
D
102
{ACAD_REACTORS
330
C
102
}
330
C
100
AcDbDictionary
281
     1
  0
DICTIONARY
  5
1A
102
{ACAD_REACTORS
330
C
102
}
330
C
100
AcDbDictionary
281
     1
  3
Layout1
350
1E
  3
Layout2
350
26
  3
Model
350
22
  0
DICTIONARY
  5
17
102
{ACAD_REACTORS
330
C
102
}
330
C
100
AcDbDictionary
281
     1
  3
Standard
350
18
  0
DICTIONARY
  5
19
102
{ACAD_REACTORS
330
C
102
}
330
C
100
AcDbDictionary
281
     1
  0
ACDBDICTIONARYWDFLT
  5
E
102
{ACAD_REACTORS
330
C
102
}
330
C
100
AcDbDictionary
281
     1
  3
Normal
350
F
100
AcDbDictionaryWithDefault
340
F
  0
LAYOUT
  5
1E
102
{ACAD_REACTORS
330
1A
102
}
330
1A
100
AcDbPlotSettings
  1

  2
none_device
  4

  6

 40
0.0
 41
0.0
 42
0.0
 43
0.0
 44
0.0
 45
0.0
 46
0.0
 47
0.0
 48
0.0
 49
0.0
140
0.0
141
0.0
142
1.0
143
1.0
 70
   688
 72
     0
 73
     0
 74
     5
  7

 75
    16
147
1.0
148
0.0
149
0.0
100
AcDbLayout
  1
Layout1
 70
     1
 71
     1
 10
0.0
 20
0.0
 11
420.0
 21
297.0
 12
0.0
 22
0.0
 32
0.0
 14
1.0000000000E+20
 24
1.0000000000E+20
 34
1.0000000000E+20
 15
-1.0000000000E+20
 25
-1.0000000000E+20
 35
-1.0000000000E+20
146
0.0
 13
0.0
 23
0.0
 33
0.0
 16
1.0
 26
0.0
 36
0.0
 17
0.0
 27
1.0
 37
0.0
 76
     0
330
1B
  0
LAYOUT
  5
26
102
{ACAD_REACTORS
330
1A
102
}
330
1A
100
AcDbPlotSettings
  1

  2
none_device
  4

  6

 40
0.0
 41
0.0
 42
0.0
 43
0.0
 44
0.0
 45
0.0
 46
0.0
 47
0.0
 48
0.0
 49
0.0
140
0.0
141
0.0
142
1.0
143
1.0
 70
   688
 72
     0
 73
     0
 74
     5
  7

 75
    16
147
1.0
148
0.0
149
0.0
100
AcDbLayout
  1
Layout2
 70
     1
 71
     2
 10
0.0
 20
0.0
 11
0.0
 21
0.0
 12
0.0
 22
0.0
 32
0.0
 14
0.0
 24
0.0
 34
0.0
 15
0.0
 25
0.0
 35
0.0
146
0.0
 13
0.0
 23
0.0
 33
0.0
 16
1.0
 26
0.0
 36
0.0
 17
0.0
 27
1.0
 37
0.0
 76
     0
330
23
  0
LAYOUT
  5
22
102
{ACAD_REACTORS
330
1A
102
}
330
1A
100
AcDbPlotSettings
  1

  2
none_device
  4

  6

 40
0.0
 41
0.0
 42
0.0
 43
0.0
 44
0.0
 45
0.0
 46
0.0
 47
0.0
 48
0.0
 49
0.0
140
0.0
141
0.0
142
1.0
143
1.0
 70
  1712
 72
     0
 73
     0
 74
     0
  7

 75
     0
147
1.0
148
0.0
149
0.0
100
AcDbLayout
  1
Model
 70
     1
 71
     0
 10
0.0
 20
0.0
 11
1260.0
 21
1782.0
 12
0.0
 22
0.0
 32
0.0
 14
0.0
 24
0.0
 34
0.0
 15
1260.0
 25
1782.0
 35
0.0
146
0.0
 13
0.0
 23
0.0
 33
0.0
 16
1.0
 26
0.0
 36
0.0
 17
0.0
 27
1.0
 37
0.0
 76
     0
330
1F
331
29
  0
MLINESTYLE
  5
18
102
{ACAD_REACTORS
330
17
102
}
330
17
100
AcDbMlineStyle
  2
Standard
 70
     0
  3

 62
   256
 51
90.0
 52
90.0
 71
     2
 49
0.5
 62
   256
  6
BYLAYER
 49
-0.5
 62
   256
  6
BYLAYER
  0
ACDBPLACEHOLDER
  5
F
102
{ACAD_REACTORS
330
E
102
}
330
E
  0
ENDSEC
  0
EOF
