  0
SECTION
  2
HEADER
  9
$ACADVER
  1
AC1009
  9
$DWGCODEPAGE
  3
dos932
  9
$INSBASE
 10
0.0
 20
0.0
 30
0.0
  9
$EXTMIN
 10
0.0
 20
0.0
 30
0.0
  9
$EXTMAX
 10
1050.0
 20
1485.0
 30
0.0
  9
$LIMMIN
 10
0.0
 20
0.0
  9
$LIMMAX
 10
1050.0
 20
1485.0
  9
$ORTHOMODE
 70
     0
  9
$REGENMODE
 70
     1
  9
$FILLMODE
 70
     1
  9
$QTEXTMODE
 70
     0
  9
$MIRRTEXT
 70
     1
  9
$DRAGMODE
 70
     2
  9
$LTSCALE
 40
5.0
  9
$OSMODE
 70
    37
  9
$ATTMODE
 70
     1
  9
$TEXTSIZE
 40
17.5
  9
$TRACEWID
 40
1.0
  9
$TEXTSTYLE
  7
STANDARD
  9
$CLAYER
  8
0
  9
$CELTYPE
  6
BYLAYER
  9
$CECOLOR
 62
   256
  9
$DIMSCALE
 40
1.0
  9
$DIMASZ
 40
12.5
  9
$DIMEXO
 40
5.0
  9
$DIMDLI
 40
3.75
  9
$DIMRND
 40
0.0
  9
$DIMDLE
 40
0.0
  9
$DIMEXE
 40
5.0
  9
$DIMTP
 40
0.0
  9
$DIMTM
 40
0.0
  9
$DIMTXT
 40
17.5
  9
$DIMCEN
 40
2.5
  9
$DIMTSZ
 40
0.0
  9
$DIMTOL
 70
     0
  9
$DIMLIM
 70
     0
  9
$DIMTIH
 70
     1
  9
$DIMTOH
 70
     1
  9
$DIMSE1
 70
     0
  9
$DIMSE2
 70
     0
  9
$DIMTAD
 70
     1
  9
$DIMZIN
 70
     1
  9
$DIMBLK
  1

  9
$DIMASO
 70
     1
  9
$DIMSHO
 70
     1
  9
$DIMPOST
  1

  9
$DIMAPOST
  1

  9
$DIMALT
 70
     0
  9
$DIMALTD
 70
     3
  9
$DIMALTF
 40
0.0393700787
  9
$DIMLFAC
 40
1.0
  9
$DIMTOFL
 70
     1
  9
$DIMTVP
 40
0.0
  9
$DIMTIX
 70
     0
  9
$DIMSOXD
 70
     0
  9
$DIMSAH
 70
     0
  9
$DIMBLK1
  1

  9
$DIMBLK2
  1

  9
$DIMSTYLE
  2
ISO-25
  9
$DIMCLRD
 70
     0
  9
$DIMCLRE
 70
     0
  9
$DIMCLRT
 70
     0
  9
$DIMTFAC
 40
1.0
  9
$DIMGAP
 40
7.62
  9
$LUNITS
 70
     2
  9
$LUPREC
 70
     2
  9
$SKETCHINC
 40
1.0
  9
$FILLETRAD
 40
10.0
  9
$AUNITS
 70
     0
  9
$AUPREC
 70
     0
  9
$MENU
  1
.
  9
$ELEVATION
 40
0.0
  9
$PELEVATION
 40
0.0
  9
$THICKNESS
 40
0.0
  9
$LIMCHECK
 70
     0
  9
$CHAMFERA
 40
0.0
  9
$CHAMFERB
 40
0.0
  9
$SKPOLY
 70
     0
  9
$TDCREATE
 40
2458141.46301515
  9
$TDUPDATE
 40
2458141.463016227
  9
$TDINDWG
 40
0.0000000116
  9
$TDUSRTIMER
 40
0.0000000116
  9
$USRTIMER
 70
     1
  9
$ANGBASE
 50
0.0
  9
$ANGDIR
 70
     0
  9
$PDMODE
 70
     0
  9
$PDSIZE
 40
-1.0
  9
$PLINEWID
 40
0.0
  9
$COORDS
 70
     1
  9
$SPLFRAME
 70
     0
  9
$SPLINETYPE
 70
     6
  9
$SPLINESEGS
 70
     8
  9
$ATTDIA
 70
     0
  9
$ATTREQ
 70
     1
  9
$HANDLING
 70
     1
  9
$HANDSEED
  5
9EE
  9
$SURFTAB1
 70
     6
  9
$SURFTAB2
 70
     6
  9
$SURFTYPE
 70
     6
  9
$SURFU
 70
     6
  9
$SURFV
 70
     6
  9
$UCSNAME
  2

  9
$UCSORG
 10
0.0
 20
0.0
 30
0.0
  9
$UCSXDIR
 10
1.0
 20
0.0
 30
0.0
  9
$UCSYDIR
 10
0.0
 20
1.0
 30
0.0
  9
$PUCSNAME
  2

  9
$PUCSORG
 10
0.0
 20
0.0
 30
0.0
  9
$PUCSXDIR
 10
1.0
 20
0.0
 30
0.0
  9
$PUCSYDIR
 10
0.0
 20
1.0
 30
0.0
  9
$USERI1
 70
     0
  9
$USERI2
 70
     0
  9
$USERI3
 70
     0
  9
$USERI4
 70
     0
  9
$USERI5
 70
     0
  9
$USERR1
 40
0.0
  9
$USERR2
 40
0.0
  9
$USERR3
 40
0.0
  9
$USERR4
 40
0.0
  9
$USERR5
 40
0.0
  9
$WORLDVIEW
 70
     1
  9
$SHADEDGE
 70
     3
  9
$SHADEDIF
 70
    70
  9
$TILEMODE
 70
     1
  9
$MAXACTVP
 70
    64
  9
$PLIMCHECK
 70
     0
  9
$PEXTMIN
 10
1.0000000000E+20
 20
1.0000000000E+20
 30
1.0000000000E+20
  9
$PEXTMAX
 10
-1.0000000000E+20
 20
-1.0000000000E+20
 30
-1.0000000000E+20
  9
$PLIMMIN
 10
0.0
 20
0.0
  9
$PLIMMAX
 10
420.0
 20
297.0
  9
$UNITMODE
 70
     0
  9
$VISRETAIN
 70
     1
  9
$PLINEGEN
 70
     0
  9
$PSLTSCALE
 70
     1
  0
ENDSEC
  0
SECTION
  2
TABLES
  0
TABLE
  2
VPORT
 70
     1
  0
VPORT
  2
*ACTIVE
 70
     0
 10
0.0
 20
0.0
 11
1.0
 21
1.0
 12
525.0
 22
742.5
 13
0.0
 23
0.0
 14
10.0
 24
10.0
 15
10.0
 25
10.0
 16
0.0
 26
0.0
 36
1.0
 17
0.0
 27
0.0
 37
0.0
 40
1485.0
 41
0.7070707071
 42
50.0
 43
0.0
 44
0.0
 50
0.0
 51
0.0
 71
     0
 72
  2000
 73
     1
 74
     3
 75
     0
 76
     0
 77
     0
 78
     0
  0
ENDTAB
  0
TABLE
  2
LTYPE
 70
     6
  0
LTYPE
  2
CONTINUOUS
 70
     0
  3
Solid line
 72
    65
 73
     0
 40
0.0
  0
LTYPE
  2
HIDDEN
 70
     0
  3
Hidden __ __ __ __ __ __ __ __ __ __ __ __ __ __
 72
    65
 73
     2
 40
1.905
 49
1.27
 49
-0.635
  0
LTYPE
  2
PHANTOM
 70
     0
  3
Phantom ______  __  __  ______  __  __  ______
 72
    65
 73
     6
 40
12.7
 49
6.35
 49
-1.27
 49
1.27
 49
-1.27
 49
1.27
 49
-1.27
  0
LTYPE
  2
CENTER
 70
     0
  3
Center ____ _ ____ _ ____ _ ____ _ ____ _ ____
 72
    65
 73
     4
 40
10.16
 49
6.35
 49
-1.27
 49
1.27
 49
-1.27
  0
LTYPE
  2
CENTERX2
 70
     0
  3
Center (2x) ________  __  ________  __  _____
 72
    65
 73
     4
 40
20.32
 49
12.7
 49
-2.54
 49
2.54
 49
-2.54
  0
LTYPE
  2
DOT2
 70
     0
  3
Dot (.5x) ........................................
 72
    65
 73
     2
 40
0.635
 49
0.0
 49
-0.635
  0
ENDTAB
  0
TABLE
  2
LAYER
 70
    11
  0
LAYER
  2
0
 70
     0
 62
     7
  6
CONTINUOUS
  0
LAYER
  2
SLD-0
 70
     0
 62
   179
  6
CONTINUOUS
  0
LAYER
  2
AM_6
 70
     0
 62
     2
  6
CONTINUOUS
  0
LAYER
  2
AM_5
 70
     0
 62
     3
  6
CONTINUOUS
  0
LAYER
  2
AM_7
 70
     0
 62
     4
  6
CONTINUOUS
  0
LAYER
  2
SLD-DEFPOINTS
 70
     0
 62
   179
  6
CONTINUOUS
  0
LAYER
  2
AM_0
 70
     0
 62
   179
  6
CONTINUOUS
  0
LAYER
  2
AM_CL
 70
     0
 62
     1
  6
CONTINUOUS
  0
LAYER
  2
6
 70
     0
 62
     2
  6
CONTINUOUS
  0
LAYER
  2
AM_4
 70
     0
 62
     3
  6
CONTINUOUS
  0
LAYER
  2
AM_8
 70
     0
 62
     1
  6
CONTINUOUS
  0
ENDTAB
  0
TABLE
  2
STYLE
 70
     1
  0
STYLE
  2
STANDARD
 70
     0
 40
0.0
 41
1.0
 50
0.0
 71
     0
 42
17.5
  3
txt
  4
bigfont
  0
ENDTAB
  0
TABLE
  2
VIEW
 70
     0
  0
ENDTAB
  0
TABLE
  2
UCS
 70
     0
  0
ENDTAB
  0
TABLE
  2
APPID
 70
     1
  0
APPID
  2
ACAD
 70
     0
  0
ENDTAB
  0
TABLE
  2
DIMSTYLE
 70
     1
  0
DIMSTYLE
  2
ISO-25
 70
     0
  3

  4

  5

  6

  7

 40
1.0
 41
2.5
 42
0.625
 43
3.75
 44
1.25
 45
0.0
 46
0.0
 47
0.0
 48
0.0
140
2.5
141
2.5
142
0.0
143
0.0393700787
144
1.0
145
0.0
146
1.0
147
0.625
 71
     0
 72
     0
 73
     0
 74
     0
 75
     0
 76
     0
 77
     1
 78
     8
170
     0
171
     3
172
     1
173
     0
174
     0
175
     0
176
     0
177
     0
178
     0
  0
ENDTAB
  0
ENDSEC
  0
SECTION
  2
BLOCKS
  0
BLOCK
  8
0
  2
$MODEL_SPACE
 70
     0
 10
0.0
 20
0.0
 30
0.0
  3
$MODEL_SPACE
  1

  0
ENDBLK
  5
21
  8
0
  0
BLOCK
 67
     1
  8
0
  2
$PAPER_SPACE
 70
     0
 10
0.0
 20
0.0
 30
0.0
  3
$PAPER_SPACE
  1

  0
ENDBLK
  5
1D
 67
     1
  8
0
  0
BLOCK
  8
0
  2
SW_CENTERMARKSYMBOL_0
 70
     0
 10
0.0
 20
0.0
 30
0.0
  3
SW_CENTERMARKSYMBOL_0
  1

  0
LINE
  5
1C8
  8
SLD-0
 62
     0
 10
0.0
 20
0.0
 30
0.0
 11
0.0
 21
2.5
 31
0.0
  0
LINE
  5
1C9
  8
SLD-0
 62
     0
 10
0.0
 20
0.0
 30
0.0
 11
-2.5
 21
0.0
 31
0.0
  0
LINE
  5
1CA
  8
SLD-0
 62
     0
 10
0.0
 20
0.0
 30
0.0
 11
0.0
 21
-2.5
 31
0.0
  0
LINE
  5
1CB
  8
SLD-0
 62
     0
 10
0.0
 20
0.0
 30
0.0
 11
2.5
 21
0.0
 31
0.0
  0
LINE
  5
1CC
  8
SLD-0
 62
     0
 10
0.0
 20
5.0
 30
0.0
 11
0.0
 21
124.2130254475
 31
0.0
  0
LINE
  5
1CD
  8
SLD-0
 62
     0
 10
-5.0
 20
0.0
 30
0.0
 11
-119.4589326743
 21
0.0
 31
0.0
  0
LINE
  5
1CE
  8
SLD-0
 62
     0
 10
0.0
 20
-5.0
 30
0.0
 11
0.0
 21
-116.6190109953
 31
0.0
  0
LINE
  5
1CF
  8
SLD-0
 62
     0
 10
5.0
 20
0.0
 30
0.0
 11
135.0319285607
 21
0.0
 31
0.0
  0
ENDBLK
  5
1C7
  8
0
  0
BLOCK
  8
0
  2
SW_CENTERMARKSYMBOL_1
 70
     0
 10
0.0
 20
0.0
 30
0.0
  3
SW_CENTERMARKSYMBOL_1
  1

  0
ARC
  5
1D4
  8
SLD-0
 62
     0
 10
76.0139789776
 20
-76.0139789776
 30
0.0
 40
107.5
 50
135.0
 51
136.3324599887
  0
ARC
  5
1D5
  8
SLD-0
 62
     0
 10
76.0139789776
 20
-76.0139789776
 30
0.0
 40
107.5
 50
133.6675400113
 51
135.0
  0
ARC
  5
1D6
  8
SLD-0
 62
     0
 10
76.0139789776
 20
-76.0139789776
 30
0.0
 40
107.4999999999999
 50
45.0
 51
46.3324599887
  0
ARC
  5
1D7
  8
SLD-0
 62
     0
 10
76.0139789776
 20
-76.0139789776
 30
0.0
 40
107.5
 50
43.6675400113
 51
45.0
  0
ARC
  5
1D8
  8
SLD-0
 62
     0
 10
76.0139789776
 20
-76.0139789776
 30
0.0
 40
107.5
 50
315.0
 51
316.3324599887
  0
ARC
  5
1D9
  8
SLD-0
 62
     0
 10
76.0139789776
 20
-76.0139789776
 30
0.0
 40
107.5
 50
313.6675400113
 51
315.0
  0
ARC
  5
1DA
  8
SLD-0
 62
     0
 10
76.0139789776
 20
-76.0139789776
 30
0.0
 40
107.5000000000001
 50
225.0
 51
226.3324599887
  0
ARC
  5
1DB
  8
SLD-0
 62
     0
 10
76.0139789776
 20
-76.0139789776
 30
0.0
 40
107.5000000000001
 50
223.6675400113
 51
225.0
  0
ARC
  5
1DC
  8
SLD-0
 62
     0
 10
76.0139789776
 20
-76.0139789776
 30
0.0
 40
107.5
 50
47.6649199774
 51
132.3350800226
  0
ARC
  5
1DD
  8
SLD-0
 62
     0
 10
76.0139789776
 20
-76.0139789776
 30
0.0
 40
107.4999999999999
 50
317.6649199774
 51
42.3350800226
  0
ARC
  5
1DE
  8
SLD-0
 62
     0
 10
76.0139789776
 20
-76.0139789776
 30
0.0
 40
107.5
 50
137.6649199774
 51
222.3350800226
  0
ARC
  5
1DF
  8
SLD-0
 62
     0
 10
76.0139789776
 20
-76.0139789776
 30
0.0
 40
107.5000000000001
 50
227.6649199774
 51
312.3350800226
  0
LINE
  5
1E0
  8
SLD-0
 62
     0
 10
0.0
 20
0.0
 30
0.0
 11
-1.767766953
 21
1.767766953
 31
0.0
  0
LINE
  5
1E1
  8
SLD-0
 62
     0
 10
0.0
 20
0.0
 30
0.0
 11
1.767766953
 21
-1.767766953
 31
0.0
  0
LINE
  5
1E2
  8
SLD-0
 62
     0
 10
-3.5355339059
 20
3.5355339059
 30
0.0
 11
-6.0104076401
 21
6.0104076401
 31
0.0
  0
LINE
  5
1E3
  8
SLD-0
 62
     0
 10
3.5355339059
 20
-3.5355339059
 30
0.0
 11
6.0104076401
 21
-6.0104076401
 31
0.0
  0
LINE
  5
1E4
  8
SLD-0
 62
     0
 10
152.0279579551
 20
0.0
 30
0.0
 11
153.7957249081
 21
1.767766953
 31
0.0
  0
LINE
  5
1E5
  8
SLD-0
 62
     0
 10
152.0279579551
 20
0.0
 30
0.0
 11
150.2601910021
 21
-1.767766953
 31
0.0
  0
LINE
  5
1E6
  8
SLD-0
 62
     0
 10
155.563491861
 20
3.5355339059
 30
0.0
 11
158.0383655952
 21
6.0104076401
 31
0.0
  0
LINE
  5
1E7
  8
SLD-0
 62
     0
 10
148.4924240492
 20
-3.5355339059
 30
0.0
 11
146.017550315
 21
-6.0104076401
 31
0.0
  0
LINE
  5
1E8
  8
SLD-0
 62
     0
 10
152.0279579551
 20
-152.0279579551
 30
0.0
 11
153.7957249081
 21
-153.7957249081
 31
0.0
  0
LINE
  5
1E9
  8
SLD-0
 62
     0
 10
152.0279579551
 20
-152.0279579551
 30
0.0
 11
150.2601910021
 21
-150.2601910021
 31
0.0
  0
LINE
  5
1EA
  8
SLD-0
 62
     0
 10
155.563491861
 20
-155.563491861
 30
0.0
 11
158.0383655952
 21
-158.0383655952
 31
0.0
  0
LINE
  5
1EB
  8
SLD-0
 62
     0
 10
148.4924240492
 20
-148.4924240492
 30
0.0
 11
146.017550315
 21
-146.017550315
 31
0.0
  0
LINE
  5
1EC
  8
SLD-0
 62
     0
 10
76.0139789776
 20
-76.0139789776
 30
0.0
 11
76.0139789776
 21
-73.5139789776
 31
0.0
  0
LINE
  5
1ED
  8
SLD-0
 62
     0
 10
76.0139789776
 20
-76.0139789776
 30
0.0
 11
73.5139789776
 21
-76.0139789776
 31
0.0
  0
LINE
  5
1EE
  8
SLD-0
 62
     0
 10
76.0139789776
 20
-76.0139789776
 30
0.0
 11
76.0139789776
 21
-78.5139789776
 31
0.0
  0
LINE
  5
1EF
  8
SLD-0
 62
     0
 10
76.0139789776
 20
-76.0139789776
 30
0.0
 11
78.5139789776
 21
-76.0139789776
 31
0.0
  0
LINE
  5
1F0
  8
SLD-0
 62
     0
 10
76.0139789776
 20
-71.0139789776
 30
0.0
 11
76.0139789776
 21
2.5
 31
0.0
  0
LINE
  5
1F1
  8
SLD-0
 62
     0
 10
71.0139789776
 20
-76.0139789776
 30
0.0
 11
-2.5
 21
-76.0139789776
 31
0.0
  0
LINE
  5
1F2
  8
SLD-0
 62
     0
 10
76.0139789776
 20
-81.0139789776
 30
0.0
 11
76.0139789776
 21
-154.5279579551
 31
0.0
  0
LINE
  5
1F3
  8
SLD-0
 62
     0
 10
81.0139789776
 20
-76.0139789776
 30
0.0
 11
154.5279579551
 21
-76.0139789776
 31
0.0
  0
LINE
  5
1F4
  8
SLD-0
 62
     0
 10
0.0
 20
-152.0279579551
 30
0.0
 11
-1.767766953
 21
-153.7957249081
 31
0.0
  0
LINE
  5
1F5
  8
SLD-0
 62
     0
 10
0.0
 20
-152.0279579551
 30
0.0
 11
1.767766953
 21
-150.2601910021
 31
0.0
  0
LINE
  5
1F6
  8
SLD-0
 62
     0
 10
-3.5355339059
 20
-155.563491861
 30
0.0
 11
-6.0104076401
 21
-158.0383655952
 31
0.0
  0
LINE
  5
1F7
  8
SLD-0
 62
     0
 10
3.5355339059
 20
-148.4924240492
 30
0.0
 11
6.0104076401
 21
-146.017550315
 31
0.0
  0
ENDBLK
  5
1D3
  8
0
  0
BLOCK
  8
0
  2
SW_CENTERMARKSYMBOL_2
 70
     0
 10
0.0
 20
0.0
 30
0.0
  3
SW_CENTERMARKSYMBOL_2
  1

  0
LINE
  5
544
  8
SLD-0
 62
     0
 10
0.0
 20
0.0
 30
0.0
 11
0.0
 21
2.5
 31
0.0
  0
LINE
  5
545
  8
SLD-0
 62
     0
 10
0.0
 20
0.0
 30
0.0
 11
-2.5
 21
0.0
 31
0.0
  0
LINE
  5
546
  8
SLD-0
 62
     0
 10
0.0
 20
0.0
 30
0.0
 11
0.0
 21
-2.5
 31
0.0
  0
LINE
  5
547
  8
SLD-0
 62
     0
 10
0.0
 20
0.0
 30
0.0
 11
2.5
 21
0.0
 31
0.0
  0
LINE
  5
548
  8
SLD-0
 62
     0
 10
0.0
 20
5.0
 30
0.0
 11
0.0
 21
214.8948109239
 31
0.0
  0
LINE
  5
549
  8
SLD-0
 62
     0
 10
-5.0
 20
0.0
 30
0.0
 11
-87.2859766133
 21
0.0
 31
0.0
  0
LINE
  5
54A
  8
SLD-0
 62
     0
 10
0.0
 20
-5.0
 30
0.0
 11
0.0
 21
-222.3142108856
 31
0.0
  0
LINE
  5
54B
  8
SLD-0
 62
     0
 10
5.0
 20
0.0
 30
0.0
 11
84.7121467244
 21
0.0
 31
0.0
  0
ENDBLK
  5
543
  8
0
  0
ENDSEC
  0
SECTION
  2
ENTITIES
  0
LINE
  5
7D
  8
0
  6
CONTINUOUS
 62
     7
 10
631.164480088
 20
483.8782647561
 30
0.0
 11
629.7857575992
 21
483.8782647561
 31
0.0
  0
LINE
  5
7E
  8
0
  6
CONTINUOUS
 62
     7
 10
629.7857575992
 20
479.8782659631
 30
0.0
 11
631.3248463848
 21
479.8782659631
 31
0.0
  0
LINE
  5
7F
  8
0
  6
CONTINUOUS
 62
     7
 10
636.8754469731
 20
485.8782650839
 30
0.0
 11
636.1353584507
 21
485.8782650839
 31
0.0
  0
LINE
  5
80
  8
0
  6
CONTINUOUS
 62
     7
 10
637.0225363353
 20
485.8284020733
 30
0.0
 11
636.9049363711
 21
485.8526723395
 31
0.0
  0
LINE
  5
81
  8
0
  6
CONTINUOUS
 62
     7
 10
636.8754469731
 20
477.8782656352
 30
0.0
 11
637.0888763049
 21
477.9252955626
 31
0.0
  0
ARC
  5
82
  8
0
  6
CONTINUOUS
 62
     7
 10
632.2289565018
 20
481.8782652627
 30
0.0
 40
6.50000000000002
 50
328.9823638146
 51
31.0176361854
  0
LINE
  5
83
  8
0
  6
CONTINUOUS
 62
     7
 10
631.3248463848
 20
425.8782645624
 30
0.0
 11
629.7857575992
 21
425.8782645624
 31
0.0
  0
LINE
  5
84
  8
0
  6
CONTINUOUS
 62
     7
 10
629.7857575992
 20
421.8782657694
 30
0.0
 11
631.286364136
 21
421.8782657694
 31
0.0
  0
LINE
  5
85
  8
0
  6
CONTINUOUS
 62
     7
 10
636.5194582322
 20
419.8782654415
 30
0.0
 11
636.8754469731
 21
419.8782654415
 31
0.0
  0
LINE
  5
86
  8
0
  6
CONTINUOUS
 62
     7
 10
637.0225363353
 20
427.8284018795
 30
0.0
 11
636.9049363711
 21
427.8526740085
 31
0.0
  0
LINE
  5
87
  8
0
  6
CONTINUOUS
 62
     7
 10
636.8754469731
 20
419.8782654415
 30
0.0
 11
637.0888763049
 21
419.9252972315
 31
0.0
  0
ARC
  5
88
  8
0
  6
CONTINUOUS
 62
     7
 10
632.2289565018
 20
423.8782652627
 30
0.0
 40
6.499999999999992
 50
328.9823638146
 51
31.0176361854
  0
LINE
  5
89
  8
0
  6
CONTINUOUS
 62
     7
 10
638.5714971402
 20
442.110316449
 30
0.0
 11
638.621490536
 21
442.110316449
 31
0.0
  0
LINE
  5
8A
  8
0
  6
CONTINUOUS
 62
     7
 10
638.621490536
 20
463.6462140765
 30
0.0
 11
638.5714971402
 21
463.6462140765
 31
0.0
  0
POLYLINE
  5
8B
  8
0
  6
CONTINUOUS
 62
     7
 66
     1
 10
0.0
 20
0.0
 30
0.0
 70
   128
  0
VERTEX
  5
54D
  8
0
  6
CONTINUOUS
 62
     7
 10
636.8945204595
 20
481.8782644282
 30
0.0
  0
VERTEX
  5
54E
  8
0
  6
CONTINUOUS
 62
     7
 10
636.8777566531
 20
482.5468348275
 30
0.0
  0
VERTEX
  5
54F
  8
0
  6
CONTINUOUS
 62
     7
 10
636.7528104165
 20
483.7875744264
 30
0.0
  0
VERTEX
  5
550
  8
0
  6
CONTINUOUS
 62
     7
 10
636.5005337575
 20
484.9458509992
 30
0.0
  0
VERTEX
  5
551
  8
0
  6
CONTINUOUS
 62
     7
 10
636.0842027643
 20
486.0088812123
 30
0.0
  0
VERTEX
  5
552
  8
0
  6
CONTINUOUS
 62
     7
 10
635.5831959227
 20
486.746611626
 30
0.0
  0
VERTEX
  5
553
  8
0
  6
CONTINUOUS
 62
     7
 10
635.0025051215
 20
487.238267989
 30
0.0
  0
VERTEX
  5
554
  8
0
  6
CONTINUOUS
 62
     7
 10
634.2942380288
 20
487.527309538
 30
0.0
  0
VERTEX
  5
555
  8
0
  6
CONTINUOUS
 62
     7
 10
633.8264309743
 20
487.5782640587
 30
0.0
  0
SEQEND
  5
960
  8
0
  6
CONTINUOUS
 62
     7
  0
LINE
  5
8C
  8
0
  6
CONTINUOUS
 62
     7
 10
636.8945204595
 20
422.8782659333
 30
0.0
 11
636.8945204595
 21
481.8782644282
 31
0.0
  0
POLYLINE
  5
8D
  8
0
  6
CONTINUOUS
 62
     7
 66
     1
 10
0.0
 20
0.0
 30
0.0
 70
   128
  0
VERTEX
  5
556
  8
0
  6
CONTINUOUS
 62
     7
 10
633.8264309743
 20
417.1782644402
 30
0.0
  0
VERTEX
  5
557
  8
0
  6
CONTINUOUS
 62
     7
 10
634.6032136062
 20
417.3212001036
 30
0.0
  0
VERTEX
  5
558
  8
0
  6
CONTINUOUS
 62
     7
 10
635.2346577623
 20
417.6808433543
 30
0.0
  0
VERTEX
  5
559
  8
0
  6
CONTINUOUS
 62
     7
 10
635.7313209155
 20
418.1888500165
 30
0.0
  0
VERTEX
  5
55A
  8
0
  6
CONTINUOUS
 62
     7
 10
636.1518242338
 20
418.8827225875
 30
0.0
  0
VERTEX
  5
55B
  8
0
  6
CONTINUOUS
 62
     7
 10
636.5211867669
 20
419.8829518567
 30
0.0
  0
VERTEX
  5
55C
  8
0
  6
CONTINUOUS
 62
     7
 10
636.773374019
 20
421.1077453505
 30
0.0
  0
VERTEX
  5
55D
  8
0
  6
CONTINUOUS
 62
     7
 10
636.8852817395
 20
422.3814295541
 30
0.0
  0
VERTEX
  5
55E
  8
0
  6
CONTINUOUS
 62
     7
 10
636.8945204595
 20
422.8782659333
 30
0.0
  0
SEQEND
  5
961
  8
0
  6
CONTINUOUS
 62
     7
  0
CIRCLE
  5
8E
  8
0
  6
CONTINUOUS
 62
     7
 10
511.3166832307
 20
452.8782652627
 30
0.0
 40
19.5
  0
CIRCLE
  5
8F
  8
0
  6
CONTINUOUS
 62
     7
 10
511.3166832307
 20
452.8782652627
 30
0.0
 40
17.99999999999994
  0
LINE
  5
90
  8
0
  6
CONTINUOUS
 62
     7
 10
622.5166805962
 20
460.2103862848
 30
0.0
 11
622.5166805962
 21
445.5461442407
 31
0.0
  0
LINE
  5
91
  8
0
  6
CONTINUOUS
 62
     7
 10
618.8992598036
 20
442.8782654862
 30
0.0
 11
609.7341068962
 21
442.8782654862
 31
0.0
  0
LINE
  5
92
  8
0
  6
CONTINUOUS
 62
     7
 10
623.5166826227
 20
458.9081905718
 30
0.0
 11
623.5166826227
 21
456.3782653707
 31
0.0
  0
LINE
  5
93
  8
0
  6
CONTINUOUS
 62
     7
 10
623.5166826227
 20
456.3782653707
 30
0.0
 11
622.5166805962
 21
456.3782653707
 31
0.0
  0
LINE
  5
94
  8
0
  6
CONTINUOUS
 62
     7
 10
623.5166826227
 20
448.3782654564
 30
0.0
 11
623.5166826227
 21
446.8483399536
 31
0.0
  0
LINE
  5
95
  8
0
  6
CONTINUOUS
 62
     7
 10
623.5166826227
 20
448.3782654564
 30
0.0
 11
622.5166805962
 21
448.3782654564
 31
0.0
  0
LINE
  5
96
  8
0
  6
CONTINUOUS
 62
     7
 10
623.6715280393
 20
447.0914784755
 30
0.0
 11
623.5166826227
 21
447.0914784755
 31
0.0
  0
LINE
  5
97
  8
0
  6
CONTINUOUS
 62
     7
 10
623.910468159
 20
447.4968836579
 30
0.0
 11
623.5166826227
 21
447.4968836579
 31
0.0
  0
LINE
  5
98
  8
0
  6
CONTINUOUS
 62
     7
 10
624.016683636
 20
448.2671540167
 30
0.0
 11
623.5166826227
 21
448.2671540167
 31
0.0
  0
LINE
  5
99
  8
0
  6
CONTINUOUS
 62
     7
 10
624.016683636
 20
448.2671540167
 30
0.0
 11
624.016683636
 21
447.6907803613
 31
0.0
  0
LINE
  5
9A
  8
0
  6
CONTINUOUS
 62
     7
 10
623.7302907684
 20
458.5689558584
 30
0.0
 11
623.5166826227
 21
458.5689558584
 31
0.0
  0
LINE
  5
9B
  8
0
  6
CONTINUOUS
 62
     7
 10
623.9414178708
 20
458.2040911477
 30
0.0
 11
623.5166826227
 21
458.2040911477
 31
0.0
  0
LINE
  5
9C
  8
0
  6
CONTINUOUS
 62
     7
 10
624.016683636
 20
458.0657501641
 30
0.0
 11
624.016683636
 21
456.8257127825
 31
0.0
  0
LINE
  5
9D
  8
0
  6
CONTINUOUS
 62
     7
 10
624.016683636
 20
456.8257127825
 30
0.0
 11
623.5166826227
 21
456.8257127825
 31
0.0
  0
POLYLINE
  5
9E
  8
0
  6
CONTINUOUS
 62
     7
 66
     1
 10
0.0
 20
0.0
 30
0.0
 70
   128
  0
VERTEX
  5
55F
  8
0
  6
CONTINUOUS
 62
     7
 10
629.7857575992
 20
479.8782659631
 30
0.0
  0
VERTEX
  5
560
  8
0
  6
CONTINUOUS
 62
     7
 10
629.5239814499
 20
480.0305055391
 30
0.0
  0
VERTEX
  5
561
  8
0
  6
CONTINUOUS
 62
     7
 10
629.3020659068
 20
480.4640510987
 30
0.0
  0
VERTEX
  5
562
  8
0
  6
CONTINUOUS
 62
     7
 10
629.1537844518
 20
481.1128979485
 30
0.0
  0
VERTEX
  5
563
  8
0
  6
CONTINUOUS
 62
     7
 10
629.101712344
 20
481.8782644282
 30
0.0
  0
VERTEX
  5
564
  8
0
  6
CONTINUOUS
 62
     7
 10
629.1537844518
 20
482.6436327706
 30
0.0
  0
VERTEX
  5
565
  8
0
  6
CONTINUOUS
 62
     7
 10
629.3020659068
 20
483.2924796204
 30
0.0
  0
VERTEX
  5
566
  8
0
  6
CONTINUOUS
 62
     7
 10
629.5239814499
 20
483.7260251801
 30
0.0
  0
VERTEX
  5
567
  8
0
  6
CONTINUOUS
 62
     7
 10
629.7857575992
 20
483.8782647561
 30
0.0
  0
VERTEX
  5
568
  8
0
  6
CONTINUOUS
 62
     7
 10
630.0475262979
 20
483.7260251801
 30
0.0
  0
VERTEX
  5
569
  8
0
  6
CONTINUOUS
 62
     7
 10
630.2694418409
 20
483.2924796204
 30
0.0
  0
VERTEX
  5
56A
  8
0
  6
CONTINUOUS
 62
     7
 10
630.417723296
 20
482.6436327706
 30
0.0
  0
VERTEX
  5
56B
  8
0
  6
CONTINUOUS
 62
     7
 10
630.4697954038
 20
481.8782644282
 30
0.0
  0
VERTEX
  5
56C
  8
0
  6
CONTINUOUS
 62
     7
 10
630.417723296
 20
481.1128979485
 30
0.0
  0
VERTEX
  5
56D
  8
0
  6
CONTINUOUS
 62
     7
 10
630.2694418409
 20
480.4640510987
 30
0.0
  0
VERTEX
  5
56E
  8
0
  6
CONTINUOUS
 62
     7
 10
630.0475262979
 20
480.0305055391
 30
0.0
  0
VERTEX
  5
56F
  8
0
  6
CONTINUOUS
 62
     7
 10
629.7857575992
 20
479.8782659631
 30
0.0
  0
SEQEND
  5
962
  8
0
  6
CONTINUOUS
 62
     7
  0
POLYLINE
  5
9F
  8
0
  6
CONTINUOUS
 62
     7
 66
     1
 10
0.0
 20
0.0
 30
0.0
 70
   128
  0
VERTEX
  5
570
  8
0
  6
CONTINUOUS
 62
     7
 10
637.2318678477
 20
485.7238555263
 30
0.0
  0
VERTEX
  5
571
  8
0
  6
CONTINUOUS
 62
     7
 10
637.5551485398
 20
485.5430858146
 30
0.0
  0
VERTEX
  5
572
  8
0
  6
CONTINUOUS
 62
     7
 10
637.9225515702
 20
484.9957475375
 30
0.0
  0
VERTEX
  5
573
  8
0
  6
CONTINUOUS
 62
     7
 10
638.2141225913
 20
484.1432483803
 30
0.0
  0
VERTEX
  5
574
  8
0
  6
CONTINUOUS
 62
     7
 10
638.4013258794
 20
483.0690367083
 30
0.0
  0
VERTEX
  5
575
  8
0
  6
CONTINUOUS
 62
     7
 10
638.4658330062
 20
481.8782644282
 30
0.0
  0
VERTEX
  5
576
  8
0
  6
CONTINUOUS
 62
     7
 10
638.4013258794
 20
480.6874921482
 30
0.0
  0
VERTEX
  5
577
  8
0
  6
CONTINUOUS
 62
     7
 10
638.2141225913
 20
479.6132823388
 30
0.0
  0
VERTEX
  5
578
  8
0
  6
CONTINUOUS
 62
     7
 10
637.9225515702
 20
478.7607831817
 30
0.0
  0
VERTEX
  5
579
  8
0
  6
CONTINUOUS
 62
     7
 10
637.5551485398
 20
478.2134449046
 30
0.0
  0
VERTEX
  5
57A
  8
0
  6
CONTINUOUS
 62
     7
 10
637.2730844596
 20
478.0422734033
 30
0.0
  0
SEQEND
  5
963
  8
0
  6
CONTINUOUS
 62
     7
  0
POLYLINE
  5
A0
  8
0
  6
CONTINUOUS
 62
     7
 66
     1
 10
0.0
 20
0.0
 30
0.0
 70
   128
  0
VERTEX
  5
57B
  8
0
  6
CONTINUOUS
 62
     7
 10
629.7857575992
 20
421.8782657694
 30
0.0
  0
VERTEX
  5
57C
  8
0
  6
CONTINUOUS
 62
     7
 10
629.5239814499
 20
422.0305053453
 30
0.0
  0
VERTEX
  5
57D
  8
0
  6
CONTINUOUS
 62
     7
 10
629.3020659068
 20
422.464050905
 30
0.0
  0
VERTEX
  5
57E
  8
0
  6
CONTINUOUS
 62
     7
 10
629.1537844518
 20
423.1128977548
 30
0.0
  0
VERTEX
  5
57F
  8
0
  6
CONTINUOUS
 62
     7
 10
629.101712344
 20
423.8782660972
 30
0.0
  0
VERTEX
  5
580
  8
0
  6
CONTINUOUS
 62
     7
 10
629.1537844518
 20
424.6436325769
 30
0.0
  0
VERTEX
  5
581
  8
0
  6
CONTINUOUS
 62
     7
 10
629.3020659068
 20
425.2924794267
 30
0.0
  0
VERTEX
  5
582
  8
0
  6
CONTINUOUS
 62
     7
 10
629.5239814499
 20
425.7260249864
 30
0.0
  0
VERTEX
  5
583
  8
0
  6
CONTINUOUS
 62
     7
 10
629.7857575992
 20
425.8782645624
 30
0.0
  0
VERTEX
  5
584
  8
0
  6
CONTINUOUS
 62
     7
 10
630.0475262979
 20
425.7260249864
 30
0.0
  0
VERTEX
  5
585
  8
0
  6
CONTINUOUS
 62
     7
 10
630.2694418409
 20
425.2924794267
 30
0.0
  0
VERTEX
  5
586
  8
0
  6
CONTINUOUS
 62
     7
 10
630.417723296
 20
424.6436325769
 30
0.0
  0
VERTEX
  5
587
  8
0
  6
CONTINUOUS
 62
     7
 10
630.4697954038
 20
423.8782660972
 30
0.0
  0
VERTEX
  5
588
  8
0
  6
CONTINUOUS
 62
     7
 10
630.417723296
 20
423.1128977548
 30
0.0
  0
VERTEX
  5
589
  8
0
  6
CONTINUOUS
 62
     7
 10
630.2694418409
 20
422.464050905
 30
0.0
  0
VERTEX
  5
58A
  8
0
  6
CONTINUOUS
 62
     7
 10
630.0475262979
 20
422.0305053453
 30
0.0
  0
VERTEX
  5
58B
  8
0
  6
CONTINUOUS
 62
     7
 10
629.7857575992
 20
421.8782657694
 30
0.0
  0
SEQEND
  5
964
  8
0
  6
CONTINUOUS
 62
     7
  0
POLYLINE
  5
A1
  8
0
  6
CONTINUOUS
 62
     7
 66
     1
 10
0.0
 20
0.0
 30
0.0
 70
   128
  0
VERTEX
  5
58C
  8
0
  6
CONTINUOUS
 62
     7
 10
637.2318678477
 20
427.72385347
 30
0.0
  0
VERTEX
  5
58D
  8
0
  6
CONTINUOUS
 62
     7
 10
637.5551485398
 20
427.5430856209
 30
0.0
  0
VERTEX
  5
58E
  8
0
  6
CONTINUOUS
 62
     7
 10
637.9225515702
 20
426.9957473438
 30
0.0
  0
VERTEX
  5
58F
  8
0
  6
CONTINUOUS
 62
     7
 10
638.2141225913
 20
426.1432481866
 30
0.0
  0
VERTEX
  5
590
  8
0
  6
CONTINUOUS
 62
     7
 10
638.4013258794
 20
425.0690383773
 30
0.0
  0
VERTEX
  5
591
  8
0
  6
CONTINUOUS
 62
     7
 10
638.4658330062
 20
423.8782660972
 30
0.0
  0
VERTEX
  5
592
  8
0
  6
CONTINUOUS
 62
     7
 10
638.4013258794
 20
422.6874938171
 30
0.0
  0
VERTEX
  5
593
  8
0
  6
CONTINUOUS
 62
     7
 10
638.2141225913
 20
421.6132821451
 30
0.0
  0
VERTEX
  5
594
  8
0
  6
CONTINUOUS
 62
     7
 10
637.9225515702
 20
420.7607829879
 30
0.0
  0
VERTEX
  5
595
  8
0
  6
CONTINUOUS
 62
     7
 10
637.5551485398
 20
420.2134447108
 30
0.0
  0
VERTEX
  5
596
  8
0
  6
CONTINUOUS
 62
     7
 10
637.2730844596
 20
420.0422713469
 30
0.0
  0
SEQEND
  5
965
  8
0
  6
CONTINUOUS
 62
     7
  0
LINE
  5
A2
  8
0
  6
CONTINUOUS
 62
     7
 10
638.5714971402
 20
443.1103156816
 30
0.0
 11
638.621490536
 21
443.1103156816
 31
0.0
  0
LINE
  5
A3
  8
0
  6
CONTINUOUS
 62
     7
 10
638.621490536
 20
443.1103156816
 30
0.0
 11
638.621490536
 21
442.110316449
 31
0.0
  0
LINE
  5
A4
  8
0
  6
CONTINUOUS
 62
     7
 10
638.621490536
 20
462.6462148439
 30
0.0
 11
638.5714971402
 21
462.6462148439
 31
0.0
  0
LINE
  5
A5
  8
0
  6
CONTINUOUS
 62
     7
 10
638.621490536
 20
462.6462148439
 30
0.0
 11
638.621490536
 21
443.1103156816
 31
0.0
  0
LINE
  5
A6
  8
0
  6
CONTINUOUS
 62
     7
 10
638.621490536
 20
463.6462140765
 30
0.0
 11
638.621490536
 21
462.6462148439
 31
0.0
  0
LINE
  5
A7
  8
0
  6
CONTINUOUS
 62
     7
 10
638.671498833
 20
461.7801891576
 30
0.0
 11
638.621490536
 21
461.7801891576
 31
0.0
  0
LINE
  5
A8
  8
0
  6
CONTINUOUS
 62
     7
 10
638.671498833
 20
443.9763413678
 30
0.0
 11
638.621490536
 21
443.9763413678
 31
0.0
  0
LINE
  5
A9
  8
0
  6
CONTINUOUS
 62
     7
 10
638.671498833
 20
461.7801891576
 30
0.0
 11
638.671498833
 21
443.9763413678
 31
0.0
  0
POLYLINE
  5
AA
  8
0
  6
CONTINUOUS
 62
     7
 66
     1
 10
0.0
 20
0.0
 30
0.0
 70
   128
  0
VERTEX
  5
597
  8
0
  6
CONTINUOUS
 62
     7
 10
631.7352690676
 20
481.8782644282
 30
0.0
  0
VERTEX
  5
598
  8
0
  6
CONTINUOUS
 62
     7
 10
631.6978075483
 20
482.9902803461
 30
0.0
  0
VERTEX
  5
599
  8
0
  6
CONTINUOUS
 62
     7
 10
631.5868758538
 20
484.0595615964
 30
0.0
  0
VERTEX
  5
59A
  8
0
  6
CONTINUOUS
 62
     7
 10
631.406720815
 20
485.0450145017
 30
0.0
  0
VERTEX
  5
59B
  8
0
  6
CONTINUOUS
 62
     7
 10
631.1642714718
 20
485.9087752114
 30
0.0
  0
VERTEX
  5
59C
  8
0
  6
CONTINUOUS
 62
     7
 10
630.8688485005
 20
486.6176420759
 30
0.0
  0
VERTEX
  5
59D
  8
0
  6
CONTINUOUS
 62
     7
 10
630.5317991355
 20
487.1443794976
 30
0.0
  0
VERTEX
  5
59E
  8
0
  6
CONTINUOUS
 62
     7
 10
630.1660873869
 20
487.4687405239
 30
0.0
  0
VERTEX
  5
59F
  8
0
  6
CONTINUOUS
 62
     7
 10
629.7857575992
 20
487.5782640587
 30
0.0
  0
SEQEND
  5
966
  8
0
  6
CONTINUOUS
 62
     7
  0
LINE
  5
AB
  8
0
  6
CONTINUOUS
 62
     7
 10
629.7857575992
 20
487.5782640587
 30
0.0
 11
633.8264309743
 21
487.5782640587
 31
0.0
  0
POLYLINE
  5
AC
  8
0
  6
CONTINUOUS
 62
     7
 66
     1
 10
0.0
 20
0.0
 30
0.0
 70
   128
  0
VERTEX
  5
5A0
  8
0
  6
CONTINUOUS
 62
     7
 10
635.7759498933
 20
481.8782644282
 30
0.0
  0
VERTEX
  5
5A1
  8
0
  6
CONTINUOUS
 62
     7
 10
635.738488374
 20
482.9902803461
 30
0.0
  0
VERTEX
  5
5A2
  8
0
  6
CONTINUOUS
 62
     7
 10
635.627549229
 20
484.0595615964
 30
0.0
  0
VERTEX
  5
5A3
  8
0
  6
CONTINUOUS
 62
     7
 10
635.4473941901
 20
485.0450145017
 30
0.0
  0
VERTEX
  5
5A4
  8
0
  6
CONTINUOUS
 62
     7
 10
635.2049522975
 20
485.9087752114
 30
0.0
  0
VERTEX
  5
5A5
  8
0
  6
CONTINUOUS
 62
     7
 10
634.9095293262
 20
486.6176420759
 30
0.0
  0
VERTEX
  5
5A6
  8
0
  6
CONTINUOUS
 62
     7
 10
634.5724799612
 20
487.1443794976
 30
0.0
  0
VERTEX
  5
5A7
  8
0
  6
CONTINUOUS
 62
     7
 10
634.2067682126
 20
487.4687405239
 30
0.0
  0
VERTEX
  5
5A8
  8
0
  6
CONTINUOUS
 62
     7
 10
633.8264309743
 20
487.5782640587
 30
0.0
  0
SEQEND
  5
967
  8
0
  6
CONTINUOUS
 62
     7
  0
LINE
  5
AD
  8
0
  6
CONTINUOUS
 62
     7
 10
635.7759498933
 20
481.8782644282
 30
0.0
 11
631.7352690676
 21
481.8782644282
 31
0.0
  0
LINE
  5
AE
  8
0
  6
CONTINUOUS
 62
     7
 10
629.7857575992
 20
487.5782640587
 30
0.0
 11
609.3166806677
 21
487.5782640587
 31
0.0
  0
LINE
  5
AF
  8
0
  6
CONTINUOUS
 62
     7
 10
631.7352690676
 20
422.8782659333
 30
0.0
 11
631.7352690676
 21
481.8782644282
 31
0.0
  0
POLYLINE
  5
B0
  8
0
  6
CONTINUOUS
 62
     7
 66
     1
 10
0.0
 20
0.0
 30
0.0
 70
   128
  0
VERTEX
  5
5A9
  8
0
  6
CONTINUOUS
 62
     7
 10
629.7857575992
 20
417.1782644402
 30
0.0
  0
VERTEX
  5
5AA
  8
0
  6
CONTINUOUS
 62
     7
 10
630.1660873869
 20
417.2877879749
 30
0.0
  0
VERTEX
  5
5AB
  8
0
  6
CONTINUOUS
 62
     7
 10
630.5317991355
 20
417.6121527265
 30
0.0
  0
VERTEX
  5
5AC
  8
0
  6
CONTINUOUS
 62
     7
 10
630.8688485005
 20
418.1388901483
 30
0.0
  0
VERTEX
  5
5AD
  8
0
  6
CONTINUOUS
 62
     7
 10
631.1642714718
 20
418.8477570127
 30
0.0
  0
VERTEX
  5
5AE
  8
0
  6
CONTINUOUS
 62
     7
 10
631.406720815
 20
419.7115139972
 30
0.0
  0
VERTEX
  5
5AF
  8
0
  6
CONTINUOUS
 62
     7
 10
631.5868758538
 20
420.6969687651
 30
0.0
  0
VERTEX
  5
5B0
  8
0
  6
CONTINUOUS
 62
     7
 10
631.6978075483
 20
421.7662500154
 30
0.0
  0
VERTEX
  5
5B1
  8
0
  6
CONTINUOUS
 62
     7
 10
631.7352690676
 20
422.8782659333
 30
0.0
  0
SEQEND
  5
968
  8
0
  6
CONTINUOUS
 62
     7
  0
LINE
  5
B1
  8
0
  6
CONTINUOUS
 62
     7
 10
609.3166806677
 20
417.1782644402
 30
0.0
 11
629.7857575992
 21
417.1782644402
 31
0.0
  0
LINE
  5
B2
  8
0
  6
CONTINUOUS
 62
     7
 10
609.3166806677
 20
418.378266127
 30
0.0
 11
629.7857575992
 21
418.378266127
 31
0.0
  0
POLYLINE
  5
B3
  8
0
  6
CONTINUOUS
 62
     7
 66
     1
 10
0.0
 20
0.0
 30
0.0
 70
   128
  0
VERTEX
  5
5B2
  8
0
  6
CONTINUOUS
 62
     7
 10
631.3248463848
 20
422.8782659333
 30
0.0
  0
VERTEX
  5
5B3
  8
0
  6
CONTINUOUS
 62
     7
 10
631.2952750304
 20
422.0003584336
 30
0.0
  0
VERTEX
  5
5B4
  8
0
  6
CONTINUOUS
 62
     7
 10
631.2076934555
 20
421.1561890255
 30
0.0
  0
VERTEX
  5
5B5
  8
0
  6
CONTINUOUS
 62
     7
 10
631.0654618719
 20
420.3781993996
 30
0.0
  0
VERTEX
  5
5B6
  8
0
  6
CONTINUOUS
 62
     7
 10
630.8740564564
 20
419.6962850104
 30
0.0
  0
VERTEX
  5
5B7
  8
0
  6
CONTINUOUS
 62
     7
 10
630.6408309319
 20
419.1366532754
 30
0.0
  0
VERTEX
  5
5B8
  8
0
  6
CONTINUOUS
 62
     7
 10
630.3747408965
 20
418.7208065699
 30
0.0
  0
VERTEX
  5
5B9
  8
0
  6
CONTINUOUS
 62
     7
 10
630.0860159972
 20
418.4647301148
 30
0.0
  0
VERTEX
  5
5BA
  8
0
  6
CONTINUOUS
 62
     7
 10
629.7857575992
 20
418.378266127
 30
0.0
  0
SEQEND
  5
969
  8
0
  6
CONTINUOUS
 62
     7
  0
LINE
  5
B4
  8
0
  6
CONTINUOUS
 62
     7
 10
631.3248463848
 20
422.8782659333
 30
0.0
 11
631.3248463848
 21
481.8782644282
 31
0.0
  0
POLYLINE
  5
B5
  8
0
  6
CONTINUOUS
 62
     7
 66
     1
 10
0.0
 20
0.0
 30
0.0
 70
   128
  0
VERTEX
  5
5BB
  8
0
  6
CONTINUOUS
 62
     7
 10
629.7857575992
 20
486.3782660972
 30
0.0
  0
VERTEX
  5
5BC
  8
0
  6
CONTINUOUS
 62
     7
 10
630.0860159972
 20
486.2917983841
 30
0.0
  0
VERTEX
  5
5BD
  8
0
  6
CONTINUOUS
 62
     7
 10
630.3747408965
 20
486.0357219289
 30
0.0
  0
VERTEX
  5
5BE
  8
0
  6
CONTINUOUS
 62
     7
 10
630.6408309319
 20
485.6198789488
 30
0.0
  0
VERTEX
  5
5BF
  8
0
  6
CONTINUOUS
 62
     7
 10
630.8740564564
 20
485.0602472137
 30
0.0
  0
VERTEX
  5
5C0
  8
0
  6
CONTINUOUS
 62
     7
 10
631.0654618719
 20
484.3783328246
 30
0.0
  0
VERTEX
  5
5C1
  8
0
  6
CONTINUOUS
 62
     7
 10
631.2076934555
 20
483.600341336
 30
0.0
  0
VERTEX
  5
5C2
  8
0
  6
CONTINUOUS
 62
     7
 10
631.2952750304
 20
482.7561719279
 30
0.0
  0
VERTEX
  5
5C3
  8
0
  6
CONTINUOUS
 62
     7
 10
631.3248463848
 20
481.8782644282
 30
0.0
  0
SEQEND
  5
96A
  8
0
  6
CONTINUOUS
 62
     7
  0
LINE
  5
B6
  8
0
  6
CONTINUOUS
 62
     7
 10
629.7857575992
 20
486.3782660972
 30
0.0
 11
609.3166806677
 21
486.3782660972
 31
0.0
  0
LINE
  5
B7
  8
0
  6
CONTINUOUS
 62
     7
 10
635.7759498933
 20
422.8782659333
 30
0.0
 11
635.7759498933
 21
481.8782644282
 31
0.0
  0
LINE
  5
B8
  8
0
  6
CONTINUOUS
 62
     7
 10
631.7352690676
 20
422.8782659333
 30
0.0
 11
635.7759498933
 21
422.8782659333
 31
0.0
  0
POLYLINE
  5
B9
  8
0
  6
CONTINUOUS
 62
     7
 66
     1
 10
0.0
 20
0.0
 30
0.0
 70
   128
  0
VERTEX
  5
5C4
  8
0
  6
CONTINUOUS
 62
     7
 10
633.8264309743
 20
417.1782644402
 30
0.0
  0
VERTEX
  5
5C5
  8
0
  6
CONTINUOUS
 62
     7
 10
634.2067682126
 20
417.2877879749
 30
0.0
  0
VERTEX
  5
5C6
  8
0
  6
CONTINUOUS
 62
     7
 10
634.5724799612
 20
417.6121527265
 30
0.0
  0
VERTEX
  5
5C7
  8
0
  6
CONTINUOUS
 62
     7
 10
634.9095293262
 20
418.1388901483
 30
0.0
  0
VERTEX
  5
5C8
  8
0
  6
CONTINUOUS
 62
     7
 10
635.2049522975
 20
418.8477570127
 30
0.0
  0
VERTEX
  5
5C9
  8
0
  6
CONTINUOUS
 62
     7
 10
635.4473941901
 20
419.7115139972
 30
0.0
  0
VERTEX
  5
5CA
  8
0
  6
CONTINUOUS
 62
     7
 10
635.627549229
 20
420.6969687651
 30
0.0
  0
VERTEX
  5
5CB
  8
0
  6
CONTINUOUS
 62
     7
 10
635.738488374
 20
421.7662500154
 30
0.0
  0
VERTEX
  5
5CC
  8
0
  6
CONTINUOUS
 62
     7
 10
635.7759498933
 20
422.8782659333
 30
0.0
  0
SEQEND
  5
96B
  8
0
  6
CONTINUOUS
 62
     7
  0
LINE
  5
BA
  8
0
  6
CONTINUOUS
 62
     7
 10
633.8264309743
 20
417.1782644402
 30
0.0
 11
629.7857575992
 21
417.1782644402
 31
0.0
  0
LINE
  5
BB
  8
0
  6
CONTINUOUS
 62
     7
 10
637.2555308917
 20
431.6782658856
 30
0.0
 11
637.2555308917
 21
473.0782644759
 31
0.0
  0
ARC
  5
BC
  8
0
  6
CONTINUOUS
 62
     7
 10
636.5714952589
 20
476.0782652627
 30
0.0
 40
2.0
 50
0.0
 51
77.6654072805
  0
LINE
  5
BD
  8
0
  6
CONTINUOUS
 62
     7
 10
638.5714971402
 20
476.0782649677
 30
0.0
 11
638.5714971402
 21
473.0782644759
 31
0.0
  0
LINE
  5
BE
  8
0
  6
CONTINUOUS
 62
     7
 10
637.2555308917
 20
473.0782644759
 30
0.0
 11
638.5714971402
 21
473.0782644759
 31
0.0
  0
LINE
  5
BF
  8
0
  6
CONTINUOUS
 62
     7
 10
638.5714971402
 20
473.0782644759
 30
0.0
 11
638.5714971402
 21
431.6782658856
 31
0.0
  0
LINE
  5
C0
  8
0
  6
CONTINUOUS
 62
     7
 10
637.2555308917
 20
431.6782658856
 30
0.0
 11
638.5714971402
 21
431.6782658856
 31
0.0
  0
LINE
  5
C1
  8
0
  6
CONTINUOUS
 62
     7
 10
638.5714971402
 20
431.6782658856
 30
0.0
 11
638.5714971402
 21
428.6782653938
 31
0.0
  0
ARC
  5
C2
  8
0
  6
CONTINUOUS
 62
     7
 10
636.5714952589
 20
428.6782652627
 30
0.0
 40
2.0
 50
309.7655702594
 51
0.0
  0
LINE
  5
C3
  8
0
  6
CONTINUOUS
 62
     7
 10
629.123438237
 20
424.3782652478
 30
0.0
 11
609.3166806677
 21
424.3782652478
 31
0.0
  0
ARC
  5
C4
  8
0
  6
CONTINUOUS
 62
     7
 10
634.2345683492
 20
425.160434223
 30
0.0
 40
3.531561942083804
 50
148.0559257141
 51
168.2722561393
  0
LINE
  5
C5
  8
0
  6
CONTINUOUS
 62
     7
 10
631.3248463848
 20
427.1694520425
 30
0.0
 11
631.2378087023
 21
427.0289527188
 31
0.0
  0
LINE
  5
C6
  8
0
  6
CONTINUOUS
 62
     7
 10
631.2378087023
 20
478.7275778066
 30
0.0
 11
631.3248463848
 21
478.587078483
 31
0.0
  0
ARC
  5
C7
  8
0
  6
CONTINUOUS
 62
     7
 10
634.2345683492
 20
480.5960963024
 30
0.0
 40
3.531561942082929
 50
191.7277438607
 51
211.9440742859
  0
LINE
  5
C8
  8
0
  6
CONTINUOUS
 62
     7
 10
609.3166806677
 20
481.3782652776
 30
0.0
 11
629.123438237
 21
481.3782652776
 31
0.0
  0
LINE
  5
C9
  8
0
  6
CONTINUOUS
 62
     7
 10
609.3166806677
 20
485.3782640706
 30
0.0
 11
630.7531335333
 21
485.3782640706
 31
0.0
  0
LINE
  5
CA
  8
0
  6
CONTINUOUS
 62
     7
 10
631.0654767731
 20
420.3782664548
 30
0.0
 11
609.3166806677
 21
420.3782664548
 31
0.0
  0
POLYLINE
  5
CB
  8
0
  6
CONTINUOUS
 62
     7
 66
     1
 10
0.0
 20
0.0
 30
0.0
 70
   128
  0
VERTEX
  5
5CD
  8
0
  6
CONTINUOUS
 62
     7
 10
630.7460554817
 20
432.1782650362
 30
0.0
  0
VERTEX
  5
5CE
  8
0
  6
CONTINUOUS
 62
     7
 10
630.7040938118
 20
431.0077229451
 30
0.0
  0
VERTEX
  5
5CF
  8
0
  6
CONTINUOUS
 62
     7
 10
630.5798181274
 20
429.882165597
 30
0.0
  0
VERTEX
  5
5D0
  8
0
  6
CONTINUOUS
 62
     7
 10
630.3780117014
 20
428.8448436122
 30
0.0
  0
VERTEX
  5
5D1
  8
0
  6
CONTINUOUS
 62
     7
 10
630.1064305881
 20
427.9356250476
 30
0.0
  0
VERTEX
  5
5D2
  8
0
  6
CONTINUOUS
 62
     7
 10
629.7754981497
 20
427.1894475381
 30
0.0
  0
VERTEX
  5
5D3
  8
0
  6
CONTINUOUS
 62
     7
 10
629.3979474285
 20
426.6349883686
 30
0.0
  0
VERTEX
  5
5D4
  8
0
  6
CONTINUOUS
 62
     7
 10
628.9882772544
 20
426.2935543369
 30
0.0
  0
VERTEX
  5
5D5
  8
0
  6
CONTINUOUS
 62
     7
 10
628.5622307041
 20
426.1782659154
 30
0.0
  0
SEQEND
  5
96C
  8
0
  6
CONTINUOUS
 62
     7
  0
LINE
  5
CC
  8
0
  6
CONTINUOUS
 62
     7
 10
630.7460554817
 20
473.5782654892
 30
0.0
 11
630.7460554817
 21
432.1782650362
 31
0.0
  0
POLYLINE
  5
CD
  8
0
  6
CONTINUOUS
 62
     7
 66
     1
 10
0.0
 20
0.0
 30
0.0
 70
   128
  0
VERTEX
  5
5D6
  8
0
  6
CONTINUOUS
 62
     7
 10
628.5622307041
 20
479.57826461
 30
0.0
  0
VERTEX
  5
5D7
  8
0
  6
CONTINUOUS
 62
     7
 10
628.9882772544
 20
479.4629761885
 30
0.0
  0
VERTEX
  5
5D8
  8
0
  6
CONTINUOUS
 62
     7
 10
629.3979474285
 20
479.1215421568
 30
0.0
  0
VERTEX
  5
5D9
  8
0
  6
CONTINUOUS
 62
     7
 10
629.7754981497
 20
478.5670829873
 30
0.0
  0
VERTEX
  5
5DA
  8
0
  6
CONTINUOUS
 62
     7
 10
630.1064305881
 20
477.8209054779
 30
0.0
  0
VERTEX
  5
5DB
  8
0
  6
CONTINUOUS
 62
     7
 10
630.3780117014
 20
476.9116869132
 30
0.0
  0
VERTEX
  5
5DC
  8
0
  6
CONTINUOUS
 62
     7
 10
630.5798181274
 20
475.8743649285
 30
0.0
  0
VERTEX
  5
5DD
  8
0
  6
CONTINUOUS
 62
     7
 10
630.7040938118
 20
474.7488075803
 30
0.0
  0
VERTEX
  5
5DE
  8
0
  6
CONTINUOUS
 62
     7
 10
630.7460554817
 20
473.5782654892
 30
0.0
  0
SEQEND
  5
96D
  8
0
  6
CONTINUOUS
 62
     7
  0
POLYLINE
  5
CE
  8
0
  6
CONTINUOUS
 62
     7
 66
     1
 10
0.0
 20
0.0
 30
0.0
 70
   128
  0
VERTEX
  5
5DF
  8
0
  6
CONTINUOUS
 62
     7
 10
630.3547062853
 20
479.8782659631
 30
0.0
  0
VERTEX
  5
5E0
  8
0
  6
CONTINUOUS
 62
     7
 10
630.3982772806
 20
479.7351198207
 30
0.0
  0
VERTEX
  5
5E1
  8
0
  6
CONTINUOUS
 62
     7
 10
630.4408647993
 20
479.5556837629
 30
0.0
  0
SEQEND
  5
96E
  8
0
  6
CONTINUOUS
 62
     7
  0
ARC
  5
CF
  8
0
  6
CONTINUOUS
 62
     7
 10
635.1553688688
 20
480.3376800419
 30
0.0
 40
4.778918999275258
 50
189.4179221178
 51
211.6875093924
  0
ARC
  5
D0
  8
0
  6
CONTINUOUS
 62
     7
 10
629.6003840736
 20
476.9016826442
 30
0.0
 40
1.752851556577778
 50
10.3259468928
 51
31.8778035529
  0
ARC
  5
D1
  8
0
  6
CONTINUOUS
 62
     7
 10
629.6003840736
 20
428.8548478813
 30
0.0
 40
1.752851556577154
 50
328.1221964471
 51
349.6740531072
  0
ARC
  5
D2
  8
0
  6
CONTINUOUS
 62
     7
 10
635.1553688688
 20
425.4188504836
 30
0.0
 40
4.778918999275579
 50
148.3124906076
 51
170.5820778822
  0
POLYLINE
  5
D3
  8
0
  6
CONTINUOUS
 62
     7
 66
     1
 10
0.0
 20
0.0
 30
0.0
 70
   128
  0
VERTEX
  5
5E2
  8
0
  6
CONTINUOUS
 62
     7
 10
630.4408647993
 20
426.2008467625
 30
0.0
  0
VERTEX
  5
5E3
  8
0
  6
CONTINUOUS
 62
     7
 10
630.3982772806
 20
426.0214107047
 30
0.0
  0
VERTEX
  5
5E4
  8
0
  6
CONTINUOUS
 62
     7
 10
630.3547062853
 20
425.8782645624
 30
0.0
  0
SEQEND
  5
96F
  8
0
  6
CONTINUOUS
 62
     7
  0
LINE
  5
D4
  8
0
  6
CONTINUOUS
 62
     7
 10
629.3333061913
 20
425.3782654117
 30
0.0
 11
609.3166806677
 21
425.3782654117
 31
0.0
  0
LINE
  5
D5
  8
0
  6
CONTINUOUS
 62
     7
 10
609.3166806677
 20
480.3782651137
 30
0.0
 11
629.3333061913
 21
480.3782651137
 31
0.0
  0
LINE
  5
D6
  8
0
  6
CONTINUOUS
 62
     7
 10
630.7460554817
 20
473.5782654892
 30
0.0
 11
629.8063584545
 21
473.5782654892
 31
0.0
  0
POLYLINE
  5
D7
  8
0
  6
CONTINUOUS
 62
     7
 66
     1
 10
0.0
 20
0.0
 30
0.0
 70
   128
  0
VERTEX
  5
5E5
  8
0
  6
CONTINUOUS
 62
     7
 10
629.8063584545
 20
473.5782654892
 30
0.0
  0
VERTEX
  5
5E6
  8
0
  6
CONTINUOUS
 62
     7
 10
629.7643967846
 20
474.5537159901
 30
0.0
  0
VERTEX
  5
5E7
  8
0
  6
CONTINUOUS
 62
     7
 10
629.6401285508
 20
475.4916826199
 30
0.0
  0
VERTEX
  5
5E8
  8
0
  6
CONTINUOUS
 62
     7
 10
629.4383221248
 20
476.3561157446
 30
0.0
  0
VERTEX
  5
5E9
  8
0
  6
CONTINUOUS
 62
     7
 10
629.1667335608
 20
477.1137988131
 30
0.0
  0
VERTEX
  5
5EA
  8
0
  6
CONTINUOUS
 62
     7
 10
628.8358085731
 20
477.7356130938
 30
0.0
  0
VERTEX
  5
5EB
  8
0
  6
CONTINUOUS
 62
     7
 10
628.4582504013
 20
478.1976627122
 30
0.0
  0
VERTEX
  5
5EC
  8
0
  6
CONTINUOUS
 62
     7
 10
628.0485802272
 20
478.482191072
 30
0.0
  0
VERTEX
  5
5ED
  8
0
  6
CONTINUOUS
 62
     7
 10
627.6225411275
 20
478.5782644461
 30
0.0
  0
SEQEND
  5
970
  8
0
  6
CONTINUOUS
 62
     7
  0
ARC
  5
D8
  8
0
  6
CONTINUOUS
 62
     7
 10
627.5914234705
 20
479.5490136391
 30
0.0
 40
0.9712478077965212
 50
271.8360047387
 51
1.7258321003
  0
LINE
  5
D9
  8
0
  6
CONTINUOUS
 62
     7
 10
630.7460554817
 20
432.1782650362
 30
0.0
 11
629.8063584545
 21
432.1782650362
 31
0.0
  0
LINE
  5
DA
  8
0
  6
CONTINUOUS
 62
     7
 10
629.8063584545
 20
432.1782650362
 30
0.0
 11
629.8063584545
 21
473.5782654892
 31
0.0
  0
ARC
  5
DB
  8
0
  6
CONTINUOUS
 62
     7
 10
627.5914234705
 20
426.2075168864
 30
0.0
 40
0.9712478077963227
 50
358.2741678997
 51
88.1639952613
  0
POLYLINE
  5
DC
  8
0
  6
CONTINUOUS
 62
     7
 66
     1
 10
0.0
 20
0.0
 30
0.0
 70
   128
  0
VERTEX
  5
5EE
  8
0
  6
CONTINUOUS
 62
     7
 10
627.6225411275
 20
427.1782660793
 30
0.0
  0
VERTEX
  5
5EF
  8
0
  6
CONTINUOUS
 62
     7
 10
628.0485802272
 20
427.2743394534
 30
0.0
  0
VERTEX
  5
5F0
  8
0
  6
CONTINUOUS
 62
     7
 10
628.4582504013
 20
427.5588678132
 30
0.0
  0
VERTEX
  5
5F1
  8
0
  6
CONTINUOUS
 62
     7
 10
628.8358085731
 20
428.0209174316
 30
0.0
  0
VERTEX
  5
5F2
  8
0
  6
CONTINUOUS
 62
     7
 10
629.1667335608
 20
428.6427317123
 30
0.0
  0
VERTEX
  5
5F3
  8
0
  6
CONTINUOUS
 62
     7
 10
629.4383221248
 20
429.4004147808
 30
0.0
  0
VERTEX
  5
5F4
  8
0
  6
CONTINUOUS
 62
     7
 10
629.6401285508
 20
430.2648479055
 30
0.0
  0
VERTEX
  5
5F5
  8
0
  6
CONTINUOUS
 62
     7
 10
629.7643967846
 20
431.2028145354
 30
0.0
  0
VERTEX
  5
5F6
  8
0
  6
CONTINUOUS
 62
     7
 10
629.8063584545
 20
432.1782650362
 30
0.0
  0
SEQEND
  5
971
  8
0
  6
CONTINUOUS
 62
     7
  0
ARC
  5
DD
  8
0
  6
CONTINUOUS
 62
     7
 10
614.3166832307
 20
452.8782652627
 30
0.0
 40
10.99999999999998
 50
242.9643082106
 51
117.0356917894
  0
LINE
  5
DE
  8
0
  6
CONTINUOUS
 62
     7
 10
609.3166806677
 20
478.5782644461
 30
0.0
 11
627.6225411275
 21
478.5782644461
 31
0.0
  0
LINE
  5
DF
  8
0
  6
CONTINUOUS
 62
     7
 10
627.6225411275
 20
427.1782660793
 30
0.0
 11
609.3166806677
 21
427.1782660793
 31
0.0
  0
LINE
  5
E0
  8
0
  6
CONTINUOUS
 62
     7
 10
518.3166834468
 20
491.8782660674
 30
0.0
 11
518.3166834468
 21
500.8782656799
 31
0.0
  0
ARC
  5
E1
  8
0
  6
CONTINUOUS
 62
     7
 10
511.3166832307
 20
491.8782663294
 30
0.0
 40
7.000000216066899
 50
359.9999978555
 51
180.0000021445
  0
LINE
  5
E2
  8
0
  6
CONTINUOUS
 62
     7
 10
504.3166830146
 20
500.8782656799
 30
0.0
 11
504.3166830146
 21
491.8782660674
 31
0.0
  0
ARC
  5
E3
  8
0
  6
CONTINUOUS
 62
     7
 10
511.3166832307
 20
500.878207324
 30
0.0
 40
7.000000216310139
 50
0.0004776498
 51
179.9995223502
  0
LINE
  5
E4
  8
0
  6
CONTINUOUS
 62
     7
 10
518.3166834468
 20
486.8193888973
 30
0.0
 11
518.3166834468
 21
491.8782660674
 31
0.0
  0
ARC
  5
E5
  8
0
  6
CONTINUOUS
 62
     7
 10
523.3166832307
 20
486.8193907597
 30
0.0
 40
5.0
 50
180.0
 51
250.5287793655
  0
ARC
  5
E6
  8
0
  6
CONTINUOUS
 62
     7
 10
511.3166832307
 20
452.8782652627
 30
0.0
 40
30.99999999999999
 50
349.4712206345
 51
70.5287793655
  0
ARC
  5
E7
  8
0
  6
CONTINUOUS
 62
     7
 10
546.7105601441
 20
446.3000073596
 30
0.0
 40
5.000000000000016
 50
169.4712206345
 51
240.0
  0
LINE
  5
E8
  8
0
  6
CONTINUOUS
 62
     7
 10
548.5916734615
 20
439.4404428016
 30
0.0
 11
544.2105607071
 21
441.9698804553
 31
0.0
  0
ARC
  5
E9
  8
0
  6
CONTINUOUS
 62
     7
 10
545.0916740575
 20
433.3782647228
 30
0.0
 40
6.999999920529734
 50
240.0000007519
 51
60.0000052572
  0
LINE
  5
EA
  8
0
  6
CONTINUOUS
 62
     7
 10
537.2105595598
 20
429.8455255042
 30
0.0
 11
541.5916741767
 21
427.3160869192
 31
0.0
  0
ARC
  5
EB
  8
0
  6
CONTINUOUS
 62
     7
 10
534.7105601441
 20
425.5153976688
 30
0.0
 40
5.000000000000016
 50
60.0
 51
130.5287793655
  0
ARC
  5
EC
  8
0
  6
CONTINUOUS
 62
     7
 10
511.3166832307
 20
452.8782652627
 30
0.0
 40
31.00000000000006
 50
229.4712206345
 51
310.5287793655
  0
ARC
  5
ED
  8
0
  6
CONTINUOUS
 62
     7
 10
487.9228063173
 20
425.5153976688
 30
0.0
 40
5.000000000000026
 50
49.4712206345
 51
120.0
  0
LINE
  5
EE
  8
0
  6
CONTINUOUS
 62
     7
 10
481.0416922846
 20
427.3160869192
 30
0.0
 11
485.4228069016
 21
429.8455255042
 31
0.0
  0
ARC
  5
EF
  8
0
  6
CONTINUOUS
 62
     7
 10
477.5416924039
 20
433.3782647228
 30
0.0
 40
6.999999920529677
 50
119.9999947428
 51
299.9999992482
  0
LINE
  5
F0
  8
0
  6
CONTINUOUS
 62
     7
 10
478.4228057542
 20
441.9698804553
 30
0.0
 11
474.0416929999
 21
439.4404428016
 31
0.0
  0
ARC
  5
F1
  8
0
  6
CONTINUOUS
 62
     7
 10
475.9228063173
 20
446.3000073597
 30
0.0
 40
5.000000000000016
 50
300.0
 51
10.5287793655
  0
ARC
  5
F2
  8
0
  6
CONTINUOUS
 62
     7
 10
511.3166832307
 20
452.8782652627
 30
0.0
 40
31.00000000000005
 50
109.4712206345
 51
190.5287793655
  0
ARC
  5
F3
  8
0
  6
CONTINUOUS
 62
     7
 10
499.3166832307
 20
486.8193907597
 30
0.0
 40
5.0
 50
289.4712206345
 51
0.0
  0
LINE
  5
F4
  8
0
  6
CONTINUOUS
 62
     7
 10
504.3166830146
 20
491.8782660674
 30
0.0
 11
504.3166830146
 21
486.8193888973
 31
0.0
  0
CIRCLE
  5
F5
  8
0
  6
CONTINUOUS
 62
     7
 10
511.3166832307
 20
452.8782652627
 30
0.0
 40
21.5
  0
CIRCLE
  5
F6
  8
0
  6
CONTINUOUS
 62
     7
 10
511.3166832307
 20
491.8782652627
 30
0.0
 40
2.499999999999943
  0
CIRCLE
  5
F7
  8
0
  6
CONTINUOUS
 62
     7
 10
545.0916739783
 20
433.3782652627
 30
0.0
 40
2.5
  0
CIRCLE
  5
F8
  8
0
  6
CONTINUOUS
 62
     7
 10
477.5416924831
 20
433.3782652627
 30
0.0
 40
2.5
  0
ARC
  5
F9
  8
0
  6
CONTINUOUS
 62
     7
 10
552.8858525063
 20
428.878293208
 30
0.0
 40
6.999999920756087
 50
240.0004638894
 51
59.9995421196
  0
LINE
  5
FA
  8
0
  6
CONTINUOUS
 62
     7
 10
549.3859016278
 20
422.8160871129
 30
0.0
 11
541.5916741767
 21
427.3160869192
 31
0.0
  0
LINE
  5
FB
  8
0
  6
CONTINUOUS
 62
     7
 10
548.5916734615
 20
439.4404428016
 30
0.0
 11
556.3859009126
 21
434.9404429953
 31
0.0
  0
LINE
  5
FC
  8
0
  6
CONTINUOUS
 62
     7
 10
466.2474655488
 20
434.9404429953
 30
0.0
 11
474.0416929999
 21
439.4404428016
 31
0.0
  0
ARC
  5
FD
  8
0
  6
CONTINUOUS
 62
     7
 10
469.7475143529
 20
428.8782934377
 30
0.0
 40
6.999999920759794
 50
120.0004616407
 51
299.9995323503
  0
LINE
  5
FE
  8
0
  6
CONTINUOUS
 62
     7
 10
481.0416922846
 20
427.3160869192
 30
0.0
 11
473.2474648335
 21
422.8160871129
 31
0.0
  0
CIRCLE
  5
FF
  8
0
  6
CONTINUOUS
 62
     7
 10
477.5416924831
 20
433.3782652627
 30
0.0
 40
2.100000000000023
  0
CIRCLE
  5
100
  8
0
  6
CONTINUOUS
 62
     7
 10
511.3166832307
 20
491.8782652627
 30
0.0
 40
2.099999999999966
  0
CIRCLE
  5
101
  8
0
  6
CONTINUOUS
 62
     7
 10
545.0916739783
 20
433.3782652627
 30
0.0
 40
2.100000000000023
  0
ARC
  5
102
  8
0
  6
CONTINUOUS
 62
     7
 10
461.7432953537
 20
514.3882580639
 30
0.0
 40
1.999999999999955
 50
60.8177327823
 51
128.8667440112
  0
LINE
  5
103
  8
0
  6
CONTINUOUS
 62
     7
 10
476.0539383569
 20
508.6868802022
 30
0.0
 11
462.7184756973
 21
516.1344023358
 31
0.0
  0
ARC
  5
104
  8
0
  6
CONTINUOUS
 62
     7
 10
477.5167086302
 20
511.3060986729
 30
0.0
 40
3.000000000000043
 50
240.8177327823
 51
300.048994218
  0
ARC
  5
105
  8
0
  6
CONTINUOUS
 62
     7
 10
511.3166832307
 20
452.8782652627
 30
0.0
 40
64.50000000000004
 50
59.951005782
 51
120.048994218
  0
ARC
  5
106
  8
0
  6
CONTINUOUS
 62
     7
 10
545.1166578312
 20
511.3060986729
 30
0.0
 40
2.999999999999928
 50
239.951005782
 51
299.1822672177
  0
LINE
  5
107
  8
0
  6
CONTINUOUS
 62
     7
 10
559.914890764
 20
516.1344023358
 30
0.0
 11
546.5794281044
 21
508.6868802022
 31
0.0
  0
ARC
  5
108
  8
0
  6
CONTINUOUS
 62
     7
 10
560.8900711076
 20
514.3882580639
 30
0.0
 40
2.000000000000008
 50
51.1332559888
 51
119.1822672176
  0
ARC
  5
109
  8
0
  6
CONTINUOUS
 62
     7
 10
511.3166832307
 20
452.8782652627
 30
0.0
 40
80.99999999999999
 50
38.8667440112
 51
51.1332559888
  0
ARC
  5
10A
  8
0
  6
CONTINUOUS
 62
     7
 10
572.8266760319
 20
502.4516531397
 30
0.0
 40
2.000000000000019
 50
330.8177327824
 51
38.8667440112
  0
LINE
  5
10B
  8
0
  6
CONTINUOUS
 62
     7
 10
567.1252981701
 20
488.1410101365
 30
0.0
 11
574.5728203037
 21
501.4764727961
 31
0.0
  0
ARC
  5
10C
  8
0
  6
CONTINUOUS
 62
     7
 10
569.7445166408
 20
486.6782398632
 30
0.0
 40
3.000000000000026
 50
150.8177327823
 51
210.048994218
  0
ARC
  5
10D
  8
0
  6
CONTINUOUS
 62
     7
 10
511.3166832307
 20
452.8782652627
 30
0.0
 40
64.49999999999999
 50
329.951005782
 51
30.048994218
  0
ARC
  5
10E
  8
0
  6
CONTINUOUS
 62
     7
 10
569.7445166408
 20
419.0782906622
 30
0.0
 40
3.000000000000026
 50
149.951005782
 51
209.1822672177
  0
LINE
  5
10F
  8
0
  6
CONTINUOUS
 62
     7
 10
574.5728203037
 20
404.2800577294
 30
0.0
 11
567.1252981701
 21
417.615520389
 31
0.0
  0
ARC
  5
110
  8
0
  6
CONTINUOUS
 62
     7
 10
572.8266760319
 20
403.3048773858
 30
0.0
 40
1.999999999999991
 50
321.1332559888
 51
29.1822672176
  0
ARC
  5
111
  8
0
  6
CONTINUOUS
 62
     7
 10
511.3166832307
 20
452.8782652627
 30
0.0
 40
81.00000000000003
 50
308.8667440112
 51
321.1332559888
  0
ARC
  5
112
  8
0
  6
CONTINUOUS
 62
     7
 10
560.8900711076
 20
391.3682724615
 30
0.0
 40
2.000000000000008
 50
240.8177327824
 51
308.8667440112
  0
LINE
  5
113
  8
0
  6
CONTINUOUS
 62
     7
 10
546.5794281044
 20
397.0696503233
 30
0.0
 11
559.914890764
 21
389.6221281897
 31
0.0
  0
ARC
  5
114
  8
0
  6
CONTINUOUS
 62
     7
 10
545.1166578312
 20
394.4504318526
 30
0.0
 40
2.999999999999977
 50
60.8177327823
 51
120.048994218
  0
ARC
  5
115
  8
0
  6
CONTINUOUS
 62
     7
 10
511.3166832307
 20
452.8782652627
 30
0.0
 40
64.50000000000001
 50
239.951005782
 51
300.048994218
  0
ARC
  5
116
  8
0
  6
CONTINUOUS
 62
     7
 10
477.5167086302
 20
394.4504318526
 30
0.0
 40
3.000000000000055
 50
59.951005782
 51
119.1822672176
  0
LINE
  5
117
  8
0
  6
CONTINUOUS
 62
     7
 10
462.7184756973
 20
389.6221281897
 30
0.0
 11
476.0539383569
 21
397.0696503233
 31
0.0
  0
ARC
  5
118
  8
0
  6
CONTINUOUS
 62
     7
 10
461.7432953537
 20
391.3682724615
 30
0.0
 40
2.000000000000044
 50
231.1332559888
 51
299.1822672177
  0
ARC
  5
119
  8
0
  6
CONTINUOUS
 62
     7
 10
511.3166832307
 20
452.8782652627
 30
0.0
 40
81.00000000000004
 50
218.8667440112
 51
231.1332559888
  0
ARC
  5
11A
  8
0
  6
CONTINUOUS
 62
     7
 10
449.8066904295
 20
403.3048773858
 30
0.0
 40
2.000000000000019
 50
150.8177327823
 51
218.8667440112
  0
LINE
  5
11B
  8
0
  6
CONTINUOUS
 62
     7
 10
455.5080682912
 20
417.615520389
 30
0.0
 11
448.0605461576
 21
404.2800577294
 31
0.0
  0
ARC
  5
11C
  8
0
  6
CONTINUOUS
 62
     7
 10
452.8888498205
 20
419.0782906622
 30
0.0
 40
3.000000000000026
 50
330.8177327824
 51
30.048994218
  0
ARC
  5
11D
  8
0
  6
CONTINUOUS
 62
     7
 10
511.3166832307
 20
452.8782652627
 30
0.0
 40
64.50000000000003
 50
149.951005782
 51
210.048994218
  0
ARC
  5
11E
  8
0
  6
CONTINUOUS
 62
     7
 10
452.8888498205
 20
486.6782398632
 30
0.0
 40
3.000000000000015
 50
329.951005782
 51
29.1822672177
  0
LINE
  5
11F
  8
0
  6
CONTINUOUS
 62
     7
 10
448.0605461576
 20
501.4764727961
 30
0.0
 11
455.5080682912
 21
488.1410101365
 31
0.0
  0
ARC
  5
120
  8
0
  6
CONTINUOUS
 62
     7
 10
449.8066904295
 20
502.4516531397
 30
0.0
 40
2.000000000000019
 50
141.1332559888
 51
209.1822672177
  0
ARC
  5
121
  8
0
  6
CONTINUOUS
 62
     7
 10
511.3166832307
 20
452.8782652627
 30
0.0
 40
81.0
 50
128.8667440112
 51
141.1332559888
  0
ARC
  5
122
  8
0
  6
CONTINUOUS
 62
     7
 10
499.3166832307
 20
501.4169096608
 30
0.0
 40
5.000000000000625
 50
0.0
 51
103.8865403626
  0
ARC
  5
123
  8
0
  6
CONTINUOUS
 62
     7
 10
511.3166832307
 20
452.8782652627
 30
0.0
 40
55.00000000000001
 50
103.8865403626
 51
196.1134596374
  0
ARC
  5
124
  8
0
  6
CONTINUOUS
 62
     7
 10
463.2809841167
 20
439.0012479091
 30
0.0
 40
5.000000000000028
 50
196.1134596374
 51
300.0
  0
ARC
  5
125
  8
0
  6
CONTINUOUS
 62
     7
 10
475.2809841167
 20
418.2166382183
 30
0.0
 40
5.000000000000005
 50
120.0
 51
223.8865403626
  0
ARC
  5
126
  8
0
  6
CONTINUOUS
 62
     7
 10
511.3166832307
 20
452.8782652627
 30
0.0
 40
55.00000000000002
 50
223.8865403626
 51
316.1134596374
  0
ARC
  5
127
  8
0
  6
CONTINUOUS
 62
     7
 10
547.3523823447
 20
418.2166382183
 30
0.0
 40
5.000000000000016
 50
316.1134596374
 51
60.0
  0
ARC
  5
128
  8
0
  6
CONTINUOUS
 62
     7
 10
559.3523823447
 20
439.0012479091
 30
0.0
 40
4.999999999999989
 50
240.0
 51
343.8865403626
  0
ARC
  5
129
  8
0
  6
CONTINUOUS
 62
     7
 10
511.3166832307
 20
452.8782652627
 30
0.0
 40
55.0
 50
343.8865403626
 51
76.1134596374
  0
ARC
  5
12A
  8
0
  6
CONTINUOUS
 62
     7
 10
523.3166832307
 20
501.4169096608
 30
0.0
 40
5.000000000000052
 50
76.1134596374
 51
180.0
  0
LINE
  5
12B
  8
0
  6
CONTINUOUS
 62
     7
 10
465.7809846976
 20
434.6711212705
 30
0.0
 11
466.2474655488
 21
434.9404429953
 31
0.0
  0
LINE
  5
12C
  8
0
  6
CONTINUOUS
 62
     7
 10
473.2474648335
 20
422.8160871129
 30
0.0
 11
472.7809839824
 21
422.5467653881
 31
0.0
  0
LINE
  5
12D
  8
0
  6
CONTINUOUS
 62
     7
 10
549.852382479
 20
422.5467653881
 30
0.0
 11
549.3859016278
 21
422.8160871129
 31
0.0
  0
LINE
  5
12E
  8
0
  6
CONTINUOUS
 62
     7
 10
556.3859009126
 20
434.9404429953
 30
0.0
 11
556.8523817637
 21
434.6711212705
 31
0.0
  0
LINE
  5
12F
  8
0
  6
CONTINUOUS
 62
     7
 10
504.3166830146
 20
500.8782656799
 30
0.0
 11
504.3166830146
 21
501.4169091295
 31
0.0
  0
LINE
  5
130
  8
0
  6
CONTINUOUS
 62
     7
 10
518.3166834468
 20
501.4169091295
 30
0.0
 11
518.3166834468
 21
500.8782656799
 31
0.0
  0
CIRCLE
  5
131
  8
0
  6
CONTINUOUS
 62
     7
 10
511.3166832307
 20
452.8782652627
 30
0.0
 40
19.61999999999978
  0
LINE
  5
132
  8
0
  6
CONTINUOUS
 62
     7
 10
487.6470827439
 20
512.8782639216
 30
0.0
 11
468.5488865653
 21
512.8782639216
 31
0.0
  0
LINE
  5
133
  8
0
  6
CONTINUOUS
 62
     7
 10
534.9862837174
 20
512.8782639216
 30
0.0
 11
554.0844798961
 21
512.8782639216
 31
0.0
  0
LINE
  5
134
  8
0
  6
CONTINUOUS
 62
     7
 10
487.6470827439
 20
392.8782666038
 30
0.0
 11
468.5488865653
 21
392.8782666038
 31
0.0
  0
LINE
  5
135
  8
0
  6
CONTINUOUS
 62
     7
 10
534.9862837174
 20
392.8782666038
 30
0.0
 11
554.0844798961
 21
392.8782666038
 31
0.0
  0
LINE
  5
136
  8
0
  6
CONTINUOUS
 62
     7
 10
502.3166836181
 20
516.8782683026
 30
0.0
 11
503.3010738844
 21
516.8782683026
 31
0.0
  0
ARC
  5
137
  8
0
  6
CONTINUOUS
 62
     7
 10
502.3166832307
 20
506.8782652627
 30
0.0
 40
10.0
 50
90.0
 51
113.2715897244
  0
LINE
  5
138
  8
0
  6
CONTINUOUS
 62
     7
 10
519.332292577
 20
516.8782683026
 30
0.0
 11
520.3166828433
 21
516.8782683026
 31
0.0
  0
ARC
  5
139
  8
0
  6
CONTINUOUS
 62
     7
 10
520.3166832307
 20
506.8782652627
 30
0.0
 40
10.0
 50
66.7284102756
 51
90.0
  0
LINE
  5
13A
  8
0
  6
CONTINUOUS
 62
     7
 10
502.3166836181
 20
516.8782683026
 30
0.0
 11
502.3166836181
 21
518.2180093537
 31
0.0
  0
LINE
  5
13B
  8
0
  6
CONTINUOUS
 62
     7
 10
502.3166836181
 20
518.2180093537
 30
0.0
 11
520.3166828433
 21
518.2180093537
 31
0.0
  0
LINE
  5
13C
  8
0
  6
CONTINUOUS
 62
     7
 10
520.3166828433
 20
516.8782683026
 30
0.0
 11
520.3166828433
 21
518.2180093537
 31
0.0
  0
LINE
  5
13D
  8
0
  6
CONTINUOUS
 62
     7
 10
520.3166828433
 20
518.2180093537
 30
0.0
 11
520.3166828433
 21
545.2624397288
 31
0.0
  0
POLYLINE
  5
13E
  8
0
  6
CONTINUOUS
 62
     7
 66
     1
 10
0.0
 20
0.0
 30
0.0
 70
   128
  0
VERTEX
  5
5F7
  8
0
  6
CONTINUOUS
 62
     7
 10
530.3166826197
 20
532.2720618855
 30
0.0
  0
VERTEX
  5
5F8
  8
0
  6
CONTINUOUS
 62
     7
 10
530.1647615561
 20
534.5278145682
 30
0.0
  0
VERTEX
  5
5F9
  8
0
  6
CONTINUOUS
 62
     7
 10
529.7136102745
 20
536.7150293599
 30
0.0
  0
VERTEX
  5
5FA
  8
0
  6
CONTINUOUS
 62
     7
 10
528.9769378433
 20
538.7672470819
 30
0.0
  0
VERTEX
  5
5FB
  8
0
  6
CONTINUOUS
 62
     7
 10
527.9771276691
 20
540.622113825
 30
0.0
  0
VERTEX
  5
5FC
  8
0
  6
CONTINUOUS
 62
     7
 10
526.7445594945
 20
542.223265947
 30
0.0
  0
VERTEX
  5
5FD
  8
0
  6
CONTINUOUS
 62
     7
 10
525.3166836628
 20
543.5220586072
 30
0.0
  0
VERTEX
  5
5FE
  8
0
  6
CONTINUOUS
 62
     7
 10
523.7368849048
 20
544.4790260802
 30
0.0
  0
VERTEX
  5
5FF
  8
0
  6
CONTINUOUS
 62
     7
 10
522.0531654486
 20
545.06508875
 30
0.0
  0
VERTEX
  5
600
  8
0
  6
CONTINUOUS
 62
     7
 10
520.3166828433
 20
545.2624397288
 30
0.0
  0
SEQEND
  5
972
  8
0
  6
CONTINUOUS
 62
     7
  0
LINE
  5
13F
  8
0
  6
CONTINUOUS
 62
     7
 10
530.3166826197
 20
532.2720618855
 30
0.0
 11
530.3166826197
 21
514.5163224946
 31
0.0
  0
POLYLINE
  5
140
  8
0
  6
CONTINUOUS
 62
     7
 66
     1
 10
0.0
 20
0.0
 30
0.0
 70
   128
  0
VERTEX
  5
601
  8
0
  6
CONTINUOUS
 62
     7
 10
502.3166836181
 20
545.2624397288
 30
0.0
  0
VERTEX
  5
602
  8
0
  6
CONTINUOUS
 62
     7
 10
500.5802010128
 20
545.06508875
 30
0.0
  0
VERTEX
  5
603
  8
0
  6
CONTINUOUS
 62
     7
 10
498.8964815566
 20
544.4790260802
 30
0.0
  0
VERTEX
  5
604
  8
0
  6
CONTINUOUS
 62
     7
 10
497.3166827986
 20
543.5220586072
 30
0.0
  0
VERTEX
  5
605
  8
0
  6
CONTINUOUS
 62
     7
 10
495.8888069668
 20
542.223265947
 30
0.0
  0
VERTEX
  5
606
  8
0
  6
CONTINUOUS
 62
     7
 10
494.6562387922
 20
540.622113825
 30
0.0
  0
VERTEX
  5
607
  8
0
  6
CONTINUOUS
 62
     7
 10
493.6564286181
 20
538.7672470819
 30
0.0
  0
VERTEX
  5
608
  8
0
  6
CONTINUOUS
 62
     7
 10
492.9197561869
 20
536.7150293599
 30
0.0
  0
VERTEX
  5
609
  8
0
  6
CONTINUOUS
 62
     7
 10
492.4686049053
 20
534.5278145682
 30
0.0
  0
VERTEX
  5
60A
  8
0
  6
CONTINUOUS
 62
     7
 10
492.3166838416
 20
532.2720618855
 30
0.0
  0
SEQEND
  5
973
  8
0
  6
CONTINUOUS
 62
     7
  0
LINE
  5
141
  8
0
  6
CONTINUOUS
 62
     7
 10
502.3166836181
 20
545.2624397288
 30
0.0
 11
502.3166836181
 21
518.2180093537
 31
0.0
  0
LINE
  5
142
  8
0
  6
CONTINUOUS
 62
     7
 10
492.3166838416
 20
514.5163224946
 30
0.0
 11
492.3166838416
 21
532.2720618855
 31
0.0
  0
LINE
  5
143
  8
0
  6
CONTINUOUS
 62
     7
 10
520.3166828433
 20
545.2624397288
 30
0.0
 11
502.3166836181
 21
545.2624397288
 31
0.0
  0
LINE
  5
144
  8
0
  6
CONTINUOUS
 62
     7
 10
492.3166838416
 20
528.8079591404
 30
0.0
 11
487.3166830221
 21
528.8079591404
 31
0.0
  0
LINE
  5
145
  8
0
  6
CONTINUOUS
 62
     7
 10
530.3166826197
 20
528.8079591404
 30
0.0
 11
535.3166834393
 21
528.8079591404
 31
0.0
  0
LINE
  5
146
  8
0
  6
CONTINUOUS
 62
     7
 10
530.3166826197
 20
532.2720618855
 30
0.0
 11
535.3166834393
 21
532.2720618855
 31
0.0
  0
LINE
  5
147
  8
0
  6
CONTINUOUS
 62
     7
 10
520.3166828433
 20
545.2624397288
 30
0.0
 11
520.3166828433
 21
547.2375737439
 31
0.0
  0
ARC
  5
148
  8
0
  6
CONTINUOUS
 62
     7
 10
514.0594400746
 20
480.4503735547
 30
0.0
 40
67.07967796719419
 50
76.3854827839
 51
84.6476253071
  0
ARC
  5
149
  8
0
  6
CONTINUOUS
 62
     7
 10
516.8767039417
 20
532.5373030304
 30
0.0
 40
18.44188701674081
 50
359.175912848
 51
45.2974348837
  0
LINE
  5
14A
  8
0
  6
CONTINUOUS
 62
     7
 10
487.3166830221
 20
528.8079591404
 30
0.0
 11
487.3166830221
 21
532.2720618855
 31
0.0
  0
LINE
  5
14B
  8
0
  6
CONTINUOUS
 62
     7
 10
492.3166838416
 20
532.2720618855
 30
0.0
 11
487.3166830221
 21
532.2720618855
 31
0.0
  0
LINE
  5
14C
  8
0
  6
CONTINUOUS
 62
     7
 10
535.3166834393
 20
532.2720618855
 30
0.0
 11
535.3166834393
 21
528.8079591404
 31
0.0
  0
ARC
  5
14D
  8
0
  6
CONTINUOUS
 62
     7
 10
505.7566625197
 20
532.5373030304
 30
0.0
 40
18.44188701674137
 50
134.7025651163
 51
180.824087152
  0
ARC
  5
14E
  8
0
  6
CONTINUOUS
 62
     7
 10
508.5746859044
 20
480.4458267869
 30
0.0
 40
67.08427575957418
 50
95.352658318
 51
103.614233591
  0
LINE
  5
14F
  8
0
  6
CONTINUOUS
 62
     7
 10
502.3166836181
 20
545.2624397288
 30
0.0
 11
502.3166836181
 21
547.2375737439
 31
0.0
  0
ARC
  5
150
  8
0
  6
CONTINUOUS
 62
     7
 10
511.3166832307
 20
452.8782652627
 30
0.0
 40
66.99999999999997
 50
268.1211131219
 51
271.8788868781
  0
POLYLINE
  5
151
  8
0
  6
CONTINUOUS
 62
     7
 66
     1
 10
0.0
 20
0.0
 30
0.0
 70
   128
  0
VERTEX
  5
60B
  8
0
  6
CONTINUOUS
 62
     7
 10
520.3166828433
 20
547.2375737439
 30
0.0
  0
VERTEX
  5
60C
  8
0
  6
CONTINUOUS
 62
     7
 10
511.3155325711
 20
547.6369546662
 30
0.0
  0
VERTEX
  5
60D
  8
0
  6
CONTINUOUS
 62
     7
 10
502.3166836181
 20
547.2375737439
 30
0.0
  0
SEQEND
  5
974
  8
0
  6
CONTINUOUS
 62
     7
  0
ARC
  5
152
  8
0
  6
CONTINUOUS
 62
     7
 10
511.3167572333
 20
452.8776734678
 30
0.0
 40
95.00059654305402
 50
95.4592399247
 51
101.2975202554
  0
LINE
  5
153
  8
0
  6
CONTINUOUS
 62
     7
 10
502.2786279151
 20
547.4473597418
 30
0.0
 11
502.3166836181
 21
547.2375737439
 31
0.0
  0
LINE
  5
154
  8
0
  6
CONTINUOUS
 62
     7
 10
492.7057885507
 20
546.0374565731
 30
0.0
 11
492.7841500321
 21
545.6452058564
 31
0.0
  0
LINE
  5
155
  8
0
  6
CONTINUOUS
 62
     7
 10
520.3166828433
 20
547.2375737439
 30
0.0
 11
520.3547385463
 21
547.4473597418
 31
0.0
  0
ARC
  5
156
  8
0
  6
CONTINUOUS
 62
     7
 10
511.3165745156
 20
452.87743778
 30
0.0
 40
95.00083446430797
 50
78.7024870617
 51
84.5407527583
  0
LINE
  5
157
  8
0
  6
CONTINUOUS
 62
     7
 10
529.8492164293
 20
545.6452058564
 30
0.0
 11
529.9275779107
 21
546.0374565731
 31
0.0
  0
POLYLINE
  5
158
  8
0
  6
CONTINUOUS
 62
     7
 66
     1
 10
0.0
 20
0.0
 30
0.0
 70
   128
  0
VERTEX
  5
60E
  8
0
  6
CONTINUOUS
 62
     7
 10
502.2786279151
 20
547.4473597418
 30
0.0
  0
VERTEX
  5
60F
  8
0
  6
CONTINUOUS
 62
     7
 10
511.3154484601
 20
547.8782640706
 30
0.0
  0
VERTEX
  5
610
  8
0
  6
CONTINUOUS
 62
     7
 10
520.3547385463
 20
547.4473597418
 30
0.0
  0
SEQEND
  5
975
  8
0
  6
CONTINUOUS
 62
     7
  0
ARC
  5
159
  8
0
  6
CONTINUOUS
 62
     7
 10
511.3166832307
 20
452.8782652627
 30
0.0
 40
94.60000000000001
 50
101.2975470254
 51
78.7024529746
  0
ARC
  5
15A
  8
0
  6
CONTINUOUS
 62
     7
 10
511.3166832307
 20
452.8782652627
 30
0.0
 40
94.99999999999994
 50
101.2975470254
 51
78.7024529746
  0
ARC
  5
15B
  8
0
  6
CONTINUOUS
 62
     7
 10
606.3166832307
 20
516.7942257108
 30
0.0
 40
3.000000000000008
 50
0.0
 51
33.9326496052
  0
ARC
  5
15C
  8
0
  6
CONTINUOUS
 62
     7
 10
487.1451103554
 20
565.8782652627
 30
0.0
 40
2.0
 50
90.0
 51
135.0
  0
ARC
  5
15D
  8
0
  6
CONTINUOUS
 62
     7
 10
467.2456154188
 20
555.8782652627
 30
0.0
 40
5.000000000000041
 50
270.0
 51
315.0
  0
LINE
  5
15E
  8
0
  6
CONTINUOUS
 62
     7
 10
447.40072274
 20
354.8782678257
 30
0.0
 11
575.2326437214
 21
354.8782678257
 31
0.0
  0
ARC
  5
15F
  8
0
  6
CONTINUOUS
 62
     7
 10
447.4007227826
 20
547.8782652627
 30
0.0
 40
3.0
 50
90.0
 51
123.9326496052
  0
CIRCLE
  5
160
  8
0
  6
CONTINUOUS
 62
     7
 10
435.3027042531
 20
528.8922442403
 30
0.0
 40
6.0
  0
LINE
  5
161
  8
0
  6
CONTINUOUS
 62
     7
 10
467.2456161061
 20
550.8782626997
 30
0.0
 11
447.40072274
 21
550.8782626997
 31
0.0
  0
CIRCLE
  5
162
  8
0
  6
CONTINUOUS
 62
     7
 10
587.3306622082
 20
376.8642862852
 30
0.0
 40
6.0
  0
CIRCLE
  5
163
  8
0
  6
CONTINUOUS
 62
     7
 10
566.9582059752
 20
363.8332151663
 30
0.0
 40
4.0
  0
LINE
  5
164
  8
0
  6
CONTINUOUS
 62
     7
 10
609.3166806677
 20
388.962304772
 30
0.0
 11
609.3166806677
 21
516.7942257534
 31
0.0
  0
ARC
  5
165
  8
0
  6
CONTINUOUS
 62
     7
 10
555.3877510426
 20
555.8782652627
 30
0.0
 40
5.0
 50
225.0
 51
270.0
  0
LINE
  5
166
  8
0
  6
CONTINUOUS
 62
     7
 10
413.3166857937
 20
516.7942257534
 30
0.0
 11
413.3166857937
 21
388.962304772
 31
0.0
  0
ARC
  5
167
  8
0
  6
CONTINUOUS
 62
     7
 10
416.3166832307
 20
516.7942257108
 30
0.0
 40
3.000000000000056
 50
146.0673503948
 51
180.0
  0
LINE
  5
168
  8
0
  6
CONTINUOUS
 62
     7
 10
485.7308977225
 20
567.2924803506
 30
0.0
 11
470.7811475673
 21
552.3427339207
 31
0.0
  0
CIRCLE
  5
169
  8
0
  6
CONTINUOUS
 62
     7
 10
435.3027042531
 20
376.8642862852
 30
0.0
 40
5.999999999999943
  0
ARC
  5
16A
  8
0
  6
CONTINUOUS
 62
     7
 10
511.3166832307
 20
452.8782652627
 30
0.0
 40
117.5
 50
33.9326496052
 51
56.0673503948
  0
ARC
  5
16B
  8
0
  6
CONTINUOUS
 62
     7
 10
511.3166832307
 20
452.8782652627
 30
0.0
 40
117.5000000000001
 50
123.9326496052
 51
146.0673503948
  0
CIRCLE
  5
16C
  8
0
  6
CONTINUOUS
 62
     7
 10
455.6751604862
 20
541.9233153591
 30
0.0
 40
3.999999999999943
  0
ARC
  5
16D
  8
0
  6
CONTINUOUS
 62
     7
 10
575.2326436788
 20
547.8782652627
 30
0.0
 40
3.000000000000008
 50
56.0673503948
 51
90.0
  0
LINE
  5
16E
  8
0
  6
CONTINUOUS
 62
     7
 10
551.8522188941
 20
552.3427339207
 30
0.0
 11
536.9024687388
 21
567.2924803506
 31
0.0
  0
ARC
  5
16F
  8
0
  6
CONTINUOUS
 62
     7
 10
511.3166832307
 20
452.8782652627
 30
0.0
 40
117.5
 50
303.9326496052
 51
326.0673503948
  0
LINE
  5
170
  8
0
  6
CONTINUOUS
 62
     7
 10
575.2326437214
 20
550.8782626997
 30
0.0
 11
555.3877503553
 21
550.8782626997
 31
0.0
  0
ARC
  5
171
  8
0
  6
CONTINUOUS
 62
     7
 10
416.3166832307
 20
388.9623048146
 30
0.0
 40
3.0
 50
180.0
 51
213.9326496052
  0
ARC
  5
172
  8
0
  6
CONTINUOUS
 62
     7
 10
447.4007227826
 20
357.8782652627
 30
0.0
 40
3.0
 50
236.0673503948
 51
270.0
  0
ARC
  5
173
  8
0
  6
CONTINUOUS
 62
     7
 10
511.3166832307
 20
452.8782652627
 30
0.0
 40
117.5
 50
213.9326496052
 51
236.0673503948
  0
LINE
  5
174
  8
0
  6
CONTINUOUS
 62
     7
 10
535.4882554093
 20
567.8782673489
 30
0.0
 11
487.1451110521
 21
567.8782673489
 31
0.0
  0
ARC
  5
175
  8
0
  6
CONTINUOUS
 62
     7
 10
535.4882561059
 20
565.8782652627
 30
0.0
 40
2.000000000000016
 50
45.0
 51
90.0
  0
ARC
  5
176
  8
0
  6
CONTINUOUS
 62
     7
 10
575.2326436788
 20
357.8782652627
 30
0.0
 40
3.000000000000056
 50
270.0
 51
303.9326496052
  0
CIRCLE
  5
177
  8
0
  6
CONTINUOUS
 62
     7
 10
587.3306622082
 20
528.8922442403
 30
0.0
 40
6.0
  0
ARC
  5
178
  8
0
  6
CONTINUOUS
 62
     7
 10
606.3166832307
 20
388.9623048146
 30
0.0
 40
3.0
 50
326.0673503948
 51
0.0
  0
LINE
  5
179
  8
0
  6
CONTINUOUS
 62
     7
 10
558.015495626
 20
408.9510800253
 30
0.0
 11
565.204765735
 21
408.848466904
 31
0.0
  0
LINE
  5
17A
  8
0
  6
CONTINUOUS
 62
     7
 10
565.204765735
 20
408.848466904
 30
0.0
 11
568.7105321267
 21
402.5710696291
 31
0.0
  0
LINE
  5
17B
  8
0
  6
CONTINUOUS
 62
     7
 10
568.7105321267
 20
402.5710696291
 30
0.0
 11
565.0270321348
 21
396.3962892007
 31
0.0
  0
LINE
  5
17C
  8
0
  6
CONTINUOUS
 62
     7
 10
554.3319956341
 20
402.7762958716
 30
0.0
 11
558.015495626
 21
408.9510800253
 31
0.0
  0
LINE
  5
17D
  8
0
  6
CONTINUOUS
 62
     7
 10
565.0270321348
 20
396.3962892007
 30
0.0
 11
557.8377657512
 21
396.4989023219
 31
0.0
  0
LINE
  5
17E
  8
0
  6
CONTINUOUS
 62
     7
 10
557.8377657512
 20
396.4989023219
 30
0.0
 11
554.3319956341
 21
402.7762958716
 31
0.0
  0
ARC
  5
17F
  8
0
  6
CONTINUOUS
 62
     7
 10
561.5212646949
 20
402.6736837985
 30
0.0
 40
7.190000000000074
 50
299.1822672177
 51
359.1822672177
  0
ARC
  5
180
  8
0
  6
CONTINUOUS
 62
     7
 10
561.5212646949
 20
402.6736837985
 30
0.0
 40
7.189999999999962
 50
119.1822672176
 51
179.1822672177
  0
ARC
  5
181
  8
0
  6
CONTINUOUS
 62
     7
 10
561.5212646949
 20
402.6736837985
 30
0.0
 40
7.190000000000043
 50
59.1822672176
 51
119.1822672176
  0
ARC
  5
182
  8
0
  6
CONTINUOUS
 62
     7
 10
561.5212646949
 20
402.6736837985
 30
0.0
 40
7.190000000000074
 50
359.1822672177
 51
59.1822672176
  0
ARC
  5
183
  8
0
  6
CONTINUOUS
 62
     7
 10
561.5212646949
 20
402.6736837985
 30
0.0
 40
7.189999999999975
 50
179.1822672177
 51
239.1822672177
  0
ARC
  5
184
  8
0
  6
CONTINUOUS
 62
     7
 10
561.5212646949
 20
402.6736837985
 30
0.0
 40
7.190000000000073
 50
239.1822672177
 51
299.1822672177
  0
LINE
  5
185
  8
0
  6
CONTINUOUS
 62
     7
 10
565.204765735
 20
496.9080636214
 30
0.0
 11
558.015495626
 21
496.8054505001
 31
0.0
  0
LINE
  5
186
  8
0
  6
CONTINUOUS
 62
     7
 10
554.3319956341
 20
502.9802346538
 30
0.0
 11
557.8377657512
 21
509.2576282035
 31
0.0
  0
LINE
  5
187
  8
0
  6
CONTINUOUS
 62
     7
 10
568.7105321267
 20
503.1854608964
 30
0.0
 11
565.204765735
 21
496.9080636214
 31
0.0
  0
LINE
  5
188
  8
0
  6
CONTINUOUS
 62
     7
 10
558.015495626
 20
496.8054505001
 30
0.0
 11
554.3319956341
 21
502.9802346538
 31
0.0
  0
LINE
  5
189
  8
0
  6
CONTINUOUS
 62
     7
 10
565.0270321348
 20
509.3602413248
 30
0.0
 11
568.7105321267
 21
503.1854608964
 31
0.0
  0
LINE
  5
18A
  8
0
  6
CONTINUOUS
 62
     7
 10
557.8377657512
 20
509.2576282035
 30
0.0
 11
565.0270321348
 21
509.3602413248
 31
0.0
  0
ARC
  5
18B
  8
0
  6
CONTINUOUS
 62
     7
 10
561.5212646949
 20
503.082846727
 30
0.0
 40
7.18999999999996
 50
120.8177327823
 51
180.8177327824
  0
ARC
  5
18C
  8
0
  6
CONTINUOUS
 62
     7
 10
561.5212646949
 20
503.082846727
 30
0.0
 40
7.190000000000012
 50
180.8177327824
 51
240.8177327824
  0
ARC
  5
18D
  8
0
  6
CONTINUOUS
 62
     7
 10
561.5212646949
 20
503.082846727
 30
0.0
 40
7.190000000000043
 50
240.8177327824
 51
300.8177327824
  0
ARC
  5
18E
  8
0
  6
CONTINUOUS
 62
     7
 10
561.5212646949
 20
503.082846727
 30
0.0
 40
7.190000000000075
 50
0.8177327824
 51
60.8177327824
  0
ARC
  5
18F
  8
0
  6
CONTINUOUS
 62
     7
 10
561.5212646949
 20
503.082846727
 30
0.0
 40
7.190000000000075
 50
300.8177327824
 51
0.8177327824
  0
ARC
  5
190
  8
0
  6
CONTINUOUS
 62
     7
 10
561.5212646949
 20
503.082846727
 30
0.0
 40
7.190000000000062
 50
60.8177327824
 51
120.8177327823
  0
LINE
  5
191
  8
0
  6
CONTINUOUS
 62
     7
 10
454.9373202899
 20
406.3571827422
 30
0.0
 11
461.2147138396
 21
409.8629528593
 31
0.0
  0
LINE
  5
192
  8
0
  6
CONTINUOUS
 62
     7
 10
461.2147138396
 20
409.8629528593
 30
0.0
 11
467.3894979933
 21
406.1794528674
 31
0.0
  0
LINE
  5
193
  8
0
  6
CONTINUOUS
 62
     7
 10
467.3894979933
 20
406.1794528674
 30
0.0
 11
467.286884872
 21
398.9901827584
 31
0.0
  0
LINE
  5
194
  8
0
  6
CONTINUOUS
 62
     7
 10
467.286884872
 20
398.9901827584
 30
0.0
 11
461.009487597
 21
395.4844163667
 31
0.0
  0
LINE
  5
195
  8
0
  6
CONTINUOUS
 62
     7
 10
454.8347071686
 20
399.1679163586
 30
0.0
 11
454.9373202899
 21
406.3571827422
 31
0.0
  0
LINE
  5
196
  8
0
  6
CONTINUOUS
 62
     7
 10
461.009487597
 20
395.4844163667
 30
0.0
 11
454.8347071686
 21
399.1679163586
 31
0.0
  0
ARC
  5
197
  8
0
  6
CONTINUOUS
 62
     7
 10
461.1121017664
 20
402.6736837985
 30
0.0
 40
7.190000000000014
 50
89.1822672177
 51
149.1822672176
  0
ARC
  5
198
  8
0
  6
CONTINUOUS
 62
     7
 10
461.1121017664
 20
402.6736837985
 30
0.0
 40
7.190000000000074
 50
269.1822672177
 51
329.1822672177
  0
ARC
  5
199
  8
0
  6
CONTINUOUS
 62
     7
 10
461.1121017664
 20
402.6736837985
 30
0.0
 40
7.190000000000012
 50
29.1822672176
 51
89.1822672177
  0
ARC
  5
19A
  8
0
  6
CONTINUOUS
 62
     7
 10
461.1121017664
 20
402.6736837985
 30
0.0
 40
7.190000000000014
 50
329.1822672177
 51
29.1822672176
  0
ARC
  5
19B
  8
0
  6
CONTINUOUS
 62
     7
 10
461.1121017664
 20
402.6736837985
 30
0.0
 40
7.190000000000014
 50
149.1822672176
 51
209.1822672177
  0
ARC
  5
19C
  8
0
  6
CONTINUOUS
 62
     7
 10
461.1121017664
 20
402.6736837985
 30
0.0
 40
7.190000000000074
 50
209.1822672177
 51
269.1822672177
  0
LINE
  5
19D
  8
0
  6
CONTINUOUS
 62
     7
 10
461.009487597
 20
510.2721141587
 30
0.0
 11
467.286884872
 21
506.766347767
 31
0.0
  0
LINE
  5
19E
  8
0
  6
CONTINUOUS
 62
     7
 10
467.286884872
 20
506.766347767
 30
0.0
 11
467.3894979933
 21
499.577077658
 31
0.0
  0
LINE
  5
19F
  8
0
  6
CONTINUOUS
 62
     7
 10
467.3894979933
 20
499.577077658
 30
0.0
 11
461.2147138396
 21
495.8935776662
 31
0.0
  0
LINE
  5
1A0
  8
0
  6
CONTINUOUS
 62
     7
 10
461.2147138396
 20
495.8935776662
 30
0.0
 11
454.9373202899
 21
499.3993477832
 31
0.0
  0
LINE
  5
1A1
  8
0
  6
CONTINUOUS
 62
     7
 10
454.9373202899
 20
499.3993477832
 30
0.0
 11
454.8347071686
 21
506.5886141668
 31
0.0
  0
LINE
  5
1A2
  8
0
  6
CONTINUOUS
 62
     7
 10
454.8347071686
 20
506.5886141668
 30
0.0
 11
461.009487597
 21
510.2721141587
 31
0.0
  0
ARC
  5
1A3
  8
0
  6
CONTINUOUS
 62
     7
 10
461.1121017664
 20
503.082846727
 30
0.0
 40
7.190000000000004
 50
330.8177327823
 51
30.8177327823
  0
ARC
  5
1A4
  8
0
  6
CONTINUOUS
 62
     7
 10
461.1121017664
 20
503.082846727
 30
0.0
 40
7.189999999999996
 50
270.8177327824
 51
330.8177327823
  0
ARC
  5
1A5
  8
0
  6
CONTINUOUS
 62
     7
 10
461.1121017664
 20
503.082846727
 30
0.0
 40
7.190000000000016
 50
30.8177327823
 51
90.8177327823
  0
ARC
  5
1A6
  8
0
  6
CONTINUOUS
 62
     7
 10
461.1121017664
 20
503.082846727
 30
0.0
 40
7.190000000000004
 50
150.8177327823
 51
210.8177327824
  0
ARC
  5
1A7
  8
0
  6
CONTINUOUS
 62
     7
 10
461.1121017664
 20
503.082846727
 30
0.0
 40
7.190000000000016
 50
90.8177327823
 51
150.8177327823
  0
ARC
  5
1A8
  8
0
  6
CONTINUOUS
 62
     7
 10
461.1121017664
 20
503.082846727
 30
0.0
 40
7.190000000000004
 50
210.8177327824
 51
270.8177327824
  0
POLYLINE
  5
1A9
  8
0
  6
CONTINUOUS
 62
     7
 66
     1
 10
0.0
 20
0.0
 30
0.0
 70
   128
  0
VERTEX
  5
611
  8
0
  6
CONTINUOUS
 62
     7
 10
636.8754469731
 20
485.8782650839
 30
0.0
  0
VERTEX
  5
612
  8
0
  6
CONTINUOUS
 62
     7
 10
637.0793544629
 20
485.8335876774
 30
0.0
  0
VERTEX
  5
613
  8
0
  6
CONTINUOUS
 62
     7
 10
637.4690347293
 20
485.4821400653
 30
0.0
  0
VERTEX
  5
614
  8
0
  6
CONTINUOUS
 62
     7
 10
637.8059797862
 20
484.8104739498
 30
0.0
  0
VERTEX
  5
615
  8
0
  6
CONTINUOUS
 62
     7
 10
638.0602382997
 20
483.8782647561
 30
0.0
  0
VERTEX
  5
616
  8
0
  6
CONTINUOUS
 62
     7
 10
638.2092350104
 20
482.7683499019
 30
0.0
  0
VERTEX
  5
617
  8
0
  6
CONTINUOUS
 62
     7
 10
638.2397078851
 20
481.5793452721
 30
0.0
  0
VERTEX
  5
618
  8
0
  6
CONTINUOUS
 62
     7
 10
638.1489598134
 20
480.416901962
 30
0.0
  0
VERTEX
  5
619
  8
0
  6
CONTINUOUS
 62
     7
 10
637.9450523236
 20
479.384305508
 30
0.0
  0
VERTEX
  5
61A
  8
0
  6
CONTINUOUS
 62
     7
 10
637.6461201289
 20
478.57330981
 30
0.0
  0
VERTEX
  5
61B
  8
0
  6
CONTINUOUS
 62
     7
 10
637.2787021974
 20
478.0559731584
 30
0.0
  0
VERTEX
  5
61C
  8
0
  6
CONTINUOUS
 62
     7
 10
636.8754469731
 20
477.8782656352
 30
0.0
  0
SEQEND
  5
976
  8
0
  6
CONTINUOUS
 62
     7
  0
POLYLINE
  5
1AA
  8
0
  6
CONTINUOUS
 62
     7
 66
     1
 10
0.0
 20
0.0
 30
0.0
 70
   128
  0
VERTEX
  5
61D
  8
0
  6
CONTINUOUS
 62
     7
 10
636.9132214168
 20
427.8767393838
 30
0.0
  0
VERTEX
  5
61E
  8
0
  6
CONTINUOUS
 62
     7
 10
637.0793544629
 20
427.8335893463
 30
0.0
  0
VERTEX
  5
61F
  8
0
  6
CONTINUOUS
 62
     7
 10
637.4690347293
 20
427.4821398716
 30
0.0
  0
VERTEX
  5
620
  8
0
  6
CONTINUOUS
 62
     7
 10
637.8059797862
 20
426.8104718934
 30
0.0
  0
VERTEX
  5
621
  8
0
  6
CONTINUOUS
 62
     7
 10
638.0602382997
 20
425.8782645624
 30
0.0
  0
VERTEX
  5
622
  8
0
  6
CONTINUOUS
 62
     7
 10
638.2092350104
 20
424.7683497082
 30
0.0
  0
VERTEX
  5
623
  8
0
  6
CONTINUOUS
 62
     7
 10
638.2397078851
 20
423.5793450783
 30
0.0
  0
VERTEX
  5
624
  8
0
  6
CONTINUOUS
 62
     7
 10
638.1489598134
 20
422.4169017683
 30
0.0
  0
VERTEX
  5
625
  8
0
  6
CONTINUOUS
 62
     7
 10
637.9450523236
 20
421.3843071769
 30
0.0
  0
VERTEX
  5
626
  8
0
  6
CONTINUOUS
 62
     7
 10
637.6461201289
 20
420.573311479
 30
0.0
  0
VERTEX
  5
627
  8
0
  6
CONTINUOUS
 62
     7
 10
637.2787021974
 20
420.0559729646
 30
0.0
  0
VERTEX
  5
628
  8
0
  6
CONTINUOUS
 62
     7
 10
636.8754469731
 20
419.8782654415
 30
0.0
  0
SEQEND
  5
977
  8
0
  6
CONTINUOUS
 62
     7
  0
LINE
  5
1AB
  8
0
  6
CONTINUOUS
 62
     7
 10
636.8945204595
 20
481.8782644282
 30
0.0
 11
635.7759498933
 21
481.8782644282
 31
0.0
  0
LINE
  5
1AC
  8
0
  6
CONTINUOUS
 62
     7
 10
636.8945204595
 20
422.8782659333
 30
0.0
 11
635.7759498933
 21
422.8782659333
 31
0.0
  0
LINE
  5
1AD
  8
0
  6
CONTINUOUS
 62
     7
 10
630.4908507445
 20
485.8782650839
 30
0.0
 11
609.3166806677
 21
485.8782650839
 31
0.0
  0
LINE
  5
1AE
  8
0
  6
CONTINUOUS
 62
     7
 10
609.3166806677
 20
418.878263415
 30
0.0
 11
630.4908507445
 21
418.878263415
 31
0.0
  0
ARC
  5
1AF
  8
0
  6
CONTINUOUS
 62
     7
 10
617.1211370035
 20
473.6475387135
 30
0.0
 40
20.14244003105729
 50
358.3804665705
 51
10.9848317741
  0
LINE
  5
1B0
  8
0
  6
CONTINUOUS
 62
     7
 10
637.2555308917
 20
473.0782644759
 30
0.0
 11
636.8945204595
 21
473.0782644759
 31
0.0
  0
LINE
  5
1B1
  8
0
  6
CONTINUOUS
 62
     7
 10
636.8945204595
 20
431.6782658856
 30
0.0
 11
637.2555308917
 21
431.6782658856
 31
0.0
  0
ARC
  5
1B2
  8
0
  6
CONTINUOUS
 62
     7
 10
612.4954698105
 20
431.3513845854
 30
0.0
 40
24.76221872384767
 50
351.6125321384
 51
0.7563725653
  0
LINE
  5
1B3
  8
0
  6
CONTINUOUS
 62
     7
 10
609.3166806677
 20
479.57826461
 30
0.0
 11
628.5622307041
 21
479.57826461
 31
0.0
  0
LINE
  5
1B4
  8
0
  6
CONTINUOUS
 62
     7
 10
628.5622307041
 20
426.1782659154
 30
0.0
 11
609.3166806677
 21
426.1782659154
 31
0.0
  0
LINE
  5
1B5
  8
0
  6
CONTINUOUS
 62
     7
 10
631.3248463848
 20
477.8273800324
 30
0.0
 11
631.0888641456
 21
477.8273800324
 31
0.0
  0
LINE
  5
1B6
  8
0
  6
CONTINUOUS
 62
     7
 10
631.3248463848
 20
427.929150493
 30
0.0
 11
631.0888641456
 21
427.929150493
 31
0.0
  0
LINE
  5
1B7
  8
0
  6
CONTINUOUS
 62
     7
 10
630.8635883906
 20
479.5556837629
 30
0.0
 11
630.4408647993
 21
479.5556837629
 31
0.0
  0
LINE
  5
1B8
  8
0
  6
CONTINUOUS
 62
     7
 10
630.8635883906
 20
426.2008467625
 30
0.0
 11
630.4408647993
 21
426.2008467625
 31
0.0
  0
LINE
  5
1B9
  8
0
  6
CONTINUOUS
 62
     7
 10
609.3166806677
 20
432.1782650362
 30
0.0
 11
629.8063584545
 21
432.1782650362
 31
0.0
  0
LINE
  5
1BA
  8
0
  6
CONTINUOUS
 62
     7
 10
629.8063584545
 20
473.5782654892
 30
0.0
 11
609.3166806677
 21
473.5782654892
 31
0.0
  0
LINE
  5
1BB
  8
0
  6
CONTINUOUS
 62
     7
 10
609.3166806677
 20
480.878266127
 30
0.0
 11
629.1933619359
 21
480.878266127
 31
0.0
  0
LINE
  5
1BC
  8
0
  6
CONTINUOUS
 62
     7
 10
629.1933619359
 20
424.8782643984
 30
0.0
 11
609.3166806677
 21
424.8782643984
 31
0.0
  0
ARC
  5
1BD
  8
0
  6
CONTINUOUS
 62
     7
 10
502.4226638043
 20
508.8431919169
 30
0.0
 40
9.375416458676069
 50
90.6476882101
 51
134.8877865901
  0
ARC
  5
1BE
  8
0
  6
CONTINUOUS
 62
     7
 10
520.1816705928
 20
508.7740183571
 30
0.0
 40
9.444956021783353
 50
45.2835756629
 51
89.1809495368
  0
ARC
  5
1BF
  8
0
  6
CONTINUOUS
 62
     7
 10
505.8673142743
 20
528.5693662523
 30
0.0
 40
18.55216554541031
 50
179.2631187802
 51
223.0794800286
  0
ARC
  5
1C0
  8
0
  6
CONTINUOUS
 62
     7
 10
516.766052187
 20
528.5693662523
 30
0.0
 40
18.55216554541145
 50
316.9205199714
 51
0.7368812198
  0
ARC
  5
1C1
  8
0
  6
CONTINUOUS
 62
     7
 10
513.3166832307
 20
391.911060964
 30
0.0
 40
6.000000000000054
 50
271.8788868781
 51
328.4509335497
  0
POLYLINE
  5
1C2
  8
0
  6
CONTINUOUS
 62
     7
 66
     1
 10
0.0
 20
0.0
 30
0.0
 70
   128
  0
VERTEX
  5
629
  8
0
  6
CONTINUOUS
 62
     7
 10
513.4314374009
 20
388.4129436623
 30
0.0
  0
VERTEX
  5
62A
  8
0
  6
CONTINUOUS
 62
     7
 10
513.4316206386
 20
388.4073557268
 30
0.0
  0
VERTEX
  5
62B
  8
0
  6
CONTINUOUS
 62
     7
 10
513.4438530949
 20
388.0344690691
 30
0.0
  0
VERTEX
  5
62C
  8
0
  6
CONTINUOUS
 62
     7
 10
513.4587582143
 20
387.580102862
 30
0.0
  0
VERTEX
  5
62D
  8
0
  6
CONTINUOUS
 62
     7
 10
513.475763466
 20
387.0617212664
 30
0.0
  0
VERTEX
  5
62E
  8
0
  6
CONTINUOUS
 62
     7
 10
513.4942152945
 20
386.4992396842
 30
0.0
  0
VERTEX
  5
62F
  8
0
  6
CONTINUOUS
 62
     7
 10
513.5134044976
 20
385.914287151
 30
0.0
  0
SEQEND
  5
978
  8
0
  6
CONTINUOUS
 62
     7
  0
POLYLINE
  5
1C3
  8
0
  6
CONTINUOUS
 62
     7
 66
     1
 10
0.0
 20
0.0
 30
0.0
 70
   128
  0
VERTEX
  5
630
  8
0
  6
CONTINUOUS
 62
     7
 10
509.2019290605
 20
388.4129436623
 30
0.0
  0
VERTEX
  5
631
  8
0
  6
CONTINUOUS
 62
     7
 10
509.2017458228
 20
388.4073557268
 30
0.0
  0
VERTEX
  5
632
  8
0
  6
CONTINUOUS
 62
     7
 10
509.1895133664
 20
388.0344690691
 30
0.0
  0
VERTEX
  5
633
  8
0
  6
CONTINUOUS
 62
     7
 10
509.1746082471
 20
387.580102862
 30
0.0
  0
VERTEX
  5
634
  8
0
  6
CONTINUOUS
 62
     7
 10
509.1576029954
 20
387.0617212664
 30
0.0
  0
VERTEX
  5
635
  8
0
  6
CONTINUOUS
 62
     7
 10
509.1391511669
 20
386.4992396842
 30
0.0
  0
VERTEX
  5
636
  8
0
  6
CONTINUOUS
 62
     7
 10
509.1199619637
 20
385.914287151
 30
0.0
  0
SEQEND
  5
979
  8
0
  6
CONTINUOUS
 62
     7
  0
ARC
  5
1C4
  8
0
  6
CONTINUOUS
 62
     7
 10
509.3166832307
 20
391.911060964
 30
0.0
 40
6.000000000000006
 50
211.5490664503
 51
268.1211131219
  0
INSERT
  5
1D0
  8
SLD-0
 62
     7
  2
SW_CENTERMARKSYMBOL_0
 10
511.3166832307
 20
452.8782652627
 30
0.0
  0
INSERT
  5
1F8
  8
SLD-0
 62
     7
  2
SW_CENTERMARKSYMBOL_1
 10
435.3027042531
 20
528.8922442403
 30
0.0
  0
LINE
  5
1F9
  8
0
  6
CONTINUOUS
 62
     7
 10
451.9123547652
 20
979.4719793193
 30
0.0
 11
451.9123547652
 21
974.4719784997
 31
0.0
  0
LINE
  5
1FA
  8
0
  6
CONTINUOUS
 62
     7
 10
453.6623545864
 20
962.4719785118
 30
0.0
 11
453.6623545864
 21
960.9719786152
 31
0.0
  0
LINE
  5
1FB
  8
0
  6
CONTINUOUS
 62
     7
 10
458.6623535433
 20
960.9719786152
 30
0.0
 11
458.6623535433
 21
962.4719785118
 31
0.0
  0
LINE
  5
1FC
  8
0
  6
CONTINUOUS
 62
     7
 10
570.7210116961
 20
974.4719784997
 30
0.0
 11
570.7210116961
 21
979.4719793193
 31
0.0
  0
LINE
  5
1FD
  8
0
  6
CONTINUOUS
 62
     7
 10
563.971012918
 20
962.4719785118
 30
0.0
 11
563.971012918
 21
960.9719786152
 31
0.0
  0
LINE
  5
1FE
  8
0
  6
CONTINUOUS
 62
     7
 10
568.971011875
 20
960.9719786152
 30
0.0
 11
568.971011875
 21
962.4719785118
 31
0.0
  0
LINE
  5
1FF
  8
0
  6
CONTINUOUS
 62
     7
 10
590.4638358334
 20
1143.0691477201
 30
0.0
 11
575.6695308664
 21
1153.4282263659
 31
0.0
  0
LINE
  5
200
  8
0
  6
CONTINUOUS
 62
     7
 10
446.9638355949
 20
1153.4282263659
 30
0.0
 11
432.169530628
 21
1143.0691477201
 31
0.0
  0
LINE
  5
201
  8
0
  6
CONTINUOUS
 62
     7
 10
431.3166850188
 20
1141.4308395527
 30
0.0
 11
431.3166850188
 21
1107.4719723604
 31
0.0
  0
LINE
  5
202
  8
0
  6
CONTINUOUS
 62
     7
 10
591.3166814425
 20
1107.4719723604
 30
0.0
 11
591.3166814425
 21
1141.4308395527
 31
0.0
  0
ARC
  5
203
  8
0
  6
CONTINUOUS
 62
     7
 10
589.3166832307
 20
1141.4308444582
 30
0.0
 40
2.000000000000114
 50
0.0
 51
55.0
  0
ARC
  5
204
  8
0
  6
CONTINUOUS
 62
     7
 10
433.3166832307
 20
1141.4308444582
 30
0.0
 40
2.0
 50
125.0
 51
180.0
  0
ARC
  5
205
  8
0
  6
CONTINUOUS
 62
     7
 10
445.8166832307
 20
1155.0665370409
 30
0.0
 40
2.000000000000057
 50
305.0
 51
0.0
  0
ARC
  5
206
  8
0
  6
CONTINUOUS
 62
     7
 10
576.8166832307
 20
1155.0665370409
 30
0.0
 40
2.000000000000051
 50
180.0
 51
235.0
  0
ARC
  5
207
  8
0
  6
CONTINUOUS
 62
     7
 10
572.8166832307
 20
1155.4719785593
 30
0.0
 40
2.0
 50
0.0
 51
90.0
  0
ARC
  5
208
  8
0
  6
CONTINUOUS
 62
     7
 10
449.8166832307
 20
1155.4719785593
 30
0.0
 40
2.000000000000057
 50
90.0
 51
180.0
  0
LINE
  5
209
  8
0
  6
CONTINUOUS
 62
     7
 10
447.8166812041
 20
1155.4719802282
 30
0.0
 11
447.8166812041
 21
1155.0665345333
 31
0.0
  0
LINE
  5
20A
  8
0
  6
CONTINUOUS
 62
     7
 10
574.8166852572
 20
1155.0665345333
 30
0.0
 11
574.8166852572
 21
1155.4719802282
 31
0.0
  0
ARC
  5
20B
  8
0
  6
CONTINUOUS
 62
     7
 10
439.1967761538
 20
1124.8993175041
 30
0.0
 40
2.000000000000113
 50
126.0809636852
 51
180.0
  0
LINE
  5
20C
  8
0
  6
CONTINUOUS
 62
     7
 10
437.1967726329
 20
1124.8993125103
 30
0.0
 11
437.1967726329
 21
1107.4719723604
 31
0.0
  0
ARC
  5
20D
  8
0
  6
CONTINUOUS
 62
     7
 10
583.4365903075
 20
1124.8993175041
 30
0.0
 40
2.0
 50
0.0
 51
53.9190363148
  0
LINE
  5
20E
  8
0
  6
CONTINUOUS
 62
     7
 10
585.4365938285
 20
1107.4719723604
 30
0.0
 11
585.4365938285
 21
1124.8993125103
 31
0.0
  0
ARC
  5
20F
  8
0
  6
CONTINUOUS
 62
     7
 10
437.3984787522
 20
1126.7812215795
 30
0.0
 40
0.6731131136683012
 50
337.4515847584
 51
5.7035216708
  0
POLYLINE
  5
210
  8
0
  6
CONTINUOUS
 62
     7
 66
     1
 10
0.0
 20
0.0
 30
0.0
 70
   128
  0
VERTEX
  5
637
  8
0
  6
CONTINUOUS
 62
     7
 10
584.6158825734
 20
1126.5166696451
 30
0.0
  0
VERTEX
  5
638
  8
0
  6
CONTINUOUS
 62
     7
 10
584.6174322942
 20
1126.516937866
 30
0.0
  0
VERTEX
  5
639
  8
0
  6
CONTINUOUS
 62
     7
 10
584.5696144679
 20
1126.7086264036
 30
0.0
  0
VERTEX
  5
63A
  8
0
  6
CONTINUOUS
 62
     7
 10
584.5793598273
 20
1126.8829252861
 30
0.0
  0
SEQEND
  5
97A
  8
0
  6
CONTINUOUS
 62
     7
  0
LINE
  5
211
  8
0
  6
CONTINUOUS
 62
     7
 10
604.3835320452
 20
1111.6636392019
 30
0.0
 11
602.9319950321
 21
1111.135333433
 31
0.0
  0
LINE
  5
212
  8
0
  6
CONTINUOUS
 62
     7
 10
605.6681611517
 20
1103.6177870176
 30
0.0
 11
607.1196981647
 21
1104.1461076878
 31
0.0
  0
ARC
  5
213
  8
0
  6
CONTINUOUS
 62
     7
 10
604.5066627197
 20
1111.3253534384
 30
0.0
 40
0.3600000000002617
 50
56.3583676093
 51
110.0
  0
ARC
  5
214
  8
0
  6
CONTINUOUS
 62
     7
 10
606.9965693632
 20
1104.484391159
 30
0.0
 40
0.3600000000000769
 50
290.0
 51
343.6416323907
  0
ARC
  5
215
  8
0
  6
CONTINUOUS
 62
     7
 10
601.1051234592
 20
1106.213687305
 30
0.0
 40
6.500000000000176
 50
343.6416323907
 51
2.1374195081
  0
ARC
  5
216
  8
0
  6
CONTINUOUS
 62
     7
 10
601.1051234592
 20
1106.213687305
 30
0.0
 40
6.499999999999973
 50
37.8625804919
 51
56.3583676093
  0
LINE
  5
217
  8
0
  6
CONTINUOUS
 62
     7
 10
635.5073713639
 20
1026.1516120575
 30
0.0
 11
634.0558343509
 21
1025.623298838
 31
0.0
  0
LINE
  5
218
  8
0
  6
CONTINUOUS
 62
     7
 10
636.7919855693
 20
1018.1057561479
 30
0.0
 11
638.2435225823
 21
1018.6340730927
 31
0.0
  0
ARC
  5
219
  8
0
  6
CONTINUOUS
 62
     7
 10
635.6304957624
 20
1025.8133249468
 30
0.0
 40
0.360000000000087
 50
56.3583676093
 51
110.0
  0
ARC
  5
21A
  8
0
  6
CONTINUOUS
 62
     7
 10
638.1204024058
 20
1018.9723626675
 30
0.0
 40
0.3600000000000128
 50
290.0
 51
343.6416323907
  0
ARC
  5
21B
  8
0
  6
CONTINUOUS
 62
     7
 10
632.2289565018
 20
1020.7016588135
 30
0.0
 40
6.49999999999997
 50
343.6416323907
 51
2.1374195081
  0
ARC
  5
21C
  8
0
  6
CONTINUOUS
 62
     7
 10
632.2289565018
 20
1020.7016588135
 30
0.0
 40
6.500000000000037
 50
37.8625804919
 51
56.3583676093
  0
LINE
  5
21D
  8
0
  6
CONTINUOUS
 62
     7
 10
638.621490536
 20
1079.8905637405
 30
0.0
 11
638.5714971402
 21
1079.8905637405
 31
0.0
  0
LINE
  5
21E
  8
0
  6
CONTINUOUS
 62
     7
 10
593.3166854957
 20
1065.471976652
 30
0.0
 11
595.3166820982
 21
1065.471976652
 31
0.0
  0
LINE
  5
21F
  8
0
  6
CONTINUOUS
 62
     7
 10
595.3166820982
 20
1098.4719839237
 30
0.0
 11
593.3166854957
 21
1098.4719839237
 31
0.0
  0
LINE
  5
220
  8
0
  6
CONTINUOUS
 62
     7
 10
591.3166814425
 20
1065.471976652
 30
0.0
 11
593.3166854957
 21
1065.471976652
 31
0.0
  0
LINE
  5
221
  8
0
  6
CONTINUOUS
 62
     7
 10
593.3166854957
 20
1098.4719839237
 30
0.0
 11
591.3166814425
 21
1098.4719839237
 31
0.0
  0
LINE
  5
222
  8
0
  6
CONTINUOUS
 62
     7
 10
595.3166820982
 20
1065.471976652
 30
0.0
 11
597.3166861513
 21
1065.471976652
 31
0.0
  0
LINE
  5
223
  8
0
  6
CONTINUOUS
 62
     7
 10
597.3166861513
 20
1098.4719839237
 30
0.0
 11
595.3166820982
 21
1098.4719839237
 31
0.0
  0
LINE
  5
224
  8
0
  6
CONTINUOUS
 62
     7
 10
438.3166843036
 20
973.4719783358
 30
0.0
 11
438.3166843036
 21
961.9719785463
 31
0.0
  0
LINE
  5
225
  8
0
  6
CONTINUOUS
 62
     7
 10
565.7721423486
 20
974.4756935455
 30
0.0
 11
557.9910986999
 21
985.4259748302
 31
0.0
  0
LINE
  5
226
  8
0
  6
CONTINUOUS
 62
     7
 10
464.6420144418
 20
985.4354780458
 30
0.0
 11
456.8629861751
 21
974.4749801524
 31
0.0
  0
LINE
  5
227
  8
0
  6
CONTINUOUS
 62
     7
 10
576.3679333904
 20
974.3940053798
 30
0.0
 11
568.4309267381
 21
985.5427254282
 31
0.0
  0
LINE
  5
228
  8
0
  6
CONTINUOUS
 62
     7
 10
454.1970529535
 20
985.5521653138
 30
0.0
 11
446.2671765068
 21
974.3920766107
 31
0.0
  0
LINE
  5
229
  8
0
  6
CONTINUOUS
 62
     7
 10
576.3901435712
 20
962.4719785118
 30
0.0
 11
576.3901435712
 21
974.3497526563
 31
0.0
  0
LINE
  5
22A
  8
0
  6
CONTINUOUS
 62
     7
 10
446.2432228902
 20
974.3497526563
 30
0.0
 11
446.2432228902
 21
962.4719785118
 31
0.0
  0
LINE
  5
22B
  8
0
  6
CONTINUOUS
 62
     7
 10
586.4271038154
 20
973.4719783358
 30
0.0
 11
583.5519992688
 21
1107.4719723604
 31
0.0
  0
ARC
  5
22C
  8
0
  6
CONTINUOUS
 62
     7
 10
437.2279467522
 20
974.4719785593
 30
0.0
 40
1.000000000000009
 50
178.7645498551
 51
270.0
  0
LINE
  5
22D
  8
0
  6
CONTINUOUS
 62
     7
 10
439.0813671926
 20
1107.4719723604
 30
0.0
 11
436.2281748035
 21
974.4934296526
 31
0.0
  0
ARC
  5
22E
  8
0
  6
CONTINUOUS
 62
     7
 10
432.5666832307
 20
974.4719785593
 30
0.0
 40
1.0
 50
180.0
 51
270.0
  0
LINE
  5
22F
  8
0
  6
CONTINUOUS
 62
     7
 10
431.5666818002
 20
977.4719789914
 30
0.0
 11
431.5666818002
 21
974.4719784997
 31
0.0
  0
POLYLINE
  5
230
  8
0
  6
CONTINUOUS
 62
     7
 66
     1
 10
0.0
 20
0.0
 30
0.0
 70
   128
  0
VERTEX
  5
63B
  8
0
  6
CONTINUOUS
 62
     7
 10
433.4876724461
 20
977.7908545278
 30
0.0
  0
VERTEX
  5
63C
  8
0
  6
CONTINUOUS
 62
     7
 10
433.4708043316
 20
977.5974877469
 30
0.0
  0
VERTEX
  5
63D
  8
0
  6
CONTINUOUS
 62
     7
 10
433.4501885751
 20
977.4735352315
 30
0.0
  0
SEQEND
  5
97B
  8
0
  6
CONTINUOUS
 62
     7
  0
POLYLINE
  5
231
  8
0
  6
CONTINUOUS
 62
     7
 66
     1
 10
0.0
 20
0.0
 30
0.0
 70
   128
  0
VERTEX
  5
63E
  8
0
  6
CONTINUOUS
 62
     7
 10
433.4974774101
 20
977.9785299964
 30
0.0
  0
VERTEX
  5
63F
  8
0
  6
CONTINUOUS
 62
     7
 10
433.4953390935
 20
977.8787583403
 30
0.0
  0
VERTEX
  5
640
  8
0
  6
CONTINUOUS
 62
     7
 10
433.4876724461
 20
977.7908545278
 30
0.0
  0
SEQEND
  5
97C
  8
0
  6
CONTINUOUS
 62
     7
  0
POLYLINE
  5
232
  8
0
  6
CONTINUOUS
 62
     7
 66
     1
 10
0.0
 20
0.0
 30
0.0
 70
   128
  0
VERTEX
  5
641
  8
0
  6
CONTINUOUS
 62
     7
 10
436.9082563498
 20
1102.4720814369
 30
0.0
  0
VERTEX
  5
642
  8
0
  6
CONTINUOUS
 62
     7
 10
436.3622032979
 20
1082.5265195511
 30
0.0
  0
VERTEX
  5
643
  8
0
  6
CONTINUOUS
 62
     7
 10
433.4991686919
 20
977.9785644553
 30
0.0
  0
SEQEND
  5
97D
  8
0
  6
CONTINUOUS
 62
     7
  0
LINE
  5
233
  8
0
  6
CONTINUOUS
 62
     7
 10
446.8166866282
 20
787.471979513
 30
0.0
 11
446.8166866282
 21
772.4719789169
 31
0.0
  0
LINE
  5
234
  8
0
  6
CONTINUOUS
 62
     7
 10
575.8166798332
 20
772.4719789169
 30
0.0
 11
575.8166798332
 21
787.471979513
 31
0.0
  0
LINE
  5
235
  8
0
  6
CONTINUOUS
 62
     7
 10
447.8066899755
 20
786.4719774864
 30
0.0
 11
447.8066899755
 21
772.4719789169
 31
0.0
  0
LINE
  5
236
  8
0
  6
CONTINUOUS
 62
     7
 10
574.8266764858
 20
772.4719789169
 30
0.0
 11
574.8266764858
 21
786.4719774864
 31
0.0
  0
LINE
  5
237
  8
0
  6
CONTINUOUS
 62
     7
 10
542.316682724
 20
755.9719827316
 30
0.0
 11
542.316682724
 21
772.4719789169
 31
0.0
  0
LINE
  5
238
  8
0
  6
CONTINUOUS
 62
     7
 10
480.3166837373
 20
772.4719789169
 30
0.0
 11
480.3166837373
 21
755.9719827316
 31
0.0
  0
LINE
  5
239
  8
0
  6
CONTINUOUS
 62
     7
 10
552.0916470268
 20
755.9719827316
 30
0.0
 11
555.7761938253
 21
763.7719806574
 31
0.0
  0
LINE
  5
23A
  8
0
  6
CONTINUOUS
 62
     7
 10
466.8571726361
 20
763.7719806574
 30
0.0
 11
470.5417194345
 21
755.9719827316
 31
0.0
  0
LINE
  5
23B
  8
0
  6
CONTINUOUS
 62
     7
 10
606.3166820386
 20
934.371977701
 30
0.0
 11
606.3166820386
 21
935.9719787083
 31
0.0
  0
LINE
  5
23C
  8
0
  6
CONTINUOUS
 62
     7
 10
416.3166844228
 20
935.9719787083
 30
0.0
 11
416.3166844228
 21
934.371977701
 31
0.0
  0
LINE
  5
23D
  8
0
  6
CONTINUOUS
 62
     7
 10
416.3166844228
 20
934.371977701
 30
0.0
 11
416.7166837433
 21
933.9719783805
 31
0.0
  0
LINE
  5
23E
  8
0
  6
CONTINUOUS
 62
     7
 10
605.9166827181
 20
933.9719783805
 30
0.0
 11
606.3166820386
 21
934.371977701
 31
0.0
  0
LINE
  5
23F
  8
0
  6
CONTINUOUS
 62
     7
 10
582.3166855553
 20
950.971978373
 30
0.0
 11
582.3166855553
 21
961.9719785463
 31
0.0
  0
LINE
  5
240
  8
0
  6
CONTINUOUS
 62
     7
 10
440.3166809061
 20
961.9719785463
 30
0.0
 11
440.3166809061
 21
950.971978373
 31
0.0
  0
LINE
  5
241
  8
0
  6
CONTINUOUS
 62
     7
 10
575.3166862705
 20
834.4719853542
 30
0.0
 11
575.3166862705
 21
861.4719804667
 31
0.0
  0
LINE
  5
242
  8
0
  6
CONTINUOUS
 62
     7
 10
447.3166801908
 20
861.4719804667
 30
0.0
 11
447.3166801908
 21
834.4719853542
 31
0.0
  0
ARC
  5
243
  8
0
  6
CONTINUOUS
 62
     7
 10
441.419831018
 20
950.9719785593
 30
0.0
 40
3.000000000011596
 50
270.0
 51
0.0
  0
ARC
  5
244
  8
0
  6
CONTINUOUS
 62
     7
 10
581.2135354434
 20
950.9719785593
 30
0.0
 40
3.000000000011596
 50
180.0
 51
270.0
  0
LINE
  5
245
  8
0
  6
CONTINUOUS
 62
     7
 10
578.2135390618
 20
950.971978373
 30
0.0
 11
578.2135390618
 21
960.9719786152
 31
0.0
  0
LINE
  5
246
  8
0
  6
CONTINUOUS
 62
     7
 10
444.4198273995
 20
960.9719786152
 30
0.0
 11
444.4198273995
 21
950.971978373
 31
0.0
  0
LINE
  5
247
  8
0
  6
CONTINUOUS
 62
     7
 10
448.0207302549
 20
850.4719805263
 30
0.0
 11
448.0207302549
 21
836.4719745062
 31
0.0
  0
LINE
  5
248
  8
0
  6
CONTINUOUS
 62
     7
 10
574.6126362064
 20
836.4719745062
 30
0.0
 11
574.6126362064
 21
850.4719805263
 31
0.0
  0
ARC
  5
249
  8
0
  6
CONTINUOUS
 62
     7
 10
452.3166832307
 20
861.4719785593
 30
0.0
 40
5.0
 50
90.0
 51
180.0
  0
ARC
  5
24A
  8
0
  6
CONTINUOUS
 62
     7
 10
570.3166832307
 20
861.4719785593
 30
0.0
 40
5.0
 50
0.0
 51
90.0
  0
ARC
  5
24B
  8
0
  6
CONTINUOUS
 62
     7
 10
555.7657521175
 20
868.3871710798
 30
0.0
 40
1.94309337842239
 50
173.2587697093
 51
260.1077285791
  0
ARC
  5
24C
  8
0
  6
CONTINUOUS
 62
     7
 10
466.8668206327
 20
868.381474539
 30
0.0
 40
1.938064463729741
 50
280.1437911792
 51
6.1076904114
  0
ARC
  5
24D
  8
0
  6
CONTINUOUS
 62
     7
 10
585.3166832307
 20
950.9719785593
 30
0.0
 40
3.0
 50
180.0
 51
270.0
  0
ARC
  5
24E
  8
0
  6
CONTINUOUS
 62
     7
 10
437.3166832307
 20
950.9719785593
 30
0.0
 40
3.000000000000057
 50
270.0
 51
0.0
  0
LINE
  5
24F
  8
0
  6
CONTINUOUS
 62
     7
 10
568.7112660089
 20
770.5719765566
 30
0.0
 11
568.7112660089
 21
772.4719789169
 31
0.0
  0
LINE
  5
250
  8
0
  6
CONTINUOUS
 62
     7
 10
554.3312654772
 20
772.4719789169
 30
0.0
 11
554.3312654772
 21
770.5719765566
 31
0.0
  0
LINE
  5
251
  8
0
  6
CONTINUOUS
 62
     7
 10
565.5212663987
 20
786.4719774864
 30
0.0
 11
565.5212663987
 21
836.4719745062
 31
0.0
  0
LINE
  5
252
  8
0
  6
CONTINUOUS
 62
     7
 10
565.5212663987
 20
850.4719805263
 30
0.0
 11
565.5212663987
 21
850.571982219
 31
0.0
  0
LINE
  5
253
  8
0
  6
CONTINUOUS
 62
     7
 10
557.5212650874
 20
850.571982219
 30
0.0
 11
557.5212650874
 21
850.4719805263
 31
0.0
  0
LINE
  5
254
  8
0
  6
CONTINUOUS
 62
     7
 10
557.5212650874
 20
836.4719745062
 30
0.0
 11
557.5212650874
 21
786.4719774864
 31
0.0
  0
LINE
  5
255
  8
0
  6
CONTINUOUS
 62
     7
 10
468.3021009841
 20
770.5719765566
 30
0.0
 11
468.3021009841
 21
772.4719789169
 31
0.0
  0
LINE
  5
256
  8
0
  6
CONTINUOUS
 62
     7
 10
453.9221004525
 20
772.4719789169
 30
0.0
 11
453.9221004525
 21
770.5719765566
 31
0.0
  0
LINE
  5
257
  8
0
  6
CONTINUOUS
 62
     7
 10
465.112101374
 20
786.4719774864
 30
0.0
 11
465.112101374
 21
836.4719745062
 31
0.0
  0
LINE
  5
258
  8
0
  6
CONTINUOUS
 62
     7
 10
465.112101374
 20
850.4719805263
 30
0.0
 11
465.112101374
 21
850.571982219
 31
0.0
  0
LINE
  5
259
  8
0
  6
CONTINUOUS
 62
     7
 10
457.1121000627
 20
850.571982219
 30
0.0
 11
457.1121000627
 21
850.4719805263
 31
0.0
  0
LINE
  5
25A
  8
0
  6
CONTINUOUS
 62
     7
 10
457.1121000627
 20
836.4719745062
 30
0.0
 11
457.1121000627
 21
786.4719774864
 31
0.0
  0
LINE
  5
25B
  8
0
  6
CONTINUOUS
 62
     7
 10
575.8166798332
 20
810.971974983
 30
0.0
 11
575.8166798332
 21
834.4719853542
 31
0.0
  0
LINE
  5
25C
  8
0
  6
CONTINUOUS
 62
     7
 10
446.8166866282
 20
834.4719853542
 30
0.0
 11
446.8166866282
 21
810.971974983
 31
0.0
  0
LINE
  5
25D
  8
0
  6
CONTINUOUS
 62
     7
 10
575.8166798332
 20
787.471979513
 30
0.0
 11
575.8166798332
 21
810.971974983
 31
0.0
  0
LINE
  5
25E
  8
0
  6
CONTINUOUS
 62
     7
 10
446.8166866282
 20
810.971974983
 30
0.0
 11
446.8166866282
 21
787.471979513
 31
0.0
  0
LINE
  5
25F
  8
0
  6
CONTINUOUS
 62
     7
 10
455.0623745599
 20
979.4719793193
 30
0.0
 11
460.4123533645
 21
979.4719793193
 31
0.0
  0
LINE
  5
260
  8
0
  6
CONTINUOUS
 62
     7
 10
451.9123547652
 20
979.4719793193
 30
0.0
 11
455.0623745599
 21
979.4719793193
 31
0.0
  0
LINE
  5
261
  8
0
  6
CONTINUOUS
 62
     7
 10
563.4658076742
 20
979.4719793193
 30
0.0
 11
570.7210116961
 21
979.4719793193
 31
0.0
  0
LINE
  5
262
  8
0
  6
CONTINUOUS
 62
     7
 10
562.2210130969
 20
979.4719793193
 30
0.0
 11
563.4658076742
 21
979.4719793193
 31
0.0
  0
ARC
  5
263
  8
0
  6
CONTINUOUS
 62
     7
 10
511.3166832307
 20
1030.1870133153
 30
0.0
 40
116.5309744925405
 50
75.6241297473
 51
104.3758702527
  0
ARC
  5
264
  8
0
  6
CONTINUOUS
 62
     7
 10
780.5378570685
 20
946.093654817
 30
0.0
 40
312.4114770308536
 50
141.3374059155
 51
141.6650773749
  0
ARC
  5
265
  8
0
  6
CONTINUOUS
 62
     7
 10
511.3166832307
 20
1035.8125715943
 30
0.0
 40
106.8258820750304
 50
76.9254034394
 51
103.0745965606
  0
ARC
  5
266
  8
0
  6
CONTINUOUS
 62
     7
 10
242.0955093929
 20
946.093654817
 30
0.0
 40
312.4114770308535
 50
38.3349226251
 51
38.6625940845
  0
ARC
  5
267
  8
0
  6
CONTINUOUS
 62
     7
 10
482.0261785338
 20
1137.7364946275
 30
0.0
 40
5.344654268183905
 50
41.349150862
 51
86.1596481652
  0
ARC
  5
268
  8
0
  6
CONTINUOUS
 62
     7
 10
540.5839003823
 20
1137.7837262402
 30
0.0
 40
5.296007027283309
 50
93.6232005887
 51
138.868000384
  0
ARC
  5
269
  8
0
  6
CONTINUOUS
 62
     7
 10
482.6582309872
 20
1136.0057443997
 30
0.0
 40
5.456635867182579
 50
58.1273069597
 51
96.1633995359
  0
LINE
  5
26A
  8
0
  6
CONTINUOUS
 62
     7
 10
485.539518384
 20
1107.4719723604
 30
0.0
 11
485.539518384
 21
1140.6396474979
 31
0.0
  0
LINE
  5
26B
  8
0
  6
CONTINUOUS
 62
     7
 10
447.0767416933
 20
1107.4719723604
 30
0.0
 11
485.539518384
 21
1107.4719723604
 31
0.0
  0
LINE
  5
26C
  8
0
  6
CONTINUOUS
 62
     7
 10
447.0767416933
 20
1128.4719851158
 30
0.0
 11
447.0767416933
 21
1107.4719723604
 31
0.0
  0
LINE
  5
26D
  8
0
  6
CONTINUOUS
 62
     7
 10
437.9060083011
 20
1128.4719851158
 30
0.0
 11
447.0767416933
 21
1128.4719851158
 31
0.0
  0
LINE
  5
26E
  8
0
  6
CONTINUOUS
 62
     7
 10
431.3166850188
 20
1107.4719723604
 30
0.0
 11
437.1967726329
 21
1107.4719723604
 31
0.0
  0
LINE
  5
26F
  8
0
  6
CONTINUOUS
 62
     7
 10
585.4365938285
 20
1107.4719723604
 30
0.0
 11
591.3166814425
 21
1107.4719723604
 31
0.0
  0
LINE
  5
270
  8
0
  6
CONTINUOUS
 62
     7
 10
575.5566247681
 20
1128.4719851158
 30
0.0
 11
584.7273581603
 21
1128.4719851158
 31
0.0
  0
LINE
  5
271
  8
0
  6
CONTINUOUS
 62
     7
 10
575.5566247681
 20
1107.4719723604
 30
0.0
 11
575.5566247681
 21
1128.4719851158
 31
0.0
  0
LINE
  5
272
  8
0
  6
CONTINUOUS
 62
     7
 10
537.0938480773
 20
1107.4719723604
 30
0.0
 11
575.5566247681
 21
1107.4719723604
 31
0.0
  0
LINE
  5
273
  8
0
  6
CONTINUOUS
 62
     7
 10
537.0938480773
 20
1140.6396474979
 30
0.0
 11
537.0938480773
 21
1107.4719723604
 31
0.0
  0
ARC
  5
274
  8
0
  6
CONTINUOUS
 62
     7
 10
539.95768217
 20
1136.0822276807
 30
0.0
 40
5.382529247536374
 50
83.5644766611
 51
122.1448168433
  0
ARC
  5
275
  8
0
  6
CONTINUOUS
 62
     7
 10
530.838344339
 20
1136.1806090264
 30
0.0
 40
7.682079868862218
 50
35.4819724255
 51
41.4652482686
  0
ARC
  5
276
  8
0
  6
CONTINUOUS
 62
     7
 10
536.7824534833
 20
1141.5606211716
 30
0.0
 40
3.780757880995737
 50
358.0328282403
 51
23.515747177
  0
ARC
  5
277
  8
0
  6
CONTINUOUS
 62
     7
 10
485.8509129781
 20
1141.5606211716
 30
0.0
 40
3.780757880997775
 50
156.484252823
 51
181.9671717597
  0
ARC
  5
278
  8
0
  6
CONTINUOUS
 62
     7
 10
491.7950221224
 20
1136.1806090264
 30
0.0
 40
7.682079868840917
 50
138.5347517314
 51
144.5180275745
  0
POLYLINE
  5
279
  8
0
  6
CONTINUOUS
 62
     7
 66
     1
 10
0.0
 20
0.0
 30
0.0
 70
   128
  0
VERTEX
  5
644
  8
0
  6
CONTINUOUS
 62
     7
 10
485.539518384
 20
1140.6396474979
 30
0.0
  0
VERTEX
  5
645
  8
0
  6
CONTINUOUS
 62
     7
 10
486.397661356
 20
1140.2298208616
 30
0.0
  0
VERTEX
  5
646
  8
0
  6
CONTINUOUS
 62
     7
 10
486.7911153415
 20
1140.0414701841
 30
0.0
  0
VERTEX
  5
647
  8
0
  6
CONTINUOUS
 62
     7
 10
486.9781584421
 20
1139.9518396996
 30
0.0
  0
VERTEX
  5
648
  8
0
  6
CONTINUOUS
 62
     7
 10
487.0677796134
 20
1139.9088647507
 30
0.0
  0
VERTEX
  5
649
  8
0
  6
CONTINUOUS
 62
     7
 10
487.1108067164
 20
1139.8882266424
 30
0.0
  0
VERTEX
  5
64A
  8
0
  6
CONTINUOUS
 62
     7
 10
487.1376511583
 20
1139.8753520391
 30
0.0
  0
VERTEX
  5
64B
  8
0
  6
CONTINUOUS
 62
     7
 10
487.1505909541
 20
1139.8691382549
 30
0.0
  0
SEQEND
  5
97E
  8
0
  6
CONTINUOUS
 62
     7
  0
POLYLINE
  5
27A
  8
0
  6
CONTINUOUS
 62
     7
 66
     1
 10
0.0
 20
0.0
 30
0.0
 70
   128
  0
VERTEX
  5
64C
  8
0
  6
CONTINUOUS
 62
     7
 10
537.0938480773
 20
1140.6396474979
 30
0.0
  0
VERTEX
  5
64D
  8
0
  6
CONTINUOUS
 62
     7
 10
536.2357051054
 20
1140.2298208616
 30
0.0
  0
VERTEX
  5
64E
  8
0
  6
CONTINUOUS
 62
     7
 10
535.8422511199
 20
1140.0414701841
 30
0.0
  0
VERTEX
  5
64F
  8
0
  6
CONTINUOUS
 62
     7
 10
535.6552080193
 20
1139.9518396996
 30
0.0
  0
VERTEX
  5
650
  8
0
  6
CONTINUOUS
 62
     7
 10
535.5655868479
 20
1139.9088647507
 30
0.0
  0
VERTEX
  5
651
  8
0
  6
CONTINUOUS
 62
     7
 10
535.522559745
 20
1139.8882266424
 30
0.0
  0
VERTEX
  5
652
  8
0
  6
CONTINUOUS
 62
     7
 10
535.4957153031
 20
1139.8753520391
 30
0.0
  0
VERTEX
  5
653
  8
0
  6
CONTINUOUS
 62
     7
 10
535.4827755073
 20
1139.8691382549
 30
0.0
  0
SEQEND
  5
97F
  8
0
  6
CONTINUOUS
 62
     7
  0
LINE
  5
27B
  8
0
  6
CONTINUOUS
 62
     7
 10
487.1505909541
 20
1139.8691382549
 30
0.0
 11
487.1505909541
 21
1107.4719723604
 31
0.0
  0
LINE
  5
27C
  8
0
  6
CONTINUOUS
 62
     7
 10
487.1505909541
 20
1107.4719723604
 30
0.0
 11
485.539518384
 21
1107.4719723604
 31
0.0
  0
LINE
  5
27D
  8
0
  6
CONTINUOUS
 62
     7
 10
535.4827755073
 20
1107.4719723604
 30
0.0
 11
535.4827755073
 21
1139.8691382549
 31
0.0
  0
LINE
  5
27E
  8
0
  6
CONTINUOUS
 62
     7
 10
487.1505909541
 20
1107.4719723604
 30
0.0
 11
535.4827755073
 21
1107.4719723604
 31
0.0
  0
LINE
  5
27F
  8
0
  6
CONTINUOUS
 62
     7
 10
537.0938480773
 20
1107.4719723604
 30
0.0
 11
535.4827755073
 21
1107.4719723604
 31
0.0
  0
LINE
  5
280
  8
0
  6
CONTINUOUS
 62
     7
 10
449.816681532
 20
1157.4719842814
 30
0.0
 11
572.8166849294
 21
1157.4719842814
 31
0.0
  0
ARC
  5
281
  8
0
  6
CONTINUOUS
 62
     7
 10
439.055546538
 20
1122.5222938547
 30
0.0
 40
6.561765322399768
 50
21.2386202421
 51
39.3819484486
  0
ARC
  5
282
  8
0
  6
CONTINUOUS
 62
     7
 10
440.0095935352
 20
1136.8124155663
 30
0.0
 40
10.93194233368306
 50
292.1277172223
 51
310.2758116887
  0
ARC
  5
283
  8
0
  6
CONTINUOUS
 62
     7
 10
438.5788887129
 20
1130.7091342831
 30
0.0
 40
8.787396751826885
 50
318.6120635427
 51
345.2509383081
  0
LINE
  5
284
  8
0
  6
CONTINUOUS
 62
     7
 10
445.1716356853
 20
1124.8993125103
 30
0.0
 11
445.1716356853
 21
1107.4719723604
 31
0.0
  0
LINE
  5
285
  8
0
  6
CONTINUOUS
 62
     7
 10
447.0767416933
 20
1107.4719723604
 30
0.0
 11
445.1716356853
 21
1107.4719723604
 31
0.0
  0
ARC
  5
286
  8
0
  6
CONTINUOUS
 62
     7
 10
583.5778199234
 20
1122.5222938547
 30
0.0
 40
6.561765322399918
 50
140.6180515514
 51
158.7613797579
  0
ARC
  5
287
  8
0
  6
CONTINUOUS
 62
     7
 10
584.0544777485
 20
1130.7091342831
 30
0.0
 40
8.787396751827092
 50
194.7490616919
 51
221.3879364573
  0
ARC
  5
288
  8
0
  6
CONTINUOUS
 62
     7
 10
582.6237729261
 20
1136.8124155663
 30
0.0
 40
10.93194233368327
 50
229.7241883113
 51
247.8722827777
  0
LINE
  5
289
  8
0
  6
CONTINUOUS
 62
     7
 10
577.4617307761
 20
1107.4719723604
 30
0.0
 11
577.4617307761
 21
1124.8993125103
 31
0.0
  0
LINE
  5
28A
  8
0
  6
CONTINUOUS
 62
     7
 10
577.4617307761
 20
1107.4719723604
 30
0.0
 11
575.5566247681
 21
1107.4719723604
 31
0.0
  0
POLYLINE
  5
28B
  8
0
  6
CONTINUOUS
 62
     7
 66
     1
 10
0.0
 20
0.0
 30
0.0
 70
   128
  0
VERTEX
  5
654
  8
0
  6
CONTINUOUS
 62
     7
 10
437.9060083011
 20
1128.4719851158
 30
0.0
  0
VERTEX
  5
655
  8
0
  6
CONTINUOUS
 62
     7
 10
437.9105457047
 20
1128.4662630699
 30
0.0
  0
VERTEX
  5
656
  8
0
  6
CONTINUOUS
 62
     7
 10
438.3631014207
 20
1127.7607228897
 30
0.0
  0
VERTEX
  5
657
  8
0
  6
CONTINUOUS
 62
     7
 10
438.5393970588
 20
1127.0894851826
 30
0.0
  0
VERTEX
  5
658
  8
0
  6
CONTINUOUS
 62
     7
 10
438.387949107
 20
1126.6856488131
 30
0.0
  0
SEQEND
  5
980
  8
0
  6
CONTINUOUS
 62
     7
  0
ARC
  5
28C
  8
0
  6
CONTINUOUS
 62
     7
 10
441.2576519826
 20
1049.9801164769
 30
0.0
 40
76.75919414355732
 50
87.8574528932
 51
92.1425471068
  0
POLYLINE
  5
28D
  8
0
  6
CONTINUOUS
 62
     7
 66
     1
 10
0.0
 20
0.0
 30
0.0
 70
   128
  0
VERTEX
  5
659
  8
0
  6
CONTINUOUS
 62
     7
 10
584.2454173544
 20
1126.6856488131
 30
0.0
  0
VERTEX
  5
65A
  8
0
  6
CONTINUOUS
 62
     7
 10
584.0939694026
 20
1127.0894851826
 30
0.0
  0
VERTEX
  5
65B
  8
0
  6
CONTINUOUS
 62
     7
 10
584.2702650407
 20
1127.7607228897
 30
0.0
  0
VERTEX
  5
65C
  8
0
  6
CONTINUOUS
 62
     7
 10
584.7228207567
 20
1128.4662630699
 30
0.0
  0
VERTEX
  5
65D
  8
0
  6
CONTINUOUS
 62
     7
 10
584.7273581603
 20
1128.4719851158
 30
0.0
  0
SEQEND
  5
981
  8
0
  6
CONTINUOUS
 62
     7
  0
ARC
  5
28E
  8
0
  6
CONTINUOUS
 62
     7
 10
581.3757144788
 20
1050.4968774449
 30
0.0
 40
76.2427968872132
 50
87.8429344501
 51
92.1570655499
  0
LINE
  5
28F
  8
0
  6
CONTINUOUS
 62
     7
 10
445.1716356853
 20
1124.8993125103
 30
0.0
 11
443.1404733041
 21
1124.8993125103
 31
0.0
  0
ARC
  5
290
  8
0
  6
CONTINUOUS
 62
     7
 10
445.2301680376
 20
1124.9106122347
 30
0.0
 40
2.089725284081082
 50
121.8522872421
 51
180.3098156873
  0
LINE
  5
291
  8
0
  6
CONTINUOUS
 62
     7
 10
443.1404733041
 20
1107.4719723604
 30
0.0
 11
443.1404733041
 21
1124.8993125103
 31
0.0
  0
LINE
  5
292
  8
0
  6
CONTINUOUS
 62
     7
 10
445.1716356853
 20
1107.4719723604
 30
0.0
 11
443.1404733041
 21
1107.4719723604
 31
0.0
  0
ARC
  5
293
  8
0
  6
CONTINUOUS
 62
     7
 10
577.4031984238
 20
1124.9106122347
 30
0.0
 40
2.089725284080969
 50
359.6901843127
 51
58.1477127579
  0
LINE
  5
294
  8
0
  6
CONTINUOUS
 62
     7
 10
579.4928931573
 20
1124.8993125103
 30
0.0
 11
577.4617307761
 21
1124.8993125103
 31
0.0
  0
LINE
  5
295
  8
0
  6
CONTINUOUS
 62
     7
 10
579.4928931573
 20
1124.8993125103
 30
0.0
 11
579.4928931573
 21
1107.4719723604
 31
0.0
  0
LINE
  5
296
  8
0
  6
CONTINUOUS
 62
     7
 10
579.4928931573
 20
1107.4719723604
 30
0.0
 11
577.4617307761
 21
1107.4719723604
 31
0.0
  0
POLYLINE
  5
297
  8
0
  6
CONTINUOUS
 62
     7
 66
     1
 10
0.0
 20
0.0
 30
0.0
 70
   128
  0
VERTEX
  5
65E
  8
0
  6
CONTINUOUS
 62
     7
 10
443.1404733041
 20
1124.8993125103
 30
0.0
  0
VERTEX
  5
65F
  8
0
  6
CONTINUOUS
 62
     7
 10
441.4656721929
 20
1124.9885704659
 30
0.0
  0
VERTEX
  5
660
  8
0
  6
CONTINUOUS
 62
     7
 10
437.4647253135
 20
1124.8993125103
 30
0.0
  0
SEQEND
  5
982
  8
0
  6
CONTINUOUS
 62
     7
  0
ARC
  5
298
  8
0
  6
CONTINUOUS
 62
     7
 10
439.4697814609
 20
1124.9947896256
 30
0.0
 40
2.007328083273386
 50
122.6116093603
 51
182.7262611313
  0
ARC
  5
299
  8
0
  6
CONTINUOUS
 62
     7
 10
583.1635850005
 20
1124.9947896256
 30
0.0
 40
2.007328083273443
 50
357.2737388687
 51
57.3883906397
  0
POLYLINE
  5
29A
  8
0
  6
CONTINUOUS
 62
     7
 66
     1
 10
0.0
 20
0.0
 30
0.0
 70
   128
  0
VERTEX
  5
661
  8
0
  6
CONTINUOUS
 62
     7
 10
585.1686411479
 20
1124.8993125103
 30
0.0
  0
VERTEX
  5
662
  8
0
  6
CONTINUOUS
 62
     7
 10
583.4938400367
 20
1124.9885704659
 30
0.0
  0
VERTEX
  5
663
  8
0
  6
CONTINUOUS
 62
     7
 10
579.4928931573
 20
1124.8993125103
 30
0.0
  0
SEQEND
  5
983
  8
0
  6
CONTINUOUS
 62
     7
  0
LINE
  5
29B
  8
0
  6
CONTINUOUS
 62
     7
 10
437.4647253135
 20
1124.8993125103
 30
0.0
 11
437.4647253135
 21
1107.4719723604
 31
0.0
  0
POLYLINE
  5
29C
  8
0
  6
CONTINUOUS
 62
     7
 66
     1
 10
0.0
 20
0.0
 30
0.0
 70
   128
  0
VERTEX
  5
664
  8
0
  6
CONTINUOUS
 62
     7
 10
441.6025989631
 20
1121.4719858311
 30
0.0
  0
VERTEX
  5
665
  8
0
  6
CONTINUOUS
 62
     7
 10
441.5148162225
 20
1122.4112060211
 30
0.0
  0
VERTEX
  5
666
  8
0
  6
CONTINUOUS
 62
     7
 10
441.2633144238
 20
1123.2235875271
 30
0.0
  0
VERTEX
  5
667
  8
0
  6
CONTINUOUS
 62
     7
 10
440.8820607641
 20
1123.7993981979
 30
0.0
  0
VERTEX
  5
668
  8
0
  6
CONTINUOUS
 62
     7
 10
440.4225462058
 20
1124.0608837746
 30
0.0
  0
VERTEX
  5
669
  8
0
  6
CONTINUOUS
 62
     7
 10
439.9468415359
 20
1123.9727285049
 30
0.0
  0
VERTEX
  5
66A
  8
0
  6
CONTINUOUS
 62
     7
 10
439.5191782096
 20
1123.5468235157
 30
0.0
  0
VERTEX
  5
66B
  8
0
  6
CONTINUOUS
 62
     7
 10
439.1973205784
 20
1122.8407021902
 30
0.0
  0
VERTEX
  5
66C
  8
0
  6
CONTINUOUS
 62
     7
 10
439.0247353294
 20
1121.9497319601
 30
0.0
  0
VERTEX
  5
66D
  8
0
  6
CONTINUOUS
 62
     7
 10
439.0247353294
 20
1120.9942248009
 30
0.0
  0
VERTEX
  5
66E
  8
0
  6
CONTINUOUS
 62
     7
 10
439.1973205784
 20
1120.1032545708
 30
0.0
  0
VERTEX
  5
66F
  8
0
  6
CONTINUOUS
 62
     7
 10
439.5191782096
 20
1119.3971332453
 30
0.0
  0
VERTEX
  5
670
  8
0
  6
CONTINUOUS
 62
     7
 10
439.9468415359
 20
1118.971228256
 30
0.0
  0
VERTEX
  5
671
  8
0
  6
CONTINUOUS
 62
     7
 10
440.4225462058
 20
1118.8830729864
 30
0.0
  0
VERTEX
  5
672
  8
0
  6
CONTINUOUS
 62
     7
 10
440.8820607641
 20
1119.144558563
 30
0.0
  0
VERTEX
  5
673
  8
0
  6
CONTINUOUS
 62
     7
 10
441.2633144238
 20
1119.7203692339
 30
0.0
  0
VERTEX
  5
674
  8
0
  6
CONTINUOUS
 62
     7
 10
441.5148162225
 20
1120.5327507399
 30
0.0
  0
VERTEX
  5
675
  8
0
  6
CONTINUOUS
 62
     7
 10
441.6025989631
 20
1121.4719858311
 30
0.0
  0
SEQEND
  5
984
  8
0
  6
CONTINUOUS
 62
     7
  0
LINE
  5
29D
  8
0
  6
CONTINUOUS
 62
     7
 10
443.1404733041
 20
1107.4719723604
 30
0.0
 11
437.4647253135
 21
1107.4719723604
 31
0.0
  0
LINE
  5
29E
  8
0
  6
CONTINUOUS
 62
     7
 10
585.1686411479
 20
1107.4719723604
 30
0.0
 11
585.1686411479
 21
1124.8993125103
 31
0.0
  0
POLYLINE
  5
29F
  8
0
  6
CONTINUOUS
 62
     7
 66
     1
 10
0.0
 20
0.0
 30
0.0
 70
   128
  0
VERTEX
  5
676
  8
0
  6
CONTINUOUS
 62
     7
 10
583.6307668069
 20
1121.4719858311
 30
0.0
  0
VERTEX
  5
677
  8
0
  6
CONTINUOUS
 62
     7
 10
583.5429766157
 20
1122.4112060211
 30
0.0
  0
VERTEX
  5
678
  8
0
  6
CONTINUOUS
 62
     7
 10
583.2914748171
 20
1123.2235875271
 30
0.0
  0
VERTEX
  5
679
  8
0
  6
CONTINUOUS
 62
     7
 10
582.9102286079
 20
1123.7993981979
 30
0.0
  0
VERTEX
  5
67A
  8
0
  6
CONTINUOUS
 62
     7
 10
582.4507140496
 20
1124.0608837746
 30
0.0
  0
VERTEX
  5
67B
  8
0
  6
CONTINUOUS
 62
     7
 10
581.9750019291
 20
1123.9727285049
 30
0.0
  0
VERTEX
  5
67C
  8
0
  6
CONTINUOUS
 62
     7
 10
581.5473386028
 20
1123.5468235157
 30
0.0
  0
VERTEX
  5
67D
  8
0
  6
CONTINUOUS
 62
     7
 10
581.2254809716
 20
1122.8407021902
 30
0.0
  0
VERTEX
  5
67E
  8
0
  6
CONTINUOUS
 62
     7
 10
581.0529031733
 20
1121.9497319601
 30
0.0
  0
VERTEX
  5
67F
  8
0
  6
CONTINUOUS
 62
     7
 10
581.0529031733
 20
1120.9942248009
 30
0.0
  0
VERTEX
  5
680
  8
0
  6
CONTINUOUS
 62
     7
 10
581.2254809716
 20
1120.1032545708
 30
0.0
  0
VERTEX
  5
681
  8
0
  6
CONTINUOUS
 62
     7
 10
581.5473386028
 20
1119.3971332453
 30
0.0
  0
VERTEX
  5
682
  8
0
  6
CONTINUOUS
 62
     7
 10
581.9750019291
 20
1118.971228256
 30
0.0
  0
VERTEX
  5
683
  8
0
  6
CONTINUOUS
 62
     7
 10
582.4507140496
 20
1118.8830729864
 30
0.0
  0
VERTEX
  5
684
  8
0
  6
CONTINUOUS
 62
     7
 10
582.9102286079
 20
1119.144558563
 30
0.0
  0
VERTEX
  5
685
  8
0
  6
CONTINUOUS
 62
     7
 10
583.2914748171
 20
1119.7203692339
 30
0.0
  0
VERTEX
  5
686
  8
0
  6
CONTINUOUS
 62
     7
 10
583.5429766157
 20
1120.5327507399
 30
0.0
  0
VERTEX
  5
687
  8
0
  6
CONTINUOUS
 62
     7
 10
583.6307668069
 20
1121.4719858311
 30
0.0
  0
SEQEND
  5
985
  8
0
  6
CONTINUOUS
 62
     7
  0
LINE
  5
2A0
  8
0
  6
CONTINUOUS
 62
     7
 10
585.1686411479
 20
1107.4719723604
 30
0.0
 11
579.4928931573
 21
1107.4719723604
 31
0.0
  0
LINE
  5
2A1
  8
0
  6
CONTINUOUS
 62
     7
 10
437.4647253135
 20
1107.4719723604
 30
0.0
 11
437.1967726329
 21
1107.4719723604
 31
0.0
  0
LINE
  5
2A2
  8
0
  6
CONTINUOUS
 62
     7
 10
585.4365938285
 20
1107.4719723604
 30
0.0
 11
585.1686411479
 21
1107.4719723604
 31
0.0
  0
ARC
  5
2A3
  8
0
  6
CONTINUOUS
 62
     7
 10
601.1051234592
 20
1106.213687305
 30
0.0
 40
6.479565957685798
 50
2.1648678204
 51
12.3032352969
  0
ARC
  5
2A4
  8
0
  6
CONTINUOUS
 62
     7
 10
608.1380371289
 20
1111.2662695393
 30
0.0
 40
4.840084397510243
 50
263.3801042359
 51
263.6248389051
  0
LINE
  5
2A5
  8
0
  6
CONTINUOUS
 62
     7
 10
606.2225514033
 20
1110.1882007263
 30
0.0
 11
606.2367745617
 21
1110.2031912945
 31
0.0
  0
ARC
  5
2A6
  8
0
  6
CONTINUOUS
 62
     7
 10
601.1051234592
 20
1106.213687305
 30
0.0
 40
6.479565957685725
 50
27.6967647031
 51
37.8351321796
  0
POLYLINE
  5
2A7
  8
0
  6
CONTINUOUS
 62
     7
 66
     1
 10
0.0
 20
0.0
 30
0.0
 70
   128
  0
VERTEX
  5
688
  8
0
  6
CONTINUOUS
 62
     7
 10
606.8422608951
 20
1109.2253323935
 30
0.0
  0
VERTEX
  5
689
  8
0
  6
CONTINUOUS
 62
     7
 10
606.8538316467
 20
1109.1935482166
 30
0.0
  0
VERTEX
  5
68A
  8
0
  6
CONTINUOUS
 62
     7
 10
606.8665125349
 20
1109.1586944006
 30
0.0
  0
VERTEX
  5
68B
  8
0
  6
CONTINUOUS
 62
     7
 10
606.8802663067
 20
1109.120919957
 30
0.0
  0
VERTEX
  5
68C
  8
0
  6
CONTINUOUS
 62
     7
 10
606.8950184563
 20
1109.0803887985
 30
0.0
  0
VERTEX
  5
68D
  8
0
  6
CONTINUOUS
 62
     7
 10
606.9107242802
 20
1109.0372350357
 30
0.0
  0
VERTEX
  5
68E
  8
0
  6
CONTINUOUS
 62
     7
 10
606.9273241737
 20
1108.9916225813
 30
0.0
  0
VERTEX
  5
68F
  8
0
  6
CONTINUOUS
 62
     7
 10
606.9447436312
 20
1108.9437600515
 30
0.0
  0
VERTEX
  5
690
  8
0
  6
CONTINUOUS
 62
     7
 10
606.9629304984
 20
1108.8938113592
 30
0.0
  0
SEQEND
  5
986
  8
0
  6
CONTINUOUS
 62
     7
  0
POLYLINE
  5
2A8
  8
0
  6
CONTINUOUS
 62
     7
 66
     1
 10
0.0
 20
0.0
 30
0.0
 70
   128
  0
VERTEX
  5
691
  8
0
  6
CONTINUOUS
 62
     7
 10
606.9629304984
 20
1108.8938113592
 30
0.0
  0
VERTEX
  5
692
  8
0
  6
CONTINUOUS
 62
     7
 10
606.9434174278
 20
1108.8867035053
 30
0.0
  0
VERTEX
  5
693
  8
0
  6
CONTINUOUS
 62
     7
 10
606.9209613779
 20
1108.878537669
 30
0.0
  0
VERTEX
  5
694
  8
0
  6
CONTINUOUS
 62
     7
 10
606.8955772498
 20
1108.8692989491
 30
0.0
  0
VERTEX
  5
695
  8
0
  6
CONTINUOUS
 62
     7
 10
606.8672724941
 20
1108.8589873455
 30
0.0
  0
VERTEX
  5
696
  8
0
  6
CONTINUOUS
 62
     7
 10
606.836062012
 20
1108.8476326607
 30
0.0
  0
VERTEX
  5
697
  8
0
  6
CONTINUOUS
 62
     7
 10
606.8019681552
 20
1108.8352199934
 30
0.0
  0
VERTEX
  5
698
  8
0
  6
CONTINUOUS
 62
     7
 10
606.7649909237
 20
1108.8217642448
 30
0.0
  0
VERTEX
  5
699
  8
0
  6
CONTINUOUS
 62
     7
 10
606.7251675704
 20
1108.807265415
 30
0.0
  0
SEQEND
  5
987
  8
0
  6
CONTINUOUS
 62
     7
  0
ARC
  5
2A9
  8
0
  6
CONTINUOUS
 62
     7
 10
600.1730365047
 20
1105.8744334717
 30
0.0
 40
7.178574002573146
 50
15.8860605997
 51
24.1140038542
  0
POLYLINE
  5
2AA
  8
0
  6
CONTINUOUS
 62
     7
 66
     1
 10
0.0
 20
0.0
 30
0.0
 70
   128
  0
VERTEX
  5
69A
  8
0
  6
CONTINUOUS
 62
     7
 10
607.0774459222
 20
1107.839390292
 30
0.0
  0
VERTEX
  5
69B
  8
0
  6
CONTINUOUS
 62
     7
 10
607.1172767261
 20
1107.8538742207
 30
0.0
  0
VERTEX
  5
69C
  8
0
  6
CONTINUOUS
 62
     7
 10
607.154246507
 20
1107.8673299692
 30
0.0
  0
VERTEX
  5
69D
  8
0
  6
CONTINUOUS
 62
     7
 10
607.1883478144
 20
1107.8797426365
 30
0.0
  0
VERTEX
  5
69E
  8
0
  6
CONTINUOUS
 62
     7
 10
607.2195508459
 20
1107.8911122225
 30
0.0
  0
VERTEX
  5
69F
  8
0
  6
CONTINUOUS
 62
     7
 10
607.2478556016
 20
1107.9014089249
 30
0.0
  0
VERTEX
  5
6A0
  8
0
  6
CONTINUOUS
 62
     7
 10
607.2732397297
 20
1107.9106476448
 30
0.0
  0
VERTEX
  5
6A1
  8
0
  6
CONTINUOUS
 62
     7
 10
607.2956957796
 20
1107.9188134811
 30
0.0
  0
VERTEX
  5
6A2
  8
0
  6
CONTINUOUS
 62
     7
 10
607.3152088502
 20
1107.925921335
 30
0.0
  0
SEQEND
  5
988
  8
0
  6
CONTINUOUS
 62
     7
  0
POLYLINE
  5
2AB
  8
0
  6
CONTINUOUS
 62
     7
 66
     1
 10
0.0
 20
0.0
 30
0.0
 70
   128
  0
VERTEX
  5
6A3
  8
0
  6
CONTINUOUS
 62
     7
 10
607.3152088502
 20
1107.925921335
 30
0.0
  0
VERTEX
  5
6A4
  8
0
  6
CONTINUOUS
 62
     7
 10
607.3333882668
 20
1107.8759726427
 30
0.0
  0
VERTEX
  5
6A5
  8
0
  6
CONTINUOUS
 62
     7
 10
607.3508151749
 20
1107.8280952118
 30
0.0
  0
VERTEX
  5
6A6
  8
0
  6
CONTINUOUS
 62
     7
 10
607.3674076179
 20
1107.7824976585
 30
0.0
  0
VERTEX
  5
6A7
  8
0
  6
CONTINUOUS
 62
     7
 10
607.3831208923
 20
1107.7393438957
 30
0.0
  0
VERTEX
  5
6A8
  8
0
  6
CONTINUOUS
 62
     7
 10
607.3978730419
 20
1107.6987978361
 30
0.0
  0
VERTEX
  5
6A9
  8
0
  6
CONTINUOUS
 62
     7
 10
607.4116193631
 20
1107.6610382937
 30
0.0
  0
VERTEX
  5
6AA
  8
0
  6
CONTINUOUS
 62
     7
 10
607.4243077019
 20
1107.6261844776
 30
0.0
  0
VERTEX
  5
6AB
  8
0
  6
CONTINUOUS
 62
     7
 10
607.4358784535
 20
1107.5943853996
 30
0.0
  0
SEQEND
  5
989
  8
0
  6
CONTINUOUS
 62
     7
  0
POLYLINE
  5
2AC
  8
0
  6
CONTINUOUS
 62
     7
 66
     1
 10
0.0
 20
0.0
 30
0.0
 70
   128
  0
VERTEX
  5
6AC
  8
0
  6
CONTINUOUS
 62
     7
 10
635.4239099601
 20
1021.8645256303
 30
0.0
  0
VERTEX
  5
6AD
  8
0
  6
CONTINUOUS
 62
     7
 10
635.6278099993
 20
1021.3043127499
 30
0.0
  0
VERTEX
  5
6AE
  8
0
  6
CONTINUOUS
 62
     7
 10
636.0174977162
 20
1020.2336568676
 30
0.0
  0
VERTEX
  5
6AF
  8
0
  6
CONTINUOUS
 62
     7
 10
636.3544427732
 20
1019.3079147778
 30
0.0
  0
VERTEX
  5
6B0
  8
0
  6
CONTINUOUS
 62
     7
 10
636.6087012866
 20
1018.6093371652
 30
0.0
  0
VERTEX
  5
6B1
  8
0
  6
CONTINUOUS
 62
     7
 10
636.7576979974
 20
1018.1999985419
 30
0.0
  0
VERTEX
  5
6B2
  8
0
  6
CONTINUOUS
 62
     7
 10
636.7919855693
 20
1018.1057561479
 30
0.0
  0
SEQEND
  5
98A
  8
0
  6
CONTINUOUS
 62
     7
  0
ARC
  5
2AD
  8
0
  6
CONTINUOUS
 62
     7
 10
632.2289565018
 20
1020.7016588135
 30
0.0
 40
6.479565957685807
 50
2.1648678204
 51
12.3032352969
  0
ARC
  5
2AE
  8
0
  6
CONTINUOUS
 62
     7
 10
636.9203938033
 20
1005.2012352569
 30
0.0
 40
15.84587785036749
 50
83.4627707568
 51
83.5374975409
  0
ARC
  5
2AF
  8
0
  6
CONTINUOUS
 62
     7
 10
637.7477982384
 20
1024.309354825
 30
0.0
 40
0.5437713150437721
 50
135.4007531079
 51
137.5787738862
  0
ARC
  5
2B0
  8
0
  6
CONTINUOUS
 62
     7
 10
632.2289565018
 20
1020.7016588135
 30
0.0
 40
6.479565957685746
 50
27.6967647031
 51
37.8351321796
  0
POLYLINE
  5
2B1
  8
0
  6
CONTINUOUS
 62
     7
 66
     1
 10
0.0
 20
0.0
 30
0.0
 70
   128
  0
VERTEX
  5
6B3
  8
0
  6
CONTINUOUS
 62
     7
 10
637.9660927632
 20
1023.7133089743
 30
0.0
  0
VERTEX
  5
6B4
  8
0
  6
CONTINUOUS
 62
     7
 10
637.9776709655
 20
1023.6815173469
 30
0.0
  0
VERTEX
  5
6B5
  8
0
  6
CONTINUOUS
 62
     7
 10
637.9903518537
 20
1023.6466672562
 30
0.0
  0
VERTEX
  5
6B6
  8
0
  6
CONTINUOUS
 62
     7
 10
638.0040907243
 20
1023.6088965378
 30
0.0
  0
VERTEX
  5
6B7
  8
0
  6
CONTINUOUS
 62
     7
 10
638.018857775
 20
1023.5683579288
 30
0.0
  0
VERTEX
  5
6B8
  8
0
  6
CONTINUOUS
 62
     7
 10
638.0345635989
 20
1023.5252004407
 30
0.0
  0
VERTEX
  5
6B9
  8
0
  6
CONTINUOUS
 62
     7
 10
638.0511634925
 20
1023.4795991622
 30
0.0
  0
VERTEX
  5
6BA
  8
0
  6
CONTINUOUS
 62
     7
 10
638.0685829499
 20
1023.4317291818
 30
0.0
  0
VERTEX
  5
6BB
  8
0
  6
CONTINUOUS
 62
     7
 10
638.0867623666
 20
1023.3817767642
 30
0.0
  0
SEQEND
  5
98B
  8
0
  6
CONTINUOUS
 62
     7
  0
POLYLINE
  5
2B2
  8
0
  6
CONTINUOUS
 62
     7
 66
     1
 10
0.0
 20
0.0
 30
0.0
 70
   128
  0
VERTEX
  5
6BC
  8
0
  6
CONTINUOUS
 62
     7
 10
638.0867623666
 20
1023.3817767642
 30
0.0
  0
VERTEX
  5
6BD
  8
0
  6
CONTINUOUS
 62
     7
 10
638.0672567466
 20
1023.3746763609
 30
0.0
  0
VERTEX
  5
6BE
  8
0
  6
CONTINUOUS
 62
     7
 10
638.0448006967
 20
1023.366503074
 30
0.0
  0
VERTEX
  5
6BF
  8
0
  6
CONTINUOUS
 62
     7
 10
638.019409118
 20
1023.357264354
 30
0.0
  0
VERTEX
  5
6C0
  8
0
  6
CONTINUOUS
 62
     7
 10
637.9911118129
 20
1023.3469602011
 30
0.0
  0
VERTEX
  5
6C1
  8
0
  6
CONTINUOUS
 62
     7
 10
637.9598938802
 20
1023.335601791
 30
0.0
  0
VERTEX
  5
6C2
  8
0
  6
CONTINUOUS
 62
     7
 10
637.9258000234
 20
1023.323192849
 30
0.0
  0
VERTEX
  5
6C3
  8
0
  6
CONTINUOUS
 62
     7
 10
637.8888302424
 20
1023.3097333751
 30
0.0
  0
VERTEX
  5
6C4
  8
0
  6
CONTINUOUS
 62
     7
 10
637.8489994386
 20
1023.2952382706
 30
0.0
  0
SEQEND
  5
98C
  8
0
  6
CONTINUOUS
 62
     7
  0
ARC
  5
2B3
  8
0
  6
CONTINUOUS
 62
     7
 10
631.2962001848
 20
1020.362178254
 30
0.0
 40
7.17927706118547
 50
15.8862944086
 51
24.1134865418
  0
POLYLINE
  5
2B4
  8
0
  6
CONTINUOUS
 62
     7
 66
     1
 10
0.0
 20
0.0
 30
0.0
 70
   128
  0
VERTEX
  5
6C5
  8
0
  6
CONTINUOUS
 62
     7
 10
638.2012777904
 20
1022.327355697
 30
0.0
  0
VERTEX
  5
6C6
  8
0
  6
CONTINUOUS
 62
     7
 10
638.2411085942
 20
1022.3418508015
 30
0.0
  0
VERTEX
  5
6C7
  8
0
  6
CONTINUOUS
 62
     7
 10
638.2780783751
 20
1022.3553065501
 30
0.0
  0
VERTEX
  5
6C8
  8
0
  6
CONTINUOUS
 62
     7
 10
638.312172232
 20
1022.3677192174
 30
0.0
  0
VERTEX
  5
6C9
  8
0
  6
CONTINUOUS
 62
     7
 10
638.3433901647
 20
1022.3790776275
 30
0.0
  0
VERTEX
  5
6CA
  8
0
  6
CONTINUOUS
 62
     7
 10
638.3716874698
 20
1022.3893780551
 30
0.0
  0
VERTEX
  5
6CB
  8
0
  6
CONTINUOUS
 62
     7
 10
638.3970790484
 20
1022.3986205004
 30
0.0
  0
VERTEX
  5
6CC
  8
0
  6
CONTINUOUS
 62
     7
 10
638.4195350984
 20
1022.406790062
 30
0.0
  0
VERTEX
  5
6CD
  8
0
  6
CONTINUOUS
 62
     7
 10
638.4390407184
 20
1022.4138941906
 30
0.0
  0
SEQEND
  5
98D
  8
0
  6
CONTINUOUS
 62
     7
  0
POLYLINE
  5
2B5
  8
0
  6
CONTINUOUS
 62
     7
 66
     1
 10
0.0
 20
0.0
 30
0.0
 70
   128
  0
VERTEX
  5
6CE
  8
0
  6
CONTINUOUS
 62
     7
 10
638.4390407184
 20
1022.4138941906
 30
0.0
  0
VERTEX
  5
6CF
  8
0
  6
CONTINUOUS
 62
     7
 10
638.457220135
 20
1022.363941773
 30
0.0
  0
VERTEX
  5
6D0
  8
0
  6
CONTINUOUS
 62
     7
 10
638.4746395925
 20
1022.3160717927
 30
0.0
  0
VERTEX
  5
6D1
  8
0
  6
CONTINUOUS
 62
     7
 10
638.491239486
 20
1022.2704705141
 30
0.0
  0
VERTEX
  5
6D2
  8
0
  6
CONTINUOUS
 62
     7
 10
638.5069453099
 20
1022.227313026
 30
0.0
  0
VERTEX
  5
6D3
  8
0
  6
CONTINUOUS
 62
     7
 10
638.5217123607
 20
1022.1867706917
 30
0.0
  0
VERTEX
  5
6D4
  8
0
  6
CONTINUOUS
 62
     7
 10
638.5354512313
 20
1022.1490036986
 30
0.0
  0
VERTEX
  5
6D5
  8
0
  6
CONTINUOUS
 62
     7
 10
638.5481321195
 20
1022.1141536079
 30
0.0
  0
VERTEX
  5
6D6
  8
0
  6
CONTINUOUS
 62
     7
 10
638.5597103217
 20
1022.0823619805
 30
0.0
  0
SEQEND
  5
98E
  8
0
  6
CONTINUOUS
 62
     7
  0
LINE
  5
2B6
  8
0
  6
CONTINUOUS
 62
     7
 10
638.621490536
 20
1060.971974983
 30
0.0
 11
638.5714971402
 21
1060.971974983
 31
0.0
  0
LINE
  5
2B7
  8
0
  6
CONTINUOUS
 62
     7
 10
638.5714971402
 20
1062.4719780229
 30
0.0
 11
638.621490536
 21
1062.4719780229
 31
0.0
  0
LINE
  5
2B8
  8
0
  6
CONTINUOUS
 62
     7
 10
638.621490536
 20
1062.4719780229
 30
0.0
 11
638.621490536
 21
1060.971974983
 31
0.0
  0
LINE
  5
2B9
  8
0
  6
CONTINUOUS
 62
     7
 10
638.621490536
 20
1079.3905627273
 30
0.0
 11
638.5714971402
 21
1079.3905627273
 31
0.0
  0
LINE
  5
2BA
  8
0
  6
CONTINUOUS
 62
     7
 10
638.621490536
 20
1079.3905627273
 30
0.0
 11
638.621490536
 21
1062.4719780229
 31
0.0
  0
LINE
  5
2BB
  8
0
  6
CONTINUOUS
 62
     7
 10
638.671498833
 20
1077.8905596874
 30
0.0
 11
638.621490536
 21
1077.8905596874
 31
0.0
  0
LINE
  5
2BC
  8
0
  6
CONTINUOUS
 62
     7
 10
638.671498833
 20
1077.8905596874
 30
0.0
 11
638.671498833
 21
1062.4719780229
 31
0.0
  0
LINE
  5
2BD
  8
0
  6
CONTINUOUS
 62
     7
 10
638.671498833
 20
1062.4719780229
 30
0.0
 11
638.621490536
 21
1062.4719780229
 31
0.0
  0
LINE
  5
2BE
  8
0
  6
CONTINUOUS
 62
     7
 10
638.621490536
 20
1079.8905637405
 30
0.0
 11
638.621490536
 21
1079.3905627273
 31
0.0
  0
LINE
  5
2BF
  8
0
  6
CONTINUOUS
 62
     7
 10
593.3166854957
 20
1098.4719839237
 30
0.0
 11
593.3166854957
 21
1065.471976652
 31
0.0
  0
LINE
  5
2C0
  8
0
  6
CONTINUOUS
 62
     7
 10
595.3166820982
 20
1098.4719839237
 30
0.0
 11
595.3166820982
 21
1065.471976652
 31
0.0
  0
LINE
  5
2C1
  8
0
  6
CONTINUOUS
 62
     7
 10
596.3703879097
 20
1111.620381131
 30
0.0
 11
600.4110687354
 21
1113.0910661362
 31
0.0
  0
POLYLINE
  5
2C2
  8
0
  6
CONTINUOUS
 62
     7
 66
     1
 10
0.0
 20
0.0
 30
0.0
 70
   128
  0
VERTEX
  5
6D7
  8
0
  6
CONTINUOUS
 62
     7
 10
602.3605802038
 20
1107.7348139427
 30
0.0
  0
VERTEX
  5
6D8
  8
0
  6
CONTINUOUS
 62
     7
 10
601.9802504161
 20
1108.7797727726
 30
0.0
  0
VERTEX
  5
6D9
  8
0
  6
CONTINUOUS
 62
     7
 10
601.6145312169
 20
1109.7845580719
 30
0.0
  0
VERTEX
  5
6DA
  8
0
  6
CONTINUOUS
 62
     7
 10
601.2774893024
 20
1110.7105907343
 30
0.0
  0
VERTEX
  5
6DB
  8
0
  6
CONTINUOUS
 62
     7
 10
600.9820663312
 20
1111.5222569845
 30
0.0
  0
VERTEX
  5
6DC
  8
0
  6
CONTINUOUS
 62
     7
 10
600.739616988
 20
1112.1883686922
 30
0.0
  0
VERTEX
  5
6DD
  8
0
  6
CONTINUOUS
 62
     7
 10
600.5594619492
 20
1112.6833405636
 30
0.0
  0
VERTEX
  5
6DE
  8
0
  6
CONTINUOUS
 62
     7
 10
600.4485228041
 20
1112.9881438158
 30
0.0
  0
VERTEX
  5
6DF
  8
0
  6
CONTINUOUS
 62
     7
 10
600.4110687354
 20
1113.0910661362
 30
0.0
  0
SEQEND
  5
98F
  8
0
  6
CONTINUOUS
 62
     7
  0
LINE
  5
2C3
  8
0
  6
CONTINUOUS
 62
     7
 10
602.3605802038
 20
1107.7348139427
 30
0.0
 11
598.3198993781
 21
1106.2641289375
 31
0.0
  0
POLYLINE
  5
2C4
  8
0
  6
CONTINUOUS
 62
     7
 66
     1
 10
0.0
 20
0.0
 30
0.0
 70
   128
  0
VERTEX
  5
6E0
  8
0
  6
CONTINUOUS
 62
     7
 10
598.3198993781
 20
1106.2641289375
 30
0.0
  0
VERTEX
  5
6E1
  8
0
  6
CONTINUOUS
 62
     7
 10
597.9395695904
 20
1107.3090728663
 30
0.0
  0
VERTEX
  5
6E2
  8
0
  6
CONTINUOUS
 62
     7
 10
597.5738578418
 20
1108.3138730667
 30
0.0
  0
VERTEX
  5
6E3
  8
0
  6
CONTINUOUS
 62
     7
 10
597.2368084767
 20
1109.2399057291
 30
0.0
  0
VERTEX
  5
6E4
  8
0
  6
CONTINUOUS
 62
     7
 10
596.9413855055
 20
1110.0515719793
 30
0.0
  0
VERTEX
  5
6E5
  8
0
  6
CONTINUOUS
 62
     7
 10
596.6989436129
 20
1110.717683687
 30
0.0
  0
VERTEX
  5
6E6
  8
0
  6
CONTINUOUS
 62
     7
 10
596.518788574
 20
1111.2126555584
 30
0.0
  0
VERTEX
  5
6E7
  8
0
  6
CONTINUOUS
 62
     7
 10
596.4078494289
 20
1111.5174588106
 30
0.0
  0
VERTEX
  5
6E8
  8
0
  6
CONTINUOUS
 62
     7
 10
596.3703879097
 20
1111.620381131
 30
0.0
  0
SEQEND
  5
990
  8
0
  6
CONTINUOUS
 62
     7
  0
LINE
  5
2C5
  8
0
  6
CONTINUOUS
 62
     7
 10
633.8264309743
 20
1021.2830934964
 30
0.0
 11
602.3605802038
 21
1107.7348139427
 31
0.0
  0
LINE
  5
2C6
  8
0
  6
CONTINUOUS
 62
     7
 10
629.7857575992
 20
1019.8124047659
 30
0.0
 11
633.8264309743
 21
1021.2830934964
 31
0.0
  0
LINE
  5
2C7
  8
0
  6
CONTINUOUS
 62
     7
 10
629.7857575992
 20
1019.8124047659
 30
0.0
 11
598.3198993781
 21
1106.2641289375
 31
0.0
  0
ARC
  5
2C8
  8
0
  6
CONTINUOUS
 62
     7
 10
600.9925001979
 20
1111.4935846526
 30
0.0
 40
1.700000000000089
 50
20.0
 51
110.0
  0
POLYLINE
  5
2C9
  8
0
  6
CONTINUOUS
 62
     7
 66
     1
 10
0.0
 20
0.0
 30
0.0
 70
   128
  0
VERTEX
  5
6E9
  8
0
  6
CONTINUOUS
 62
     7
 10
602.5899761298
 20
1112.075015559
 30
0.0
  0
VERTEX
  5
6EA
  8
0
  6
CONTINUOUS
 62
     7
 10
602.6162617782
 20
1112.0027896307
 30
0.0
  0
VERTEX
  5
6EB
  8
0
  6
CONTINUOUS
 62
     7
 10
602.6941128948
 20
1111.7888983629
 30
0.0
  0
VERTEX
  5
6EC
  8
0
  6
CONTINUOUS
 62
     7
 10
602.820541797
 20
1111.4415522955
 30
0.0
  0
VERTEX
  5
6ED
  8
0
  6
CONTINUOUS
 62
     7
 10
602.9906758049
 20
1110.9741028688
 30
0.0
  0
VERTEX
  5
6EE
  8
0
  6
CONTINUOUS
 62
     7
 10
603.1979956606
 20
1110.4045059822
 30
0.0
  0
VERTEX
  5
6EF
  8
0
  6
CONTINUOUS
 62
     7
 10
603.4345143416
 20
1109.7546663425
 30
0.0
  0
VERTEX
  5
6F0
  8
0
  6
CONTINUOUS
 62
     7
 10
603.6911570409
 20
1109.0495433949
 30
0.0
  0
VERTEX
  5
6F1
  8
0
  6
CONTINUOUS
 62
     7
 10
603.9580591896
 20
1108.3162423513
 30
0.0
  0
SEQEND
  5
991
  8
0
  6
CONTINUOUS
 62
     7
  0
POLYLINE
  5
2CA
  8
0
  6
CONTINUOUS
 62
     7
 66
     1
 10
0.0
 20
0.0
 30
0.0
 70
   128
  0
VERTEX
  5
6F2
  8
0
  6
CONTINUOUS
 62
     7
 10
602.3605802038
 20
1107.7348139427
 30
0.0
  0
VERTEX
  5
6F3
  8
0
  6
CONTINUOUS
 62
     7
 10
602.6722305396
 20
1107.8482415817
 30
0.0
  0
VERTEX
  5
6F4
  8
0
  6
CONTINUOUS
 62
     7
 10
602.9719077924
 20
1107.9573180817
 30
0.0
  0
VERTEX
  5
6F5
  8
0
  6
CONTINUOUS
 62
     7
 10
603.2480933645
 20
1108.0578413151
 30
0.0
  0
VERTEX
  5
6F6
  8
0
  6
CONTINUOUS
 62
     7
 10
603.4901701787
 20
1108.1459518812
 30
0.0
  0
VERTEX
  5
6F7
  8
0
  6
CONTINUOUS
 62
     7
 10
603.6888324597
 20
1108.2182523153
 30
0.0
  0
VERTEX
  5
6F8
  8
0
  6
CONTINUOUS
 62
     7
 10
603.8364582637
 20
1108.2719859026
 30
0.0
  0
VERTEX
  5
6F9
  8
0
  6
CONTINUOUS
 62
     7
 10
603.9273627975
 20
1108.3050813816
 30
0.0
  0
VERTEX
  5
6FA
  8
0
  6
CONTINUOUS
 62
     7
 10
603.9580591896
 20
1108.3162423513
 30
0.0
  0
SEQEND
  5
992
  8
0
  6
CONTINUOUS
 62
     7
  0
LINE
  5
2CB
  8
0
  6
CONTINUOUS
 62
     7
 10
603.9580591896
 20
1108.3162423513
 30
0.0
 11
635.4239099601
 21
1021.8645256303
 31
0.0
  0
POLYLINE
  5
2CC
  8
0
  6
CONTINUOUS
 62
     7
 66
     1
 10
0.0
 20
0.0
 30
0.0
 70
   128
  0
VERTEX
  5
6FB
  8
0
  6
CONTINUOUS
 62
     7
 10
633.8264309743
 20
1021.2830934964
 30
0.0
  0
VERTEX
  5
6FC
  8
0
  6
CONTINUOUS
 62
     7
 10
634.1380887607
 20
1021.3965248607
 30
0.0
  0
VERTEX
  5
6FD
  8
0
  6
CONTINUOUS
 62
     7
 10
634.4377585629
 20
1021.5055976353
 30
0.0
  0
VERTEX
  5
6FE
  8
0
  6
CONTINUOUS
 62
     7
 10
634.713944135
 20
1021.6061208687
 30
0.0
  0
VERTEX
  5
6FF
  8
0
  6
CONTINUOUS
 62
     7
 10
634.9560209492
 20
1021.6942277096
 30
0.0
  0
VERTEX
  5
700
  8
0
  6
CONTINUOUS
 62
     7
 10
635.1546906808
 20
1021.7665393196
 30
0.0
  0
VERTEX
  5
701
  8
0
  6
CONTINUOUS
 62
     7
 10
635.3023090342
 20
1021.8202691815
 30
0.0
  0
VERTEX
  5
702
  8
0
  6
CONTINUOUS
 62
     7
 10
635.393213568
 20
1021.8533534847
 30
0.0
  0
VERTEX
  5
703
  8
0
  6
CONTINUOUS
 62
     7
 10
635.4239099601
 20
1021.8645256303
 30
0.0
  0
SEQEND
  5
993
  8
0
  6
CONTINUOUS
 62
     7
  0
POLYLINE
  5
2CD
  8
0
  6
CONTINUOUS
 62
     7
 66
     1
 10
0.0
 20
0.0
 30
0.0
 70
   128
  0
VERTEX
  5
704
  8
0
  6
CONTINUOUS
 62
     7
 10
635.7759498933
 20
1015.9268450282
 30
0.0
  0
VERTEX
  5
705
  8
0
  6
CONTINUOUS
 62
     7
 10
635.738488374
 20
1016.0297636233
 30
0.0
  0
VERTEX
  5
706
  8
0
  6
CONTINUOUS
 62
     7
 10
635.627549229
 20
1016.3345668755
 30
0.0
  0
VERTEX
  5
707
  8
0
  6
CONTINUOUS
 62
     7
 10
635.4473941901
 20
1016.8295350216
 30
0.0
  0
VERTEX
  5
708
  8
0
  6
CONTINUOUS
 62
     7
 10
635.2049522975
 20
1017.4956541799
 30
0.0
  0
VERTEX
  5
709
  8
0
  6
CONTINUOUS
 62
     7
 10
634.9095293262
 20
1018.3073204301
 30
0.0
  0
VERTEX
  5
70A
  8
0
  6
CONTINUOUS
 62
     7
 10
634.5724799612
 20
1019.2333456419
 30
0.0
  0
VERTEX
  5
70B
  8
0
  6
CONTINUOUS
 62
     7
 10
634.2067682126
 20
1020.2381421171
 30
0.0
  0
VERTEX
  5
70C
  8
0
  6
CONTINUOUS
 62
     7
 10
633.8264309743
 20
1021.2830934964
 30
0.0
  0
SEQEND
  5
994
  8
0
  6
CONTINUOUS
 62
     7
  0
LINE
  5
2CE
  8
0
  6
CONTINUOUS
 62
     7
 10
635.7759498933
 20
1015.9268450282
 30
0.0
 11
631.7352690676
 21
1014.456160023
 31
0.0
  0
POLYLINE
  5
2CF
  8
0
  6
CONTINUOUS
 62
     7
 66
     1
 10
0.0
 20
0.0
 30
0.0
 70
   128
  0
VERTEX
  5
70D
  8
0
  6
CONTINUOUS
 62
     7
 10
631.7352690676
 20
1014.456160023
 30
0.0
  0
VERTEX
  5
70E
  8
0
  6
CONTINUOUS
 62
     7
 10
631.6978075483
 20
1014.5590786181
 30
0.0
  0
VERTEX
  5
70F
  8
0
  6
CONTINUOUS
 62
     7
 10
631.5868758538
 20
1014.863878145
 30
0.0
  0
VERTEX
  5
710
  8
0
  6
CONTINUOUS
 62
     7
 10
631.406720815
 20
1015.3588500164
 30
0.0
  0
VERTEX
  5
711
  8
0
  6
CONTINUOUS
 62
     7
 10
631.1642714718
 20
1016.0249654494
 30
0.0
  0
VERTEX
  5
712
  8
0
  6
CONTINUOUS
 62
     7
 10
630.8688485005
 20
1016.8366354249
 30
0.0
  0
VERTEX
  5
713
  8
0
  6
CONTINUOUS
 62
     7
 10
630.5317991355
 20
1017.7626606367
 30
0.0
  0
VERTEX
  5
714
  8
0
  6
CONTINUOUS
 62
     7
 10
630.1660873869
 20
1018.7674533866
 30
0.0
  0
VERTEX
  5
715
  8
0
  6
CONTINUOUS
 62
     7
 10
629.7857575992
 20
1019.8124047659
 30
0.0
  0
SEQEND
  5
995
  8
0
  6
CONTINUOUS
 62
     7
  0
POLYLINE
  5
2D0
  8
0
  6
CONTINUOUS
 62
     7
 66
     1
 10
0.0
 20
0.0
 30
0.0
 70
   128
  0
VERTEX
  5
716
  8
0
  6
CONTINUOUS
 62
     7
 10
635.4239099601
 20
1021.8645256303
 30
0.0
  0
VERTEX
  5
717
  8
0
  6
CONTINUOUS
 62
     7
 10
635.6908121088
 20
1021.1312283121
 30
0.0
  0
VERTEX
  5
718
  8
0
  6
CONTINUOUS
 62
     7
 10
635.947454808
 20
1020.4261090897
 30
0.0
  0
VERTEX
  5
719
  8
0
  6
CONTINUOUS
 62
     7
 10
636.1839734891
 20
1019.7762657247
 30
0.0
  0
VERTEX
  5
71A
  8
0
  6
CONTINUOUS
 62
     7
 10
636.3912933448
 20
1019.2066762887
 30
0.0
  0
VERTEX
  5
71B
  8
0
  6
CONTINUOUS
 62
     7
 10
636.5614348033
 20
1018.7392231367
 30
0.0
  0
VERTEX
  5
71C
  8
0
  6
CONTINUOUS
 62
     7
 10
636.6878562549
 20
1018.3918770693
 30
0.0
  0
VERTEX
  5
71D
  8
0
  6
CONTINUOUS
 62
     7
 10
636.7656999209
 20
1018.1779820762
 30
0.0
  0
VERTEX
  5
71E
  8
0
  6
CONTINUOUS
 62
     7
 10
636.7919855693
 20
1018.1057561479
 30
0.0
  0
SEQEND
  5
996
  8
0
  6
CONTINUOUS
 62
     7
  0
ARC
  5
2D1
  8
0
  6
CONTINUOUS
 62
     7
 10
635.1945145304
 20
1017.524322574
 30
0.0
 40
1.700000000000021
 50
290.0
 51
20.0
  0
POLYLINE
  5
2D2
  8
0
  6
CONTINUOUS
 62
     7
 66
     1
 10
0.0
 20
0.0
 30
0.0
 70
   128
  0
VERTEX
  5
71F
  8
0
  6
CONTINUOUS
 62
     7
 10
608.265642164
 20
1099.4050648354
 30
0.0
  0
VERTEX
  5
720
  8
0
  6
CONTINUOUS
 62
     7
 10
608.0823131779
 20
1099.3383523367
 30
0.0
  0
VERTEX
  5
721
  8
0
  6
CONTINUOUS
 62
     7
 10
607.9060324409
 20
1099.2741879366
 30
0.0
  0
VERTEX
  5
722
  8
0
  6
CONTINUOUS
 62
     7
 10
607.743572531
 20
1099.215060129
 30
0.0
  0
VERTEX
  5
723
  8
0
  6
CONTINUOUS
 62
     7
 10
607.6011770347
 20
1099.1632338903
 30
0.0
  0
VERTEX
  5
724
  8
0
  6
CONTINUOUS
 62
     7
 10
607.484314678
 20
1099.1206910751
 30
0.0
  0
VERTEX
  5
725
  8
0
  6
CONTINUOUS
 62
     7
 10
607.3974781611
 20
1099.0890857122
 30
0.0
  0
VERTEX
  5
726
  8
0
  6
CONTINUOUS
 62
     7
 10
607.3440053442
 20
1099.0696247957
 30
0.0
  0
VERTEX
  5
727
  8
0
  6
CONTINUOUS
 62
     7
 10
607.3259451368
 20
1099.0630533836
 30
0.0
  0
SEQEND
  5
997
  8
0
  6
CONTINUOUS
 62
     7
  0
LINE
  5
2D3
  8
0
  6
CONTINUOUS
 62
     7
 10
608.265642164
 20
1099.4050648354
 30
0.0
 11
633.3538257459
 21
1030.475839629
 31
0.0
  0
POLYLINE
  5
2D4
  8
0
  6
CONTINUOUS
 62
     7
 66
     1
 10
0.0
 20
0.0
 30
0.0
 70
   128
  0
VERTEX
  5
728
  8
0
  6
CONTINUOUS
 62
     7
 10
633.3538257459
 20
1030.475839629
 30
0.0
  0
VERTEX
  5
729
  8
0
  6
CONTINUOUS
 62
     7
 10
633.1705042103
 20
1030.4091196797
 30
0.0
  0
VERTEX
  5
72A
  8
0
  6
CONTINUOUS
 62
     7
 10
632.9942234734
 20
1030.3449552796
 30
0.0
  0
VERTEX
  5
72B
  8
0
  6
CONTINUOUS
 62
     7
 10
632.8317635634
 20
1030.285827472
 30
0.0
  0
VERTEX
  5
72C
  8
0
  6
CONTINUOUS
 62
     7
 10
632.6893606165
 20
1030.2340012334
 30
0.0
  0
VERTEX
  5
72D
  8
0
  6
CONTINUOUS
 62
     7
 10
632.5724982598
 20
1030.1914658688
 30
0.0
  0
VERTEX
  5
72E
  8
0
  6
CONTINUOUS
 62
     7
 10
632.485661743
 20
1030.1598605059
 30
0.0
  0
VERTEX
  5
72F
  8
0
  6
CONTINUOUS
 62
     7
 10
632.432188926
 20
1030.1403921388
 30
0.0
  0
VERTEX
  5
730
  8
0
  6
CONTINUOUS
 62
     7
 10
632.4141361692
 20
1030.1338207267
 30
0.0
  0
SEQEND
  5
998
  8
0
  6
CONTINUOUS
 62
     7
  0
LINE
  5
2D5
  8
0
  6
CONTINUOUS
 62
     7
 10
607.3484309891
 20
1104.4050749681
 30
0.0
 11
636.5714930871
 21
1104.4050749681
 31
0.0
  0
LINE
  5
2D6
  8
0
  6
CONTINUOUS
 62
     7
 10
636.5714930871
 20
1099.4050648354
 30
0.0
 11
636.5714930871
 21
1104.4050749681
 31
0.0
  0
LINE
  5
2D7
  8
0
  6
CONTINUOUS
 62
     7
 10
636.5714930871
 20
1099.4050648354
 30
0.0
 11
608.265642164
 21
1099.4050648354
 31
0.0
  0
LINE
  5
2D8
  8
0
  6
CONTINUOUS
 62
     7
 10
636.5714930871
 20
1031.6469814919
 30
0.0
 11
636.5714930871
 21
1099.4050648354
 31
0.0
  0
LINE
  5
2D9
  8
0
  6
CONTINUOUS
 62
     7
 10
633.3538257459
 20
1030.475839629
 30
0.0
 11
636.5714930871
 21
1031.6469814919
 31
0.0
  0
LINE
  5
2DA
  8
0
  6
CONTINUOUS
 62
     7
 10
638.5714971402
 20
1102.405070915
 30
0.0
 11
638.5714971402
 21
1099.4050648354
 31
0.0
  0
LINE
  5
2DB
  8
0
  6
CONTINUOUS
 62
     7
 10
636.5714930871
 20
1099.4050648354
 30
0.0
 11
638.5714971402
 21
1099.4050648354
 31
0.0
  0
ARC
  5
2DC
  8
0
  6
CONTINUOUS
 62
     7
 10
636.5714952589
 20
1102.4050722852
 30
0.0
 40
2.0
 50
0.0
 51
90.0
  0
LINE
  5
2DD
  8
0
  6
CONTINUOUS
 62
     7
 10
638.5714971402
 20
1099.4050648354
 30
0.0
 11
638.5714971402
 21
1031.6469814919
 31
0.0
  0
LINE
  5
2DE
  8
0
  6
CONTINUOUS
 62
     7
 10
636.5714930871
 20
1031.6469814919
 30
0.0
 11
638.5714971402
 21
1031.6469814919
 31
0.0
  0
POLYLINE
  5
2DF
  8
0
  6
CONTINUOUS
 62
     7
 66
     1
 10
0.0
 20
0.0
 30
0.0
 70
   128
  0
VERTEX
  5
731
  8
0
  6
CONTINUOUS
 62
     7
 10
637.2555308917
 20
1026.5750583551
 30
0.0
  0
VERTEX
  5
732
  8
0
  6
CONTINUOUS
 62
     7
 10
637.2423880675
 20
1026.6725119494
 30
0.0
  0
VERTEX
  5
733
  8
0
  6
CONTINUOUS
 62
     7
 10
637.2034662345
 20
1026.9611399911
 30
0.0
  0
VERTEX
  5
734
  8
0
  6
CONTINUOUS
 62
     7
 10
637.1402555087
 20
1027.4298336647
 30
0.0
  0
VERTEX
  5
735
  8
0
  6
CONTINUOUS
 62
     7
 10
637.0551847795
 20
1028.0605923675
 30
0.0
  0
VERTEX
  5
736
  8
0
  6
CONTINUOUS
 62
     7
 10
636.9515323022
 20
1028.8291719101
 30
0.0
  0
VERTEX
  5
737
  8
0
  6
CONTINUOUS
 62
     7
 10
636.8332617858
 20
1029.7060381911
 30
0.0
  0
VERTEX
  5
738
  8
0
  6
CONTINUOUS
 62
     7
 10
636.7049478868
 20
1030.6574922345
 30
0.0
  0
VERTEX
  5
739
  8
0
  6
CONTINUOUS
 62
     7
 10
636.5714930871
 20
1031.6469814919
 30
0.0
  0
SEQEND
  5
999
  8
0
  6
CONTINUOUS
 62
     7
  0
LINE
  5
2E0
  8
0
  6
CONTINUOUS
 62
     7
 10
637.2555308917
 20
1026.5750583551
 30
0.0
 11
635.8847656229
 21
1026.0761376761
 31
0.0
  0
LINE
  5
2E1
  8
0
  6
CONTINUOUS
 62
     7
 10
638.5714971402
 20
1031.6469814919
 30
0.0
 11
638.5714971402
 21
1028.454444959
 31
0.0
  0
ARC
  5
2E2
  8
0
  6
CONTINUOUS
 62
     7
 10
636.5714952589
 20
1028.4544447426
 30
0.0
 40
2.0
 50
290.0
 51
0.0
  0
POLYLINE
  5
2E3
  8
0
  6
CONTINUOUS
 62
     7
 66
     1
 10
0.0
 20
0.0
 30
0.0
 70
   128
  0
VERTEX
  5
73A
  8
0
  6
CONTINUOUS
 62
     7
 10
598.6326449492
 20
1101.8019911192
 30
0.0
  0
VERTEX
  5
73B
  8
0
  6
CONTINUOUS
 62
     7
 10
598.6457877734
 20
1101.704537525
 30
0.0
  0
VERTEX
  5
73C
  8
0
  6
CONTINUOUS
 62
     7
 10
598.6847096065
 20
1101.4159169338
 30
0.0
  0
VERTEX
  5
73D
  8
0
  6
CONTINUOUS
 62
     7
 10
598.7479277828
 20
1100.9472158096
 30
0.0
  0
VERTEX
  5
73E
  8
0
  6
CONTINUOUS
 62
     7
 10
598.8329910615
 20
1100.3164645575
 30
0.0
  0
VERTEX
  5
73F
  8
0
  6
CONTINUOUS
 62
     7
 10
598.9366509893
 20
1099.5478775642
 30
0.0
  0
VERTEX
  5
740
  8
0
  6
CONTINUOUS
 62
     7
 10
599.0549140552
 20
1098.6710187338
 30
0.0
  0
VERTEX
  5
741
  8
0
  6
CONTINUOUS
 62
     7
 10
599.1832354048
 20
1097.7195497892
 30
0.0
  0
VERTEX
  5
742
  8
0
  6
CONTINUOUS
 62
     7
 10
599.3166827538
 20
1096.7300679825
 30
0.0
  0
SEQEND
  5
99A
  8
0
  6
CONTINUOUS
 62
     7
  0
LINE
  5
2E4
  8
0
  6
CONTINUOUS
 62
     7
 10
599.3166827538
 20
1096.7300679825
 30
0.0
 11
597.3166861513
 21
1096.7300679825
 31
0.0
  0
LINE
  5
2E5
  8
0
  6
CONTINUOUS
 62
     7
 10
597.3166861513
 20
1096.7300679825
 30
0.0
 11
597.3166861513
 21
1099.9226119659
 31
0.0
  0
ARC
  5
2E6
  8
0
  6
CONTINUOUS
 62
     7
 10
599.3166832307
 20
1099.922606102
 30
0.0
 40
2.000000000000155
 50
110.0
 51
180.0
  0
LINE
  5
2E7
  8
0
  6
CONTINUOUS
 62
     7
 10
598.6326449492
 20
1101.8019911192
 30
0.0
 11
599.7905918339
 21
1102.2234555624
 31
0.0
  0
LINE
  5
2E8
  8
0
  6
CONTINUOUS
 62
     7
 10
599.3166827538
 20
1096.7300679825
 30
0.0
 11
599.3166827538
 21
1028.9719771884
 31
0.0
  0
LINE
  5
2E9
  8
0
  6
CONTINUOUS
 62
     7
 10
599.3166827538
 20
1028.9719771884
 30
0.0
 11
597.3166861513
 21
1028.9719771884
 31
0.0
  0
LINE
  5
2EA
  8
0
  6
CONTINUOUS
 62
     7
 10
597.3166861513
 20
1028.9719771884
 30
0.0
 11
597.3166861513
 21
1096.7300679825
 31
0.0
  0
ARC
  5
2EB
  8
0
  6
CONTINUOUS
 62
     7
 10
605.1166832307
 20
1057.4719785593
 30
0.0
 40
0.5
 50
180.0
 51
270.0
  0
LINE
  5
2EC
  8
0
  6
CONTINUOUS
 62
     7
 10
605.1166840771
 20
1056.971981778
 30
0.0
 11
605.5166833976
 21
1056.971981778
 31
0.0
  0
ARC
  5
2ED
  8
0
  6
CONTINUOUS
 62
     7
 10
605.5166832307
 20
1057.4719785593
 30
0.0
 40
0.5
 50
270.0
 51
0.0
  0
LINE
  5
2EE
  8
0
  6
CONTINUOUS
 62
     7
 10
606.0166844109
 20
1057.4719753407
 30
0.0
 11
606.0166844109
 21
1064.471982076
 31
0.0
  0
ARC
  5
2EF
  8
0
  6
CONTINUOUS
 62
     7
 10
605.5166832307
 20
1064.4719785593
 30
0.0
 40
0.5
 50
0.0
 51
90.0
  0
LINE
  5
2F0
  8
0
  6
CONTINUOUS
 62
     7
 10
605.5166833976
 20
1064.9719756387
 30
0.0
 11
605.1166840771
 21
1064.9719756387
 31
0.0
  0
ARC
  5
2F1
  8
0
  6
CONTINUOUS
 62
     7
 10
605.1166832307
 20
1064.4719785593
 30
0.0
 40
0.5
 50
90.0
 51
180.0
  0
LINE
  5
2F2
  8
0
  6
CONTINUOUS
 62
     7
 10
604.6166830638
 20
1064.471982076
 30
0.0
 11
604.6166830638
 21
1057.4719753407
 31
0.0
  0
LINE
  5
2F3
  8
0
  6
CONTINUOUS
 62
     7
 10
597.3166861513
 20
1025.9719785593
 30
0.0
 11
597.3166861513
 21
1028.9719771884
 31
0.0
  0
LINE
  5
2F4
  8
0
  6
CONTINUOUS
 62
     7
 10
599.3166827538
 20
1028.9719771884
 30
0.0
 11
599.3166827538
 21
1023.9719782315
 31
0.0
  0
ARC
  5
2F5
  8
0
  6
CONTINUOUS
 62
     7
 10
599.3166832307
 20
1025.9719785593
 30
0.0
 40
2.000000000000114
 50
180.0
 51
270.0
  0
LINE
  5
2F6
  8
0
  6
CONTINUOUS
 62
     7
 10
628.2717921713
 20
1023.9719782315
 30
0.0
 11
599.3166827538
 21
1023.9719782315
 31
0.0
  0
LINE
  5
2F7
  8
0
  6
CONTINUOUS
 62
     7
 10
604.6166830638
 20
1064.471982076
 30
0.0
 11
605.1166840771
 21
1064.471982076
 31
0.0
  0
LINE
  5
2F8
  8
0
  6
CONTINUOUS
 62
     7
 10
605.1166840771
 20
1064.471982076
 30
0.0
 11
605.1166840771
 21
1057.4719753407
 31
0.0
  0
LINE
  5
2F9
  8
0
  6
CONTINUOUS
 62
     7
 10
604.6166830638
 20
1057.4719753407
 30
0.0
 11
605.1166840771
 21
1057.4719753407
 31
0.0
  0
LINE
  5
2FA
  8
0
  6
CONTINUOUS
 62
     7
 10
605.1166840771
 20
1064.9719756387
 30
0.0
 11
605.1166840771
 21
1064.471982076
 31
0.0
  0
LINE
  5
2FB
  8
0
  6
CONTINUOUS
 62
     7
 10
605.5166833976
 20
1064.471982076
 30
0.0
 11
605.5166833976
 21
1064.9719756387
 31
0.0
  0
LINE
  5
2FC
  8
0
  6
CONTINUOUS
 62
     7
 10
605.5166833976
 20
1064.471982076
 30
0.0
 11
605.1166840771
 21
1064.471982076
 31
0.0
  0
LINE
  5
2FD
  8
0
  6
CONTINUOUS
 62
     7
 10
605.5166833976
 20
1064.471982076
 30
0.0
 11
606.0166844109
 21
1064.471982076
 31
0.0
  0
LINE
  5
2FE
  8
0
  6
CONTINUOUS
 62
     7
 10
605.5166833976
 20
1057.4719753407
 30
0.0
 11
605.5166833976
 21
1064.471982076
 31
0.0
  0
LINE
  5
2FF
  8
0
  6
CONTINUOUS
 62
     7
 10
605.5166833976
 20
1057.4719753407
 30
0.0
 11
606.0166844109
 21
1057.4719753407
 31
0.0
  0
LINE
  5
300
  8
0
  6
CONTINUOUS
 62
     7
 10
605.1166840771
 20
1056.971981778
 30
0.0
 11
605.1166840771
 21
1057.4719753407
 31
0.0
  0
LINE
  5
301
  8
0
  6
CONTINUOUS
 62
     7
 10
605.1166840771
 20
1057.4719753407
 30
0.0
 11
605.5166833976
 21
1057.4719753407
 31
0.0
  0
LINE
  5
302
  8
0
  6
CONTINUOUS
 62
     7
 10
605.5166833976
 20
1057.4719753407
 30
0.0
 11
605.5166833976
 21
1056.971981778
 31
0.0
  0
POLYLINE
  5
303
  8
0
  6
CONTINUOUS
 62
     7
 66
     1
 10
0.0
 20
0.0
 30
0.0
 70
   128
  0
VERTEX
  5
743
  8
0
  6
CONTINUOUS
 62
     7
 10
536.438699899
 20
973.4719783358
 30
0.0
  0
VERTEX
  5
744
  8
0
  6
CONTINUOUS
 62
     7
 10
536.5434029081
 20
977.4704553477
 30
0.0
  0
VERTEX
  5
745
  8
0
  6
CONTINUOUS
 62
     7
 10
536.9622186699
 20
993.4643633954
 30
0.0
  0
VERTEX
  5
746
  8
0
  6
CONTINUOUS
 62
     7
 10
538.6374798545
 20
1057.4399974487
 30
0.0
  0
VERTEX
  5
747
  8
0
  6
CONTINUOUS
 62
     7
 10
539.5082832256
 20
1090.6946655653
 30
0.0
  0
VERTEX
  5
748
  8
0
  6
CONTINUOUS
 62
     7
 10
539.8166832456
 20
1102.4719771288
 30
0.0
  0
SEQEND
  5
99B
  8
0
  6
CONTINUOUS
 62
     7
  0
LINE
  5
304
  8
0
  6
CONTINUOUS
 62
     7
 10
539.8166832456
 20
1102.4719771288
 30
0.0
 11
541.8169126788
 21
1102.4719771288
 31
0.0
  0
POLYLINE
  5
305
  8
0
  6
CONTINUOUS
 62
     7
 66
     1
 10
0.0
 20
0.0
 30
0.0
 70
   128
  0
VERTEX
  5
749
  8
0
  6
CONTINUOUS
 62
     7
 10
541.8169126788
 20
1102.4719771288
 30
0.0
  0
VERTEX
  5
74A
  8
0
  6
CONTINUOUS
 62
     7
 10
541.712207807
 20
1098.4735038422
 30
0.0
  0
VERTEX
  5
74B
  8
0
  6
CONTINUOUS
 62
     7
 10
541.2933920452
 20
1082.4795957945
 30
0.0
  0
VERTEX
  5
74C
  8
0
  6
CONTINUOUS
 62
     7
 10
539.6181327233
 20
1018.5039598785
 30
0.0
  0
VERTEX
  5
74D
  8
0
  6
CONTINUOUS
 62
     7
 10
538.7227200845
 20
984.3095816962
 30
0.0
  0
VERTEX
  5
74E
  8
0
  6
CONTINUOUS
 62
     7
 10
538.4389274695
 20
973.4719783358
 30
0.0
  0
SEQEND
  5
99C
  8
0
  6
CONTINUOUS
 62
     7
  0
LINE
  5
306
  8
0
  6
CONTINUOUS
 62
     7
 10
538.4389274695
 20
973.4719783358
 30
0.0
 11
536.438699899
 21
973.4719783358
 31
0.0
  0
POLYLINE
  5
307
  8
0
  6
CONTINUOUS
 62
     7
 66
     1
 10
0.0
 20
0.0
 30
0.0
 70
   128
  0
VERTEX
  5
74F
  8
0
  6
CONTINUOUS
 62
     7
 10
469.6909190097
 20
973.4719783358
 30
0.0
  0
VERTEX
  5
750
  8
0
  6
CONTINUOUS
 62
     7
 10
469.7258212545
 20
977.4716735176
 30
0.0
  0
VERTEX
  5
751
  8
0
  6
CONTINUOUS
 62
     7
 10
469.8654414096
 20
993.4704561077
 30
0.0
  0
VERTEX
  5
752
  8
0
  6
CONTINUOUS
 62
     7
 10
470.4239183047
 20
1057.4655827425
 30
0.0
  0
VERTEX
  5
753
  8
0
  6
CONTINUOUS
 62
     7
 10
470.6477672735
 20
1083.1161063455
 30
0.0
  0
VERTEX
  5
754
  8
0
  6
CONTINUOUS
 62
     7
 10
470.8166831115
 20
1102.4719771288
 30
0.0
  0
SEQEND
  5
99D
  8
0
  6
CONTINUOUS
 62
     7
  0
LINE
  5
308
  8
0
  6
CONTINUOUS
 62
     7
 10
470.8166831115
 20
1102.4719771288
 30
0.0
 11
472.8166089335
 21
1102.4719771288
 31
0.0
  0
POLYLINE
  5
309
  8
0
  6
CONTINUOUS
 62
     7
 66
     1
 10
0.0
 20
0.0
 30
0.0
 70
   128
  0
VERTEX
  5
755
  8
0
  6
CONTINUOUS
 62
     7
 10
472.8166089335
 20
1102.4719771288
 30
0.0
  0
VERTEX
  5
756
  8
0
  6
CONTINUOUS
 62
     7
 10
472.7817029634
 20
1098.4722819469
 30
0.0
  0
VERTEX
  5
757
  8
0
  6
CONTINUOUS
 62
     7
 10
472.6420828083
 20
1082.4735012196
 30
0.0
  0
VERTEX
  5
758
  8
0
  6
CONTINUOUS
 62
     7
 10
472.0836059132
 20
1018.4783745847
 30
0.0
  0
VERTEX
  5
759
  8
0
  6
CONTINUOUS
 62
     7
 10
471.7407637218
 20
979.192513629
 30
0.0
  0
VERTEX
  5
75A
  8
0
  6
CONTINUOUS
 62
     7
 10
471.6908411065
 20
973.4719783358
 30
0.0
  0
SEQEND
  5
99E
  8
0
  6
CONTINUOUS
 62
     7
  0
LINE
  5
30A
  8
0
  6
CONTINUOUS
 62
     7
 10
471.6908411065
 20
973.4719783358
 30
0.0
 11
469.6909190097
 21
973.4719783358
 31
0.0
  0
POLYLINE
  5
30B
  8
0
  6
CONTINUOUS
 62
     7
 66
     1
 10
0.0
 20
0.0
 30
0.0
 70
   128
  0
VERTEX
  5
75B
  8
0
  6
CONTINUOUS
 62
     7
 10
550.9425253549
 20
973.4719783358
 30
0.0
  0
VERTEX
  5
75C
  8
0
  6
CONTINUOUS
 62
     7
 10
550.9076193848
 20
977.4716735176
 30
0.0
  0
VERTEX
  5
75D
  8
0
  6
CONTINUOUS
 62
     7
 10
550.768002955
 20
993.4704561077
 30
0.0
  0
VERTEX
  5
75E
  8
0
  6
CONTINUOUS
 62
     7
 10
550.2095260599
 20
1057.4655827425
 30
0.0
  0
VERTEX
  5
75F
  8
0
  6
CONTINUOUS
 62
     7
 10
549.9856770912
 20
1083.1161063455
 30
0.0
  0
VERTEX
  5
760
  8
0
  6
CONTINUOUS
 62
     7
 10
549.8167575279
 20
1102.4719771288
 30
0.0
  0
SEQEND
  5
99F
  8
0
  6
CONTINUOUS
 62
     7
  0
LINE
  5
30C
  8
0
  6
CONTINUOUS
 62
     7
 10
549.8167575279
 20
1102.4719771288
 30
0.0
 11
551.8166833499
 21
1102.4719771288
 31
0.0
  0
POLYLINE
  5
30D
  8
0
  6
CONTINUOUS
 62
     7
 66
     1
 10
0.0
 20
0.0
 30
0.0
 70
   128
  0
VERTEX
  5
761
  8
0
  6
CONTINUOUS
 62
     7
 10
551.8166833499
 20
1102.4719771288
 30
0.0
  0
VERTEX
  5
762
  8
0
  6
CONTINUOUS
 62
     7
 10
551.85158932
 20
1098.4722819469
 30
0.0
  0
VERTEX
  5
763
  8
0
  6
CONTINUOUS
 62
     7
 10
551.9912057498
 20
1082.4735012196
 30
0.0
  0
VERTEX
  5
764
  8
0
  6
CONTINUOUS
 62
     7
 10
552.5496826449
 20
1018.4783745847
 30
0.0
  0
VERTEX
  5
765
  8
0
  6
CONTINUOUS
 62
     7
 10
552.8925285616
 20
979.192513629
 30
0.0
  0
VERTEX
  5
766
  8
0
  6
CONTINUOUS
 62
     7
 10
552.9424474516
 20
973.4719783358
 30
0.0
  0
SEQEND
  5
9A0
  8
0
  6
CONTINUOUS
 62
     7
  0
LINE
  5
30E
  8
0
  6
CONTINUOUS
 62
     7
 10
552.9424474516
 20
973.4719783358
 30
0.0
 11
550.9425253549
 21
973.4719783358
 31
0.0
  0
POLYLINE
  5
30F
  8
0
  6
CONTINUOUS
 62
     7
 66
     1
 10
0.0
 20
0.0
 30
0.0
 70
   128
  0
VERTEX
  5
767
  8
0
  6
CONTINUOUS
 62
     7
 10
484.1944389918
 20
973.4719783358
 30
0.0
  0
VERTEX
  5
768
  8
0
  6
CONTINUOUS
 62
     7
 10
484.0897341201
 20
977.4704553477
 30
0.0
  0
VERTEX
  5
769
  8
0
  6
CONTINUOUS
 62
     7
 10
483.6709202209
 20
993.4643633954
 30
0.0
  0
VERTEX
  5
76A
  8
0
  6
CONTINUOUS
 62
     7
 10
481.9956590363
 20
1057.4399974487
 30
0.0
  0
VERTEX
  5
76B
  8
0
  6
CONTINUOUS
 62
     7
 10
481.9498416909
 20
1059.189676895
 30
0.0
  0
VERTEX
  5
76C
  8
0
  6
CONTINUOUS
 62
     7
 10
480.8164537826
 20
1102.4719771288
 30
0.0
  0
SEQEND
  5
9A1
  8
0
  6
CONTINUOUS
 62
     7
  0
LINE
  5
310
  8
0
  6
CONTINUOUS
 62
     7
 10
480.8164537826
 20
1102.4719771288
 30
0.0
 11
482.8166832158
 21
1102.4719771288
 31
0.0
  0
POLYLINE
  5
311
  8
0
  6
CONTINUOUS
 62
     7
 66
     1
 10
0.0
 20
0.0
 30
0.0
 70
   128
  0
VERTEX
  5
76D
  8
0
  6
CONTINUOUS
 62
     7
 10
482.8166832158
 20
1102.4719771288
 30
0.0
  0
VERTEX
  5
76E
  8
0
  6
CONTINUOUS
 62
     7
 10
482.9213862249
 20
1098.4735038422
 30
0.0
  0
VERTEX
  5
76F
  8
0
  6
CONTINUOUS
 62
     7
 10
483.3402019867
 20
1082.4795957945
 30
0.0
  0
VERTEX
  5
770
  8
0
  6
CONTINUOUS
 62
     7
 10
485.0154631713
 20
1018.5039598785
 30
0.0
  0
VERTEX
  5
771
  8
0
  6
CONTINUOUS
 62
     7
 10
485.6200833747
 20
995.4144727729
 30
0.0
  0
VERTEX
  5
772
  8
0
  6
CONTINUOUS
 62
     7
 10
486.1946665624
 20
973.4719783358
 30
0.0
  0
SEQEND
  5
9A2
  8
0
  6
CONTINUOUS
 62
     7
  0
LINE
  5
312
  8
0
  6
CONTINUOUS
 62
     7
 10
486.1946665624
 20
973.4719783358
 30
0.0
 11
484.1944389918
 21
973.4719783358
 31
0.0
  0
LINE
  5
313
  8
0
  6
CONTINUOUS
 62
     7
 10
480.8164537826
 20
1102.4719771288
 30
0.0
 11
472.8166089335
 21
1102.4719771288
 31
0.0
  0
LINE
  5
314
  8
0
  6
CONTINUOUS
 62
     7
 10
471.6908411065
 20
973.4719783358
 30
0.0
 11
484.1944389918
 21
973.4719783358
 31
0.0
  0
LINE
  5
315
  8
0
  6
CONTINUOUS
 62
     7
 10
541.8169126788
 20
1102.4719771288
 30
0.0
 11
549.8167575279
 21
1102.4719771288
 31
0.0
  0
LINE
  5
316
  8
0
  6
CONTINUOUS
 62
     7
 10
550.9425253549
 20
973.4719783358
 30
0.0
 11
538.4389274695
 21
973.4719783358
 31
0.0
  0
LINE
  5
317
  8
0
  6
CONTINUOUS
 62
     7
 10
466.4556496718
 20
974.4719784997
 30
0.0
 11
466.4556496718
 21
962.4719785118
 31
0.0
  0
LINE
  5
318
  8
0
  6
CONTINUOUS
 62
     7
 10
466.4556496718
 20
974.4719784997
 30
0.0
 11
468.8626901188
 21
974.4719784997
 31
0.0
  0
LINE
  5
319
  8
0
  6
CONTINUOUS
 62
     7
 10
468.854196457
 20
973.4719783358
 30
0.0
 11
468.8626901188
 21
974.4719784997
 31
0.0
  0
LINE
  5
31A
  8
0
  6
CONTINUOUS
 62
     7
 10
553.7706763425
 20
974.4719784997
 30
0.0
 11
553.7791700044
 21
973.4719783358
 31
0.0
  0
LINE
  5
31B
  8
0
  6
CONTINUOUS
 62
     7
 10
553.7706763425
 20
974.4719784997
 30
0.0
 11
556.1777167895
 21
974.4719784997
 31
0.0
  0
LINE
  5
31C
  8
0
  6
CONTINUOUS
 62
     7
 10
556.1777167895
 20
962.4719785118
 30
0.0
 11
556.1777167895
 21
974.4719784997
 31
0.0
  0
LINE
  5
31D
  8
0
  6
CONTINUOUS
 62
     7
 10
583.520818589
 20
973.4719783358
 30
0.0
 11
583.520818589
 21
961.9719785463
 31
0.0
  0
LINE
  5
31E
  8
0
  6
CONTINUOUS
 62
     7
 10
438.3166843036
 20
961.9719785463
 30
0.0
 11
453.6623545864
 21
961.9719785463
 31
0.0
  0
LINE
  5
31F
  8
0
  6
CONTINUOUS
 62
     7
 10
458.6623535433
 20
961.9719785463
 30
0.0
 11
486.3166828582
 21
961.9719785463
 31
0.0
  0
LINE
  5
320
  8
0
  6
CONTINUOUS
 62
     7
 10
536.3166836032
 20
961.9719785463
 30
0.0
 11
563.971012918
 21
961.9719785463
 31
0.0
  0
LINE
  5
321
  8
0
  6
CONTINUOUS
 62
     7
 10
568.971011875
 20
961.9719785463
 30
0.0
 11
583.520818589
 21
961.9719785463
 31
0.0
  0
LINE
  5
322
  8
0
  6
CONTINUOUS
 62
     7
 10
485.5554961541
 20
1102.4719771288
 30
0.0
 11
537.0778703073
 21
1102.4719771288
 31
0.0
  0
ARC
  5
323
  8
0
  6
CONTINUOUS
 62
     7
 10
486.2618993935
 20
974.6911639766
 30
0.0
 40
0.2622967989876009
 50
249.2960014615
 51
282.0555883807
  0
LINE
  5
324
  8
0
  6
CONTINUOUS
 62
     7
 10
486.3166828582
 20
973.4719783358
 30
0.0
 11
486.1946665624
 21
973.4719783358
 31
0.0
  0
ARC
  5
325
  8
0
  6
CONTINUOUS
 62
     7
 10
536.3714670679
 20
974.6911639766
 30
0.0
 40
0.2622967989921018
 50
257.9444116196
 51
290.7039985382
  0
LINE
  5
326
  8
0
  6
CONTINUOUS
 62
     7
 10
536.438699899
 20
973.4719783358
 30
0.0
 11
536.3166836032
 21
973.4719783358
 31
0.0
  0
LINE
  5
327
  8
0
  6
CONTINUOUS
 62
     7
 10
537.0778703073
 20
1102.4719771288
 30
0.0
 11
539.8166832456
 21
1102.4719771288
 31
0.0
  0
LINE
  5
328
  8
0
  6
CONTINUOUS
 62
     7
 10
482.8166832158
 20
1102.4719771288
 30
0.0
 11
485.5554961541
 21
1102.4719771288
 31
0.0
  0
LINE
  5
329
  8
0
  6
CONTINUOUS
 62
     7
 10
454.6373748162
 20
1102.9719855927
 30
0.0
 11
567.9959916451
 21
1102.9719855927
 31
0.0
  0
ARC
  5
32A
  8
0
  6
CONTINUOUS
 62
     7
 10
568.4572980816
 20
1102.933888331
 30
0.0
 40
0.4628769055070022
 50
175.2789083236
 51
266.2982910781
  0
ARC
  5
32B
  8
0
  6
CONTINUOUS
 62
     7
 10
454.1651507225
 20
1102.9433084098
 30
0.0
 40
0.4730940451373249
 50
274.9476154132
 51
3.4751851851
  0
LINE
  5
32C
  8
0
  6
CONTINUOUS
 62
     7
 10
568.0177212635
 20
1107.4719723604
 30
0.0
 11
567.9959916451
 21
1102.9719855927
 31
0.0
  0
LINE
  5
32D
  8
0
  6
CONTINUOUS
 62
     7
 10
454.6373748162
 20
1102.9719855927
 30
0.0
 11
454.6156451979
 21
1107.4719723604
 31
0.0
  0
POLYLINE
  5
32E
  8
0
  6
CONTINUOUS
 62
     7
 66
     1
 10
0.0
 20
0.0
 30
0.0
 70
   128
  0
VERTEX
  5
773
  8
0
  6
CONTINUOUS
 62
     7
 10
556.6955544928
 20
985.7677683524
 30
0.0
  0
VERTEX
  5
774
  8
0
  6
CONTINUOUS
 62
     7
 10
560.3604243079
 20
980.6205869011
 30
0.0
  0
VERTEX
  5
775
  8
0
  6
CONTINUOUS
 62
     7
 10
564.7341721633
 20
974.4719784997
 30
0.0
  0
SEQEND
  5
9A3
  8
0
  6
CONTINUOUS
 62
     7
  0
LINE
  5
32F
  8
0
  6
CONTINUOUS
 62
     7
 10
564.7341721633
 20
974.4719784997
 30
0.0
 11
564.712096093
 21
974.4714066676
 31
0.0
  0
ARC
  5
330
  8
0
  6
CONTINUOUS
 62
     7
 10
564.9671066043
 20
971.2573195897
 30
0.0
 40
3.224187665950063
 50
94.5364303434
 51
119.7066444291
  0
POLYLINE
  5
331
  8
0
  6
CONTINUOUS
 62
     7
 66
     1
 10
0.0
 20
0.0
 30
0.0
 70
   128
  0
VERTEX
  5
776
  8
0
  6
CONTINUOUS
 62
     7
 10
563.3693301061
 20
974.0577653341
 30
0.0
  0
VERTEX
  5
777
  8
0
  6
CONTINUOUS
 62
     7
 10
559.207864193
 20
979.9134783737
 30
0.0
  0
VERTEX
  5
778
  8
0
  6
CONTINUOUS
 62
     7
 10
555.9918024519
 20
984.4356213055
 30
0.0
  0
SEQEND
  5
9A4
  8
0
  6
CONTINUOUS
 62
     7
  0
POLYLINE
  5
332
  8
0
  6
CONTINUOUS
 62
     7
 66
     1
 10
0.0
 20
0.0
 30
0.0
 70
   128
  0
VERTEX
  5
779
  8
0
  6
CONTINUOUS
 62
     7
 10
555.9918024519
 20
984.4356213055
 30
0.0
  0
VERTEX
  5
77A
  8
0
  6
CONTINUOUS
 62
     7
 10
556.0642481723
 20
985.0711614184
 30
0.0
  0
VERTEX
  5
77B
  8
0
  6
CONTINUOUS
 62
     7
 10
556.2051274755
 20
985.4214094869
 30
0.0
  0
VERTEX
  5
77C
  8
0
  6
CONTINUOUS
 62
     7
 10
556.3749895373
 20
985.6357943557
 30
0.0
  0
VERTEX
  5
77D
  8
0
  6
CONTINUOUS
 62
     7
 10
556.5506965795
 20
985.7425052963
 30
0.0
  0
VERTEX
  5
77E
  8
0
  6
CONTINUOUS
 62
     7
 10
556.6955544928
 20
985.7677683524
 30
0.0
  0
SEQEND
  5
9A5
  8
0
  6
CONTINUOUS
 62
     7
  0
LINE
  5
333
  8
0
  6
CONTINUOUS
 62
     7
 10
457.9212703684
 20
974.4714066676
 30
0.0
 11
457.8991942981
 21
974.4719784997
 31
0.0
  0
POLYLINE
  5
334
  8
0
  6
CONTINUOUS
 62
     7
 66
     1
 10
0.0
 20
0.0
 30
0.0
 70
   128
  0
VERTEX
  5
77F
  8
0
  6
CONTINUOUS
 62
     7
 10
457.8991942981
 20
974.4719784997
 30
0.0
  0
VERTEX
  5
780
  8
0
  6
CONTINUOUS
 62
     7
 10
462.2729421535
 20
980.6205869011
 30
0.0
  0
VERTEX
  5
781
  8
0
  6
CONTINUOUS
 62
     7
 10
465.9378119686
 20
985.7677683524
 30
0.0
  0
SEQEND
  5
9A6
  8
0
  6
CONTINUOUS
 62
     7
  0
POLYLINE
  5
335
  8
0
  6
CONTINUOUS
 62
     7
 66
     1
 10
0.0
 20
0.0
 30
0.0
 70
   128
  0
VERTEX
  5
782
  8
0
  6
CONTINUOUS
 62
     7
 10
465.9378119686
 20
985.7677683524
 30
0.0
  0
VERTEX
  5
783
  8
0
  6
CONTINUOUS
 62
     7
 10
466.1312402168
 20
985.7220869802
 30
0.0
  0
VERTEX
  5
784
  8
0
  6
CONTINUOUS
 62
     7
 10
466.2998170534
 20
985.5957530729
 30
0.0
  0
VERTEX
  5
785
  8
0
  6
CONTINUOUS
 62
     7
 10
466.4699585119
 20
985.3423811785
 30
0.0
  0
VERTEX
  5
786
  8
0
  6
CONTINUOUS
 62
     7
 10
466.6060955205
 20
984.9047266237
 30
0.0
  0
VERTEX
  5
787
  8
0
  6
CONTINUOUS
 62
     7
 10
466.6415640095
 20
984.4356213055
 30
0.0
  0
SEQEND
  5
9A7
  8
0
  6
CONTINUOUS
 62
     7
  0
POLYLINE
  5
336
  8
0
  6
CONTINUOUS
 62
     7
 66
     1
 10
0.0
 20
0.0
 30
0.0
 70
   128
  0
VERTEX
  5
788
  8
0
  6
CONTINUOUS
 62
     7
 10
466.6415640095
 20
984.4356213055
 30
0.0
  0
VERTEX
  5
789
  8
0
  6
CONTINUOUS
 62
     7
 10
463.4255022684
 20
979.9134783737
 30
0.0
  0
VERTEX
  5
78A
  8
0
  6
CONTINUOUS
 62
     7
 10
459.2640363553
 20
974.0577653341
 30
0.0
  0
SEQEND
  5
9A8
  8
0
  6
CONTINUOUS
 62
     7
  0
ARC
  5
337
  8
0
  6
CONTINUOUS
 62
     7
 10
457.6662598571
 20
971.2573195897
 30
0.0
 40
3.224187665950072
 50
60.2933555709
 51
85.4635696566
  0
LINE
  5
338
  8
0
  6
CONTINUOUS
 62
     7
 10
457.9212703684
 20
962.4719785118
 30
0.0
 11
457.9212703684
 21
974.4714066676
 31
0.0
  0
LINE
  5
339
  8
0
  6
CONTINUOUS
 62
     7
 10
459.2640363553
 20
974.0577653341
 30
0.0
 11
459.2640363553
 21
962.4719785118
 31
0.0
  0
LINE
  5
33A
  8
0
  6
CONTINUOUS
 62
     7
 10
459.2640363553
 20
962.4719785118
 30
0.0
 11
457.9212703684
 21
962.4719785118
 31
0.0
  0
LINE
  5
33B
  8
0
  6
CONTINUOUS
 62
     7
 10
563.3693301061
 20
962.4719785118
 30
0.0
 11
563.3693301061
 21
974.0577653341
 31
0.0
  0
LINE
  5
33C
  8
0
  6
CONTINUOUS
 62
     7
 10
564.712096093
 20
974.4714066676
 30
0.0
 11
564.712096093
 21
962.4719785118
 31
0.0
  0
LINE
  5
33D
  8
0
  6
CONTINUOUS
 62
     7
 10
564.712096093
 20
962.4719785118
 30
0.0
 11
563.3693301061
 21
962.4719785118
 31
0.0
  0
LINE
  5
33E
  8
0
  6
CONTINUOUS
 62
     7
 10
447.1380748728
 20
974.4719784997
 30
0.0
 11
457.1216107288
 21
974.4719784997
 31
0.0
  0
LINE
  5
33F
  8
0
  6
CONTINUOUS
 62
     7
 10
457.1216107288
 20
974.4719784997
 30
0.0
 11
457.8991942981
 21
974.4719784997
 31
0.0
  0
LINE
  5
340
  8
0
  6
CONTINUOUS
 62
     7
 10
446.4712553599
 20
974.4714066676
 30
0.0
 11
446.4712553599
 21
962.4719785118
 31
0.0
  0
LINE
  5
341
  8
0
  6
CONTINUOUS
 62
     7
 10
446.4894347766
 20
974.4719784997
 30
0.0
 11
446.4712553599
 21
974.4714066676
 31
0.0
  0
LINE
  5
342
  8
0
  6
CONTINUOUS
 62
     7
 10
446.4894347766
 20
974.4719784997
 30
0.0
 11
447.1380748728
 21
974.4719784997
 31
0.0
  0
LINE
  5
343
  8
0
  6
CONTINUOUS
 62
     7
 10
457.9212703684
 20
962.4719785118
 30
0.0
 11
446.4712553599
 21
962.4719785118
 31
0.0
  0
LINE
  5
344
  8
0
  6
CONTINUOUS
 62
     7
 10
565.5117557326
 20
974.4719784997
 30
0.0
 11
564.7341721633
 21
974.4719784997
 31
0.0
  0
LINE
  5
345
  8
0
  6
CONTINUOUS
 62
     7
 10
575.4952915886
 20
974.4719784997
 30
0.0
 11
565.5117557326
 21
974.4719784997
 31
0.0
  0
LINE
  5
346
  8
0
  6
CONTINUOUS
 62
     7
 10
576.1439316848
 20
974.4719784997
 30
0.0
 11
575.4952915886
 21
974.4719784997
 31
0.0
  0
LINE
  5
347
  8
0
  6
CONTINUOUS
 62
     7
 10
576.1621111014
 20
974.4714066676
 30
0.0
 11
576.1439316848
 21
974.4719784997
 31
0.0
  0
LINE
  5
348
  8
0
  6
CONTINUOUS
 62
     7
 10
576.1621111014
 20
962.4719785118
 30
0.0
 11
576.1621111014
 21
974.4714066676
 31
0.0
  0
LINE
  5
349
  8
0
  6
CONTINUOUS
 62
     7
 10
576.1621111014
 20
962.4719785118
 30
0.0
 11
564.712096093
 21
962.4719785118
 31
0.0
  0
LINE
  5
34A
  8
0
  6
CONTINUOUS
 62
     7
 10
557.4843996146
 20
985.7677683524
 30
0.0
 11
556.6955544928
 21
985.7677683524
 31
0.0
  0
POLYLINE
  5
34B
  8
0
  6
CONTINUOUS
 62
     7
 66
     1
 10
0.0
 20
0.0
 30
0.0
 70
   128
  0
VERTEX
  5
78B
  8
0
  6
CONTINUOUS
 62
     7
 10
565.5117557326
 20
974.4719784997
 30
0.0
  0
VERTEX
  5
78C
  8
0
  6
CONTINUOUS
 62
     7
 10
564.5092018822
 20
975.8835971646
 30
0.0
  0
VERTEX
  5
78D
  8
0
  6
CONTINUOUS
 62
     7
 10
560.4980216303
 20
981.5290957979
 30
0.0
  0
VERTEX
  5
78E
  8
0
  6
CONTINUOUS
 62
     7
 10
557.4843996146
 20
985.7677683524
 30
0.0
  0
SEQEND
  5
9A9
  8
0
  6
CONTINUOUS
 62
     7
  0
POLYLINE
  5
34C
  8
0
  6
CONTINUOUS
 62
     7
 66
     1
 10
0.0
 20
0.0
 30
0.0
 70
   128
  0
VERTEX
  5
78F
  8
0
  6
CONTINUOUS
 62
     7
 10
465.1489668468
 20
985.7677683524
 30
0.0
  0
VERTEX
  5
790
  8
0
  6
CONTINUOUS
 62
     7
 10
461.102895526
 20
980.0763648294
 30
0.0
  0
VERTEX
  5
791
  8
0
  6
CONTINUOUS
 62
     7
 10
457.1216107288
 20
974.4719784997
 30
0.0
  0
SEQEND
  5
9AA
  8
0
  6
CONTINUOUS
 62
     7
  0
LINE
  5
34D
  8
0
  6
CONTINUOUS
 62
     7
 10
465.9378119686
 20
985.7677683524
 30
0.0
 11
465.1489668468
 21
985.7677683524
 31
0.0
  0
LINE
  5
34E
  8
0
  6
CONTINUOUS
 62
     7
 10
556.1777167895
 20
974.4719784997
 30
0.0
 11
555.9918024519
 21
984.4356213055
 31
0.0
  0
LINE
  5
34F
  8
0
  6
CONTINUOUS
 62
     7
 10
563.3693301061
 20
962.4719785118
 30
0.0
 11
556.1777167895
 21
962.4719785118
 31
0.0
  0
LINE
  5
350
  8
0
  6
CONTINUOUS
 62
     7
 10
466.6415640095
 20
984.4356213055
 30
0.0
 11
466.4556496718
 21
974.4719784997
 31
0.0
  0
LINE
  5
351
  8
0
  6
CONTINUOUS
 62
     7
 10
466.4556496718
 20
962.4719785118
 30
0.0
 11
459.2640363553
 21
962.4719785118
 31
0.0
  0
ARC
  5
352
  8
0
  6
CONTINUOUS
 62
     7
 10
557.4369008087
 20
985.1592551311
 30
0.0
 40
0.6103642168117577
 50
25.6258384569
 51
85.5367050685
  0
ARC
  5
353
  8
0
  6
CONTINUOUS
 62
     7
 10
465.1964555055
 20
985.1521154113
 30
0.0
 40
0.6174817540869543
 50
94.4108009301
 51
153.0173252096
  0
ARC
  5
354
  8
0
  6
CONTINUOUS
 62
     7
 10
469.1852296311
 20
983.6823481591
 30
0.0
 40
9.21601350668396
 50
267.9947160694
 51
273.2002521535
  0
POLYLINE
  5
355
  8
0
  6
CONTINUOUS
 62
     7
 66
     1
 10
0.0
 20
0.0
 30
0.0
 70
   128
  0
VERTEX
  5
792
  8
0
  6
CONTINUOUS
 62
     7
 10
468.8627459982
 20
974.4719784997
 30
0.0
  0
VERTEX
  5
793
  8
0
  6
CONTINUOUS
 62
     7
 10
468.8983374217
 20
978.4704871766
 30
0.0
  0
VERTEX
  5
794
  8
0
  6
CONTINUOUS
 62
     7
 10
469.0407105663
 20
994.4645162962
 30
0.0
  0
VERTEX
  5
795
  8
0
  6
CONTINUOUS
 62
     7
 10
469.6105235198
 20
1058.4405657194
 30
0.0
  0
VERTEX
  5
796
  8
0
  6
CONTINUOUS
 62
     7
 10
470.0030089298
 20
1102.4719771288
 30
0.0
  0
SEQEND
  5
9AB
  8
0
  6
CONTINUOUS
 62
     7
  0
LINE
  5
356
  8
0
  6
CONTINUOUS
 62
     7
 10
470.0030089298
 20
1102.4719771288
 30
0.0
 11
470.8166831115
 21
1102.4719771288
 31
0.0
  0
POLYLINE
  5
357
  8
0
  6
CONTINUOUS
 62
     7
 66
     1
 10
0.0
 20
0.0
 30
0.0
 70
   128
  0
VERTEX
  5
797
  8
0
  6
CONTINUOUS
 62
     7
 10
552.6303575316
 20
1102.4719771288
 30
0.0
  0
VERTEX
  5
798
  8
0
  6
CONTINUOUS
 62
     7
 10
552.6660085598
 20
1098.473488941
 30
0.0
  0
VERTEX
  5
799
  8
0
  6
CONTINUOUS
 62
     7
 10
552.8085977712
 20
1082.4794989369
 30
0.0
  0
VERTEX
  5
79A
  8
0
  6
CONTINUOUS
 62
     7
 10
553.3786118904
 20
1018.5034942172
 30
0.0
  0
VERTEX
  5
79B
  8
0
  6
CONTINUOUS
 62
     7
 10
553.7706204632
 20
974.4719784997
 30
0.0
  0
SEQEND
  5
9AC
  8
0
  6
CONTINUOUS
 62
     7
  0
ARC
  5
358
  8
0
  6
CONTINUOUS
 62
     7
 10
553.4481368302
 20
983.682348159
 30
0.0
 40
9.216013506682826
 50
266.7997478465
 51
272.0052839306
  0
LINE
  5
359
  8
0
  6
CONTINUOUS
 62
     7
 10
551.8166833499
 20
1102.4719771288
 30
0.0
 11
552.6303575316
 21
1102.4719771288
 31
0.0
  0
LINE
  5
35A
  8
0
  6
CONTINUOUS
 62
     7
 10
468.8626901188
 20
974.4719784997
 30
0.0
 11
468.8627459982
 21
974.4719784997
 31
0.0
  0
LINE
  5
35B
  8
0
  6
CONTINUOUS
 62
     7
 10
469.6909190097
 20
973.4719783358
 30
0.0
 11
468.854196457
 21
973.4719783358
 31
0.0
  0
LINE
  5
35C
  8
0
  6
CONTINUOUS
 62
     7
 10
553.7706204632
 20
974.4719784997
 30
0.0
 11
553.7706763425
 21
974.4719784997
 31
0.0
  0
LINE
  5
35D
  8
0
  6
CONTINUOUS
 62
     7
 10
553.7791700044
 20
973.4719783358
 30
0.0
 11
552.9424474516
 21
973.4719783358
 31
0.0
  0
LINE
  5
35E
  8
0
  6
CONTINUOUS
 62
     7
 10
465.3879553953
 20
1042.9719757579
 30
0.0
 11
464.4355029741
 21
991.7127132706
 31
0.0
  0
LINE
  5
35F
  8
0
  6
CONTINUOUS
 62
     7
 10
455.9502229968
 20
991.7127132706
 30
0.0
 11
455.8110796788
 21
984.2238273762
 31
0.0
  0
POLYLINE
  5
360
  8
0
  6
CONTINUOUS
 62
     7
 66
     1
 10
0.0
 20
0.0
 30
0.0
 70
   128
  0
VERTEX
  5
79C
  8
0
  6
CONTINUOUS
 62
     7
 10
455.1522471884
 20
985.7677683524
 30
0.0
  0
VERTEX
  5
79D
  8
0
  6
CONTINUOUS
 62
     7
 10
455.3230890015
 20
985.7156161509
 30
0.0
  0
VERTEX
  5
79E
  8
0
  6
CONTINUOUS
 62
     7
 10
455.4714077094
 20
985.5784248851
 30
0.0
  0
VERTEX
  5
79F
  8
0
  6
CONTINUOUS
 62
     7
 10
455.6411617377
 20
985.2734037034
 30
0.0
  0
VERTEX
  5
7A0
  8
0
  6
CONTINUOUS
 62
     7
 10
455.7785429934
 20
984.7435165487
 30
0.0
  0
VERTEX
  5
7A1
  8
0
  6
CONTINUOUS
 62
     7
 10
455.8110796788
 20
984.2238273762
 30
0.0
  0
SEQEND
  5
9AD
  8
0
  6
CONTINUOUS
 62
     7
  0
LINE
  5
361
  8
0
  6
CONTINUOUS
 62
     7
 10
455.1522471884
 20
985.7677683524
 30
0.0
 11
454.5129873732
 21
985.7677683524
 31
0.0
  0
ARC
  5
362
  8
0
  6
CONTINUOUS
 62
     7
 10
454.5382539057
 20
985.3942864748
 30
0.0
 40
0.3743355587784609
 50
93.870236551
 51
155.2115177397
  0
LINE
  5
363
  8
0
  6
CONTINUOUS
 62
     7
 10
451.0422647872
 20
981.1122842423
 30
0.0
 11
453.2097392657
 21
1102.4719771288
 31
0.0
  0
LINE
  5
364
  8
0
  6
CONTINUOUS
 62
     7
 10
464.3101879337
 20
984.9679392121
 30
0.0
 11
464.4355029741
 21
991.7127132706
 31
0.0
  0
LINE
  5
365
  8
0
  6
CONTINUOUS
 62
     7
 10
453.2097392657
 20
1102.4719771288
 30
0.0
 11
470.0030089298
 21
1102.4719771288
 31
0.0
  0
LINE
  5
366
  8
0
  6
CONTINUOUS
 62
     7
 10
569.4236271956
 20
1102.4719771288
 30
0.0
 11
571.5912581363
 21
981.1035652004
 31
0.0
  0
ARC
  5
367
  8
0
  6
CONTINUOUS
 62
     7
 10
568.0923076817
 20
985.3843446818
 30
0.0
 40
0.3844498862623332
 50
25.2700265055
 51
85.8127033335
  0
LINE
  5
368
  8
0
  6
CONTINUOUS
 62
     7
 10
568.1203790882
 20
985.7677683524
 30
0.0
 11
567.481119273
 21
985.7677683524
 31
0.0
  0
POLYLINE
  5
369
  8
0
  6
CONTINUOUS
 62
     7
 66
     1
 10
0.0
 20
0.0
 30
0.0
 70
   128
  0
VERTEX
  5
7A2
  8
0
  6
CONTINUOUS
 62
     7
 10
566.8222867826
 20
984.2238273762
 30
0.0
  0
VERTEX
  5
7A3
  8
0
  6
CONTINUOUS
 62
     7
 10
566.8857359269
 20
984.9159993521
 30
0.0
  0
VERTEX
  5
7A4
  8
0
  6
CONTINUOUS
 62
     7
 10
567.0336411276
 20
985.3679757855
 30
0.0
  0
VERTEX
  5
7A5
  8
0
  6
CONTINUOUS
 62
     7
 10
567.1968200186
 20
985.6194179795
 30
0.0
  0
VERTEX
  5
7A6
  8
0
  6
CONTINUOUS
 62
     7
 10
567.3561506846
 20
985.740018665
 30
0.0
  0
VERTEX
  5
7A7
  8
0
  6
CONTINUOUS
 62
     7
 10
567.481119273
 20
985.7677683524
 30
0.0
  0
SEQEND
  5
9AE
  8
0
  6
CONTINUOUS
 62
     7
  0
LINE
  5
36A
  8
0
  6
CONTINUOUS
 62
     7
 10
566.8222867826
 20
984.2238273762
 30
0.0
 11
566.6831434646
 21
991.7127132706
 31
0.0
  0
LINE
  5
36B
  8
0
  6
CONTINUOUS
 62
     7
 10
557.2454110661
 20
1042.9719757579
 30
0.0
 11
558.1978634873
 21
991.7127132706
 31
0.0
  0
LINE
  5
36C
  8
0
  6
CONTINUOUS
 62
     7
 10
558.1978634873
 20
991.7127132706
 30
0.0
 11
558.3233573416
 21
984.9583875678
 31
0.0
  0
LINE
  5
36D
  8
0
  6
CONTINUOUS
 62
     7
 10
552.6303575316
 20
1102.4719771288
 30
0.0
 11
569.4236271956
 21
1102.4719771288
 31
0.0
  0
LINE
  5
36E
  8
0
  6
CONTINUOUS
 62
     7
 10
455.9502229968
 20
991.7127132706
 30
0.0
 11
455.9502229968
 21
1042.9719757579
 31
0.0
  0
LINE
  5
36F
  8
0
  6
CONTINUOUS
 62
     7
 10
455.9502229968
 20
1042.9719757579
 30
0.0
 11
464.4355029741
 21
1042.9719757579
 31
0.0
  0
LINE
  5
370
  8
0
  6
CONTINUOUS
 62
     7
 10
464.4355029741
 20
1042.9719757579
 30
0.0
 11
464.4355029741
 21
991.7127132706
 31
0.0
  0
LINE
  5
371
  8
0
  6
CONTINUOUS
 62
     7
 10
455.9502229968
 20
979.4719793193
 30
0.0
 11
455.9502229968
 21
991.7127132706
 31
0.0
  0
POLYLINE
  5
372
  8
0
  6
CONTINUOUS
 62
     7
 66
     1
 10
0.0
 20
0.0
 30
0.0
 70
   128
  0
VERTEX
  5
7A8
  8
0
  6
CONTINUOUS
 62
     7
 10
461.607076315
 20
1032.371975138
 30
0.0
  0
VERTEX
  5
7A9
  8
0
  6
CONTINUOUS
 62
     7
 10
461.4994266012
 20
1033.1373434804
 30
0.0
  0
VERTEX
  5
7AA
  8
0
  6
CONTINUOUS
 62
     7
 10
461.1928612867
 20
1033.7861921928
 30
0.0
  0
VERTEX
  5
7AB
  8
0
  6
CONTINUOUS
 62
     7
 10
460.7340582588
 20
1034.2197340272
 30
0.0
  0
VERTEX
  5
7AC
  8
0
  6
CONTINUOUS
 62
     7
 10
460.1928629854
 20
1034.3719791911
 30
0.0
  0
VERTEX
  5
7AD
  8
0
  6
CONTINUOUS
 62
     7
 10
459.651667712
 20
1034.2197340272
 30
0.0
  0
VERTEX
  5
7AE
  8
0
  6
CONTINUOUS
 62
     7
 10
459.1928646842
 20
1033.7861921928
 30
0.0
  0
VERTEX
  5
7AF
  8
0
  6
CONTINUOUS
 62
     7
 10
458.8862993696
 20
1033.1373434804
 30
0.0
  0
VERTEX
  5
7B0
  8
0
  6
CONTINUOUS
 62
     7
 10
458.7786496559
 20
1032.371975138
 30
0.0
  0
VERTEX
  5
7B1
  8
0
  6
CONTINUOUS
 62
     7
 10
458.8862993696
 20
1031.6066142462
 30
0.0
  0
VERTEX
  5
7B2
  8
0
  6
CONTINUOUS
 62
     7
 10
459.1928646842
 20
1030.9577655337
 30
0.0
  0
VERTEX
  5
7B3
  8
0
  6
CONTINUOUS
 62
     7
 10
459.651667712
 20
1030.5242162488
 30
0.0
  0
VERTEX
  5
7B4
  8
0
  6
CONTINUOUS
 62
     7
 10
460.1928629854
 20
1030.3719785355
 30
0.0
  0
VERTEX
  5
7B5
  8
0
  6
CONTINUOUS
 62
     7
 10
460.7340582588
 20
1030.5242162488
 30
0.0
  0
VERTEX
  5
7B6
  8
0
  6
CONTINUOUS
 62
     7
 10
461.1928612867
 20
1030.9577655337
 30
0.0
  0
VERTEX
  5
7B7
  8
0
  6
CONTINUOUS
 62
     7
 10
461.4994266012
 20
1031.6066142462
 30
0.0
  0
VERTEX
  5
7B8
  8
0
  6
CONTINUOUS
 62
     7
 10
461.607076315
 20
1032.371975138
 30
0.0
  0
SEQEND
  5
9AF
  8
0
  6
CONTINUOUS
 62
     7
  0
LINE
  5
373
  8
0
  6
CONTINUOUS
 62
     7
 10
465.3879553953
 20
1042.9719757579
 30
0.0
 11
464.4355029741
 21
1042.9719757579
 31
0.0
  0
LINE
  5
374
  8
0
  6
CONTINUOUS
 62
     7
 10
558.1978634873
 20
1042.9719757579
 30
0.0
 11
558.1978634873
 21
991.7127132706
 31
0.0
  0
LINE
  5
375
  8
0
  6
CONTINUOUS
 62
     7
 10
557.2454110661
 20
1042.9719757579
 30
0.0
 11
558.1978634873
 21
1042.9719757579
 31
0.0
  0
LINE
  5
376
  8
0
  6
CONTINUOUS
 62
     7
 10
566.6831434646
 20
991.7127132706
 30
0.0
 11
566.6831434646
 21
1042.9719757579
 31
0.0
  0
LINE
  5
377
  8
0
  6
CONTINUOUS
 62
     7
 10
566.6831434646
 20
991.7127132706
 30
0.0
 11
566.6831434646
 21
979.4719793193
 31
0.0
  0
LINE
  5
378
  8
0
  6
CONTINUOUS
 62
     7
 10
566.6831434646
 20
1042.9719757579
 30
0.0
 11
558.1978634873
 21
1042.9719757579
 31
0.0
  0
POLYLINE
  5
379
  8
0
  6
CONTINUOUS
 62
     7
 66
     1
 10
0.0
 20
0.0
 30
0.0
 70
   128
  0
VERTEX
  5
7B9
  8
0
  6
CONTINUOUS
 62
     7
 10
447.1380748728
 20
974.4719784997
 30
0.0
  0
VERTEX
  5
7BA
  8
0
  6
CONTINUOUS
 62
     7
 10
448.1391795853
 20
975.8835971646
 30
0.0
  0
VERTEX
  5
7BB
  8
0
  6
CONTINUOUS
 62
     7
 10
452.1440268436
 20
981.5290957979
 30
0.0
  0
VERTEX
  5
7BC
  8
0
  6
CONTINUOUS
 62
     7
 10
455.1522471884
 20
985.7677683524
 30
0.0
  0
SEQEND
  5
9B0
  8
0
  6
CONTINUOUS
 62
     7
  0
POLYLINE
  5
37A
  8
0
  6
CONTINUOUS
 62
     7
 66
     1
 10
0.0
 20
0.0
 30
0.0
 70
   128
  0
VERTEX
  5
7BD
  8
0
  6
CONTINUOUS
 62
     7
 10
567.481119273
 20
985.7677683524
 30
0.0
  0
VERTEX
  5
7BE
  8
0
  6
CONTINUOUS
 62
     7
 10
571.5200678387
 20
980.0763648294
 30
0.0
  0
VERTEX
  5
7BF
  8
0
  6
CONTINUOUS
 62
     7
 10
575.4952915886
 20
974.4719784997
 30
0.0
  0
SEQEND
  5
9B1
  8
0
  6
CONTINUOUS
 62
     7
  0
POLYLINE
  5
37B
  8
0
  6
CONTINUOUS
 62
     7
 66
     1
 10
0.0
 20
0.0
 30
0.0
 70
   128
  0
VERTEX
  5
7C0
  8
0
  6
CONTINUOUS
 62
     7
 10
576.1439316848
 20
974.4719784997
 30
0.0
  0
VERTEX
  5
7C1
  8
0
  6
CONTINUOUS
 62
     7
 10
571.7778355756
 20
980.6205869011
 30
0.0
  0
VERTEX
  5
7C2
  8
0
  6
CONTINUOUS
 62
     7
 10
568.1203790882
 20
985.7677683524
 30
0.0
  0
SEQEND
  5
9B2
  8
0
  6
CONTINUOUS
 62
     7
  0
POLYLINE
  5
37C
  8
0
  6
CONTINUOUS
 62
     7
 66
     1
 10
0.0
 20
0.0
 30
0.0
 70
   128
  0
VERTEX
  5
7C3
  8
0
  6
CONTINUOUS
 62
     7
 10
454.5129873732
 20
985.7677683524
 30
0.0
  0
VERTEX
  5
7C4
  8
0
  6
CONTINUOUS
 62
     7
 10
450.8555308857
 20
980.6205869011
 30
0.0
  0
VERTEX
  5
7C5
  8
0
  6
CONTINUOUS
 62
     7
 10
446.4894347766
 20
974.4719784997
 30
0.0
  0
SEQEND
  5
9B3
  8
0
  6
CONTINUOUS
 62
     7
  0
POLYLINE
  5
37D
  8
0
  6
CONTINUOUS
 62
     7
 66
     1
 10
0.0
 20
0.0
 30
0.0
 70
   128
  0
VERTEX
  5
7C6
  8
0
  6
CONTINUOUS
 62
     7
 10
576.3830282667
 20
974.3497526563
 30
0.0
  0
VERTEX
  5
7C7
  8
0
  6
CONTINUOUS
 62
     7
 10
576.3886758068
 20
974.3671255476
 30
0.0
  0
VERTEX
  5
7C8
  8
0
  6
CONTINUOUS
 62
     7
 10
576.3231106976
 20
974.4377011723
 30
0.0
  0
VERTEX
  5
7C9
  8
0
  6
CONTINUOUS
 62
     7
 10
576.1621111014
 20
974.4714066676
 30
0.0
  0
SEQEND
  5
9B4
  8
0
  6
CONTINUOUS
 62
     7
  0
POLYLINE
  5
37E
  8
0
  6
CONTINUOUS
 62
     7
 66
     1
 10
0.0
 20
0.0
 30
0.0
 70
   128
  0
VERTEX
  5
7CA
  8
0
  6
CONTINUOUS
 62
     7
 10
446.4712553599
 20
974.4714066676
 30
0.0
  0
VERTEX
  5
7CB
  8
0
  6
CONTINUOUS
 62
     7
 10
446.3102557638
 20
974.4377011723
 30
0.0
  0
VERTEX
  5
7CC
  8
0
  6
CONTINUOUS
 62
     7
 10
446.2446906546
 20
974.3671255476
 30
0.0
  0
VERTEX
  5
7CD
  8
0
  6
CONTINUOUS
 62
     7
 10
446.2503381947
 20
974.3497526563
 30
0.0
  0
SEQEND
  5
9B5
  8
0
  6
CONTINUOUS
 62
     7
  0
LINE
  5
37F
  8
0
  6
CONTINUOUS
 62
     7
 10
576.3901435712
 20
962.4719785118
 30
0.0
 11
576.1621111014
 21
962.4719785118
 31
0.0
  0
LINE
  5
380
  8
0
  6
CONTINUOUS
 62
     7
 10
446.4712553599
 20
962.4719785118
 30
0.0
 11
446.2432228902
 21
962.4719785118
 31
0.0
  0
ARC
  5
381
  8
0
  6
CONTINUOUS
 62
     7
 10
461.6457818398
 20
1032.3719788633
 30
0.0
 40
2.226792813353728
 50
119.5840290662
 51
240.4159709338
  0
LINE
  5
382
  8
0
  6
CONTINUOUS
 62
     7
 10
582.8324519971
 20
973.4719783358
 30
0.0
 11
580.1004954556
 21
973.4719783358
 31
0.0
  0
ARC
  5
383
  8
0
  6
CONTINUOUS
 62
     7
 10
440.4966426951
 20
804.9242460046
 30
0.0
 40
169.5688398689768
 50
89.3076223683
 51
90.230695452
  0
POLYLINE
  5
384
  8
0
  6
CONTINUOUS
 62
     7
 66
     1
 10
0.0
 20
0.0
 30
0.0
 70
   128
  0
VERTEX
  5
7CE
  8
0
  6
CONTINUOUS
 62
     7
 10
442.5457083562
 20
974.4807049922
 30
0.0
  0
VERTEX
  5
7CF
  8
0
  6
CONTINUOUS
 62
     7
 10
442.5368496159
 20
974.2843831248
 30
0.0
  0
VERTEX
  5
7D0
  8
0
  6
CONTINUOUS
 62
     7
 10
442.5089099386
 20
974.0953497879
 30
0.0
  0
VERTEX
  5
7D1
  8
0
  6
CONTINUOUS
 62
     7
 10
442.4629696587
 20
973.9209512539
 30
0.0
  0
VERTEX
  5
7D2
  8
0
  6
CONTINUOUS
 62
     7
 10
442.4008169153
 20
973.7679638259
 30
0.0
  0
VERTEX
  5
7D3
  8
0
  6
CONTINUOUS
 62
     7
 10
442.3248731473
 20
973.6423312045
 30
0.0
  0
VERTEX
  5
7D4
  8
0
  6
CONTINUOUS
 62
     7
 10
442.2380738833
 20
973.5489363141
 30
0.0
  0
VERTEX
  5
7D5
  8
0
  6
CONTINUOUS
 62
     7
 10
442.1438091376
 20
973.491406656
 30
0.0
  0
VERTEX
  5
7D6
  8
0
  6
CONTINUOUS
 62
     7
 10
442.0457296947
 20
973.4719783358
 30
0.0
  0
SEQEND
  5
9B6
  8
0
  6
CONTINUOUS
 62
     7
  0
LINE
  5
385
  8
0
  6
CONTINUOUS
 62
     7
 10
442.0457296947
 20
973.4719783358
 30
0.0
 11
440.6797476986
 21
973.4719783358
 31
0.0
  0
ARC
  5
386
  8
0
  6
CONTINUOUS
 62
     7
 10
440.7538333834
 20
974.4123489646
 30
0.0
 40
0.9432844789366368
 50
175.1737654732
 51
265.495342758
  0
LINE
  5
387
  8
0
  6
CONTINUOUS
 62
     7
 10
580.1004954556
 20
973.4719783358
 30
0.0
 11
576.3901435712
 21
973.4719783358
 31
0.0
  0
LINE
  5
388
  8
0
  6
CONTINUOUS
 62
     7
 10
446.2432228902
 20
973.4719783358
 30
0.0
 11
442.0457296947
 21
973.4719783358
 31
0.0
  0
ARC
  5
389
  8
0
  6
CONTINUOUS
 62
     7
 10
582.0850160992
 20
1122.5874833316
 30
0.0
 40
0.8976405274817456
 50
99.8188875783
 51
158.4751268161
  0
POLYLINE
  5
38A
  8
0
  6
CONTINUOUS
 62
     7
 66
     1
 10
0.0
 20
0.0
 30
0.0
 70
   128
  0
VERTEX
  5
7D7
  8
0
  6
CONTINUOUS
 62
     7
 10
581.1591857055
 20
1120.3452196262
 30
0.0
  0
VERTEX
  5
7D8
  8
0
  6
CONTINUOUS
 62
     7
 10
581.2220537045
 20
1120.1864030502
 30
0.0
  0
VERTEX
  5
7D9
  8
0
  6
CONTINUOUS
 62
     7
 10
581.349525688
 20
1119.9398931406
 30
0.0
  0
VERTEX
  5
7DA
  8
0
  6
CONTINUOUS
 62
     7
 10
581.495728431
 20
1119.7399344585
 30
0.0
  0
VERTEX
  5
7DB
  8
0
  6
CONTINUOUS
 62
     7
 10
581.6562288383
 20
1119.5925917767
 30
0.0
  0
VERTEX
  5
7DC
  8
0
  6
CONTINUOUS
 62
     7
 10
581.8261393288
 20
1119.5023652456
 30
0.0
  0
VERTEX
  5
7DD
  8
0
  6
CONTINUOUS
 62
     7
 10
582.0003115514
 20
1119.471981778
 30
0.0
  0
VERTEX
  5
7DE
  8
0
  6
CONTINUOUS
 62
     7
 10
582.1734406927
 20
1119.5023652456
 30
0.0
  0
VERTEX
  5
7DF
  8
0
  6
CONTINUOUS
 62
     7
 10
582.3402666429
 20
1119.5925917767
 30
0.0
  0
VERTEX
  5
7E0
  8
0
  6
CONTINUOUS
 62
     7
 10
582.4957304576
 20
1119.7399344585
 30
0.0
  0
VERTEX
  5
7E1
  8
0
  6
CONTINUOUS
 62
     7
 10
582.6351010182
 20
1119.9398931406
 30
0.0
  0
VERTEX
  5
7E2
  8
0
  6
CONTINUOUS
 62
     7
 10
582.7541389444
 20
1120.1864030502
 30
0.0
  0
VERTEX
  5
7E3
  8
0
  6
CONTINUOUS
 62
     7
 10
582.8492456058
 20
1120.4719838045
 30
0.0
  0
VERTEX
  5
7E4
  8
0
  6
CONTINUOUS
 62
     7
 10
582.9175078252
 20
1120.7879331253
 30
0.0
  0
VERTEX
  5
7E5
  8
0
  6
CONTINUOUS
 62
     7
 10
582.9568692425
 20
1121.1246844671
 30
0.0
  0
VERTEX
  5
7E6
  8
0
  6
CONTINUOUS
 62
     7
 10
582.9661228636
 20
1121.4719858311
 30
0.0
  0
VERTEX
  5
7E7
  8
0
  6
CONTINUOUS
 62
     7
 10
582.944993017
 20
1121.8192722939
 30
0.0
  0
VERTEX
  5
7E8
  8
0
  6
CONTINUOUS
 62
     7
 10
582.8941279033
 20
1122.1560236357
 30
0.0
  0
VERTEX
  5
7E9
  8
0
  6
CONTINUOUS
 62
     7
 10
582.8150548914
 20
1122.4719729565
 30
0.0
  0
VERTEX
  5
7EA
  8
0
  6
CONTINUOUS
 62
     7
 10
582.7101954201
 20
1122.7575537107
 30
0.0
  0
VERTEX
  5
7EB
  8
0
  6
CONTINUOUS
 62
     7
 10
582.5827234366
 20
1123.0040636204
 30
0.0
  0
VERTEX
  5
7EC
  8
0
  6
CONTINUOUS
 62
     7
 10
582.4365206936
 20
1123.2040223024
 30
0.0
  0
VERTEX
  5
7ED
  8
0
  6
CONTINUOUS
 62
     7
 10
582.2760202864
 20
1123.3513649843
 30
0.0
  0
VERTEX
  5
7EE
  8
0
  6
CONTINUOUS
 62
     7
 10
582.1061097959
 20
1123.4415915154
 30
0.0
  0
VERTEX
  5
7EF
  8
0
  6
CONTINUOUS
 62
     7
 10
581.9319375732
 20
1123.471974983
 30
0.0
  0
SEQEND
  5
9B7
  8
0
  6
CONTINUOUS
 62
     7
  0
LINE
  5
38B
  8
0
  6
CONTINUOUS
 62
     7
 10
586.1592032888
 20
973.4719783358
 30
0.0
 11
582.8324519971
 21
973.4719783358
 31
0.0
  0
LINE
  5
38C
  8
0
  6
CONTINUOUS
 62
     7
 10
436.4960380772
 20
974.4917113624
 30
0.0
 11
439.8138933757
 21
974.4917113624
 31
0.0
  0
LINE
  5
38D
  8
0
  6
CONTINUOUS
 62
     7
 10
440.6797476986
 20
973.4719783358
 30
0.0
 11
437.3618998507
 21
973.4719783358
 31
0.0
  0
ARC
  5
38E
  8
0
  6
CONTINUOUS
 62
     7
 10
437.4359804455
 20
974.4123515103
 30
0.0
 40
0.9432866170153006
 50
175.1739316155
 51
265.4956631143
  0
POLYLINE
  5
38F
  8
0
  6
CONTINUOUS
 62
     7
 66
     1
 10
0.0
 20
0.0
 30
0.0
 70
   128
  0
VERTEX
  5
7F0
  8
0
  6
CONTINUOUS
 62
     7
 10
440.7014288881
 20
1123.471974983
 30
0.0
  0
VERTEX
  5
7F1
  8
0
  6
CONTINUOUS
 62
     7
 10
440.5272566655
 20
1123.4415915154
 30
0.0
  0
VERTEX
  5
7F2
  8
0
  6
CONTINUOUS
 62
     7
 10
440.357346175
 20
1123.3513649843
 30
0.0
  0
VERTEX
  5
7F3
  8
0
  6
CONTINUOUS
 62
     7
 10
440.1968457678
 20
1123.2040223024
 30
0.0
  0
VERTEX
  5
7F4
  8
0
  6
CONTINUOUS
 62
     7
 10
440.0506430247
 20
1123.0040636204
 30
0.0
  0
VERTEX
  5
7F5
  8
0
  6
CONTINUOUS
 62
     7
 10
439.9231710413
 20
1122.7575537107
 30
0.0
  0
VERTEX
  5
7F6
  8
0
  6
CONTINUOUS
 62
     7
 10
439.81831157
 20
1122.4719729565
 30
0.0
  0
VERTEX
  5
7F7
  8
0
  6
CONTINUOUS
 62
     7
 10
439.7392385581
 20
1122.1560236357
 30
0.0
  0
VERTEX
  5
7F8
  8
0
  6
CONTINUOUS
 62
     7
 10
439.6883734444
 20
1121.8192722939
 30
0.0
  0
VERTEX
  5
7F9
  8
0
  6
CONTINUOUS
 62
     7
 10
439.6672435978
 20
1121.4719858311
 30
0.0
  0
VERTEX
  5
7FA
  8
0
  6
CONTINUOUS
 62
     7
 10
439.6764972189
 20
1121.1246844671
 30
0.0
  0
VERTEX
  5
7FB
  8
0
  6
CONTINUOUS
 62
     7
 10
439.7158586362
 20
1120.7879331253
 30
0.0
  0
VERTEX
  5
7FC
  8
0
  6
CONTINUOUS
 62
     7
 10
439.7841208556
 20
1120.4719838045
 30
0.0
  0
VERTEX
  5
7FD
  8
0
  6
CONTINUOUS
 62
     7
 10
439.8792275169
 20
1120.1864030502
 30
0.0
  0
VERTEX
  5
7FE
  8
0
  6
CONTINUOUS
 62
     7
 10
439.9982654431
 20
1119.9398931406
 30
0.0
  0
VERTEX
  5
7FF
  8
0
  6
CONTINUOUS
 62
     7
 10
440.1376360038
 20
1119.7399344585
 30
0.0
  0
VERTEX
  5
800
  8
0
  6
CONTINUOUS
 62
     7
 10
440.2930998185
 20
1119.5925917767
 30
0.0
  0
VERTEX
  5
801
  8
0
  6
CONTINUOUS
 62
     7
 10
440.4599257687
 20
1119.5023652456
 30
0.0
  0
VERTEX
  5
802
  8
0
  6
CONTINUOUS
 62
     7
 10
440.63305491
 20
1119.471981778
 30
0.0
  0
VERTEX
  5
803
  8
0
  6
CONTINUOUS
 62
     7
 10
440.8072271326
 20
1119.5023652456
 30
0.0
  0
VERTEX
  5
804
  8
0
  6
CONTINUOUS
 62
     7
 10
440.9771376231
 20
1119.5925917767
 30
0.0
  0
VERTEX
  5
805
  8
0
  6
CONTINUOUS
 62
     7
 10
441.1376380303
 20
1119.7399344585
 30
0.0
  0
VERTEX
  5
806
  8
0
  6
CONTINUOUS
 62
     7
 10
441.2838407734
 20
1119.9398931406
 30
0.0
  0
VERTEX
  5
807
  8
0
  6
CONTINUOUS
 62
     7
 10
441.4113127568
 20
1120.1864030502
 30
0.0
  0
VERTEX
  5
808
  8
0
  6
CONTINUOUS
 62
     7
 10
441.4741807559
 20
1120.3452196262
 30
0.0
  0
SEQEND
  5
9B8
  8
0
  6
CONTINUOUS
 62
     7
  0
ARC
  5
390
  8
0
  6
CONTINUOUS
 62
     7
 10
440.571561012
 20
1122.6159962022
 30
0.0
 40
0.8657744154750321
 50
20.3330268815
 51
81.3729587241
  0
LINE
  5
391
  8
0
  6
CONTINUOUS
 62
     7
 10
437.3618998507
 20
973.4719783358
 30
0.0
 11
437.2279458621
 21
973.4719783358
 31
0.0
  0
LINE
  5
392
  8
0
  6
CONTINUOUS
 62
     7
 10
437.2279458621
 20
973.4719783358
 30
0.0
 11
432.5666838267
 21
973.4719783358
 31
0.0
  0
LINE
  5
393
  8
0
  6
CONTINUOUS
 62
     7
 10
436.2920858839
 20
977.4719789914
 30
0.0
 11
431.5666818002
 21
977.4719789914
 31
0.0
  0
POLYLINE
  5
394
  8
0
  6
CONTINUOUS
 62
     7
 66
     1
 10
0.0
 20
0.0
 30
0.0
 70
   128
  0
VERTEX
  5
809
  8
0
  6
CONTINUOUS
 62
     7
 10
433.8528477529
 20
977.4719789914
 30
0.0
  0
VERTEX
  5
80A
  8
0
  6
CONTINUOUS
 62
     7
 10
433.8401221612
 20
977.6498308695
 30
0.0
  0
VERTEX
  5
80B
  8
0
  6
CONTINUOUS
 62
     7
 10
433.8369184115
 20
977.9784331388
 30
0.0
  0
SEQEND
  5
9B9
  8
0
  6
CONTINUOUS
 62
     7
  0
ARC
  5
395
  8
0
  6
CONTINUOUS
 62
     7
 10
433.7029509225
 20
956.3491637765
 30
0.0
 40
21.62968424269143
 50
88.221214017
 51
89.6451256196
  0
POLYLINE
  5
396
  8
0
  6
CONTINUOUS
 62
     7
 66
     1
 10
0.0
 20
0.0
 30
0.0
 70
   128
  0
VERTEX
  5
80C
  8
0
  6
CONTINUOUS
 62
     7
 10
434.3743511417
 20
977.9684251465
 30
0.0
  0
VERTEX
  5
80D
  8
0
  6
CONTINUOUS
 62
     7
 10
434.3747460225
 20
977.8041240118
 30
0.0
  0
VERTEX
  5
80E
  8
0
  6
CONTINUOUS
 62
     7
 10
434.3929924944
 20
977.6585759885
 30
0.0
  0
VERTEX
  5
80F
  8
0
  6
CONTINUOUS
 62
     7
 10
434.4270341971
 20
977.5479488365
 30
0.0
  0
VERTEX
  5
810
  8
0
  6
CONTINUOUS
 62
     7
 10
434.4732352474
 20
977.4843255348
 30
0.0
  0
VERTEX
  5
811
  8
0
  6
CONTINUOUS
 62
     7
 10
434.5080518106
 20
977.4719789914
 30
0.0
  0
SEQEND
  5
9BA
  8
0
  6
CONTINUOUS
 62
     7
  0
POLYLINE
  5
397
  8
0
  6
CONTINUOUS
 62
     7
 66
     1
 10
0.0
 20
0.0
 30
0.0
 70
   128
  0
VERTEX
  5
812
  8
0
  6
CONTINUOUS
 62
     7
 10
437.5982024649
 20
1102.4719771288
 30
0.0
  0
VERTEX
  5
813
  8
0
  6
CONTINUOUS
 62
     7
 10
437.5723414996
 20
1101.4723625324
 30
0.0
  0
VERTEX
  5
814
  8
0
  6
CONTINUOUS
 62
     7
 10
437.4689199903
 20
1097.4738743446
 30
0.0
  0
VERTEX
  5
815
  8
0
  6
CONTINUOUS
 62
     7
 10
437.0551668981
 20
1081.4799737475
 30
0.0
  0
VERTEX
  5
816
  8
0
  6
CONTINUOUS
 62
     7
 10
435.3989847878
 20
1017.5043713592
 30
0.0
  0
VERTEX
  5
817
  8
0
  6
CONTINUOUS
 62
     7
 10
434.7904884198
 20
994.0205361984
 30
0.0
  0
VERTEX
  5
818
  8
0
  6
CONTINUOUS
 62
     7
 10
434.3743511417
 20
977.9684251465
 30
0.0
  0
SEQEND
  5
9BB
  8
0
  6
CONTINUOUS
 62
     7
  0
POLYLINE
  5
398
  8
0
  6
CONTINUOUS
 62
     7
 66
     1
 10
0.0
 20
0.0
 30
0.0
 70
   128
  0
VERTEX
  5
819
  8
0
  6
CONTINUOUS
 62
     7
 10
433.8369184115
 20
977.9784331388
 30
0.0
  0
VERTEX
  5
81A
  8
0
  6
CONTINUOUS
 62
     7
 10
434.2492782453
 20
994.0306503616
 30
0.0
  0
VERTEX
  5
81B
  8
0
  6
CONTINUOUS
 62
     7
 10
435.8990230539
 20
1058.2395267032
 30
0.0
  0
VERTEX
  5
81C
  8
0
  6
CONTINUOUS
 62
     7
 10
437.0357432344
 20
1102.4719771288
 30
0.0
  0
SEQEND
  5
9BC
  8
0
  6
CONTINUOUS
 62
     7
  0
LINE
  5
399
  8
0
  6
CONTINUOUS
 62
     7
 10
437.0357432344
 20
1102.4719771288
 30
0.0
 11
437.5982024649
 21
1102.4719771288
 31
0.0
  0
LINE
  5
39A
  8
0
  6
CONTINUOUS
 62
     7
 10
437.5982024649
 20
1102.4719771288
 30
0.0
 11
438.9740862825
 21
1102.4719771288
 31
0.0
  0
POLYLINE
  5
39B
  8
0
  6
CONTINUOUS
 62
     7
 66
     1
 10
0.0
 20
0.0
 30
0.0
 70
   128
  0
VERTEX
  5
81D
  8
0
  6
CONTINUOUS
 62
     7
 10
433.5101731995
 20
977.9784331388
 30
0.0
  0
VERTEX
  5
81E
  8
0
  6
CONTINUOUS
 62
     7
 10
433.4895276406
 20
977.6498308695
 30
0.0
  0
VERTEX
  5
81F
  8
0
  6
CONTINUOUS
 62
     7
 10
433.4673621634
 20
977.4719789914
 30
0.0
  0
SEQEND
  5
9BD
  8
0
  6
CONTINUOUS
 62
     7
  0
POLYLINE
  5
39C
  8
0
  6
CONTINUOUS
 62
     7
 66
     1
 10
0.0
 20
0.0
 30
0.0
 70
   128
  0
VERTEX
  5
820
  8
0
  6
CONTINUOUS
 62
     7
 10
436.9191863516
 20
1102.4719771288
 30
0.0
  0
VERTEX
  5
821
  8
0
  6
CONTINUOUS
 62
     7
 10
435.7081540802
 20
1058.2395490549
 30
0.0
  0
VERTEX
  5
822
  8
0
  6
CONTINUOUS
 62
     7
 10
433.9498319605
 20
994.0306540869
 30
0.0
  0
VERTEX
  5
823
  8
0
  6
CONTINUOUS
 62
     7
 10
433.5101731995
 20
977.9784331388
 30
0.0
  0
SEQEND
  5
9BE
  8
0
  6
CONTINUOUS
 62
     7
  0
LINE
  5
39D
  8
0
  6
CONTINUOUS
 62
     7
 10
436.9191863516
 20
1102.4719771288
 30
0.0
 11
436.9089120009
 21
1102.4719771288
 31
0.0
  0
ARC
  5
39E
  8
0
  6
CONTINUOUS
 62
     7
 10
433.2304251768
 20
977.7922620654
 30
0.0
 40
0.6950277503978699
 50
165.3175331036
 51
207.4400691236
  0
POLYLINE
  5
39F
  8
0
  6
CONTINUOUS
 62
     7
 66
     1
 10
0.0
 20
0.0
 30
0.0
 70
   128
  0
VERTEX
  5
824
  8
0
  6
CONTINUOUS
 62
     7
 10
432.0825301984
 20
977.4719789914
 30
0.0
  0
VERTEX
  5
825
  8
0
  6
CONTINUOUS
 62
     7
 10
432.0829623321
 20
977.6498308695
 30
0.0
  0
VERTEX
  5
826
  8
0
  6
CONTINUOUS
 62
     7
 10
432.0888631919
 20
977.9784331388
 30
0.0
  0
SEQEND
  5
9BF
  8
0
  6
CONTINUOUS
 62
     7
  0
ARC
  5
3A0
  8
0
  6
CONTINUOUS
 62
     7
 10
431.8200134466
 20
954.3682105863
 30
0.0
 40
23.61175319971446
 50
88.208699263
 51
89.347600813
  0
POLYLINE
  5
3A1
  8
0
  6
CONTINUOUS
 62
     7
 66
     1
 10
0.0
 20
0.0
 30
0.0
 70
   128
  0
VERTEX
  5
827
  8
0
  6
CONTINUOUS
 62
     7
 10
435.9299429634
 20
1102.4719771288
 30
0.0
  0
VERTEX
  5
828
  8
0
  6
CONTINUOUS
 62
     7
 10
435.9029048064
 20
1101.4723625324
 30
0.0
  0
VERTEX
  5
829
  8
0
  6
CONTINUOUS
 62
     7
 10
435.7947447279
 20
1097.4738743446
 30
0.0
  0
VERTEX
  5
82A
  8
0
  6
CONTINUOUS
 62
     7
 10
435.362029908
 20
1081.4799737475
 30
0.0
  0
VERTEX
  5
82B
  8
0
  6
CONTINUOUS
 62
     7
 10
433.629844425
 20
1017.5043713592
 30
0.0
  0
VERTEX
  5
82C
  8
0
  6
CONTINUOUS
 62
     7
 10
432.9933711269
 20
994.0205361984
 30
0.0
  0
VERTEX
  5
82D
  8
0
  6
CONTINUOUS
 62
     7
 10
432.5580933073
 20
977.9684251465
 30
0.0
  0
SEQEND
  5
9C0
  8
0
  6
CONTINUOUS
 62
     7
  0
LINE
  5
3A2
  8
0
  6
CONTINUOUS
 62
     7
 10
435.9299429634
 20
1102.4719771288
 30
0.0
 11
436.7057048657
 21
1102.4719771288
 31
0.0
  0
POLYLINE
  5
3A3
  8
0
  6
CONTINUOUS
 62
     7
 66
     1
 10
0.0
 20
0.0
 30
0.0
 70
   128
  0
VERTEX
  5
82E
  8
0
  6
CONTINUOUS
 62
     7
 10
432.0888631919
 20
977.9784331388
 30
0.0
  0
VERTEX
  5
82F
  8
0
  6
CONTINUOUS
 62
     7
 10
432.5203561166
 20
994.0306503616
 30
0.0
  0
VERTEX
  5
830
  8
0
  6
CONTINUOUS
 62
     7
 10
434.2464023211
 20
1058.2395267032
 30
0.0
  0
VERTEX
  5
831
  8
0
  6
CONTINUOUS
 62
     7
 10
435.4355075338
 20
1102.4719771288
 30
0.0
  0
SEQEND
  5
9C1
  8
0
  6
CONTINUOUS
 62
     7
  0
LINE
  5
3A4
  8
0
  6
CONTINUOUS
 62
     7
 10
435.4355075338
 20
1102.4719771288
 30
0.0
 11
435.9299429634
 21
1102.4719771288
 31
0.0
  0
POLYLINE
  5
3A5
  8
0
  6
CONTINUOUS
 62
     7
 66
     1
 10
0.0
 20
0.0
 30
0.0
 70
   128
  0
VERTEX
  5
832
  8
0
  6
CONTINUOUS
 62
     7
 10
432.0066087821
 20
977.9784331388
 30
0.0
  0
VERTEX
  5
833
  8
0
  6
CONTINUOUS
 62
     7
 10
431.9947027543
 20
977.6498308695
 30
0.0
  0
VERTEX
  5
834
  8
0
  6
CONTINUOUS
 62
     7
 10
431.9854938367
 20
977.4719789914
 30
0.0
  0
SEQEND
  5
9C2
  8
0
  6
CONTINUOUS
 62
     7
  0
POLYLINE
  5
3A6
  8
0
  6
CONTINUOUS
 62
     7
 66
     1
 10
0.0
 20
0.0
 30
0.0
 70
   128
  0
VERTEX
  5
835
  8
0
  6
CONTINUOUS
 62
     7
 10
435.4061671474
 20
1102.4719771288
 30
0.0
  0
VERTEX
  5
836
  8
0
  6
CONTINUOUS
 62
     7
 10
434.1983535269
 20
1058.2395490549
 30
0.0
  0
VERTEX
  5
837
  8
0
  6
CONTINUOUS
 62
     7
 10
432.4449785927
 20
994.0306540869
 30
0.0
  0
VERTEX
  5
838
  8
0
  6
CONTINUOUS
 62
     7
 10
432.0066087821
 20
977.9784331388
 30
0.0
  0
SEQEND
  5
9C3
  8
0
  6
CONTINUOUS
 62
     7
  0
LINE
  5
3A7
  8
0
  6
CONTINUOUS
 62
     7
 10
583.6592801788
 20
1102.4719771288
 30
0.0
 11
590.3166868666
 21
1102.4719771288
 31
0.0
  0
LINE
  5
3A8
  8
0
  6
CONTINUOUS
 62
     7
 10
590.3166868666
 20
1062.4719780229
 30
0.0
 11
590.3166868666
 21
1102.4719771288
 31
0.0
  0
LINE
  5
3A9
  8
0
  6
CONTINUOUS
 62
     7
 10
584.5175200084
 20
1062.4719780229
 30
0.0
 11
590.3166868666
 21
1062.4719780229
 31
0.0
  0
LINE
  5
3AA
  8
0
  6
CONTINUOUS
 62
     7
 10
591.3166814425
 20
1101.4719751022
 30
0.0
 11
591.3166814425
 21
1063.4719800494
 31
0.0
  0
ARC
  5
3AB
  8
0
  6
CONTINUOUS
 62
     7
 10
590.3166832881
 20
1063.4719761773
 30
0.0
 40
0.999998154485902
 50
270.0002050334
 51
0.0002218542
  0
ARC
  5
3AC
  8
0
  6
CONTINUOUS
 62
     7
 10
590.3166938727
 20
1101.4719895589
 30
0.0
 40
0.9999875699672752
 50
359.9991716867
 51
90.0004014258
  0
LINE
  5
3AD
  8
0
  6
CONTINUOUS
 62
     7
 10
446.8166866282
 20
787.471979513
 30
0.0
 11
457.1121000627
 21
787.471979513
 31
0.0
  0
LINE
  5
3AE
  8
0
  6
CONTINUOUS
 62
     7
 10
465.112101374
 20
787.471979513
 30
0.0
 11
557.5212650874
 21
787.471979513
 31
0.0
  0
LINE
  5
3AF
  8
0
  6
CONTINUOUS
 62
     7
 10
565.5212663987
 20
787.471979513
 30
0.0
 11
575.8166798332
 21
787.471979513
 31
0.0
  0
LINE
  5
3B0
  8
0
  6
CONTINUOUS
 62
     7
 10
575.8166798332
 20
772.4719789169
 30
0.0
 11
574.8266764858
 21
772.4719789169
 31
0.0
  0
LINE
  5
3B1
  8
0
  6
CONTINUOUS
 62
     7
 10
543.6144360283
 20
772.4719789169
 30
0.0
 11
543.6144360283
 21
786.4719774864
 31
0.0
  0
LINE
  5
3B2
  8
0
  6
CONTINUOUS
 62
     7
 10
543.6144360283
 20
772.4719789169
 30
0.0
 11
479.0189304331
 21
772.4719789169
 31
0.0
  0
LINE
  5
3B3
  8
0
  6
CONTINUOUS
 62
     7
 10
479.0189304331
 20
786.4719774864
 30
0.0
 11
479.0189304331
 21
772.4719789169
 31
0.0
  0
LINE
  5
3B4
  8
0
  6
CONTINUOUS
 62
     7
 10
447.8066899755
 20
772.4719789169
 30
0.0
 11
446.8166866282
 21
772.4719789169
 31
0.0
  0
LINE
  5
3B5
  8
0
  6
CONTINUOUS
 62
     7
 10
462.7184756973
 20
786.4719774864
 30
0.0
 11
462.7184756973
 21
772.4719789169
 31
0.0
  0
LINE
  5
3B6
  8
0
  6
CONTINUOUS
 62
     7
 10
460.4882710555
 20
772.4719789169
 30
0.0
 11
460.4882710555
 21
786.4719774864
 31
0.0
  0
LINE
  5
3B7
  8
0
  6
CONTINUOUS
 62
     7
 10
460.4882710555
 20
786.4719774864
 30
0.0
 11
462.7184756973
 21
786.4719774864
 31
0.0
  0
LINE
  5
3B8
  8
0
  6
CONTINUOUS
 62
     7
 10
462.7184756973
 20
772.4719789169
 30
0.0
 11
460.4882710555
 21
772.4719789169
 31
0.0
  0
LINE
  5
3B9
  8
0
  6
CONTINUOUS
 62
     7
 10
562.1450954059
 20
786.4719774864
 30
0.0
 11
562.1450954059
 21
772.4719789169
 31
0.0
  0
LINE
  5
3BA
  8
0
  6
CONTINUOUS
 62
     7
 10
559.914890764
 20
772.4719789169
 30
0.0
 11
559.914890764
 21
786.4719774864
 31
0.0
  0
LINE
  5
3BB
  8
0
  6
CONTINUOUS
 62
     7
 10
559.914890764
 20
786.4719774864
 30
0.0
 11
562.1450954059
 21
786.4719774864
 31
0.0
  0
LINE
  5
3BC
  8
0
  6
CONTINUOUS
 62
     7
 10
562.1450954059
 20
772.4719789169
 30
0.0
 11
559.914890764
 21
772.4719789169
 31
0.0
  0
LINE
  5
3BD
  8
0
  6
CONTINUOUS
 62
     7
 10
476.0539383569
 20
772.4719789169
 30
0.0
 11
476.0539383569
 21
786.4719774864
 31
0.0
  0
LINE
  5
3BE
  8
0
  6
CONTINUOUS
 62
     7
 10
476.0539383569
 20
786.4719774864
 30
0.0
 11
462.7184756973
 21
786.4719774864
 31
0.0
  0
LINE
  5
3BF
  8
0
  6
CONTINUOUS
 62
     7
 10
476.0539383569
 20
772.4719789169
 30
0.0
 11
462.7184756973
 21
772.4719789169
 31
0.0
  0
LINE
  5
3C0
  8
0
  6
CONTINUOUS
 62
     7
 10
546.5794281044
 20
786.4719774864
 30
0.0
 11
546.5794281044
 21
772.4719789169
 31
0.0
  0
LINE
  5
3C1
  8
0
  6
CONTINUOUS
 62
     7
 10
559.914890764
 20
786.4719774864
 30
0.0
 11
546.5794281044
 21
786.4719774864
 31
0.0
  0
LINE
  5
3C2
  8
0
  6
CONTINUOUS
 62
     7
 10
559.914890764
 20
772.4719789169
 30
0.0
 11
546.5794281044
 21
772.4719789169
 31
0.0
  0
LINE
  5
3C3
  8
0
  6
CONTINUOUS
 62
     7
 10
448.2494779804
 20
786.4719774864
 30
0.0
 11
448.2494779804
 21
772.4719789169
 31
0.0
  0
LINE
  5
3C4
  8
0
  6
CONTINUOUS
 62
     7
 10
460.4882710555
 20
786.4719774864
 30
0.0
 11
448.2494779804
 21
786.4719774864
 31
0.0
  0
LINE
  5
3C5
  8
0
  6
CONTINUOUS
 62
     7
 10
460.4882710555
 20
772.4719789169
 30
0.0
 11
448.2494779804
 21
772.4719789169
 31
0.0
  0
LINE
  5
3C6
  8
0
  6
CONTINUOUS
 62
     7
 10
574.3838884809
 20
772.4719789169
 30
0.0
 11
574.3838884809
 21
786.4719774864
 31
0.0
  0
LINE
  5
3C7
  8
0
  6
CONTINUOUS
 62
     7
 10
574.3838884809
 20
786.4719774864
 30
0.0
 11
562.1450954059
 21
786.4719774864
 31
0.0
  0
LINE
  5
3C8
  8
0
  6
CONTINUOUS
 62
     7
 10
574.3838884809
 20
772.4719789169
 30
0.0
 11
562.1450954059
 21
772.4719789169
 31
0.0
  0
LINE
  5
3C9
  8
0
  6
CONTINUOUS
 62
     7
 10
476.0539383569
 20
786.4719774864
 30
0.0
 11
479.0189304331
 21
786.4719774864
 31
0.0
  0
LINE
  5
3CA
  8
0
  6
CONTINUOUS
 62
     7
 10
479.0189304331
 20
772.4719789169
 30
0.0
 11
476.0539383569
 21
772.4719789169
 31
0.0
  0
LINE
  5
3CB
  8
0
  6
CONTINUOUS
 62
     7
 10
543.6144360283
 20
786.4719774864
 30
0.0
 11
546.5794281044
 21
786.4719774864
 31
0.0
  0
LINE
  5
3CC
  8
0
  6
CONTINUOUS
 62
     7
 10
546.5794281044
 20
772.4719789169
 30
0.0
 11
543.6144360283
 21
772.4719789169
 31
0.0
  0
LINE
  5
3CD
  8
0
  6
CONTINUOUS
 62
     7
 10
518.3166834468
 20
755.9719827316
 30
0.0
 11
518.3166834468
 21
772.4719789169
 31
0.0
  0
LINE
  5
3CE
  8
0
  6
CONTINUOUS
 62
     7
 10
518.3166834468
 20
755.9719827316
 30
0.0
 11
504.3166830146
 21
755.9719827316
 31
0.0
  0
LINE
  5
3CF
  8
0
  6
CONTINUOUS
 62
     7
 10
504.3166830146
 20
772.4719789169
 30
0.0
 11
504.3166830146
 21
755.9719827316
 31
0.0
  0
LINE
  5
3D0
  8
0
  6
CONTINUOUS
 62
     7
 10
447.8066899755
 20
786.4719774864
 30
0.0
 11
448.2494779804
 21
786.4719774864
 31
0.0
  0
LINE
  5
3D1
  8
0
  6
CONTINUOUS
 62
     7
 10
448.2494779804
 20
772.4719789169
 30
0.0
 11
447.8066899755
 21
772.4719789169
 31
0.0
  0
LINE
  5
3D2
  8
0
  6
CONTINUOUS
 62
     7
 10
574.3838884809
 20
786.4719774864
 30
0.0
 11
574.8266764858
 21
786.4719774864
 31
0.0
  0
LINE
  5
3D3
  8
0
  6
CONTINUOUS
 62
     7
 10
574.8266764858
 20
772.4719789169
 30
0.0
 11
574.3838884809
 21
772.4719789169
 31
0.0
  0
LINE
  5
3D4
  8
0
  6
CONTINUOUS
 62
     7
 10
521.6500163951
 20
755.9719827316
 30
0.0
 11
518.3166834468
 21
755.9719827316
 31
0.0
  0
LINE
  5
3D5
  8
0
  6
CONTINUOUS
 62
     7
 10
504.3166830146
 20
755.9719827316
 30
0.0
 11
500.9833500662
 21
755.9719827316
 31
0.0
  0
LINE
  5
3D6
  8
0
  6
CONTINUOUS
 62
     7
 10
542.316682724
 20
755.9719827316
 30
0.0
 11
521.6500163951
 21
755.9719827316
 31
0.0
  0
LINE
  5
3D7
  8
0
  6
CONTINUOUS
 62
     7
 10
500.9833500662
 20
755.9719827316
 30
0.0
 11
480.3166837373
 21
755.9719827316
 31
0.0
  0
LINE
  5
3D8
  8
0
  6
CONTINUOUS
 62
     7
 10
480.3166837373
 20
755.9719827316
 30
0.0
 11
478.4228057542
 21
755.9719827316
 31
0.0
  0
LINE
  5
3D9
  8
0
  6
CONTINUOUS
 62
     7
 10
544.2105607071
 20
755.9719827316
 30
0.0
 11
542.316682724
 21
755.9719827316
 31
0.0
  0
LINE
  5
3DA
  8
0
  6
CONTINUOUS
 62
     7
 10
478.4228057542
 20
755.9719827316
 30
0.0
 11
474.0416929999
 21
755.9719827316
 31
0.0
  0
LINE
  5
3DB
  8
0
  6
CONTINUOUS
 62
     7
 10
548.5916734615
 20
755.9719827316
 30
0.0
 11
544.2105607071
 21
755.9719827316
 31
0.0
  0
LINE
  5
3DC
  8
0
  6
CONTINUOUS
 62
     7
 10
551.9729518273
 20
755.9719827316
 30
0.0
 11
548.5916734615
 21
755.9719827316
 31
0.0
  0
LINE
  5
3DD
  8
0
  6
CONTINUOUS
 62
     7
 10
474.0416929999
 20
755.9719827316
 30
0.0
 11
470.660414634
 21
755.9719827316
 31
0.0
  0
CIRCLE
  5
3DE
  8
0
  6
CONTINUOUS
 62
     7
 10
511.3166832307
 20
960.9719785593
 30
0.0
 40
16.71537451385996
  0
LINE
  5
3DF
  8
0
  6
CONTINUOUS
 62
     7
 10
488.316683186
 20
975.9719787456
 30
0.0
 11
488.316683186
 21
947.9719788126
 31
0.0
  0
ARC
  5
3E0
  8
0
  6
CONTINUOUS
 62
     7
 10
496.3166832307
 20
975.9719785593
 30
0.0
 40
8.000000000000114
 50
90.0
 51
180.0
  0
LINE
  5
3E1
  8
0
  6
CONTINUOUS
 62
     7
 10
526.3166828954
 20
983.9719791255
 30
0.0
 11
496.316683566
 21
983.9719791255
 31
0.0
  0
ARC
  5
3E2
  8
0
  6
CONTINUOUS
 62
     7
 10
526.3166832307
 20
975.9719785593
 30
0.0
 40
8.000000000000114
 50
0.0
 51
90.0
  0
LINE
  5
3E3
  8
0
  6
CONTINUOUS
 62
     7
 10
534.3166832754
 20
950.971978373
 30
0.0
 11
534.3166832754
 21
975.9719787456
 31
0.0
  0
ARC
  5
3E4
  8
0
  6
CONTINUOUS
 62
     7
 10
539.3166832307
 20
950.9719785593
 30
0.0
 40
5.0
 50
180.0
 51
220.0319909486
  0
LINE
  5
3E5
  8
0
  6
CONTINUOUS
 62
     7
 10
535.4882554093
 20
935.9719787083
 30
0.0
 11
535.4882554093
 21
947.7559026621
 31
0.0
  0
LINE
  5
3E6
  8
0
  6
CONTINUOUS
 62
     7
 10
535.4882554093
 20
935.9719787083
 30
0.0
 11
487.1451110521
 21
935.9719787083
 31
0.0
  0
LINE
  5
3E7
  8
0
  6
CONTINUOUS
 62
     7
 10
487.1451110521
 20
947.9719788126
 30
0.0
 11
487.1451110521
 21
935.9719787083
 31
0.0
  0
LINE
  5
3E8
  8
0
  6
CONTINUOUS
 62
     7
 10
488.316683186
 20
947.9719788126
 30
0.0
 11
487.1451110521
 21
947.9719788126
 31
0.0
  0
ARC
  5
3E9
  8
0
  6
CONTINUOUS
 62
     7
 10
496.3166832307
 20
975.9719785593
 30
0.0
 40
10.0
 50
90.0
 51
180.0
  0
LINE
  5
3EA
  8
0
  6
CONTINUOUS
 62
     7
 10
496.316683566
 20
985.9719794534
 30
0.0
 11
496.316683566
 21
983.9719791255
 31
0.0
  0
LINE
  5
3EB
  8
0
  6
CONTINUOUS
 62
     7
 10
486.3166828582
 20
975.9719787456
 30
0.0
 11
488.316683186
 21
975.9719787456
 31
0.0
  0
LINE
  5
3EC
  8
0
  6
CONTINUOUS
 62
     7
 10
526.3166828954
 20
985.9719794534
 30
0.0
 11
526.3166828954
 21
983.9719791255
 31
0.0
  0
ARC
  5
3ED
  8
0
  6
CONTINUOUS
 62
     7
 10
526.3166832307
 20
975.9719785593
 30
0.0
 40
10.0
 50
0.0
 51
90.0
  0
LINE
  5
3EE
  8
0
  6
CONTINUOUS
 62
     7
 10
534.3166832754
 20
975.9719787456
 30
0.0
 11
536.3166836032
 21
975.9719787456
 31
0.0
  0
LINE
  5
3EF
  8
0
  6
CONTINUOUS
 62
     7
 10
496.316683566
 20
985.9719794534
 30
0.0
 11
526.3166828954
 21
985.9719794534
 31
0.0
  0
LINE
  5
3F0
  8
0
  6
CONTINUOUS
 62
     7
 10
536.3166836032
 20
975.9719787456
 30
0.0
 11
536.3166836032
 21
950.971978373
 31
0.0
  0
LINE
  5
3F1
  8
0
  6
CONTINUOUS
 62
     7
 10
534.3166832754
 20
950.971978373
 30
0.0
 11
536.3166836032
 21
950.971978373
 31
0.0
  0
LINE
  5
3F2
  8
0
  6
CONTINUOUS
 62
     7
 10
486.3166828582
 20
947.9719788126
 30
0.0
 11
486.3166828582
 21
975.9719787456
 31
0.0
  0
ARC
  5
3F3
  8
0
  6
CONTINUOUS
 62
     7
 10
539.3166832307
 20
950.9719785593
 30
0.0
 40
3.0
 50
180.0
 51
220.0319909486
  0
POLYLINE
  5
3F4
  8
0
  6
CONTINUOUS
 62
     7
 66
     1
 10
0.0
 20
0.0
 30
0.0
 70
   128
  0
VERTEX
  5
839
  8
0
  6
CONTINUOUS
 62
     7
 10
535.4882554093
 20
947.7559026621
 30
0.0
  0
VERTEX
  5
83A
  8
0
  6
CONTINUOUS
 62
     7
 10
535.7870125154
 20
948.0068726755
 30
0.0
  0
VERTEX
  5
83B
  8
0
  6
CONTINUOUS
 62
     7
 10
536.0742864141
 20
948.2481979124
 30
0.0
  0
VERTEX
  5
83C
  8
0
  6
CONTINUOUS
 62
     7
 10
536.3390409329
 20
948.4706051938
 30
0.0
  0
VERTEX
  5
83D
  8
0
  6
CONTINUOUS
 62
     7
 10
536.5710985789
 20
948.6655459098
 30
0.0
  0
VERTEX
  5
83E
  8
0
  6
CONTINUOUS
 62
     7
 10
536.7615447321
 20
948.8255303643
 30
0.0
  0
VERTEX
  5
83F
  8
0
  6
CONTINUOUS
 62
     7
 10
536.9030591974
 20
948.9444090344
 30
0.0
  0
VERTEX
  5
840
  8
0
  6
CONTINUOUS
 62
     7
 10
536.990201188
 20
949.017614714
 30
0.0
  0
VERTEX
  5
841
  8
0
  6
CONTINUOUS
 62
     7
 10
537.0196272561
 20
949.0423329465
 30
0.0
  0
SEQEND
  5
9C4
  8
0
  6
CONTINUOUS
 62
     7
  0
LINE
  5
3F5
  8
0
  6
CONTINUOUS
 62
     7
 10
485.7308977225
 20
935.9719787083
 30
0.0
 11
485.7308977225
 21
947.9719788126
 31
0.0
  0
LINE
  5
3F6
  8
0
  6
CONTINUOUS
 62
     7
 10
485.7308977225
 20
947.9719788126
 30
0.0
 11
487.1451110521
 21
947.9719788126
 31
0.0
  0
LINE
  5
3F7
  8
0
  6
CONTINUOUS
 62
     7
 10
487.1451110521
 20
935.9719787083
 30
0.0
 11
485.7308977225
 21
935.9719787083
 31
0.0
  0
ARC
  5
3F8
  8
0
  6
CONTINUOUS
 62
     7
 10
536.017775103
 20
948.4850240947
 30
0.0
 40
1.146429628408937
 50
320.5063137518
 51
29.0862484827
  0
LINE
  5
3F9
  8
0
  6
CONTINUOUS
 62
     7
 10
535.4882554093
 20
947.7559026621
 30
0.0
 11
536.9024687388
 21
947.7559026621
 31
0.0
  0
LINE
  5
3FA
  8
0
  6
CONTINUOUS
 62
     7
 10
536.9024687388
 20
947.7559026621
 30
0.0
 11
536.9024687388
 21
935.9719787083
 31
0.0
  0
LINE
  5
3FB
  8
0
  6
CONTINUOUS
 62
     7
 10
536.9024687388
 20
935.9719787083
 30
0.0
 11
535.4882554093
 21
935.9719787083
 31
0.0
  0
ARC
  5
3FC
  8
0
  6
CONTINUOUS
 62
     7
 10
539.3166824532
 20
950.9719768261
 30
0.0
 40
2.999998013463818
 50
220.0319777848
 51
270.0000313551
  0
ARC
  5
3FD
  8
0
  6
CONTINUOUS
 62
     7
 10
538.9631261973
 20
946.2219757904
 30
0.0
 40
1.785360961998527
 50
351.9506378472
 51
78.5781237709
  0
ARC
  5
3FE
  8
0
  6
CONTINUOUS
 62
     7
 10
540.7309004851
 20
950.9719878274
 30
0.0
 40
5.000009342552032
 50
220.032036057
 51
269.9999649288
  0
LINE
  5
3FF
  8
0
  6
CONTINUOUS
 62
     7
 10
551.8522188941
 20
945.9719784848
 30
0.0
 11
540.7308974245
 21
945.9719784848
 31
0.0
  0
LINE
  5
400
  8
0
  6
CONTINUOUS
 62
     7
 10
551.8522188941
 20
935.9719787083
 30
0.0
 11
551.8522188941
 21
945.9719784848
 31
0.0
  0
LINE
  5
401
  8
0
  6
CONTINUOUS
 62
     7
 10
551.8522188941
 20
935.9719787083
 30
0.0
 11
536.9024687388
 21
935.9719787083
 31
0.0
  0
LINE
  5
402
  8
0
  6
CONTINUOUS
 62
     7
 10
470.7811475673
 20
947.9719788126
 30
0.0
 11
470.7811475673
 21
935.9719787083
 31
0.0
  0
LINE
  5
403
  8
0
  6
CONTINUOUS
 62
     7
 10
485.7308977225
 20
935.9719787083
 30
0.0
 11
470.7811475673
 21
935.9719787083
 31
0.0
  0
LINE
  5
404
  8
0
  6
CONTINUOUS
 62
     7
 10
470.7811475673
 20
947.9719788126
 30
0.0
 11
485.7308977225
 21
947.9719788126
 31
0.0
  0
POLYLINE
  5
405
  8
0
  6
CONTINUOUS
 62
     7
 66
     1
 10
0.0
 20
0.0
 30
0.0
 70
   128
  0
VERTEX
  5
842
  8
0
  6
CONTINUOUS
 62
     7
 10
551.8522188941
 20
945.9719784848
 30
0.0
  0
VERTEX
  5
843
  8
0
  6
CONTINUOUS
 62
     7
 10
551.7555327096
 20
946.3192742608
 30
0.0
  0
VERTEX
  5
844
  8
0
  6
CONTINUOUS
 62
     7
 10
551.4684245863
 20
946.656018152
 30
0.0
  0
VERTEX
  5
845
  8
0
  6
CONTINUOUS
 62
     7
 10
550.9996079782
 20
946.9719786487
 30
0.0
  0
VERTEX
  5
846
  8
0
  6
CONTINUOUS
 62
     7
 10
550.3633321205
 20
947.2575538151
 30
0.0
  0
VERTEX
  5
847
  8
0
  6
CONTINUOUS
 62
     7
 10
549.5789312699
 20
947.50406745
 30
0.0
  0
VERTEX
  5
848
  8
0
  6
CONTINUOUS
 62
     7
 10
548.6702361086
 20
947.7040298573
 30
0.0
  0
VERTEX
  5
849
  8
0
  6
CONTINUOUS
 62
     7
 10
547.6648584881
 20
947.8513641573
 30
0.0
  0
VERTEX
  5
84A
  8
0
  6
CONTINUOUS
 62
     7
 10
546.593345789
 20
947.9415944136
 30
0.0
  0
VERTEX
  5
84B
  8
0
  6
CONTINUOUS
 62
     7
 10
545.4882570484
 20
947.9719788126
 30
0.0
  0
SEQEND
  5
9C5
  8
0
  6
CONTINUOUS
 62
     7
  0
LINE
  5
406
  8
0
  6
CONTINUOUS
 62
     7
 10
539.316684095
 20
947.9719788126
 30
0.0
 11
545.4882570484
 21
947.9719788126
 31
0.0
  0
ARC
  5
407
  8
0
  6
CONTINUOUS
 62
     7
 10
550.2556997818
 20
945.9556511558
 30
0.0
 40
5.132076545709905
 50
0.1822826712
 51
23.1342748648
  0
LINE
  5
408
  8
0
  6
CONTINUOUS
 62
     7
 10
551.8522188941
 20
945.9719784848
 30
0.0
 11
555.3877503553
 21
945.9719784848
 31
0.0
  0
LINE
  5
409
  8
0
  6
CONTINUOUS
 62
     7
 10
545.4882570484
 20
947.9719788126
 30
0.0
 11
554.9750887731
 21
947.9719788126
 31
0.0
  0
LINE
  5
40A
  8
0
  6
CONTINUOUS
 62
     7
 10
467.2456161061
 20
935.9719787083
 30
0.0
 11
467.2456161061
 21
947.9719788126
 31
0.0
  0
LINE
  5
40B
  8
0
  6
CONTINUOUS
 62
     7
 10
470.7811475673
 20
935.9719787083
 30
0.0
 11
467.2456161061
 21
935.9719787083
 31
0.0
  0
LINE
  5
40C
  8
0
  6
CONTINUOUS
 62
     7
 10
467.2456161061
 20
947.9719788126
 30
0.0
 11
470.7811475673
 21
947.9719788126
 31
0.0
  0
LINE
  5
40D
  8
0
  6
CONTINUOUS
 62
     7
 10
555.3877503553
 20
945.9719784848
 30
0.0
 11
555.3877503553
 21
935.9719787083
 31
0.0
  0
LINE
  5
40E
  8
0
  6
CONTINUOUS
 62
     7
 10
555.3877503553
 20
935.9719787083
 30
0.0
 11
551.8522188941
 21
935.9719787083
 31
0.0
  0
LINE
  5
40F
  8
0
  6
CONTINUOUS
 62
     7
 10
576.907295821
 20
947.9719788126
 30
0.0
 11
576.907295821
 21
935.9719787083
 31
0.0
  0
LINE
  5
410
  8
0
  6
CONTINUOUS
 62
     7
 10
575.2326437214
 20
935.9719787083
 30
0.0
 11
575.2326437214
 21
947.9719788126
 31
0.0
  0
LINE
  5
411
  8
0
  6
CONTINUOUS
 62
     7
 10
576.907295821
 20
935.9719787083
 30
0.0
 11
575.2326437214
 21
935.9719787083
 31
0.0
  0
LINE
  5
412
  8
0
  6
CONTINUOUS
 62
     7
 10
575.2326437214
 20
947.9719788126
 30
0.0
 11
576.907295821
 21
947.9719788126
 31
0.0
  0
LINE
  5
413
  8
0
  6
CONTINUOUS
 62
     7
 10
575.2326437214
 20
935.9719787083
 30
0.0
 11
555.3877503553
 21
935.9719787083
 31
0.0
  0
LINE
  5
414
  8
0
  6
CONTINUOUS
 62
     7
 10
575.2326437214
 20
947.9719788126
 30
0.0
 11
554.9750887731
 21
947.9719788126
 31
0.0
  0
LINE
  5
415
  8
0
  6
CONTINUOUS
 62
     7
 10
447.40072274
 20
947.9719788126
 30
0.0
 11
447.40072274
 21
935.9719787083
 31
0.0
  0
LINE
  5
416
  8
0
  6
CONTINUOUS
 62
     7
 10
467.2456161061
 20
935.9719787083
 30
0.0
 11
447.40072274
 21
935.9719787083
 31
0.0
  0
LINE
  5
417
  8
0
  6
CONTINUOUS
 62
     7
 10
467.2456161061
 20
947.9719788126
 30
0.0
 11
447.40072274
 21
947.9719788126
 31
0.0
  0
LINE
  5
418
  8
0
  6
CONTINUOUS
 62
     7
 10
445.7260706404
 20
935.9719787083
 30
0.0
 11
445.7260706404
 21
947.9719788126
 31
0.0
  0
LINE
  5
419
  8
0
  6
CONTINUOUS
 62
     7
 10
447.40072274
 20
935.9719787083
 30
0.0
 11
445.7260706404
 21
935.9719787083
 31
0.0
  0
LINE
  5
41A
  8
0
  6
CONTINUOUS
 62
     7
 10
445.7260706404
 20
947.9719788126
 30
0.0
 11
447.40072274
 21
947.9719788126
 31
0.0
  0
LINE
  5
41B
  8
0
  6
CONTINUOUS
 62
     7
 10
413.8276019075
 20
947.9719788126
 30
0.0
 11
413.8276019075
 21
935.9719787083
 31
0.0
  0
LINE
  5
41C
  8
0
  6
CONTINUOUS
 62
     7
 10
445.7260706404
 20
935.9719787083
 30
0.0
 11
413.8276019075
 21
935.9719787083
 31
0.0
  0
LINE
  5
41D
  8
0
  6
CONTINUOUS
 62
     7
 10
413.8276019075
 20
947.9719788126
 30
0.0
 11
445.7260706404
 21
947.9719788126
 31
0.0
  0
LINE
  5
41E
  8
0
  6
CONTINUOUS
 62
     7
 10
608.8057645538
 20
935.9719787083
 30
0.0
 11
608.8057645538
 21
947.9719788126
 31
0.0
  0
LINE
  5
41F
  8
0
  6
CONTINUOUS
 62
     7
 10
608.8057645538
 20
935.9719787083
 30
0.0
 11
576.907295821
 21
935.9719787083
 31
0.0
  0
LINE
  5
420
  8
0
  6
CONTINUOUS
 62
     7
 10
576.907295821
 20
947.9719788126
 30
0.0
 11
608.8057645538
 21
947.9719788126
 31
0.0
  0
LINE
  5
421
  8
0
  6
CONTINUOUS
 62
     7
 10
529.9275779107
 20
934.371977701
 30
0.0
 11
606.3166820386
 21
934.371977701
 31
0.0
  0
LINE
  5
422
  8
0
  6
CONTINUOUS
 62
     7
 10
416.3166844228
 20
934.371977701
 30
0.0
 11
492.7057885507
 21
934.371977701
 31
0.0
  0
ARC
  5
423
  8
0
  6
CONTINUOUS
 62
     7
 10
514.6471320846
 20
1091.8880638492
 30
0.0
 40
158.2555193985196
 50
272.0668643923
 51
275.5408568501
  0
POLYLINE
  5
424
  8
0
  6
CONTINUOUS
 62
     7
 66
     1
 10
0.0
 20
0.0
 30
0.0
 70
   128
  0
VERTEX
  5
84C
  8
0
  6
CONTINUOUS
 62
     7
 10
502.2786279151
 20
933.7355025403
 30
0.0
  0
VERTEX
  5
84D
  8
0
  6
CONTINUOUS
 62
     7
 10
511.3154484601
 20
933.9441579125
 30
0.0
  0
VERTEX
  5
84E
  8
0
  6
CONTINUOUS
 62
     7
 10
520.3547385463
 20
933.7355025403
 30
0.0
  0
SEQEND
  5
9C6
  8
0
  6
CONTINUOUS
 62
     7
  0
POLYLINE
  5
425
  8
0
  6
CONTINUOUS
 62
     7
 66
     1
 10
0.0
 20
0.0
 30
0.0
 70
   128
  0
VERTEX
  5
84F
  8
0
  6
CONTINUOUS
 62
     7
 10
492.7057885507
 20
934.371977701
 30
0.0
  0
VERTEX
  5
850
  8
0
  6
CONTINUOUS
 62
     7
 10
495.5623877177
 20
934.1923237137
 30
0.0
  0
VERTEX
  5
851
  8
0
  6
CONTINUOUS
 62
     7
 10
499.1850080842
 20
933.7960161559
 30
0.0
  0
VERTEX
  5
852
  8
0
  6
CONTINUOUS
 62
     7
 10
502.2786279151
 20
933.7355025403
 30
0.0
  0
SEQEND
  5
9C7
  8
0
  6
CONTINUOUS
 62
     7
  0
LINE
  5
426
  8
0
  6
CONTINUOUS
 62
     7
 10
520.3166828433
 20
933.3826486311
 30
0.0
 11
520.3547385463
 21
933.7355025403
 31
0.0
  0
POLYLINE
  5
427
  8
0
  6
CONTINUOUS
 62
     7
 66
     1
 10
0.0
 20
0.0
 30
0.0
 70
   128
  0
VERTEX
  5
853
  8
0
  6
CONTINUOUS
 62
     7
 10
520.3166828433
 20
933.3826486311
 30
0.0
  0
VERTEX
  5
854
  8
0
  6
CONTINUOUS
 62
     7
 10
511.3155325711
 20
933.5736703418
 30
0.0
  0
VERTEX
  5
855
  8
0
  6
CONTINUOUS
 62
     7
 10
502.3166836181
 20
933.3826486311
 30
0.0
  0
SEQEND
  5
9C8
  8
0
  6
CONTINUOUS
 62
     7
  0
LINE
  5
428
  8
0
  6
CONTINUOUS
 62
     7
 10
502.2786279151
 20
933.7355025403
 30
0.0
 11
502.3166836181
 21
933.3826486311
 31
0.0
  0
POLYLINE
  5
429
  8
0
  6
CONTINUOUS
 62
     7
 66
     1
 10
0.0
 20
0.0
 30
0.0
 70
   128
  0
VERTEX
  5
856
  8
0
  6
CONTINUOUS
 62
     7
 10
502.3166836181
 20
931.4719770394
 30
0.0
  0
VERTEX
  5
857
  8
0
  6
CONTINUOUS
 62
     7
 10
500.5802010128
 20
931.4339977048
 30
0.0
  0
VERTEX
  5
858
  8
0
  6
CONTINUOUS
 62
     7
 10
498.8964815566
 20
931.3212108157
 30
0.0
  0
VERTEX
  5
859
  8
0
  6
CONTINUOUS
 62
     7
 10
497.3166827986
 20
931.1370436392
 30
0.0
  0
VERTEX
  5
85A
  8
0
  6
CONTINUOUS
 62
     7
 10
495.8888069668
 20
930.8870878361
 30
0.0
  0
VERTEX
  5
85B
  8
0
  6
CONTINUOUS
 62
     7
 10
494.6562387922
 20
930.5789467237
 30
0.0
  0
VERTEX
  5
85C
  8
0
  6
CONTINUOUS
 62
     7
 10
493.6564286181
 20
930.2219782315
 30
0.0
  0
VERTEX
  5
85D
  8
0
  6
CONTINUOUS
 62
     7
 10
492.9197561869
 20
929.8270304046
 30
0.0
  0
VERTEX
  5
85E
  8
0
  6
CONTINUOUS
 62
     7
 10
492.4686049053
 20
929.4060986779
 30
0.0
  0
VERTEX
  5
85F
  8
0
  6
CONTINUOUS
 62
     7
 10
492.3166838416
 20
928.9719794236
 30
0.0
  0
SEQEND
  5
9C9
  8
0
  6
CONTINUOUS
 62
     7
  0
ARC
  5
42A
  8
0
  6
CONTINUOUS
 62
     7
 10
487.3166832307
 20
928.9719785593
 30
0.0
 40
5.0
 50
0.0
 51
90.0
  0
POLYLINE
  5
42B
  8
0
  6
CONTINUOUS
 62
     7
 66
     1
 10
0.0
 20
0.0
 30
0.0
 70
   128
  0
VERTEX
  5
860
  8
0
  6
CONTINUOUS
 62
     7
 10
502.3166836181
 20
933.3826486311
 30
0.0
  0
VERTEX
  5
861
  8
0
  6
CONTINUOUS
 62
     7
 10
499.1835421824
 20
933.4358606778
 30
0.0
  0
VERTEX
  5
862
  8
0
  6
CONTINUOUS
 62
     7
 10
496.0080609599
 20
933.7628685228
 30
0.0
  0
VERTEX
  5
863
  8
0
  6
CONTINUOUS
 62
     7
 10
492.7841500321
 20
933.9719783805
 30
0.0
  0
SEQEND
  5
9CA
  8
0
  6
CONTINUOUS
 62
     7
  0
LINE
  5
42C
  8
0
  6
CONTINUOUS
 62
     7
 10
502.3166836181
 20
931.4719770394
 30
0.0
 11
502.3166836181
 21
933.3826486311
 31
0.0
  0
LINE
  5
42D
  8
0
  6
CONTINUOUS
 62
     7
 10
492.7057885507
 20
934.371977701
 30
0.0
 11
492.7841500321
 21
933.9719783805
 31
0.0
  0
POLYLINE
  5
42E
  8
0
  6
CONTINUOUS
 62
     7
 66
     1
 10
0.0
 20
0.0
 30
0.0
 70
   128
  0
VERTEX
  5
864
  8
0
  6
CONTINUOUS
 62
     7
 10
529.8492164293
 20
933.9719783805
 30
0.0
  0
VERTEX
  5
865
  8
0
  6
CONTINUOUS
 62
     7
 10
526.6255532333
 20
933.7629057757
 30
0.0
  0
VERTEX
  5
866
  8
0
  6
CONTINUOUS
 62
     7
 10
523.450251756
 20
933.4358848922
 30
0.0
  0
VERTEX
  5
867
  8
0
  6
CONTINUOUS
 62
     7
 10
520.3166828433
 20
933.3826486311
 30
0.0
  0
SEQEND
  5
9CB
  8
0
  6
CONTINUOUS
 62
     7
  0
LINE
  5
42F
  8
0
  6
CONTINUOUS
 62
     7
 10
529.8492164293
 20
933.9719783805
 30
0.0
 11
529.9275779107
 21
934.371977701
 31
0.0
  0
ARC
  5
430
  8
0
  6
CONTINUOUS
 62
     7
 10
535.3166832307
 20
928.9719785593
 30
0.0
 40
5.0
 50
90.0
 51
180.0
  0
POLYLINE
  5
431
  8
0
  6
CONTINUOUS
 62
     7
 66
     1
 10
0.0
 20
0.0
 30
0.0
 70
   128
  0
VERTEX
  5
868
  8
0
  6
CONTINUOUS
 62
     7
 10
530.3166826197
 20
928.9719794236
 30
0.0
  0
VERTEX
  5
869
  8
0
  6
CONTINUOUS
 62
     7
 10
530.1647615561
 20
929.4060986779
 30
0.0
  0
VERTEX
  5
86A
  8
0
  6
CONTINUOUS
 62
     7
 10
529.7136102745
 20
929.8270304046
 30
0.0
  0
VERTEX
  5
86B
  8
0
  6
CONTINUOUS
 62
     7
 10
528.9769378433
 20
930.2219782315
 30
0.0
  0
VERTEX
  5
86C
  8
0
  6
CONTINUOUS
 62
     7
 10
527.9771276691
 20
930.5789467237
 30
0.0
  0
VERTEX
  5
86D
  8
0
  6
CONTINUOUS
 62
     7
 10
526.7445594945
 20
930.8870878361
 30
0.0
  0
VERTEX
  5
86E
  8
0
  6
CONTINUOUS
 62
     7
 10
525.3166836628
 20
931.1370436392
 30
0.0
  0
VERTEX
  5
86F
  8
0
  6
CONTINUOUS
 62
     7
 10
523.7368849048
 20
931.3212108157
 30
0.0
  0
VERTEX
  5
870
  8
0
  6
CONTINUOUS
 62
     7
 10
522.0531654486
 20
931.4339977048
 30
0.0
  0
VERTEX
  5
871
  8
0
  6
CONTINUOUS
 62
     7
 10
520.3166828433
 20
931.4719770394
 30
0.0
  0
SEQEND
  5
9CC
  8
0
  6
CONTINUOUS
 62
     7
  0
LINE
  5
432
  8
0
  6
CONTINUOUS
 62
     7
 10
520.3166828433
 20
931.4719770394
 30
0.0
 11
520.3166828433
 21
933.3826486311
 31
0.0
  0
LINE
  5
433
  8
0
  6
CONTINUOUS
 62
     7
 10
520.3166828433
 20
931.4719770394
 30
0.0
 11
502.3166836181
 21
931.4719770394
 31
0.0
  0
LINE
  5
434
  8
0
  6
CONTINUOUS
 62
     7
 10
492.7841500321
 20
933.9719783805
 30
0.0
 11
416.7166837433
 21
933.9719783805
 31
0.0
  0
LINE
  5
435
  8
0
  6
CONTINUOUS
 62
     7
 10
605.9166827181
 20
933.9719783805
 30
0.0
 11
529.8492164293
 21
933.9719783805
 31
0.0
  0
ARC
  5
436
  8
0
  6
CONTINUOUS
 62
     7
 10
499.8199821075
 20
954.542034045
 30
0.0
 40
69.95694921216312
 50
263.8428435164
 51
272.0452699243
  0
LINE
  5
437
  8
0
  6
CONTINUOUS
 62
     7
 10
492.3166838416
 20
884.9886354349
 30
0.0
 11
492.3166838416
 21
928.9719794236
 31
0.0
  0
LINE
  5
438
  8
0
  6
CONTINUOUS
 62
     7
 10
502.3166836181
 20
931.4719770394
 30
0.0
 11
502.3166836181
 21
884.6296515606
 31
0.0
  0
ARC
  5
439
  8
0
  6
CONTINUOUS
 62
     7
 10
522.9159827485
 20
951.684011733
 30
0.0
 40
67.10472098237022
 50
267.7800938687
 51
276.3317926906
  0
LINE
  5
43A
  8
0
  6
CONTINUOUS
 62
     7
 10
520.3166828433
 20
884.6296515606
 30
0.0
 11
520.3166828433
 21
931.4719770394
 31
0.0
  0
LINE
  5
43B
  8
0
  6
CONTINUOUS
 62
     7
 10
530.3166826197
 20
928.9719794236
 30
0.0
 11
530.3166826197
 21
884.9886354349
 31
0.0
  0
LINE
  5
43C
  8
0
  6
CONTINUOUS
 62
     7
 10
502.3166836181
 20
884.6296515606
 30
0.0
 11
520.3166828433
 21
884.6296515606
 31
0.0
  0
LINE
  5
43D
  8
0
  6
CONTINUOUS
 62
     7
 10
536.3166836032
 20
950.971978373
 30
0.0
 11
541.4595958719
 21
950.971978373
 31
0.0
  0
POLYLINE
  5
43E
  8
0
  6
CONTINUOUS
 62
     7
 66
     1
 10
0.0
 20
0.0
 30
0.0
 70
   128
  0
VERTEX
  5
872
  8
0
  6
CONTINUOUS
 62
     7
 10
542.7332409599
 20
947.9719788126
 30
0.0
  0
VERTEX
  5
873
  8
0
  6
CONTINUOUS
 62
     7
 10
542.484764097
 20
948.0296230234
 30
0.0
  0
VERTEX
  5
874
  8
0
  6
CONTINUOUS
 62
     7
 10
542.2458370158
 20
948.2003400392
 30
0.0
  0
VERTEX
  5
875
  8
0
  6
CONTINUOUS
 62
     7
 10
542.0256406942
 20
948.477569624
 30
0.0
  0
VERTEX
  5
876
  8
0
  6
CONTINUOUS
 62
     7
 10
541.8326371291
 20
948.8506583787
 30
0.0
  0
VERTEX
  5
877
  8
0
  6
CONTINUOUS
 62
     7
 10
541.6742433736
 20
949.305267661
 30
0.0
  0
VERTEX
  5
878
  8
0
  6
CONTINUOUS
 62
     7
 10
541.5565446892
 20
949.8239286534
 30
0.0
  0
VERTEX
  5
879
  8
0
  6
CONTINUOUS
 62
     7
 10
541.4840673038
 20
950.3867073275
 30
0.0
  0
VERTEX
  5
87A
  8
0
  6
CONTINUOUS
 62
     7
 10
541.4595958719
 20
950.971978373
 30
0.0
  0
SEQEND
  5
9CD
  8
0
  6
CONTINUOUS
 62
     7
  0
POLYLINE
  5
43F
  8
0
  6
CONTINUOUS
 62
     7
 66
     1
 10
0.0
 20
0.0
 30
0.0
 70
   128
  0
VERTEX
  5
87B
  8
0
  6
CONTINUOUS
 62
     7
 10
481.1737705895
 20
950.971978373
 30
0.0
  0
VERTEX
  5
87C
  8
0
  6
CONTINUOUS
 62
     7
 10
481.1492991575
 20
950.3867073275
 30
0.0
  0
VERTEX
  5
87D
  8
0
  6
CONTINUOUS
 62
     7
 10
481.0768217721
 20
949.8239286534
 30
0.0
  0
VERTEX
  5
87E
  8
0
  6
CONTINUOUS
 62
     7
 10
480.9591230878
 20
949.305267661
 30
0.0
  0
VERTEX
  5
87F
  8
0
  6
CONTINUOUS
 62
     7
 10
480.8007293323
 20
948.8506583787
 30
0.0
  0
VERTEX
  5
880
  8
0
  6
CONTINUOUS
 62
     7
 10
480.6077257672
 20
948.477569624
 30
0.0
  0
VERTEX
  5
881
  8
0
  6
CONTINUOUS
 62
     7
 10
480.3875294456
 20
948.2003400392
 30
0.0
  0
VERTEX
  5
882
  8
0
  6
CONTINUOUS
 62
     7
 10
480.1486023643
 20
948.0296230234
 30
0.0
  0
VERTEX
  5
883
  8
0
  6
CONTINUOUS
 62
     7
 10
479.9001255014
 20
947.9719788126
 30
0.0
  0
SEQEND
  5
9CE
  8
0
  6
CONTINUOUS
 62
     7
  0
LINE
  5
440
  8
0
  6
CONTINUOUS
 62
     7
 10
481.1737705895
 20
950.971978373
 30
0.0
 11
486.3166828582
 21
950.971978373
 31
0.0
  0
LINE
  5
441
  8
0
  6
CONTINUOUS
 62
     7
 10
455.031693069
 20
947.9719788126
 30
0.0
 11
455.031693069
 21
950.971978373
 31
0.0
  0
LINE
  5
442
  8
0
  6
CONTINUOUS
 62
     7
 10
455.031693069
 20
950.971978373
 30
0.0
 11
479.9001255014
 21
950.971978373
 31
0.0
  0
LINE
  5
443
  8
0
  6
CONTINUOUS
 62
     7
 10
479.9001255014
 20
947.9719788126
 30
0.0
 11
479.9001255014
 21
950.971978373
 31
0.0
  0
LINE
  5
444
  8
0
  6
CONTINUOUS
 62
     7
 10
567.6016733923
 20
950.971978373
 30
0.0
 11
567.6016733923
 21
947.9719788126
 31
0.0
  0
LINE
  5
445
  8
0
  6
CONTINUOUS
 62
     7
 10
542.7332409599
 20
950.971978373
 30
0.0
 11
542.7332409599
 21
947.9719788126
 31
0.0
  0
LINE
  5
446
  8
0
  6
CONTINUOUS
 62
     7
 10
542.7332409599
 20
950.971978373
 30
0.0
 11
567.6016733923
 21
950.971978373
 31
0.0
  0
LINE
  5
447
  8
0
  6
CONTINUOUS
 62
     7
 10
481.1737705895
 20
950.971978373
 30
0.0
 11
479.9001255014
 21
950.971978373
 31
0.0
  0
LINE
  5
448
  8
0
  6
CONTINUOUS
 62
     7
 10
542.7332409599
 20
950.971978373
 30
0.0
 11
541.4595958719
 21
950.971978373
 31
0.0
  0
ARC
  5
449
  8
0
  6
CONTINUOUS
 62
     7
 10
450.3655198887
 20
950.566876594
 30
0.0
 40
2.662772789832161
 50
282.9643990867
 51
8.75069156
  0
LINE
  5
44A
  8
0
  6
CONTINUOUS
 62
     7
 10
452.9972971359
 20
950.971978373
 30
0.0
 11
455.031693069
 21
950.971978373
 31
0.0
  0
LINE
  5
44B
  8
0
  6
CONTINUOUS
 62
     7
 10
567.6016733923
 20
950.971978373
 30
0.0
 11
569.6360693255
 21
950.971978373
 31
0.0
  0
ARC
  5
44C
  8
0
  6
CONTINUOUS
 62
     7
 10
572.2678465727
 20
950.566876594
 30
0.0
 40
2.662772789832148
 50
171.24930844
 51
257.0356009133
  0
LINE
  5
44D
  8
0
  6
CONTINUOUS
 62
     7
 10
481.1737705895
 20
960.9719786152
 30
0.0
 11
481.1737705895
 21
950.971978373
 31
0.0
  0
LINE
  5
44E
  8
0
  6
CONTINUOUS
 62
     7
 10
541.4595958719
 20
950.971978373
 30
0.0
 11
541.4595958719
 21
960.9719786152
 31
0.0
  0
LINE
  5
44F
  8
0
  6
CONTINUOUS
 62
     7
 10
609.3166806677
 20
947.9719788126
 30
0.0
 11
609.3166806677
 21
935.9719787083
 31
0.0
  0
LINE
  5
450
  8
0
  6
CONTINUOUS
 62
     7
 10
609.3166806677
 20
935.9719787083
 30
0.0
 11
608.8057645538
 21
935.9719787083
 31
0.0
  0
LINE
  5
451
  8
0
  6
CONTINUOUS
 62
     7
 10
608.8057645538
 20
947.9719788126
 30
0.0
 11
609.3166806677
 21
947.9719788126
 31
0.0
  0
LINE
  5
452
  8
0
  6
CONTINUOUS
 62
     7
 10
413.3166857937
 20
935.9719787083
 30
0.0
 11
413.3166857937
 21
947.9719788126
 31
0.0
  0
LINE
  5
453
  8
0
  6
CONTINUOUS
 62
     7
 10
413.8276019075
 20
935.9719787083
 30
0.0
 11
413.3166857937
 21
935.9719787083
 31
0.0
  0
LINE
  5
454
  8
0
  6
CONTINUOUS
 62
     7
 10
413.3166857937
 20
947.9719788126
 30
0.0
 11
413.8276019075
 21
947.9719788126
 31
0.0
  0
LINE
  5
455
  8
0
  6
CONTINUOUS
 62
     7
 10
569.6360693255
 20
950.971978373
 30
0.0
 11
577.523056505
 21
950.971978373
 31
0.0
  0
ARC
  5
456
  8
0
  6
CONTINUOUS
 62
     7
 10
580.2294305811
 20
950.6664747998
 30
0.0
 40
2.723562570054046
 50
173.5595452488
 51
261.6217572184
  0
ARC
  5
457
  8
0
  6
CONTINUOUS
 62
     7
 10
442.4039358803
 20
950.6664747998
 30
0.0
 40
2.723562570054103
 50
278.3782427816
 51
6.4404547512
  0
LINE
  5
458
  8
0
  6
CONTINUOUS
 62
     7
 10
445.1103099564
 20
950.971978373
 30
0.0
 11
452.9972971359
 21
950.971978373
 31
0.0
  0
LINE
  5
459
  8
0
  6
CONTINUOUS
 62
     7
 10
502.3166836181
 20
879.629656329
 30
0.0
 11
502.3166836181
 21
884.6296515606
 31
0.0
  0
POLYLINE
  5
45A
  8
0
  6
CONTINUOUS
 62
     7
 66
     1
 10
0.0
 20
0.0
 30
0.0
 70
   128
  0
VERTEX
  5
884
  8
0
  6
CONTINUOUS
 62
     7
 10
502.3166836181
 20
879.629656329
 30
0.0
  0
VERTEX
  5
885
  8
0
  6
CONTINUOUS
 62
     7
 10
500.3657798225
 20
879.7326233528
 30
0.0
  0
VERTEX
  5
886
  8
0
  6
CONTINUOUS
 62
     7
 10
498.4898493567
 20
880.0375830672
 30
0.0
  0
VERTEX
  5
887
  8
0
  6
CONTINUOUS
 62
     7
 10
496.7609812447
 20
880.5328082583
 30
0.0
  0
VERTEX
  5
888
  8
0
  6
CONTINUOUS
 62
     7
 10
495.2456151077
 20
881.1992626927
 30
0.0
  0
VERTEX
  5
889
  8
0
  6
CONTINUOUS
 62
     7
 10
494.0019865462
 20
882.0113461755
 30
0.0
  0
VERTEX
  5
88A
  8
0
  6
CONTINUOUS
 62
     7
 10
493.0778873095
 20
882.9378482245
 30
0.0
  0
VERTEX
  5
88B
  8
0
  6
CONTINUOUS
 62
     7
 10
492.5088305899
 20
883.9431550644
 30
0.0
  0
VERTEX
  5
88C
  8
0
  6
CONTINUOUS
 62
     7
 10
492.3166838416
 20
884.9886354349
 30
0.0
  0
SEQEND
  5
9CF
  8
0
  6
CONTINUOUS
 62
     7
  0
LINE
  5
45B
  8
0
  6
CONTINUOUS
 62
     7
 10
520.3166828433
 20
879.629656329
 30
0.0
 11
520.3166828433
 21
884.6296515606
 31
0.0
  0
POLYLINE
  5
45C
  8
0
  6
CONTINUOUS
 62
     7
 66
     1
 10
0.0
 20
0.0
 30
0.0
 70
   128
  0
VERTEX
  5
88D
  8
0
  6
CONTINUOUS
 62
     7
 10
530.3166826197
 20
884.9886354349
 30
0.0
  0
VERTEX
  5
88E
  8
0
  6
CONTINUOUS
 62
     7
 10
530.1245358714
 20
883.9431550644
 30
0.0
  0
VERTEX
  5
88F
  8
0
  6
CONTINUOUS
 62
     7
 10
529.5554791519
 20
882.9378482245
 30
0.0
  0
VERTEX
  5
890
  8
0
  6
CONTINUOUS
 62
     7
 10
528.6313799152
 20
882.0113461755
 30
0.0
  0
VERTEX
  5
891
  8
0
  6
CONTINUOUS
 62
     7
 10
527.3877513537
 20
881.1992626927
 30
0.0
  0
VERTEX
  5
892
  8
0
  6
CONTINUOUS
 62
     7
 10
525.8723852166
 20
880.5328082583
 30
0.0
  0
VERTEX
  5
893
  8
0
  6
CONTINUOUS
 62
     7
 10
524.1435171047
 20
880.0375830672
 30
0.0
  0
VERTEX
  5
894
  8
0
  6
CONTINUOUS
 62
     7
 10
522.2675866389
 20
879.7326233528
 30
0.0
  0
VERTEX
  5
895
  8
0
  6
CONTINUOUS
 62
     7
 10
520.3166828433
 20
879.629656329
 30
0.0
  0
SEQEND
  5
9D0
  8
0
  6
CONTINUOUS
 62
     7
  0
LINE
  5
45D
  8
0
  6
CONTINUOUS
 62
     7
 10
520.3166828433
 20
879.629656329
 30
0.0
 11
502.3166836181
 21
879.629656329
 31
0.0
  0
LINE
  5
45E
  8
0
  6
CONTINUOUS
 62
     7
 10
542.7332409599
 20
960.9719786152
 30
0.0
 11
542.7332409599
 21
950.971978373
 31
0.0
  0
LINE
  5
45F
  8
0
  6
CONTINUOUS
 62
     7
 10
541.4595958719
 20
960.9719786152
 30
0.0
 11
542.7332409599
 21
960.9719786152
 31
0.0
  0
LINE
  5
460
  8
0
  6
CONTINUOUS
 62
     7
 10
479.9001255014
 20
950.971978373
 30
0.0
 11
479.9001255014
 21
960.9719786152
 31
0.0
  0
LINE
  5
461
  8
0
  6
CONTINUOUS
 62
     7
 10
479.9001255014
 20
960.9719786152
 30
0.0
 11
481.1737705895
 21
960.9719786152
 31
0.0
  0
LINE
  5
462
  8
0
  6
CONTINUOUS
 62
     7
 10
567.6016733923
 20
950.971978373
 30
0.0
 11
567.6016733923
 21
960.9719786152
 31
0.0
  0
LINE
  5
463
  8
0
  6
CONTINUOUS
 62
     7
 10
567.6016733923
 20
960.9719786152
 30
0.0
 11
542.7332409599
 21
960.9719786152
 31
0.0
  0
LINE
  5
464
  8
0
  6
CONTINUOUS
 62
     7
 10
455.031693069
 20
960.9719786152
 30
0.0
 11
455.031693069
 21
950.971978373
 31
0.0
  0
LINE
  5
465
  8
0
  6
CONTINUOUS
 62
     7
 10
455.031693069
 20
960.9719786152
 30
0.0
 11
479.9001255014
 21
960.9719786152
 31
0.0
  0
LINE
  5
466
  8
0
  6
CONTINUOUS
 62
     7
 10
569.6360693255
 20
960.9719786152
 30
0.0
 11
569.6360693255
 21
950.971978373
 31
0.0
  0
LINE
  5
467
  8
0
  6
CONTINUOUS
 62
     7
 10
567.6016733923
 20
960.9719786152
 30
0.0
 11
569.6360693255
 21
960.9719786152
 31
0.0
  0
LINE
  5
468
  8
0
  6
CONTINUOUS
 62
     7
 10
452.9972971359
 20
950.971978373
 30
0.0
 11
452.9972971359
 21
960.9719786152
 31
0.0
  0
LINE
  5
469
  8
0
  6
CONTINUOUS
 62
     7
 10
452.9972971359
 20
960.9719786152
 30
0.0
 11
455.031693069
 21
960.9719786152
 31
0.0
  0
ARC
  5
46A
  8
0
  6
CONTINUOUS
 62
     7
 10
475.3553257199
 20
865.1592843855
 30
0.0
 40
4.876452218741831
 50
172.563548458
 51
229.1254994151
  0
LINE
  5
46B
  8
0
  6
CONTINUOUS
 62
     7
 10
496.3040306175
 20
861.4719804667
 30
0.0
 11
472.16415414
 21
861.4719804667
 31
0.0
  0
ARC
  5
46C
  8
0
  6
CONTINUOUS
 62
     7
 10
494.1867661075
 20
862.9803636317
 30
0.0
 40
2.599620891189453
 50
324.5331397916
 51
4.112790872
  0
LINE
  5
46D
  8
0
  6
CONTINUOUS
 62
     7
 10
496.7796924466
 20
866.4719756983
 30
0.0
 11
496.7796924466
 21
863.1668087385
 31
0.0
  0
LINE
  5
46E
  8
0
  6
CONTINUOUS
 62
     7
 10
525.8536740148
 20
863.1668087385
 30
0.0
 11
525.8536740148
 21
866.4719756983
 31
0.0
  0
ARC
  5
46F
  8
0
  6
CONTINUOUS
 62
     7
 10
528.4972579563
 20
862.9945809351
 30
0.0
 40
2.649188266620082
 50
176.2724843838
 51
215.0815849526
  0
LINE
  5
470
  8
0
  6
CONTINUOUS
 62
     7
 10
550.4692123213
 20
861.4719804667
 30
0.0
 11
526.3293358439
 21
861.4719804667
 31
0.0
  0
POLYLINE
  5
471
  8
0
  6
CONTINUOUS
 62
     7
 66
     1
 10
0.0
 20
0.0
 30
0.0
 70
   128
  0
VERTEX
  5
896
  8
0
  6
CONTINUOUS
 62
     7
 10
552.113477228
 20
865.7904263876
 30
0.0
  0
VERTEX
  5
897
  8
0
  6
CONTINUOUS
 62
     7
 10
551.8933423737
 20
863.9068227551
 30
0.0
  0
VERTEX
  5
898
  8
0
  6
CONTINUOUS
 62
     7
 10
551.7406688014
 20
863.3856099389
 30
0.0
  0
VERTEX
  5
899
  8
0
  6
CONTINUOUS
 62
     7
 10
551.1495471874
 20
862.1849190734
 30
0.0
  0
VERTEX
  5
89A
  8
0
  6
CONTINUOUS
 62
     7
 10
550.8429110923
 20
861.8041497014
 30
0.0
  0
VERTEX
  5
89B
  8
0
  6
CONTINUOUS
 62
     7
 10
550.668023614
 20
861.6330173157
 30
0.0
  0
VERTEX
  5
89C
  8
0
  6
CONTINUOUS
 62
     7
 10
550.4797995964
 20
861.4797439716
 30
0.0
  0
VERTEX
  5
89D
  8
0
  6
CONTINUOUS
 62
     7
 10
550.4692123213
 20
861.4719804667
 30
0.0
  0
SEQEND
  5
9D1
  8
0
  6
CONTINUOUS
 62
     7
  0
LINE
  5
472
  8
0
  6
CONTINUOUS
 62
     7
 10
552.113477228
 20
930.9719797514
 30
0.0
 11
552.113477228
 21
865.7904263876
 31
0.0
  0
LINE
  5
473
  8
0
  6
CONTINUOUS
 62
     7
 10
552.75930473
 20
930.9719797514
 30
0.0
 11
552.113477228
 21
930.9719797514
 31
0.0
  0
LINE
  5
474
  8
0
  6
CONTINUOUS
 62
     7
 10
552.75930473
 20
866.7106997512
 30
0.0
 11
552.75930473
 21
930.9719797514
 31
0.0
  0
ARC
  5
475
  8
0
  6
CONTINUOUS
 62
     7
 10
558.9243207326
 20
866.0791161495
 30
0.0
 40
6.197283288559516
 50
174.1506610138
 51
228.0228951814
  0
POLYLINE
  5
476
  8
0
  6
CONTINUOUS
 62
     7
 66
     1
 10
0.0
 20
0.0
 30
0.0
 70
   128
  0
VERTEX
  5
89E
  8
0
  6
CONTINUOUS
 62
     7
 10
469.8740617314
 20
866.7106997512
 30
0.0
  0
VERTEX
  5
89F
  8
0
  6
CONTINUOUS
 62
     7
 10
469.5692473033
 20
864.3628578923
 30
0.0
  0
VERTEX
  5
8A0
  8
0
  6
CONTINUOUS
 62
     7
 10
468.8394070545
 20
862.6209866546
 30
0.0
  0
VERTEX
  5
8A1
  8
0
  6
CONTINUOUS
 62
     7
 10
468.3980421105
 20
862.0019700668
 30
0.0
  0
VERTEX
  5
8A2
  8
0
  6
CONTINUOUS
 62
     7
 10
468.1415223458
 20
861.7249574802
 30
0.0
  0
VERTEX
  5
8A3
  8
0
  6
CONTINUOUS
 62
     7
 10
468.0050277093
 20
861.5978878282
 30
0.0
  0
VERTEX
  5
8A4
  8
0
  6
CONTINUOUS
 62
     7
 10
467.8638280311
 20
861.4797290705
 30
0.0
  0
VERTEX
  5
8A5
  8
0
  6
CONTINUOUS
 62
     7
 10
467.85399699
 20
861.4719804667
 30
0.0
  0
SEQEND
  5
9D2
  8
0
  6
CONTINUOUS
 62
     7
  0
LINE
  5
477
  8
0
  6
CONTINUOUS
 62
     7
 10
469.8740617314
 20
930.9719797514
 30
0.0
 11
469.8740617314
 21
866.7106997512
 31
0.0
  0
LINE
  5
478
  8
0
  6
CONTINUOUS
 62
     7
 10
470.5198892334
 20
930.9719797514
 30
0.0
 11
469.8740617314
 21
930.9719797514
 31
0.0
  0
LINE
  5
479
  8
0
  6
CONTINUOUS
 62
     7
 10
470.5198892334
 20
865.7904263876
 30
0.0
 11
470.5198892334
 21
930.9719797514
 31
0.0
  0
LINE
  5
47A
  8
0
  6
CONTINUOUS
 62
     7
 10
533.0991391966
 20
836.4719745062
 30
0.0
 11
533.0991391966
 21
850.4719805263
 31
0.0
  0
LINE
  5
47B
  8
0
  6
CONTINUOUS
 62
     7
 10
489.5342272648
 20
850.4719805263
 30
0.0
 11
489.5342272648
 21
836.4719745062
 31
0.0
  0
LINE
  5
47C
  8
0
  6
CONTINUOUS
 62
     7
 10
502.3166836181
 20
879.629656329
 30
0.0
 11
502.3166836181
 21
866.4719756983
 31
0.0
  0
LINE
  5
47D
  8
0
  6
CONTINUOUS
 62
     7
 10
502.3166836181
 20
866.4719756983
 30
0.0
 11
496.7796924466
 21
866.4719756983
 31
0.0
  0
ARC
  5
47E
  8
0
  6
CONTINUOUS
 62
     7
 10
473.1614194165
 20
851.2322531607
 30
0.0
 40
26.46235888507312
 50
26.8079379825
 51
43.5724061015
  0
LINE
  5
47F
  8
0
  6
CONTINUOUS
 62
     7
 10
492.3166838416
 20
869.471981778
 30
0.0
 11
492.3335016647
 21
869.471981778
 31
0.0
  0
LINE
  5
480
  8
0
  6
CONTINUOUS
 62
     7
 10
492.3166838416
 20
869.471981778
 30
0.0
 11
492.3166838416
 21
884.9886354349
 31
0.0
  0
LINE
  5
481
  8
0
  6
CONTINUOUS
 62
     7
 10
525.8536740148
 20
866.4719756983
 30
0.0
 11
520.3166828433
 21
866.4719756983
 31
0.0
  0
LINE
  5
482
  8
0
  6
CONTINUOUS
 62
     7
 10
520.3166828433
 20
866.4719756983
 30
0.0
 11
520.3166828433
 21
879.629656329
 31
0.0
  0
LINE
  5
483
  8
0
  6
CONTINUOUS
 62
     7
 10
530.2998647967
 20
869.471981778
 30
0.0
 11
530.3166826197
 21
869.471981778
 31
0.0
  0
ARC
  5
484
  8
0
  6
CONTINUOUS
 62
     7
 10
547.0066818869
 20
852.970673209
 30
0.0
 40
23.48214048532584
 50
135.3545704666
 51
154.2650854494
  0
LINE
  5
485
  8
0
  6
CONTINUOUS
 62
     7
 10
530.3166826197
 20
884.9886354349
 30
0.0
 11
530.3166826197
 21
869.471981778
 31
0.0
  0
LINE
  5
486
  8
0
  6
CONTINUOUS
 62
     7
 10
511.3166832307
 20
866.4719756983
 30
0.0
 11
520.3166828433
 21
866.4719756983
 31
0.0
  0
LINE
  5
487
  8
0
  6
CONTINUOUS
 62
     7
 10
502.3166836181
 20
866.4719756983
 30
0.0
 11
511.3166832307
 21
866.4719756983
 31
0.0
  0
LINE
  5
488
  8
0
  6
CONTINUOUS
 62
     7
 10
445.1103099564
 20
960.9719786152
 30
0.0
 11
445.1103099564
 21
950.971978373
 31
0.0
  0
LINE
  5
489
  8
0
  6
CONTINUOUS
 62
     7
 10
445.1103099564
 20
960.9719786152
 30
0.0
 11
452.9972971359
 21
960.9719786152
 31
0.0
  0
LINE
  5
48A
  8
0
  6
CONTINUOUS
 62
     7
 10
577.523056505
 20
950.971978373
 30
0.0
 11
577.523056505
 21
960.9719786152
 31
0.0
  0
LINE
  5
48B
  8
0
  6
CONTINUOUS
 62
     7
 10
577.523056505
 20
960.9719786152
 30
0.0
 11
569.6360693255
 21
960.9719786152
 31
0.0
  0
POLYLINE
  5
48C
  8
0
  6
CONTINUOUS
 62
     7
 66
     1
 10
0.0
 20
0.0
 30
0.0
 70
   128
  0
VERTEX
  5
8A6
  8
0
  6
CONTINUOUS
 62
     7
 10
496.3040306175
 20
861.4719804667
 30
0.0
  0
VERTEX
  5
8A7
  8
0
  6
CONTINUOUS
 62
     7
 10
496.2411449233
 20
861.8486147664
 30
0.0
  0
VERTEX
  5
8A8
  8
0
  6
CONTINUOUS
 62
     7
 10
496.1823365593
 20
861.9977008842
 30
0.0
  0
VERTEX
  5
8A9
  8
0
  6
CONTINUOUS
 62
     7
 10
495.5454152951
 20
862.83202435
 30
0.0
  0
VERTEX
  5
8AA
  8
0
  6
CONTINUOUS
 62
     7
 10
495.4402894655
 20
862.9313927434
 30
0.0
  0
VERTEX
  5
8AB
  8
0
  6
CONTINUOUS
 62
     7
 10
494.4820516685
 20
863.6967461846
 30
0.0
  0
VERTEX
  5
8AC
  8
0
  6
CONTINUOUS
 62
     7
 10
491.8706622848
 20
865.3361942909
 30
0.0
  0
VERTEX
  5
8AD
  8
0
  6
CONTINUOUS
 62
     7
 10
490.1993256935
 20
866.2041273258
 30
0.0
  0
VERTEX
  5
8AE
  8
0
  6
CONTINUOUS
 62
     7
 10
489.3385470787
 20
866.4719756983
 30
0.0
  0
SEQEND
  5
9D3
  8
0
  6
CONTINUOUS
 62
     7
  0
POLYLINE
  5
48D
  8
0
  6
CONTINUOUS
 62
     7
 66
     1
 10
0.0
 20
0.0
 30
0.0
 70
   128
  0
VERTEX
  5
8AF
  8
0
  6
CONTINUOUS
 62
     7
 10
489.3385470787
 20
866.4719756983
 30
0.0
  0
VERTEX
  5
8B0
  8
0
  6
CONTINUOUS
 62
     7
 10
489.9228327849
 20
866.5296208404
 30
0.0
  0
VERTEX
  5
8B1
  8
0
  6
CONTINUOUS
 62
     7
 10
490.3935884067
 20
866.6642900847
 30
0.0
  0
SEQEND
  5
9D4
  8
0
  6
CONTINUOUS
 62
     7
  0
POLYLINE
  5
48E
  8
0
  6
CONTINUOUS
 62
     7
 66
     1
 10
0.0
 20
0.0
 30
0.0
 70
   128
  0
VERTEX
  5
8B2
  8
0
  6
CONTINUOUS
 62
     7
 10
532.4180928001
 20
866.6033964894
 30
0.0
  0
VERTEX
  5
8B3
  8
0
  6
CONTINUOUS
 62
     7
 10
532.7105336764
 20
866.5296208404
 30
0.0
  0
VERTEX
  5
8B4
  8
0
  6
CONTINUOUS
 62
     7
 10
533.2948193827
 20
866.4719756983
 30
0.0
  0
SEQEND
  5
9D5
  8
0
  6
CONTINUOUS
 62
     7
  0
POLYLINE
  5
48F
  8
0
  6
CONTINUOUS
 62
     7
 66
     1
 10
0.0
 20
0.0
 30
0.0
 70
   128
  0
VERTEX
  5
8B5
  8
0
  6
CONTINUOUS
 62
     7
 10
533.2948193827
 20
866.4719756983
 30
0.0
  0
VERTEX
  5
8B6
  8
0
  6
CONTINUOUS
 62
     7
 10
532.4340407678
 20
866.2041273258
 30
0.0
  0
VERTEX
  5
8B7
  8
0
  6
CONTINUOUS
 62
     7
 10
530.7627041766
 20
865.3361942909
 30
0.0
  0
VERTEX
  5
8B8
  8
0
  6
CONTINUOUS
 62
     7
 10
528.1513147929
 20
863.6967461846
 30
0.0
  0
VERTEX
  5
8B9
  8
0
  6
CONTINUOUS
 62
     7
 10
527.1930769959
 20
862.9313927434
 30
0.0
  0
VERTEX
  5
8BA
  8
0
  6
CONTINUOUS
 62
     7
 10
526.7324271554
 20
862.4442141793
 30
0.0
  0
VERTEX
  5
8BB
  8
0
  6
CONTINUOUS
 62
     7
 10
526.4510299021
 20
861.9977008842
 30
0.0
  0
VERTEX
  5
8BC
  8
0
  6
CONTINUOUS
 62
     7
 10
526.3398039096
 20
861.6251718543
 30
0.0
  0
VERTEX
  5
8BD
  8
0
  6
CONTINUOUS
 62
     7
 10
526.3293358439
 20
861.4719804667
 30
0.0
  0
SEQEND
  5
9D6
  8
0
  6
CONTINUOUS
 62
     7
  0
LINE
  5
490
  8
0
  6
CONTINUOUS
 62
     7
 10
533.2948193827
 20
866.4719756983
 30
0.0
 11
537.2396466264
 21
866.4719756983
 31
0.0
  0
POLYLINE
  5
491
  8
0
  6
CONTINUOUS
 62
     7
 66
     1
 10
0.0
 20
0.0
 30
0.0
 70
   128
  0
VERTEX
  5
8BE
  8
0
  6
CONTINUOUS
 62
     7
 10
550.4692123213
 20
861.4719804667
 30
0.0
  0
VERTEX
  5
8BF
  8
0
  6
CONTINUOUS
 62
     7
 10
550.3228493908
 20
862.2887280129
 30
0.0
  0
VERTEX
  5
8C0
  8
0
  6
CONTINUOUS
 62
     7
 10
549.7440175095
 20
863.2588606618
 30
0.0
  0
VERTEX
  5
8C1
  8
0
  6
CONTINUOUS
 62
     7
 10
549.4350978115
 20
863.5860082052
 30
0.0
  0
VERTEX
  5
8C2
  8
0
  6
CONTINUOUS
 62
     7
 10
548.0265580991
 20
864.5839166186
 30
0.0
  0
VERTEX
  5
8C3
  8
0
  6
CONTINUOUS
 62
     7
 10
546.2977477291
 20
865.3229248069
 30
0.0
  0
VERTEX
  5
8C4
  8
0
  6
CONTINUOUS
 62
     7
 10
544.4458388665
 20
865.8282380841
 30
0.0
  0
VERTEX
  5
8C5
  8
0
  6
CONTINUOUS
 62
     7
 10
540.8853814879
 20
866.3352873467
 30
0.0
  0
VERTEX
  5
8C6
  8
0
  6
CONTINUOUS
 62
     7
 10
537.2396466264
 20
866.4719756983
 30
0.0
  0
SEQEND
  5
9D7
  8
0
  6
CONTINUOUS
 62
     7
  0
POLYLINE
  5
492
  8
0
  6
CONTINUOUS
 62
     7
 66
     1
 10
0.0
 20
0.0
 30
0.0
 70
   128
  0
VERTEX
  5
8C7
  8
0
  6
CONTINUOUS
 62
     7
 10
485.393719835
 20
866.4719756983
 30
0.0
  0
VERTEX
  5
8C8
  8
0
  6
CONTINUOUS
 62
     7
 10
481.7874041328
 20
866.3384761951
 30
0.0
  0
VERTEX
  5
8C9
  8
0
  6
CONTINUOUS
 62
     7
 10
478.1875275949
 20
865.8282380841
 30
0.0
  0
VERTEX
  5
8CA
  8
0
  6
CONTINUOUS
 62
     7
 10
476.3696976879
 20
865.334398701
 30
0.0
  0
VERTEX
  5
8CB
  8
0
  6
CONTINUOUS
 62
     7
 10
474.6068083623
 20
864.5839166186
 30
0.0
  0
VERTEX
  5
8CC
  8
0
  6
CONTINUOUS
 62
     7
 10
473.1982686499
 20
863.5860082052
 30
0.0
  0
VERTEX
  5
8CD
  8
0
  6
CONTINUOUS
 62
     7
 10
472.5606293359
 20
862.8062676929
 30
0.0
  0
VERTEX
  5
8CE
  8
0
  6
CONTINUOUS
 62
     7
 10
472.3105170706
 20
862.2887280129
 30
0.0
  0
VERTEX
  5
8CF
  8
0
  6
CONTINUOUS
 62
     7
 10
472.16415414
 20
861.4719804667
 30
0.0
  0
SEQEND
  5
9D8
  8
0
  6
CONTINUOUS
 62
     7
  0
LINE
  5
493
  8
0
  6
CONTINUOUS
 62
     7
 10
485.393719835
 20
866.4719756983
 30
0.0
 11
489.3385470787
 21
866.4719756983
 31
0.0
  0
LINE
  5
494
  8
0
  6
CONTINUOUS
 62
     7
 10
534.120190976
 20
850.4719805263
 30
0.0
 11
534.120190976
 21
836.4719745062
 31
0.0
  0
LINE
  5
495
  8
0
  6
CONTINUOUS
 62
     7
 10
534.120190976
 20
836.4719745062
 30
0.0
 11
533.0991391966
 21
836.4719745062
 31
0.0
  0
LINE
  5
496
  8
0
  6
CONTINUOUS
 62
     7
 10
533.0991391966
 20
850.4719805263
 30
0.0
 11
534.120190976
 21
850.4719805263
 31
0.0
  0
LINE
  5
497
  8
0
  6
CONTINUOUS
 62
     7
 10
489.5342272648
 20
836.4719745062
 30
0.0
 11
488.5131754854
 21
836.4719745062
 31
0.0
  0
LINE
  5
498
  8
0
  6
CONTINUOUS
 62
     7
 10
488.5131754854
 20
836.4719745062
 30
0.0
 11
488.5131754854
 21
850.4719805263
 31
0.0
  0
LINE
  5
499
  8
0
  6
CONTINUOUS
 62
     7
 10
488.5131754854
 20
850.4719805263
 30
0.0
 11
489.5342272648
 21
850.4719805263
 31
0.0
  0
LINE
  5
49A
  8
0
  6
CONTINUOUS
 62
     7
 10
458.0719658115
 20
850.4719805263
 30
0.0
 11
458.0719658115
 21
836.4719745062
 31
0.0
  0
LINE
  5
49B
  8
0
  6
CONTINUOUS
 62
     7
 10
456.0240917781
 20
836.4719745062
 30
0.0
 11
456.0240917781
 21
850.4719805263
 31
0.0
  0
LINE
  5
49C
  8
0
  6
CONTINUOUS
 62
     7
 10
458.0719658115
 20
836.4719745062
 30
0.0
 11
456.0240917781
 21
836.4719745062
 31
0.0
  0
LINE
  5
49D
  8
0
  6
CONTINUOUS
 62
     7
 10
456.0240917781
 20
850.4719805263
 30
0.0
 11
458.0719658115
 21
850.4719805263
 31
0.0
  0
LINE
  5
49E
  8
0
  6
CONTINUOUS
 62
     7
 10
564.5614006498
 20
836.4719745062
 30
0.0
 11
564.5614006498
 21
850.4719805263
 31
0.0
  0
LINE
  5
49F
  8
0
  6
CONTINUOUS
 62
     7
 10
534.120190976
 20
836.4719745062
 30
0.0
 11
564.5614006498
 21
836.4719745062
 31
0.0
  0
LINE
  5
4A0
  8
0
  6
CONTINUOUS
 62
     7
 10
534.120190976
 20
850.4719805263
 30
0.0
 11
564.5614006498
 21
850.4719805263
 31
0.0
  0
LINE
  5
4A1
  8
0
  6
CONTINUOUS
 62
     7
 10
566.6092746833
 20
850.4719805263
 30
0.0
 11
566.6092746833
 21
836.4719745062
 31
0.0
  0
LINE
  5
4A2
  8
0
  6
CONTINUOUS
 62
     7
 10
566.6092746833
 20
836.4719745062
 30
0.0
 11
564.5614006498
 21
836.4719745062
 31
0.0
  0
LINE
  5
4A3
  8
0
  6
CONTINUOUS
 62
     7
 10
564.5614006498
 20
850.4719805263
 30
0.0
 11
566.6092746833
 21
850.4719805263
 31
0.0
  0
LINE
  5
4A4
  8
0
  6
CONTINUOUS
 62
     7
 10
488.5131754854
 20
836.4719745062
 30
0.0
 11
458.0719658115
 21
836.4719745062
 31
0.0
  0
LINE
  5
4A5
  8
0
  6
CONTINUOUS
 62
     7
 10
488.5131754854
 20
850.4719805263
 30
0.0
 11
458.0719658115
 21
850.4719805263
 31
0.0
  0
LINE
  5
4A6
  8
0
  6
CONTINUOUS
 62
     7
 10
573.9317127445
 20
836.4719745062
 30
0.0
 11
573.9317127445
 21
850.4719805263
 31
0.0
  0
LINE
  5
4A7
  8
0
  6
CONTINUOUS
 62
     7
 10
566.6092746833
 20
836.4719745062
 30
0.0
 11
573.9317127445
 21
836.4719745062
 31
0.0
  0
LINE
  5
4A8
  8
0
  6
CONTINUOUS
 62
     7
 10
566.6092746833
 20
850.4719805263
 30
0.0
 11
573.9317127445
 21
850.4719805263
 31
0.0
  0
LINE
  5
4A9
  8
0
  6
CONTINUOUS
 62
     7
 10
448.7016537169
 20
850.4719805263
 30
0.0
 11
448.7016537169
 21
836.4719745062
 31
0.0
  0
LINE
  5
4AA
  8
0
  6
CONTINUOUS
 62
     7
 10
456.0240917781
 20
836.4719745062
 30
0.0
 11
448.7016537169
 21
836.4719745062
 31
0.0
  0
LINE
  5
4AB
  8
0
  6
CONTINUOUS
 62
     7
 10
456.0240917781
 20
850.4719805263
 30
0.0
 11
448.7016537169
 21
850.4719805263
 31
0.0
  0
LINE
  5
4AC
  8
0
  6
CONTINUOUS
 62
     7
 10
489.3166833499
 20
889.2565887712
 30
0.0
 11
492.3166838416
 21
889.2565887712
 31
0.0
  0
LINE
  5
4AD
  8
0
  6
CONTINUOUS
 62
     7
 10
530.3166826197
 20
889.2565887712
 30
0.0
 11
533.3166831115
 21
889.2565887712
 31
0.0
  0
LINE
  5
4AE
  8
0
  6
CONTINUOUS
 62
     7
 10
577.523056505
 20
960.9719786152
 30
0.0
 11
578.2135390618
 21
960.9719786152
 31
0.0
  0
LINE
  5
4AF
  8
0
  6
CONTINUOUS
 62
     7
 10
444.4198273995
 20
960.9719786152
 30
0.0
 11
445.1103099564
 21
960.9719786152
 31
0.0
  0
ARC
  5
4B0
  8
0
  6
CONTINUOUS
 62
     7
 10
489.3166832307
 20
869.4719785593
 30
0.0
 40
3.0
 50
270.0
 51
0.0
  0
ARC
  5
4B1
  8
0
  6
CONTINUOUS
 62
     7
 10
533.3166832307
 20
869.4719785593
 30
0.0
 40
3.0
 50
180.0
 51
270.0
  0
LINE
  5
4B2
  8
0
  6
CONTINUOUS
 62
     7
 10
485.393719835
 20
866.4719756983
 30
0.0
 11
485.393719835
 21
869.471981778
 31
0.0
  0
ARC
  5
4B3
  8
0
  6
CONTINUOUS
 62
     7
 10
479.2029320882
 20
863.202567075
 30
0.0
 40
7.248401548763461
 50
159.0824074832
 51
193.8130263105
  0
POLYLINE
  5
4B4
  8
0
  6
CONTINUOUS
 62
     7
 66
     1
 10
0.0
 20
0.0
 30
0.0
 70
   128
  0
VERTEX
  5
8D0
  8
0
  6
CONTINUOUS
 62
     7
 10
472.4322372058
 20
865.7904263876
 30
0.0
  0
VERTEX
  5
8D1
  8
0
  6
CONTINUOUS
 62
     7
 10
473.2366838434
 20
866.4510768197
 30
0.0
  0
VERTEX
  5
8D2
  8
0
  6
CONTINUOUS
 62
     7
 10
475.1988203207
 20
867.6051345013
 30
0.0
  0
VERTEX
  5
8D3
  8
0
  6
CONTINUOUS
 62
     7
 10
477.3937203863
 20
868.4419986151
 30
0.0
  0
VERTEX
  5
8D4
  8
0
  6
CONTINUOUS
 62
     7
 10
481.307294307
 20
869.2415651224
 30
0.0
  0
VERTEX
  5
8D5
  8
0
  6
CONTINUOUS
 62
     7
 10
485.393719835
 20
869.471981778
 30
0.0
  0
SEQEND
  5
9D9
  8
0
  6
CONTINUOUS
 62
     7
  0
LINE
  5
4B5
  8
0
  6
CONTINUOUS
 62
     7
 10
537.2396466264
 20
869.471981778
 30
0.0
 11
537.2396466264
 21
866.4719756983
 31
0.0
  0
POLYLINE
  5
4B6
  8
0
  6
CONTINUOUS
 62
     7
 66
     1
 10
0.0
 20
0.0
 30
0.0
 70
   128
  0
VERTEX
  5
8D6
  8
0
  6
CONTINUOUS
 62
     7
 10
537.2396466264
 20
869.471981778
 30
0.0
  0
VERTEX
  5
8D7
  8
0
  6
CONTINUOUS
 62
     7
 10
541.2396454194
 20
869.251876726
 30
0.0
  0
VERTEX
  5
8D8
  8
0
  6
CONTINUOUS
 62
     7
 10
545.2396460751
 20
868.4419986151
 30
0.0
  0
VERTEX
  5
8D9
  8
0
  6
CONTINUOUS
 62
     7
 10
547.3748334625
 20
867.6331263326
 30
0.0
  0
VERTEX
  5
8DA
  8
0
  6
CONTINUOUS
 62
     7
 10
549.396682618
 20
866.4510768197
 30
0.0
  0
VERTEX
  5
8DB
  8
0
  6
CONTINUOUS
 62
     7
 10
550.2011292556
 20
865.7904263876
 30
0.0
  0
SEQEND
  5
9DA
  8
0
  6
CONTINUOUS
 62
     7
  0
ARC
  5
4B7
  8
0
  6
CONTINUOUS
 62
     7
 10
543.3109154283
 20
863.1951475065
 30
0.0
 40
7.362779302401759
 50
346.4651018719
 51
20.6394643344
  0
LINE
  5
4B8
  8
0
  6
CONTINUOUS
 62
     7
 10
472.4322372058
 20
930.9719797514
 30
0.0
 11
470.5198892334
 21
930.9719797514
 31
0.0
  0
POLYLINE
  5
4B9
  8
0
  6
CONTINUOUS
 62
     7
 66
     1
 10
0.0
 20
0.0
 30
0.0
 70
   128
  0
VERTEX
  5
8DC
  8
0
  6
CONTINUOUS
 62
     7
 10
470.5198892334
 20
930.9719797514
 30
0.0
  0
VERTEX
  5
8DD
  8
0
  6
CONTINUOUS
 62
     7
 10
470.4831429699
 20
931.5572489343
 30
0.0
  0
VERTEX
  5
8DE
  8
0
  6
CONTINUOUS
 62
     7
 10
470.3743197897
 20
932.1200285397
 30
0.0
  0
VERTEX
  5
8DF
  8
0
  6
CONTINUOUS
 62
     7
 10
470.1975994685
 20
932.6386895321
 30
0.0
  0
VERTEX
  5
8E0
  8
0
  6
CONTINUOUS
 62
     7
 10
469.9597732106
 20
933.0932997457
 30
0.0
  0
VERTEX
  5
8E1
  8
0
  6
CONTINUOUS
 62
     7
 10
469.6699828783
 20
933.4663875691
 30
0.0
  0
VERTEX
  5
8E2
  8
0
  6
CONTINUOUS
 62
     7
 10
469.3393633643
 20
933.7436180852
 30
0.0
  0
VERTEX
  5
8E3
  8
0
  6
CONTINUOUS
 62
     7
 10
468.9806216338
 20
933.9143351011
 30
0.0
  0
VERTEX
  5
8E4
  8
0
  6
CONTINUOUS
 62
     7
 10
468.607541261
 20
933.9719783805
 30
0.0
  0
SEQEND
  5
9DB
  8
0
  6
CONTINUOUS
 62
     7
  0
LINE
  5
4BA
  8
0
  6
CONTINUOUS
 62
     7
 10
472.4322372058
 20
930.9719797514
 30
0.0
 11
472.4322372058
 21
933.9719783805
 31
0.0
  0
LINE
  5
4BB
  8
0
  6
CONTINUOUS
 62
     7
 10
550.2011292556
 20
930.9719797514
 30
0.0
 11
550.2011292556
 21
933.9719783805
 31
0.0
  0
LINE
  5
4BC
  8
0
  6
CONTINUOUS
 62
     7
 10
552.113477228
 20
930.9719797514
 30
0.0
 11
550.2011292556
 21
930.9719797514
 31
0.0
  0
POLYLINE
  5
4BD
  8
0
  6
CONTINUOUS
 62
     7
 66
     1
 10
0.0
 20
0.0
 30
0.0
 70
   128
  0
VERTEX
  5
8E5
  8
0
  6
CONTINUOUS
 62
     7
 10
552.113477228
 20
930.9719797514
 30
0.0
  0
VERTEX
  5
8E6
  8
0
  6
CONTINUOUS
 62
     7
 10
552.1502234915
 20
931.5572489343
 30
0.0
  0
VERTEX
  5
8E7
  8
0
  6
CONTINUOUS
 62
     7
 10
552.2590466717
 20
932.1200285397
 30
0.0
  0
VERTEX
  5
8E8
  8
0
  6
CONTINUOUS
 62
     7
 10
552.4357669929
 20
932.6386895321
 30
0.0
  0
VERTEX
  5
8E9
  8
0
  6
CONTINUOUS
 62
     7
 10
552.6735932508
 20
933.0932997457
 30
0.0
  0
VERTEX
  5
8EA
  8
0
  6
CONTINUOUS
 62
     7
 10
552.9633835831
 20
933.4663875691
 30
0.0
  0
VERTEX
  5
8EB
  8
0
  6
CONTINUOUS
 62
     7
 10
553.2940030971
 20
933.7436180852
 30
0.0
  0
VERTEX
  5
8EC
  8
0
  6
CONTINUOUS
 62
     7
 10
553.6527448276
 20
933.9143351011
 30
0.0
  0
VERTEX
  5
8ED
  8
0
  6
CONTINUOUS
 62
     7
 10
554.0258252004
 20
933.9719783805
 30
0.0
  0
SEQEND
  5
9DC
  8
0
  6
CONTINUOUS
 62
     7
  0
LINE
  5
4BE
  8
0
  6
CONTINUOUS
 62
     7
 10
489.3166833499
 20
869.471981778
 30
0.0
 11
489.3166833499
 21
889.2565887712
 31
0.0
  0
LINE
  5
4BF
  8
0
  6
CONTINUOUS
 62
     7
 10
489.3166833499
 20
869.471981778
 30
0.0
 11
492.3166838416
 21
869.471981778
 31
0.0
  0
LINE
  5
4C0
  8
0
  6
CONTINUOUS
 62
     7
 10
533.3166831115
 20
889.2565887712
 30
0.0
 11
533.3166831115
 21
869.471981778
 31
0.0
  0
LINE
  5
4C1
  8
0
  6
CONTINUOUS
 62
     7
 10
530.3166826197
 20
869.471981778
 30
0.0
 11
533.3166831115
 21
869.471981778
 31
0.0
  0
LINE
  5
4C2
  8
0
  6
CONTINUOUS
 62
     7
 10
489.3166833499
 20
866.4719756983
 30
0.0
 11
489.3166833499
 21
869.471981778
 31
0.0
  0
LINE
  5
4C3
  8
0
  6
CONTINUOUS
 62
     7
 10
485.393719835
 20
869.471981778
 30
0.0
 11
489.3166833499
 21
869.471981778
 31
0.0
  0
LINE
  5
4C4
  8
0
  6
CONTINUOUS
 62
     7
 10
533.3166831115
 20
869.471981778
 30
0.0
 11
533.3166831115
 21
866.4719756983
 31
0.0
  0
LINE
  5
4C5
  8
0
  6
CONTINUOUS
 62
     7
 10
533.3166831115
 20
869.471981778
 30
0.0
 11
537.2396466264
 21
869.471981778
 31
0.0
  0
POLYLINE
  5
4C6
  8
0
  6
CONTINUOUS
 62
     7
 66
     1
 10
0.0
 20
0.0
 30
0.0
 70
   128
  0
VERTEX
  5
8EE
  8
0
  6
CONTINUOUS
 62
     7
 10
469.8740617314
 20
930.9719797514
 30
0.0
  0
VERTEX
  5
8EF
  8
0
  6
CONTINUOUS
 62
     7
 10
469.8367343226
 20
931.5572489343
 30
0.0
  0
VERTEX
  5
8F0
  8
0
  6
CONTINUOUS
 62
     7
 10
469.726186333
 20
932.1200285397
 30
0.0
  0
VERTEX
  5
8F1
  8
0
  6
CONTINUOUS
 62
     7
 10
469.5466683188
 20
932.6386895321
 30
0.0
  0
VERTEX
  5
8F2
  8
0
  6
CONTINUOUS
 62
     7
 10
469.3050795177
 20
933.0932997457
 30
0.0
  0
VERTEX
  5
8F3
  8
0
  6
CONTINUOUS
 62
     7
 10
469.0106996277
 20
933.4663875691
 30
0.0
  0
VERTEX
  5
8F4
  8
0
  6
CONTINUOUS
 62
     7
 10
468.6748460808
 20
933.7436180852
 30
0.0
  0
VERTEX
  5
8F5
  8
0
  6
CONTINUOUS
 62
     7
 10
468.3104232827
 20
933.9143351011
 30
0.0
  0
VERTEX
  5
8F6
  8
0
  6
CONTINUOUS
 62
     7
 10
467.9314383247
 20
933.9719783805
 30
0.0
  0
SEQEND
  5
9DD
  8
0
  6
CONTINUOUS
 62
     7
  0
POLYLINE
  5
4C7
  8
0
  6
CONTINUOUS
 62
     7
 66
     1
 10
0.0
 20
0.0
 30
0.0
 70
   128
  0
VERTEX
  5
8F7
  8
0
  6
CONTINUOUS
 62
     7
 10
552.75930473
 20
930.9719797514
 30
0.0
  0
VERTEX
  5
8F8
  8
0
  6
CONTINUOUS
 62
     7
 10
552.7966321388
 20
931.5572489343
 30
0.0
  0
VERTEX
  5
8F9
  8
0
  6
CONTINUOUS
 62
     7
 10
552.9071801284
 20
932.1200285397
 30
0.0
  0
VERTEX
  5
8FA
  8
0
  6
CONTINUOUS
 62
     7
 10
553.0866981426
 20
932.6386895321
 30
0.0
  0
VERTEX
  5
8FB
  8
0
  6
CONTINUOUS
 62
     7
 10
553.3282869437
 20
933.0932997457
 30
0.0
  0
VERTEX
  5
8FC
  8
0
  6
CONTINUOUS
 62
     7
 10
553.6226668337
 20
933.4663875691
 30
0.0
  0
VERTEX
  5
8FD
  8
0
  6
CONTINUOUS
 62
     7
 10
553.9585203805
 20
933.7436180852
 30
0.0
  0
VERTEX
  5
8FE
  8
0
  6
CONTINUOUS
 62
     7
 10
554.3229431787
 20
933.9143351011
 30
0.0
  0
VERTEX
  5
8FF
  8
0
  6
CONTINUOUS
 62
     7
 10
554.7019281366
 20
933.9719783805
 30
0.0
  0
SEQEND
  5
9DE
  8
0
  6
CONTINUOUS
 62
     7
  0
LINE
  5
4C8
  8
0
  6
CONTINUOUS
 62
     7
 10
448.7016537169
 20
836.4719745062
 30
0.0
 11
448.0207302549
 21
836.4719745062
 31
0.0
  0
LINE
  5
4C9
  8
0
  6
CONTINUOUS
 62
     7
 10
448.0207302549
 20
850.4719805263
 30
0.0
 11
448.7016537169
 21
850.4719805263
 31
0.0
  0
LINE
  5
4CA
  8
0
  6
CONTINUOUS
 62
     7
 10
574.6126362064
 20
836.4719745062
 30
0.0
 11
573.9317127445
 21
836.4719745062
 31
0.0
  0
LINE
  5
4CB
  8
0
  6
CONTINUOUS
 62
     7
 10
573.9317127445
 20
850.4719805263
 30
0.0
 11
574.6126362064
 21
850.4719805263
 31
0.0
  0
LINE
  5
4CC
  8
0
  6
CONTINUOUS
 62
     7
 10
553.8166836777
 20
930.9719797514
 30
0.0
 11
552.75930473
 21
930.9719797514
 31
0.0
  0
ARC
  5
4CD
  8
0
  6
CONTINUOUS
 62
     7
 10
556.8166832307
 20
930.9719785593
 30
0.0
 40
3.0
 50
90.0
 51
180.0
  0
LINE
  5
4CE
  8
0
  6
CONTINUOUS
 62
     7
 10
469.8740617314
 20
930.9719797514
 30
0.0
 11
468.8166827837
 21
930.9719797514
 31
0.0
  0
ARC
  5
4CF
  8
0
  6
CONTINUOUS
 62
     7
 10
465.8166832307
 20
930.9719785593
 30
0.0
 40
3.0
 50
0.0
 51
90.0
  0
LINE
  5
4D0
  8
0
  6
CONTINUOUS
 62
     7
 10
472.4322372058
 20
865.7904263876
 30
0.0
 11
470.5198892334
 21
865.7904263876
 31
0.0
  0
LINE
  5
4D1
  8
0
  6
CONTINUOUS
 62
     7
 10
552.113477228
 20
865.7904263876
 30
0.0
 11
550.2011292556
 21
865.7904263876
 31
0.0
  0
LINE
  5
4D2
  8
0
  6
CONTINUOUS
 62
     7
 10
472.4322372058
 20
930.9719797514
 30
0.0
 11
472.4322372058
 21
865.7904263876
 31
0.0
  0
LINE
  5
4D3
  8
0
  6
CONTINUOUS
 62
     7
 10
550.2011292556
 20
865.7904263876
 30
0.0
 11
550.2011292556
 21
930.9719797514
 31
0.0
  0
ARC
  5
4D4
  8
0
  6
CONTINUOUS
 62
     7
 10
438.3343939043
 20
869.6044212504
 30
0.0
 40
30.61933309919752
 50
344.597497045
 51
354.5770919138
  0
LINE
  5
4D5
  8
0
  6
CONTINUOUS
 62
     7
 10
469.8740617314
 20
866.7106997512
 30
0.0
 11
468.8166827837
 21
866.7106997512
 31
0.0
  0
LINE
  5
4D6
  8
0
  6
CONTINUOUS
 62
     7
 10
553.8166836777
 20
866.7106997512
 30
0.0
 11
552.75930473
 21
866.7106997512
 31
0.0
  0
ARC
  5
4D7
  8
0
  6
CONTINUOUS
 62
     7
 10
590.2034728154
 20
870.6894533372
 30
0.0
 40
36.60367336550317
 50
186.2402782279
 51
194.5851328133
  0
LINE
  5
4D8
  8
0
  6
CONTINUOUS
 62
     7
 10
553.8166836777
 20
930.9719797514
 30
0.0
 11
553.8166836777
 21
866.7106997512
 31
0.0
  0
LINE
  5
4D9
  8
0
  6
CONTINUOUS
 62
     7
 10
468.8166827837
 20
866.7106997512
 30
0.0
 11
468.8166827837
 21
930.9719797514
 31
0.0
  0
ARC
  5
4DA
  8
0
  6
CONTINUOUS
 62
     7
 10
559.9047586733
 20
868.9467800522
 30
0.0
 40
6.097150501446721
 50
183.1265363169
 51
220.9768617834
  0
ARC
  5
4DB
  8
0
  6
CONTINUOUS
 62
     7
 10
564.8331656088
 20
861.7393563815
 30
0.0
 40
10.05735087647888
 50
161.3921498573
 51
181.5233948569
  0
ARC
  5
4DC
  8
0
  6
CONTINUOUS
 62
     7
 10
462.4995901502
 20
869.0395496511
 30
0.0
 40
6.33139423892075
 50
319.7483877476
 51
356.1482141522
  0
ARC
  5
4DD
  8
0
  6
CONTINUOUS
 62
     7
 10
457.4439998798
 20
861.685853372
 30
0.0
 40
10.41219388288911
 50
358.8230264603
 51
18.2614288255
  0
LINE
  5
4DE
  8
0
  6
CONTINUOUS
 62
     7
 10
452.3166828731
 20
866.4719756983
 30
0.0
 11
467.1966806927
 21
866.4719756983
 31
0.0
  0
POLYLINE
  5
4DF
  8
0
  6
CONTINUOUS
 62
     7
 66
     1
 10
0.0
 20
0.0
 30
0.0
 70
   128
  0
VERTEX
  5
900
  8
0
  6
CONTINUOUS
 62
     7
 10
466.7989202717
 20
865.9358915232
 30
0.0
  0
VERTEX
  5
901
  8
0
  6
CONTINUOUS
 62
     7
 10
466.7156190553
 20
866.0642426751
 30
0.0
  0
VERTEX
  5
902
  8
0
  6
CONTINUOUS
 62
     7
 10
466.748453764
 20
866.3557540916
 30
0.0
  0
VERTEX
  5
903
  8
0
  6
CONTINUOUS
 62
     7
 10
467.0441598573
 20
866.4640780829
 30
0.0
  0
VERTEX
  5
904
  8
0
  6
CONTINUOUS
 62
     7
 10
467.1966806927
 20
866.4719756983
 30
0.0
  0
SEQEND
  5
9DF
  8
0
  6
CONTINUOUS
 62
     7
  0
ARC
  5
4E0
  8
0
  6
CONTINUOUS
 62
     7
 10
463.8223115586
 20
863.6919096696
 30
0.0
 40
3.727687485567526
 50
19.7008585342
 51
37.0116161347
  0
LINE
  5
4E1
  8
0
  6
CONTINUOUS
 62
     7
 10
555.4366857687
 20
866.4719756983
 30
0.0
 11
570.3166835883
 21
866.4719756983
 31
0.0
  0
ARC
  5
4E2
  8
0
  6
CONTINUOUS
 62
     7
 10
558.8679640932
 20
863.6611951372
 30
0.0
 40
3.791632170885922
 50
143.135446147
 51
160.1520791841
  0
POLYLINE
  5
4E3
  8
0
  6
CONTINUOUS
 62
     7
 66
     1
 10
0.0
 20
0.0
 30
0.0
 70
   128
  0
VERTEX
  5
905
  8
0
  6
CONTINUOUS
 62
     7
 10
555.4366857687
 20
866.4719756983
 30
0.0
  0
VERTEX
  5
906
  8
0
  6
CONTINUOUS
 62
     7
 10
555.8200367668
 20
866.4009642146
 30
0.0
  0
VERTEX
  5
907
  8
0
  6
CONTINUOUS
 62
     7
 10
555.8849126974
 20
866.3557540916
 30
0.0
  0
VERTEX
  5
908
  8
0
  6
CONTINUOUS
 62
     7
 10
555.9177474061
 20
866.0642426751
 30
0.0
  0
VERTEX
  5
909
  8
0
  6
CONTINUOUS
 62
     7
 10
555.8344461897
 20
865.9358915232
 30
0.0
  0
SEQEND
  5
9E0
  8
0
  6
CONTINUOUS
 62
     7
  0
ARC
  5
4E4
  8
0
  6
CONTINUOUS
 62
     7
 10
556.6683586509
 20
868.6633542618
 30
0.0
 40
2.852097996862698
 50
180.986831727
 51
252.9991658593
  0
ARC
  5
4E5
  8
0
  6
CONTINUOUS
 62
     7
 10
465.9650078104
 20
868.6633542618
 30
0.0
 40
2.852097996862592
 50
287.0008341407
 51
359.013168273
  0
LINE
  5
4E6
  8
0
  6
CONTINUOUS
 62
     7
 10
554.3319956341
 20
770.5719765566
 30
0.0
 11
557.8377657512
 21
770.5719765566
 31
0.0
  0
LINE
  5
4E7
  8
0
  6
CONTINUOUS
 62
     7
 10
565.0270321348
 20
770.5719765566
 30
0.0
 11
568.7105321267
 21
770.5719765566
 31
0.0
  0
LINE
  5
4E8
  8
0
  6
CONTINUOUS
 62
     7
 10
557.8377657512
 20
770.5719765566
 30
0.0
 11
565.0270321348
 21
770.5719765566
 31
0.0
  0
LINE
  5
4E9
  8
0
  6
CONTINUOUS
 62
     7
 10
557.8377657512
 20
770.5719765566
 30
0.0
 11
557.8377657512
 21
763.7719806574
 31
0.0
  0
LINE
  5
4EA
  8
0
  6
CONTINUOUS
 62
     7
 10
565.0270321348
 20
770.5719765566
 30
0.0
 11
565.0270321348
 21
763.7719806574
 31
0.0
  0
LINE
  5
4EB
  8
0
  6
CONTINUOUS
 62
     7
 10
557.8377657512
 20
763.7719806574
 30
0.0
 11
565.0270321348
 21
763.7719806574
 31
0.0
  0
LINE
  5
4EC
  8
0
  6
CONTINUOUS
 62
     7
 10
568.7105321267
 20
770.5719765566
 30
0.0
 11
568.7105321267
 21
763.7719806574
 31
0.0
  0
LINE
  5
4ED
  8
0
  6
CONTINUOUS
 62
     7
 10
565.0270321348
 20
763.7719806574
 30
0.0
 11
568.7105321267
 21
763.7719806574
 31
0.0
  0
LINE
  5
4EE
  8
0
  6
CONTINUOUS
 62
     7
 10
554.3319956341
 20
770.5719765566
 30
0.0
 11
554.3319956341
 21
763.7719806574
 31
0.0
  0
LINE
  5
4EF
  8
0
  6
CONTINUOUS
 62
     7
 10
554.3319956341
 20
763.7719806574
 30
0.0
 11
557.8377657512
 21
763.7719806574
 31
0.0
  0
LINE
  5
4F0
  8
0
  6
CONTINUOUS
 62
     7
 10
559.4720282534
 20
850.571982219
 30
0.0
 11
565.5212663987
 21
850.571982219
 31
0.0
  0
LINE
  5
4F1
  8
0
  6
CONTINUOUS
 62
     7
 10
557.5212650874
 20
850.571982219
 30
0.0
 11
559.4720282534
 21
850.571982219
 31
0.0
  0
LINE
  5
4F2
  8
0
  6
CONTINUOUS
 62
     7
 10
467.286884872
 20
770.5719765566
 30
0.0
 11
468.3021009841
 21
770.5719765566
 31
0.0
  0
LINE
  5
4F3
  8
0
  6
CONTINUOUS
 62
     7
 10
461.009487597
 20
770.5719765566
 30
0.0
 11
467.286884872
 21
770.5719765566
 31
0.0
  0
LINE
  5
4F4
  8
0
  6
CONTINUOUS
 62
     7
 10
454.8347071686
 20
770.5719765566
 30
0.0
 11
461.009487597
 21
770.5719765566
 31
0.0
  0
LINE
  5
4F5
  8
0
  6
CONTINUOUS
 62
     7
 10
453.9221004525
 20
770.5719765566
 30
0.0
 11
454.8347071686
 21
770.5719765566
 31
0.0
  0
LINE
  5
4F6
  8
0
  6
CONTINUOUS
 62
     7
 10
461.009487597
 20
770.5719765566
 30
0.0
 11
461.009487597
 21
763.7719806574
 31
0.0
  0
LINE
  5
4F7
  8
0
  6
CONTINUOUS
 62
     7
 10
467.286884872
 20
770.5719765566
 30
0.0
 11
467.286884872
 21
763.7719806574
 31
0.0
  0
LINE
  5
4F8
  8
0
  6
CONTINUOUS
 62
     7
 10
461.009487597
 20
763.7719806574
 30
0.0
 11
467.286884872
 21
763.7719806574
 31
0.0
  0
LINE
  5
4F9
  8
0
  6
CONTINUOUS
 62
     7
 10
454.8347071686
 20
770.5719765566
 30
0.0
 11
454.8347071686
 21
763.7719806574
 31
0.0
  0
LINE
  5
4FA
  8
0
  6
CONTINUOUS
 62
     7
 10
454.8347071686
 20
763.7719806574
 30
0.0
 11
461.009487597
 21
763.7719806574
 31
0.0
  0
LINE
  5
4FB
  8
0
  6
CONTINUOUS
 62
     7
 10
457.1121000627
 20
850.571982219
 30
0.0
 11
465.112101374
 21
850.571982219
 31
0.0
  0
LINE
  5
4FC
  8
0
  6
CONTINUOUS
 62
     7
 10
467.3894979933
 20
770.5719765566
 30
0.0
 11
467.3894979933
 21
763.7719806574
 31
0.0
  0
LINE
  5
4FD
  8
0
  6
CONTINUOUS
 62
     7
 10
467.286884872
 20
763.7719806574
 30
0.0
 11
467.3894979933
 21
763.7719806574
 31
0.0
  0
LINE
  5
4FE
  8
0
  6
CONTINUOUS
 62
     7
 10
575.8166798332
 20
810.971974983
 30
0.0
 11
565.5212663987
 21
810.971974983
 31
0.0
  0
LINE
  5
4FF
  8
0
  6
CONTINUOUS
 62
     7
 10
557.5212650874
 20
810.971974983
 30
0.0
 11
465.112101374
 21
810.971974983
 31
0.0
  0
LINE
  5
500
  8
0
  6
CONTINUOUS
 62
     7
 10
457.1121000627
 20
810.971974983
 30
0.0
 11
446.8166866282
 21
810.971974983
 31
0.0
  0
LINE
  5
501
  8
0
  6
CONTINUOUS
 62
     7
 10
446.8166866282
 20
834.4719853542
 30
0.0
 11
457.1121000627
 21
834.4719853542
 31
0.0
  0
LINE
  5
502
  8
0
  6
CONTINUOUS
 62
     7
 10
465.112101374
 20
834.4719853542
 30
0.0
 11
557.5212650874
 21
834.4719853542
 31
0.0
  0
LINE
  5
503
  8
0
  6
CONTINUOUS
 62
     7
 10
565.5212663987
 20
834.4719853542
 30
0.0
 11
575.8166798332
 21
834.4719853542
 31
0.0
  0
LINE
  5
504
  8
0
  6
CONTINUOUS
 62
     7
 10
540.2492211142
 20
1143.0691477201
 30
0.0
 11
590.4638358334
 21
1143.0691477201
 31
0.0
  0
LINE
  5
505
  8
0
  6
CONTINUOUS
 62
     7
 10
432.169530628
 20
1143.0691477201
 30
0.0
 11
482.3841453472
 21
1143.0691477201
 31
0.0
  0
LINE
  5
506
  8
0
  6
CONTINUOUS
 62
     7
 10
575.6695308664
 20
1153.4282263659
 30
0.0
 11
446.9638355949
 21
1153.4282263659
 31
0.0
  0
LINE
  5
507
  8
0
  6
CONTINUOUS
 62
     7
 10
482.0723832527
 20
1141.4308395527
 30
0.0
 11
431.3166850188
 21
1141.4308395527
 31
0.0
  0
LINE
  5
508
  8
0
  6
CONTINUOUS
 62
     7
 10
591.3166814425
 20
1141.4308395527
 30
0.0
 11
540.5609832087
 21
1141.4308395527
 31
0.0
  0
LINE
  5
509
  8
0
  6
CONTINUOUS
 62
     7
 10
437.9060083011
 20
1126.4270391605
 30
0.0
 11
437.9060083011
 21
1128.4719851158
 31
0.0
  0
LINE
  5
50A
  8
0
  6
CONTINUOUS
 62
     7
 10
584.7273581603
 20
1128.4719851158
 30
0.0
 11
584.7273581603
 21
1126.4270391605
 31
0.0
  0
LINE
  5
50B
  8
0
  6
CONTINUOUS
 62
     7
 10
447.8166812041
 20
1155.0665345333
 30
0.0
 11
574.8166852572
 21
1155.0665345333
 31
0.0
  0
LINE
  5
50C
  8
0
  6
CONTINUOUS
 62
     7
 10
574.8166852572
 20
1155.4719802282
 30
0.0
 11
447.8166812041
 21
1155.4719802282
 31
0.0
  0
LINE
  5
50D
  8
0
  6
CONTINUOUS
 62
     7
 10
437.4647253135
 20
1124.8993125103
 30
0.0
 11
437.1967726329
 21
1124.8993125103
 31
0.0
  0
POLYLINE
  5
50E
  8
0
  6
CONTINUOUS
 62
     7
 66
     1
 10
0.0
 20
0.0
 30
0.0
 70
   128
  0
VERTEX
  5
90A
  8
0
  6
CONTINUOUS
 62
     7
 10
438.387949107
 20
1126.6856488131
 30
0.0
  0
VERTEX
  5
90B
  8
0
  6
CONTINUOUS
 62
     7
 10
438.1544553617
 20
1126.599028363
 30
0.0
  0
VERTEX
  5
90C
  8
0
  6
CONTINUOUS
 62
     7
 10
438.01892185
 20
1126.5156861685
 30
0.0
  0
SEQEND
  5
9E1
  8
0
  6
CONTINUOUS
 62
     7
  0
POLYLINE
  5
50F
  8
0
  6
CONTINUOUS
 62
     7
 66
     1
 10
0.0
 20
0.0
 30
0.0
 70
   128
  0
VERTEX
  5
90D
  8
0
  6
CONTINUOUS
 62
     7
 10
584.2454173544
 20
1126.6856488131
 30
0.0
  0
VERTEX
  5
90E
  8
0
  6
CONTINUOUS
 62
     7
 10
584.4789110997
 20
1126.599028363
 30
0.0
  0
VERTEX
  5
90F
  8
0
  6
CONTINUOUS
 62
     7
 10
584.6144446114
 20
1126.5156861685
 30
0.0
  0
SEQEND
  5
9E2
  8
0
  6
CONTINUOUS
 62
     7
  0
LINE
  5
510
  8
0
  6
CONTINUOUS
 62
     7
 10
585.4365938285
 20
1124.8993125103
 30
0.0
 11
585.1686411479
 21
1124.8993125103
 31
0.0
  0
ARC
  5
511
  8
0
  6
CONTINUOUS
 62
     7
 10
431.9699703533
 20
1127.1218500572
 30
0.0
 40
6.087644141560289
 50
357.4497527971
 51
12.8137698754
  0
ARC
  5
512
  8
0
  6
CONTINUOUS
 62
     7
 10
590.6797590199
 20
1127.1154336654
 30
0.0
 40
6.105023163839451
 50
167.1615701762
 51
182.1829041083
  0
POLYLINE
  5
513
  8
0
  6
CONTINUOUS
 62
     7
 66
     1
 10
0.0
 20
0.0
 30
0.0
 70
   128
  0
VERTEX
  5
910
  8
0
  6
CONTINUOUS
 62
     7
 10
604.3835320452
 20
1111.6636392019
 30
0.0
  0
VERTEX
  5
911
  8
0
  6
CONTINUOUS
 62
     7
 10
604.4178345182
 20
1111.5694042585
 30
0.0
  0
VERTEX
  5
912
  8
0
  6
CONTINUOUS
 62
     7
 10
604.5668237784
 20
1111.1600693605
 30
0.0
  0
VERTEX
  5
913
  8
0
  6
CONTINUOUS
 62
     7
 10
604.8210822919
 20
1110.4614880226
 30
0.0
  0
VERTEX
  5
914
  8
0
  6
CONTINUOUS
 62
     7
 10
605.1580273488
 20
1109.5357384823
 30
0.0
  0
VERTEX
  5
915
  8
0
  6
CONTINUOUS
 62
     7
 10
605.5477150658
 20
1108.4650900505
 30
0.0
  0
VERTEX
  5
916
  8
0
  6
CONTINUOUS
 62
     7
 10
605.9555151442
 20
1107.3446568392
 30
0.0
  0
VERTEX
  5
917
  8
0
  6
CONTINUOUS
 62
     7
 10
606.3452028611
 20
1106.2740084074
 30
0.0
  0
VERTEX
  5
918
  8
0
  6
CONTINUOUS
 62
     7
 10
606.682147918
 20
1105.3482588671
 30
0.0
  0
VERTEX
  5
919
  8
0
  6
CONTINUOUS
 62
     7
 10
606.9364064315
 20
1104.6496775291
 30
0.0
  0
VERTEX
  5
91A
  8
0
  6
CONTINUOUS
 62
     7
 10
607.0853956917
 20
1104.2403426312
 30
0.0
  0
VERTEX
  5
91B
  8
0
  6
CONTINUOUS
 62
     7
 10
607.1196981647
 20
1104.1461076878
 30
0.0
  0
SEQEND
  5
9E3
  8
0
  6
CONTINUOUS
 62
     7
  0
POLYLINE
  5
514
  8
0
  6
CONTINUOUS
 62
     7
 66
     1
 10
0.0
 20
0.0
 30
0.0
 70
   128
  0
VERTEX
  5
91C
  8
0
  6
CONTINUOUS
 62
     7
 10
604.7061049321
 20
1111.6250600956
 30
0.0
  0
VERTEX
  5
91D
  8
0
  6
CONTINUOUS
 62
     7
 10
604.7706046083
 20
1111.4478405855
 30
0.0
  0
VERTEX
  5
91E
  8
0
  6
CONTINUOUS
 62
     7
 10
604.9578078964
 20
1110.9335121058
 30
0.0
  0
VERTEX
  5
91F
  8
0
  6
CONTINUOUS
 62
     7
 10
605.2493789175
 20
1110.1324107788
 30
0.0
  0
VERTEX
  5
920
  8
0
  6
CONTINUOUS
 62
     7
 10
605.6167819479
 20
1109.1229912184
 30
0.0
  0
VERTEX
  5
921
  8
0
  6
CONTINUOUS
 62
     7
 10
606.0240455845
 20
1108.004033222
 30
0.0
  0
VERTEX
  5
922
  8
0
  6
CONTINUOUS
 62
     7
 10
606.4313166717
 20
1106.8850752256
 30
0.0
  0
VERTEX
  5
923
  8
0
  6
CONTINUOUS
 62
     7
 10
606.7987197021
 20
1105.875640764
 30
0.0
  0
VERTEX
  5
924
  8
0
  6
CONTINUOUS
 62
     7
 10
607.0902907231
 20
1105.0745543383
 30
0.0
  0
VERTEX
  5
925
  8
0
  6
CONTINUOUS
 62
     7
 10
607.2774940112
 20
1104.5602258585
 30
0.0
  0
VERTEX
  5
926
  8
0
  6
CONTINUOUS
 62
     7
 10
607.3419936874
 20
1104.3830063484
 30
0.0
  0
SEQEND
  5
9E4
  8
0
  6
CONTINUOUS
 62
     7
  0
POLYLINE
  5
515
  8
0
  6
CONTINUOUS
 62
     7
 66
     1
 10
0.0
 20
0.0
 30
0.0
 70
   128
  0
VERTEX
  5
927
  8
0
  6
CONTINUOUS
 62
     7
 10
635.5073713639
 20
1026.1516120575
 30
0.0
  0
VERTEX
  5
928
  8
0
  6
CONTINUOUS
 62
     7
 10
635.5416663864
 20
1026.0573771141
 30
0.0
  0
VERTEX
  5
929
  8
0
  6
CONTINUOUS
 62
     7
 10
635.6906556466
 20
1025.6480347655
 30
0.0
  0
VERTEX
  5
92A
  8
0
  6
CONTINUOUS
 62
     7
 10
635.9449216106
 20
1024.9494571529
 30
0.0
  0
VERTEX
  5
92B
  8
0
  6
CONTINUOUS
 62
     7
 10
636.281859217
 20
1024.0237113379
 30
0.0
  0
VERTEX
  5
92C
  8
0
  6
CONTINUOUS
 62
     7
 10
636.6715543845
 20
1022.9530591808
 30
0.0
  0
VERTEX
  5
92D
  8
0
  6
CONTINUOUS
 62
     7
 10
637.0793544629
 20
1021.8326296948
 30
0.0
  0
VERTEX
  5
92E
  8
0
  6
CONTINUOUS
 62
     7
 10
637.4690347293
 20
1020.7619738124
 30
0.0
  0
VERTEX
  5
92F
  8
0
  6
CONTINUOUS
 62
     7
 10
637.8059797862
 20
1019.8362317226
 30
0.0
  0
VERTEX
  5
930
  8
0
  6
CONTINUOUS
 62
     7
 10
638.0602382997
 20
1019.13765411
 30
0.0
  0
VERTEX
  5
931
  8
0
  6
CONTINUOUS
 62
     7
 10
638.2092350104
 20
1018.7283117614
 30
0.0
  0
VERTEX
  5
932
  8
0
  6
CONTINUOUS
 62
     7
 10
638.2435225823
 20
1018.6340730927
 30
0.0
  0
SEQEND
  5
9E5
  8
0
  6
CONTINUOUS
 62
     7
  0
POLYLINE
  5
516
  8
0
  6
CONTINUOUS
 62
     7
 66
     1
 10
0.0
 20
0.0
 30
0.0
 70
   128
  0
VERTEX
  5
933
  8
0
  6
CONTINUOUS
 62
     7
 10
635.8299368003
 20
1026.1130329512
 30
0.0
  0
VERTEX
  5
934
  8
0
  6
CONTINUOUS
 62
     7
 10
635.8944364765
 20
1025.9358059905
 30
0.0
  0
VERTEX
  5
935
  8
0
  6
CONTINUOUS
 62
     7
 10
636.0816397646
 20
1025.4214775107
 30
0.0
  0
VERTEX
  5
936
  8
0
  6
CONTINUOUS
 62
     7
 10
636.3732182363
 20
1024.620391085
 30
0.0
  0
VERTEX
  5
937
  8
0
  6
CONTINUOUS
 62
     7
 10
636.7406063655
 20
1023.6109603487
 30
0.0
  0
VERTEX
  5
938
  8
0
  6
CONTINUOUS
 62
     7
 10
637.1478849032
 20
1022.4920023523
 30
0.0
  0
VERTEX
  5
939
  8
0
  6
CONTINUOUS
 62
     7
 10
637.5551485398
 20
1021.3730406306
 30
0.0
  0
VERTEX
  5
93A
  8
0
  6
CONTINUOUS
 62
     7
 10
637.9225515702
 20
1020.3636136196
 30
0.0
  0
VERTEX
  5
93B
  8
0
  6
CONTINUOUS
 62
     7
 10
638.2141225913
 20
1019.5625271938
 30
0.0
  0
VERTEX
  5
93C
  8
0
  6
CONTINUOUS
 62
     7
 10
638.4013258794
 20
1019.0481949888
 30
0.0
  0
VERTEX
  5
93D
  8
0
  6
CONTINUOUS
 62
     7
 10
638.4658330062
 20
1018.8709717534
 30
0.0
  0
SEQEND
  5
9E6
  8
0
  6
CONTINUOUS
 62
     7
  0
POLYLINE
  5
517
  8
0
  6
CONTINUOUS
 62
     7
 66
     1
 10
0.0
 20
0.0
 30
0.0
 70
   128
  0
VERTEX
  5
93E
  8
0
  6
CONTINUOUS
 62
     7
 10
606.3217707851
 20
1103.8556840561
 30
0.0
  0
VERTEX
  5
93F
  8
0
  6
CONTINUOUS
 62
     7
 10
606.4498611668
 20
1103.5624143026
 30
0.0
  0
VERTEX
  5
940
  8
0
  6
CONTINUOUS
 62
     7
 10
606.7214422801
 20
1102.9406037472
 30
0.0
  0
VERTEX
  5
941
  8
0
  6
CONTINUOUS
 62
     7
 10
607.0523747185
 20
1102.182924404
 30
0.0
  0
VERTEX
  5
942
  8
0
  6
CONTINUOUS
 62
     7
 10
607.4299254396
 20
1101.3184931419
 30
0.0
  0
VERTEX
  5
943
  8
0
  6
CONTINUOUS
 62
     7
 10
607.8395956138
 20
1100.3805246494
 30
0.0
  0
VERTEX
  5
944
  8
0
  6
CONTINUOUS
 62
     7
 10
608.265642164
 20
1099.4050648354
 30
0.0
  0
SEQEND
  5
9E7
  8
0
  6
CONTINUOUS
 62
     7
  0
POLYLINE
  5
518
  8
0
  6
CONTINUOUS
 62
     7
 66
     1
 10
0.0
 20
0.0
 30
0.0
 70
   128
  0
VERTEX
  5
945
  8
0
  6
CONTINUOUS
 62
     7
 10
633.3538257459
 20
1030.475839629
 30
0.0
  0
VERTEX
  5
946
  8
0
  6
CONTINUOUS
 62
     7
 10
633.6874478438
 20
1029.5592170499
 30
0.0
  0
VERTEX
  5
947
  8
0
  6
CONTINUOUS
 62
     7
 10
634.0082549432
 20
1028.6778208159
 30
0.0
  0
VERTEX
  5
948
  8
0
  6
CONTINUOUS
 62
     7
 10
634.3039088824
 20
1027.8655138157
 30
0.0
  0
VERTEX
  5
949
  8
0
  6
CONTINUOUS
 62
     7
 10
634.5630475262
 20
1027.1535288833
 30
0.0
  0
VERTEX
  5
94A
  8
0
  6
CONTINUOUS
 62
     7
 10
634.7757243493
 20
1026.5692096494
 30
0.0
  0
VERTEX
  5
94B
  8
0
  6
CONTINUOUS
 62
     7
 10
634.9337511638
 20
1026.1350270651
 30
0.0
  0
VERTEX
  5
94C
  8
0
  6
CONTINUOUS
 62
     7
 10
634.9955239275
 20
1025.9653177403
 30
0.0
  0
SEQEND
  5
9E8
  8
0
  6
CONTINUOUS
 62
     7
  0
LINE
  5
519
  8
0
  6
CONTINUOUS
 62
     7
 10
601.5006863454
 20
1097.5249853275
 30
0.0
 11
599.3166827538
 21
1096.7300679825
 31
0.0
  0
LINE
  5
51A
  8
0
  6
CONTINUOUS
 62
     7
 10
599.3166827538
 20
1028.9719771884
 30
0.0
 11
626.451943157
 21
1028.9719771884
 31
0.0
  0
POLYLINE
  5
51B
  8
0
  6
CONTINUOUS
 62
     7
 66
     1
 10
0.0
 20
0.0
 30
0.0
 70
   128
  0
VERTEX
  5
94D
  8
0
  6
CONTINUOUS
 62
     7
 10
534.040026454
 20
982.0535831444
 30
0.0
  0
VERTEX
  5
94E
  8
0
  6
CONTINUOUS
 62
     7
 10
534.3942307809
 20
996.0729588113
 30
0.0
  0
VERTEX
  5
94F
  8
0
  6
CONTINUOUS
 62
     7
 10
535.467444075
 20
1038.5858562134
 30
0.0
  0
VERTEX
  5
950
  8
0
  6
CONTINUOUS
 62
     7
 10
536.0035766789
 20
1059.8417889617
 30
0.0
  0
VERTEX
  5
951
  8
0
  6
CONTINUOUS
 62
     7
 10
537.0778703073
 20
1102.4719771288
 30
0.0
  0
SEQEND
  5
9E9
  8
0
  6
CONTINUOUS
 62
     7
  0
POLYLINE
  5
51C
  8
0
  6
CONTINUOUS
 62
     7
 66
     1
 10
0.0
 20
0.0
 30
0.0
 70
   128
  0
VERTEX
  5
952
  8
0
  6
CONTINUOUS
 62
     7
 10
485.5554961541
 20
1102.4719771288
 30
0.0
  0
VERTEX
  5
953
  8
0
  6
CONTINUOUS
 62
     7
 10
486.0939794162
 20
1081.0973938845
 30
0.0
  0
VERTEX
  5
954
  8
0
  6
CONTINUOUS
 62
     7
 10
487.1659223863
 20
1038.5858487628
 30
0.0
  0
VERTEX
  5
955
  8
0
  6
CONTINUOUS
 62
     7
 10
487.7023735025
 20
1017.3295732878
 30
0.0
  0
VERTEX
  5
956
  8
0
  6
CONTINUOUS
 62
     7
 10
488.5911700258
 20
982.1415949903
 30
0.0
  0
SEQEND
  5
9EA
  8
0
  6
CONTINUOUS
 62
     7
  0
LINE
  5
51D
  8
0
  6
CONTINUOUS
 62
     7
 10
455.8110796788
 20
984.2238273762
 30
0.0
 11
452.4363727251
 21
979.4719793193
 31
0.0
  0
LINE
  5
51E
  8
0
  6
CONTINUOUS
 62
     7
 10
451.9123547652
 20
978.7337934889
 30
0.0
 11
448.8872216025
 21
974.4719784997
 31
0.0
  0
LINE
  5
51F
  8
0
  6
CONTINUOUS
 62
     7
 10
573.7461448589
 20
974.4719784997
 30
0.0
 11
570.7210116961
 21
978.7337934889
 31
0.0
  0
LINE
  5
520
  8
0
  6
CONTINUOUS
 62
     7
 10
570.1969937363
 20
979.4719793193
 30
0.0
 11
566.8222867826
 21
984.2238273762
 31
0.0
  0
LINE
  5
521
  8
0
  6
CONTINUOUS
 62
     7
 10
580.1004954556
 20
973.4719783358
 30
0.0
 11
578.394789336
 21
1107.4719723604
 31
0.0
  0
LINE
  5
522
  8
0
  6
CONTINUOUS
 62
     7
 10
581.1267458776
 20
1107.4719723604
 30
0.0
 11
582.8324519971
 21
973.4719783358
 31
0.0
  0
LINE
  5
523
  8
0
  6
CONTINUOUS
 62
     7
 10
444.2385771254
 20
1107.4719723604
 30
0.0
 11
442.5457083562
 21
974.4807049922
 31
0.0
  0
LINE
  5
524
  8
0
  6
CONTINUOUS
 62
     7
 10
439.8138933757
 20
974.4917113624
 30
0.0
 11
441.5066205838
 21
1107.4719723604
 31
0.0
  0
LINE
  5
525
  8
0
  6
CONTINUOUS
 62
     7
 10
442.5457083562
 20
974.4807049922
 30
0.0
 11
446.330148814
 21
974.4807049922
 31
0.0
  0
LINE
  5
526
  8
0
  6
CONTINUOUS
 62
     7
 10
586.1592032888
 20
973.4719783358
 30
0.0
 11
583.2840987423
 21
1107.4719723604
 31
0.0
  0
LINE
  5
527
  8
0
  6
CONTINUOUS
 62
     7
 10
583.0180459598
 20
1119.8716607235
 30
0.0
 11
582.9486139992
 21
1123.1078204058
 31
0.0
  0
LINE
  5
528
  8
0
  6
CONTINUOUS
 62
     7
 10
439.6847524622
 20
1123.1078204058
 30
0.0
 11
439.6153205016
 21
1119.8716607235
 31
0.0
  0
LINE
  5
529
  8
0
  6
CONTINUOUS
 62
     7
 10
439.3492677191
 20
1107.4719723604
 30
0.0
 11
436.4960380772
 21
974.4917113624
 31
0.0
  0
ARC
  5
52A
  8
0
  6
CONTINUOUS
 62
     7
 10
436.2349263937
 20
954.6772858768
 30
0.0
 40
19.81614585724732
 50
89.2450080602
 51
90.0195213354
  0
LINE
  5
52B
  8
0
  6
CONTINUOUS
 62
     7
 10
431.5666818002
 20
974.4719784997
 30
0.0
 11
436.2279438355
 21
974.4719784997
 31
0.0
  0
POLYLINE
  5
52C
  8
0
  6
CONTINUOUS
 62
     7
 66
     1
 10
0.0
 20
0.0
 30
0.0
 70
   128
  0
VERTEX
  5
957
  8
0
  6
CONTINUOUS
 62
     7
 10
434.3743511417
 20
977.9684251465
 30
0.0
  0
VERTEX
  5
958
  8
0
  6
CONTINUOUS
 62
     7
 10
434.924822388
 20
977.968291036
 30
0.0
  0
VERTEX
  5
959
  8
0
  6
CONTINUOUS
 62
     7
 10
436.302725313
 20
977.9679548286
 30
0.0
  0
SEQEND
  5
9EB
  8
0
  6
CONTINUOUS
 62
     7
  0
POLYLINE
  5
52D
  8
0
  6
CONTINUOUS
 62
     7
 66
     1
 10
0.0
 20
0.0
 30
0.0
 70
   128
  0
VERTEX
  5
95A
  8
0
  6
CONTINUOUS
 62
     7
 10
433.5101731995
 20
977.9784331388
 30
0.0
  0
VERTEX
  5
95B
  8
0
  6
CONTINUOUS
 62
     7
 10
433.4994369128
 20
977.9785793565
 30
0.0
  0
VERTEX
  5
95C
  8
0
  6
CONTINUOUS
 62
     7
 10
433.4993475059
 20
977.9785439662
 30
0.0
  0
SEQEND
  5
9EC
  8
0
  6
CONTINUOUS
 62
     7
  0
POLYLINE
  5
52E
  8
0
  6
CONTINUOUS
 62
     7
 66
     1
 10
0.0
 20
0.0
 30
0.0
 70
   128
  0
VERTEX
  5
95D
  8
0
  6
CONTINUOUS
 62
     7
 10
432.5580933073
 20
977.9684251465
 30
0.0
  0
VERTEX
  5
95E
  8
0
  6
CONTINUOUS
 62
     7
 10
433.1101887801
 20
977.968291036
 30
0.0
  0
VERTEX
  5
95F
  8
0
  6
CONTINUOUS
 62
     7
 10
433.4972538927
 20
977.9681969724
 30
0.0
  0
SEQEND
  5
9ED
  8
0
  6
CONTINUOUS
 62
     7
  0
LINE
  5
52F
  8
0
  6
CONTINUOUS
 62
     7
 10
521.6500163951
 20
772.4719789169
 30
0.0
 11
521.6500163951
 21
755.9719827316
 31
0.0
  0
LINE
  5
530
  8
0
  6
CONTINUOUS
 62
     7
 10
500.9833500662
 20
755.9719827316
 30
0.0
 11
500.9833500662
 21
772.4719789169
 31
0.0
  0
LINE
  5
531
  8
0
  6
CONTINUOUS
 62
     7
 10
478.4228057542
 20
755.9719827316
 30
0.0
 11
478.4228057542
 21
772.4719789169
 31
0.0
  0
LINE
  5
532
  8
0
  6
CONTINUOUS
 62
     7
 10
544.2105607071
 20
772.4719789169
 30
0.0
 11
544.2105607071
 21
755.9719827316
 31
0.0
  0
LINE
  5
533
  8
0
  6
CONTINUOUS
 62
     7
 10
467.3894979933
 20
770.0543549202
 30
0.0
 11
474.0416929999
 21
755.9719827316
 31
0.0
  0
LINE
  5
534
  8
0
  6
CONTINUOUS
 62
     7
 10
548.5916734615
 20
755.9719827316
 30
0.0
 11
554.3319956341
 21
768.123954191
 31
0.0
  0
LINE
  5
535
  8
0
  6
CONTINUOUS
 62
     7
 10
440.3166809061
 20
950.971978373
 30
0.0
 11
444.4198273995
 21
950.971978373
 31
0.0
  0
LINE
  5
536
  8
0
  6
CONTINUOUS
 62
     7
 10
578.2135390618
 20
950.971978373
 30
0.0
 11
582.3166855553
 21
950.971978373
 31
0.0
  0
LINE
  5
537
  8
0
  6
CONTINUOUS
 62
     7
 10
575.3166862705
 20
861.4719804667
 30
0.0
 11
554.7793694714
 21
861.4719804667
 31
0.0
  0
LINE
  5
538
  8
0
  6
CONTINUOUS
 62
     7
 10
467.85399699
 20
861.4719804667
 30
0.0
 11
447.3166801908
 21
861.4719804667
 31
0.0
  0
ARC
  5
539
  8
0
  6
CONTINUOUS
 62
     7
 10
489.3336909727
 20
869.4706192659
 30
0.0
 40
2.999811001382704
 50
290.690602117
 51
0.0260237042
  0
ARC
  5
53A
  8
0
  6
CONTINUOUS
 62
     7
 10
533.2986766358
 20
869.4700057163
 30
0.0
 40
2.998812490170177
 50
179.9622450545
 51
252.9237457093
  0
LINE
  5
53B
  8
0
  6
CONTINUOUS
 62
     7
 10
444.4198273995
 20
950.971978373
 30
0.0
 11
445.1103099564
 21
950.971978373
 31
0.0
  0
LINE
  5
53C
  8
0
  6
CONTINUOUS
 62
     7
 10
577.523056505
 20
950.971978373
 30
0.0
 11
578.2135390618
 21
950.971978373
 31
0.0
  0
ARC
  5
53D
  8
0
  6
CONTINUOUS
 62
     7
 10
533.2168617838
 20
889.9066399161
 30
0.0
 40
43.90499098079653
 50
158.6794708733
 51
180.8483442805
  0
ARC
  5
53E
  8
0
  6
CONTINUOUS
 62
     7
 10
489.4165046775
 20
889.9066399161
 30
0.0
 40
43.90499098080159
 50
359.1516557195
 51
21.3205291267
  0
LINE
  5
53F
  8
0
  6
CONTINUOUS
 62
     7
 10
491.8992594758
 20
930.9719797514
 30
0.0
 11
472.4322372058
 21
930.9719797514
 31
0.0
  0
LINE
  5
540
  8
0
  6
CONTINUOUS
 62
     7
 10
550.2011292556
 20
930.9719797514
 30
0.0
 11
530.7341069856
 21
930.9719797514
 31
0.0
  0
INSERT
  5
54C
  8
SLD-0
 62
     7
  2
SW_CENTERMARKSYMBOL_2
 10
511.3166832307
 20
960.9719785593
 30
0.0
  0
ENDSEC
  0
EOF
