  0
SECTION
  2
HEADER
  9
$ACADVER
  1
AC1015
  9
$ACADMAINTVER
 70
     6
  9
$DWGCODEPAGE
  3
DOS932
  9
$INSBASE
 10
0.0
 20
0.0
 30
0.0
  9
$EXTMIN
 10
0.0
 20
0.0
 30
0.0
  9
$EXTMAX
 10
1050.0
 20
1485.0
 30
0.0
  9
$LIMMIN
 10
0.0
 20
0.0
  9
$LIMMAX
 10
1050.0
 20
1485.0
  9
$ORTHOMODE
 70
     0
  9
$REGENMODE
 70
     1
  9
$FILLMODE
 70
     1
  9
$QTEXTMODE
 70
     0
  9
$MIRRTEXT
 70
     1
  9
$LTSCALE
 40
5.0
  9
$ATTMODE
 70
     1
  9
$TEXTSIZE
 40
17.5
  9
$TRACEWID
 40
1.0
  9
$TEXTSTYLE
  7
Standard
  9
$CLAYER
  8
0
  9
$CELTYPE
  6
ByLayer
  9
$CECOLOR
 62
   256
  9
$CELTSCALE
 40
1.0
  9
$DISPSILH
 70
     0
  9
$DIMSCALE
 40
1.0
  9
$DIMASZ
 40
12.5
  9
$DIMEXO
 40
5.0
  9
$DIMDLI
 40
3.75
  9
$DIMRND
 40
0.0
  9
$DIMDLE
 40
0.0
  9
$DIMEXE
 40
5.0
  9
$DIMTP
 40
0.0
  9
$DIMTM
 40
0.0
  9
$DIMTXT
 40
17.5
  9
$DIMCEN
 40
2.5
  9
$DIMTSZ
 40
0.0
  9
$DIMTOL
 70
     0
  9
$DIMLIM
 70
     0
  9
$DIMTIH
 70
     1
  9
$DIMTOH
 70
     1
  9
$DIMSE1
 70
     0
  9
$DIMSE2
 70
     0
  9
$DIMTAD
 70
     1
  9
$DIMZIN
 70
     1
  9
$DIMBLK
  1

  9
$DIMASO
 70
     1
  9
$DIMSHO
 70
     1
  9
$DIMPOST
  1

  9
$DIMAPOST
  1

  9
$DIMALT
 70
     0
  9
$DIMALTD
 70
     3
  9
$DIMALTF
 40
0.0393700787
  9
$DIMLFAC
 40
1.0
  9
$DIMTOFL
 70
     1
  9
$DIMTVP
 40
0.0
  9
$DIMTIX
 70
     0
  9
$DIMSOXD
 70
     0
  9
$DIMSAH
 70
     0
  9
$DIMBLK1
  1

  9
$DIMBLK2
  1

  9
$DIMSTYLE
  2
ISO-25
  9
$DIMCLRD
 70
     0
  9
$DIMCLRE
 70
     0
  9
$DIMCLRT
 70
     0
  9
$DIMTFAC
 40
1.0
  9
$DIMGAP
 40
7.62
  9
$DIMJUST
 70
     0
  9
$DIMSD1
 70
     0
  9
$DIMSD2
 70
     0
  9
$DIMTOLJ
 70
     0
  9
$DIMTZIN
 70
     1
  9
$DIMALTZ
 70
     0
  9
$DIMALTTZ
 70
     0
  9
$DIMUPT
 70
     0
  9
$DIMDEC
 70
     0
  9
$DIMTDEC
 70
     0
  9
$DIMALTU
 70
     2
  9
$DIMALTTD
 70
     3
  9
$DIMTXSTY
  7
Standard
  9
$DIMAUNIT
 70
     0
  9
$DIMADEC
 70
     0
  9
$DIMALTRND
 40
0.0
  9
$DIMAZIN
 70
     0
  9
$DIMDSEP
 70
    44
  9
$DIMATFIT
 70
     3
  9
$DIMFRAC
 70
     0
  9
$DIMLDRBLK
  1

  9
$DIMLUNIT
 70
     2
  9
$DIMLWD
 70
    -2
  9
$DIMLWE
 70
    -2
  9
$DIMTMOVE
 70
     0
  9
$LUNITS
 70
     2
  9
$LUPREC
 70
     0
  9
$SKETCHINC
 40
1.0
  9
$FILLETRAD
 40
10.0
  9
$AUNITS
 70
     0
  9
$AUPREC
 70
     0
  9
$MENU
  1
.
  9
$ELEVATION
 40
0.0
  9
$PELEVATION
 40
0.0
  9
$THICKNESS
 40
0.0
  9
$LIMCHECK
 70
     0
  9
$CHAMFERA
 40
10.0
  9
$CHAMFERB
 40
10.0
  9
$CHAMFERC
 40
20.0
  9
$CHAMFERD
 40
0.0
  9
$SKPOLY
 70
     0
  9
$TDCREATE
 40
2456954.660808623
  9
$TDUCREATE
 40
2456954.285808623
  9
$TDUPDATE
 40
2456954.660809711
  9
$TDUUPDATE
 40
2456954.285809711
  9
$TDINDWG
 40
0.0000000116
  9
$TDUSRTIMER
 40
0.0000000116
  9
$USRTIMER
 70
     1
  9
$ANGBASE
 50
0.0
  9
$ANGDIR
 70
     0
  9
$PDMODE
 70
     0
  9
$PDSIZE
 40
-1.0
  9
$PLINEWID
 40
0.0
  9
$SPLFRAME
 70
     0
  9
$SPLINETYPE
 70
     6
  9
$SPLINESEGS
 70
     8
  9
$HANDSEED
  5
405
  9
$SURFTAB1
 70
     6
  9
$SURFTAB2
 70
     6
  9
$SURFTYPE
 70
     6
  9
$SURFU
 70
     6
  9
$SURFV
 70
     6
  9
$UCSBASE
  2

  9
$UCSNAME
  2

  9
$UCSORG
 10
0.0
 20
0.0
 30
0.0
  9
$UCSXDIR
 10
1.0
 20
0.0
 30
0.0
  9
$UCSYDIR
 10
0.0
 20
1.0
 30
0.0
  9
$UCSORTHOREF
  2

  9
$UCSORTHOVIEW
 70
     0
  9
$UCSORGTOP
 10
0.0
 20
0.0
 30
0.0
  9
$UCSORGBOTTOM
 10
0.0
 20
0.0
 30
0.0
  9
$UCSORGLEFT
 10
0.0
 20
0.0
 30
0.0
  9
$UCSORGRIGHT
 10
0.0
 20
0.0
 30
0.0
  9
$UCSORGFRONT
 10
0.0
 20
0.0
 30
0.0
  9
$UCSORGBACK
 10
0.0
 20
0.0
 30
0.0
  9
$PUCSBASE
  2

  9
$PUCSNAME
  2

  9
$PUCSORG
 10
0.0
 20
0.0
 30
0.0
  9
$PUCSXDIR
 10
1.0
 20
0.0
 30
0.0
  9
$PUCSYDIR
 10
0.0
 20
1.0
 30
0.0
  9
$PUCSORTHOREF
  2

  9
$PUCSORTHOVIEW
 70
     0
  9
$PUCSORGTOP
 10
0.0
 20
0.0
 30
0.0
  9
$PUCSORGBOTTOM
 10
0.0
 20
0.0
 30
0.0
  9
$PUCSORGLEFT
 10
0.0
 20
0.0
 30
0.0
  9
$PUCSORGRIGHT
 10
0.0
 20
0.0
 30
0.0
  9
$PUCSORGFRONT
 10
0.0
 20
0.0
 30
0.0
  9
$PUCSORGBACK
 10
0.0
 20
0.0
 30
0.0
  9
$USERI1
 70
     0
  9
$USERI2
 70
     0
  9
$USERI3
 70
     0
  9
$USERI4
 70
     0
  9
$USERI5
 70
     0
  9
$USERR1
 40
0.0
  9
$USERR2
 40
0.0
  9
$USERR3
 40
0.0
  9
$USERR4
 40
0.0
  9
$USERR5
 40
0.0
  9
$WORLDVIEW
 70
     1
  9
$SHADEDGE
 70
     3
  9
$SHADEDIF
 70
    70
  9
$TILEMODE
 70
     1
  9
$MAXACTVP
 70
    64
  9
$PINSBASE
 10
0.0
 20
0.0
 30
0.0
  9
$PLIMCHECK
 70
     0
  9
$PEXTMIN
 10
1.0000000000E+20
 20
1.0000000000E+20
 30
1.0000000000E+20
  9
$PEXTMAX
 10
-1.0000000000E+20
 20
-1.0000000000E+20
 30
-1.0000000000E+20
  9
$PLIMMIN
 10
0.0
 20
0.0
  9
$PLIMMAX
 10
420.0
 20
297.0
  9
$UNITMODE
 70
     0
  9
$VISRETAIN
 70
     1
  9
$PLINEGEN
 70
     0
  9
$PSLTSCALE
 70
     1
  9
$TREEDEPTH
 70
  3020
  9
$CMLSTYLE
  2
Standard
  9
$CMLJUST
 70
     0
  9
$CMLSCALE
 40
20.0
  9
$PROXYGRAPHICS
 70
     1
  9
$MEASUREMENT
 70
     1
  9
$CELWEIGHT
370
    -1
  9
$ENDCAPS
280
     0
  9
$JOINSTYLE
280
     0
  9
$LWDISPLAY
290
     1
  9
$INSUNITS
 70
     4
  9
$HYPERLINKBASE
  1

  9
$STYLESHEET
  1

  9
$XEDIT
290
     1
  9
$CEPSNTYPE
380
     0
  9
$PSTYLEMODE
290
     1
  9
$FINGERPRINTGUID
  2
{287E7D74-D8C7-4F81-904A-611E11E11DB4}
  9
$VERSIONGUID
  2
{FAEB1C32-E019-11D5-929B-00C0DF256EC4}
  9
$EXTNAMES
290
     1
  9
$PSVPSCALE
 40
0.0
  9
$OLESTARTUP
290
     0
  0
ENDSEC
  0
SECTION
  2
CLASSES
  0
CLASS
  1
ACDBDICTIONARYWDFLT
  2
AcDbDictionaryWithDefault
  3
ObjectDBX Classes
 90
        0
280
     0
281
     0
  0
CLASS
  1
VISUALSTYLE
  2
AcDbVisualStyle
  3
ObjectDBX Classes
 90
     4095
280
     0
281
     0
  0
CLASS
  1
MATERIAL
  2
AcDbMaterial
  3
ObjectDBX Classes
 90
     1153
280
     0
281
     0
  0
CLASS
  1
ACDBPLACEHOLDER
  2
AcDbPlaceHolder
  3
ObjectDBX Classes
 90
        0
280
     0
281
     0
  0
CLASS
  1
LAYOUT
  2
AcDbLayout
  3
ObjectDBX Classes
 90
        0
280
     0
281
     0
  0
ENDSEC
  0
SECTION
  2
TABLES
  0
TABLE
  2
VPORT
  5
8
330
0
100
AcDbSymbolTable
 70
     1
  0
VPORT
  5
29
330
8
100
AcDbSymbolTableRecord
100
AcDbViewportTableRecord
  2
*Active
 70
     0
 10
0.0
 20
0.0
 11
1.0
 21
1.0
 12
525.0
 22
742.5
 13
0.0
 23
0.0
 14
10.0
 24
10.0
 15
10.0
 25
10.0
 16
0.0
 26
0.0
 36
1.0
 17
0.0
 27
0.0
 37
0.0
 40
1485.0
 41
0.7070707071
 42
50.0
 43
0.0
 44
0.0
 50
0.0
 51
0.0
 71
     0
 72
  2000
 73
     1
 74
     3
 75
     0
 76
     0
 77
     0
 78
     0
281
     0
 65
     1
110
0.0
120
0.0
130
0.0
111
1.0
121
0.0
131
0.0
112
0.0
122
1.0
132
0.0
 79
     0
146
0.0
  0
ENDTAB
  0
TABLE
  2
LTYPE
  5
5
330
0
100
AcDbSymbolTable
 70
     6
  0
LTYPE
  5
14
330
5
100
AcDbSymbolTableRecord
100
AcDbLinetypeTableRecord
  2
ByBlock
 70
     0
  3

 72
    65
 73
     0
 40
0.0
  0
LTYPE
  5
15
330
5
100
AcDbSymbolTableRecord
100
AcDbLinetypeTableRecord
  2
ByLayer
 70
     0
  3

 72
    65
 73
     0
 40
0.0
  0
LTYPE
  5
16
330
5
100
AcDbSymbolTableRecord
100
AcDbLinetypeTableRecord
  2
Continuous
 70
     0
  3
Solid line
 72
    65
 73
     0
 40
0.0
  0
LTYPE
  5
3F
330
5
100
AcDbSymbolTableRecord
100
AcDbLinetypeTableRecord
  2
HIDDEN
 70
     0
  3
Hidden __ __ __ __ __ __ __ __ __ __ __ __ __ __
 72
    65
 73
     2
 40
1.905
 49
1.27
 74
     0
 49
-0.635
 74
     0
  0
LTYPE
  5
40
330
5
100
AcDbSymbolTableRecord
100
AcDbLinetypeTableRecord
  2
PHANTOM
 70
     0
  3
Phantom ______  __  __  ______  __  __  ______
 72
    65
 73
     6
 40
12.7
 49
6.35
 74
     0
 49
-1.27
 74
     0
 49
1.27
 74
     0
 49
-1.27
 74
     0
 49
1.27
 74
     0
 49
-1.27
 74
     0
  0
LTYPE
  5
41
330
5
100
AcDbSymbolTableRecord
100
AcDbLinetypeTableRecord
  2
CENTER
 70
     0
  3
Center ____ _ ____ _ ____ _ ____ _ ____ _ ____
 72
    65
 73
     4
 40
10.16
 49
6.35
 74
     0
 49
-1.27
 74
     0
 49
1.27
 74
     0
 49
-1.27
 74
     0
  0
LTYPE
  5
42
330
5
100
AcDbSymbolTableRecord
100
AcDbLinetypeTableRecord
  2
CENTERX2
 70
     0
  3
Center (2x) ________  __  ________  __  _____
 72
    65
 73
     4
 40
20.32
 49
12.7
 74
     0
 49
-2.54
 74
     0
 49
2.54
 74
     0
 49
-2.54
 74
     0
  0
LTYPE
  5
43
330
5
100
AcDbSymbolTableRecord
100
AcDbLinetypeTableRecord
  2
DOT2
 70
     0
  3
Dot (.5x) ........................................
 72
    65
 73
     2
 40
0.635
 49
0.0
 74
     0
 49
-0.635
 74
     0
  0
ENDTAB
  0
TABLE
  2
LAYER
  5
2
330
0
100
AcDbSymbolTable
 70
    11
  0
LAYER
  5
10
330
2
100
AcDbSymbolTableRecord
100
AcDbLayerTableRecord
  2
0
 70
     0
 62
     7
  6
Continuous
370
    -3
390
F
  0
LAYER
  5
44
330
2
100
AcDbSymbolTableRecord
100
AcDbLayerTableRecord
  2
SLD-0
 70
     0
 62
   179
  6
Continuous
370
    -3
390
F
  0
LAYER
  5
45
330
2
100
AcDbSymbolTableRecord
100
AcDbLayerTableRecord
  2
AM_6
 70
     0
 62
     2
  6
Continuous
370
    40
390
F
  0
LAYER
  5
46
330
2
100
AcDbSymbolTableRecord
100
AcDbLayerTableRecord
  2
AM_5
 70
     0
 62
     3
  6
Continuous
370
    15
390
F
  0
LAYER
  5
47
330
2
100
AcDbSymbolTableRecord
100
AcDbLayerTableRecord
  2
AM_7
 70
     0
 62
     4
  6
Continuous
370
    15
390
F
  0
LAYER
  5
48
330
2
100
AcDbSymbolTableRecord
100
AcDbLayerTableRecord
  2
SLD-DEFPOINTS
 70
     0
 62
   179
  6
Continuous
370
    -3
390
F
  0
LAYER
  5
49
330
2
100
AcDbSymbolTableRecord
100
AcDbLayerTableRecord
  2
AM_0
 70
     0
 62
   179
  6
Continuous
370
    60
390
F
  0
LAYER
  5
4A
330
2
100
AcDbSymbolTableRecord
100
AcDbLayerTableRecord
  2
AM_CL
 70
     0
 62
     1
  6
Continuous
370
    15
390
F
  0
LAYER
  5
4B
330
2
100
AcDbSymbolTableRecord
100
AcDbLayerTableRecord
  2
6
 70
     0
 62
     2
  6
Continuous
370
    -3
390
F
  0
LAYER
  5
4C
330
2
100
AcDbSymbolTableRecord
100
AcDbLayerTableRecord
  2
AM_4
 70
     0
 62
     3
  6
Continuous
370
    15
390
F
  0
LAYER
  5
4D
330
2
100
AcDbSymbolTableRecord
100
AcDbLayerTableRecord
  2
AM_8
 70
     0
 62
     1
  6
Continuous
370
    15
390
F
  0
ENDTAB
  0
TABLE
  2
STYLE
  5
3
330
0
100
AcDbSymbolTable
 70
     1
  0
STYLE
  5
11
330
3
100
AcDbSymbolTableRecord
100
AcDbTextStyleTableRecord
  2
Standard
 70
     0
 40
0.0
 41
1.0
 50
0.0
 71
     0
 42
17.5
  3
txt
  4
bigfont
  0
ENDTAB
  0
TABLE
  2
VIEW
  5
6
330
0
100
AcDbSymbolTable
 70
     0
  0
ENDTAB
  0
TABLE
  2
UCS
  5
7
330
0
100
AcDbSymbolTable
 70
     0
  0
ENDTAB
  0
TABLE
  2
APPID
  5
9
330
0
100
AcDbSymbolTable
 70
     1
  0
APPID
  5
12
330
9
100
AcDbSymbolTableRecord
100
AcDbRegAppTableRecord
  2
ACAD
 70
     0
  0
ENDTAB
  0
TABLE
  2
DIMSTYLE
  5
A
330
0
100
AcDbSymbolTable
 70
     1
100
AcDbDimStyleTable
  0
DIMSTYLE
105
27
330
A
100
AcDbSymbolTableRecord
100
AcDbDimStyleTableRecord
  2
ISO-25
 70
     0
 41
2.5
 42
0.625
 43
3.75
 44
1.25
 73
     0
 74
     0
 77
     1
 78
     8
140
2.5
141
2.5
143
0.0393700787
147
0.625
171
     3
172
     1
178
     0
271
     2
272
     2
274
     3
278
    44
283
     0
284
     8
340
11
  0
ENDTAB
  0
TABLE
  2
BLOCK_RECORD
  5
1
330
0
100
AcDbSymbolTable
 70
     3
  0
BLOCK_RECORD
  5
1F
330
1
100
AcDbSymbolTableRecord
100
AcDbBlockTableRecord
  2
*Model_Space
340
22
  0
BLOCK_RECORD
  5
1B
330
1
100
AcDbSymbolTableRecord
100
AcDbBlockTableRecord
  2
*Paper_Space
340
1E
  0
BLOCK_RECORD
  5
23
330
1
100
AcDbSymbolTableRecord
100
AcDbBlockTableRecord
  2
*Paper_Space0
340
26
  0
BLOCK_RECORD
  5
26A
330
1
100
AcDbSymbolTableRecord
100
AcDbBlockTableRecord
  2
SW_CENTERMARKSYMBOL_0
340
0
102
{BLKREFS
331
275
102
}
  0
BLOCK_RECORD
  5
3B8
330
1
100
AcDbSymbolTableRecord
100
AcDbBlockTableRecord
  2
SW_CENTERMARKSYMBOL_1
340
0
102
{BLKREFS
331
404
102
}
  0
ENDTAB
  0
ENDSEC
  0
SECTION
  2
BLOCKS
  0
BLOCK
  5
20
330
1F
100
AcDbEntity
  8
0
100
AcDbBlockBegin
  2
*Model_Space
 70
     0
 10
0.0
 20
0.0
 30
0.0
  3
*Model_Space
  1

  0
ENDBLK
  5
21
330
1F
100
AcDbEntity
  8
0
100
AcDbBlockEnd
  0
BLOCK
  5
1C
330
1B
100
AcDbEntity
 67
     1
  8
0
100
AcDbBlockBegin
  2
*Paper_Space
 70
     0
 10
0.0
 20
0.0
 30
0.0
  3
*Paper_Space
  1

  0
ENDBLK
  5
1D
330
1B
100
AcDbEntity
 67
     1
  8
0
100
AcDbBlockEnd
  0
BLOCK
  5
24
330
23
100
AcDbEntity
  8
0
100
AcDbBlockBegin
  2
*Paper_Space0
 70
     0
 10
0.0
 20
0.0
 30
0.0
  3
*Paper_Space0
  1

  0
ENDBLK
  5
25
330
23
100
AcDbEntity
  8
0
100
AcDbBlockEnd
  0
BLOCK
  5
26B
330
26A
100
AcDbEntity
  8
0
100
AcDbBlockBegin
  2
SW_CENTERMARKSYMBOL_0
 70
     0
 10
0.0
 20
0.0
 30
0.0
  3
SW_CENTERMARKSYMBOL_0
  1

  0
LINE
  5
26D
330
26A
100
AcDbEntity
  8
SLD-0
 62
     0
100
AcDbLine
 10
0.0
 20
0.0
 30
0.0
 11
0.0
 21
2.5
 31
0.0
  0
LINE
  5
26E
330
26A
100
AcDbEntity
  8
SLD-0
 62
     0
100
AcDbLine
 10
0.0
 20
0.0
 30
0.0
 11
-2.5
 21
0.0
 31
0.0
  0
LINE
  5
26F
330
26A
100
AcDbEntity
  8
SLD-0
 62
     0
100
AcDbLine
 10
0.0
 20
0.0
 30
0.0
 11
0.0
 21
-2.5
 31
0.0
  0
LINE
  5
270
330
26A
100
AcDbEntity
  8
SLD-0
 62
     0
100
AcDbLine
 10
0.0
 20
0.0
 30
0.0
 11
2.5
 21
0.0
 31
0.0
  0
LINE
  5
271
330
26A
100
AcDbEntity
  8
SLD-0
 62
     0
100
AcDbLine
 10
0.0
 20
5.0
 30
0.0
 11
0.0
 21
246.695628776
 31
0.0
  0
LINE
  5
272
330
26A
100
AcDbEntity
  8
SLD-0
 62
     0
100
AcDbLine
 10
-5.0
 20
0.0
 30
0.0
 11
-33.8746575296
 21
0.0
 31
0.0
  0
LINE
  5
273
330
26A
100
AcDbEntity
  8
SLD-0
 62
     0
100
AcDbLine
 10
0.0
 20
-5.0
 30
0.0
 11
0.0
 21
-216.488180319
 31
0.0
  0
LINE
  5
274
330
26A
100
AcDbEntity
  8
SLD-0
 62
     0
100
AcDbLine
 10
5.0
 20
0.0
 30
0.0
 11
32.0087914066
 21
0.0
 31
0.0
  0
ENDBLK
  5
26C
330
26A
100
AcDbEntity
  8
0
100
AcDbBlockEnd
  0
BLOCK
  5
3B9
330
3B8
100
AcDbEntity
  8
0
100
AcDbBlockBegin
  2
SW_CENTERMARKSYMBOL_1
 70
     0
 10
0.0
 20
0.0
 30
0.0
  3
SW_CENTERMARKSYMBOL_1
  1

  0
ARC
  5
3BB
330
3B8
100
AcDbEntity
  8
SLD-0
 62
     0
100
AcDbCircle
 10
76.0139789776
 20
-76.0139789776
 30
0.0
 40
107.5
100
AcDbArc
 50
135.0
 51
136.3324599887
  0
ARC
  5
3BC
330
3B8
100
AcDbEntity
  8
SLD-0
 62
     0
100
AcDbCircle
 10
76.0139789776
 20
-76.0139789776
 30
0.0
 40
107.5
100
AcDbArc
 50
133.6675400113
 51
135.0
  0
ARC
  5
3BD
330
3B8
100
AcDbEntity
  8
SLD-0
 62
     0
100
AcDbCircle
 10
76.0139789776
 20
-76.0139789776
 30
0.0
 40
107.5
100
AcDbArc
 50
45.0
 51
46.3324599887
  0
ARC
  5
3BE
330
3B8
100
AcDbEntity
  8
SLD-0
 62
     0
100
AcDbCircle
 10
76.0139789776
 20
-76.0139789776
 30
0.0
 40
107.5
100
AcDbArc
 50
43.6675400113
 51
45.0
  0
ARC
  5
3BF
330
3B8
100
AcDbEntity
  8
SLD-0
 62
     0
100
AcDbCircle
 10
76.0139789776
 20
-76.0139789776
 30
0.0
 40
107.4999999999999
100
AcDbArc
 50
315.0
 51
316.3324599887
  0
ARC
  5
3C0
330
3B8
100
AcDbEntity
  8
SLD-0
 62
     0
100
AcDbCircle
 10
76.0139789776
 20
-76.0139789776
 30
0.0
 40
107.5
100
AcDbArc
 50
313.6675400113
 51
315.0
  0
ARC
  5
3C1
330
3B8
100
AcDbEntity
  8
SLD-0
 62
     0
100
AcDbCircle
 10
76.0139789776
 20
-76.0139789776
 30
0.0
 40
107.5000000000001
100
AcDbArc
 50
225.0
 51
226.3324599887
  0
ARC
  5
3C2
330
3B8
100
AcDbEntity
  8
SLD-0
 62
     0
100
AcDbCircle
 10
76.0139789776
 20
-76.0139789776
 30
0.0
 40
107.5
100
AcDbArc
 50
223.6675400113
 51
225.0
  0
ARC
  5
3C3
330
3B8
100
AcDbEntity
  8
SLD-0
 62
     0
100
AcDbCircle
 10
76.0139789776
 20
-76.0139789776
 30
0.0
 40
39.00000000000001
100
AcDbArc
 50
90.0
 51
93.672806379
  0
ARC
  5
3C4
330
3B8
100
AcDbEntity
  8
SLD-0
 62
     0
100
AcDbCircle
 10
76.0139789776
 20
-76.0139789776
 30
0.0
 40
39.00000000000001
100
AcDbArc
 50
86.327193621
 51
90.0
  0
ARC
  5
3C5
330
3B8
100
AcDbEntity
  8
SLD-0
 62
     0
100
AcDbCircle
 10
76.0139789776
 20
-76.0139789776
 30
0.0
 40
38.99999999999999
100
AcDbArc
 50
330.0
 51
333.672806379
  0
ARC
  5
3C6
330
3B8
100
AcDbEntity
  8
SLD-0
 62
     0
100
AcDbCircle
 10
76.0139789776
 20
-76.0139789776
 30
0.0
 40
39.0
100
AcDbArc
 50
326.327193621
 51
330.0
  0
ARC
  5
3C7
330
3B8
100
AcDbEntity
  8
SLD-0
 62
     0
100
AcDbCircle
 10
76.0139789776
 20
-76.0139789776
 30
0.0
 40
39.00000000000008
100
AcDbArc
 50
210.0
 51
213.672806379
  0
ARC
  5
3C8
330
3B8
100
AcDbEntity
  8
SLD-0
 62
     0
100
AcDbCircle
 10
76.0139789776
 20
-76.0139789776
 30
0.0
 40
39.00000000000008
100
AcDbArc
 50
206.327193621
 51
210.0
  0
ARC
  5
3C9
330
3B8
100
AcDbEntity
  8
SLD-0
 62
     0
100
AcDbCircle
 10
76.0139789776
 20
-76.0139789776
 30
0.0
 40
105.0
100
AcDbArc
 50
122.0
 51
123.3641852265
  0
ARC
  5
3CA
330
3B8
100
AcDbEntity
  8
SLD-0
 62
     0
100
AcDbCircle
 10
76.0139789776
 20
-76.0139789776
 30
0.0
 40
105.0
100
AcDbArc
 50
120.6358147735
 51
122.0
  0
ARC
  5
3CB
330
3B8
100
AcDbEntity
  8
SLD-0
 62
     0
100
AcDbCircle
 10
76.0139789776
 20
-76.0139789776
 30
0.0
 40
105.0
100
AcDbArc
 50
124.728370453
 51
125.5468815889
  0
ARC
  5
3CC
330
3B8
100
AcDbEntity
  8
SLD-0
 62
     0
100
AcDbCircle
 10
76.0139789776
 20
-76.0139789776
 30
0.0
 40
105.0
100
AcDbArc
 50
118.4531184111
 51
119.271629547
  0
ARC
  5
3CD
330
3B8
100
AcDbEntity
  8
SLD-0
 62
     0
100
AcDbCircle
 10
76.0139789776
 20
-76.0139789776
 30
0.0
 40
105.0
100
AcDbArc
 50
302.0
 51
303.3641852265
  0
ARC
  5
3CE
330
3B8
100
AcDbEntity
  8
SLD-0
 62
     0
100
AcDbCircle
 10
76.0139789776
 20
-76.0139789776
 30
0.0
 40
105.0
100
AcDbArc
 50
300.6358147735
 51
302.0
  0
ARC
  5
3CF
330
3B8
100
AcDbEntity
  8
SLD-0
 62
     0
100
AcDbCircle
 10
76.0139789776
 20
-76.0139789776
 30
0.0
 40
105.0
100
AcDbArc
 50
304.728370453
 51
305.5468815889
  0
ARC
  5
3D0
330
3B8
100
AcDbEntity
  8
SLD-0
 62
     0
100
AcDbCircle
 10
76.0139789776
 20
-76.0139789776
 30
0.0
 40
105.0
100
AcDbArc
 50
298.4531184111
 51
299.271629547
  0
ARC
  5
3D1
330
3B8
100
AcDbEntity
  8
SLD-0
 62
     0
100
AcDbCircle
 10
76.0139789776
 20
-76.0139789776
 30
0.0
 40
107.4999999999999
100
AcDbArc
 50
47.6649199774
 51
132.3350800226
  0
ARC
  5
3D2
330
3B8
100
AcDbEntity
  8
SLD-0
 62
     0
100
AcDbCircle
 10
76.0139789776
 20
-76.0139789776
 30
0.0
 40
107.5
100
AcDbArc
 50
317.6649199774
 51
42.3350800226
  0
ARC
  5
3D3
330
3B8
100
AcDbEntity
  8
SLD-0
 62
     0
100
AcDbCircle
 10
76.0139789776
 20
-76.0139789776
 30
0.0
 40
107.5
100
AcDbArc
 50
137.6649199774
 51
222.3350800226
  0
ARC
  5
3D4
330
3B8
100
AcDbEntity
  8
SLD-0
 62
     0
100
AcDbCircle
 10
76.0139789776
 20
-76.0139789776
 30
0.0
 40
107.5
100
AcDbArc
 50
227.6649199774
 51
312.3350800226
  0
ARC
  5
3D5
330
3B8
100
AcDbEntity
  8
SLD-0
 62
     0
100
AcDbCircle
 10
76.0139789776
 20
-76.0139789776
 30
0.0
 40
39.00000000000001
100
AcDbArc
 50
337.3456127581
 51
82.6543872419
  0
ARC
  5
3D6
330
3B8
100
AcDbEntity
  8
SLD-0
 62
     0
100
AcDbCircle
 10
76.0139789776
 20
-76.0139789776
 30
0.0
 40
39.00000000000006
100
AcDbArc
 50
97.3456127581
 51
202.6543872419
  0
ARC
  5
3D7
330
3B8
100
AcDbEntity
  8
SLD-0
 62
     0
100
AcDbCircle
 10
76.0139789776
 20
-76.0139789776
 30
0.0
 40
39.00000000000006
100
AcDbArc
 50
217.3456127581
 51
322.6543872419
  0
LINE
  5
3D8
330
3B8
100
AcDbEntity
  8
SLD-0
 62
     0
100
AcDbLine
 10
0.0
 20
0.0
 30
0.0
 11
-1.767766953
 21
1.767766953
 31
0.0
  0
LINE
  5
3D9
330
3B8
100
AcDbEntity
  8
SLD-0
 62
     0
100
AcDbLine
 10
0.0
 20
0.0
 30
0.0
 11
1.767766953
 21
-1.767766953
 31
0.0
  0
LINE
  5
3DA
330
3B8
100
AcDbEntity
  8
SLD-0
 62
     0
100
AcDbLine
 10
-3.5355339059
 20
3.5355339059
 30
0.0
 11
-6.0104076401
 21
6.0104076401
 31
0.0
  0
LINE
  5
3DB
330
3B8
100
AcDbEntity
  8
SLD-0
 62
     0
100
AcDbLine
 10
3.5355339059
 20
-3.5355339059
 30
0.0
 11
6.0104076401
 21
-6.0104076401
 31
0.0
  0
LINE
  5
3DC
330
3B8
100
AcDbEntity
  8
SLD-0
 62
     0
100
AcDbLine
 10
152.0279579551
 20
0.0
 30
0.0
 11
153.7957249081
 21
1.767766953
 31
0.0
  0
LINE
  5
3DD
330
3B8
100
AcDbEntity
  8
SLD-0
 62
     0
100
AcDbLine
 10
152.0279579551
 20
0.0
 30
0.0
 11
150.2601910021
 21
-1.767766953
 31
0.0
  0
LINE
  5
3DE
330
3B8
100
AcDbEntity
  8
SLD-0
 62
     0
100
AcDbLine
 10
155.563491861
 20
3.5355339059
 30
0.0
 11
158.0383655952
 21
6.0104076401
 31
0.0
  0
LINE
  5
3DF
330
3B8
100
AcDbEntity
  8
SLD-0
 62
     0
100
AcDbLine
 10
148.4924240492
 20
-3.5355339059
 30
0.0
 11
146.017550315
 21
-6.0104076401
 31
0.0
  0
LINE
  5
3E0
330
3B8
100
AcDbEntity
  8
SLD-0
 62
     0
100
AcDbLine
 10
152.0279579551
 20
-152.0279579551
 30
0.0
 11
153.7957249081
 21
-153.7957249081
 31
0.0
  0
LINE
  5
3E1
330
3B8
100
AcDbEntity
  8
SLD-0
 62
     0
100
AcDbLine
 10
152.0279579551
 20
-152.0279579551
 30
0.0
 11
150.2601910021
 21
-150.2601910021
 31
0.0
  0
LINE
  5
3E2
330
3B8
100
AcDbEntity
  8
SLD-0
 62
     0
100
AcDbLine
 10
155.563491861
 20
-155.563491861
 30
0.0
 11
158.0383655952
 21
-158.0383655952
 31
0.0
  0
LINE
  5
3E3
330
3B8
100
AcDbEntity
  8
SLD-0
 62
     0
100
AcDbLine
 10
148.4924240492
 20
-148.4924240492
 30
0.0
 11
146.017550315
 21
-146.017550315
 31
0.0
  0
LINE
  5
3E4
330
3B8
100
AcDbEntity
  8
SLD-0
 62
     0
100
AcDbLine
 10
76.0139789776
 20
-76.0139789776
 30
0.0
 11
76.0139789776
 21
-73.5139789776
 31
0.0
  0
LINE
  5
3E5
330
3B8
100
AcDbEntity
  8
SLD-0
 62
     0
100
AcDbLine
 10
76.0139789776
 20
-76.0139789776
 30
0.0
 11
73.5139789776
 21
-76.0139789776
 31
0.0
  0
LINE
  5
3E6
330
3B8
100
AcDbEntity
  8
SLD-0
 62
     0
100
AcDbLine
 10
76.0139789776
 20
-76.0139789776
 30
0.0
 11
76.0139789776
 21
-78.5139789776
 31
0.0
  0
LINE
  5
3E7
330
3B8
100
AcDbEntity
  8
SLD-0
 62
     0
100
AcDbLine
 10
76.0139789776
 20
-76.0139789776
 30
0.0
 11
78.5139789776
 21
-76.0139789776
 31
0.0
  0
LINE
  5
3E8
330
3B8
100
AcDbEntity
  8
SLD-0
 62
     0
100
AcDbLine
 10
76.0139789776
 20
-71.0139789776
 30
0.0
 11
76.0139789776
 21
2.5
 31
0.0
  0
LINE
  5
3E9
330
3B8
100
AcDbEntity
  8
SLD-0
 62
     0
100
AcDbLine
 10
71.0139789776
 20
-76.0139789776
 30
0.0
 11
-2.5
 21
-76.0139789776
 31
0.0
  0
LINE
  5
3EA
330
3B8
100
AcDbEntity
  8
SLD-0
 62
     0
100
AcDbLine
 10
76.0139789776
 20
-81.0139789776
 30
0.0
 11
76.0139789776
 21
-154.5279579551
 31
0.0
  0
LINE
  5
3EB
330
3B8
100
AcDbEntity
  8
SLD-0
 62
     0
100
AcDbLine
 10
81.0139789776
 20
-76.0139789776
 30
0.0
 11
154.5279579551
 21
-76.0139789776
 31
0.0
  0
LINE
  5
3EC
330
3B8
100
AcDbEntity
  8
SLD-0
 62
     0
100
AcDbLine
 10
0.0
 20
-152.0279579551
 30
0.0
 11
-1.767766953
 21
-153.7957249081
 31
0.0
  0
LINE
  5
3ED
330
3B8
100
AcDbEntity
  8
SLD-0
 62
     0
100
AcDbLine
 10
0.0
 20
-152.0279579551
 30
0.0
 11
1.767766953
 21
-150.2601910021
 31
0.0
  0
LINE
  5
3EE
330
3B8
100
AcDbEntity
  8
SLD-0
 62
     0
100
AcDbLine
 10
-3.5355339059
 20
-155.563491861
 30
0.0
 11
-6.0104076401
 21
-158.0383655952
 31
0.0
  0
LINE
  5
3EF
330
3B8
100
AcDbEntity
  8
SLD-0
 62
     0
100
AcDbLine
 10
3.5355339059
 20
-148.4924240492
 30
0.0
 11
6.0104076401
 21
-146.017550315
 31
0.0
  0
LINE
  5
3F0
330
3B8
100
AcDbEntity
  8
SLD-0
 62
     0
100
AcDbLine
 10
76.0139789776
 20
-37.0139789776
 30
0.0
 11
76.0139789776
 21
-34.5139789776
 31
0.0
  0
LINE
  5
3F1
330
3B8
100
AcDbEntity
  8
SLD-0
 62
     0
100
AcDbLine
 10
76.0139789776
 20
-37.0139789776
 30
0.0
 11
76.0139789776
 21
-39.5139789776
 31
0.0
  0
LINE
  5
3F2
330
3B8
100
AcDbEntity
  8
SLD-0
 62
     0
100
AcDbLine
 10
76.0139789776
 20
-34.5139789776
 30
0.0
 11
76.0139789776
 21
-32.0139789776
 31
0.0
  0
LINE
  5
3F3
330
3B8
100
AcDbEntity
  8
SLD-0
 62
     0
100
AcDbLine
 10
76.0139789776
 20
-39.5139789776
 30
0.0
 11
76.0139789776
 21
-42.0139789776
 31
0.0
  0
LINE
  5
3F4
330
3B8
100
AcDbEntity
  8
SLD-0
 62
     0
100
AcDbLine
 10
109.7889697251
 20
-95.5139789776
 30
0.0
 11
111.9540332346
 21
-96.7639789776
 31
0.0
  0
LINE
  5
3F5
330
3B8
100
AcDbEntity
  8
SLD-0
 62
     0
100
AcDbLine
 10
109.7889697251
 20
-95.5139789776
 30
0.0
 11
107.6239062157
 21
-94.2639789776
 31
0.0
  0
LINE
  5
3F6
330
3B8
100
AcDbEntity
  8
SLD-0
 62
     0
100
AcDbLine
 10
111.9540332346
 20
-96.7639789776
 30
0.0
 11
114.1190967441
 21
-98.0139789776
 31
0.0
  0
LINE
  5
3F7
330
3B8
100
AcDbEntity
  8
SLD-0
 62
     0
100
AcDbLine
 10
107.6239062157
 20
-94.2639789776
 30
0.0
 11
105.4588427062
 21
-93.0139789776
 31
0.0
  0
LINE
  5
3F8
330
3B8
100
AcDbEntity
  8
SLD-0
 62
     0
100
AcDbLine
 10
42.23898823
 20
-95.5139789776
 30
0.0
 11
40.0739247205
 21
-96.7639789776
 31
0.0
  0
LINE
  5
3F9
330
3B8
100
AcDbEntity
  8
SLD-0
 62
     0
100
AcDbLine
 10
42.23898823
 20
-95.5139789776
 30
0.0
 11
44.4040517394
 21
-94.2639789776
 31
0.0
  0
LINE
  5
3FA
330
3B8
100
AcDbEntity
  8
SLD-0
 62
     0
100
AcDbLine
 10
40.0739247205
 20
-96.7639789776
 30
0.0
 11
37.908861211
 21
-98.0139789776
 31
0.0
  0
LINE
  5
3FB
330
3B8
100
AcDbEntity
  8
SLD-0
 62
     0
100
AcDbLine
 10
44.4040517394
 20
-94.2639789776
 30
0.0
 11
46.5691152489
 21
-93.0139789776
 31
0.0
  0
LINE
  5
3FC
330
3B8
100
AcDbEntity
  8
SLD-0
 62
     0
100
AcDbLine
 10
20.3724562331
 20
13.0310711189
 30
0.0
 11
19.0476580725
 21
15.1511913593
 31
0.0
  0
LINE
  5
3FD
330
3B8
100
AcDbEntity
  8
SLD-0
 62
     0
100
AcDbLine
 10
20.3724562331
 20
13.0310711189
 30
0.0
 11
21.6972543937
 21
10.9109508785
 31
0.0
  0
LINE
  5
3FE
330
3B8
100
AcDbEntity
  8
SLD-0
 62
     0
100
AcDbLine
 10
17.7228599119
 20
17.2713115997
 30
0.0
 11
16.9279810156
 21
18.5433837439
 31
0.0
  0
LINE
  5
3FF
330
3B8
100
AcDbEntity
  8
SLD-0
 62
     0
100
AcDbLine
 10
23.0220525542
 20
8.7908306381
 30
0.0
 11
23.8169314506
 21
7.5187584939
 31
0.0
  0
LINE
  5
400
330
3B8
100
AcDbEntity
  8
SLD-0
 62
     0
100
AcDbLine
 10
131.655501722
 20
-165.059029074
 30
0.0
 11
132.9802998826
 21
-167.1791493144
 31
0.0
  0
LINE
  5
401
330
3B8
100
AcDbEntity
  8
SLD-0
 62
     0
100
AcDbLine
 10
131.655501722
 20
-165.059029074
 30
0.0
 11
130.3307035615
 21
-162.9389088336
 31
0.0
  0
LINE
  5
402
330
3B8
100
AcDbEntity
  8
SLD-0
 62
     0
100
AcDbLine
 10
134.3050980432
 20
-169.2992695548
 30
0.0
 11
135.0999769396
 21
-170.571341699
 31
0.0
  0
LINE
  5
403
330
3B8
100
AcDbEntity
  8
SLD-0
 62
     0
100
AcDbLine
 10
129.0059054009
 20
-160.8187885932
 30
0.0
 11
128.2110265045
 21
-159.546716449
 31
0.0
  0
ENDBLK
  5
3BA
330
3B8
100
AcDbEntity
  8
0
100
AcDbBlockEnd
  0
ENDSEC
  0
SECTION
  2
ENTITIES
  0
LINE
  5
4E
330
1F
100
AcDbEntity
  8
0
  6
Continuous
 62
     7
370
    15
100
AcDbLine
 10
605.8072580045
 20
1174.0931484815
 30
0.0
 11
588.6107368415
 21
1186.1342851039
 31
0.0
  0
LINE
  5
4F
330
1F
100
AcDbEntity
  8
0
  6
Continuous
 62
     7
370
    15
100
AcDbLine
 10
449.9050362056
 20
1186.1342851039
 30
0.0
 11
432.7085150426
 21
1174.0931484815
 31
0.0
  0
LINE
  5
50
330
1F
100
AcDbEntity
  8
0
  6
Continuous
 62
     7
370
    15
100
AcDbLine
 10
428.2578883713
 20
1171.7314634438
 30
0.0
 11
428.2578883713
 21
1122.7314535495
 31
0.0
  0
LINE
  5
51
330
1F
100
AcDbEntity
  8
0
  6
Continuous
 62
     7
370
    15
100
AcDbLine
 10
610.2578846758
 20
1128.7485573407
 30
0.0
 11
610.2578846758
 21
1171.7314634438
 31
0.0
  0
ARC
  5
52
330
1F
100
AcDbEntity
  8
0
  6
Continuous
 62
     7
370
    15
100
AcDbCircle
 10
608.2578865235
 20
1171.7314566489
 30
0.0
 40
2.0
100
AcDbArc
 50
0.0
 51
90.0
  0
ARC
  5
53
330
1F
100
AcDbEntity
  8
0
  6
Continuous
 62
     7
370
    15
100
AcDbCircle
 10
430.2578865235
 20
1171.7314566489
 30
0.0
 40
2.000000000000057
100
AcDbArc
 50
90.0
 51
180.0
  0
ARC
  5
54
330
1F
100
AcDbEntity
  8
0
  6
Continuous
 62
     7
370
    15
100
AcDbCircle
 10
606.9544081889
 20
1175.7314566489
 30
0.0
 40
2.0
100
AcDbArc
 50
235.0
 51
270.0
  0
ARC
  5
55
330
1F
100
AcDbEntity
  8
0
  6
Continuous
 62
     7
370
    15
100
AcDbCircle
 10
431.5613648581
 20
1175.7314566489
 30
0.0
 40
2.000000000000018
100
AcDbArc
 50
270.0
 51
305.0
  0
ARC
  5
56
330
1F
100
AcDbEntity
  8
0
  6
Continuous
 62
     7
370
    15
100
AcDbCircle
 10
448.7578865235
 20
1187.77259075
 30
0.0
 40
2.000000000000051
100
AcDbArc
 50
305.0
 51
0.0
  0
ARC
  5
57
330
1F
100
AcDbEntity
  8
0
  6
Continuous
 62
     7
370
    15
100
AcDbCircle
 10
589.7578865235
 20
1187.77259075
 30
0.0
 40
2.000000000000237
100
AcDbArc
 50
180.0
 51
235.0
  0
LINE
  5
58
330
1F
100
AcDbEntity
  8
0
  6
Continuous
 62
     7
370
    15
100
AcDbLine
 10
450.7578892653
 20
1189.7314552184
 30
0.0
 11
450.7578892653
 21
1187.7725932713
 31
0.0
  0
LINE
  5
59
330
1F
100
AcDbEntity
  8
0
  6
Continuous
 62
     7
370
    15
100
AcDbLine
 10
587.7578837817
 20
1187.7725932713
 30
0.0
 11
587.7578837817
 21
1189.7314552184
 31
0.0
  0
ARC
  5
5A
330
1F
100
AcDbEntity
  8
0
  6
Continuous
 62
     7
370
    15
100
AcDbCircle
 10
585.7578865235
 20
1189.7314566489
 30
0.0
 40
2.0
100
AcDbArc
 50
0.0
 51
90.0
  0
ARC
  5
5B
330
1F
100
AcDbEntity
  8
0
  6
Continuous
 62
     7
370
    15
100
AcDbCircle
 10
452.7578865235
 20
1189.7314566489
 30
0.0
 40
2.0
100
AcDbArc
 50
90.0
 51
180.0
  0
ARC
  5
5C
330
1F
100
AcDbEntity
  8
0
  6
Continuous
 62
     7
370
    15
100
AcDbCircle
 10
437.5508770121
 20
1155.6672042538
 30
0.0
 40
2.000000000000057
100
AcDbArc
 50
126.807192141
 51
180.0
  0
LINE
  5
5D
330
1F
100
AcDbEntity
  8
0
  6
Continuous
 62
     7
370
    15
100
AcDbLine
 10
435.5508742874
 20
1155.6672070142
 30
0.0
 11
435.5508742874
 21
1122.7314535495
 31
0.0
  0
ARC
  5
5E
330
1F
100
AcDbEntity
  8
0
  6
Continuous
 62
     7
370
    15
100
AcDbCircle
 10
600.9648960349
 20
1155.6672042538
 30
0.0
 40
2.0
100
AcDbArc
 50
0.0
 51
53.192807859
  0
LINE
  5
5F
330
1F
100
AcDbEntity
  8
0
  6
Continuous
 62
     7
370
    15
100
AcDbLine
 10
602.9648987596
 20
1122.7314535495
 30
0.0
 11
602.9648987596
 21
1155.6672070142
 31
0.0
  0
SPLINE
  5
60
330
1F
100
AcDbEntity
  8
0
  6
Continuous
 62
     7
370
    15
100
AcDbSpline
210
0.0
220
0.0
230
1.0
 70
     8
 71
     3
 72
     9
 73
     5
 74
     0
 42
0.00000001
 43
0.00000001
 12
1.0
 22
0.0
 32
0.0
 13
1.0
 23
0.0
 33
0.0
 40
0.0
 40
0.0
 40
0.0
 40
0.0
 40
0.6670609738330899
 40
1.0
 40
1.0
 40
1.0
 40
1.0
 10
436.3877458517807
 20
1157.563007247052
 30
0.0
 10
436.3704763222501
 20
1157.437901852677
 30
0.0
 10
436.3445873402711
 20
1157.250354687901
 30
0.0
 10
436.3474583617232
 20
1157.26604754773
 30
0.0
 10
436.3484142368094
 20
1157.271272313199
 30
0.0
  0
SPLINE
  5
61
330
1F
100
AcDbEntity
  8
0
  6
Continuous
 62
     7
370
    15
100
AcDbSpline
210
0.0
220
0.0
230
1.0
 70
     8
 71
     3
 72
    10
 73
     6
 74
     0
 42
0.00000001
 43
0.00000001
 12
1.0
 22
0.0
 32
0.0
 13
1.0
 23
0.0
 33
0.0
 40
0.0
 40
0.0
 40
0.0
 40
0.0
 40
0.1787774807504213
 40
0.795232291542501
 40
1.0
 40
1.0
 40
1.0
 40
1.0
 10
602.1708233301895
 20
1157.263091575704
 30
0.0
 10
602.173263253075
 20
1157.260883665767
 30
0.0
 10
602.1841164402847
 20
1157.25106251116
 30
0.0
 10
602.1175988376716
 20
1157.331220225213
 30
0.0
 10
602.1373244265545
 20
1157.543296963006
 30
0.0
 10
602.1422429030196
 20
1157.59617723187
 30
0.0
  0
LINE
  5
62
330
1F
100
AcDbEntity
  8
0
  6
Continuous
 62
     7
370
    15
100
AcDbLine
 10
617.1061752384
 20
1120.2314559337
 30
0.0
 11
601.6513614004
 21
1120.2314559337
 31
0.0
  0
LINE
  5
63
330
1F
100
AcDbEntity
  8
0
  6
Continuous
 62
     7
370
    15
100
AcDbLine
 10
601.6513614004
 20
1080.2314568277
 30
0.0
 11
617.1061752384
 21
1080.2314568277
 31
0.0
  0
LINE
  5
64
330
1F
100
AcDbEntity
  8
0
  6
Continuous
 62
     7
370
    15
100
AcDbLine
 10
618.4931827729
 20
1080.9627983685
 30
0.0
 11
619.3897558396
 21
1081.9262254949
 31
0.0
  0
LINE
  5
65
330
1F
100
AcDbEntity
  8
0
  6
Continuous
 62
     7
370
    15
100
AcDbLine
 10
619.3897558396
 20
1118.5366872664
 30
0.0
 11
618.4931827729
 21
1119.5001218434
 31
0.0
  0
LINE
  5
66
330
1F
100
AcDbEntity
  8
0
  6
Continuous
 62
     7
370
    15
100
AcDbLine
 10
577.7131265049
 20
774.2314550992
 30
0.0
 11
577.7131265049
 21
775.2314571257
 31
0.0
  0
LINE
  5
67
330
1F
100
AcDbEntity
  8
0
  6
Continuous
 62
     7
370
    15
100
AcDbLine
 10
563.3331296985
 20
775.2314571257
 30
0.0
 11
563.3331296985
 21
774.2314550992
 31
0.0
  0
LINE
  5
68
330
1F
100
AcDbEntity
  8
0
  6
Continuous
 62
     7
370
    15
100
AcDbLine
 10
574.5231268947
 20
789.2314556952
 30
0.0
 11
574.5231268947
 21
840.2314547416
 31
0.0
  0
LINE
  5
69
330
1F
100
AcDbEntity
  8
0
  6
Continuous
 62
     7
370
    15
100
AcDbLine
 10
566.5231293087
 20
840.2314547416
 30
0.0
 11
566.5231293087
 21
789.2314556952
 31
0.0
  0
LINE
  5
6A
330
1F
100
AcDbEntity
  8
0
  6
Continuous
 62
     7
370
    15
100
AcDbLine
 10
475.1826433485
 20
774.2314550992
 30
0.0
 11
475.1826433485
 21
775.2314571257
 31
0.0
  0
LINE
  5
6B
330
1F
100
AcDbEntity
  8
0
  6
Continuous
 62
     7
370
    15
100
AcDbLine
 10
460.8026465421
 20
775.2314571257
 30
0.0
 11
460.8026465421
 21
774.2314550992
 31
0.0
  0
LINE
  5
6C
330
1F
100
AcDbEntity
  8
0
  6
Continuous
 62
     7
370
    15
100
AcDbLine
 10
471.9926437383
 20
789.2314556952
 30
0.0
 11
471.9926437383
 21
840.2314547416
 31
0.0
  0
LINE
  5
6D
330
1F
100
AcDbEntity
  8
0
  6
Continuous
 62
     7
370
    15
100
AcDbLine
 10
463.9926461523
 20
840.2314547416
 30
0.0
 11
463.9926461523
 21
789.2314556952
 31
0.0
  0
LINE
  5
6E
330
1F
100
AcDbEntity
  8
0
  6
Continuous
 62
     7
370
    15
100
AcDbLine
 10
451.7578838413
 20
791.2314597483
 30
0.0
 11
451.7578838413
 21
775.2314571257
 31
0.0
  0
LINE
  5
6F
330
1F
100
AcDbEntity
  8
0
  6
Continuous
 62
     7
370
    15
100
AcDbLine
 10
586.7578892057
 20
775.2314571257
 30
0.0
 11
586.7578892057
 21
791.2314597483
 31
0.0
  0
LINE
  5
70
330
1F
100
AcDbEntity
  8
0
  6
Continuous
 62
     7
370
    15
100
AcDbLine
 10
582.1241570657
 20
775.2314571257
 30
0.0
 11
582.1241570657
 21
789.2314556952
 31
0.0
  0
LINE
  5
71
330
1F
100
AcDbEntity
  8
0
  6
Continuous
 62
     7
370
    15
100
AcDbLine
 10
456.3916159814
 20
789.2314556952
 30
0.0
 11
456.3916159814
 21
775.2314571257
 31
0.0
  0
LINE
  5
72
330
1F
100
AcDbEntity
  8
0
  6
Continuous
 62
     7
370
    15
100
AcDbLine
 10
550.2578860169
 20
759.731462967
 30
0.0
 11
550.2578860169
 21
775.2314571257
 31
0.0
  0
LINE
  5
73
330
1F
100
AcDbEntity
  8
0
  6
Continuous
 62
     7
370
    15
100
AcDbLine
 10
488.2578870302
 20
775.2314571257
 30
0.0
 11
488.2578870302
 21
759.731462967
 31
0.0
  0
LWPOLYLINE
  5
74
330
1F
100
AcDbEntity
  8
0
  6
Continuous
 62
     7
370
    15
100
AcDbPolyline
 90
        3
 70
   128
 43
0.0
 10
473.8566709702
 20
768.9314547892
 10
474.5858071392
 20
767.4814525958
 10
478.4829227274
 20
759.731462967
  0
LWPOLYLINE
  5
75
330
1F
100
AcDbEntity
  8
0
  6
Continuous
 62
     7
370
    15
100
AcDbPolyline
 90
        3
 70
   128
 43
0.0
 10
560.0328503196
 20
759.731462967
 10
563.9299659078
 20
767.4814525958
 10
564.6591020768
 20
768.9314547892
  0
LINE
  5
76
330
1F
100
AcDbEntity
  8
0
  6
Continuous
 62
     7
370
    15
100
AcDbLine
 10
586.7578892057
 20
791.2314597483
 30
0.0
 11
586.7578892057
 21
814.7314552184
 31
0.0
  0
LINE
  5
77
330
1F
100
AcDbEntity
  8
0
  6
Continuous
 62
     7
370
    15
100
AcDbLine
 10
451.7578838413
 20
814.7314552184
 30
0.0
 11
451.7578838413
 21
791.2314597483
 31
0.0
  0
LINE
  5
78
330
1F
100
AcDbEntity
  8
0
  6
Continuous
 62
     7
370
    15
100
AcDbLine
 10
586.7578892057
 20
814.7314552184
 30
0.0
 11
586.7578892057
 21
838.2314506884
 31
0.0
  0
LINE
  5
79
330
1F
100
AcDbEntity
  8
0
  6
Continuous
 62
     7
370
    15
100
AcDbLine
 10
451.7578838413
 20
838.2314506884
 30
0.0
 11
451.7578838413
 21
814.7314552184
 31
0.0
  0
LINE
  5
7A
330
1F
100
AcDbEntity
  8
0
  6
Continuous
 62
     7
370
    15
100
AcDbLine
 10
614.9984953945
 20
1126.1736962911
 30
0.0
 11
613.0923835581
 21
1125.4554603215
 31
0.0
  0
LINE
  5
7B
330
1F
100
AcDbEntity
  8
0
  6
Continuous
 62
     7
370
    15
100
AcDbLine
 10
614.502815718
 20
1121.7123631354
 30
0.0
 11
616.4089275544
 21
1122.4306140061
 31
0.0
  0
LINE
  5
7C
330
1F
100
AcDbEntity
  8
0
  6
Continuous
 62
     7
370
    15
100
AcDbLine
 10
645.0618190711
 20
1040.6616691466
 30
0.0
 11
643.1556997841
 21
1039.9434257265
 31
0.0
  0
LINE
  5
7D
330
1F
100
AcDbEntity
  8
0
  6
Continuous
 62
     7
370
    15
100
AcDbLine
 10
644.566131944
 20
1036.2003434416
 30
0.0
 11
646.4722437804
 21
1036.9185831364
 31
0.0
  0
LINE
  5
7E
330
1F
100
AcDbEntity
  8
0
  6
Continuous
 62
     7
370
    15
100
AcDbLine
 10
634.2467946952
 20
1129.9074355479
 30
0.0
 11
633.5453299825
 21
1129.6431187507
 31
0.0
  0
LINE
  5
7F
330
1F
100
AcDbEntity
  8
0
  6
Continuous
 62
     7
370
    15
100
AcDbLine
 10
636.5444792454
 20
1122.2241286155
 30
0.0
 11
637.0676515644
 21
1122.4212709781
 31
0.0
  0
LINE
  5
80
330
1F
100
AcDbEntity
  8
0
  6
Continuous
 62
     7
370
    15
100
AcDbLine
 10
634.3954039758
 20
1129.9170318957
 30
0.0
 11
634.2756284421
 21
1129.8791978474
 31
0.0
  0
SPLINE
  5
81
330
1F
100
AcDbEntity
  8
0
  6
Continuous
 62
     7
370
    15
100
AcDbSpline
210
0.0
220
0.0
230
1.0
 70
     8
 71
     3
 72
     9
 73
     5
 74
     0
 42
0.00000001
 43
0.00000001
 12
1.0
 22
0.0
 32
0.0
 13
1.0
 23
0.0
 33
0.0
 40
0.0
 40
0.0
 40
0.0
 40
0.0
 40
0.7028996108707206
 40
1.0
 40
1.0
 40
1.0
 40
1.0
 10
637.0362548177496
 20
1122.447243702016
 30
0.0
 10
637.095062494726
 20
1122.450739907534
 30
0.0
 10
637.1787268986703
 20
1122.455713883139
 30
0.0
 10
637.219984647207
 20
1122.518146590894
 30
0.0
 10
637.2322423403517
 20
1122.536695372663
 30
0.0
  0
ARC
  5
82
330
1F
100
AcDbEntity
  8
0
  6
Continuous
 62
     7
370
    15
100
AcDbCircle
 10
631.1690547715
 20
1124.4731653946
 30
0.0
 40
6.499999999999982
100
AcDbArc
 50
346.7717712588
 51
14.8077554718
  0
ARC
  5
83
330
1F
100
AcDbEntity
  8
0
  6
Continuous
 62
     7
370
    15
100
AcDbCircle
 10
631.1690547715
 20
1124.4731653946
 30
0.0
 40
6.500000000000078
100
AcDbArc
 50
23.9323549453
 51
54.5220217153
  0
LINE
  5
84
330
1F
100
AcDbEntity
  8
0
  6
Continuous
 62
     7
370
    15
100
AcDbLine
 10
629.1229857152
 20
1125.8394632455
 30
0.0
 11
628.1038878505
 21
1125.4554603215
 31
0.0
  0
LINE
  5
85
330
1F
100
AcDbEntity
  8
0
  6
Continuous
 62
     7
370
    15
100
AcDbLine
 10
629.5143200104
 20
1121.7123631354
 30
0.0
 11
630.5010451024
 21
1122.0841769095
 31
0.0
  0
LINE
  5
86
330
1F
100
AcDbEntity
  8
0
  6
Continuous
 62
     7
370
    15
100
AcDbLine
 10
664.3101109212
 20
1044.3954084035
 30
0.0
 11
663.9537943547
 21
1044.2611452158
 31
0.0
  0
LINE
  5
87
330
1F
100
AcDbEntity
  8
0
  6
Continuous
 62
     7
370
    15
100
AcDbLine
 10
666.1409569924
 20
1036.5361932631
 30
0.0
 11
667.1309603398
 21
1036.909236383
 31
0.0
  0
LINE
  5
88
330
1F
100
AcDbEntity
  8
0
  6
Continuous
 62
     7
370
    15
100
AcDbLine
 10
664.4587202018
 20
1044.4050047513
 30
0.0
 11
664.3389446681
 21
1044.3671669777
 31
0.0
  0
SPLINE
  5
89
330
1F
100
AcDbEntity
  8
0
  6
Continuous
 62
     7
370
    15
100
AcDbSpline
210
0.0
220
0.0
230
1.0
 70
     8
 71
     3
 72
     9
 73
     5
 74
     0
 42
0.00000001
 43
0.00000001
 12
1.0
 22
0.0
 32
0.0
 13
1.0
 23
0.0
 33
0.0
 40
0.0
 40
0.0
 40
0.0
 40
0.0
 40
0.7029046603412568
 40
1.0
 40
1.0
 40
1.0
 40
1.0
 10
667.0995784943358
 20
1036.935209107003
 30
0.0
 10
667.1583825935826
 20
1036.938713037766
 30
0.0
 10
667.2420413065842
 20
1036.9436979681
 30
0.0
 10
667.2833006173971
 20
1037.006116517512
 30
0.0
 10
667.2955585663573
 20
1037.02466077765
 30
0.0
  0
ARC
  5
8A
330
1F
100
AcDbEntity
  8
0
  6
Continuous
 62
     7
370
    15
100
AcDbCircle
 10
661.2323689205
 20
1038.9611369031
 30
0.0
 40
6.500000000000059
100
AcDbArc
 50
346.7717712588
 51
14.8077554718
  0
ARC
  5
8B
330
1F
100
AcDbEntity
  8
0
  6
Continuous
 62
     7
370
    15
100
AcDbCircle
 10
661.2323689205
 20
1038.9611369031
 30
0.0
 40
6.500000000000117
100
AcDbArc
 50
23.9323549452
 51
54.5220217153
  0
LINE
  5
8C
330
1F
100
AcDbEntity
  8
0
  6
Continuous
 62
     7
370
    15
100
AcDbLine
 10
659.2373533194
 20
1040.3466735001
 30
0.0
 11
658.167196626
 21
1039.9434257265
 31
0.0
  0
LINE
  5
8D
330
1F
100
AcDbEntity
  8
0
  6
Continuous
 62
     7
370
    15
100
AcDbLine
 10
659.5776362365
 20
1036.2003434416
 30
0.0
 11
660.4950709288
 21
1036.5460429307
 31
0.0
  0
SPLINE
  5
8E
330
1F
100
AcDbEntity
  8
0
  6
Continuous
 62
     7
370
    15
100
AcDbSpline
210
0.0
220
0.0
230
1.0
 70
     8
 71
     3
 72
    15
 73
    11
 74
     0
 42
0.00000001
 43
0.00000001
 12
1.0
 22
0.0
 32
0.0
 13
1.0
 23
0.0
 33
0.0
 40
0.0
 40
0.0
 40
0.0
 40
0.0
 40
0.0834205744833889
 40
0.2433252827762968
 40
0.4054563039232211
 40
0.5742999084238867
 40
0.7649531691320237
 40
0.8696469955128855
 40
0.9791324493670184
 40
1.0
 40
1.0
 40
1.0
 40
1.0
 10
635.0207833593147
 20
1126.558131348691
 30
0.0
 10
634.9472515456691
 20
1126.760309396396
 30
0.0
 10
634.7327702925832
 20
1127.350032386603
 30
0.0
 10
634.3161013040483
 20
1128.306116590224
 30
0.0
 10
633.7717454290826
 20
1129.342303877305
 30
0.0
 10
633.1660317075272
 20
1130.252283832118
 30
0.0
 10
632.5890030418984
 20
1130.879581518254
 30
0.0
 10
631.909593766346
 20
1131.304307977354
 30
0.0
 10
631.4029703334055
 20
1131.445359925323
 30
0.0
 10
631.107561311269
 20
1131.451996135542
 30
0.0
 10
631.0602707808273
 20
1131.453058492742
 30
0.0
  0
LINE
  5
8F
330
1F
100
AcDbEntity
  8
0
  6
Continuous
 62
     7
370
    15
100
AcDbLine
 10
665.4144657796
 20
1040.1064071771
 30
0.0
 11
635.0207833593
 21
1126.5581313487
 31
0.0
  0
LINE
  5
90
330
1F
100
AcDbEntity
  8
0
  6
Continuous
 62
     7
370
    15
100
AcDbLine
 10
631.0602707808
 20
1131.4530584927
 30
0.0
 11
615.7899482196
 21
1131.4530584927
 31
0.0
  0
LINE
  5
91
330
1F
100
AcDbEntity
  8
0
  6
Continuous
 62
     7
370
    15
100
AcDbLine
 10
660.8822776025
 20
1032.7379878577
 30
0.0
 11
664.7852791493
 21
1034.2086765881
 31
0.0
  0
SPLINE
  5
92
330
1F
100
AcDbEntity
  8
0
  6
Continuous
 62
     7
370
    15
100
AcDbSpline
210
0.0
220
0.0
230
1.0
 70
     8
 71
     3
 72
    16
 73
    12
 74
     0
 42
0.00000001
 43
0.00000001
 12
1.0
 22
0.0
 32
0.0
 13
1.0
 23
0.0
 33
0.0
 40
0.0
 40
0.0
 40
0.0
 40
0.0
 40
0.0099194003303711
 40
0.1213604980663089
 40
0.2179261554689759
 40
0.3153039573775375
 40
0.4286807977686368
 40
0.5827609945415079
 40
0.7444364227582643
 40
0.9123094911536453
 40
1.0
 40
1.0
 40
1.0
 40
1.0
 10
664.7589785998122
 20
1034.211660545669
 30
0.0
 10
664.7815054475612
 20
1034.215670138988
 30
0.0
 10
665.0571137879491
 20
1034.264726153067
 30
0.0
 10
665.474905508977
 20
1034.613209768976
 30
0.0
 10
665.8775313567526
 20
1035.148147141334
 30
0.0
 10
666.0864148261737
 20
1035.741376202793
 30
0.0
 10
666.1729661576003
 20
1036.414159488344
 30
0.0
 10
666.1366539331823
 20
1037.236911875765
 30
0.0
 10
665.958439743796
 20
1038.279890325303
 30
0.0
 10
665.6970085024332
 20
1039.272399448009
 30
0.0
 10
665.4866464647897
 20
1039.893344710775
 30
0.0
 10
665.4144657795684
 20
1040.106407177052
 30
0.0
  0
LINE
  5
93
330
1F
100
AcDbEntity
  8
0
  6
Continuous
 62
     7
370
    15
100
AcDbLine
 10
663.765890712
 20
1044.7955977138
 30
0.0
 11
663.9254076426
 21
1044.8557015475
 31
0.0
  0
SPLINE
  5
94
330
1F
100
AcDbEntity
  8
0
  6
Continuous
 62
     7
370
    15
100
AcDbSpline
210
0.0
220
0.0
230
1.0
 70
     8
 71
     3
 72
    15
 73
    11
 74
     0
 42
0.00000001
 43
0.00000001
 12
1.0
 22
0.0
 32
0.0
 13
1.0
 23
0.0
 33
0.0
 40
0.0
 40
0.0
 40
0.0
 40
0.0
 40
0.083587133704366
 40
0.2450840472536108
 40
0.413944003020548
 40
0.6107125887891304
 40
0.7315856111922127
 40
0.8437217643169389
 40
0.9607153748005938
 40
0.9999999999999999
 40
0.9999999999999999
 40
0.9999999999999999
 40
0.9999999999999999
 10
665.925784224774
 20
1117.664552104077
 30
0.0
 10
665.9231859105041
 20
1117.861933326217
 30
0.0
 10
665.9155674487976
 20
1118.440670586727
 30
0.0
 10
665.8287250237352
 20
1119.391301706159
 30
0.0
 10
665.617140334182
 20
1120.462623578213
 30
0.0
 10
665.3005471110454
 20
1121.309256165482
 30
0.0
 10
664.7849321375926
 20
1122.007919903628
 30
0.0
 10
664.1696172411954
 20
1122.46189489191
 30
0.0
 10
663.5862499598695
 20
1122.648509850574
 30
0.0
 10
663.2370946833871
 20
1122.661325729161
 30
0.0
 10
663.1493253653304
 20
1122.664547335706
 30
0.0
  0
LINE
  5
95
330
1F
100
AcDbEntity
  8
0
  6
Continuous
 62
     7
370
    15
100
AcDbLine
 10
665.9257842248
 20
1049.9064575847
 30
0.0
 11
665.9257842248
 21
1117.6645521041
 31
0.0
  0
SPLINE
  5
96
330
1F
100
AcDbEntity
  8
0
  6
Continuous
 62
     7
370
    15
100
AcDbSpline
210
0.0
220
0.0
230
1.0
 70
     8
 71
     3
 72
    15
 73
    11
 74
     0
 42
0.00000001
 43
0.00000001
 12
1.0
 22
0.0
 32
0.0
 13
1.0
 23
0.0
 33
0.0
 40
0.0
 40
0.0
 40
0.0
 40
0.0
 40
0.0100339495912023
 40
0.12415071675185
 40
0.232898128115824
 40
0.3497711909777748
 40
0.4954817573681243
 40
0.7018474597529101
 40
0.8970704113547194
 40
0.9999999999999999
 40
0.9999999999999999
 40
0.9999999999999999
 40
0.9999999999999999
 10
663.9158112948196
 20
1044.863669943414
 30
0.0
 10
663.9359014261086
 20
1044.86732969261
 30
0.0
 10
664.1844779389262
 20
1044.912612009586
 30
0.0
 10
664.5708594359087
 20
1045.211298086752
 30
0.0
 10
665.0205319116451
 20
1045.666578723756
 30
0.0
 10
665.3470450643973
 20
1046.240649977502
 30
0.0
 10
665.618774512968
 20
1046.991536900059
 30
0.0
 10
665.8180694160043
 20
1047.995609954013
 30
0.0
 10
665.9144685185152
 20
1049.046496627495
 30
0.0
 10
665.9228802784086
 20
1049.685766057455
 30
0.0
 10
665.9257842247741
 20
1049.906457584701
 30
0.0
  0
LINE
  5
97
330
1F
100
AcDbEntity
  8
0
  6
Continuous
 62
     7
370
    15
100
AcDbLine
 10
615.1015443747
 20
1131.3281867619
 30
0.0
 11
611.1985502785
 21
1129.8575017567
 31
0.0
  0
LINE
  5
98
330
1F
100
AcDbEntity
  8
0
  6
Continuous
 62
     7
370
    15
100
AcDbLine
 10
615.7899482196
 20
1131.4530584927
 30
0.0
 11
615.1278449242
 21
1131.3252065297
 31
0.0
  0
LINE
  5
99
330
1F
100
AcDbEntity
  8
0
  6
Continuous
 62
     7
370
    15
100
AcDbLine
 10
615.9225313013
 20
1128.7522230264
 30
0.0
 11
615.1459125822
 21
1128.4595791217
 31
0.0
  0
SPLINE
  5
9A
330
1F
100
AcDbEntity
  8
0
  6
Continuous
 62
     7
370
    15
100
AcDbSpline
210
0.0
220
0.0
230
1.0
 70
     8
 71
     3
 72
    15
 73
    11
 74
     0
 42
0.00000001
 43
0.00000001
 12
1.0
 22
0.0
 32
0.0
 13
1.0
 23
0.0
 33
0.0
 40
0.0
 40
0.0
 40
0.0
 40
0.0
 40
0.0835871793264087
 40
0.2450836659129223
 40
0.4139444478277715
 40
0.6107136359524932
 40
0.7315857913709218
 40
0.8437221430660494
 40
0.9607162984305779
 40
1.0
 40
1.0
 40
1.0
 40
1.0
 10
613.8017905895965
 20
1047.231457006535
 30
0.0
 10
613.8043918228316
 20
1047.034075746408
 30
0.0
 10
613.8120188271437
 20
1046.455339590884
 30
0.0
 10
613.8988566299338
 20
1045.504709379005
 30
0.0
 10
614.1104416492441
 20
1044.43338153634
 30
0.0
 10
614.4270356300217
 20
1043.586746731487
 30
0.0
 10
614.9426439638172
 20
1042.888086999072
 30
0.0
 10
615.5579562390212
 20
1042.434098084101
 30
0.0
 10
616.1413305918893
 20
1042.247511719715
 30
0.0
 10
616.4904827625517
 20
1042.23468285305
 30
0.0
 10
616.5782494490402
 20
1042.231458049617
 30
0.0
  0
LINE
  5
9B
330
1F
100
AcDbEntity
  8
0
  6
Continuous
 62
     7
370
    15
100
AcDbLine
 10
617.923235709
 20
1120.8395425197
 30
0.0
 11
616.3094623034
 21
1120.2314559337
 31
0.0
  0
SPLINE
  5
9C
330
1F
100
AcDbEntity
  8
0
  6
Continuous
 62
     7
370
    15
100
AcDbSpline
210
0.0
220
0.0
230
1.0
 70
     8
 71
     3
 72
    10
 73
     6
 74
     0
 42
0.00000001
 43
0.00000001
 12
1.0
 22
0.0
 32
0.0
 13
1.0
 23
0.0
 33
0.0
 40
0.0
 40
0.0
 40
0.0
 40
0.0
 40
0.3258070733292563
 40
0.9389673834392126
 40
1.0
 40
1.0
 40
1.0
 40
1.0
 10
618.2044578736084
 20
1121.053418886266
 30
0.0
 10
618.2071292395411
 20
1121.055961012861
 30
0.0
 10
618.2148280456306
 20
1121.063287354592
 30
0.0
 10
618.0346284595292
 20
1120.855606607559
 30
0.0
 10
617.8961495885616
 20
1120.833825314123
 30
0.0
 10
617.883613521363
 20
1120.831853520474
 30
0.0
  0
LINE
  5
9D
330
1F
100
AcDbEntity
  8
0
  6
Continuous
 62
     7
370
    15
100
AcDbLine
 10
613.8017905896
 20
1080.2314568277
 30
0.0
 11
613.8017905896
 21
1047.2314570065
 31
0.0
  0
LINE
  5
9E
330
1F
100
AcDbEntity
  8
0
  6
Continuous
 62
     7
370
    15
100
AcDbLine
 10
618.0761663263
 20
1123.5952142592
 30
0.0
 11
617.4407957142
 21
1123.3557973023
 31
0.0
  0
SPLINE
  5
9F
330
1F
100
AcDbEntity
  8
0
  6
Continuous
 62
     7
370
    15
100
AcDbSpline
210
0.0
220
0.0
230
1.0
 70
     8
 71
     3
 72
    10
 73
     6
 74
     0
 42
0.00000001
 43
0.00000001
 12
1.0
 22
0.0
 32
0.0
 13
1.0
 23
0.0
 33
0.0
 40
0.0
 40
0.0
 40
0.0
 40
0.0
 40
0.2109607734030444
 40
0.5591346543233816
 40
1.0
 40
1.0
 40
1.0
 40
1.0
 10
618.2589290683525
 20
1123.752987753949
 30
0.0
 10
618.259747283366
 20
1123.753654505542
 30
0.0
 10
618.2619158968071
 20
1123.755421677304
 30
0.0
 10
618.1714905309033
 20
1123.615134061729
 30
0.0
 10
618.0286188712269
 20
1123.587288418222
 30
0.0
 10
617.9487912004249
 20
1123.571730029187
 30
0.0
  0
LINE
  5
A0
330
1F
100
AcDbEntity
  8
0
  6
Continuous
 62
     7
370
    15
100
AcDbLine
 10
615.440508539
 20
1127.9897455092
 30
0.0
 11
614.3513007109
 21
1127.5793079253
 31
0.0
  0
LINE
  5
A1
330
1F
100
AcDbEntity
  8
0
  6
Continuous
 62
     7
370
    15
100
AcDbLine
 10
601.5578864162
 20
986.2314565539
 30
0.0
 11
601.5578864162
 21
1122.7314535495
 31
0.0
  0
LINE
  5
A2
330
1F
100
AcDbEntity
  8
0
  6
Continuous
 62
     7
370
    15
100
AcDbLine
 10
436.9578866308
 20
1122.7314535495
 30
0.0
 11
436.9578866308
 21
986.2314565539
 31
0.0
  0
LINE
  5
A3
330
1F
100
AcDbEntity
  8
0
  6
Continuous
 62
     7
370
    15
100
AcDbLine
 10
434.2578856294
 20
936.231455576
 30
0.0
 11
434.2578856294
 21
933.2314569469
 31
0.0
  0
LINE
  5
A4
330
1F
100
AcDbEntity
  8
0
  6
Continuous
 62
     7
370
    15
100
AcDbLine
 10
604.2578874176
 20
933.2314569469
 30
0.0
 11
604.2578874176
 21
936.231455576
 31
0.0
  0
LINE
  5
A5
330
1F
100
AcDbEntity
  8
0
  6
Continuous
 62
     7
370
    15
100
AcDbLine
 10
603.257885391
 20
980.2314562689
 30
0.0
 11
603.257885391
 21
986.2314565539
 31
0.0
  0
LINE
  5
A6
330
1F
100
AcDbEntity
  8
0
  6
Continuous
 62
     7
370
    15
100
AcDbLine
 10
435.257887656
 20
986.2314565539
 30
0.0
 11
435.257887656
 21
980.2314562689
 31
0.0
  0
LINE
  5
A7
330
1F
100
AcDbEntity
  8
0
  6
Continuous
 62
     7
370
    15
100
AcDbLine
 10
586.7578892057
 20
838.2314506884
 30
0.0
 11
586.7578892057
 21
870.2314559337
 31
0.0
  0
LINE
  5
A8
330
1F
100
AcDbEntity
  8
0
  6
Continuous
 62
     7
370
    15
100
AcDbLine
 10
451.7578838413
 20
870.2314559337
 30
0.0
 11
451.7578838413
 21
838.2314506884
 31
0.0
  0
LINE
  5
A9
330
1F
100
AcDbEntity
  8
0
  6
Continuous
 62
     7
370
    15
100
AcDbLine
 10
445.4399554079
 20
980.2314562689
 30
0.0
 11
445.4399554079
 21
948.231457543
 31
0.0
  0
LINE
  5
AA
330
1F
100
AcDbEntity
  8
0
  6
Continuous
 62
     7
370
    15
100
AcDbLine
 10
593.0758176391
 20
948.231457543
 30
0.0
 11
593.0758176391
 21
980.2314562689
 31
0.0
  0
LINE
  5
AB
330
1F
100
AcDbEntity
  8
0
  6
Continuous
 62
     7
370
    15
100
AcDbLine
 10
443.2578889673
 20
980.2314562689
 30
0.0
 11
443.2578889673
 21
948.231457543
 31
0.0
  0
LINE
  5
AC
330
1F
100
AcDbEntity
  8
0
  6
Continuous
 62
     7
370
    15
100
AcDbLine
 10
595.2578840797
 20
948.231457543
 30
0.0
 11
595.2578840797
 21
980.2314562689
 31
0.0
  0
SPLINE
  5
AD
330
1F
100
AcDbEntity
  8
0
  6
Continuous
 62
     7
370
    15
100
AcDbSpline
210
0.0
220
0.0
230
1.0
 70
     8
 71
     3
 72
    11
 73
     7
 74
     0
 42
0.00000001
 43
0.00000001
 12
1.0
 22
0.0
 32
0.0
 13
1.0
 23
0.0
 33
0.0
 40
0.0
 40
0.0
 40
0.0
 40
0.0
 40
0.2495154849428998
 40
0.4999856470131029
 40
0.8418427565187446
 40
1.0
 40
1.0
 40
1.0
 40
1.0
 10
503.6385796984093
 20
1174.09314848145
 30
0.0
 10
506.2290494279616
 20
1174.37162947884
 30
0.0
 10
511.4199003448675
 20
1174.929656976384
 30
0.0
 10
520.2108933449243
 20
1175.176557157421
 30
0.0
 10
528.0501005441557
 20
1174.866969625942
 30
0.0
 10
533.2366573778445
 20
1174.279096066878
 30
0.0
 10
534.8771933486121
 20
1174.09314848145
 30
0.0
  0
LWPOLYLINE
  5
AE
330
1F
100
AcDbEntity
  8
0
  6
Continuous
 62
     7
370
    15
100
AcDbPolyline
 90
        9
 70
   128
 43
0.0
 10
534.8771933486
 20
1174.0931484815
 10
534.8585352322
 20
1173.9455077763
 10
534.8371036371
 20
1173.7759027596
 10
534.8132142817
 20
1173.5868517276
 10
534.7872182747
 20
1173.3811262961
 10
534.7594983896
 20
1173.161751401
 10
534.730463477
 20
1172.9319903966
 10
534.7005400827
 20
1172.6951811429
 10
534.6701696535
 20
1172.4548552152
  0
SPLINE
  5
AF
330
1F
100
AcDbEntity
  8
0
  6
Continuous
 62
     7
370
    15
100
AcDbSpline
210
0.0
220
0.0
230
1.0
 70
     8
 71
     3
 72
    11
 73
     7
 74
     0
 42
0.00000001
 43
0.00000001
 12
1.0
 22
0.0
 32
0.0
 13
1.0
 23
0.0
 33
0.0
 40
0.0
 40
0.0
 40
0.0
 40
0.0
 40
0.2495263173018527
 40
0.5000316570344693
 40
0.7495143648704602
 40
0.9999999999999999
 40
0.9999999999999999
 40
0.9999999999999999
 40
0.9999999999999999
 10
534.6701696535008
 20
1172.454855215154
 30
0.0
 10
532.1140583929583
 20
1172.733480318565
 30
0.0
 10
526.9918069086496
 20
1173.291823717597
 30
0.0
 10
519.2674415864443
 20
1173.50898795484
 30
0.0
 10
511.5332196359011
 20
1173.292372869405
 30
0.0
 10
506.4115667880952
 20
1172.73440086043
 30
0.0
 10
503.8456033935205
 20
1172.454855215154
 30
0.0
  0
LWPOLYLINE
  5
B0
330
1F
100
AcDbEntity
  8
0
  6
Continuous
 62
     7
370
    15
100
AcDbPolyline
 90
        9
 70
   128
 43
0.0
 10
503.6385796984
 20
1174.0931484815
 10
503.6572378149
 20
1173.9455077763
 10
503.67866941
 20
1173.7759027596
 10
503.7025587653
 20
1173.5868517276
 10
503.7285547723
 20
1173.3811262961
 10
503.7562746575
 20
1173.161751401
 10
503.78530957
 20
1172.9319903966
 10
503.8152329644
 20
1172.6951811429
 10
503.8456033935
 20
1172.4548552152
  0
LINE
  5
B1
330
1F
100
AcDbEntity
  8
0
  6
Continuous
 62
     7
370
    15
100
AcDbLine
 10
593.0060951059
 20
1159.2314604636
 30
0.0
 11
602.3017970865
 21
1159.2314604636
 31
0.0
  0
LINE
  5
B2
330
1F
100
AcDbEntity
  8
0
  6
Continuous
 62
     7
370
    15
100
AcDbLine
 10
593.0060951059
 20
1122.7314535495
 30
0.0
 11
593.0060951059
 21
1159.2314604636
 31
0.0
  0
LINE
  5
B3
330
1F
100
AcDbEntity
  8
0
  6
Continuous
 62
     7
370
    15
100
AcDbLine
 10
565.2578866129
 20
1122.7314535495
 30
0.0
 11
593.0060951059
 21
1122.7314535495
 31
0.0
  0
SPLINE
  5
B4
330
1F
100
AcDbEntity
  8
0
  6
Continuous
 62
     7
370
    15
100
AcDbSpline
210
0.0
220
0.0
230
1.0
 70
     8
 71
     3
 72
    12
 73
     8
 74
     0
 42
0.00000001
 43
0.00000001
 12
1.0
 22
0.0
 32
0.0
 13
1.0
 23
0.0
 33
0.0
 40
0.0
 40
0.0
 40
0.0
 40
0.0
 40
0.1808734887031092
 40
0.3614172775952551
 40
0.5505809823669539
 40
0.7622080536464517
 40
0.9999999999999999
 40
0.9999999999999999
 40
0.9999999999999999
 40
0.9999999999999999
 10
563.2578862850921
 20
1124.731457602582
 30
0.0
 10
563.276277087468
 20
1124.52733879271
 30
0.0
 10
563.3130251690978
 20
1124.119473244812
 30
0.0
 10
563.5945039612163
 20
1123.570872591628
 30
0.0
 10
564.0163823237627
 20
1123.124086752187
 30
0.0
 10
564.5881390095997
 20
1122.797889912945
 30
0.0
 10
565.0261374201592
 20
1122.754442170149
 30
0.0
 10
565.2578866129177
 20
1122.731453549466
 30
0.0
  0
SPLINE
  5
B5
330
1F
100
AcDbEntity
  8
0
  6
Continuous
 62
     7
370
    15
100
AcDbSpline
210
0.0
220
0.0
230
1.0
 70
     8
 71
     3
 72
    12
 73
     8
 74
     0
 42
0.00000001
 43
0.00000001
 12
1.0
 22
0.0
 32
0.0
 13
1.0
 23
0.0
 33
0.0
 40
0.0
 40
0.0
 40
0.0
 40
0.0
 40
0.2521071336438708
 40
0.5047026006603818
 40
0.7406678489750187
 40
0.9463320000216625
 40
1.0
 40
1.0
 40
1.0
 40
1.0
 10
561.2578859572665
 20
1126.731461655698
 30
0.0
 10
561.5073982812606
 20
1126.704414744777
 30
0.0
 10
562.0069062364562
 20
1126.65026853287
 30
0.0
 10
562.6557523710788
 20
1126.226662724332
 30
0.0
 10
563.0976558701573
 20
1125.621353792961
 30
0.0
 10
563.2482032496209
 20
1125.079562949703
 30
0.0
 10
563.2562260010769
 20
1124.791144850981
 30
0.0
 10
563.2578862850921
 20
1124.731457602582
 30
0.0
  0
LINE
  5
B6
330
1F
100
AcDbEntity
  8
0
  6
Continuous
 62
     7
370
    15
100
AcDbLine
 10
561.2578859573
 20
1126.7314616557
 30
0.0
 11
549.0068366771
 21
1126.7314616557
 31
0.0
  0
LINE
  5
B7
330
1F
100
AcDbEntity
  8
0
  6
Continuous
 62
     7
370
    15
100
AcDbLine
 10
549.0068366771
 20
1171.7314634438
 30
0.0
 11
549.0068366771
 21
1126.7314616557
 31
0.0
  0
LINE
  5
B8
330
1F
100
AcDbEntity
  8
0
  6
Continuous
 62
     7
370
    15
100
AcDbLine
 10
488.6814991032
 20
1126.7314616557
 30
0.0
 11
488.6814991032
 21
1171.7314634438
 31
0.0
  0
LINE
  5
B9
330
1F
100
AcDbEntity
  8
0
  6
Continuous
 62
     7
370
    15
100
AcDbLine
 10
488.6814991032
 20
1126.7314616557
 30
0.0
 11
477.2578870898
 21
1126.7314616557
 31
0.0
  0
SPLINE
  5
BA
330
1F
100
AcDbEntity
  8
0
  6
Continuous
 62
     7
370
    15
100
AcDbSpline
210
0.0
220
0.0
230
1.0
 70
     8
 71
     3
 72
    12
 73
     8
 74
     0
 42
0.00000001
 43
0.00000001
 12
1.0
 22
0.0
 32
0.0
 13
1.0
 23
0.0
 33
0.0
 40
0.0
 40
0.0
 40
0.0
 40
0.0
 40
0.1829290205670801
 40
0.3655042215822192
 40
0.5574142963570499
 40
0.7721366706085773
 40
1.0
 40
1.0
 40
1.0
 40
1.0
 10
475.2578867619293
 20
1124.731457602582
 30
0.0
 10
475.2763807092393
 20
1124.936111595153
 30
0.0
 10
475.3133328330445
 20
1125.345023740512
 30
0.0
 10
475.5965145773667
 20
1125.895487066257
 30
0.0
 10
476.0230235244148
 20
1126.344773878737
 30
0.0
 10
476.5940080676443
 20
1126.666638111921
 30
0.0
 10
477.0322566885794
 20
1126.709430288987
 30
0.0
 10
477.2578870897548
 20
1126.731461655698
 30
0.0
  0
SPLINE
  5
BB
330
1F
100
AcDbEntity
  8
0
  6
Continuous
 62
     7
370
    15
100
AcDbSpline
210
0.0
220
0.0
230
1.0
 70
     8
 71
     3
 72
    11
 73
     7
 74
     0
 42
0.00000001
 43
0.00000001
 12
1.0
 22
0.0
 32
0.0
 13
1.0
 23
0.0
 33
0.0
 40
0.0
 40
0.0
 40
0.0
 40
0.0
 40
0.3031309490687186
 40
0.5634716074459121
 40
0.7924713186557714
 40
1.0
 40
1.0
 40
1.0
 40
1.0
 10
473.2578864341037
 20
1122.731453549466
 30
0.0
 10
473.5541955785243
 20
1122.768753471026
 30
0.0
 10
474.1049865499529
 20
1122.838088017114
 30
0.0
 10
474.7663042329926
 20
1123.349261108387
 30
0.0
 10
475.1819573352661
 20
1124.004636953663
 30
0.0
 10
475.2334207100384
 20
1124.49726076358
 30
0.0
 10
475.2578867619293
 20
1124.731457602582
 30
0.0
  0
LINE
  5
BC
330
1F
100
AcDbEntity
  8
0
  6
Continuous
 62
     7
370
    15
100
AcDbLine
 10
445.5096779411
 20
1122.7314535495
 30
0.0
 11
473.2578864341
 21
1122.7314535495
 31
0.0
  0
LINE
  5
BD
330
1F
100
AcDbEntity
  8
0
  6
Continuous
 62
     7
370
    15
100
AcDbLine
 10
445.5096779411
 20
1159.2314604636
 30
0.0
 11
445.5096779411
 21
1122.7314535495
 31
0.0
  0
LINE
  5
BE
330
1F
100
AcDbEntity
  8
0
  6
Continuous
 62
     7
370
    15
100
AcDbLine
 10
436.2139759605
 20
1159.2314604636
 30
0.0
 11
445.5096779411
 21
1159.2314604636
 31
0.0
  0
LINE
  5
BF
330
1F
100
AcDbEntity
  8
0
  6
Continuous
 62
     7
370
    15
100
AcDbLine
 10
428.2578883713
 20
1122.7314535495
 30
0.0
 11
435.5508742874
 21
1122.7314535495
 31
0.0
  0
SPLINE
  5
C0
330
1F
100
AcDbEntity
  8
0
  6
Continuous
 62
     7
370
    15
100
AcDbSpline
210
0.0
220
0.0
230
1.0
 70
     8
 71
     3
 72
    10
 73
     6
 74
     0
 42
0.00000001
 43
0.00000001
 12
1.0
 22
0.0
 32
0.0
 13
1.0
 23
0.0
 33
0.0
 40
0.0
 40
0.0
 40
0.0
 40
0.0
 40
0.3747264477055331
 40
0.7492089505048745
 40
1.0
 40
1.0
 40
1.0
 40
1.0
 10
610.245494360234
 20
1125.73145962914
 30
0.0
 10
610.2461854861137
 20
1126.166569041858
 30
0.0
 10
610.2475672879541
 20
1127.036504613401
 30
0.0
 10
610.2563967835247
 20
1128.103183904147
 30
0.0
 10
610.2566025866776
 20
1128.563806260543
 30
0.0
 10
610.2566851322906
 20
1128.748557340703
 30
0.0
  0
LINE
  5
C1
330
1F
100
AcDbEntity
  8
0
  6
Continuous
 62
     7
370
    15
100
AcDbLine
 10
610.2454943602
 20
1124.7314576026
 30
0.0
 11
610.2454943602
 21
1125.7314596291
 31
0.0
  0
SPLINE
  5
C2
330
1F
100
AcDbEntity
  8
0
  6
Continuous
 62
     7
370
    15
100
AcDbSpline
210
0.0
220
0.0
230
1.0
 70
     8
 71
     3
 72
    12
 73
     8
 74
     0
 42
0.00000001
 43
0.00000001
 12
1.0
 22
0.0
 32
0.0
 13
1.0
 23
0.0
 33
0.0
 40
0.0
 40
0.0
 40
0.0
 40
0.0
 40
0.226939617448925
 40
0.4540797313805842
 40
0.6754170349891365
 40
0.8875691200089124
 40
1.0
 40
1.0
 40
1.0
 40
1.0
 10
610.1871190612571
 20
1122.731453549466
 30
0.0
 10
610.19611733884
 20
1122.754901640075
 30
0.0
 10
610.214121843799
 20
1122.801818537199
 30
0.0
 10
610.2313994440586
 20
1123.170760795201
 30
0.0
 10
610.2413616471924
 20
1123.708919365942
 30
0.0
 10
610.2450625734516
 20
1124.26551024796
 30
0.0
 10
610.2453832741244
 20
1124.611582976849
 30
0.0
 10
610.245494360234
 20
1124.731457602582
 30
0.0
  0
LINE
  5
C3
330
1F
100
AcDbEntity
  8
0
  6
Continuous
 62
     7
370
    15
100
AcDbLine
 10
602.9648987596
 20
1122.7314535495
 30
0.0
 11
610.1871190613
 21
1122.7314535495
 31
0.0
  0
SPLINE
  5
C4
330
1F
100
AcDbEntity
  8
0
  6
Continuous
 62
     7
370
    15
100
AcDbSpline
210
0.0
220
0.0
230
1.0
 70
     8
 71
     3
 72
    13
 73
     9
 74
     0
 42
0.00000001
 43
0.00000001
 12
1.0
 22
0.0
 32
0.0
 13
1.0
 23
0.0
 33
0.0
 40
0.0
 40
0.0
 40
0.0
 40
0.0
 40
0.2109594636940389
 40
0.42187379159446
 40
0.6340853653589373
 40
0.8490895515626619
 40
0.995060732327941
 40
1.0
 40
1.0
 40
1.0
 40
1.0
 10
549.0068366771
 20
1171.731463443837
 30
0.0
 10
549.0031940853854
 20
1171.954042406717
 30
0.0
 10
548.9959096813066
 20
1172.399152710635
 30
0.0
 10
548.9391337041636
 20
1172.992382877837
 30
0.0
 10
548.855149047916
 20
1173.447630832958
 30
0.0
 10
548.7606031408935
 20
1173.684744255089
 30
0.0
 10
548.6961955169028
 20
1173.731036254533
 30
0.0
 10
548.6696376777267
 20
1173.731439400895
 30
0.0
 10
548.6687684451597
 20
1173.731452595792
 30
0.0
  0
LINE
  5
C5
330
1F
100
AcDbEntity
  8
0
  6
Continuous
 62
     7
370
    15
100
AcDbLine
 10
548.6687684452
 20
1173.7314525958
 30
0.0
 11
608.2578880732
 21
1173.7314525958
 31
0.0
  0
LINE
  5
C6
330
1F
100
AcDbEntity
  8
0
  6
Continuous
 62
     7
370
    15
100
AcDbLine
 10
430.2578849738
 20
1173.7314525958
 30
0.0
 11
489.3535079454
 21
1173.7314525958
 31
0.0
  0
LWPOLYLINE
  5
C7
330
1F
100
AcDbEntity
  8
0
  6
Continuous
 62
     7
370
    15
100
AcDbPolyline
 90
        9
 70
   128
 43
0.0
 10
488.6814991032
 20
1171.7314634438
 10
488.6944109594
 20
1172.1216354485
 10
488.7326529269
 20
1172.4968168851
 10
488.7947516536
 20
1172.8425983306
 10
488.8783248161
 20
1173.1456730481
 10
488.9801593517
 20
1173.3944032307
 10
489.0963399803
 20
1173.579222333
 10
489.2224056666
 20
1173.6930225011
 10
489.3535079454
 20
1173.7314525958
  0
LINE
  5
C8
330
1F
100
AcDbEntity
  8
0
  6
Continuous
 62
     7
370
    15
100
AcDbLine
 10
490.3615193461
 20
1171.7314634438
 30
0.0
 11
488.6814991032
 21
1171.7314634438
 31
0.0
  0
LINE
  5
C9
330
1F
100
AcDbEntity
  8
0
  6
Continuous
 62
     7
370
    15
100
AcDbLine
 10
490.3615193461
 20
1171.7314634438
 30
0.0
 11
490.3615193461
 21
1126.7314616557
 31
0.0
  0
LINE
  5
CA
330
1F
100
AcDbEntity
  8
0
  6
Continuous
 62
     7
370
    15
100
AcDbLine
 10
488.6814991032
 20
1126.7314616557
 30
0.0
 11
490.3615193461
 21
1126.7314616557
 31
0.0
  0
LINE
  5
CB
330
1F
100
AcDbEntity
  8
0
  6
Continuous
 62
     7
370
    15
100
AcDbLine
 10
489.3535079454
 20
1173.7314525958
 30
0.0
 11
490.3615193461
 21
1173.7314525958
 31
0.0
  0
LINE
  5
CC
330
1F
100
AcDbEntity
  8
0
  6
Continuous
 62
     7
370
    15
100
AcDbLine
 10
490.3615193461
 20
1171.7314634438
 30
0.0
 11
490.3615193461
 21
1173.7314525958
 31
0.0
  0
LINE
  5
CD
330
1F
100
AcDbEntity
  8
0
  6
Continuous
 62
     7
370
    15
100
AcDbLine
 10
494.0650315975
 20
1171.7314634438
 30
0.0
 11
490.3615193461
 21
1171.7314634438
 31
0.0
  0
SPLINE
  5
CE
330
1F
100
AcDbEntity
  8
0
  6
Continuous
 62
     7
370
    15
100
AcDbSpline
210
0.0
220
0.0
230
1.0
 70
     8
 71
     3
 72
     9
 73
     5
 74
     0
 42
0.00000001
 43
0.00000001
 12
1.0
 22
0.0
 32
0.0
 13
1.0
 23
0.0
 33
0.0
 40
0.0
 40
0.0
 40
0.0
 40
0.0
 40
0.1839457807748184
 40
1.0
 40
1.0
 40
1.0
 40
1.0
 10
494.0650315975205
 20
1171.731463443837
 30
0.0
 10
494.6666900541677
 20
1171.73815376
 30
0.0
 10
497.9375367901616
 20
1171.774524891398
 30
0.0
 10
501.1907803006333
 20
1172.149144942139
 30
0.0
 10
503.8456033935205
 20
1172.454855215154
 30
0.0
  0
SPLINE
  5
CF
330
1F
100
AcDbEntity
  8
0
  6
Continuous
 62
     7
370
    15
100
AcDbSpline
210
0.0
220
0.0
230
1.0
 70
     8
 71
     3
 72
     9
 73
     5
 74
     0
 42
0.00000001
 43
0.00000001
 12
1.0
 22
0.0
 32
0.0
 13
1.0
 23
0.0
 33
0.0
 40
0.0
 40
0.0
 40
0.0
 40
0.0
 40
0.1828089188336569
 40
1.0
 40
1.0
 40
1.0
 40
1.0
 10
534.6701696535008
 20
1172.454855215154
 30
0.0
 10
535.2634170502718
 20
1172.380828721775
 30
0.0
 10
538.5085945862257
 20
1171.975889543474
 30
0.0
 10
541.7785571811671
 20
1171.841381894735
 30
0.0
 10
544.4507414495008
 20
1171.731463443837
 30
0.0
  0
LINE
  5
D0
330
1F
100
AcDbEntity
  8
0
  6
Continuous
 62
     7
370
    15
100
AcDbLine
 10
549.0068366771
 20
1171.7314634438
 30
0.0
 11
544.4507414495
 21
1171.7314634438
 31
0.0
  0
LINE
  5
D1
330
1F
100
AcDbEntity
  8
0
  6
Continuous
 62
     7
370
    15
100
AcDbLine
 10
549.0068366771
 20
1126.7314616557
 30
0.0
 11
490.3615193461
 21
1126.7314616557
 31
0.0
  0
LINE
  5
D2
330
1F
100
AcDbEntity
  8
0
  6
Continuous
 62
     7
370
    15
100
AcDbLine
 10
490.3615193461
 20
1173.7314525958
 30
0.0
 11
494.0650315975
 21
1173.7314525958
 31
0.0
  0
LINE
  5
D3
330
1F
100
AcDbEntity
  8
0
  6
Continuous
 62
     7
370
    15
100
AcDbLine
 10
494.0650315975
 20
1173.7314525958
 30
0.0
 11
494.0650315975
 21
1171.7314634438
 31
0.0
  0
LINE
  5
D4
330
1F
100
AcDbEntity
  8
0
  6
Continuous
 62
     7
370
    15
100
AcDbLine
 10
494.0650315975
 20
1173.7314525958
 30
0.0
 11
494.7745671516
 21
1173.7378898974
 31
0.0
  0
LINE
  5
D5
330
1F
100
AcDbEntity
  8
0
  6
Continuous
 62
     7
370
    15
100
AcDbLine
 10
544.4507414495
 20
1173.7314525958
 30
0.0
 11
543.5295628404
 21
1173.7615827437
 31
0.0
  0
LINE
  5
D6
330
1F
100
AcDbEntity
  8
0
  6
Continuous
 62
     7
370
    15
100
AcDbLine
 10
544.4507414495
 20
1173.7314525958
 30
0.0
 11
544.4507414495
 21
1171.7314634438
 31
0.0
  0
LINE
  5
D7
330
1F
100
AcDbEntity
  8
0
  6
Continuous
 62
     7
370
    15
100
AcDbLine
 10
544.4507414495
 20
1173.7314525958
 30
0.0
 11
548.6687684452
 21
1173.7314525958
 31
0.0
  0
LINE
  5
D8
330
1F
100
AcDbEntity
  8
0
  6
Continuous
 62
     7
370
    15
100
AcDbLine
 10
452.7578858679
 20
1191.7314592715
 30
0.0
 11
585.7578871792
 21
1191.7314592715
 31
0.0
  0
SPLINE
  5
D9
330
1F
100
AcDbEntity
  8
0
  6
Continuous
 62
     7
370
    15
100
AcDbSpline
210
0.0
220
0.0
230
1.0
 70
     8
 71
     3
 72
    11
 73
     7
 74
     0
 42
0.00000001
 43
0.00000001
 12
1.0
 22
0.0
 32
0.0
 13
1.0
 23
0.0
 33
0.0
 40
0.0
 40
0.0
 40
0.0
 40
0.0
 40
0.2507142539578981
 40
0.6237249968948638
 40
0.9969354439522521
 40
1.0
 40
1.0
 40
1.0
 40
1.0
 10
442.5925744717376
 20
1157.449326288304
 30
0.0
 10
442.900201404525
 20
1157.581975346955
 30
0.0
 10
443.6655133270365
 20
1157.911978657054
 30
0.0
 10
444.6217276062586
 20
1158.531456724651
 30
0.0
 10
445.2327823648392
 20
1158.995359996561
 30
0.0
 10
445.5074409953642
 20
1159.229553087755
 30
0.0
 10
445.5096779411094
 20
1159.231460463605
 30
0.0
  0
SPLINE
  5
DA
330
1F
100
AcDbEntity
  8
0
  6
Continuous
 62
     7
370
    15
100
AcDbSpline
210
0.0
220
0.0
230
1.0
 70
     8
 71
     3
 72
    11
 73
     7
 74
     0
 42
0.00000001
 43
0.00000001
 12
1.0
 22
0.0
 32
0.0
 13
1.0
 23
0.0
 33
0.0
 40
0.0
 40
0.0
 40
0.0
 40
0.0
 40
0.0030570974310277
 40
0.3744814996174052
 40
0.7473859824824601
 40
1.0
 40
1.0
 40
1.0
 40
1.0
 10
445.5096779411094
 20
1159.231460463605
 30
0.0
 10
445.5085784972433
 20
1159.22763578489
 30
0.0
 10
445.3739012757947
 20
1158.759128825864
 30
0.0
 10
445.0369658670422
 20
1157.82834118864
 30
0.0
 10
444.4347071333283
 20
1156.587802857555
 30
0.0
 10
443.8533401964178
 20
1155.932036535642
 30
0.0
 10
443.618556672837
 20
1155.667207014165
 30
0.0
  0
ARC
  5
DB
330
1F
100
AcDbEntity
  8
0
  6
Continuous
 62
     7
370
    15
100
AcDbCircle
 10
436.9367231117
 20
1153.0068081951
 30
0.0
 40
7.191983148939546
100
AcDbArc
 50
21.7101726073
 51
38.1486750804
  0
LINE
  5
DC
330
1F
100
AcDbEntity
  8
0
  6
Continuous
 62
     7
370
    15
100
AcDbLine
 10
443.6185566728
 20
1155.6672070142
 30
0.0
 11
443.6185566728
 21
1122.7314535495
 31
0.0
  0
LINE
  5
DD
330
1F
100
AcDbEntity
  8
0
  6
Continuous
 62
     7
370
    15
100
AcDbLine
 10
445.5096779411
 20
1122.7314535495
 30
0.0
 11
443.6185566728
 21
1122.7314535495
 31
0.0
  0
ARC
  5
DE
330
1F
100
AcDbEntity
  8
0
  6
Continuous
 62
     7
370
    15
100
AcDbCircle
 10
601.5790499353
 20
1153.0068081951
 30
0.0
 40
7.191983148940714
100
AcDbArc
 50
141.8513249196
 51
158.2898273927
  0
SPLINE
  5
DF
330
1F
100
AcDbEntity
  8
0
  6
Continuous
 62
     7
370
    15
100
AcDbSpline
210
0.0
220
0.0
230
1.0
 70
     8
 71
     3
 72
    11
 73
     7
 74
     0
 42
0.00000001
 43
0.00000001
 12
1.0
 22
0.0
 32
0.0
 13
1.0
 23
0.0
 33
0.0
 40
0.0
 40
0.0
 40
0.0
 40
0.0
 40
0.2526140175175399
 40
0.6255185003825948
 40
0.9969429025689723
 40
1.0
 40
1.0
 40
1.0
 40
1.0
 10
594.8972163741844
 20
1155.667207014165
 30
0.0
 10
594.6624328506035
 20
1155.932036535642
 30
0.0
 10
594.081065913693
 20
1156.587802857555
 30
0.0
 10
593.4788071799788
 20
1157.82834118864
 30
0.0
 10
593.1418717712272
 20
1158.759128825863
 30
0.0
 10
593.007194549778
 20
1159.22763578489
 30
0.0
 10
593.0060951059119
 20
1159.231460463605
 30
0.0
  0
SPLINE
  5
E0
330
1F
100
AcDbEntity
  8
0
  6
Continuous
 62
     7
370
    15
100
AcDbSpline
210
0.0
220
0.0
230
1.0
 70
     8
 71
     3
 72
    11
 73
     7
 74
     0
 42
0.00000001
 43
0.00000001
 12
1.0
 22
0.0
 32
0.0
 13
1.0
 23
0.0
 33
0.0
 40
0.0
 40
0.0
 40
0.0
 40
0.0
 40
0.0030645560477479
 40
0.3762750031051361
 40
0.7492857460421019
 40
1.0
 40
1.0
 40
1.0
 40
1.0
 10
593.006095105912
 20
1159.231460463605
 30
0.0
 10
593.0083320516572
 20
1159.229553087755
 30
0.0
 10
593.282990682181
 20
1158.995359996557
 30
0.0
 10
593.8940454407633
 20
1158.531456724652
 30
0.0
 10
594.8502597199847
 20
1157.911978657053
 30
0.0
 10
595.6155716424963
 20
1157.581975346955
 30
0.0
 10
595.9231985752838
 20
1157.449326288304
 30
0.0
  0
LINE
  5
E1
330
1F
100
AcDbEntity
  8
0
  6
Continuous
 62
     7
370
    15
100
AcDbLine
 10
594.8972163742
 20
1122.7314535495
 30
0.0
 11
594.8972163742
 21
1155.6672070142
 31
0.0
  0
LINE
  5
E2
330
1F
100
AcDbEntity
  8
0
  6
Continuous
 62
     7
370
    15
100
AcDbLine
 10
594.8972163742
 20
1122.7314535495
 30
0.0
 11
593.0060951059
 21
1122.7314535495
 31
0.0
  0
SPLINE
  5
E3
330
1F
100
AcDbEntity
  8
0
  6
Continuous
 62
     7
370
    15
100
AcDbSpline
210
0.0
220
0.0
230
1.0
 70
     8
 71
     3
 72
    11
 73
     7
 74
     0
 42
0.00000001
 43
0.00000001
 12
1.0
 22
0.0
 32
0.0
 13
1.0
 23
0.0
 33
0.0
 40
0.0
 40
0.0
 40
0.0
 40
0.0
 40
0.0030642462526627
 40
0.3762757351451241
 40
0.7492869792394854
 40
1.0
 40
1.0
 40
1.0
 40
1.0
 10
436.2139759605186
 20
1159.231460463605
 30
0.0
 10
436.2155339900795
 20
1159.229553086829
 30
0.0
 10
436.4068530519598
 20
1158.995335749382
 30
0.0
 10
436.7105232243506
 20
1158.531468231703
 30
0.0
 10
436.9575998871705
 20
1157.911978842996
 30
0.0
 10
436.8005832622189
 20
1157.58197504592
 30
0.0
 10
436.7374686544197
 20
1157.449326288304
 30
0.0
  0
SPLINE
  5
E4
330
1F
100
AcDbEntity
  8
0
  6
Continuous
 62
     7
370
    15
100
AcDbSpline
210
0.0
220
0.0
230
1.0
 70
     8
 71
     3
 72
    10
 73
     6
 74
     0
 42
0.00000001
 43
0.00000001
 12
1.0
 22
0.0
 32
0.0
 13
1.0
 23
0.0
 33
0.0
 40
0.0
 40
0.0
 40
0.0
 40
0.0
 40
0.3415398624631515
 40
0.6902195007419089
 40
1.0
 40
1.0
 40
1.0
 40
1.0
 10
436.7374686544197
 20
1157.449326288304
 30
0.0
 10
437.3744238338719
 20
1157.467363187873
 30
0.0
 10
438.6616495263164
 20
1157.503814042321
 30
0.0
 10
440.6178560928034
 20
1157.501314392552
 30
0.0
 10
441.9607798309494
 20
1157.465959447745
 30
0.0
 10
442.5925744717376
 20
1157.449326288304
 30
0.0
  0
SPLINE
  5
E5
330
1F
100
AcDbEntity
  8
0
  6
Continuous
 62
     7
370
    15
100
AcDbSpline
210
0.0
220
0.0
230
1.0
 70
     8
 71
     3
 72
    11
 73
     7
 74
     0
 42
0.00000001
 43
0.00000001
 12
1.0
 22
0.0
 32
0.0
 13
1.0
 23
0.0
 33
0.0
 40
0.0
 40
0.0
 40
0.0
 40
0.0
 40
0.2507130207605145
 40
0.6237242648548759
 40
0.9969357537473372
 40
1.0
 40
1.0
 40
1.0
 40
1.0
 10
601.7783043926017
 20
1157.449326288304
 30
0.0
 10
601.7151897848024
 20
1157.58197504592
 30
0.0
 10
601.558173159851
 20
1157.911978842996
 30
0.0
 10
601.8052498226705
 20
1158.531468231702
 30
0.0
 10
602.1089199950619
 20
1158.995335749383
 30
0.0
 10
602.3002390569418
 20
1159.229553086829
 30
0.0
 10
602.3017970865027
 20
1159.231460463605
 30
0.0
  0
SPLINE
  5
E6
330
1F
100
AcDbEntity
  8
0
  6
Continuous
 62
     7
370
    15
100
AcDbSpline
210
0.0
220
0.0
230
1.0
 70
     8
 71
     3
 72
    10
 73
     6
 74
     0
 42
0.00000001
 43
0.00000001
 12
1.0
 22
0.0
 32
0.0
 13
1.0
 23
0.0
 33
0.0
 40
0.0
 40
0.0
 40
0.0
 40
0.0
 40
0.3415396087735918
 40
0.6902189133083779
 40
1.0
 40
1.0
 40
1.0
 40
1.0
 10
595.9231985752838
 20
1157.449326288304
 30
0.0
 10
596.6191578903189
 20
1157.467363192229
 30
0.0
 10
598.0256251631932
 20
1157.503814051534
 30
0.0
 10
599.974406453077
 20
1157.501314341322
 30
0.0
 10
601.2011617306406
 20
1157.465959448447
 30
0.0
 10
601.7783043926017
 20
1157.449326288304
 30
0.0
  0
LINE
  5
E7
330
1F
100
AcDbEntity
  8
0
  6
Continuous
 62
     7
370
    15
100
AcDbLine
 10
443.6185566728
 20
1155.6672070142
 30
0.0
 11
441.616220588
 21
1155.6672070142
 31
0.0
  0
ARC
  5
E8
330
1F
100
AcDbEntity
  8
0
  6
Continuous
 62
     7
370
    15
100
AcDbCircle
 10
443.7040484643
 20
1155.6818800787
 30
0.0
 40
2.087879436168506
100
AcDbArc
 50
122.1640931874
 51
180.4026629014
  0
LINE
  5
E9
330
1F
100
AcDbEntity
  8
0
  6
Continuous
 62
     7
370
    15
100
AcDbLine
 10
441.616220588
 20
1122.7314535495
 30
0.0
 11
441.616220588
 21
1155.6672070142
 31
0.0
  0
LINE
  5
EA
330
1F
100
AcDbEntity
  8
0
  6
Continuous
 62
     7
370
    15
100
AcDbLine
 10
443.6185566728
 20
1122.7314535495
 30
0.0
 11
441.616220588
 21
1122.7314535495
 31
0.0
  0
ARC
  5
EB
330
1F
100
AcDbEntity
  8
0
  6
Continuous
 62
     7
370
    15
100
AcDbCircle
 10
594.8117245827
 20
1155.6818800787
 30
0.0
 40
2.087879436168657
100
AcDbArc
 50
359.5973370986
 51
57.8359068126
  0
LINE
  5
EC
330
1F
100
AcDbEntity
  8
0
  6
Continuous
 62
     7
370
    15
100
AcDbLine
 10
596.899552459
 20
1155.6672070142
 30
0.0
 11
594.8972163742
 21
1155.6672070142
 31
0.0
  0
LINE
  5
ED
330
1F
100
AcDbEntity
  8
0
  6
Continuous
 62
     7
370
    15
100
AcDbLine
 10
596.899552459
 20
1155.6672070142
 30
0.0
 11
596.899552459
 21
1122.7314535495
 31
0.0
  0
LINE
  5
EE
330
1F
100
AcDbEntity
  8
0
  6
Continuous
 62
     7
370
    15
100
AcDbLine
 10
596.899552459
 20
1122.7314535495
 30
0.0
 11
594.8972163742
 21
1122.7314535495
 31
0.0
  0
SPLINE
  5
EF
330
1F
100
AcDbEntity
  8
0
  6
Continuous
 62
     7
370
    15
100
AcDbSpline
210
0.0
220
0.0
230
1.0
 70
     8
 71
     3
 72
     9
 73
     5
 74
     0
 42
0.00000001
 43
0.00000001
 12
1.0
 22
0.0
 32
0.0
 13
1.0
 23
0.0
 33
0.0
 40
0.0
 40
0.0
 40
0.0
 40
0.0
 40
0.3099579105223579
 40
1.0
 40
1.0
 40
1.0
 40
1.0
 10
441.6162205879943
 20
1155.667207014165
 30
0.0
 10
441.0173512959585
 20
1155.701853626922
 30
0.0
 10
439.0852525441423
 20
1155.813632070318
 30
0.0
 10
437.1525044803519
 20
1155.726992183025
 30
0.0
 10
435.8188269679801
 20
1155.667207014165
 30
0.0
  0
ARC
  5
F0
330
1F
100
AcDbEntity
  8
0
  6
Continuous
 62
     7
370
    15
100
AcDbCircle
 10
437.8298251678
 20
1155.7584124976
 30
0.0
 40
2.013065373925579
100
AcDbArc
 50
122.8630865355
 51
182.5967754403
  0
ARC
  5
F1
330
1F
100
AcDbEntity
  8
0
  6
Continuous
 62
     7
370
    15
100
AcDbCircle
 10
600.6859478793
 20
1155.7584124976
 30
0.0
 40
2.013065373925734
100
AcDbArc
 50
357.4032245597
 51
57.1369134645
  0
SPLINE
  5
F2
330
1F
100
AcDbEntity
  8
0
  6
Continuous
 62
     7
370
    15
100
AcDbSpline
210
0.0
220
0.0
230
1.0
 70
     8
 71
     3
 72
     9
 73
     5
 74
     0
 42
0.00000001
 43
0.00000001
 12
1.0
 22
0.0
 32
0.0
 13
1.0
 23
0.0
 33
0.0
 40
0.0
 40
0.0
 40
0.0
 40
0.0
 40
0.3099579105223579
 40
1.0
 40
1.0
 40
1.0
 40
1.0
 10
602.6969460790413
 20
1155.667207014165
 30
0.0
 10
602.0980767870054
 20
1155.701853626922
 30
0.0
 10
600.1659780351891
 20
1155.813632070318
 30
0.0
 10
598.2332299713988
 20
1155.726992183025
 30
0.0
 10
596.8995524590271
 20
1155.667207014165
 30
0.0
  0
LINE
  5
F3
330
1F
100
AcDbEntity
  8
0
  6
Continuous
 62
     7
370
    15
100
AcDbLine
 10
435.818826968
 20
1155.6672070142
 30
0.0
 11
435.818826968
 21
1122.7314535495
 31
0.0
  0
LWPOLYLINE
  5
F4
330
1F
100
AcDbEntity
  8
0
  6
Continuous
 62
     7
370
    15
100
AcDbPolyline
 90
       18
 70
   128
 43
0.0
 10
438.7175275033
 20
1151.8314544078
 10
438.2479099577
 20
1151.6558889266
 10
437.8417192047
 20
1151.1528853293
 10
437.5538138693
 20
1150.3903780099
 10
437.4230710809
 20
1149.4713488932
 10
437.4671487158
 20
1148.5199395533
 10
437.6801012104
 20
1147.6646129008
 10
438.0331618731
 20
1147.0208976384
 10
438.4786469882
 20
1146.6757271405
 10
438.9564005678
 20
1146.6757271405
 10
439.4018856828
 20
1147.0208976384
 10
439.7549463456
 20
1147.6646129008
 10
439.9678988402
 20
1148.5199395533
 10
440.011976475
 20
1149.4713488932
 10
439.8812336867
 20
1150.3903780099
 10
439.5933283513
 20
1151.1528853293
 10
439.1871375983
 20
1151.6558889266
 10
438.7175275033
 20
1151.8314544078
  0
LINE
  5
F5
330
1F
100
AcDbEntity
  8
0
  6
Continuous
 62
     7
370
    15
100
AcDbLine
 10
441.616220588
 20
1122.7314535495
 30
0.0
 11
435.818826968
 21
1122.7314535495
 31
0.0
  0
LINE
  5
F6
330
1F
100
AcDbEntity
  8
0
  6
Continuous
 62
     7
370
    15
100
AcDbLine
 10
602.696946079
 20
1122.7314535495
 30
0.0
 11
602.696946079
 21
1155.6672070142
 31
0.0
  0
LWPOLYLINE
  5
F7
330
1F
100
AcDbEntity
  8
0
  6
Continuous
 62
     7
370
    15
100
AcDbPolyline
 90
       18
 70
   128
 43
0.0
 10
599.7982455437
 20
1151.8314544078
 10
599.3286354487
 20
1151.6558889266
 10
598.9224446957
 20
1151.1528853293
 10
598.6345393603
 20
1150.3903780099
 10
598.503796572
 20
1149.4713488932
 10
598.5478742068
 20
1148.5199395533
 10
598.7608267014
 20
1147.6646129008
 10
599.1138873642
 20
1147.0208976384
 10
599.5593724792
 20
1146.6757271405
 10
600.0371260588
 20
1146.6757271405
 10
600.4826111739
 20
1147.0208976384
 10
600.8356718366
 20
1147.6646129008
 10
601.0486243313
 20
1148.5199395533
 10
601.0927019661
 20
1149.4713488932
 10
600.9619591778
 20
1150.3903780099
 10
600.6740538423
 20
1151.1528853293
 10
600.2678630893
 20
1151.6558889266
 10
599.7982455437
 20
1151.8314544078
  0
LINE
  5
F8
330
1F
100
AcDbEntity
  8
0
  6
Continuous
 62
     7
370
    15
100
AcDbLine
 10
602.696946079
 20
1122.7314535495
 30
0.0
 11
596.899552459
 21
1122.7314535495
 31
0.0
  0
LINE
  5
F9
330
1F
100
AcDbEntity
  8
0
  6
Continuous
 62
     7
370
    15
100
AcDbLine
 10
435.818826968
 20
1122.7314535495
 30
0.0
 11
435.5508742874
 21
1122.7314535495
 31
0.0
  0
LINE
  5
FA
330
1F
100
AcDbEntity
  8
0
  6
Continuous
 62
     7
370
    15
100
AcDbLine
 10
602.9648987596
 20
1122.7314535495
 30
0.0
 11
602.696946079
 21
1122.7314535495
 31
0.0
  0
LINE
  5
FB
330
1F
100
AcDbEntity
  8
0
  6
Continuous
 62
     7
370
    15
100
AcDbLine
 10
597.7237207835
 20
1154.2314503308
 30
0.0
 11
601.7237214391
 21
1154.2314503308
 31
0.0
  0
SPLINE
  5
FC
330
1F
100
AcDbEntity
  8
0
  6
Continuous
 62
     7
370
    15
100
AcDbSpline
210
0.0
220
0.0
230
1.0
 70
    11
 71
     3
 72
    26
 73
    22
 74
     0
 42
0.00000001
 43
0.00000001
 12
1.0
 22
0.0
 32
0.0
 13
1.0
 23
0.0
 33
0.0
 40
0.0
 40
0.0
 40
0.0
 40
0.0
 40
0.0536823152733255
 40
0.1073634784267859
 40
0.1610517360721981
 40
0.214743823881363
 40
0.2684293585486617
 40
0.3221076709658962
 40
0.3757888702054237
 40
0.4294796233702642
 40
0.4831702892219121
 40
0.5368523083052592
 40
0.5905309011585366
 40
0.644215794251926
 40
0.697907735907336
 40
0.7515950782300104
 40
0.8052750822142829
 40
0.8589541739552067
 40
0.9126424800584706
 40
0.9663342593282843
 40
1.0
 40
1.0
 40
1.0
 40
1.0
 10
599.7982455437439
 20
1151.031455766759
 30
0.0
 10
599.8990975612703
 20
1151.011557086877
 30
0.0
 10
600.1007994318561
 20
1150.971760154177
 30
0.0
 10
600.3653932500977
 20
1150.661551181392
 30
0.0
 10
600.5648714241355
 20
1150.204666238349
 30
0.0
 10
600.6782011540172
 20
1149.63414361934
 30
0.0
 10
600.6938533686383
 20
1149.019281901495
 30
0.0
 10
600.6102970755104
 20
1148.428111311568
 30
0.0
 10
600.4359828307939
 20
1147.927571431343
 30
0.0
 10
600.1889059008777
 20
1147.573933450198
 30
0.0
 10
599.8952256891483
 20
1147.407180301411
 30
0.0
 10
599.5872056976053
 20
1147.446087291803
 30
0.0
 10
599.2997671403344
 20
1147.686236372612
 30
0.0
 10
599.0665517879158
 20
1148.100552127584
 30
0.0
 10
598.9155841160695
 20
1148.642385464231
 30
0.0
 10
598.8653854519945
 20
1149.25068961786
 30
0.0
 10
598.9221337721963
 20
1149.856561443941
 30
0.0
 10
599.0788739296578
 20
1150.392749875158
 30
0.0
 10
599.3161824303828
 20
1150.795095357453
 30
0.0
 10
599.5703977202577
 20
1151.002866711414
 30
0.0
 10
599.7348637963075
 20
1151.023502983811
 30
0.0
 10
599.7982455437439
 20
1151.031455766759
 30
0.0
  0
LINE
  5
FD
330
1F
100
AcDbEntity
  8
0
  6
Continuous
 62
     7
370
    15
100
AcDbLine
 10
602.6304570978
 20
1141.7314622517
 30
0.0
 11
599.7982455437
 21
1141.7314622517
 31
0.0
  0
LINE
  5
FE
330
1F
100
AcDbEntity
  8
0
  6
Continuous
 62
     7
370
    15
100
AcDbLine
 10
436.7920516079
 20
1154.2314503308
 30
0.0
 11
440.7920522635
 21
1154.2314503308
 31
0.0
  0
SPLINE
  5
FF
330
1F
100
AcDbEntity
  8
0
  6
Continuous
 62
     7
370
    15
100
AcDbSpline
210
0.0
220
0.0
230
1.0
 70
    11
 71
     3
 72
    26
 73
    22
 74
     0
 42
0.00000001
 43
0.00000001
 12
1.0
 22
0.0
 32
0.0
 13
1.0
 23
0.0
 33
0.0
 40
0.0
 40
0.0
 40
0.0
 40
0.0
 40
0.0536815873711842
 40
0.1073629883238459
 40
0.1610514555638161
 40
0.2147433101268515
 40
0.2684288718205342
 40
0.3221071855396963
 40
0.3757884473226531
 40
0.4294792285752966
 40
0.4831699014665621
 40
0.5368518921935957
 40
0.5905302383582983
 40
0.6442150662935664
 40
0.6979072312985166
 40
0.7515945566444803
 40
0.8052745880204661
 40
0.8589535173988048
 40
0.9126422098479342
 40
0.9663337901412046
 40
1.0
 40
1.0
 40
1.0
 40
1.0
 10
438.7175275032775
 20
1151.031455766759
 30
0.0
 10
438.8190607800568
 20
1151.011556587433
 30
0.0
 10
439.0221269810236
 20
1150.971758297884
 30
0.0
 10
439.296264019103
 20
1150.661550897767
 30
0.0
 10
439.5063434156967
 20
1150.20466909625
 30
0.0
 10
439.6272646622584
 20
1149.634141516576
 30
0.0
 10
439.6440609525562
 20
1149.019282417208
 30
0.0
 10
439.5546860223506
 20
1148.428110807001
 30
0.0
 10
439.3701793560459
 20
1147.927571682525
 30
0.0
 10
439.1129595828673
 20
1147.573933445743
 30
0.0
 10
438.8136762823287
 20
1147.40718041836
 30
0.0
 10
438.5070100470463
 20
1147.446086895901
 30
0.0
 10
438.2273148359003
 20
1147.686236777279
 30
0.0
 10
438.0048205420066
 20
1148.10055390374
 30
0.0
 10
437.8628597651338
 20
1148.642383607822
 30
0.0
 10
437.8160239311281
 20
1149.250690398869
 30
0.0
 10
437.8690003728436
 20
1149.856559725467
 30
0.0
 10
438.0164541627349
 20
1150.392753252383
 30
0.0
 10
438.2431813193393
 20
1150.795092664246
 30
0.0
 10
438.4906404242464
 20
1151.002867910588
 30
0.0
 10
438.654412517686
 20
1151.023503255148
 30
0.0
 10
438.7175275032775
 20
1151.031455766759
 30
0.0
  0
LINE
  5
100
330
1F
100
AcDbEntity
  8
0
  6
Continuous
 62
     7
370
    15
100
AcDbLine
 10
438.7175275033
 20
1141.7314622517
 30
0.0
 11
435.8853159492
 21
1141.7314622517
 31
0.0
  0
LWPOLYLINE
  5
101
330
1F
100
AcDbEntity
  8
0
  6
Continuous
 62
     7
370
    15
100
AcDbPolyline
 90
       12
 70
   128
 43
0.0
 10
605.6029928868
 20
1100.231460106
 10
605.5571941679
 20
1102.8186220642
 10
605.4206399267
 20
1105.3575936671
 10
605.1958782618
 20
1107.8010786291
 10
604.8870963996
 20
1110.1035539027
 10
604.5000387376
 20
1112.2221264954
 10
604.041932339
 20
1114.117345583
 10
603.5212932174
 20
1115.7538805123
 10
602.9478294795
 20
1117.1012733098
 10
602.3322252577
 20
1118.1344155188
 10
601.6859395449
 20
1118.8340548392
 10
601.5578864162
 20
1118.9300332185
  0
LWPOLYLINE
  5
102
330
1F
100
AcDbEntity
  8
0
  6
Continuous
 62
     7
370
    15
100
AcDbPolyline
 90
       12
 70
   128
 43
0.0
 10
601.5578864162
 20
1081.5328720923
 10
601.6859395449
 20
1081.6288579222
 10
602.3322252577
 20
1082.3284972425
 10
602.9478294795
 20
1083.3616394516
 10
603.5212932174
 20
1084.7090322491
 10
604.041932339
 20
1086.3455746289
 10
604.5000387376
 20
1088.2407862659
 10
604.8870963996
 20
1090.3593588587
 10
605.1958782618
 20
1092.6618341323
 10
605.4206399267
 20
1095.1053190943
 10
605.5571941679
 20
1097.6442906972
 10
605.6029928868
 20
1100.231460106
  0
LWPOLYLINE
  5
103
330
1F
100
AcDbEntity
  8
0
  6
Continuous
 62
     7
370
    15
100
AcDbPolyline
 90
       13
 70
   128
 43
0.0
 10
606.8277416771
 20
1100.231460106
 10
606.781555528
 20
1097.5657168742
 10
606.6438166445
 20
1094.9475455995
 10
606.4169911688
 20
1092.4236688729
 10
606.1051247661
 20
1090.039125454
 10
605.7137830203
 20
1087.8364581581
 10
605.2499396746
 20
1085.8549836989
 10
604.7218872254
 20
1084.1300550814
 10
604.1390357559
 20
1082.6924581047
 10
603.5117937272
 20
1081.5678451176
 10
602.8513519113
 20
1080.7762805339
 10
602.1694896763
 20
1080.3318981047
 10
601.5578864162
 20
1080.234720182
  0
LWPOLYLINE
  5
104
330
1F
100
AcDbEntity
  8
0
  6
Continuous
 62
     7
370
    15
100
AcDbPolyline
 90
       13
 70
   128
 43
0.0
 10
601.5578864162
 20
1120.2281925794
 10
602.1694896763
 20
1120.131007206
 10
602.8513519113
 20
1119.6866247769
 10
603.5117937272
 20
1118.8950750943
 10
604.1390357559
 20
1117.7704546567
 10
604.7218872254
 20
1116.3328651305
 10
605.2499396746
 20
1114.607936513
 10
605.7137830203
 20
1112.6264546033
 10
606.1051247661
 20
1110.4237873073
 10
606.4169911688
 20
1108.0392438885
 10
606.6438166445
 20
1105.5153671618
 10
606.781555528
 20
1102.8971958872
 10
606.8277416771
 20
1100.231460106
  0
LWPOLYLINE
  5
105
330
1F
100
AcDbEntity
  8
0
  6
Continuous
 62
     7
370
    15
100
AcDbPolyline
 90
       13
 70
   128
 43
0.0
 10
622.2825555151
 20
1100.231460106
 10
622.236369366
 20
1102.8971958872
 10
622.0986304825
 20
1105.5153671618
 10
621.8718050068
 20
1108.0392438885
 10
621.5599386041
 20
1110.4237873073
 10
621.1685968583
 20
1112.6264546033
 10
620.7047535126
 20
1114.607936513
 10
620.1766936128
 20
1116.3328651305
 10
619.5938495939
 20
1117.7704546567
 10
618.9666075652
 20
1118.8950750943
 10
618.3061657493
 20
1119.6866247769
 10
617.6243035143
 20
1120.131007206
 10
617.1061752384
 20
1120.2314559337
  0
LWPOLYLINE
  5
106
330
1F
100
AcDbEntity
  8
0
  6
Continuous
 62
     7
370
    15
100
AcDbPolyline
 90
       13
 70
   128
 43
0.0
 10
617.1061752384
 20
1080.2314568277
 10
617.6243035143
 20
1080.3318981047
 10
618.3061657493
 20
1080.7762805339
 10
618.9666075652
 20
1081.5678451176
 10
619.5938495939
 20
1082.6924581047
 10
620.1766936128
 20
1084.1300550814
 10
620.7047535126
 20
1085.8549836989
 10
621.1685968583
 20
1087.8364581581
 10
621.5599386041
 20
1090.039125454
 10
621.8718050068
 20
1092.4236688729
 10
622.0986304825
 20
1094.9475455995
 10
622.236369366
 20
1097.5657168742
 10
622.2825555151
 20
1100.231460106
  0
LWPOLYLINE
  5
107
330
1F
100
AcDbEntity
  8
0
  6
Continuous
 62
     7
370
    15
100
AcDbPolyline
 90
       11
 70
   128
 43
0.0
 10
622.9896603172
 20
1100.231460106
 10
622.9438615983
 20
1097.6442906972
 10
622.8073073571
 20
1095.1053190943
 10
622.5825382417
 20
1092.6618341323
 10
622.2737563794
 20
1090.3593588587
 10
621.886706168
 20
1088.2407862659
 10
621.4285923188
 20
1086.3455746289
 10
620.9079606478
 20
1084.7090322491
 10
620.3344969099
 20
1083.3616394516
 10
619.7188926881
 20
1082.3284972425
 10
619.3897558396
 20
1081.9262254949
  0
LWPOLYLINE
  5
108
330
1F
100
AcDbEntity
  8
0
  6
Continuous
 62
     7
370
    15
100
AcDbPolyline
 90
       11
 70
   128
 43
0.0
 10
619.3897558396
 20
1118.5366872664
 10
619.7188926881
 20
1118.1344155188
 10
620.3344969099
 20
1117.1012733098
 10
620.9079606478
 20
1115.7538805123
 10
621.4285923188
 20
1114.117345583
 10
621.886706168
 20
1112.2221264954
 10
622.2737563794
 20
1110.1035539027
 10
622.5825382417
 20
1107.8010786291
 10
622.8073073571
 20
1105.3575936671
 10
622.9438615983
 20
1102.8186220642
 10
622.9896603172
 20
1100.231460106
  0
LINE
  5
109
330
1F
100
AcDbEntity
  8
0
  6
Continuous
 62
     7
370
    15
100
AcDbLine
 10
574.1181282347
 20
774.2314550992
 30
0.0
 11
577.7131265049
 21
774.2314550992
 31
0.0
  0
LINE
  5
10A
330
1F
100
AcDbEntity
  8
0
  6
Continuous
 62
     7
370
    15
100
AcDbLine
 10
566.9281279688
 20
774.2314550992
 30
0.0
 11
574.1181282347
 21
774.2314550992
 31
0.0
  0
LINE
  5
10B
330
1F
100
AcDbEntity
  8
0
  6
Continuous
 62
     7
370
    15
100
AcDbLine
 10
563.3331296985
 20
774.2314550992
 30
0.0
 11
566.9281279688
 21
774.2314550992
 31
0.0
  0
LINE
  5
10C
330
1F
100
AcDbEntity
  8
0
  6
Continuous
 62
     7
370
    15
100
AcDbLine
 10
566.9281279688
 20
774.2314550992
 30
0.0
 11
566.9281279688
 21
768.9314547892
 31
0.0
  0
LINE
  5
10D
330
1F
100
AcDbEntity
  8
0
  6
Continuous
 62
     7
370
    15
100
AcDbLine
 10
574.1181282347
 20
774.2314550992
 30
0.0
 11
574.1181282347
 21
768.9314547892
 31
0.0
  0
LINE
  5
10E
330
1F
100
AcDbEntity
  8
0
  6
Continuous
 62
     7
370
    15
100
AcDbLine
 10
566.9281279688
 20
768.9314547892
 30
0.0
 11
574.1181282347
 21
768.9314547892
 31
0.0
  0
LINE
  5
10F
330
1F
100
AcDbEntity
  8
0
  6
Continuous
 62
     7
370
    15
100
AcDbLine
 10
563.3331296985
 20
774.2314550992
 30
0.0
 11
563.3331296985
 21
768.9314547892
 31
0.0
  0
LINE
  5
110
330
1F
100
AcDbEntity
  8
0
  6
Continuous
 62
     7
370
    15
100
AcDbLine
 10
563.3331296985
 20
768.9314547892
 30
0.0
 11
566.9281279688
 21
768.9314547892
 31
0.0
  0
LINE
  5
111
330
1F
100
AcDbEntity
  8
0
  6
Continuous
 62
     7
370
    15
100
AcDbLine
 10
577.7131265049
 20
774.2314550992
 30
0.0
 11
577.7131265049
 21
768.9314547892
 31
0.0
  0
LINE
  5
112
330
1F
100
AcDbEntity
  8
0
  6
Continuous
 62
     7
370
    15
100
AcDbLine
 10
574.1181282347
 20
768.9314547892
 30
0.0
 11
577.7131265049
 21
768.9314547892
 31
0.0
  0
LINE
  5
113
330
1F
100
AcDbEntity
  8
0
  6
Continuous
 62
     7
370
    15
100
AcDbLine
 10
471.5876450782
 20
774.2314550992
 30
0.0
 11
475.1826433485
 21
774.2314550992
 31
0.0
  0
LINE
  5
114
330
1F
100
AcDbEntity
  8
0
  6
Continuous
 62
     7
370
    15
100
AcDbLine
 10
464.3976448124
 20
774.2314550992
 30
0.0
 11
471.5876450782
 21
774.2314550992
 31
0.0
  0
LINE
  5
115
330
1F
100
AcDbEntity
  8
0
  6
Continuous
 62
     7
370
    15
100
AcDbLine
 10
460.8026465421
 20
774.2314550992
 30
0.0
 11
464.3976448124
 21
774.2314550992
 31
0.0
  0
LINE
  5
116
330
1F
100
AcDbEntity
  8
0
  6
Continuous
 62
     7
370
    15
100
AcDbLine
 10
464.3976448124
 20
774.2314550992
 30
0.0
 11
464.3976448124
 21
768.9314547892
 31
0.0
  0
LINE
  5
117
330
1F
100
AcDbEntity
  8
0
  6
Continuous
 62
     7
370
    15
100
AcDbLine
 10
471.5876450782
 20
774.2314550992
 30
0.0
 11
471.5876450782
 21
768.9314547892
 31
0.0
  0
LINE
  5
118
330
1F
100
AcDbEntity
  8
0
  6
Continuous
 62
     7
370
    15
100
AcDbLine
 10
464.3976448124
 20
768.9314547892
 30
0.0
 11
471.5876450782
 21
768.9314547892
 31
0.0
  0
LINE
  5
119
330
1F
100
AcDbEntity
  8
0
  6
Continuous
 62
     7
370
    15
100
AcDbLine
 10
460.8026465421
 20
774.2314550992
 30
0.0
 11
460.8026465421
 21
768.9314547892
 31
0.0
  0
LINE
  5
11A
330
1F
100
AcDbEntity
  8
0
  6
Continuous
 62
     7
370
    15
100
AcDbLine
 10
460.8026465421
 20
768.9314547892
 30
0.0
 11
464.3976448124
 21
768.9314547892
 31
0.0
  0
LINE
  5
11B
330
1F
100
AcDbEntity
  8
0
  6
Continuous
 62
     7
370
    15
100
AcDbLine
 10
475.1826433485
 20
774.2314550992
 30
0.0
 11
475.1826433485
 21
768.9314547892
 31
0.0
  0
LINE
  5
11C
330
1F
100
AcDbEntity
  8
0
  6
Continuous
 62
     7
370
    15
100
AcDbLine
 10
471.5876450782
 20
768.9314547892
 30
0.0
 11
475.1826433485
 21
768.9314547892
 31
0.0
  0
LINE
  5
11D
330
1F
100
AcDbEntity
  8
0
  6
Continuous
 62
     7
370
    15
100
AcDbLine
 10
586.7578892057
 20
775.2314571257
 30
0.0
 11
582.1241570657
 21
775.2314571257
 31
0.0
  0
LINE
  5
11E
330
1F
100
AcDbEntity
  8
0
  6
Continuous
 62
     7
370
    15
100
AcDbLine
 10
553.8497326916
 20
775.2314571257
 30
0.0
 11
553.8497326916
 21
789.2314556952
 31
0.0
  0
LINE
  5
11F
330
1F
100
AcDbEntity
  8
0
  6
Continuous
 62
     7
370
    15
100
AcDbLine
 10
553.8497326916
 20
775.2314571257
 30
0.0
 11
484.6660403555
 21
775.2314571257
 31
0.0
  0
LINE
  5
120
330
1F
100
AcDbEntity
  8
0
  6
Continuous
 62
     7
370
    15
100
AcDbLine
 10
484.6660403555
 20
789.2314556952
 30
0.0
 11
484.6660403555
 21
775.2314571257
 31
0.0
  0
LINE
  5
121
330
1F
100
AcDbEntity
  8
0
  6
Continuous
 62
     7
370
    15
100
AcDbLine
 10
456.3916159814
 20
775.2314571257
 30
0.0
 11
451.7578838413
 21
775.2314571257
 31
0.0
  0
LINE
  5
122
330
1F
100
AcDbEntity
  8
0
  6
Continuous
 62
     7
370
    15
100
AcDbLine
 10
586.7578892057
 20
791.2314597483
 30
0.0
 11
574.5231268947
 21
791.2314597483
 31
0.0
  0
LINE
  5
123
330
1F
100
AcDbEntity
  8
0
  6
Continuous
 62
     7
370
    15
100
AcDbLine
 10
566.5231293087
 20
791.2314597483
 30
0.0
 11
471.9926437383
 21
791.2314597483
 31
0.0
  0
LINE
  5
124
330
1F
100
AcDbEntity
  8
0
  6
Continuous
 62
     7
370
    15
100
AcDbLine
 10
463.9926461523
 20
791.2314597483
 30
0.0
 11
451.7578838413
 21
791.2314597483
 31
0.0
  0
LINE
  5
125
330
1F
100
AcDbEntity
  8
0
  6
Continuous
 62
     7
370
    15
100
AcDbLine
 10
569.2866390591
 20
789.2314556952
 30
0.0
 11
569.2866390591
 21
775.2314571257
 31
0.0
  0
LINE
  5
126
330
1F
100
AcDbEntity
  8
0
  6
Continuous
 62
     7
370
    15
100
AcDbLine
 10
567.1982897465
 20
775.2314571257
 30
0.0
 11
567.1982897465
 21
789.2314556952
 31
0.0
  0
LINE
  5
127
330
1F
100
AcDbEntity
  8
0
  6
Continuous
 62
     7
370
    15
100
AcDbLine
 10
567.1982897465
 20
789.2314556952
 30
0.0
 11
569.2866390591
 21
789.2314556952
 31
0.0
  0
LINE
  5
128
330
1F
100
AcDbEntity
  8
0
  6
Continuous
 62
     7
370
    15
100
AcDbLine
 10
569.2866390591
 20
775.2314571257
 30
0.0
 11
567.1982897465
 21
775.2314571257
 31
0.0
  0
LINE
  5
129
330
1F
100
AcDbEntity
  8
0
  6
Continuous
 62
     7
370
    15
100
AcDbLine
 10
471.3174833005
 20
789.2314556952
 30
0.0
 11
471.3174833005
 21
775.2314571257
 31
0.0
  0
LINE
  5
12A
330
1F
100
AcDbEntity
  8
0
  6
Continuous
 62
     7
370
    15
100
AcDbLine
 10
469.2291339879
 20
775.2314571257
 30
0.0
 11
469.2291339879
 21
789.2314556952
 31
0.0
  0
LINE
  5
12B
330
1F
100
AcDbEntity
  8
0
  6
Continuous
 62
     7
370
    15
100
AcDbLine
 10
469.2291339879
 20
789.2314556952
 30
0.0
 11
471.3174833005
 21
789.2314556952
 31
0.0
  0
LINE
  5
12C
330
1F
100
AcDbEntity
  8
0
  6
Continuous
 62
     7
370
    15
100
AcDbLine
 10
471.3174833005
 20
775.2314571257
 30
0.0
 11
469.2291339879
 21
775.2314571257
 31
0.0
  0
LINE
  5
12D
330
1F
100
AcDbEntity
  8
0
  6
Continuous
 62
     7
370
    15
100
AcDbLine
 10
556.6435961073
 20
789.2314556952
 30
0.0
 11
556.6435961073
 21
775.2314571257
 31
0.0
  0
LINE
  5
12E
330
1F
100
AcDbEntity
  8
0
  6
Continuous
 62
     7
370
    15
100
AcDbLine
 10
567.1982897465
 20
789.2314556952
 30
0.0
 11
556.6435961073
 21
789.2314556952
 31
0.0
  0
LINE
  5
12F
330
1F
100
AcDbEntity
  8
0
  6
Continuous
 62
     7
370
    15
100
AcDbLine
 10
567.1982897465
 20
775.2314571257
 30
0.0
 11
556.6435961073
 21
775.2314571257
 31
0.0
  0
LINE
  5
130
330
1F
100
AcDbEntity
  8
0
  6
Continuous
 62
     7
370
    15
100
AcDbLine
 10
481.8721769398
 20
775.2314571257
 30
0.0
 11
481.8721769398
 21
789.2314556952
 31
0.0
  0
LINE
  5
131
330
1F
100
AcDbEntity
  8
0
  6
Continuous
 62
     7
370
    15
100
AcDbLine
 10
481.8721769398
 20
789.2314556952
 30
0.0
 11
471.3174833005
 21
789.2314556952
 31
0.0
  0
LINE
  5
132
330
1F
100
AcDbEntity
  8
0
  6
Continuous
 62
     7
370
    15
100
AcDbLine
 10
481.8721769398
 20
775.2314571257
 30
0.0
 11
471.3174833005
 21
775.2314571257
 31
0.0
  0
LINE
  5
133
330
1F
100
AcDbEntity
  8
0
  6
Continuous
 62
     7
370
    15
100
AcDbLine
 10
581.6848335808
 20
775.2314571257
 30
0.0
 11
581.6848335808
 21
789.2314556952
 31
0.0
  0
LINE
  5
134
330
1F
100
AcDbEntity
  8
0
  6
Continuous
 62
     7
370
    15
100
AcDbLine
 10
581.6848335808
 20
789.2314556952
 30
0.0
 11
569.2866390591
 21
789.2314556952
 31
0.0
  0
LINE
  5
135
330
1F
100
AcDbEntity
  8
0
  6
Continuous
 62
     7
370
    15
100
AcDbLine
 10
581.6848335808
 20
775.2314571257
 30
0.0
 11
569.2866390591
 21
775.2314571257
 31
0.0
  0
LINE
  5
136
330
1F
100
AcDbEntity
  8
0
  6
Continuous
 62
     7
370
    15
100
AcDbLine
 10
456.8309394663
 20
789.2314556952
 30
0.0
 11
456.8309394663
 21
775.2314571257
 31
0.0
  0
LINE
  5
137
330
1F
100
AcDbEntity
  8
0
  6
Continuous
 62
     7
370
    15
100
AcDbLine
 10
469.2291339879
 20
789.2314556952
 30
0.0
 11
456.8309394663
 21
789.2314556952
 31
0.0
  0
LINE
  5
138
330
1F
100
AcDbEntity
  8
0
  6
Continuous
 62
     7
370
    15
100
AcDbLine
 10
469.2291339879
 20
775.2314571257
 30
0.0
 11
456.8309394663
 21
775.2314571257
 31
0.0
  0
LINE
  5
139
330
1F
100
AcDbEntity
  8
0
  6
Continuous
 62
     7
370
    15
100
AcDbLine
 10
553.8497326916
 20
789.2314556952
 30
0.0
 11
556.6435961073
 21
789.2314556952
 31
0.0
  0
LINE
  5
13A
330
1F
100
AcDbEntity
  8
0
  6
Continuous
 62
     7
370
    15
100
AcDbLine
 10
556.6435961073
 20
775.2314571257
 30
0.0
 11
553.8497326916
 21
775.2314571257
 31
0.0
  0
LINE
  5
13B
330
1F
100
AcDbEntity
  8
0
  6
Continuous
 62
     7
370
    15
100
AcDbLine
 10
481.8721769398
 20
789.2314556952
 30
0.0
 11
484.6660403555
 21
789.2314556952
 31
0.0
  0
LINE
  5
13C
330
1F
100
AcDbEntity
  8
0
  6
Continuous
 62
     7
370
    15
100
AcDbLine
 10
484.6660403555
 20
775.2314571257
 30
0.0
 11
481.8721769398
 21
775.2314571257
 31
0.0
  0
LINE
  5
13D
330
1F
100
AcDbEntity
  8
0
  6
Continuous
 62
     7
370
    15
100
AcDbLine
 10
526.2578867396
 20
759.731462967
 30
0.0
 11
526.2578867396
 21
775.2314571257
 31
0.0
  0
SPLINE
  5
13E
330
1F
100
AcDbEntity
  8
0
  6
Continuous
 62
     7
370
    15
100
AcDbSpline
210
0.0
220
0.0
230
1.0
 70
    24
 71
     3
 72
    15
 73
    11
 74
     0
 42
0.00000001
 43
0.00000001
 12
1.0
 22
0.0
 32
0.0
 13
1.0
 23
0.0
 33
0.0
 40
0.0
 40
0.0
 40
0.0
 40
0.0
 40
0.1249999053834623
 40
0.2500000296035733
 40
0.3749999942636322
 40
0.5000000000000346
 40
0.6250000057363677
 40
0.7499999703964266
 40
0.8750000946165377
 40
1.0
 40
1.0
 40
1.0
 40
1.0
 10
526.2578867395775
 20
759.7314629669999
 30
0.0
 10
526.1526651971984
 20
759.7314629669999
 30
0.0
 10
525.9422219282293
 20
759.7314629669999
 30
0.0
 10
524.3234808934899
 20
759.7314629669999
 30
0.0
 10
522.0096638058203
 20
759.7314629669999
 30
0.0
 10
519.2578865235104
 20
759.7314629669999
 30
0.0
 10
516.5061092412005
 20
759.7314629669999
 30
0.0
 10
514.1922921535315
 20
759.7314629669999
 30
0.0
 10
512.5735511187921
 20
759.7314629669999
 30
0.0
 10
512.363107849823
 20
759.7314629669999
 30
0.0
 10
512.2578863074439
 20
759.7314629669999
 30
0.0
  0
LINE
  5
13F
330
1F
100
AcDbEntity
  8
0
  6
Continuous
 62
     7
370
    15
100
AcDbLine
 10
512.2578863074
 20
775.2314571257
 30
0.0
 11
512.2578863074
 21
759.731462967
 31
0.0
  0
LINE
  5
140
330
1F
100
AcDbEntity
  8
0
  6
Continuous
 62
     7
370
    15
100
AcDbLine
 10
581.6848335808
 20
789.2314556952
 30
0.0
 11
582.1241570657
 21
789.2314556952
 31
0.0
  0
LINE
  5
141
330
1F
100
AcDbEntity
  8
0
  6
Continuous
 62
     7
370
    15
100
AcDbLine
 10
582.1241570657
 20
775.2314571257
 30
0.0
 11
581.6848335808
 21
775.2314571257
 31
0.0
  0
LINE
  5
142
330
1F
100
AcDbEntity
  8
0
  6
Continuous
 62
     7
370
    15
100
AcDbLine
 10
456.3916159814
 20
789.2314556952
 30
0.0
 11
456.8309394663
 21
789.2314556952
 31
0.0
  0
LINE
  5
143
330
1F
100
AcDbEntity
  8
0
  6
Continuous
 62
     7
370
    15
100
AcDbLine
 10
456.8309394663
 20
775.2314571257
 30
0.0
 11
456.3916159814
 21
775.2314571257
 31
0.0
  0
LINE
  5
144
330
1F
100
AcDbEntity
  8
0
  6
Continuous
 62
     7
370
    15
100
AcDbLine
 10
529.591219688
 20
759.731462967
 30
0.0
 11
526.2578867396
 21
759.731462967
 31
0.0
  0
LINE
  5
145
330
1F
100
AcDbEntity
  8
0
  6
Continuous
 62
     7
370
    15
100
AcDbLine
 10
512.2578863074
 20
759.731462967
 30
0.0
 11
508.9245533591
 21
759.731462967
 31
0.0
  0
LINE
  5
146
330
1F
100
AcDbEntity
  8
0
  6
Continuous
 62
     7
370
    15
100
AcDbLine
 10
550.2578860169
 20
759.731462967
 30
0.0
 11
529.591219688
 21
759.731462967
 31
0.0
  0
LINE
  5
147
330
1F
100
AcDbEntity
  8
0
  6
Continuous
 62
     7
370
    15
100
AcDbLine
 10
508.9245533591
 20
759.731462967
 30
0.0
 11
488.2578870302
 21
759.731462967
 31
0.0
  0
LINE
  5
148
330
1F
100
AcDbEntity
  8
0
  6
Continuous
 62
     7
370
    15
100
AcDbLine
 10
552.151764
 20
759.731462967
 30
0.0
 11
550.2578860169
 21
759.731462967
 31
0.0
  0
LINE
  5
149
330
1F
100
AcDbEntity
  8
0
  6
Continuous
 62
     7
370
    15
100
AcDbLine
 10
488.2578870302
 20
759.731462967
 30
0.0
 11
486.3640090471
 21
759.731462967
 31
0.0
  0
LINE
  5
14A
330
1F
100
AcDbEntity
  8
0
  6
Continuous
 62
     7
370
    15
100
AcDbLine
 10
556.5328767543
 20
759.731462967
 30
0.0
 11
552.151764
 21
759.731462967
 31
0.0
  0
LINE
  5
14B
330
1F
100
AcDbEntity
  8
0
  6
Continuous
 62
     7
370
    15
100
AcDbLine
 10
486.3640090471
 20
759.731462967
 30
0.0
 11
481.9828962927
 21
759.731462967
 31
0.0
  0
SPLINE
  5
14C
330
1F
100
AcDbEntity
  8
0
  6
Continuous
 62
     7
370
    15
100
AcDbSpline
210
0.0
220
0.0
230
1.0
 70
    24
 71
     3
 72
    10
 73
     6
 74
     0
 42
0.00000001
 43
0.00000001
 12
1.0
 22
0.0
 32
0.0
 13
1.0
 23
0.0
 33
0.0
 40
0.0
 40
0.0
 40
0.0
 40
0.0
 40
0.374404774548767
 40
0.7488096892493942
 40
1.0
 40
1.0
 40
1.0
 40
1.0
 10
481.982896292712
 20
759.7314629669999
 30
0.0
 10
481.2499974002464
 20
759.7314629669999
 30
0.0
 10
479.7841993409675
 20
759.7314629669999
 30
0.0
 10
478.60245219743
 20
759.7314629669999
 30
0.0
 10
478.6018223826449
 20
759.7314629669999
 30
0.0
 10
478.6015694980876
 20
759.7314629669999
 30
0.0
  0
SPLINE
  5
14D
330
1F
100
AcDbEntity
  8
0
  6
Continuous
 62
     7
370
    15
100
AcDbSpline
210
0.0
220
0.0
230
1.0
 70
    24
 71
     3
 72
    10
 73
     6
 74
     0
 42
0.00000001
 43
0.00000001
 12
1.0
 22
0.0
 32
0.0
 13
1.0
 23
0.0
 33
0.0
 40
0.0
 40
0.0
 40
0.0
 40
0.0
 40
0.2511903107506059
 40
0.6255952254512331
 40
1.0
 40
1.0
 40
1.0
 40
1.0
 10
559.9142035489338
 20
759.7314629669999
 30
0.0
 10
559.9139506643764
 20
759.7314629669999
 30
0.0
 10
559.9133208495914
 20
759.7314629669999
 30
0.0
 10
558.7315737060538
 20
759.7314629669999
 30
0.0
 10
557.265775646775
 20
759.7314629669999
 30
0.0
 10
556.5328767543093
 20
759.7314629669999
 30
0.0
  0
LINE
  5
14E
330
1F
100
AcDbEntity
  8
0
  6
Continuous
 62
     7
370
    15
100
AcDbLine
 10
451.7578838413
 20
814.7314552184
 30
0.0
 11
463.9926461523
 21
814.7314552184
 31
0.0
  0
LINE
  5
14F
330
1F
100
AcDbEntity
  8
0
  6
Continuous
 62
     7
370
    15
100
AcDbLine
 10
471.9926437383
 20
814.7314552184
 30
0.0
 11
566.5231293087
 21
814.7314552184
 31
0.0
  0
LINE
  5
150
330
1F
100
AcDbEntity
  8
0
  6
Continuous
 62
     7
370
    15
100
AcDbLine
 10
574.5231268947
 20
814.7314552184
 30
0.0
 11
586.7578892057
 21
814.7314552184
 31
0.0
  0
LINE
  5
151
330
1F
100
AcDbEntity
  8
0
  6
Continuous
 62
     7
370
    15
100
AcDbLine
 10
451.7578838413
 20
838.2314506884
 30
0.0
 11
463.9926461523
 21
838.2314506884
 31
0.0
  0
LINE
  5
152
330
1F
100
AcDbEntity
  8
0
  6
Continuous
 62
     7
370
    15
100
AcDbLine
 10
471.9926437383
 20
838.2314506884
 30
0.0
 11
566.5231293087
 21
838.2314506884
 31
0.0
  0
LINE
  5
153
330
1F
100
AcDbEntity
  8
0
  6
Continuous
 62
     7
370
    15
100
AcDbLine
 10
574.5231268947
 20
838.2314506884
 30
0.0
 11
586.7578892057
 21
838.2314506884
 31
0.0
  0
LWPOLYLINE
  5
154
330
1F
100
AcDbEntity
  8
0
  6
Continuous
 62
     7
370
    15
100
AcDbPolyline
 90
       17
 70
   128
 43
0.0
 10
613.1368635242
 20
1125.4632983323
 10
613.3852509802
 20
1125.3202322837
 10
613.6964170282
 20
1124.9128345366
 10
614.0229834264
 20
1124.3031237241
 10
614.3152399009
 20
1123.583919179
 10
614.5286841338
 20
1122.8646997329
 10
614.6308315938
 20
1122.2549889203
 10
614.6061254685
 20
1121.8475911733
 10
614.4583283012
 20
1121.7045251246
 10
614.2099482959
 20
1121.8475911733
 10
613.8987822478
 20
1122.2549889203
 10
613.5722158497
 20
1122.8646997329
 10
613.2799593752
 20
1123.583919179
 10
613.0665151422
 20
1124.3031237241
 10
612.9643676822
 20
1124.9128345366
 10
612.9890738075
 20
1125.3202322837
 10
613.1368635242
 20
1125.4632983323
  0
LWPOLYLINE
  5
155
330
1F
100
AcDbEntity
  8
0
  6
Continuous
 62
     7
370
    15
100
AcDbPolyline
 90
       17
 70
   128
 43
0.0
 10
643.3432756012
 20
1038.071884584
 10
643.1298239177
 20
1038.7910928543
 10
643.0276764577
 20
1039.4008111175
 10
643.0523825829
 20
1039.8082088645
 10
643.2001797502
 20
1039.9512711879
 10
643.4485672062
 20
1039.8082088645
 10
643.7597332542
 20
1039.4008111175
 10
644.0862996524
 20
1038.7910928543
 10
644.3785561269
 20
1038.071884584
 10
644.5920003598
 20
1037.3526763137
 10
644.6941478198
 20
1036.7429580506
 10
644.6694416945
 20
1036.3355603035
 10
644.5216519778
 20
1036.1924979802
 10
644.2732645219
 20
1036.3355603035
 10
643.9620984738
 20
1036.7429580506
 10
643.6355320757
 20
1037.3526763137
 10
643.3432756012
 20
1038.071884584
  0
LWPOLYLINE
  5
156
330
1F
100
AcDbEntity
  8
0
  6
Continuous
 62
     7
370
    15
100
AcDbPolyline
 90
       12
 70
   128
 43
0.0
 10
634.6264241283
 20
1129.8837278005
 10
634.6473304575
 20
1129.8845324632
 10
635.0178329294
 20
1129.7073129531
 10
635.476684386
 20
1129.1929844733
 10
635.978965277
 20
1128.3918980475
 10
636.4755092209
 20
1127.3824635859
 10
636.9177086299
 20
1126.2635055896
 10
637.2622905319
 20
1125.1445475932
 10
637.4755112474
 20
1124.1351131316
 10
637.5365017002
 20
1123.3340267058
 10
637.4393014257
 20
1122.8196982261
 10
637.3543722575
 20
1122.7035734769
  0
ARC
  5
157
330
1F
100
AcDbEntity
  8
0
  6
Continuous
 62
     7
370
    15
100
AcDbCircle
 10
637.0549815945
 20
1127.0870268104
 30
0.0
 40
0.0597976814674321
100
AcDbArc
 50
340.1812768656
 51
22.5268185183
  0
ARC
  5
158
330
1F
100
AcDbEntity
  8
0
  6
Continuous
 62
     7
370
    15
100
AcDbCircle
 10
631.1425638809
 20
1124.4245729175
 30
0.0
 40
6.527340823100342
100
AcDbArc
 50
14.862728968
 51
23.8777518988
  0
ARC
  5
159
330
1F
100
AcDbEntity
  8
0
  6
Continuous
 62
     7
370
    15
100
AcDbCircle
 10
637.3968423024
 20
1126.118650483
 30
0.0
 40
0.0581485158985476
100
AcDbArc
 50
340.1049693498
 51
50.2000818753
  0
LWPOLYLINE
  5
15A
330
1F
100
AcDbEntity
  8
0
  6
Continuous
 62
     7
370
    15
100
AcDbPolyline
 90
       17
 70
   128
 43
0.0
 10
628.2914636677
 20
1123.583919179
 10
628.0780194347
 20
1124.3031237241
 10
627.9758719747
 20
1124.9128345366
 10
628.0005781
 20
1125.3202322837
 10
628.1483752673
 20
1125.4632983323
 10
628.3967552727
 20
1125.3202322837
 10
628.7079213207
 20
1124.9128345366
 10
629.0344877188
 20
1124.3031237241
 10
629.3267441933
 20
1123.583919179
 10
629.5401884263
 20
1122.8646997329
 10
629.6423358863
 20
1122.2549889203
 10
629.617629761
 20
1121.8475911733
 10
629.4698325937
 20
1121.7045251246
 10
629.2214525883
 20
1121.8475911733
 10
628.9102865403
 20
1122.2549889203
 10
628.5837201422
 20
1122.8646997329
 10
628.2914636677
 20
1123.583919179
  0
LWPOLYLINE
  5
15B
330
1F
100
AcDbEntity
  8
0
  6
Continuous
 62
     7
370
    15
100
AcDbPolyline
 90
       12
 70
   128
 43
0.0
 10
664.6897329037
 20
1044.3716932054
 10
664.7106392329
 20
1044.372509044
 10
665.0811417048
 20
1044.1952858086
 10
665.5399931615
 20
1043.6809536036
 10
666.042281503
 20
1042.8798671778
 10
666.5388179963
 20
1041.8704401668
 10
666.9810248559
 20
1040.7514784451
 10
667.3255993073
 20
1039.6325204488
 10
667.5388200228
 20
1038.6230897125
 10
667.5998104756
 20
1037.8220032867
 10
667.5026102011
 20
1037.3076748069
 10
667.4176884835
 20
1037.1915463324
  0
ARC
  5
15C
330
1F
100
AcDbEntity
  8
0
  6
Continuous
 62
     7
370
    15
100
AcDbCircle
 10
667.1182556984
 20
1041.5749874375
 30
0.0
 40
0.0598427018694044
100
AcDbArc
 50
340.2016725474
 51
22.5254769982
  0
ARC
  5
15D
330
1F
100
AcDbEntity
  8
0
  6
Continuous
 62
     7
370
    15
100
AcDbCircle
 10
661.2054096555
 20
1038.912460998
 30
0.0
 40
6.527809123092947
100
AcDbArc
 50
14.8623741635
 51
23.8766745705
  0
ARC
  5
15E
330
1F
100
AcDbEntity
  8
0
  6
Continuous
 62
     7
370
    15
100
AcDbCircle
 10
667.4602485778
 20
1040.6066477279
 30
0.0
 40
0.0580664328619975
100
AcDbArc
 50
340.0461448027
 51
50.2482367527
  0
LWPOLYLINE
  5
15F
330
1F
100
AcDbEntity
  8
0
  6
Continuous
 62
     7
370
    15
100
AcDbPolyline
 90
       17
 70
   128
 43
0.0
 10
658.3547873442
 20
1038.071884584
 10
658.1413282101
 20
1038.7910928543
 10
658.0391807502
 20
1039.4008111175
 10
658.0638868754
 20
1039.8082088645
 10
658.2116914933
 20
1039.9512711879
 10
658.4600789492
 20
1039.8082088645
 10
658.7712300961
 20
1039.4008111175
 10
659.0978039449
 20
1038.7910928543
 10
659.3900604193
 20
1038.071884584
 10
659.6035046523
 20
1037.3526763137
 10
659.7056521123
 20
1036.7429580506
 10
659.680945987
 20
1036.3355603035
 10
659.5331562703
 20
1036.1924979802
 10
659.2847688144
 20
1036.3355603035
 10
658.9736027663
 20
1036.7429580506
 10
658.6470289176
 20
1037.3526763137
 10
658.3547873442
 20
1038.071884584
  0
LWPOLYLINE
  5
160
330
1F
100
AcDbEntity
  8
0
  6
Continuous
 62
     7
370
    15
100
AcDbPolyline
 90
       22
 70
   128
 43
0.0
 10
620.5767376368
 20
1116.5823701735
 10
620.7796318476
 20
1116.4569918033
 10
621.3828159516
 20
1115.8477131244
 10
621.9566075151
 20
1114.905602109
 10
622.488787586
 20
1113.6507306214
 10
622.9680014794
 20
1112.109861147
 10
623.3840493505
 20
1110.3158209439
 10
623.7280501073
 20
1108.3068538423
 10
623.9926798289
 20
1106.1257634278
 10
624.1722984259
 20
1103.8190562244
 10
624.2630688494
 20
1101.4358762618
 10
624.2630688494
 20
1099.0270364996
 10
624.1722984259
 20
1096.6438565369
 10
623.9926798289
 20
1094.3371493336
 10
623.7280501073
 20
1092.156058919
 10
623.3840493505
 20
1090.1470918175
 10
622.9680014794
 20
1088.3530516144
 10
622.488787586
 20
1086.8121746894
 10
621.9566075151
 20
1085.5573106523
 10
621.3828159516
 20
1084.615199637
 10
620.7796318476
 20
1084.0059209581
 10
620.5767376368
 20
1083.8805425878
  0
LWPOLYLINE
  5
161
330
1F
100
AcDbEntity
  8
0
  6
Continuous
 62
     7
370
    15
100
AcDbPolyline
 90
       21
 70
   128
 43
0.0
 10
601.5578864162
 20
1084.0794581886
 10
601.613974387
 20
1084.1262031313
 10
602.2109968608
 20
1084.820187461
 10
602.7754975503
 20
1085.8426380869
 10
603.295458669
 20
1087.1717620607
 10
603.7597937529
 20
1088.7792322751
 10
604.1586009805
 20
1090.6307835098
 10
604.4833792393
 20
1092.68695749
 10
604.7272218411
 20
1094.9039299007
 10
604.8849133795
 20
1097.2344491597
 10
604.9531010931
 20
1099.6288422461
 10
604.9303321188
 20
1102.0360801335
 10
604.8170832937
 20
1104.4048581239
 10
604.6157835071
 20
1106.6846836325
 10
604.3307168429
 20
1108.8269714232
 10
603.9679555242
 20
1110.7860643383
 10
603.5352258032
 20
1112.5201944228
 10
603.0417663996
 20
1113.9924142476
 10
602.4980826323
 20
1115.1713494178
 10
601.9157676046
 20
1116.0318616744
 10
601.5578864162
 20
1116.3834545728
  0
ARC
  5
162
330
1F
100
AcDbEntity
  8
0
  6
Continuous
 62
     7
370
    15
100
AcDbCircle
 10
552.0917412819
 20
1100.2314563807
 30
0.0
 40
51.00737492546807
100
AcDbArc
 50
345.8793562299
 51
14.1206437701
  0
ARC
  5
163
330
1F
100
AcDbEntity
  8
0
  6
Continuous
 62
     7
370
    15
100
AcDbCircle
 10
603.0920223976
 20
1101.5443430167
 30
0.0
 40
1.535419674427353
100
AcDbArc
 50
129.3621017974
 51
182.3430682142
  0
LWPOLYLINE
  5
164
330
1F
100
AcDbEntity
  8
0
  6
Continuous
 62
     7
370
    15
100
AcDbPolyline
 90
       13
 70
   128
 43
0.0
 10
601.5578864162
 20
1098.9813420888
 10
601.6606969779
 20
1098.4636906501
 10
601.8706170862
 20
1097.9217577692
 10
602.1182296818
 20
1097.7314550396
 10
602.3658422773
 20
1097.9217577692
 10
602.5757623856
 20
1098.4636906501
 10
602.7160270159
 20
1099.2747459527
 10
602.7652753537
 20
1100.231460106
 10
602.7160270159
 20
1101.1881668087
 10
602.5757623856
 20
1101.9992221113
 10
602.3658422773
 20
1102.5411549922
 10
602.1182296818
 20
1102.7314577218
 10
602.1182296818
 20
1102.7314577218
  0
LWPOLYLINE
  5
165
330
1F
100
AcDbEntity
  8
0
  6
Continuous
 62
     7
370
    15
100
AcDbPolyline
 90
        9
 70
   128
 43
0.0
 10
629.9540085738
 20
1124.5236013051
 10
629.5582858866
 20
1125.568560135
 10
629.1210858171
 20
1126.5733603354
 10
628.6591945236
 20
1127.4993780967
 10
628.1903667395
 20
1128.3110443469
 10
627.7326254194
 20
1128.9771560546
 10
627.3035539334
 20
1129.472127926
 10
626.919647867
 20
1129.7769311782
 10
626.5956519192
 20
1129.8798534985
  0
LINE
  5
166
330
1F
100
AcDbEntity
  8
0
  6
Continuous
 62
     7
370
    15
100
AcDbLine
 10
660.3476835435
 20
1038.071884584
 30
0.0
 11
629.9540085738
 21
1124.5236013051
 31
0.0
  0
LWPOLYLINE
  5
167
330
1F
100
AcDbEntity
  8
0
  6
Continuous
 62
     7
370
    15
100
AcDbPolyline
 90
        9
 70
   128
 43
0.0
 10
660.755498523
 20
1032.7156361159
 10
661.0071344321
 20
1032.8185547109
 10
661.1767245477
 20
1033.1233579632
 10
661.2577570622
 20
1033.6183261093
 10
661.2471325343
 20
1034.2844452675
 10
661.1452532952
 20
1035.0961115177
 10
660.956008548
 20
1036.0221367296
 10
660.686714763
 20
1037.0269332047
 10
660.3476835435
 20
1038.071884584
  0
LINE
  5
168
330
1F
100
AcDbEntity
  8
0
  6
Continuous
 62
     7
370
    15
100
AcDbLine
 10
645.4851759618
 20
1032.7156361159
 30
0.0
 11
660.755498523
 21
1032.7156361159
 31
0.0
  0
LWPOLYLINE
  5
169
330
1F
100
AcDbEntity
  8
0
  6
Continuous
 62
     7
370
    15
100
AcDbPolyline
 90
        9
 70
   128
 43
0.0
 10
642.1268267577
 20
1038.071884584
 10
642.5225419944
 20
1037.0269332047
 10
642.9597495144
 20
1036.0221367296
 10
643.4216408079
 20
1035.0961115177
 10
643.890468592
 20
1034.2844452675
 10
644.3482024615
 20
1033.6183261093
 10
644.7772813981
 20
1033.1233579632
 10
645.1611949151
 20
1032.8185547109
 10
645.4851759618
 20
1032.7156361159
  0
LINE
  5
16A
330
1F
100
AcDbEntity
  8
0
  6
Continuous
 62
     7
370
    15
100
AcDbLine
 10
611.7331443374
 20
1124.5236013051
 30
0.0
 11
613.2421253269
 21
1120.2314559337
 31
0.0
  0
LINE
  5
16B
330
1F
100
AcDbEntity
  8
0
  6
Continuous
 62
     7
370
    15
100
AcDbLine
 10
640.6644491499
 20
1042.2314580496
 30
0.0
 11
642.1268267577
 21
1038.071884584
 31
0.0
  0
LWPOLYLINE
  5
16C
330
1F
100
AcDbEntity
  8
0
  6
Continuous
 62
     7
370
    15
100
AcDbPolyline
 90
        9
 70
   128
 43
0.0
 10
611.3253293579
 20
1129.8798534985
 10
611.0737008994
 20
1129.7769311782
 10
610.9041107838
 20
1129.472127926
 10
610.8230708187
 20
1128.9771560546
 10
610.8336953466
 20
1128.3110443469
 10
610.9355894869
 20
1127.4993780967
 10
611.1248193329
 20
1126.5733603354
 10
611.3941205685
 20
1125.568560135
 10
611.7331443374
 20
1124.5236013051
  0
LINE
  5
16D
330
1F
100
AcDbEntity
  8
0
  6
Continuous
 62
     7
370
    15
100
AcDbLine
 10
626.5956519192
 20
1129.8798534985
 30
0.0
 11
611.3253293579
 21
1129.8798534985
 31
0.0
  0
LWPOLYLINE
  5
16E
330
1F
100
AcDbEntity
  8
0
  6
Continuous
 62
     7
370
    15
100
AcDbPolyline
 90
        9
 70
   128
 43
0.0
 10
626.9920898621
 20
1128.7522230264
 10
627.2478757446
 20
1128.6709669944
 10
627.5509579127
 20
1128.4303430434
 10
627.8896985595
 20
1128.0395749923
 10
628.2510740702
 20
1127.5136832114
 10
628.6212040131
 20
1126.8729034777
 10
628.9858503287
 20
1126.1418227073
 10
629.331013376
 20
1125.3485742923
 10
629.643423671
 20
1124.5236013051
  0
LINE
  5
16F
330
1F
100
AcDbEntity
  8
0
  6
Continuous
 62
     7
370
    15
100
AcDbLine
 10
626.9920898621
 20
1128.7522230264
 30
0.0
 11
611.7217673009
 21
1128.7522230264
 31
0.0
  0
LWPOLYLINE
  5
170
330
1F
100
AcDbEntity
  8
0
  6
Continuous
 62
     7
370
    15
100
AcDbPolyline
 90
        9
 70
   128
 43
0.0
 10
612.0437292402
 20
1124.5236013051
 10
611.7760745828
 20
1125.3485742923
 10
611.5634722655
 20
1126.1418227073
 10
611.4140732234
 20
1126.8729034777
 10
611.3336367553
 20
1127.5136832114
 10
611.3252474015
 20
1128.0395749923
 10
611.3892255371
 20
1128.4303430434
 10
611.5231124704
 20
1128.6709669944
 10
611.7217673009
 20
1128.7522230264
  0
LINE
  5
171
330
1F
100
AcDbEntity
  8
0
  6
Continuous
 62
     7
370
    15
100
AcDbLine
 10
612.0437292402
 20
1124.5236013051
 30
0.0
 11
613.5527102297
 21
1120.2314559337
 31
0.0
  0
LINE
  5
172
330
1F
100
AcDbEntity
  8
0
  6
Continuous
 62
     7
370
    15
100
AcDbLine
 10
640.9750340526
 20
1042.2314580496
 30
0.0
 11
642.4374116605
 21
1038.071884584
 31
0.0
  0
LWPOLYLINE
  5
173
330
1F
100
AcDbEntity
  8
0
  6
Continuous
 62
     7
370
    15
100
AcDbPolyline
 90
        9
 70
   128
 43
0.0
 10
645.0887454694
 20
1033.8432665881
 10
644.8329521363
 20
1033.9245188948
 10
644.5298774188
 20
1034.1651502963
 10
644.1911293214
 20
1034.5559183474
 10
643.8297538107
 20
1035.0818026777
 10
643.4596313184
 20
1035.722589862
 10
643.0949775522
 20
1036.4536631819
 10
642.7498219555
 20
1037.2469227727
 10
642.4374116605
 20
1038.071884584
  0
LINE
  5
174
330
1F
100
AcDbEntity
  8
0
  6
Continuous
 62
     7
370
    15
100
AcDbLine
 10
645.0887454694
 20
1033.8432665881
 30
0.0
 11
660.3590680306
 21
1033.8432665881
 31
0.0
  0
LWPOLYLINE
  5
175
330
1F
100
AcDbEntity
  8
0
  6
Continuous
 62
     7
370
    15
100
AcDbPolyline
 90
        9
 70
   128
 43
0.0
 10
660.0370986407
 20
1038.071884584
 10
660.3047532981
 20
1037.2469227727
 10
660.517363066
 20
1036.4536631819
 10
660.6667621081
 20
1035.722589862
 10
660.7471985762
 20
1035.0818026777
 10
660.75558793
 20
1034.5559183474
 10
660.6916023438
 20
1034.1651502963
 10
660.5577154105
 20
1033.9245188948
 10
660.3590680306
 20
1033.8432665881
  0
LINE
  5
176
330
1F
100
AcDbEntity
  8
0
  6
Continuous
 62
     7
370
    15
100
AcDbLine
 10
660.0370986407
 20
1038.071884584
 30
0.0
 11
629.643423671
 21
1124.5236013051
 31
0.0
  0
LINE
  5
177
330
1F
100
AcDbEntity
  8
0
  6
Continuous
 62
     7
370
    15
100
AcDbLine
 10
626.5956519192
 20
1129.8798534985
 30
0.0
 11
630.4986460154
 21
1131.3505385037
 31
0.0
  0
LWPOLYLINE
  5
178
330
1F
100
AcDbEntity
  8
0
  6
Continuous
 62
     7
370
    15
100
AcDbPolyline
 90
        9
 70
   128
 43
0.0
 10
633.8570026701
 20
1125.9942863103
 10
633.4612799828
 20
1127.0392451402
 10
633.0240799134
 20
1128.0440453406
 10
632.5621886199
 20
1128.9700631018
 10
632.0933608358
 20
1129.7817293521
 10
631.6356195157
 20
1130.4478559609
 10
631.2065480297
 20
1130.9428129311
 10
630.8226419633
 20
1131.2476161834
 10
630.4986460154
 20
1131.3505385037
  0
LINE
  5
179
330
1F
100
AcDbEntity
  8
0
  6
Continuous
 62
     7
370
    15
100
AcDbLine
 10
633.8570026701
 20
1125.9942863103
 30
0.0
 11
629.9540085738
 21
1124.5236013051
 31
0.0
  0
LINE
  5
17A
330
1F
100
AcDbEntity
  8
0
  6
Continuous
 62
     7
370
    15
100
AcDbLine
 10
664.2506850903
 20
1039.5425695892
 30
0.0
 11
633.8570026701
 21
1125.9942863103
 31
0.0
  0
LINE
  5
17B
330
1F
100
AcDbEntity
  8
0
  6
Continuous
 62
     7
370
    15
100
AcDbLine
 10
660.3476835435
 20
1038.071884584
 30
0.0
 11
664.2506850903
 21
1039.5425695892
 31
0.0
  0
LINE
  5
17C
330
1F
100
AcDbEntity
  8
0
  6
Continuous
 62
     7
370
    15
100
AcDbLine
 10
615.2283234542
 20
1131.3505385037
 30
0.0
 11
611.3253293579
 21
1129.8798534985
 31
0.0
  0
LINE
  5
17D
330
1F
100
AcDbEntity
  8
0
  6
Continuous
 62
     7
370
    15
100
AcDbLine
 10
630.4986460154
 20
1131.3505385037
 30
0.0
 11
615.2283234542
 21
1131.3505385037
 31
0.0
  0
LINE
  5
17E
330
1F
100
AcDbEntity
  8
0
  6
Continuous
 62
     7
370
    15
100
AcDbLine
 10
636.3896412795
 20
1122.6645473357
 30
0.0
 11
663.1493253653
 21
1122.6645473357
 31
0.0
  0
LWPOLYLINE
  5
17F
330
1F
100
AcDbEntity
  8
0
  6
Continuous
 62
     7
370
    15
100
AcDbPolyline
 90
        9
 70
   128
 43
0.0
 10
664.4434316104
 20
1117.6645521041
 10
664.4185615723
 20
1118.639997017
 10
664.3449200337
 20
1119.5779655095
 10
664.2253382151
 20
1120.4423967715
 10
664.0643907731
 20
1121.2000910159
 10
663.8682914918
 20
1121.8219015714
 10
663.6445654576
 20
1122.2839418765
 10
663.4017957394
 20
1122.5684795495
 10
663.1493253653
 20
1122.6645473357
  0
LINE
  5
180
330
1F
100
AcDbEntity
  8
0
  6
Continuous
 62
     7
370
    15
100
AcDbLine
 10
664.4434316104
 20
1049.9064575847
 30
0.0
 11
664.4434316104
 21
1117.6645521041
 31
0.0
  0
LINE
  5
181
330
1F
100
AcDbEntity
  8
0
  6
Continuous
 62
     7
370
    15
100
AcDbLine
 10
648.9917321151
 20
1035.3139553185
 30
0.0
 11
645.0887454694
 21
1033.8432665881
 31
0.0
  0
LWPOLYLINE
  5
182
330
1F
100
AcDbEntity
  8
0
  6
Continuous
 62
     7
370
    15
100
AcDbPolyline
 90
        3
 70
   128
 43
0.0
 10
647.739408726
 20
1035.5012033101
 10
647.7483643239
 20
1035.4959469255
 10
647.9188783114
 20
1035.4417812045
  0
LWPOLYLINE
  5
183
330
1F
100
AcDbEntity
  8
0
  6
Continuous
 62
     7
370
    15
100
AcDbPolyline
 90
        5
 70
   128
 43
0.0
 10
615.212639982
 20
1128.471351039
 10
615.0802059119
 20
1128.4171853181
 10
614.9909405058
 20
1128.2567594167
 10
614.9482933824
 20
1127.9962424155
 10
614.9456260746
 20
1127.8032574769
  0
LINE
  5
184
330
1F
100
AcDbEntity
  8
0
  6
Continuous
 62
     7
370
    15
100
AcDbLine
 10
615.212639982
 20
1128.471351039
 30
0.0
 11
627.508228833
 21
1128.471351039
 31
0.0
  0
LINE
  5
185
330
1F
100
AcDbEntity
  8
0
  6
Continuous
 62
     7
370
    15
100
AcDbLine
 10
660.7090665047
 20
1035.4417812045
 30
0.0
 11
647.9188783114
 21
1035.4417812045
 31
0.0
  0
ARC
  5
186
330
1F
100
AcDbEntity
  8
0
  6
Continuous
 62
     7
370
    15
100
AcDbCircle
 10
620.4643967774
 20
1121.2982152787
 30
0.0
 40
3.308060288572892
100
AcDbArc
 50
176.7605511156
 51
192.5344681747
  0
ARC
  5
187
330
1F
100
AcDbEntity
  8
0
  6
Continuous
 62
     7
370
    15
100
AcDbCircle
 10
648.8971871891
 20
1044.4679983004
 30
0.0
 40
4.639918200865831
100
AcDbArc
 50
208.8175116677
 51
218.0666913376
  0
ARC
  5
188
330
1F
100
AcDbEntity
  8
0
  6
Continuous
 62
     7
370
    15
100
AcDbCircle
 10
639.325102974
 20
1037.0950384982
 30
0.0
 40
7.442764834064576
100
AcDbArc
 50
24.8464791088
 51
37.3179811715
  0
ARC
  5
189
330
1F
100
AcDbEntity
  8
0
  6
Continuous
 62
     7
370
    15
100
AcDbCircle
 10
648.4598529409
 20
1040.9412120845
 30
0.0
 40
2.487051059675562
100
AcDbArc
 50
196.7993672568
 51
239.872831556
  0
LINE
  5
18A
330
1F
100
AcDbEntity
  8
0
  6
Continuous
 62
     7
370
    15
100
AcDbLine
 10
658.1415666287
 20
1038.7901280042
 30
0.0
 11
647.2115499919
 21
1038.7901280042
 31
0.0
  0
LINE
  5
18B
330
1F
100
AcDbEntity
  8
0
  6
Continuous
 62
     7
370
    15
100
AcDbLine
 10
617.1482412164
 20
1124.3021551486
 30
0.0
 11
628.0782504027
 21
1124.3021551486
 31
0.0
  0
LWPOLYLINE
  5
18C
330
1F
100
AcDbEntity
  8
0
  6
Continuous
 62
     7
370
    15
100
AcDbPolyline
 90
        9
 70
   128
 43
0.0
 10
617.0227138345
 20
1122.869885337
 10
616.9630793875
 20
1123.1778327342
 10
616.9245226329
 20
1123.4581384774
 10
616.9078184312
 20
1123.705289137
 10
616.9132722562
 20
1123.9144716378
 10
616.9407947009
 20
1124.0815583583
 10
616.9898344224
 20
1124.2033008452
 10
617.0594377463
 20
1124.2773149129
 10
617.1482412164
 20
1124.3021551486
  0
ARC
  5
18D
330
1F
100
AcDbEntity
  8
0
  6
Continuous
 62
     7
370
    15
100
AcDbCircle
 10
612.4449634735
 20
1121.7113370631
 30
0.0
 40
4.722079252905863
100
AcDbArc
 50
357.2544908519
 51
14.202344968
  0
LWPOLYLINE
  5
18E
330
1F
100
AcDbEntity
  8
0
  6
Continuous
 62
     7
370
    15
100
AcDbPolyline
 90
        7
 70
   128
 43
0.0
 10
614.4180206602
 20
1127.5910798426
 10
614.2855865901
 20
1127.5369141217
 10
614.1963286345
 20
1127.3764882203
 10
614.1536740606
 20
1127.1159861203
 10
614.1592694466
 20
1126.7653915997
 10
614.2128987258
 20
1126.3381902095
 10
614.2986549084
 20
1125.9099904414
  0
LINE
  5
18F
330
1F
100
AcDbEntity
  8
0
  6
Continuous
 62
     7
370
    15
100
AcDbLine
 10
614.4180206602
 20
1127.5910798426
 30
0.0
 11
628.2019896453
 21
1127.5910798426
 31
0.0
  0
LINE
  5
190
330
1F
100
AcDbEntity
  8
0
  6
Continuous
 62
     7
370
    15
100
AcDbLine
 10
646.7939002459
 20
1035.5012033101
 30
0.0
 11
660.7009453719
 21
1035.5012033101
 31
0.0
  0
ARC
  5
191
330
1F
100
AcDbEntity
  8
0
  6
Continuous
 62
     7
370
    15
100
AcDbCircle
 10
647.6869843108
 20
1037.3375522693
 30
0.0
 40
2.042003096642993
100
AcDbArc
 50
199.6291532361
 51
244.0646402962
  0
LINE
  5
192
330
1F
100
AcDbEntity
  8
0
  6
Continuous
 62
     7
370
    15
100
AcDbLine
 10
644.3036330884
 20
1040.3759766336
 30
0.0
 11
643.6512975042
 21
1042.2314580496
 31
0.0
  0
LINE
  5
193
330
1F
100
AcDbEntity
  8
0
  6
Continuous
 62
     7
370
    15
100
AcDbLine
 10
616.2289736812
 20
1120.2314559337
 30
0.0
 11
615.5673174207
 21
1122.1134874936
 31
0.0
  0
LWPOLYLINE
  5
194
330
1F
100
AcDbEntity
  8
0
  6
Continuous
 62
     7
370
    15
100
AcDbPolyline
 90
       10
 70
   128
 43
0.0
 10
614.9984953945
 20
1126.1736962911
 10
615.0429828112
 20
1126.1815343018
 10
615.2913702672
 20
1126.0384831544
 10
615.6025288646
 20
1125.6310854073
 10
615.9290952628
 20
1125.0213596936
 10
616.2213517373
 20
1124.3021551486
 10
616.4348034208
 20
1123.5829506036
 10
616.5369434302
 20
1122.9732248898
 10
616.5122447555
 20
1122.5658271428
 10
616.4089275544
 20
1122.4306140061
  0
LWPOLYLINE
  5
195
330
1F
100
AcDbEntity
  8
0
  6
Continuous
 62
     7
370
    15
100
AcDbPolyline
 90
       10
 70
   128
 43
0.0
 10
645.0618190711
 20
1040.6616691466
 10
645.1062990372
 20
1040.6695108827
 10
645.3546864932
 20
1040.5264522847
 10
645.6658376401
 20
1040.1190545376
 10
645.9924114888
 20
1039.5093362745
 10
646.2846679633
 20
1038.7901280042
 10
646.4981121962
 20
1038.0709160086
 10
646.6002596562
 20
1037.4612014707
 10
646.575553531
 20
1037.0537999984
 10
646.4722437804
 20
1036.9185831364
  0
LINE
  5
196
330
1F
100
AcDbEntity
  8
0
  6
Continuous
 62
     7
370
    15
100
AcDbLine
 10
615.5072284882
 20
1128.0015025254
 30
0.0
 11
614.4180206602
 21
1127.5910798426
 31
0.0
  0
LINE
  5
197
330
1F
100
AcDbEntity
  8
0
  6
Continuous
 62
     7
370
    15
100
AcDbLine
 10
615.5072284882
 20
1128.0015025254
 30
0.0
 11
627.9185099547
 21
1128.0015025254
 31
0.0
  0
LINE
  5
198
330
1F
100
AcDbEntity
  8
0
  6
Continuous
 62
     7
370
    15
100
AcDbLine
 10
657.6517952626
 20
1041.5734786507
 30
0.0
 11
646.9366831725
 21
1041.5734786507
 31
0.0
  0
LWPOLYLINE
  5
199
330
1F
100
AcDbEntity
  8
0
  6
Continuous
 62
     7
370
    15
100
AcDbPolyline
 90
        3
 70
   128
 43
0.0
 10
659.0096635764
 20
1040.9943412956
 10
659.0271128361
 20
1040.9015554901
 10
659.0826792662
 20
1040.6316209551
  0
LWPOLYLINE
  5
19A
330
1F
100
AcDbEntity
  8
0
  6
Continuous
 62
     7
370
    15
100
AcDbPolyline
 90
        3
 70
   128
 43
0.0
 10
659.0826792662
 20
1040.6316209551
 10
659.1202301924
 20
1040.4377233203
 10
659.1389609521
 20
1040.3095956858
  0
LINE
  5
19B
330
1F
100
AcDbEntity
  8
0
  6
Continuous
 62
     7
370
    15
100
AcDbLine
 10
658.0457670634
 20
1039.7298213061
 30
0.0
 11
646.8811912482
 21
1039.7298213061
 31
0.0
  0
ARC
  5
19C
330
1F
100
AcDbEntity
  8
0
  6
Continuous
 62
     7
370
    15
100
AcDbCircle
 10
647.6670828767
 20
1041.0841506321
 30
0.0
 40
1.565833188755307
100
AcDbArc
 50
196.7982454669
 51
239.8742192697
  0
ARC
  5
19D
330
1F
100
AcDbEntity
  8
0
  6
Continuous
 62
     7
370
    15
100
AcDbCircle
 10
636.9666493811
 20
1036.3318946587
 30
0.0
 40
10.1564620294131
100
AcDbArc
 50
25.0461942796
 51
35.5116135794
  0
ARC
  5
19E
330
1F
100
AcDbEntity
  8
0
  6
Continuous
 62
     7
370
    15
100
AcDbCircle
 10
611.5141191617
 20
1120.9711138675
 30
0.0
 40
6.071019934440393
100
AcDbArc
 50
357.2543096005
 51
14.2026756896
  0
LWPOLYLINE
  5
19F
330
1F
100
AcDbEntity
  8
0
  6
Continuous
 62
     7
370
    15
100
AcDbPolyline
 90
        9
 70
   128
 43
0.0
 10
617.3995716517
 20
1122.4606547471
 10
617.3620207255
 20
1122.6545635577
 10
617.3377467339
 20
1122.8310380097
 10
617.3272265141
 20
1122.9866657372
 10
617.3306612318
 20
1123.1183621999
 10
617.3479912823
 20
1123.2235643979
 10
617.3788664882
 20
1123.3002308722
 10
617.4226908033
 20
1123.3468268033
 10
617.4786074107
 20
1123.3624581214
  0
LINE
  5
1A0
330
1F
100
AcDbEntity
  8
0
  6
Continuous
 62
     7
370
    15
100
AcDbLine
 10
617.4786074107
 20
1123.3624581214
 30
0.0
 11
628.3729283159
 21
1123.3624581214
 31
0.0
  0
LWPOLYLINE
  5
1A1
330
1F
100
AcDbEntity
  8
0
  6
Continuous
 62
     7
370
    15
100
AcDbPolyline
 90
        9
 70
   128
 43
0.0
 10
631.6954774802
 20
1116.1606822129
 10
631.3483549302
 20
1117.0773122426
 10
630.9648437445
 20
1117.9587159272
 10
630.5596811717
 20
1118.7710080262
 10
630.1484314745
 20
1119.4830004092
 10
629.7468973344
 20
1120.0673196431
 10
629.3705238049
 20
1120.5014947768
 10
629.0337575619
 20
1120.7688663121
 10
628.7495551651
 20
1120.8591524478
  0
ELLIPSE
  5
1A2
330
1F
100
AcDbEntity
  8
0
  6
Continuous
 62
     7
370
    15
100
AcDbEllipse
 10
627.2933560917
 20
1114.9895508741
 30
0.0
 11
-0.7054376055669991
 21
5.068836590658293
 31
0.0
210
0.0
220
0.0
230
1.0
 40
0.250605517
 41
4.677525965372557
 42
6.248322292167498
  0
LINE
  5
1A3
330
1F
100
AcDbEntity
  8
0
  6
Continuous
 62
     7
370
    15
100
AcDbLine
 10
628.587452883
 20
1114.9895552512
 30
0.0
 11
626.1379627531
 21
1114.9895552512
 31
0.0
  0
ELLIPSE
  5
1A4
330
1F
100
AcDbEntity
  8
0
  6
Continuous
 62
     7
370
    15
100
AcDbEllipse
 10
625.3615044391
 20
1114.9895508741
 30
0.0
 11
0.0
 21
3.19253331742766
 31
0.0
210
0.0
220
0.0
230
1.0
 40
0.2432103468
 41
4.712388980384693
 42
6.283185307179586
  0
ARC
  5
1A5
330
1F
100
AcDbEntity
  8
0
  6
Continuous
 62
     7
370
    15
100
AcDbCircle
 10
627.3586910105
 20
1118.2008411806
 30
0.0
 40
1.997271140734064
100
AcDbArc
 50
111.3171853979
 51
180.5380861686
  0
LINE
  5
1A6
330
1F
100
AcDbEntity
  8
0
  6
Continuous
 62
     7
370
    15
100
AcDbLine
 10
628.587452883
 20
1114.9895552512
 30
0.0
 11
628.587452883
 21
1047.2314570065
 31
0.0
  0
LINE
  5
1A7
330
1F
100
AcDbEntity
  8
0
  6
Continuous
 62
     7
370
    15
100
AcDbLine
 10
628.587452883
 20
1047.2314570065
 30
0.0
 11
626.1379627531
 21
1047.2314570065
 31
0.0
  0
LINE
  5
1A8
330
1F
100
AcDbEntity
  8
0
  6
Continuous
 62
     7
370
    15
100
AcDbLine
 10
626.1379627531
 20
1047.2314570065
 30
0.0
 11
626.1379627531
 21
1114.9895552512
 31
0.0
  0
ARC
  5
1A9
330
1F
100
AcDbEntity
  8
0
  6
Continuous
 62
     7
370
    15
100
AcDbCircle
 10
622.6578278411
 20
1046.5317002063
 30
0.0
 40
3.549788526799803
100
AcDbArc
 50
319.6094683009
 51
11.3689649743
  0
LWPOLYLINE
  5
1AA
330
1F
100
AcDbEntity
  8
0
  6
Continuous
 62
     7
370
    15
100
AcDbPolyline
 90
        9
 70
   128
 43
0.0
 10
628.587452883
 20
1047.2314570065
 10
628.562582845
 20
1046.256004643
 10
628.4889413064
 20
1045.3180398758
 10
628.3693594878
 20
1044.4536048885
 10
628.2084194963
 20
1043.69592182
 10
628.012320215
 20
1043.0741075393
 10
627.7885867303
 20
1042.6120597835
 10
627.5458244627
 20
1042.3275295611
 10
627.2933540886
 20
1042.2314580496
  0
ARC
  5
1AB
330
1F
100
AcDbEntity
  8
0
  6
Continuous
 62
     7
370
    15
100
AcDbCircle
 10
627.32802328
 20
1044.1979532059
 30
0.0
 40
1.966800740373305
100
AcDbArc
 50
179.0238981776
 51
268.9899834849
  0
LINE
  5
1AC
330
1F
100
AcDbEntity
  8
0
  6
Continuous
 62
     7
370
    15
100
AcDbLine
 10
631.6954774802
 20
1116.1606822129
 30
0.0
 11
628.587452883
 21
1114.9895552512
 31
0.0
  0
LINE
  5
1AD
330
1F
100
AcDbEntity
  8
0
  6
Continuous
 62
     7
370
    15
100
AcDbLine
 10
626.6326217001
 20
1120.0614634868
 30
0.0
 11
628.7495551651
 21
1120.8591524478
 31
0.0
  0
LINE
  5
1AE
330
1F
100
AcDbEntity
  8
0
  6
Continuous
 62
     7
370
    15
100
AcDbLine
 10
655.9288037961
 20
1047.2314570065
 30
0.0
 11
631.6954774802
 21
1116.1606822129
 31
0.0
  0
LINE
  5
1AF
330
1F
100
AcDbEntity
  8
0
  6
Continuous
 62
     7
370
    15
100
AcDbLine
 10
628.587452883
 20
1047.2314570065
 30
0.0
 11
655.9288037961
 21
1047.2314570065
 31
0.0
  0
ARC
  5
1B0
330
1F
100
AcDbEntity
  8
0
  6
Continuous
 62
     7
370
    15
100
AcDbCircle
 10
634.1984965874
 20
1075.7230868214
 30
0.0
 40
0.4917092324721723
100
AcDbArc
 50
179.0248432739
 51
268.9889317312
  0
LINE
  5
1B1
330
1F
100
AcDbEntity
  8
0
  6
Continuous
 62
     7
370
    15
100
AcDbLine
 10
634.1898201053
 20
1075.2314541455
 30
0.0
 11
634.5761923139
 21
1075.2314541455
 31
0.0
  0
ARC
  5
1B2
330
1F
100
AcDbEntity
  8
0
  6
Continuous
 62
     7
370
    15
100
AcDbCircle
 10
634.5675158319
 20
1075.7230868214
 30
0.0
 40
0.4917092324721723
100
AcDbArc
 50
271.0110682688
 51
0.9751567261
  0
LINE
  5
1B3
330
1F
100
AcDbEntity
  8
0
  6
Continuous
 62
     7
370
    15
100
AcDbLine
 10
635.0591538494
 20
1075.7314551588
 30
0.0
 11
635.0591538494
 21
1082.7314544435
 31
0.0
  0
ARC
  5
1B4
330
1F
100
AcDbEntity
  8
0
  6
Continuous
 62
     7
370
    15
100
AcDbCircle
 10
634.5675265092
 20
1082.7398330944
 30
0.0
 40
0.4916987323444748
100
AcDbArc
 50
359.0236204876
 51
88.9901545174
  0
LINE
  5
1B5
330
1F
100
AcDbEntity
  8
0
  6
Continuous
 62
     7
370
    15
100
AcDbLine
 10
634.5761923139
 20
1083.2314554568
 30
0.0
 11
634.1898201053
 21
1083.2314554568
 31
0.0
  0
ARC
  5
1B6
330
1F
100
AcDbEntity
  8
0
  6
Continuous
 62
     7
370
    15
100
AcDbCircle
 10
634.1984859101
 20
1082.7398330944
 30
0.0
 40
0.4916987323444748
100
AcDbArc
 50
91.0098454826
 51
180.9763795124
  0
LINE
  5
1B7
330
1F
100
AcDbEntity
  8
0
  6
Continuous
 62
     7
370
    15
100
AcDbLine
 10
633.7068585699
 20
1082.7314544435
 30
0.0
 11
633.7068585699
 21
1075.7314551588
 31
0.0
  0
ELLIPSE
  5
1B8
330
1F
100
AcDbEntity
  8
0
  6
Continuous
 62
     7
370
    15
100
AcDbEllipse
 10
654.6347138208
 20
1047.2314566489
 30
0.0
 11
-2.224872611388264
 21
4.976474228213192
 31
0.0
210
0.0
220
0.0
230
1.0
 40
0.2177485805
 41
3.044547831572622
 42
4.615344158367495
  0
LINE
  5
1B9
330
1F
100
AcDbEntity
  8
0
  6
Continuous
 62
     7
370
    15
100
AcDbLine
 10
656.7441208308
 20
1042.2314580496
 30
0.0
 11
627.2933540886
 21
1042.2314580496
 31
0.0
  0
ARC
  5
1BA
330
1F
100
AcDbEntity
  8
0
  6
Continuous
 62
     7
370
    15
100
AcDbCircle
 10
617.3500508452
 20
1046.5316937056
 30
0.0
 40
3.549765184037026
100
AcDbArc
 50
168.6308522409
 51
220.3907144839
  0
LINE
  5
1BB
330
1F
100
AcDbEntity
  8
0
  6
Continuous
 62
     7
370
    15
100
AcDbLine
 10
614.6463958566
 20
1044.2314583774
 30
0.0
 11
625.3615079468
 21
1044.2314583774
 31
0.0
  0
ARC
  5
1BC
330
1F
100
AcDbEntity
  8
0
  6
Continuous
 62
     7
370
    15
100
AcDbCircle
 10
619.5487374281
 20
1065.5148397425
 30
0.0
 40
0.5916720982612905
100
AcDbArc
 50
168.6328467814
 51
220.3886509104
  0
LINE
  5
1BD
330
1F
100
AcDbEntity
  8
0
  6
Continuous
 62
     7
370
    15
100
AcDbLine
 10
619.0980805104
 20
1065.1314545389
 30
0.0
 11
620.9098158424
 21
1065.1314545389
 31
0.0
  0
ARC
  5
1BE
330
1F
100
AcDbEntity
  8
0
  6
Continuous
 62
     7
370
    15
100
AcDbCircle
 10
620.4592000913
 20
1065.5148290879
 30
0.0
 40
0.5916338394386825
100
AcDbArc
 50
319.6095517362
 51
11.3689505719
  0
LINE
  5
1BF
330
1F
100
AcDbEntity
  8
0
  6
Continuous
 62
     7
370
    15
100
AcDbLine
 10
621.0392249768
 20
1065.6314555522
 30
0.0
 11
621.0392249768
 21
1066.0314548727
 31
0.0
  0
ARC
  5
1C0
330
1F
100
AcDbEntity
  8
0
  6
Continuous
 62
     7
370
    15
100
AcDbCircle
 10
620.4592263846
 20
1066.1480881421
 30
0.0
 40
0.5916094036404388
100
AcDbArc
 50
348.6299013278
 51
40.3915963641
  0
LINE
  5
1C1
330
1F
100
AcDbEntity
  8
0
  6
Continuous
 62
     7
370
    15
100
AcDbLine
 10
620.9098158424
 20
1066.531455886
 30
0.0
 11
619.0980805104
 21
1066.531455886
 31
0.0
  0
ARC
  5
1C2
330
1F
100
AcDbEntity
  8
0
  6
Continuous
 62
     7
370
    15
100
AcDbCircle
 10
619.5487111307
 20
1066.1480774886
 30
0.0
 40
0.5916476582826762
100
AcDbArc
 50
139.6102009588
 51
191.3683013493
  0
LINE
  5
1C3
330
1F
100
AcDbEntity
  8
0
  6
Continuous
 62
     7
370
    15
100
AcDbLine
 10
618.968671376
 20
1066.0314548727
 30
0.0
 11
618.968671376
 21
1065.6314555522
 31
0.0
  0
LWPOLYLINE
  5
1C4
330
1F
100
AcDbEntity
  8
0
  6
Continuous
 62
     7
370
    15
100
AcDbPolyline
 90
       17
 70
   128
 43
0.0
 10
622.8509603088
 20
1077.7314592119
 10
622.7023882811
 20
1077.8456393596
 10
622.5764436667
 20
1078.170797598
 10
622.4922819083
 20
1078.6574322697
 10
622.4627329057
 20
1079.2314548012
 10
622.4922819083
 20
1079.8054847833
 10
622.5764436667
 20
1080.2921194549
 10
622.7023882811
 20
1080.6172776934
 10
622.8509603088
 20
1080.731457841
 10
622.9995248859
 20
1080.6172776934
 10
623.1254769509
 20
1080.2921194549
 10
623.2096387093
 20
1079.8054847833
 10
623.239187712
 20
1079.2314548012
 10
623.2096387093
 20
1078.6574322697
 10
623.1254769509
 20
1078.170797598
 10
622.9995248859
 20
1077.8456393596
 10
622.8509603088
 20
1077.7314592119
  0
LWPOLYLINE
  5
1C5
330
1F
100
AcDbEntity
  8
0
  6
Continuous
 62
     7
370
    15
100
AcDbPolyline
 90
       17
 70
   128
 43
0.0
 10
620.0039519017
 20
1077.7314592119
 10
619.855379874
 20
1077.8456393596
 10
619.729427809
 20
1078.170797598
 10
619.6452735012
 20
1078.6574322697
 10
619.6157244985
 20
1079.2314548012
 10
619.6452735012
 20
1079.8054847833
 10
619.729427809
 20
1080.2921194549
 10
619.855379874
 20
1080.6172776934
 10
620.0039519017
 20
1080.731457841
 10
620.1525164788
 20
1080.6172776934
 10
620.2784685438
 20
1080.2921194549
 10
620.3626303022
 20
1079.8054847833
 10
620.3921793049
 20
1079.2314548012
 10
620.3626303022
 20
1078.6574322697
 10
620.2784685438
 20
1078.170797598
 10
620.1525164788
 20
1077.8456393596
 10
620.0039519017
 20
1077.7314592119
  0
LINE
  5
1C6
330
1F
100
AcDbEntity
  8
0
  6
Continuous
 62
     7
370
    15
100
AcDbLine
 10
635.0591538494
 20
1082.7314544435
 30
0.0
 11
634.6709264462
 21
1082.7314544435
 31
0.0
  0
ARC
  5
1C7
330
1F
100
AcDbEntity
  8
0
  6
Continuous
 62
     7
370
    15
100
AcDbCircle
 10
634.1792991061
 20
1082.7398330944
 30
0.0
 40
0.4916987323448666
100
AcDbArc
 50
359.0236204876
 51
88.9901545174
  0
ARC
  5
1C8
330
1F
100
AcDbEntity
  8
0
  6
Continuous
 62
     7
370
    15
100
AcDbCircle
 10
634.1792884287
 20
1075.7230868214
 30
0.0
 40
0.4917092324721723
100
AcDbArc
 50
271.0110682688
 51
0.9751567261
  0
LINE
  5
1C9
330
1F
100
AcDbEntity
  8
0
  6
Continuous
 62
     7
370
    15
100
AcDbLine
 10
634.6709264462
 20
1075.7314551588
 30
0.0
 11
635.0591538494
 21
1075.7314551588
 31
0.0
  0
LINE
  5
1CA
330
1F
100
AcDbEntity
  8
0
  6
Continuous
 62
     7
370
    15
100
AcDbLine
 10
634.6709264462
 20
1082.7314544435
 30
0.0
 11
634.6709264462
 21
1075.7314551588
 31
0.0
  0
LINE
  5
1CB
330
1F
100
AcDbEntity
  8
0
  6
Continuous
 62
     7
370
    15
100
AcDbLine
 10
618.1139780228
 20
1123.6018750783
 30
0.0
 11
617.4786074107
 21
1123.3624581214
 31
0.0
  0
ARC
  5
1CC
330
1F
100
AcDbEntity
  8
0
  6
Continuous
 62
     7
370
    15
100
AcDbCircle
 10
617.9281021501
 20
1124.0710297288
 30
0.0
 40
0.5046344480761153
100
AcDbArc
 50
291.6131330661
 51
19.8918306088
  0
ARC
  5
1CD
330
1F
100
AcDbEntity
  8
0
  6
Continuous
 62
     7
370
    15
100
AcDbCircle
 10
634.6385543686
 20
1082.848087713
 30
0.0
 40
0.5916094036410068
100
AcDbArc
 50
139.6084036359
 51
191.3700986722
  0
ARC
  5
1CE
330
1F
100
AcDbEntity
  8
0
  6
Continuous
 62
     7
370
    15
100
AcDbCircle
 10
634.6385806619
 20
1075.6148286945
 30
0.0
 40
0.5916338394393065
100
AcDbArc
 50
168.6310494281
 51
220.3904482638
  0
LINE
  5
1CF
330
1F
100
AcDbEntity
  8
0
  6
Continuous
 62
     7
370
    15
100
AcDbLine
 10
634.0585557764
 20
1082.7314544435
 30
0.0
 11
634.6709264462
 21
1082.7314544435
 31
0.0
  0
LINE
  5
1D0
330
1F
100
AcDbEntity
  8
0
  6
Continuous
 62
     7
370
    15
100
AcDbLine
 10
634.0585557764
 20
1075.7314551588
 30
0.0
 11
634.0585557764
 21
1082.7314544435
 31
0.0
  0
LINE
  5
1D1
330
1F
100
AcDbEntity
  8
0
  6
Continuous
 62
     7
370
    15
100
AcDbLine
 10
634.0585557764
 20
1075.7314551588
 30
0.0
 11
634.6709264462
 21
1075.7314551588
 31
0.0
  0
LINE
  5
1D2
330
1F
100
AcDbEntity
  8
0
  6
Continuous
 62
     7
370
    15
100
AcDbLine
 10
627.2933540886
 20
1042.2314580496
 30
0.0
 11
616.578249449
 21
1042.2314580496
 31
0.0
  0
ARC
  5
1D3
330
1F
100
AcDbEntity
  8
0
  6
Continuous
 62
     7
370
    15
100
AcDbCircle
 10
616.6129153137
 20
1044.1979573183
 30
0.0
 40
1.966804793506711
100
AcDbArc
 50
179.024020007
 51
268.9900824959
  0
LINE
  5
1D4
330
1F
100
AcDbEntity
  8
0
  6
Continuous
 62
     7
370
    15
100
AcDbLine
 10
628.7495551651
 20
1120.8591524478
 30
0.0
 11
618.034443075
 21
1120.8591524478
 31
0.0
  0
ARC
  5
1D5
330
1F
100
AcDbEntity
  8
0
  6
Continuous
 62
     7
370
    15
100
AcDbCircle
 10
617.66268679
 20
1121.7974693104
 30
0.0
 40
1.009277598137327
100
AcDbArc
 50
291.6132145371
 51
19.891195364
  0
ARC
  5
1D6
330
1F
100
AcDbEntity
  8
0
  6
Continuous
 62
     7
370
    15
100
AcDbCircle
 10
656.7344281282
 20
1041.2630345684
 30
0.0
 40
0.968471985937448
100
AcDbArc
 50
18.6962139904
 51
89.4265603634
  0
LINE
  5
1D7
330
1F
100
AcDbEntity
  8
0
  6
Continuous
 62
     7
370
    15
100
AcDbLine
 10
647.846920604
 20
1039.0295412358
 30
0.0
 11
647.2115499919
 21
1038.7901280042
 31
0.0
  0
ARC
  5
1D8
330
1F
100
AcDbEntity
  8
0
  6
Continuous
 62
     7
370
    15
100
AcDbCircle
 10
647.661051838
 20
1039.4986926853
 30
0.0
 40
0.5046288544816729
100
AcDbArc
 50
291.6125167627
 51
19.8924469122
  0
ARC
  5
1D9
330
1F
100
AcDbEntity
  8
0
  6
Continuous
 62
     7
370
    15
100
AcDbCircle
 10
646.0193160381
 20
1041.2630345684
 30
0.0
 40
0.9684719859376765
100
AcDbArc
 50
18.6962139904
 51
89.4265603634
  0
LINE
  5
1DA
330
1F
100
AcDbEntity
  8
0
  6
Continuous
 62
     7
370
    15
100
AcDbLine
 10
618.968671376
 20
1065.6314555522
 30
0.0
 11
620.6107495373
 21
1065.6314555522
 31
0.0
  0
ARC
  5
1DB
330
1F
100
AcDbEntity
  8
0
  6
Continuous
 62
     7
370
    15
100
AcDbCircle
 10
621.1907744228
 20
1065.5148290879
 30
0.0
 40
0.5916338394385711
100
AcDbArc
 50
168.6310494281
 51
220.3904482638
  0
ARC
  5
1DC
330
1F
100
AcDbEntity
  8
0
  6
Continuous
 62
     7
370
    15
100
AcDbCircle
 10
621.1907481294
 20
1066.1480881421
 30
0.0
 40
0.5916094036404388
100
AcDbArc
 50
139.6084036359
 51
191.3700986722
  0
LINE
  5
1DD
330
1F
100
AcDbEntity
  8
0
  6
Continuous
 62
     7
370
    15
100
AcDbLine
 10
620.6107495373
 20
1066.0314548727
 30
0.0
 11
618.968671376
 21
1066.0314548727
 31
0.0
  0
LINE
  5
1DE
330
1F
100
AcDbEntity
  8
0
  6
Continuous
 62
     7
370
    15
100
AcDbLine
 10
620.6107495373
 20
1065.6314555522
 30
0.0
 11
620.6107495373
 21
1066.0314548727
 31
0.0
  0
LINE
  5
1DF
330
1F
100
AcDbEntity
  8
0
  6
Continuous
 62
     7
370
    15
100
AcDbLine
 10
618.1139780228
 20
1123.6018750783
 30
0.0
 11
618.0761663263
 21
1123.5952142592
 31
0.0
  0
LINE
  5
1E0
330
1F
100
AcDbEntity
  8
0
  6
Continuous
 62
     7
370
    15
100
AcDbLine
 10
615.440508539
 20
1127.9897455092
 30
0.0
 11
615.5072284882
 21
1128.0015025254
 31
0.0
  0
LINE
  5
1E1
330
1F
100
AcDbEntity
  8
0
  6
Continuous
 62
     7
370
    15
100
AcDbLine
 10
581.9807855432
 20
986.2314565539
 30
0.0
 11
581.9807855432
 21
1122.7314535495
 31
0.0
  0
LINE
  5
1E2
330
1F
100
AcDbEntity
  8
0
  6
Continuous
 62
     7
370
    15
100
AcDbLine
 10
582.6235769336
 20
1122.7314535495
 30
0.0
 11
582.6235769336
 21
986.2314565539
 31
0.0
  0
CIRCLE
  5
1E3
330
1F
100
AcDbEntity
  8
0
  6
Continuous
 62
     7
370
    15
100
AcDbCircle
 10
519.2578865235
 20
961.2314566489
 30
0.0
 40
10.49999999999989
  0
ARC
  5
1E4
330
1F
100
AcDbEntity
  8
0
  6
Continuous
 62
     7
370
    15
100
AcDbCircle
 10
504.2578865235
 20
949.2314566489
 30
0.0
 40
10.00000000000006
100
AcDbArc
 50
180.0
 51
270.0
  0
LINE
  5
1E5
330
1F
100
AcDbEntity
  8
0
  6
Continuous
 62
     7
370
    15
100
AcDbLine
 10
494.257886151
 20
949.2314558442
 30
0.0
 11
494.257886151
 21
978.2314568724
 31
0.0
  0
LINE
  5
1E6
330
1F
100
AcDbEntity
  8
0
  6
Continuous
 62
     7
370
    15
100
AcDbLine
 10
534.2578861882
 20
988.2314566489
 30
0.0
 11
504.2578868588
 21
988.2314566489
 31
0.0
  0
ARC
  5
1E7
330
1F
100
AcDbEntity
  8
0
  6
Continuous
 62
     7
370
    15
100
AcDbCircle
 10
534.2578865235
 20
978.2314566489
 30
0.0
 40
10.0
100
AcDbArc
 50
0.0
 51
90.0
  0
LINE
  5
1E8
330
1F
100
AcDbEntity
  8
0
  6
Continuous
 62
     7
370
    15
100
AcDbLine
 10
544.257886896
 20
949.2314558442
 30
0.0
 11
544.257886896
 21
978.2314568724
 31
0.0
  0
ARC
  5
1E9
330
1F
100
AcDbEntity
  8
0
  6
Continuous
 62
     7
370
    15
100
AcDbCircle
 10
534.2578865235
 20
949.2314566489
 30
0.0
 40
10.0
100
AcDbArc
 50
270.0
 51
0.0
  0
LINE
  5
1EA
330
1F
100
AcDbEntity
  8
0
  6
Continuous
 62
     7
370
    15
100
AcDbLine
 10
534.2578861882
 20
939.2314579304
 30
0.0
 11
504.2578868588
 21
939.2314579304
 31
0.0
  0
ARC
  5
1EB
330
1F
100
AcDbEntity
  8
0
  6
Continuous
 62
     7
370
    15
100
AcDbCircle
 10
504.2578865235
 20
978.2314566489
 30
0.0
 40
10.00000000000006
100
AcDbArc
 50
90.0
 51
180.0
  0
LINE
  5
1EC
330
1F
100
AcDbEntity
  8
0
  6
Continuous
 62
     7
370
    15
100
AcDbLine
 10
421.2578890865
 20
948.231457543
 30
0.0
 11
454.4331191128
 21
948.231457543
 31
0.0
  0
LINE
  5
1ED
330
1F
100
AcDbEntity
  8
0
  6
Continuous
 62
     7
370
    15
100
AcDbLine
 10
454.4331191128
 20
948.231457543
 30
0.0
 11
454.4331191128
 21
936.231455576
 31
0.0
  0
LINE
  5
1EE
330
1F
100
AcDbEntity
  8
0
  6
Continuous
 62
     7
370
    15
100
AcDbLine
 10
421.2578890865
 20
936.231455576
 30
0.0
 11
454.4331191128
 21
936.231455576
 31
0.0
  0
LINE
  5
1EF
330
1F
100
AcDbEntity
  8
0
  6
Continuous
 62
     7
370
    15
100
AcDbLine
 10
421.2578890865
 20
948.231457543
 30
0.0
 11
421.2578890865
 21
936.231455576
 31
0.0
  0
LINE
  5
1F0
330
1F
100
AcDbEntity
  8
0
  6
Continuous
 62
     7
370
    15
100
AcDbLine
 10
584.0826539343
 20
948.231457543
 30
0.0
 11
584.0826539343
 21
936.231455576
 31
0.0
  0
LINE
  5
1F1
330
1F
100
AcDbEntity
  8
0
  6
Continuous
 62
     7
370
    15
100
AcDbLine
 10
454.4331191128
 20
936.231455576
 30
0.0
 11
584.0826539343
 21
936.231455576
 31
0.0
  0
LINE
  5
1F2
330
1F
100
AcDbEntity
  8
0
  6
Continuous
 62
     7
370
    15
100
AcDbLine
 10
584.0826539343
 20
948.231457543
 30
0.0
 11
544.2077612524
 21
948.231457543
 31
0.0
  0
LINE
  5
1F3
330
1F
100
AcDbEntity
  8
0
  6
Continuous
 62
     7
370
    15
100
AcDbLine
 10
494.3080117946
 20
948.231457543
 30
0.0
 11
454.4331191128
 21
948.231457543
 31
0.0
  0
LINE
  5
1F4
330
1F
100
AcDbEntity
  8
0
  6
Continuous
 62
     7
370
    15
100
AcDbLine
 10
617.2578839605
 20
948.231457543
 30
0.0
 11
617.2578839605
 21
936.231455576
 31
0.0
  0
LINE
  5
1F5
330
1F
100
AcDbEntity
  8
0
  6
Continuous
 62
     7
370
    15
100
AcDbLine
 10
584.0826539343
 20
936.231455576
 30
0.0
 11
617.2578839605
 21
936.231455576
 31
0.0
  0
LINE
  5
1F6
330
1F
100
AcDbEntity
  8
0
  6
Continuous
 62
     7
370
    15
100
AcDbLine
 10
584.0826539343
 20
948.231457543
 30
0.0
 11
617.2578839605
 21
948.231457543
 31
0.0
  0
LINE
  5
1F7
330
1F
100
AcDbEntity
  8
0
  6
Continuous
 62
     7
370
    15
100
AcDbLine
 10
434.2578856294
 20
933.2314569469
 30
0.0
 11
604.2578874176
 21
933.2314569469
 31
0.0
  0
LINE
  5
1F8
330
1F
100
AcDbEntity
  8
0
  6
Continuous
 62
     7
370
    15
100
AcDbLine
 10
446.5117512291
 20
980.2314562689
 30
0.0
 11
435.257887656
 21
980.2314562689
 31
0.0
  0
LINE
  5
1F9
330
1F
100
AcDbEntity
  8
0
  6
Continuous
 62
     7
370
    15
100
AcDbLine
 10
603.257885391
 20
980.2314562689
 30
0.0
 11
592.0040218179
 21
980.2314562689
 31
0.0
  0
LINE
  5
1FA
330
1F
100
AcDbEntity
  8
0
  6
Continuous
 62
     7
370
    15
100
AcDbLine
 10
592.0040218179
 20
980.2314562689
 30
0.0
 11
544.0558457767
 21
980.2314562689
 31
0.0
  0
LINE
  5
1FB
330
1F
100
AcDbEntity
  8
0
  6
Continuous
 62
     7
370
    15
100
AcDbLine
 10
494.4599272703
 20
980.2314562689
 30
0.0
 11
446.5117512291
 21
980.2314562689
 31
0.0
  0
LINE
  5
1FC
330
1F
100
AcDbEntity
  8
0
  6
Continuous
 62
     7
370
    15
100
AcDbLine
 10
435.257887656
 20
986.2314565539
 30
0.0
 11
498.2578868066
 21
986.2314565539
 31
0.0
  0
LINE
  5
1FD
330
1F
100
AcDbEntity
  8
0
  6
Continuous
 62
     7
370
    15
100
AcDbLine
 10
540.2578862404
 20
986.2314565539
 30
0.0
 11
603.257885391
 21
986.2314565539
 31
0.0
  0
LINE
  5
1FE
330
1F
100
AcDbEntity
  8
0
  6
Continuous
 62
     7
370
    15
100
AcDbLine
 10
580.7167200392
 20
948.231457543
 30
0.0
 11
580.7167200392
 21
980.2314562689
 31
0.0
  0
LINE
  5
1FF
330
1F
100
AcDbEntity
  8
0
  6
Continuous
 62
     7
370
    15
100
AcDbLine
 10
457.7990530079
 20
948.231457543
 30
0.0
 11
457.7990530079
 21
980.2314562689
 31
0.0
  0
LINE
  5
200
330
1F
100
AcDbEntity
  8
0
  6
Continuous
 62
     7
370
    15
100
AcDbLine
 10
538.062649036
 20
870.2314559337
 30
0.0
 11
586.7578892057
 21
870.2314559337
 31
0.0
  0
LINE
  5
201
330
1F
100
AcDbEntity
  8
0
  6
Continuous
 62
     7
370
    15
100
AcDbLine
 10
451.7578838413
 20
870.2314559337
 30
0.0
 11
500.4531240111
 21
870.2314559337
 31
0.0
  0
LINE
  5
202
330
1F
100
AcDbEntity
  8
0
  6
Continuous
 62
     7
370
    15
100
AcDbLine
 10
488.3345944827
 20
854.231453311
 30
0.0
 11
488.3345944827
 21
840.2314547416
 31
0.0
  0
LINE
  5
203
330
1F
100
AcDbEntity
  8
0
  6
Continuous
 62
     7
370
    15
100
AcDbLine
 10
550.1811785643
 20
854.231453311
 30
0.0
 11
550.1811785643
 21
840.2314547416
 31
0.0
  0
LINE
  5
204
330
1F
100
AcDbEntity
  8
0
  6
Continuous
 62
     7
370
    15
100
AcDbLine
 10
497.2578866427
 20
870.2314559337
 30
0.0
 11
497.2578866427
 21
933.2314569469
 31
0.0
  0
LINE
  5
205
330
1F
100
AcDbEntity
  8
0
  6
Continuous
 62
     7
370
    15
100
AcDbLine
 10
507.2578864192
 20
933.2314569469
 30
0.0
 11
507.2578864192
 21
870.2314559337
 31
0.0
  0
LINE
  5
206
330
1F
100
AcDbEntity
  8
0
  6
Continuous
 62
     7
370
    15
100
AcDbLine
 10
507.2578864192
 20
870.2314559337
 30
0.0
 11
500.4531240111
 21
870.2314559337
 31
0.0
  0
LINE
  5
207
330
1F
100
AcDbEntity
  8
0
  6
Continuous
 62
     7
370
    15
100
AcDbLine
 10
519.2578865235
 20
870.2314559337
 30
0.0
 11
531.2578866278
 21
870.2314559337
 31
0.0
  0
LINE
  5
208
330
1F
100
AcDbEntity
  8
0
  6
Continuous
 62
     7
370
    15
100
AcDbLine
 10
507.2578864192
 20
870.2314559337
 30
0.0
 11
519.2578865235
 21
870.2314559337
 31
0.0
  0
LINE
  5
209
330
1F
100
AcDbEntity
  8
0
  6
Continuous
 62
     7
370
    15
100
AcDbLine
 10
531.2578866278
 20
870.2314559337
 30
0.0
 11
531.2578866278
 21
933.2314569469
 31
0.0
  0
LINE
  5
20A
330
1F
100
AcDbEntity
  8
0
  6
Continuous
 62
     7
370
    15
100
AcDbLine
 10
538.062649036
 20
870.2314559337
 30
0.0
 11
531.2578866278
 21
870.2314559337
 31
0.0
  0
LINE
  5
20B
330
1F
100
AcDbEntity
  8
0
  6
Continuous
 62
     7
370
    15
100
AcDbLine
 10
541.2578864043
 20
933.2314569469
 30
0.0
 11
541.2578864043
 21
870.2314559337
 31
0.0
  0
LINE
  5
20C
330
1F
100
AcDbEntity
  8
0
  6
Continuous
 62
     7
370
    15
100
AcDbLine
 10
456.0619575923
 20
854.231453311
 30
0.0
 11
456.0619575923
 21
840.2314547416
 31
0.0
  0
LINE
  5
20D
330
1F
100
AcDbEntity
  8
0
  6
Continuous
 62
     7
370
    15
100
AcDbLine
 10
466.3428610211
 20
854.231453311
 30
0.0
 11
466.3428610211
 21
840.2314547416
 31
0.0
  0
LINE
  5
20E
330
1F
100
AcDbEntity
  8
0
  6
Continuous
 62
     7
370
    15
100
AcDbLine
 10
466.3428610211
 20
840.2314547416
 30
0.0
 11
456.0619575923
 21
840.2314547416
 31
0.0
  0
LINE
  5
20F
330
1F
100
AcDbEntity
  8
0
  6
Continuous
 62
     7
370
    15
100
AcDbLine
 10
466.3428610211
 20
854.231453311
 30
0.0
 11
456.0619575923
 21
854.231453311
 31
0.0
  0
LINE
  5
210
330
1F
100
AcDbEntity
  8
0
  6
Continuous
 62
     7
370
    15
100
AcDbLine
 10
488.3345944827
 20
840.2314547416
 30
0.0
 11
466.3428610211
 21
840.2314547416
 31
0.0
  0
LINE
  5
211
330
1F
100
AcDbEntity
  8
0
  6
Continuous
 62
     7
370
    15
100
AcDbLine
 10
488.3345944827
 20
854.231453311
 30
0.0
 11
466.3428610211
 21
854.231453311
 31
0.0
  0
LINE
  5
212
330
1F
100
AcDbEntity
  8
0
  6
Continuous
 62
     7
370
    15
100
AcDbLine
 10
550.1811785643
 20
854.231453311
 30
0.0
 11
572.172912026
 21
854.231453311
 31
0.0
  0
LINE
  5
213
330
1F
100
AcDbEntity
  8
0
  6
Continuous
 62
     7
370
    15
100
AcDbLine
 10
572.172912026
 20
854.231453311
 30
0.0
 11
572.172912026
 21
840.2314547416
 31
0.0
  0
LINE
  5
214
330
1F
100
AcDbEntity
  8
0
  6
Continuous
 62
     7
370
    15
100
AcDbLine
 10
550.1811785643
 20
840.2314547416
 30
0.0
 11
572.172912026
 21
840.2314547416
 31
0.0
  0
LINE
  5
215
330
1F
100
AcDbEntity
  8
0
  6
Continuous
 62
     7
370
    15
100
AcDbLine
 10
582.4538154547
 20
854.231453311
 30
0.0
 11
582.4538154547
 21
840.2314547416
 31
0.0
  0
LINE
  5
216
330
1F
100
AcDbEntity
  8
0
  6
Continuous
 62
     7
370
    15
100
AcDbLine
 10
572.172912026
 20
840.2314547416
 30
0.0
 11
582.4538154547
 21
840.2314547416
 31
0.0
  0
LINE
  5
217
330
1F
100
AcDbEntity
  8
0
  6
Continuous
 62
     7
370
    15
100
AcDbLine
 10
572.172912026
 20
854.231453311
 30
0.0
 11
582.4538154547
 21
854.231453311
 31
0.0
  0
LINE
  5
218
330
1F
100
AcDbEntity
  8
0
  6
Continuous
 62
     7
370
    15
100
AcDbLine
 10
476.7578860765
 20
933.2314569469
 30
0.0
 11
476.7578860765
 21
870.2314559337
 31
0.0
  0
LINE
  5
219
330
1F
100
AcDbEntity
  8
0
  6
Continuous
 62
     7
370
    15
100
AcDbLine
 10
561.7578869705
 20
933.2314569469
 30
0.0
 11
561.7578869705
 21
870.2314559337
 31
0.0
  0
LINE
  5
21A
330
1F
100
AcDbEntity
  8
0
  6
Continuous
 62
     7
370
    15
100
AcDbLine
 10
588.6107368415
 20
1186.1342851039
 30
0.0
 11
449.9050362056
 21
1186.1342851039
 31
0.0
  0
LINE
  5
21B
330
1F
100
AcDbEntity
  8
0
  6
Continuous
 62
     7
370
    15
100
AcDbLine
 10
534.8771933486
 20
1174.0931484815
 30
0.0
 11
605.8072580045
 21
1174.0931484815
 31
0.0
  0
LINE
  5
21C
330
1F
100
AcDbEntity
  8
0
  6
Continuous
 62
     7
370
    15
100
AcDbLine
 10
432.7085150426
 20
1174.0931484815
 30
0.0
 11
503.6385796984
 21
1174.0931484815
 31
0.0
  0
LINE
  5
21D
330
1F
100
AcDbEntity
  8
0
  6
Continuous
 62
     7
370
    15
100
AcDbLine
 10
602.3017970865
 20
1159.2314604636
 30
0.0
 11
602.3017970865
 21
1157.1547154303
 31
0.0
  0
LINE
  5
21E
330
1F
100
AcDbEntity
  8
0
  6
Continuous
 62
     7
370
    15
100
AcDbLine
 10
488.6814991032
 20
1171.7314634438
 30
0.0
 11
428.2578883713
 21
1171.7314634438
 31
0.0
  0
LINE
  5
21F
330
1F
100
AcDbEntity
  8
0
  6
Continuous
 62
     7
370
    15
100
AcDbLine
 10
610.2578846758
 20
1171.7314634438
 30
0.0
 11
549.0068366771
 21
1171.7314634438
 31
0.0
  0
LINE
  5
220
330
1F
100
AcDbEntity
  8
0
  6
Continuous
 62
     7
370
    15
100
AcDbLine
 10
436.2139759605
 20
1157.1547154303
 30
0.0
 11
436.2139759605
 21
1159.2314604636
 31
0.0
  0
SPLINE
  5
221
330
1F
100
AcDbEntity
  8
0
  6
Continuous
 62
     7
370
    15
100
AcDbSpline
210
0.0
220
0.0
230
1.0
 70
     8
 71
     3
 72
     9
 73
     5
 74
     0
 42
0.00000001
 43
0.00000001
 12
1.0
 22
0.0
 32
0.0
 13
1.0
 23
0.0
 33
0.0
 40
0.0
 40
0.0
 40
0.0
 40
0.0
 40
0.1161660863154849
 40
1.0
 40
1.0
 40
1.0
 40
1.0
 10
494.774567151572
 20
1173.737889897428
 30
0.0
 10
495.1170627729729
 20
1173.740299585394
 30
0.0
 10
498.0653898817186
 20
1173.761043057465
 30
0.0
 10
501.0238193781864
 20
1173.937335363051
 30
0.0
 10
503.6385796984093
 20
1174.09314848145
 30
0.0
  0
SPLINE
  5
222
330
1F
100
AcDbEntity
  8
0
  6
Continuous
 62
     7
370
    15
100
AcDbSpline
210
0.0
220
0.0
230
1.0
 70
     8
 71
     3
 72
     9
 73
     5
 74
     0
 42
0.00000001
 43
0.00000001
 12
1.0
 22
0.0
 32
0.0
 13
1.0
 23
0.0
 33
0.0
 40
0.0
 40
0.0
 40
0.0
 40
0.0
 40
0.7957392712381027
 40
1.0
 40
1.0
 40
1.0
 40
1.0
 10
543.529562840368
 20
1173.761582743726
 30
0.0
 10
541.2367389189914
 20
1173.81141596365
 30
0.0
 10
538.3553630660575
 20
1173.87404102405
 30
0.0
 10
535.467143235937
 20
1174.05598456183
 30
0.0
 10
534.8771933486121
 20
1174.09314848145
 30
0.0
  0
LINE
  5
223
330
1F
100
AcDbEntity
  8
0
  6
Continuous
 62
     7
370
    15
100
AcDbLine
 10
450.7578892653
 20
1187.7725932713
 30
0.0
 11
587.7578837817
 21
1187.7725932713
 31
0.0
  0
LINE
  5
224
330
1F
100
AcDbEntity
  8
0
  6
Continuous
 62
     7
370
    15
100
AcDbLine
 10
587.7578837817
 20
1189.7314552184
 30
0.0
 11
450.7578892653
 21
1189.7314552184
 31
0.0
  0
LINE
  5
225
330
1F
100
AcDbEntity
  8
0
  6
Continuous
 62
     7
370
    15
100
AcDbLine
 10
435.818826968
 20
1155.6672070142
 30
0.0
 11
435.5508742874
 21
1155.6672070142
 31
0.0
  0
LWPOLYLINE
  5
226
330
1F
100
AcDbEntity
  8
0
  6
Continuous
 62
     7
370
    15
100
AcDbPolyline
 90
        3
 70
   128
 43
0.0
 10
436.7374686544
 20
1157.4493262883
 10
436.5022836273
 20
1157.3617670651
 10
436.3526312654
 20
1157.2685155984
  0
LWPOLYLINE
  5
227
330
1F
100
AcDbEntity
  8
0
  6
Continuous
 62
     7
370
    15
100
AcDbPolyline
 90
        3
 70
   128
 43
0.0
 10
601.7783043926
 20
1157.4493262883
 10
602.0134894197
 20
1157.3617670651
 10
602.1631417816
 20
1157.2685155984
  0
LINE
  5
228
330
1F
100
AcDbEntity
  8
0
  6
Continuous
 62
     7
370
    15
100
AcDbLine
 10
602.9648987596
 20
1155.6672070142
 30
0.0
 11
602.696946079
 21
1155.6672070142
 31
0.0
  0
SPLINE
  5
229
330
1F
100
AcDbEntity
  8
0
  6
Continuous
 62
     7
370
    15
100
AcDbSpline
210
0.0
220
0.0
230
1.0
 70
     8
 71
     3
 72
    10
 73
     6
 74
     0
 42
0.00000001
 43
0.00000001
 12
1.0
 22
0.0
 32
0.0
 13
1.0
 23
0.0
 33
0.0
 40
0.0
 40
0.0
 40
0.0
 40
0.0
 40
0.1641273439395901
 40
0.9931771902957521
 40
1.0
 40
1.0
 40
1.0
 40
1.0
 10
436.3645447438018
 20
1157.564437758527
 30
0.0
 10
436.3724034826431
 20
1157.652782313985
 30
0.0
 10
436.4199587526811
 20
1158.187378166585
 30
0.0
 10
436.3081462627408
 20
1158.759100152855
 30
0.0
 10
436.2147384020861
 20
1159.227636039904
 30
0.0
 10
436.2139759605186
 20
1159.231460463605
 30
0.0
  0
SPLINE
  5
22A
330
1F
100
AcDbEntity
  8
0
  6
Continuous
 62
     7
370
    15
100
AcDbSpline
210
0.0
220
0.0
230
1.0
 70
     8
 71
     3
 72
    10
 73
     6
 74
     0
 42
0.00000001
 43
0.00000001
 12
1.0
 22
0.0
 32
0.0
 13
1.0
 23
0.0
 33
0.0
 40
0.0
 40
0.0
 40
0.0
 40
0.0
 40
0.0069625871037041
 40
0.8529969950358931
 40
1.0
 40
1.0
 40
1.0
 40
1.0
 10
602.3017970865027
 20
1159.231460463605
 30
0.0
 10
602.3010346772837
 20
1159.227636046691
 30
0.0
 10
602.2076307796846
 20
1158.759100991219
 30
0.0
 10
602.0963600473576
 20
1158.198499277242
 30
0.0
 10
602.142102495753
 20
1157.674531834028
 30
0.0
 10
602.1488739197508
 20
1157.596966993413
 30
0.0
  0
LINE
  5
22B
330
1F
100
AcDbEntity
  8
0
  6
Continuous
 62
     7
370
    15
100
AcDbLine
 10
529.591219688
 20
775.2314571257
 30
0.0
 11
529.591219688
 21
759.731462967
 31
0.0
  0
LINE
  5
22C
330
1F
100
AcDbEntity
  8
0
  6
Continuous
 62
     7
370
    15
100
AcDbLine
 10
508.9245533591
 20
759.731462967
 30
0.0
 11
508.9245533591
 21
775.2314571257
 31
0.0
  0
LINE
  5
22D
330
1F
100
AcDbEntity
  8
0
  6
Continuous
 62
     7
370
    15
100
AcDbLine
 10
552.151764
 20
775.2314571257
 30
0.0
 11
552.151764
 21
759.731462967
 31
0.0
  0
LINE
  5
22E
330
1F
100
AcDbEntity
  8
0
  6
Continuous
 62
     7
370
    15
100
AcDbLine
 10
486.3640090471
 20
759.731462967
 30
0.0
 11
486.3640090471
 21
775.2314571257
 31
0.0
  0
LINE
  5
22F
330
1F
100
AcDbEntity
  8
0
  6
Continuous
 62
     7
370
    15
100
AcDbLine
 10
556.5328767543
 20
759.731462967
 30
0.0
 11
563.3331296985
 21
773.2547882911
 31
0.0
  0
LINE
  5
230
330
1F
100
AcDbEntity
  8
0
  6
Continuous
 62
     7
370
    15
100
AcDbLine
 10
475.1826433485
 20
773.2547882911
 30
0.0
 11
481.9828962927
 21
759.731462967
 31
0.0
  0
LWPOLYLINE
  5
231
330
1F
100
AcDbEntity
  8
0
  6
Continuous
 62
     7
370
    15
100
AcDbPolyline
 90
       13
 70
   128
 43
0.0
 10
634.2467946952
 20
1129.9074355479
 10
634.2620832865
 20
1129.9126062508
 10
634.5992593115
 20
1129.8288766261
 10
635.0304393118
 20
1129.4195417281
 10
635.517312402
 20
1128.7209603902
 10
636.0166130607
 20
1127.795225751
 10
636.483980531
 20
1126.7245624181
 10
636.8778852766
 20
1125.6041292067
 10
637.1633319204
 20
1124.533480775
 10
637.3149586861
 20
1123.6077312346
 10
637.3192800229
 20
1122.9091647979
 10
637.1759234016
 20
1122.4998149987
 10
637.0676515644
 20
1122.4212709781
  0
LWPOLYLINE
  5
232
330
1F
100
AcDbEntity
  8
0
  6
Continuous
 62
     7
370
    15
100
AcDbPolyline
 90
       13
 70
   128
 43
0.0
 10
664.3101109212
 20
1044.3954084035
 10
664.3253995126
 20
1044.4005828317
 10
664.6625680869
 20
1044.316853207
 10
665.0937480872
 20
1043.9075108584
 10
665.580628628
 20
1043.2089332457
 10
666.0799218362
 20
1042.283191156
 10
666.547296757
 20
1041.2125389989
 10
666.9412089532
 20
1040.0921057876
 10
667.226655597
 20
1039.0214536305
 10
667.3782749121
 20
1038.0957078155
 10
667.3825962489
 20
1037.3971302029
 10
667.239232177
 20
1036.9877915796
 10
667.1309603398
 20
1036.909236383
  0
LWPOLYLINE
  5
233
330
1F
100
AcDbEntity
  8
0
  6
Continuous
 62
     7
370
    15
100
AcDbPolyline
 90
        3
 70
   128
 43
0.0
 10
630.4986460154
 20
1131.3505385037
 10
630.8104677146
 20
1131.4332846518
 10
631.0639290159
 20
1131.4530584927
  0
ARC
  5
234
330
1F
100
AcDbEntity
  8
0
  6
Continuous
 62
     7
370
    15
100
AcDbCircle
 10
633.2614165926
 20
1128.7067464719
 30
0.0
 40
2.777078123500138
100
AcDbArc
 50
282.3841423067
 51
309.3115587495
  0
ARC
  5
235
330
1F
100
AcDbEntity
  8
0
  6
Continuous
 62
     7
370
    15
100
AcDbCircle
 10
663.6557174653
 20
1042.2535647849
 30
0.0
 40
2.775514623596274
100
AcDbArc
 50
282.3781582648
 51
309.321089299
  0
LWPOLYLINE
  5
236
330
1F
100
AcDbEntity
  8
0
  6
Continuous
 62
     7
370
    15
100
AcDbPolyline
 90
        3
 70
   128
 43
0.0
 10
615.2283234542
 20
1131.3505385037
 10
615.5401451533
 20
1131.4332846518
 10
615.7899482196
 20
1131.4530584927
  0
LWPOLYLINE
  5
237
330
1F
100
AcDbEntity
  8
0
  6
Continuous
 62
     7
370
    15
100
AcDbPolyline
 90
        9
 70
   128
 43
0.0
 10
664.7852791493
 20
1034.2086765881
 10
664.9101210778
 20
1034.2892434414
 10
665.0797260945
 20
1034.5940429684
 10
665.1607586091
 20
1035.0890148397
 10
665.1501340812
 20
1035.7551302727
 10
665.0482399409
 20
1036.5668002482
 10
664.8590100949
 20
1037.49282546
 10
664.5897014087
 20
1038.4976182099
 10
664.2506850903
 20
1039.5425695892
  0
LINE
  5
238
330
1F
100
AcDbEntity
  8
0
  6
Continuous
 62
     7
370
    15
100
AcDbLine
 10
660.3590680306
 20
1033.8432665881
 30
0.0
 11
660.5460030978
 21
1033.913704377
 31
0.0
  0
LINE
  5
239
330
1F
100
AcDbEntity
  8
0
  6
Continuous
 62
     7
370
    15
100
AcDbLine
 10
664.4434316104
 20
1117.6645521041
 30
0.0
 11
638.1474791115
 21
1117.6645521041
 31
0.0
  0
LINE
  5
23A
330
1F
100
AcDbEntity
  8
0
  6
Continuous
 62
     7
370
    15
100
AcDbLine
 10
662.258519048
 20
1049.0831609782
 30
0.0
 11
664.4434316104
 21
1049.9064575847
 31
0.0
  0
LINE
  5
23B
330
1F
100
AcDbEntity
  8
0
  6
Continuous
 62
     7
370
    15
100
AcDbLine
 10
660.7249064391
 20
1035.3139553185
 30
0.0
 11
648.9917321151
 21
1035.3139553185
 31
0.0
  0
ARC
  5
23C
330
1F
100
AcDbEntity
  8
0
  6
Continuous
 62
     7
370
    15
100
AcDbCircle
 10
648.8206079709
 20
1035.7653132976
 30
0.0
 40
0.4827085020539884
100
AcDbArc
 50
290.7633088976
 51
317.9141618185
  0
ELLIPSE
  5
23D
330
1F
100
AcDbEntity
  8
0
  6
Continuous
 62
     7
370
    15
100
AcDbEllipse
 10
663.1493316607
 20
1049.9064561496
 30
0.0
 11
-0.7054376055669992
 21
5.068836590658521
 31
0.0
210
0.0
220
0.0
230
1.0
 40
0.250605517
 41
3.198118383623565
 42
4.677525965372556
  0
LINE
  5
23E
330
1F
100
AcDbEntity
  8
0
  6
Continuous
 62
     7
370
    15
100
AcDbLine
 10
664.4434316104
 20
1117.6645521041
 30
0.0
 11
665.9257842248
 21
1117.6645521041
 31
0.0
  0
LINE
  5
23F
330
1F
100
AcDbEntity
  8
0
  6
Continuous
 62
     7
370
    15
100
AcDbLine
 10
664.4434316104
 20
1049.9064575847
 30
0.0
 11
665.9257842248
 21
1049.9064575847
 31
0.0
  0
LINE
  5
240
330
1F
100
AcDbEntity
  8
0
  6
Continuous
 62
     7
370
    15
100
AcDbLine
 10
615.2283234542
 20
1131.3505385037
 30
0.0
 11
615.1015443747
 21
1131.3281867619
 31
0.0
  0
LINE
  5
241
330
1F
100
AcDbEntity
  8
0
  6
Continuous
 62
     7
370
    15
100
AcDbLine
 10
615.2902303283
 20
1128.51396836
 30
0.0
 11
615.2589304393
 21
1128.7522230264
 31
0.0
  0
LINE
  5
242
330
1F
100
AcDbEntity
  8
0
  6
Continuous
 62
     7
370
    15
100
AcDbLine
 10
612.9678247516
 20
1124.8718116399
 30
0.0
 11
612.0437292402
 21
1124.5236013051
 31
0.0
  0
LINE
  5
243
330
1F
100
AcDbEntity
  8
0
  6
Continuous
 62
     7
370
    15
100
AcDbLine
 10
642.4374116605
 20
1038.071884584
 30
0.0
 11
643.2433186119
 21
1038.3755590733
 31
0.0
  0
LWPOLYLINE
  5
244
330
1F
100
AcDbEntity
  8
0
  6
Continuous
 62
     7
370
    15
100
AcDbPolyline
 90
        3
 70
   128
 43
0.0
 10
648.9917321151
 20
1035.3139553185
 10
648.7359536832
 20
1035.3952076252
 10
648.6625952666
 20
1035.4417812045
  0
LINE
  5
245
330
1F
100
AcDbEntity
  8
0
  6
Continuous
 62
     7
370
    15
100
AcDbLine
 10
615.9580333178
 20
1128.7522230264
 30
0.0
 11
615.212639982
 21
1128.471351039
 31
0.0
  0
ARC
  5
246
330
1F
100
AcDbEntity
  8
0
  6
Continuous
 62
     7
370
    15
100
AcDbCircle
 10
625.341811526
 20
1117.0547516739
 30
0.0
 40
6.629794314179959
100
AcDbArc
 50
29.0548618293
 51
46.4633304139
  0
LINE
  5
247
330
1F
100
AcDbEntity
  8
0
  6
Continuous
 62
     7
370
    15
100
AcDbLine
 10
618.6117513125
 20
1122.1408609267
 30
0.0
 11
628.9848072474
 21
1122.1408609267
 31
0.0
  0
LWPOLYLINE
  5
248
330
1F
100
AcDbEntity
  8
0
  6
Continuous
 62
     7
370
    15
100
AcDbPolyline
 90
        5
 70
   128
 43
0.0
 10
618.0778203552
 20
1121.0739526864
 10
618.0830581134
 20
1121.1906585809
 10
618.1683672612
 20
1121.711677682
 10
618.3468831723
 20
1122.0325294848
 10
618.6117513125
 20
1122.1408609267
  0
ELLIPSE
  5
249
330
1F
100
AcDbEntity
  8
0
  6
Continuous
 62
     7
370
    15
100
AcDbEllipse
 10
644.8272787248
 20
1047.5734767922
 30
0.0
 11
-2.234016371209577
 21
5.978194925898379
 31
0.0
210
0.0
220
0.0
230
1.0
 40
0.228764231
 41
2.586982228316593
 42
3.056312147468428
  0
ELLIPSE
  5
24A
330
1F
100
AcDbEntity
  8
0
  6
Continuous
 62
     7
370
    15
100
AcDbEllipse
 10
655.542387192
 20
1047.5734767922
 30
0.0
 11
-2.234016371209691
 21
5.978194925898379
 31
0.0
210
0.0
220
0.0
230
1.0
 40
0.228764231
 41
3.056312147468272
 42
3.894280302791736
  0
ARC
  5
24B
330
1F
100
AcDbEntity
  8
0
  6
Continuous
 62
     7
370
    15
100
AcDbCircle
 10
628.3884590632
 20
1121.7873771525
 30
0.0
 40
0.9959876993581432
100
AcDbArc
 50
291.2569300842
 51
356.5114691277
  0
ARC
  5
24C
330
1F
100
AcDbEntity
  8
0
  6
Continuous
 62
     7
370
    15
100
AcDbCircle
 10
635.180727325
 20
1106.9952540134
 30
0.0
 40
9.805714688981269
100
AcDbArc
 50
105.9221538043
 51
110.819829594
  0
ARC
  5
24D
330
1F
100
AcDbEntity
  8
0
  6
Continuous
 62
     7
370
    15
100
AcDbCircle
 10
659.4185320116
 20
1038.0527527531
 30
0.0
 40
9.819715616603737
100
AcDbArc
 50
105.9260669991
 51
110.8167210104
  0
LINE
  5
24E
330
1F
100
AcDbEntity
  8
0
  6
Continuous
 62
     7
370
    15
100
AcDbLine
 10
613.8699410503
 20
1080.2314568277
 30
0.0
 11
613.8699410503
 21
1047.2314570065
 31
0.0
  0
LINE
  5
24F
330
1F
100
AcDbEntity
  8
0
  6
Continuous
 62
     7
370
    15
100
AcDbLine
 10
625.3615079468
 20
1118.1820843335
 30
0.0
 11
619.68375575
 21
1118.1820843335
 31
0.0
  0
LINE
  5
250
330
1F
100
AcDbEntity
  8
0
  6
Continuous
 62
     7
370
    15
100
AcDbLine
 10
628.2851753776
 20
1123.6018750783
 30
0.0
 11
618.1139780228
 21
1123.6018750783
 31
0.0
  0
LINE
  5
251
330
1F
100
AcDbEntity
  8
0
  6
Continuous
 62
     7
370
    15
100
AcDbLine
 10
618.4026284163
 20
1124.2427293177
 30
0.0
 11
628.0926896279
 21
1124.2427293177
 31
0.0
  0
LINE
  5
252
330
1F
100
AcDbEntity
  8
0
  6
Continuous
 62
     7
370
    15
100
AcDbLine
 10
618.377408201
 20
1124.3021551486
 30
0.0
 11
618.4026284163
 21
1124.2427293177
 31
0.0
  0
LINE
  5
253
330
1F
100
AcDbEntity
  8
0
  6
Continuous
 62
     7
370
    15
100
AcDbLine
 10
634.0585557764
 20
1082.7314544435
 30
0.0
 11
633.7068585699
 21
1082.7314544435
 31
0.0
  0
LINE
  5
254
330
1F
100
AcDbEntity
  8
0
  6
Continuous
 62
     7
370
    15
100
AcDbLine
 10
633.7068585699
 20
1075.7314551588
 30
0.0
 11
634.0585557764
 21
1075.7314551588
 31
0.0
  0
LINE
  5
255
330
1F
100
AcDbEntity
  8
0
  6
Continuous
 62
     7
370
    15
100
AcDbLine
 10
617.779625768
 20
1120.0614634868
 30
0.0
 11
626.6326217001
 21
1120.0614634868
 31
0.0
  0
LINE
  5
256
330
1F
100
AcDbEntity
  8
0
  6
Continuous
 62
     7
370
    15
100
AcDbLine
 10
618.034443075
 20
1120.8591524478
 30
0.0
 11
616.3686348145
 21
1120.2314559337
 31
0.0
  0
LINE
  5
257
330
1F
100
AcDbEntity
  8
0
  6
Continuous
 62
     7
370
    15
100
AcDbLine
 10
659.1308100169
 20
1040.6497556682
 30
0.0
 11
659.0826792662
 21
1040.6316209551
 31
0.0
  0
LINE
  5
258
330
1F
100
AcDbEntity
  8
0
  6
Continuous
 62
     7
370
    15
100
AcDbLine
 10
658.0903364365
 20
1039.0295412358
 30
0.0
 11
647.846920604
 21
1039.0295412358
 31
0.0
  0
LINE
  5
259
330
1F
100
AcDbEntity
  8
0
  6
Continuous
 62
     7
370
    15
100
AcDbLine
 10
658.0382121747
 20
1039.6703954752
 30
0.0
 11
648.1355709975
 21
1039.6703954752
 31
0.0
  0
LINE
  5
25A
330
1F
100
AcDbEntity
  8
0
  6
Continuous
 62
     7
370
    15
100
AcDbLine
 10
648.1355709975
 20
1039.6703954752
 30
0.0
 11
648.1103582328
 21
1039.7298213061
 31
0.0
  0
ARC
  5
25B
330
1F
100
AcDbEntity
  8
0
  6
Continuous
 62
     7
370
    15
100
AcDbCircle
 10
620.7396610935
 20
1066.0609915262
 30
0.0
 40
0.4704646228869229
100
AcDbArc
 50
60.4177636498
 51
89.9394021743
  0
ARC
  5
25C
330
1F
100
AcDbEntity
  8
0
  6
Continuous
 62
     7
370
    15
100
AcDbCircle
 10
620.739619362
 20
1065.6020268877
 30
0.0
 40
0.4705726578182323
100
AcDbArc
 50
270.065665044
 51
299.5806119451
  0
LINE
  5
25D
330
1F
100
AcDbEntity
  8
0
  6
Continuous
 62
     7
370
    15
100
AcDbLine
 10
621.0392249768
 20
1065.6314555522
 30
0.0
 11
620.6107495373
 21
1065.6314555522
 31
0.0
  0
LINE
  5
25E
330
1F
100
AcDbEntity
  8
0
  6
Continuous
 62
     7
370
    15
100
AcDbLine
 10
620.6107495373
 20
1066.0314548727
 30
0.0
 11
621.0392249768
 21
1066.0314548727
 31
0.0
  0
LINE
  5
25F
330
1F
100
AcDbEntity
  8
0
  6
Continuous
 62
     7
370
    15
100
AcDbLine
 10
613.8699410503
 20
1047.2314570065
 30
0.0
 11
613.8017905896
 21
1047.2314570065
 31
0.0
  0
LINE
  5
260
330
1F
100
AcDbEntity
  8
0
  6
Continuous
 62
     7
370
    15
100
AcDbLine
 10
618.034443075
 20
1120.8591524478
 30
0.0
 11
617.923235709
 21
1120.8395425197
 31
0.0
  0
ARC
  5
261
330
1F
100
AcDbEntity
  8
0
  6
Continuous
 62
     7
370
    15
100
AcDbCircle
 10
620.1323820122
 20
1123.9372173463
 30
0.0
 40
2.586804399930647
100
AcDbArc
 50
171.8898455654
 51
191.6393608356
  0
LINE
  5
262
330
1F
100
AcDbEntity
  8
0
  6
Continuous
 62
     7
370
    15
100
AcDbLine
 10
617.3272786682
 20
1122.9846391793
 30
0.0
 11
617.0227138345
 21
1122.869885337
 31
0.0
  0
LWPOLYLINE
  5
263
330
1F
100
AcDbEntity
  8
0
  6
Continuous
 62
     7
370
    15
100
AcDbPolyline
 90
        7
 70
   128
 43
0.0
 10
618.2087792104
 20
1123.7018767711
 10
618.2067303007
 20
1123.7564001199
 10
618.2111782973
 20
1123.9268396016
 10
618.2335970943
 20
1124.0629915114
 10
618.2735620086
 20
1124.1621885415
 10
618.3302758281
 20
1124.2224935408
 10
618.4026284163
 20
1124.2427293177
  0
LINE
  5
264
330
1F
100
AcDbEntity
  8
0
  6
Continuous
 62
     7
370
    15
100
AcDbLine
 10
617.5458339994
 20
1121.6299299117
 30
0.0
 11
617.1616224592
 21
1121.4851502295
 31
0.0
  0
LINE
  5
265
330
1F
100
AcDbEntity
  8
0
  6
Continuous
 62
     7
370
    15
100
AcDbLine
 10
646.3332308476
 20
1040.3182160076
 30
0.0
 11
646.0789425318
 21
1040.2224015411
 31
0.0
  0
ARC
  5
266
330
1F
100
AcDbEntity
  8
0
  6
Continuous
 62
     7
370
    15
100
AcDbCircle
 10
648.4042598795
 20
1040.3379216261
 30
0.0
 40
1.422141453535803
100
AcDbArc
 50
205.3150179908
 51
246.9271359532
  0
LWPOLYLINE
  5
267
330
1F
100
AcDbEntity
  8
0
  6
Continuous
 62
     7
370
    15
100
AcDbPolyline
 90
        3
 70
   128
 43
0.0
 10
648.1355709975
 20
1039.6703954752
 10
648.048995251
 20
1039.6906312521
 10
647.9791535085
 20
1039.7298213061
  0
LINE
  5
268
330
1F
100
AcDbEntity
  8
0
  6
Continuous
 62
     7
370
    15
100
AcDbLine
 10
645.5705596154
 20
1041.7301010307
 30
0.0
 11
645.2442092841
 21
1041.6071254726
 31
0.0
  0
CIRCLE
  5
269
330
1F
100
AcDbEntity
  8
SLD-0
  6
Continuous
 62
     7
100
AcDbCircle
 10
519.2578865235
 20
961.2314566489
 30
0.0
 40
9.941304535795851
  0
INSERT
  5
275
330
1F
100
AcDbEntity
  8
SLD-0
 62
     7
100
AcDbBlockReference
  2
SW_CENTERMARKSYMBOL_0
 10
519.2578865235
 20
961.2314566489
 30
0.0
  0
LINE
  5
276
330
1F
100
AcDbEntity
  8
0
  6
Continuous
 62
     7
370
    15
100
AcDbLine
 10
622.2825555151
 20
433.0364387947
 30
0.0
 11
617.2578839605
 21
434.3827940988
 31
0.0
  0
LINE
  5
277
330
1F
100
AcDbEntity
  8
0
  6
Continuous
 62
     7
370
    15
100
AcDbLine
 10
622.9896603172
 20
431.8116941954
 30
0.0
 11
622.2825555151
 21
433.0364387947
 31
0.0
  0
LINE
  5
278
330
1F
100
AcDbEntity
  8
0
  6
Continuous
 62
     7
370
    15
100
AcDbLine
 10
645.8652002757
 20
378.0595065559
 30
0.0
 11
644.3785561269
 21
378.4578518475
 31
0.0
  0
LINE
  5
279
330
1F
100
AcDbEntity
  8
0
  6
Continuous
 62
     7
370
    15
100
AcDbLine
 10
643.3432756012
 20
374.594148388
 30
0.0
 11
644.7927488034
 21
374.2057645227
 31
0.0
  0
LINE
  5
27A
330
1F
100
AcDbEntity
  8
0
  6
Continuous
 62
     7
370
    15
100
AcDbLine
 10
649.3298990672
 20
370.9194847847
 30
0.0
 11
649.6737582629
 21
370.8273509051
 31
0.0
  0
LINE
  5
27B
330
1F
100
AcDbEntity
  8
0
  6
Continuous
 62
     7
370
    15
100
AcDbLine
 10
651.8734676783
 20
378.4685248042
 30
0.0
 11
651.7661644166
 21
378.5224074031
 31
0.0
  0
LINE
  5
27C
330
1F
100
AcDbEntity
  8
0
  6
Continuous
 62
     7
370
    15
100
AcDbLine
 10
649.6737582629
 20
370.8273509051
 30
0.0
 11
649.8920751755
 21
370.8175384904
 31
0.0
  0
ARC
  5
27D
330
1F
100
AcDbEntity
  8
0
  6
Continuous
 62
     7
370
    15
100
AcDbCircle
 10
646.2208643045
 20
375.8936549691
 30
0.0
 40
6.50000000000003
100
AcDbArc
 50
313.9823638146
 51
16.0176361854
  0
LINE
  5
27E
330
1F
100
AcDbEntity
  8
0
  6
Continuous
 62
     7
370
    15
100
AcDbLine
 10
631.2328560298
 20
442.0262504368
 30
0.0
 11
629.3267441933
 21
442.5369921605
 31
0.0
  0
LINE
  5
27F
330
1F
100
AcDbEntity
  8
0
  6
Continuous
 62
     7
370
    15
100
AcDbLine
 10
628.2914636677
 20
438.6732889338
 30
0.0
 11
630.1975829547
 21
438.1625472101
 31
0.0
  0
LINE
  5
280
330
1F
100
AcDbEntity
  8
0
  6
Continuous
 62
     7
370
    15
100
AcDbLine
 10
660.7218069976
 20
434.1247106436
 30
0.0
 11
659.3900604193
 21
434.4815515446
 31
0.0
  0
LINE
  5
281
330
1F
100
AcDbEntity
  8
0
  6
Continuous
 62
     7
370
    15
100
AcDbLine
 10
658.3547873442
 20
430.6178485508
 30
0.0
 11
659.8414314931
 21
430.2195023279
 31
0.0
  0
LINE
  5
282
330
1F
100
AcDbEntity
  8
0
  6
Continuous
 62
     7
370
    15
100
AcDbLine
 10
666.7558087056
 20
434.5784556585
 30
0.0
 11
666.0409403985
 21
434.7700049634
 31
0.0
  0
LINE
  5
283
330
1F
100
AcDbEntity
  8
0
  6
Continuous
 62
     7
370
    15
100
AcDbLine
 10
666.8849719708
 20
434.4922245014
 30
0.0
 11
666.7776687091
 21
434.5461043063
 31
0.0
  0
LINE
  5
284
330
1F
100
AcDbEntity
  8
0
  6
Continuous
 62
     7
370
    15
100
AcDbLine
 10
664.6852625554
 20
426.8510492052
 30
0.0
 11
664.903579468
 21
426.8412377219
 31
0.0
  0
ARC
  5
285
330
1F
100
AcDbEntity
  8
0
  6
Continuous
 62
     7
370
    15
100
AcDbCircle
 10
661.2323689205
 20
431.9173528938
 30
0.0
 40
6.50000000000003
100
AcDbArc
 50
313.9823638146
 51
16.0176361854
  0
LINE
  5
286
330
1F
100
AcDbEntity
  8
0
  6
Continuous
 62
     7
370
    15
100
AcDbLine
 10
657.0660902207
 20
391.8628954793
 30
0.0
 11
657.1143848841
 21
391.8499538208
 31
0.0
  0
LINE
  5
287
330
1F
100
AcDbEntity
  8
0
  6
Continuous
 62
     7
370
    15
100
AcDbLine
 10
662.688283438
 20
412.6520325894
 30
0.0
 11
662.6399887746
 21
412.6649742479
 31
0.0
  0
LINE
  5
288
330
1F
100
AcDbEntity
  8
0
  6
Continuous
 62
     7
370
    15
100
AcDbLine
 10
624.2744607871
 20
428.8792415987
 30
0.0
 11
622.3426146453
 21
429.3968790675
 31
0.0
  0
SPLINE
  5
289
330
1F
100
AcDbEntity
  8
0
  6
Continuous
 62
     7
370
    15
100
AcDbSpline
210
0.0
220
0.0
230
1.0
 70
     8
 71
     3
 72
    15
 73
    11
 74
     0
 42
0.00000001
 43
0.00000001
 12
1.0
 22
0.0
 32
0.0
 13
1.0
 23
0.0
 33
0.0
 40
0.0
 40
0.0
 40
0.0
 40
0.0
 40
0.1127072652201054
 40
0.2198715434656928
 40
0.3293843482597714
 40
0.4560118732574634
 40
0.6132188442996948
 40
0.7803858876486474
 40
0.9394143468427737
 40
1.0
 40
1.0
 40
1.0
 40
1.0
 10
646.0298283045546
 20
369.0084928180068
 30
0.0
 10
646.2945284160421
 20
368.9677830921428
 30
0.0
 10
646.8109105849699
 20
368.8883657605066
 30
0.0
 10
647.5457364969723
 20
369.10661667259
 30
0.0
 10
648.1797462317568
 20
369.4921844512743
 30
0.0
 10
648.7761752429341
 20
370.0784405565989
 30
0.0
 10
649.3587214356422
 20
370.9115348027651
 30
0.0
 10
649.9001220812431
 20
371.9975575385598
 30
0.0
 10
650.2616785295062
 20
372.9817006255261
 30
0.0
 10
650.4238830268666
 20
373.560515702714
 30
0.0
 10
650.4686309044616
 20
373.7201952840178
 30
0.0
  0
LINE
  5
28A
330
1F
100
AcDbEntity
  8
0
  6
Continuous
 62
     7
370
    15
100
AcDbLine
 10
650.4686309045
 20
373.720195284
 30
0.0
 11
665.7389534657
 21
430.7098175864
 31
0.0
  0
SPLINE
  5
28B
330
1F
100
AcDbEntity
  8
0
  6
Continuous
 62
     7
370
    15
100
AcDbSpline
210
0.0
220
0.0
230
1.0
 70
     8
 71
     3
 72
    15
 73
    11
 74
     0
 42
0.00000001
 43
0.00000001
 12
1.0
 22
0.0
 32
0.0
 13
1.0
 23
0.0
 33
0.0
 40
0.0
 40
0.0
 40
0.0
 40
0.0
 40
0.0815962621105933
 40
0.2376381222432358
 40
0.3974092938366467
 40
0.5672459658455461
 40
0.7066726760083737
 40
0.8222277848725168
 40
0.9331896319440696
 40
1.0
 40
1.0
 40
1.0
 40
1.0
 10
665.7389534657257
 20
430.7098175863712
 30
0.0
 10
665.7935225392425
 20
430.9264972111128
 30
0.0
 10
665.9524476153144
 20
431.5575474310626
 30
0.0
 10
666.1209512426325
 20
432.6141406301977
 30
0.0
 10
666.181164883461
 20
433.8204257183247
 30
0.0
 10
666.0724043885216
 20
434.8608226009243
 30
0.0
 10
665.7916411875078
 20
435.7172077203397
 30
0.0
 10
665.3408632563211
 20
436.3893618647608
 30
0.0
 10
664.7978075537588
 20
436.8240041879503
 30
0.0
 10
664.4001374866428
 20
436.9589552297808
 30
0.0
 10
664.250685090329
 20
437.0096725410758
 30
0.0
  0
LWPOLYLINE
  5
28C
330
1F
100
AcDbEntity
  8
0
  6
Continuous
 62
     7
370
    15
100
AcDbPolyline
 90
       13
 70
   128
 43
0.0
 10
617.2578839605
 20
414.28412511
 10
617.6243035143
 20
415.6516232992
 10
618.3061657493
 20
418.1963430251
 10
618.9666075652
 20
420.6611478235
 10
619.5938495939
 20
423.0020494665
 10
620.1766936128
 20
425.1772753428
 10
620.7047535126
 20
427.1480088587
 10
621.1685968583
 20
428.8790823425
 10
621.5599386041
 20
430.3396047558
 10
621.8718050068
 20
431.5035121049
 10
622.0986304825
 20
432.3500358964
 10
622.236369366
 20
432.8640691469
 10
622.2825555151
 20
433.0364387947
  0
LWPOLYLINE
  5
28D
330
1F
100
AcDbEntity
  8
0
  6
Continuous
 62
     7
370
    15
100
AcDbPolyline
 90
       14
 70
   128
 43
0.0
 10
622.9896603172
 20
431.8116941954
 10
622.9438615983
 20
431.6407573874
 10
622.8073073571
 20
431.131130224
 10
622.5825382417
 20
430.2923066075
 10
622.2737563794
 20
429.1399131994
 10
621.886706168
 20
427.6954151223
 10
621.4285923188
 20
425.9857220109
 10
620.9079606478
 20
424.0426813717
 10
620.3344969099
 20
421.9024890567
 10
619.7188926881
 20
419.60501126
 10
619.0726069753
 20
417.1930478419
 10
618.4076873606
 20
414.711527666
 10
617.7365092581
 20
412.2066778596
 10
617.2578839605
 20
410.4204235132
  0
LINE
  5
28E
330
1F
100
AcDbEntity
  8
0
  6
Continuous
 62
     7
370
    15
100
AcDbLine
 10
574.1181282347
 20
382.4443259741
 30
0.0
 11
566.9281279688
 21
382.4443259741
 31
0.0
  0
LINE
  5
28F
330
1F
100
AcDbEntity
  8
0
  6
Continuous
 62
     7
370
    15
100
AcDbLine
 10
566.9281279688
 20
382.4443259741
 30
0.0
 11
563.3331296985
 21
388.6710481252
 31
0.0
  0
LINE
  5
290
330
1F
100
AcDbEntity
  8
0
  6
Continuous
 62
     7
370
    15
100
AcDbLine
 10
563.3331296985
 20
388.6710481252
 30
0.0
 11
566.9281279688
 21
394.8977740015
 31
0.0
  0
LINE
  5
291
330
1F
100
AcDbEntity
  8
0
  6
Continuous
 62
     7
370
    15
100
AcDbLine
 10
566.9281279688
 20
394.8977740015
 30
0.0
 11
574.1181282347
 21
394.8977740015
 31
0.0
  0
LINE
  5
292
330
1F
100
AcDbEntity
  8
0
  6
Continuous
 62
     7
370
    15
100
AcDbLine
 10
574.1181282347
 20
394.8977740015
 30
0.0
 11
577.7131265049
 21
388.6710481252
 31
0.0
  0
LINE
  5
293
330
1F
100
AcDbEntity
  8
0
  6
Continuous
 62
     7
370
    15
100
AcDbLine
 10
577.7131265049
 20
388.6710481252
 30
0.0
 11
574.1181282347
 21
382.4443259741
 31
0.0
  0
ARC
  5
294
330
1F
100
AcDbEntity
  8
0
  6
Continuous
 62
     7
370
    15
100
AcDbCircle
 10
570.5231281595
 20
388.67104993
 30
0.0
 40
7.190000000000066
100
AcDbArc
 50
300.0
 51
0.0
  0
ARC
  5
295
330
1F
100
AcDbEntity
  8
0
  6
Continuous
 62
     7
370
    15
100
AcDbCircle
 10
570.5231281595
 20
388.67104993
 30
0.0
 40
7.190000000000055
100
AcDbArc
 50
0.0
 51
60.0
  0
ARC
  5
296
330
1F
100
AcDbEntity
  8
0
  6
Continuous
 62
     7
370
    15
100
AcDbCircle
 10
570.5231281595
 20
388.67104993
 30
0.0
 40
7.190000000000017
100
AcDbArc
 50
60.0
 51
120.0
  0
ARC
  5
297
330
1F
100
AcDbEntity
  8
0
  6
Continuous
 62
     7
370
    15
100
AcDbCircle
 10
570.5231281595
 20
388.67104993
 30
0.0
 40
7.190000000000009
100
AcDbArc
 50
180.0
 51
240.0
  0
ARC
  5
298
330
1F
100
AcDbEntity
  8
0
  6
Continuous
 62
     7
370
    15
100
AcDbCircle
 10
570.5231281595
 20
388.67104993
 30
0.0
 40
7.18999999999996
100
AcDbArc
 50
120.0
 51
180.0
  0
ARC
  5
299
330
1F
100
AcDbEntity
  8
0
  6
Continuous
 62
     7
370
    15
100
AcDbCircle
 10
570.5231281595
 20
388.67104993
 30
0.0
 40
7.190000000000066
100
AcDbArc
 50
240.0
 51
300.0
  0
LINE
  5
29A
330
1F
100
AcDbEntity
  8
0
  6
Continuous
 62
     7
370
    15
100
AcDbLine
 10
475.1826433485
 20
388.6710481252
 30
0.0
 11
471.5876450782
 21
382.4443259741
 31
0.0
  0
LINE
  5
29B
330
1F
100
AcDbEntity
  8
0
  6
Continuous
 62
     7
370
    15
100
AcDbLine
 10
471.5876450782
 20
382.4443259741
 30
0.0
 11
464.3976448124
 21
382.4443259741
 31
0.0
  0
LINE
  5
29C
330
1F
100
AcDbEntity
  8
0
  6
Continuous
 62
     7
370
    15
100
AcDbLine
 10
464.3976448124
 20
394.8977740015
 30
0.0
 11
471.5876450782
 21
394.8977740015
 31
0.0
  0
LINE
  5
29D
330
1F
100
AcDbEntity
  8
0
  6
Continuous
 62
     7
370
    15
100
AcDbLine
 10
471.5876450782
 20
394.8977740015
 30
0.0
 11
475.1826433485
 21
388.6710481252
 31
0.0
  0
LINE
  5
29E
330
1F
100
AcDbEntity
  8
0
  6
Continuous
 62
     7
370
    15
100
AcDbLine
 10
464.3976448124
 20
382.4443259741
 30
0.0
 11
460.8026465421
 21
388.6710481252
 31
0.0
  0
LINE
  5
29F
330
1F
100
AcDbEntity
  8
0
  6
Continuous
 62
     7
370
    15
100
AcDbLine
 10
460.8026465421
 20
388.6710481252
 30
0.0
 11
464.3976448124
 21
394.8977740015
 31
0.0
  0
ARC
  5
2A0
330
1F
100
AcDbEntity
  8
0
  6
Continuous
 62
     7
370
    15
100
AcDbCircle
 10
467.9926448875
 20
388.67104993
 30
0.0
 40
7.190000000000045
100
AcDbArc
 50
240.0
 51
300.0
  0
ARC
  5
2A1
330
1F
100
AcDbEntity
  8
0
  6
Continuous
 62
     7
370
    15
100
AcDbCircle
 10
467.9926448875
 20
388.67104993
 30
0.0
 40
7.189999999999988
100
AcDbArc
 50
180.0
 51
240.0
  0
ARC
  5
2A2
330
1F
100
AcDbEntity
  8
0
  6
Continuous
 62
     7
370
    15
100
AcDbCircle
 10
467.9926448875
 20
388.67104993
 30
0.0
 40
7.189999999999941
100
AcDbArc
 50
120.0
 51
180.0
  0
ARC
  5
2A3
330
1F
100
AcDbEntity
  8
0
  6
Continuous
 62
     7
370
    15
100
AcDbCircle
 10
467.9926448875
 20
388.67104993
 30
0.0
 40
7.190000000000045
100
AcDbArc
 50
300.0
 51
0.0
  0
ARC
  5
2A4
330
1F
100
AcDbEntity
  8
0
  6
Continuous
 62
     7
370
    15
100
AcDbCircle
 10
467.9926448875
 20
388.67104993
 30
0.0
 40
7.189999999999998
100
AcDbArc
 50
0.0
 51
60.0
  0
ARC
  5
2A5
330
1F
100
AcDbEntity
  8
0
  6
Continuous
 62
     7
370
    15
100
AcDbCircle
 10
467.9926448875
 20
388.67104993
 30
0.0
 40
7.189999999999996
100
AcDbArc
 50
60.0
 51
120.0
  0
LINE
  5
2A6
330
1F
100
AcDbEntity
  8
0
  6
Continuous
 62
     7
370
    15
100
AcDbLine
 10
574.1181282347
 20
497.4282571579
 30
0.0
 11
577.7131265049
 21
491.2015350069
 31
0.0
  0
LINE
  5
2A7
330
1F
100
AcDbEntity
  8
0
  6
Continuous
 62
     7
370
    15
100
AcDbLine
 10
577.7131265049
 20
491.2015350069
 30
0.0
 11
574.1181282347
 21
484.9748091306
 31
0.0
  0
LINE
  5
2A8
330
1F
100
AcDbEntity
  8
0
  6
Continuous
 62
     7
370
    15
100
AcDbLine
 10
566.9281279688
 20
484.9748091306
 30
0.0
 11
563.3331296985
 21
491.2015350069
 31
0.0
  0
LINE
  5
2A9
330
1F
100
AcDbEntity
  8
0
  6
Continuous
 62
     7
370
    15
100
AcDbLine
 10
563.3331296985
 20
491.2015350069
 30
0.0
 11
566.9281279688
 21
497.4282571579
 31
0.0
  0
LINE
  5
2AA
330
1F
100
AcDbEntity
  8
0
  6
Continuous
 62
     7
370
    15
100
AcDbLine
 10
566.9281279688
 20
497.4282571579
 30
0.0
 11
574.1181282347
 21
497.4282571579
 31
0.0
  0
LINE
  5
2AB
330
1F
100
AcDbEntity
  8
0
  6
Continuous
 62
     7
370
    15
100
AcDbLine
 10
574.1181282347
 20
484.9748091306
 30
0.0
 11
566.9281279688
 21
484.9748091306
 31
0.0
  0
ARC
  5
2AC
330
1F
100
AcDbEntity
  8
0
  6
Continuous
 62
     7
370
    15
100
AcDbCircle
 10
570.5231281595
 20
491.201533202
 30
0.0
 40
7.190000000000116
100
AcDbArc
 50
120.0
 51
180.0
  0
ARC
  5
2AD
330
1F
100
AcDbEntity
  8
0
  6
Continuous
 62
     7
370
    15
100
AcDbCircle
 10
570.5231281595
 20
491.201533202
 30
0.0
 40
7.190000000000058
100
AcDbArc
 50
0.0
 51
60.0
  0
ARC
  5
2AE
330
1F
100
AcDbEntity
  8
0
  6
Continuous
 62
     7
370
    15
100
AcDbCircle
 10
570.5231281595
 20
491.201533202
 30
0.0
 40
7.189999999999941
100
AcDbArc
 50
300.0
 51
0.0
  0
ARC
  5
2AF
330
1F
100
AcDbEntity
  8
0
  6
Continuous
 62
     7
370
    15
100
AcDbCircle
 10
570.5231281595
 20
491.201533202
 30
0.0
 40
7.190000000000055
100
AcDbArc
 50
180.0
 51
240.0
  0
ARC
  5
2B0
330
1F
100
AcDbEntity
  8
0
  6
Continuous
 62
     7
370
    15
100
AcDbCircle
 10
570.5231281595
 20
491.201533202
 30
0.0
 40
7.190000000000116
100
AcDbArc
 50
60.0
 51
120.0
  0
ARC
  5
2B1
330
1F
100
AcDbEntity
  8
0
  6
Continuous
 62
     7
370
    15
100
AcDbCircle
 10
570.5231281595
 20
491.201533202
 30
0.0
 40
7.189999999999968
100
AcDbArc
 50
240.0
 51
300.0
  0
LINE
  5
2B2
330
1F
100
AcDbEntity
  8
0
  6
Continuous
 62
     7
370
    15
100
AcDbLine
 10
464.3976448124
 20
497.4282571579
 30
0.0
 11
471.5876450782
 21
497.4282571579
 31
0.0
  0
LINE
  5
2B3
330
1F
100
AcDbEntity
  8
0
  6
Continuous
 62
     7
370
    15
100
AcDbLine
 10
471.5876450782
 20
497.4282571579
 30
0.0
 11
475.1826433485
 21
491.2015350069
 31
0.0
  0
LINE
  5
2B4
330
1F
100
AcDbEntity
  8
0
  6
Continuous
 62
     7
370
    15
100
AcDbLine
 10
460.8026465421
 20
491.2015350069
 30
0.0
 11
464.3976448124
 21
497.4282571579
 31
0.0
  0
LINE
  5
2B5
330
1F
100
AcDbEntity
  8
0
  6
Continuous
 62
     7
370
    15
100
AcDbLine
 10
475.1826433485
 20
491.2015350069
 30
0.0
 11
471.5876450782
 21
484.9748091306
 31
0.0
  0
LINE
  5
2B6
330
1F
100
AcDbEntity
  8
0
  6
Continuous
 62
     7
370
    15
100
AcDbLine
 10
471.5876450782
 20
484.9748091306
 30
0.0
 11
464.3976448124
 21
484.9748091306
 31
0.0
  0
LINE
  5
2B7
330
1F
100
AcDbEntity
  8
0
  6
Continuous
 62
     7
370
    15
100
AcDbLine
 10
464.3976448124
 20
484.9748091306
 30
0.0
 11
460.8026465421
 21
491.2015350069
 31
0.0
  0
ARC
  5
2B8
330
1F
100
AcDbEntity
  8
0
  6
Continuous
 62
     7
370
    15
100
AcDbCircle
 10
467.9926448875
 20
491.201533202
 30
0.0
 40
7.190000000000055
100
AcDbArc
 50
300.0
 51
0.0
  0
ARC
  5
2B9
330
1F
100
AcDbEntity
  8
0
  6
Continuous
 62
     7
370
    15
100
AcDbCircle
 10
467.9926448875
 20
491.201533202
 30
0.0
 40
7.190000000000017
100
AcDbArc
 50
60.0
 51
120.0
  0
ARC
  5
2BA
330
1F
100
AcDbEntity
  8
0
  6
Continuous
 62
     7
370
    15
100
AcDbCircle
 10
467.9926448875
 20
491.201533202
 30
0.0
 40
7.190000000000017
100
AcDbArc
 50
240.0
 51
300.0
  0
ARC
  5
2BB
330
1F
100
AcDbEntity
  8
0
  6
Continuous
 62
     7
370
    15
100
AcDbCircle
 10
467.9926448875
 20
491.201533202
 30
0.0
 40
7.190000000000017
100
AcDbArc
 50
120.0
 51
180.0
  0
ARC
  5
2BC
330
1F
100
AcDbEntity
  8
0
  6
Continuous
 62
     7
370
    15
100
AcDbCircle
 10
467.9926448875
 20
491.201533202
 30
0.0
 40
7.190000000000055
100
AcDbArc
 50
0.0
 51
60.0
  0
ARC
  5
2BD
330
1F
100
AcDbEntity
  8
0
  6
Continuous
 62
     7
370
    15
100
AcDbCircle
 10
467.9926448875
 20
491.201533202
 30
0.0
 40
7.190000000000017
100
AcDbArc
 50
180.0
 51
240.0
  0
LINE
  5
2BE
330
1F
100
AcDbEntity
  8
0
  6
Continuous
 62
     7
370
    15
100
AcDbLine
 10
526.2578867396
 20
478.9362923707
 30
0.0
 11
526.2578867396
 21
487.9362919833
 31
0.0
  0
SPLINE
  5
2BF
330
1F
100
AcDbEntity
  8
0
  6
Continuous
 62
     7
370
    15
100
AcDbSpline
210
0.0
220
0.0
230
1.0
 70
     8
 71
     3
 72
    15
 73
    11
 74
     0
 42
0.00000001
 43
0.00000001
 12
1.0
 22
0.0
 32
0.0
 13
1.0
 23
0.0
 33
0.0
 40
0.0
 40
0.0
 40
0.0
 40
0.0
 40
0.1249999053834623
 40
0.2500000296035733
 40
0.3749999942636322
 40
0.5000000000000346
 40
0.6250000057363677
 40
0.7499999703964266
 40
0.8750000946165377
 40
1.0
 40
1.0
 40
1.0
 40
1.0
 10
526.2578867395775
 20
478.9362923706859
 30
0.0
 10
526.1526651971984
 20
479.8524659406156
 30
0.0
 10
525.9422219282293
 20
481.6848146844151
 30
0.0
 10
524.3234808934899
 20
484.014902984178
 30
0.0
 10
522.0096638058203
 20
485.5718144411556
 30
0.0
 10
519.2578865235104
 20
486.1185302925102
 30
0.0
 10
516.5061092412005
 20
485.5718144411553
 30
0.0
 10
514.1922921535315
 20
484.014902984178
 30
0.0
 10
512.5735511187921
 20
481.6848146844151
 30
0.0
 10
512.363107849823
 20
479.8524659406156
 30
0.0
 10
512.2578863074439
 20
478.9362923706859
 30
0.0
  0
LINE
  5
2C0
330
1F
100
AcDbEntity
  8
0
  6
Continuous
 62
     7
370
    15
100
AcDbLine
 10
512.2578863074
 20
487.9362919833
 30
0.0
 11
512.2578863074
 21
478.9362923707
 31
0.0
  0
SPLINE
  5
2C1
330
1F
100
AcDbEntity
  8
0
  6
Continuous
 62
     7
370
    15
100
AcDbSpline
210
0.0
220
0.0
230
1.0
 70
     8
 71
     3
 72
    17
 73
    13
 74
     0
 42
0.00000001
 43
0.00000001
 12
1.0
 22
0.0
 32
0.0
 13
1.0
 23
0.0
 33
0.0
 40
0.0
 40
0.0
 40
0.0
 40
0.0
 40
0.1213783473240104
 40
0.2287704143932521
 40
0.3361526731291627
 40
0.4436164546014184
 40
0.5508534581634676
 40
0.6584382597736178
 40
0.7657324509372235
 40
0.8731532639263067
 40
0.9805548816852668
 40
1.0
 40
1.0
 40
1.0
 40
1.0
 10
526.2578867395775
 20
487.9362919832556
 30
0.0
 10
526.1591403669538
 20
488.8273130063778
 30
0.0
 10
525.9730260468712
 20
490.5066837770857
 30
0.0
 10
524.6149931030856
 20
492.6355002290137
 30
0.0
 10
522.7696769570363
 20
494.1478637530909
 30
0.0
 10
520.5129335331899
 20
494.9586586503596
 30
0.0
 10
518.1179689391338
 20
494.9784344773506
 30
0.0
 10
515.8513715457544
 20
494.2047122056952
 30
0.0
 10
513.9673237953376
 20
492.7224615003603
 30
0.0
 10
512.6851795399373
 20
490.7039960466381
 30
0.0
 10
512.2778204159856
 20
489.0032824478012
 30
0.0
 10
512.2605359498365
 20
488.0781163924855
 30
0.0
 10
512.2578863074439
 20
487.9362919832556
 30
0.0
  0
ARC
  5
2C2
330
1F
100
AcDbEntity
  8
0
  6
Continuous
 62
     7
370
    15
100
AcDbCircle
 10
531.2578865235
 20
473.877417063
 30
0.0
 40
4.999999999999949
100
AcDbArc
 50
180.0
 51
250.5287793655
  0
ARC
  5
2C3
330
1F
100
AcDbEntity
  8
0
  6
Continuous
 62
     7
370
    15
100
AcDbCircle
 10
519.2578865235
 20
439.936291566
 30
0.0
 40
31.00000000000002
100
AcDbArc
 50
349.4712206345
 51
70.5287793655
  0
ARC
  5
2C4
330
1F
100
AcDbEntity
  8
0
  6
Continuous
 62
     7
370
    15
100
AcDbCircle
 10
554.6517634369
 20
433.358033663
 30
0.0
 40
5.000000000000009
100
AcDbArc
 50
169.4712206345
 51
240.0
  0
LINE
  5
2C5
330
1F
100
AcDbEntity
  8
0
  6
Continuous
 62
     7
370
    15
100
AcDbLine
 10
556.5328767543
 20
426.4984691049
 30
0.0
 11
552.151764
 21
429.0279067586
 31
0.0
  0
SPLINE
  5
2C6
330
1F
100
AcDbEntity
  8
0
  6
Continuous
 62
     7
370
    15
100
AcDbSpline
210
0.0
220
0.0
230
1.0
 70
     8
 71
     3
 72
    15
 73
    11
 74
     0
 42
0.00000001
 43
0.00000001
 12
1.0
 22
0.0
 32
0.0
 13
1.0
 23
0.0
 33
0.0
 40
0.0
 40
0.0
 40
0.0
 40
0.0
 40
0.1249999727422009
 40
0.2500000625127978
 40
0.3749999674345826
 40
0.5000000245580339
 40
0.6249999973002349
 40
0.7500000075823017
 40
0.8750000271869244
 40
1.0
 40
1.0
 40
1.0
 40
1.0
 10
549.5328774695652
 20
414.3741132224887
 30
0.0
 10
550.3789182981266
 20
414.0071504284051
 30
0.0
 10
552.0710007473363
 20
413.2732244966775
 30
0.0
 10
554.8982867291941
 20
413.5100544291222
 30
0.0
 10
557.4035196987555
 20
414.7354220807421
 30
0.0
 10
559.2528803028082
 20
416.8451711661563
 30
0.0
 10
560.1552992584777
 20
419.5016397510917
 30
0.0
 10
559.9638768353788
 20
422.2839182383174
 30
0.0
 10
558.755336818283
 20
424.8508355176584
 30
0.0
 10
557.2736966831962
 20
425.9492579776786
 30
0.0
 10
556.5328767543093
 20
426.4984691048949
 30
0.0
  0
LINE
  5
2C7
330
1F
100
AcDbEntity
  8
0
  6
Continuous
 62
     7
370
    15
100
AcDbLine
 10
545.1517628526
 20
416.9035518075
 30
0.0
 11
549.5328774696
 21
414.3741132225
 31
0.0
  0
ARC
  5
2C8
330
1F
100
AcDbEntity
  8
0
  6
Continuous
 62
     7
370
    15
100
AcDbCircle
 10
542.6517634369
 20
412.5734239721
 30
0.0
 40
5.000000000000016
100
AcDbArc
 50
60.0
 51
130.5287793655
  0
ARC
  5
2C9
330
1F
100
AcDbEntity
  8
0
  6
Continuous
 62
     7
370
    15
100
AcDbCircle
 10
519.2578865235
 20
439.936291566
 30
0.0
 40
31.0000000000001
100
AcDbArc
 50
229.4712206345
 51
310.5287793655
  0
ARC
  5
2CA
330
1F
100
AcDbEntity
  8
0
  6
Continuous
 62
     7
370
    15
100
AcDbCircle
 10
495.8640096101
 20
412.5734239721
 30
0.0
 40
5.000000000000073
100
AcDbArc
 50
49.4712206345
 51
120.0
  0
LINE
  5
2CB
330
1F
100
AcDbEntity
  8
0
  6
Continuous
 62
     7
370
    15
100
AcDbLine
 10
488.9828955775
 20
414.3741132225
 30
0.0
 11
493.3640101944
 21
416.9035518075
 31
0.0
  0
SPLINE
  5
2CC
330
1F
100
AcDbEntity
  8
0
  6
Continuous
 62
     7
370
    15
100
AcDbSpline
210
0.0
220
0.0
230
1.0
 70
     8
 71
     3
 72
    15
 73
    11
 74
     0
 42
0.00000001
 43
0.00000001
 12
1.0
 22
0.0
 32
0.0
 13
1.0
 23
0.0
 33
0.0
 40
0.0
 40
0.0
 40
0.0
 40
0.0
 40
0.1249999728130756
 40
0.2499999924176984
 40
0.3750000026997652
 40
0.4999999754419661
 40
0.6250000325654175
 40
0.7499999374872023
 40
0.8750000272577991
 40
1.0
 40
1.0
 40
1.0
 40
1.0
 10
481.982896292712
 20
426.4984691048949
 30
0.0
 10
481.242076363825
 20
425.9492579776786
 30
0.0
 10
479.7604362287384
 20
424.8508355176584
 30
0.0
 10
478.5518962116425
 20
422.2839182383173
 30
0.0
 10
478.3604737885436
 20
419.5016397510917
 30
0.0
 10
479.2628927442131
 20
416.8451711661563
 30
0.0
 10
481.1122533482658
 20
414.7354220807421
 30
0.0
 10
483.6174863178273
 20
413.5100544291222
 30
0.0
 10
486.4447722996851
 20
413.2732244966775
 30
0.0
 10
488.1368547488947
 20
414.0071504284051
 30
0.0
 10
488.9828955774562
 20
414.3741132224887
 30
0.0
  0
LINE
  5
2CD
330
1F
100
AcDbEntity
  8
0
  6
Continuous
 62
     7
370
    15
100
AcDbLine
 10
486.3640090471
 20
429.0279067586
 30
0.0
 11
481.9828962927
 21
426.4984691049
 31
0.0
  0
ARC
  5
2CE
330
1F
100
AcDbEntity
  8
0
  6
Continuous
 62
     7
370
    15
100
AcDbCircle
 10
483.8640096101
 20
433.358033663
 30
0.0
 40
5.000000000000012
100
AcDbArc
 50
300.0
 51
10.5287793655
  0
ARC
  5
2CF
330
1F
100
AcDbEntity
  8
0
  6
Continuous
 62
     7
370
    15
100
AcDbCircle
 10
519.2578865235
 20
439.936291566
 30
0.0
 40
30.99999999999998
100
AcDbArc
 50
109.4712206345
 51
190.5287793655
  0
ARC
  5
2D0
330
1F
100
AcDbEntity
  8
0
  6
Continuous
 62
     7
370
    15
100
AcDbCircle
 10
507.2578865235
 20
473.877417063
 30
0.0
 40
5.000000000000026
100
AcDbArc
 50
289.4712206345
 51
0.0
  0
LINE
  5
2D1
330
1F
100
AcDbEntity
  8
0
  6
Continuous
 62
     7
370
    15
100
AcDbLine
 10
512.2578863074
 20
478.9362923707
 30
0.0
 11
512.2578863074
 21
473.8774152006
 31
0.0
  0
CIRCLE
  5
2D2
330
1F
100
AcDbEntity
  8
0
  6
Continuous
 62
     7
370
    15
100
AcDbCircle
 10
519.2578865235
 20
478.936291566
 30
0.0
 40
2.5
  0
CIRCLE
  5
2D3
330
1F
100
AcDbEntity
  8
0
  6
Continuous
 62
     7
370
    15
100
AcDbCircle
 10
553.0328772711
 20
420.436291566
 30
0.0
 40
2.5
  0
CIRCLE
  5
2D4
330
1F
100
AcDbEntity
  8
0
  6
Continuous
 62
     7
370
    15
100
AcDbCircle
 10
485.4828957759
 20
420.436291566
 30
0.0
 40
2.5
  0
LINE
  5
2D5
330
1F
100
AcDbEntity
  8
0
  6
Continuous
 62
     7
370
    15
100
AcDbLine
 10
526.2578867396
 20
473.8774152006
 30
0.0
 11
526.2578867396
 21
478.9362923707
 31
0.0
  0
LINE
  5
2D6
330
1F
100
AcDbEntity
  8
0
  6
Continuous
 62
     7
370
    15
100
AcDbLine
 10
474.1886688416
 20
421.9984692986
 30
0.0
 11
481.9828962927
 21
426.4984691049
 31
0.0
  0
LINE
  5
2D7
330
1F
100
AcDbEntity
  8
0
  6
Continuous
 62
     7
370
    15
100
AcDbLine
 10
488.9828955775
 20
414.3741132225
 30
0.0
 11
481.1886681264
 21
409.8741134162
 31
0.0
  0
SPLINE
  5
2D8
330
1F
100
AcDbEntity
  8
0
  6
Continuous
 62
     7
370
    15
100
AcDbSpline
210
0.0
220
0.0
230
1.0
 70
     8
 71
     3
 72
    17
 73
    13
 74
     0
 42
0.00000001
 43
0.00000001
 12
1.0
 22
0.0
 32
0.0
 13
1.0
 23
0.0
 33
0.0
 40
0.0
 40
0.0
 40
0.0
 40
0.0
 40
0.1213783310908782
 40
0.2287705016429374
 40
0.3361527474989803
 40
0.4436164547390193
 40
0.5508534261661047
 40
0.6584383144708851
 40
0.765732531611393
 40
0.873153182975337
 40
0.9805547654929891
 40
0.9999999999999999
 40
0.9999999999999999
 40
0.9999999999999999
 40
0.9999999999999999
 10
474.1886688416259
 20
421.99846929861
 30
0.0
 10
473.4663948552566
 20
421.4674422862688
 30
0.0
 10
472.1050729397195
 20
420.466577346807
 30
0.0
 10
470.9404788496486
 20
418.2260774861705
 30
0.0
 10
470.5533915218735
 20
415.8718043895767
 30
0.0
 10
470.9795943678553
 20
413.5120104702532
 30
0.0
 10
472.1599483353802
 20
411.4280210076811
 30
0.0
 10
473.9633127226768
 20
409.8519509842893
 30
0.0
 10
476.1890046033076
 20
408.9614490151029
 30
0.0
 10
478.5781186080173
 20
408.8603044694619
 30
0.0
 10
480.2546567066814
 20
409.3578847767108
 30
0.0
 10
481.06451872182
 20
409.8054959701493
 30
0.0
 10
481.1886681263701
 20
409.8741134162038
 30
0.0
  0
LINE
  5
2D9
330
1F
100
AcDbEntity
  8
0
  6
Continuous
 62
     7
370
    15
100
AcDbLine
 10
556.5328767543
 20
426.4984691049
 30
0.0
 11
564.3271042054
 21
421.9984692986
 31
0.0
  0
SPLINE
  5
2DA
330
1F
100
AcDbEntity
  8
0
  6
Continuous
 62
     7
370
    15
100
AcDbSpline
210
0.0
220
0.0
230
1.0
 70
     8
 71
     3
 72
    17
 73
    13
 74
     0
 42
0.00000001
 43
0.00000001
 12
1.0
 22
0.0
 32
0.0
 13
1.0
 23
0.0
 33
0.0
 40
0.0
 40
0.0
 40
0.0
 40
0.0
 40
0.121378379260704
 40
0.2287704068150261
 40
0.3361527147093739
 40
0.443616457756994
 40
0.5508534193744581
 40
0.6584381958343088
 40
0.7657324172266152
 40
0.8731530943169563
 40
0.9805547443855832
 40
1.0
 40
1.0
 40
1.0
 40
1.0
 10
557.3271049206512
 20
409.8741134162038
 30
0.0
 10
558.1481253049078
 20
409.5141192717672
 30
0.0
 10
559.6955604284761
 20
408.8356128740429
 30
0.0
 10
562.2181867283507
 20
408.9472964696645
 30
0.0
 10
564.4505913513401
 20
409.7892041061801
 30
0.0
 10
566.2811298156747
 20
411.3382063343044
 30
0.0
 10
567.4957430043846
 20
413.4024158315064
 30
0.0
 10
567.9589741718078
 20
415.752209582832
 30
0.0
 10
567.6173319685718
 20
418.1249673721853
 30
0.0
 10
566.5103636372031
 20
420.2445700754836
 30
0.0
 10
565.2411825945369
 20
421.4477133189397
 30
0.0
 10
564.4486041393005
 20
421.9252624315375
 30
0.0
 10
564.3271042053955
 20
421.99846929861
 30
0.0
  0
LINE
  5
2DB
330
1F
100
AcDbEntity
  8
0
  6
Continuous
 62
     7
370
    15
100
AcDbLine
 10
557.3271049207
 20
409.8741134162
 30
0.0
 11
549.5328774696
 21
414.3741132225
 31
0.0
  0
CIRCLE
  5
2DC
330
1F
100
AcDbEntity
  8
0
  6
Continuous
 62
     7
370
    15
100
AcDbCircle
 10
519.2578865235
 20
478.936291566
 30
0.0
 40
2.100000000000023
  0
CIRCLE
  5
2DD
330
1F
100
AcDbEntity
  8
0
  6
Continuous
 62
     7
370
    15
100
AcDbCircle
 10
553.0328772711
 20
420.436291566
 30
0.0
 40
2.099999999999909
  0
CIRCLE
  5
2DE
330
1F
100
AcDbEntity
  8
0
  6
Continuous
 62
     7
370
    15
100
AcDbCircle
 10
485.4828957759
 20
420.436291566
 30
0.0
 40
2.100000000000023
  0
ARC
  5
2DF
330
1F
100
AcDbEntity
  8
0
  6
Continuous
 62
     7
370
    15
100
AcDbCircle
 10
470.479851051
 20
500.8025651125
 30
0.0
 40
2.000000000000056
100
AcDbArc
 50
65.240102306
 51
128.708573461
  0
LINE
  5
2E0
330
1F
100
AcDbEntity
  8
0
  6
Continuous
 62
     7
370
    15
100
AcDbLine
 10
481.8721769398
 20
497.7507145609
 30
0.0
 11
471.3174833005
 21
502.6187041308
 31
0.0
  0
ARC
  5
2E1
330
1F
100
AcDbEntity
  8
0
  6
Continuous
 62
     7
370
    15
100
AcDbCircle
 10
483.1286264259
 20
500.4749285246
 30
0.0
 40
3.000000000000057
100
AcDbArc
 50
245.240102306
 51
300.8286141035
  0
ARC
  5
2E2
330
1F
100
AcDbEntity
  8
0
  6
Continuous
 62
     7
370
    15
100
AcDbCircle
 10
519.2578865235
 20
439.936291566
 30
0.0
 40
67.50000000000007
100
AcDbArc
 50
59.1713858965
 51
120.8286141035
  0
ARC
  5
2E3
330
1F
100
AcDbEntity
  8
0
  6
Continuous
 62
     7
370
    15
100
AcDbCircle
 10
555.3871466211
 20
500.4749285246
 30
0.0
 40
3.000000000000053
100
AcDbArc
 50
239.1713858965
 51
294.759897694
  0
LINE
  5
2E4
330
1F
100
AcDbEntity
  8
0
  6
Continuous
 62
     7
370
    15
100
AcDbLine
 10
567.1982897465
 20
502.6187041308
 30
0.0
 11
556.6435961073
 21
497.7507145609
 31
0.0
  0
ARC
  5
2E5
330
1F
100
AcDbEntity
  8
0
  6
Continuous
 62
     7
370
    15
100
AcDbCircle
 10
568.0359219961
 20
500.8025651125
 30
0.0
 40
1.999999999999988
100
AcDbArc
 50
51.291426539
 51
114.759897694
  0
ARC
  5
2E6
330
1F
100
AcDbEntity
  8
0
  6
Continuous
 62
     7
370
    15
100
AcDbCircle
 10
519.2578865235
 20
439.936291566
 30
0.0
 40
80.00000000000003
100
AcDbArc
 50
38.708573461
 51
51.291426539
  0
ARC
  5
2E7
330
1F
100
AcDbEntity
  8
0
  6
Continuous
 62
     7
370
    15
100
AcDbCircle
 10
580.12416007
 20
488.7143270386
 30
0.0
 40
1.999999999999988
100
AcDbArc
 50
335.240102306
 51
38.708573461
  0
LINE
  5
2E8
330
1F
100
AcDbEntity
  8
0
  6
Continuous
 62
     7
370
    15
100
AcDbLine
 10
577.0723095184
 20
477.3220011498
 30
0.0
 11
581.9402990883
 21
487.8766947891
 31
0.0
  0
ARC
  5
2E9
330
1F
100
AcDbEntity
  8
0
  6
Continuous
 62
     7
370
    15
100
AcDbCircle
 10
579.7965234821
 20
476.0655516636
 30
0.0
 40
3.000000000000009
100
AcDbArc
 50
155.240102306
 51
210.8286141035
  0
ARC
  5
2EA
330
1F
100
AcDbEntity
  8
0
  6
Continuous
 62
     7
370
    15
100
AcDbCircle
 10
519.2578865235
 20
439.936291566
 30
0.0
 40
67.50000000000011
100
AcDbArc
 50
329.1713858965
 51
30.8286141035
  0
ARC
  5
2EB
330
1F
100
AcDbEntity
  8
0
  6
Continuous
 62
     7
370
    15
100
AcDbCircle
 10
579.7965234821
 20
403.8070314684
 30
0.0
 40
2.999999999999954
100
AcDbArc
 50
149.1713858965
 51
204.759897694
  0
LINE
  5
2EC
330
1F
100
AcDbEntity
  8
0
  6
Continuous
 62
     7
370
    15
100
AcDbLine
 10
581.9402990883
 20
391.995888343
 30
0.0
 11
577.0723095184
 21
402.5505819823
 31
0.0
  0
ARC
  5
2ED
330
1F
100
AcDbEntity
  8
0
  6
Continuous
 62
     7
370
    15
100
AcDbCircle
 10
580.12416007
 20
391.1582560935
 30
0.0
 40
2.000000000000029
100
AcDbArc
 50
321.291426539
 51
24.759897694
  0
ARC
  5
2EE
330
1F
100
AcDbEntity
  8
0
  6
Continuous
 62
     7
370
    15
100
AcDbCircle
 10
519.2578865235
 20
439.936291566
 30
0.0
 40
80.00000000000007
100
AcDbArc
 50
308.708573461
 51
321.291426539
  0
ARC
  5
2EF
330
1F
100
AcDbEntity
  8
0
  6
Continuous
 62
     7
370
    15
100
AcDbCircle
 10
568.0359219961
 20
379.0700180195
 30
0.0
 40
1.999999999999988
100
AcDbArc
 50
245.240102306
 51
308.708573461
  0
LINE
  5
2F0
330
1F
100
AcDbEntity
  8
0
  6
Continuous
 62
     7
370
    15
100
AcDbLine
 10
556.6435961073
 20
382.1218685712
 30
0.0
 11
567.1982897465
 21
377.2538790013
 31
0.0
  0
ARC
  5
2F1
330
1F
100
AcDbEntity
  8
0
  6
Continuous
 62
     7
370
    15
100
AcDbCircle
 10
555.3871466211
 20
379.3976546075
 30
0.0
 40
3.000000000000012
100
AcDbArc
 50
65.240102306
 51
120.8286141035
  0
ARC
  5
2F2
330
1F
100
AcDbEntity
  8
0
  6
Continuous
 62
     7
370
    15
100
AcDbCircle
 10
519.2578865235
 20
439.936291566
 30
0.0
 40
67.50000000000009
100
AcDbArc
 50
239.1713858965
 51
300.8286141035
  0
ARC
  5
2F3
330
1F
100
AcDbEntity
  8
0
  6
Continuous
 62
     7
370
    15
100
AcDbCircle
 10
483.1286264259
 20
379.3976546075
 30
0.0
 40
2.999999999999977
100
AcDbArc
 50
59.1713858965
 51
114.759897694
  0
LINE
  5
2F4
330
1F
100
AcDbEntity
  8
0
  6
Continuous
 62
     7
370
    15
100
AcDbLine
 10
471.3174833005
 20
377.2538790013
 30
0.0
 11
481.8721769398
 21
382.1218685712
 31
0.0
  0
ARC
  5
2F5
330
1F
100
AcDbEntity
  8
0
  6
Continuous
 62
     7
370
    15
100
AcDbCircle
 10
470.479851051
 20
379.0700180195
 30
0.0
 40
2.000000000000012
100
AcDbArc
 50
231.291426539
 51
294.759897694
  0
ARC
  5
2F6
330
1F
100
AcDbEntity
  8
0
  6
Continuous
 62
     7
370
    15
100
AcDbCircle
 10
519.2578865235
 20
439.936291566
 30
0.0
 40
80.00000000000003
100
AcDbArc
 50
218.708573461
 51
231.291426539
  0
ARC
  5
2F7
330
1F
100
AcDbEntity
  8
0
  6
Continuous
 62
     7
370
    15
100
AcDbCircle
 10
458.391612977
 20
391.1582560935
 30
0.0
 40
2.000000000000064
100
AcDbArc
 50
155.240102306
 51
218.708573461
  0
LINE
  5
2F8
330
1F
100
AcDbEntity
  8
0
  6
Continuous
 62
     7
370
    15
100
AcDbLine
 10
461.4434635287
 20
402.5505819823
 30
0.0
 11
456.5754739588
 21
391.995888343
 31
0.0
  0
ARC
  5
2F9
330
1F
100
AcDbEntity
  8
0
  6
Continuous
 62
     7
370
    15
100
AcDbCircle
 10
458.719249565
 20
403.8070314684
 30
0.0
 40
3.000000000000057
100
AcDbArc
 50
335.240102306
 51
30.8286141035
  0
ARC
  5
2FA
330
1F
100
AcDbEntity
  8
0
  6
Continuous
 62
     7
370
    15
100
AcDbCircle
 10
519.2578865235
 20
439.936291566
 30
0.0
 40
67.49999999999996
100
AcDbArc
 50
149.1713858965
 51
210.8286141035
  0
ARC
  5
2FB
330
1F
100
AcDbEntity
  8
0
  6
Continuous
 62
     7
370
    15
100
AcDbCircle
 10
458.719249565
 20
476.0655516636
 30
0.0
 40
3.000000000000041
100
AcDbArc
 50
329.1713858965
 51
24.759897694
  0
LINE
  5
2FC
330
1F
100
AcDbEntity
  8
0
  6
Continuous
 62
     7
370
    15
100
AcDbLine
 10
456.5754739588
 20
487.8766947891
 30
0.0
 11
461.4434635287
 21
477.3220011498
 31
0.0
  0
ARC
  5
2FD
330
1F
100
AcDbEntity
  8
0
  6
Continuous
 62
     7
370
    15
100
AcDbCircle
 10
458.391612977
 20
488.7143270386
 30
0.0
 40
2.000000000000063
100
AcDbArc
 50
141.291426539
 51
204.759897694
  0
ARC
  5
2FE
330
1F
100
AcDbEntity
  8
0
  6
Continuous
 62
     7
370
    15
100
AcDbCircle
 10
519.2578865235
 20
439.936291566
 30
0.0
 40
80.00000000000003
100
AcDbArc
 50
128.708573461
 51
141.291426539
  0
ARC
  5
2FF
330
1F
100
AcDbEntity
  8
0
  6
Continuous
 62
     7
370
    15
100
AcDbCircle
 10
507.2578865235
 20
488.4749359641
 30
0.0
 40
5.000000000000625
100
AcDbArc
 50
0.0
 51
103.8865403626
  0
ARC
  5
300
330
1F
100
AcDbEntity
  8
0
  6
Continuous
 62
     7
370
    15
100
AcDbCircle
 10
519.2578865235
 20
439.936291566
 30
0.0
 40
54.99999999999999
100
AcDbArc
 50
103.8865403626
 51
196.1134596374
  0
ARC
  5
301
330
1F
100
AcDbEntity
  8
0
  6
Continuous
 62
     7
370
    15
100
AcDbCircle
 10
471.2221874095
 20
426.0592742124
 30
0.0
 40
4.999999999999973
100
AcDbArc
 50
196.1134596374
 51
300.0
  0
ARC
  5
302
330
1F
100
AcDbEntity
  8
0
  6
Continuous
 62
     7
370
    15
100
AcDbCircle
 10
483.2221874095
 20
405.2746645216
 30
0.0
 40
5.000000000000005
100
AcDbArc
 50
120.0
 51
223.8865403626
  0
ARC
  5
303
330
1F
100
AcDbEntity
  8
0
  6
Continuous
 62
     7
370
    15
100
AcDbCircle
 10
519.2578865235
 20
439.936291566
 30
0.0
 40
55.00000000000007
100
AcDbArc
 50
223.8865403626
 51
316.1134596374
  0
ARC
  5
304
330
1F
100
AcDbEntity
  8
0
  6
Continuous
 62
     7
370
    15
100
AcDbCircle
 10
555.2935856375
 20
405.2746645216
 30
0.0
 40
5.000000000000007
100
AcDbArc
 50
316.1134596374
 51
60.0
  0
ARC
  5
305
330
1F
100
AcDbEntity
  8
0
  6
Continuous
 62
     7
370
    15
100
AcDbCircle
 10
567.2935856375
 20
426.0592742124
 30
0.0
 40
5.000000000000067
100
AcDbArc
 50
240.0
 51
343.8865403626
  0
ARC
  5
306
330
1F
100
AcDbEntity
  8
0
  6
Continuous
 62
     7
370
    15
100
AcDbCircle
 10
519.2578865235
 20
439.936291566
 30
0.0
 40
55.00000000000006
100
AcDbArc
 50
343.8865403626
 51
76.1134596374
  0
ARC
  5
307
330
1F
100
AcDbEntity
  8
0
  6
Continuous
 62
     7
370
    15
100
AcDbCircle
 10
531.2578865235
 20
488.4749359641
 30
0.0
 40
5.0
100
AcDbArc
 50
76.1134596374
 51
180.0
  0
LINE
  5
308
330
1F
100
AcDbEntity
  8
0
  6
Continuous
 62
     7
370
    15
100
AcDbLine
 10
564.3271042054
 20
421.9984692986
 30
0.0
 11
564.7935850566
 21
421.7291475738
 31
0.0
  0
LINE
  5
309
330
1F
100
AcDbEntity
  8
0
  6
Continuous
 62
     7
370
    15
100
AcDbLine
 10
557.7935857718
 20
409.6047916914
 30
0.0
 11
557.3271049207
 21
409.8741134162
 31
0.0
  0
LINE
  5
30A
330
1F
100
AcDbEntity
  8
0
  6
Continuous
 62
     7
370
    15
100
AcDbLine
 10
473.7221879905
 20
421.7291475738
 30
0.0
 11
474.1886688416
 21
421.9984692986
 31
0.0
  0
LINE
  5
30B
330
1F
100
AcDbEntity
  8
0
  6
Continuous
 62
     7
370
    15
100
AcDbLine
 10
481.1886681264
 20
409.8741134162
 30
0.0
 11
480.7221872752
 21
409.6047916914
 31
0.0
  0
LINE
  5
30C
330
1F
100
AcDbEntity
  8
0
  6
Continuous
 62
     7
370
    15
100
AcDbLine
 10
512.2578863074
 20
487.9362919833
 30
0.0
 11
512.2578863074
 21
488.4749354328
 31
0.0
  0
LINE
  5
30D
330
1F
100
AcDbEntity
  8
0
  6
Continuous
 62
     7
370
    15
100
AcDbLine
 10
526.2578867396
 20
488.4749354328
 30
0.0
 11
526.2578867396
 21
487.9362919833
 31
0.0
  0
CIRCLE
  5
30E
330
1F
100
AcDbEntity
  8
0
  6
Continuous
 62
     7
370
    15
100
AcDbCircle
 10
519.2578865235
 20
439.936291566
 30
0.0
 40
19.5
  0
LWPOLYLINE
  5
30F
330
1F
100
AcDbEntity
  8
0
  6
Continuous
 62
     7
370
    15
100
AcDbPolyline
 90
       17
 70
   128
 43
0.0
 10
643.3432756012
 20
374.594148388
 10
643.1298239177
 20
374.8089560772
 10
643.0276764577
 20
375.2851673867
 10
643.0523825829
 20
375.9502807165
 10
643.2001797502
 20
376.7030426766
 10
643.4485672062
 20
377.4288558866
 10
643.7597332542
 20
378.0172170605
 10
644.0862996524
 20
378.378551593
 10
644.3785561269
 20
378.4578518475
 10
644.5920003598
 20
378.2430478836
 10
644.6941478198
 20
377.7668402995
 10
644.6694416945
 20
377.1017232443
 10
644.5216519778
 20
376.3489612843
 10
644.2732645219
 20
375.6231480743
 10
643.9620984738
 20
375.0347906257
 10
643.6355320757
 20
374.6734523679
 10
643.3432756012
 20
374.594148388
  0
LWPOLYLINE
  5
310
330
1F
100
AcDbEntity
  8
0
  6
Continuous
 62
     7
370
    15
100
AcDbPolyline
 90
       11
 70
   128
 43
0.0
 10
652.048615927
 20
378.313362738
 10
652.3140950148
 20
378.055080911
 10
652.5273157304
 20
377.431299677
 10
652.5883061831
 20
376.532387128
 10
652.4911059087
 20
375.446323445
 10
652.2452218478
 20
374.2794358636
 10
651.8747193759
 20
373.1459343339
 10
651.4158679192
 20
372.1567729021
 10
650.9135944789
 20
371.4087867643
 10
650.4170430844
 20
370.9751927759
 10
650.1002891009
 20
370.8828502799
  0
LWPOLYLINE
  5
311
330
1F
100
AcDbEntity
  8
0
  6
Continuous
 62
     7
370
    15
100
AcDbPolyline
 90
       17
 70
   128
 43
0.0
 10
628.2914636677
 20
438.6732889338
 10
628.0780194347
 20
438.8880935962
 10
627.9758719747
 20
439.3643032176
 10
628.0005781
 20
440.0294190068
 10
628.1483752673
 20
440.7821832224
 10
628.3967552727
 20
441.5079942205
 10
628.7079213207
 20
442.0963541138
 10
629.0344877188
 20
442.4576900433
 10
629.3267441933
 20
442.5369921605
 10
629.5401884263
 20
442.3221874981
 10
629.6423358863
 20
441.8459779349
 10
629.617629761
 20
441.1808620439
 10
629.4698325937
 20
440.428097872
 10
629.2214525883
 20
439.7022868447
 10
628.9102865403
 20
439.113927097
 10
628.5837201422
 20
438.7525910511
 10
628.2914636677
 20
438.6732889338
  0
LWPOLYLINE
  5
312
330
1F
100
AcDbEntity
  8
0
  6
Continuous
 62
     7
370
    15
100
AcDbPolyline
 90
       17
 70
   128
 43
0.0
 10
658.3547873442
 20
430.6178485508
 10
658.1413282101
 20
430.8326525147
 10
658.0391807502
 20
431.3088628928
 10
658.0638868754
 20
431.9739780853
 10
658.2116914933
 20
432.7267423737
 10
658.4600789492
 20
433.452553721
 10
658.7712300961
 20
434.0409130323
 10
659.0978039449
 20
434.4022494274
 10
659.3900604193
 20
434.4815515446
 10
659.6035046523
 20
434.2667466494
 10
659.7056521123
 20
433.7905372026
 10
659.680945987
 20
433.1254215444
 10
659.5331562703
 20
432.3726572561
 10
659.2847688144
 20
431.6468463744
 10
658.9736027663
 20
431.0584861319
 10
658.6470289176
 20
430.697150668
 10
658.3547873442
 20
430.6178485508
  0
LWPOLYLINE
  5
313
330
1F
100
AcDbEntity
  8
0
  6
Continuous
 62
     7
370
    15
100
AcDbPolyline
 90
       11
 70
   128
 43
0.0
 10
667.0601202195
 20
434.3370587098
 10
667.3255993073
 20
434.0787773485
 10
667.5388200228
 20
433.4549989085
 10
667.5998104756
 20
432.5560835655
 10
667.5026102011
 20
431.4700245391
 10
667.2567261403
 20
430.3031313698
 10
666.8862236684
 20
429.1696289088
 10
666.4273722117
 20
428.1804712023
 10
665.9250987714
 20
427.4324850644
 10
665.4285473769
 20
426.998888282
 10
665.1117933934
 20
426.9065523053
  0
LINE
  5
314
330
1F
100
AcDbEntity
  8
0
  6
Continuous
 62
     7
370
    15
100
AcDbLine
 10
657.3249084895
 20
392.8288185502
 30
0.0
 11
657.3732031529
 21
392.815880617
 31
0.0
  0
LWPOLYLINE
  5
315
330
1F
100
AcDbEntity
  8
0
  6
Continuous
 62
     7
370
    15
100
AcDbPolyline
 90
        7
 70
   128
 43
0.0
 10
657.3732031529
 20
392.815880617
 10
657.3062224334
 20
392.5658801104
 10
657.2438014691
 20
392.3329153563
 10
657.1901870911
 20
392.1328672673
 10
657.1490598862
 20
391.9793629552
 10
657.1232063716
 20
391.8828667606
 10
657.1143848841
 20
391.8499538208
  0
LINE
  5
316
330
1F
100
AcDbEntity
  8
0
  6
Continuous
 62
     7
370
    15
100
AcDbLine
 10
662.4294651692
 20
411.6861076559
 30
0.0
 11
662.3811705058
 21
411.6990493144
 31
0.0
  0
LINE
  5
317
330
1F
100
AcDbEntity
  8
0
  6
Continuous
 62
     7
370
    15
100
AcDbLine
 10
662.4294651692
 20
411.6861076559
 30
0.0
 11
657.3732031529
 21
392.815880617
 31
0.0
  0
LWPOLYLINE
  5
318
330
1F
100
AcDbEntity
  8
0
  6
Continuous
 62
     7
370
    15
100
AcDbPolyline
 90
        7
 70
   128
 43
0.0
 10
662.688283438
 20
412.6520325894
 10
662.6794619506
 20
412.6191196497
 10
662.6536084359
 20
412.5226234551
 10
662.612481231
 20
412.3691210057
 10
662.5588817542
 20
412.169071054
 10
662.4964607899
 20
411.9361081625
 10
662.4294651692
 20
411.6861076559
  0
LINE
  5
319
330
1F
100
AcDbEntity
  8
0
  6
Continuous
 62
     7
370
    15
100
AcDbLine
 10
662.253616566
 20
410.8366501982
 30
0.0
 11
662.2053219025
 21
410.8495918567
 31
0.0
  0
LINE
  5
31A
330
1F
100
AcDbEntity
  8
0
  6
Continuous
 62
     7
370
    15
100
AcDbLine
 10
662.253616566
 20
410.8366501982
 30
0.0
 11
657.645641083
 21
393.6394528951
 31
0.0
  0
LINE
  5
31B
330
1F
100
AcDbEntity
  8
0
  6
Continuous
 62
     7
370
    15
100
AcDbLine
 10
657.645641083
 20
393.6394528951
 30
0.0
 11
657.5973464196
 21
393.6523945536
 31
0.0
  0
LWPOLYLINE
  5
31C
330
1F
100
AcDbEntity
  8
0
  6
Continuous
 62
     7
370
    15
100
AcDbPolyline
 90
        9
 70
   128
 43
0.0
 10
629.9540085738
 20
446.1994391399
 10
629.5582858866
 20
446.1920840199
 10
629.1210858171
 20
445.9734281058
 10
628.6591945236
 20
445.5518733243
 10
628.1903667395
 20
444.9436200316
 10
627.7326254194
 20
444.1720434929
 10
627.3035539334
 20
443.2667949236
 10
626.919647867
 20
442.2626620158
 10
626.5956519192
 20
441.1982334218
  0
LINE
  5
31D
330
1F
100
AcDbEntity
  8
0
  6
Continuous
 62
     7
370
    15
100
AcDbLine
 10
660.3476835435
 20
438.0554770119
 30
0.0
 11
629.9540085738
 21
446.1994391399
 31
0.0
  0
LWPOLYLINE
  5
31E
330
1F
100
AcDbEntity
  8
0
  6
Continuous
 62
     7
370
    15
100
AcDbPolyline
 90
        9
 70
   128
 43
0.0
 10
660.755498523
 20
432.0451283361
 10
661.0071344321
 20
433.128947066
 10
661.1767245477
 20
434.1905062552
 10
661.2577570622
 20
435.1890097837
 10
661.2471325343
 20
436.0860862303
 10
661.1452532952
 20
436.8472612928
 10
660.956008548
 20
437.4432835261
 10
660.686714763
 20
437.851247983
 10
660.3476835435
 20
438.0554770119
  0
LINE
  5
31F
330
1F
100
AcDbEntity
  8
0
  6
Continuous
 62
     7
370
    15
100
AcDbLine
 10
645.4851759618
 20
375.0555032398
 30
0.0
 11
660.755498523
 21
432.0451283361
 31
0.0
  0
LWPOLYLINE
  5
320
330
1F
100
AcDbEntity
  8
0
  6
Continuous
 62
     7
370
    15
100
AcDbPolyline
 90
        9
 70
   128
 43
0.0
 10
642.1268267577
 20
370.0543010141
 10
642.5225419944
 20
370.0616547371
 10
642.9597495144
 20
370.2803069259
 10
643.4216408079
 20
370.7018682267
 10
643.890468592
 20
371.3101187254
 10
644.3482024615
 20
372.0816934015
 10
644.7772813981
 20
372.9869463946
 10
645.1611949151
 20
373.9910760428
 10
645.4851759618
 20
375.0555032398
  0
LINE
  5
321
330
1F
100
AcDbEntity
  8
0
  6
Continuous
 62
     7
370
    15
100
AcDbLine
 10
617.2578839605
 20
376.7179140354
 30
0.0
 11
642.1268267577
 21
370.0543010141
 31
0.0
  0
LINE
  5
322
330
1F
100
AcDbEntity
  8
0
  6
Continuous
 62
     7
370
    15
100
AcDbLine
 10
626.5956519192
 20
441.1982334218
 30
0.0
 11
623.3604161089
 21
429.1241608093
 31
0.0
  0
LWPOLYLINE
  5
323
330
1F
100
AcDbEntity
  8
0
  6
Continuous
 62
     7
370
    15
100
AcDbPolyline
 90
        9
 70
   128
 43
0.0
 10
626.9920898621
 20
441.0920078167
 10
627.2478757446
 20
441.9323463458
 10
627.5509579127
 20
442.7250827662
 10
627.8896985595
 20
443.4397527016
 10
628.2510740702
 20
444.0488923806
 10
628.6212040131
 20
444.5290920789
 10
628.9858503287
 20
444.8618983383
 10
629.331013376
 20
445.0345217715
 10
629.643423671
 20
445.0403281021
  0
LINE
  5
324
330
1F
100
AcDbEntity
  8
0
  6
Continuous
 62
     7
370
    15
100
AcDbLine
 10
626.9920898621
 20
441.0920078167
 30
0.0
 11
623.7568540519
 21
429.0179350878
 31
0.0
  0
LINE
  5
325
330
1F
100
AcDbEntity
  8
0
  6
Continuous
 62
     7
370
    15
100
AcDbLine
 10
617.2578839605
 20
377.9602424706
 30
0.0
 11
642.4374116605
 21
371.2134101893
 31
0.0
  0
LWPOLYLINE
  5
326
330
1F
100
AcDbEntity
  8
0
  6
Continuous
 62
     7
370
    15
100
AcDbPolyline
 90
        9
 70
   128
 43
0.0
 10
645.0887454694
 20
375.1617336179
 10
644.8329521363
 20
374.321390083
 10
644.5298774188
 20
373.528655758
 10
644.1911293214
 20
372.8139886166
 10
643.8297538107
 20
372.2048440482
 10
643.4596313184
 20
371.7246466781
 10
643.0949775522
 20
371.3918366934
 10
642.7498219555
 20
371.2192141916
 10
642.4374116605
 20
371.2134101893
  0
LINE
  5
327
330
1F
100
AcDbEntity
  8
0
  6
Continuous
 62
     7
370
    15
100
AcDbLine
 10
645.0887454694
 20
375.1617336179
 30
0.0
 11
660.3590680306
 21
432.151353592
 31
0.0
  0
LWPOLYLINE
  5
328
330
1F
100
AcDbEntity
  8
0
  6
Continuous
 62
     7
370
    15
100
AcDbPolyline
 90
        9
 70
   128
 43
0.0
 10
660.0370986407
 20
436.896365974
 10
660.3047532981
 20
436.7351326159
 10
660.517363066
 20
436.4130554254
 10
660.6667621081
 20
435.9425116795
 10
660.7471985762
 20
435.3415837045
 10
660.75558793
 20
434.6333655062
 10
660.6916023438
 20
433.8450731243
 10
660.5577154105
 20
433.0070006195
 10
660.3590680306
 20
432.151353592
  0
LINE
  5
329
330
1F
100
AcDbEntity
  8
0
  6
Continuous
 62
     7
370
    15
100
AcDbLine
 10
660.0370986407
 20
436.896365974
 30
0.0
 11
629.643423671
 21
445.0403281021
 31
0.0
  0
LINE
  5
32A
330
1F
100
AcDbEntity
  8
0
  6
Continuous
 62
     7
370
    15
100
AcDbLine
 10
645.4851759618
 20
375.0555032398
 30
0.0
 11
649.3881775086
 21
374.0097024943
 31
0.0
  0
LWPOLYLINE
  5
32B
330
1F
100
AcDbEntity
  8
0
  6
Continuous
 62
     7
370
    15
100
AcDbPolyline
 90
        9
 70
   128
 43
0.0
 10
646.0298283046
 20
369.008492818
 10
646.4255435412
 20
369.0158465411
 10
646.8627436106
 20
369.2345061804
 10
647.3246349042
 20
369.6560600306
 10
647.7934552377
 20
370.2643105294
 10
648.2512040084
 20
371.035892656
 10
648.6802680438
 20
371.9411381985
 10
649.0641815608
 20
372.9452678467
 10
649.3881775086
 20
374.0097024943
  0
LINE
  5
32C
330
1F
100
AcDbEntity
  8
0
  6
Continuous
 62
     7
370
    15
100
AcDbLine
 10
646.0298283046
 20
369.008492818
 30
0.0
 11
642.1268267577
 21
370.0543010141
 31
0.0
  0
LINE
  5
32D
330
1F
100
AcDbEntity
  8
0
  6
Continuous
 62
     7
370
    15
100
AcDbLine
 10
664.6585000699
 20
430.9993238653
 30
0.0
 11
660.755498523
 21
432.0451283361
 31
0.0
  0
LINE
  5
32E
330
1F
100
AcDbEntity
  8
0
  6
Continuous
 62
     7
370
    15
100
AcDbLine
 10
649.3881775086
 20
374.0097024943
 30
0.0
 11
664.6585000699
 21
430.9993238653
 31
0.0
  0
LINE
  5
32F
330
1F
100
AcDbEntity
  8
0
  6
Continuous
 62
     7
370
    15
100
AcDbLine
 10
660.3476835435
 20
438.0554770119
 30
0.0
 11
664.2506850903
 21
437.0096725411
 31
0.0
  0
LWPOLYLINE
  5
330
330
1F
100
AcDbEntity
  8
0
  6
Continuous
 62
     7
370
    15
100
AcDbPolyline
 90
        9
 70
   128
 43
0.0
 10
664.6585000699
 20
430.9993238653
 10
664.9101210778
 20
432.0831430609
 10
665.0797260945
 20
433.1447017844
 10
665.1607586091
 20
434.1432053129
 10
665.1501340812
 20
435.0402817595
 10
665.0482399409
 20
435.801456822
 10
664.8590100949
 20
436.3974790554
 10
664.5897014087
 20
436.8054435122
 10
664.2506850903
 20
437.0096725411
  0
ARC
  5
331
330
1F
100
AcDbEntity
  8
0
  6
Continuous
 62
     7
370
    15
100
AcDbCircle
 10
633.4057616023
 20
443.5297110048
 30
0.0
 40
0.4856283913884126
100
AcDbArc
 50
343.274747337
 51
73.1637485565
  0
LINE
  5
332
330
1F
100
AcDbEntity
  8
0
  6
Continuous
 62
     7
370
    15
100
AcDbLine
 10
653.0949605649
 20
382.1269014384
 30
0.0
 11
663.8100577538
 21
422.1162313129
 31
0.0
  0
LWPOLYLINE
  5
333
330
1F
100
AcDbEntity
  8
0
  6
Continuous
 62
     7
370
    15
100
AcDbPolyline
 90
        9
 70
   128
 43
0.0
 10
654.3660743182
 20
381.786305597
 10
654.2145891135
 20
381.220977893
 10
654.0689302628
 20
380.6773760821
 10
653.9347006028
 20
380.1763878669
 10
653.817041034
 20
379.7372692729
 10
653.7204815095
 20
379.37689214
 10
653.6487175172
 20
379.1091108228
 10
653.6045355742
 20
378.9442108477
 10
653.5896195119
 20
378.8885289337
  0
ARC
  5
334
330
1F
100
AcDbEntity
  8
0
  6
Continuous
 62
     7
370
    15
100
AcDbCircle
 10
651.6577660582
 20
379.4061672008
 30
0.0
 40
1.999999999999942
100
AcDbArc
 50
294.7655702553
 51
345.0
  0
LWPOLYLINE
  5
335
330
1F
100
AcDbEntity
  8
0
  6
Continuous
 62
     7
370
    15
100
AcDbPolyline
 90
        9
 70
   128
 43
0.0
 10
653.0949605649
 20
382.1269014384
 10
653.3634198849
 20
382.0549660827
 10
653.6102576201
 20
381.9888272787
 10
653.8297219222
 20
381.9300198461
 10
654.0167016928
 20
381.8799221422
 10
654.166845793
 20
381.8396890069
 10
654.276667351
 20
381.8102629389
 10
654.343588466
 20
381.7923293914
 10
654.3660743182
 20
381.786305597
  0
LWPOLYLINE
  5
336
330
1F
100
AcDbEntity
  8
0
  6
Continuous
 62
     7
370
    15
100
AcDbPolyline
 90
        9
 70
   128
 43
0.0
 10
663.8100577538
 20
422.1162313129
 10
664.0785319751
 20
422.0442959572
 10
664.3253697102
 20
421.9781552906
 10
664.5448340123
 20
421.9193515833
 10
664.731813783
 20
421.869250154
 10
664.8819578831
 20
421.8290188814
 10
664.99176454
 20
421.7995928134
 10
665.0587005561
 20
421.7816611285
 10
665.0811864083
 20
421.7756354715
  0
LINE
  5
337
330
1F
100
AcDbEntity
  8
0
  6
Continuous
 62
     7
370
    15
100
AcDbLine
 10
665.0811864083
 20
421.7756354715
 30
0.0
 11
654.3660743182
 21
381.786305597
 31
0.0
  0
ARC
  5
338
330
1F
100
AcDbEntity
  8
0
  6
Continuous
 62
     7
370
    15
100
AcDbCircle
 10
663.925788796
 20
425.1910513669
 30
0.0
 40
1.999999999999951
100
AcDbArc
 50
345.0
 51
62.6654072805
  0
LWPOLYLINE
  5
339
330
1F
100
AcDbEntity
  8
0
  6
Continuous
 62
     7
370
    15
100
AcDbPolyline
 90
       10
 70
   128
 43
0.0
 10
665.8576412146
 20
424.6734130661
 10
665.845839495
 20
424.629389448
 10
665.8108217662
 20
424.4986559729
 10
665.7536162083
 20
424.2851847316
 10
665.6759811585
 20
423.9954614545
 10
665.5802859013
 20
423.6382917966
 10
665.4694063609
 20
423.2245238031
 10
665.3467400019
 20
422.7667340542
 10
665.2160121148
 20
422.2788290585
 10
665.0811864083
 20
421.7756354715
  0
LINE
  5
33A
330
1F
100
AcDbEntity
  8
0
  6
Continuous
 62
     7
370
    15
100
AcDbLine
 10
643.9337192123
 20
372.3653891589
 30
0.0
 11
617.2578839605
 21
379.5131558086
 31
0.0
  0
ARC
  5
33B
330
1F
100
AcDbEntity
  8
0
  6
Continuous
 62
     7
370
    15
100
AcDbCircle
 10
632.4583579259
 20
443.0071686497
 30
0.0
 40
0.7493382107674841
100
AcDbArc
 50
86.0992474776
 51
146.6970905507
  0
LINE
  5
33C
330
1F
100
AcDbEntity
  8
0
  6
Continuous
 62
     7
370
    15
100
AcDbLine
 10
632.5093342011
 20
443.7547709326
 30
0.0
 11
660.5887545293
 21
436.2309117801
 31
0.0
  0
ARC
  5
33D
330
1F
100
AcDbEntity
  8
0
  6
Continuous
 62
     7
370
    15
100
AcDbCircle
 10
617.8080251217
 20
384.6025812001
 30
0.0
 40
0.5639092598373341
100
AcDbArc
 50
192.6869610951
 51
246.9781404152
  0
LINE
  5
33E
330
1F
100
AcDbEntity
  8
0
  6
Continuous
 62
     7
370
    15
100
AcDbLine
 10
643.3505697196
 20
377.1803864743
 30
0.0
 11
617.5874901955
 21
384.0835840906
 31
0.0
  0
ARC
  5
33F
330
1F
100
AcDbEntity
  8
0
  6
Continuous
 62
     7
370
    15
100
AcDbCircle
 10
648.4901246864
 20
376.6129670618
 30
0.0
 40
3.531717092985508
100
AcDbArc
 50
133.0567442409
 51
153.2721274017
  0
LINE
  5
340
330
1F
100
AcDbEntity
  8
0
  6
Continuous
 62
     7
370
    15
100
AcDbLine
 10
646.1993886178
 20
379.3066964949
 30
0.0
 11
646.0789425318
 21
379.1935147251
 31
0.0
  0
LINE
  5
341
330
1F
100
AcDbEntity
  8
0
  6
Continuous
 62
     7
370
    15
100
AcDbLine
 10
659.4595296328
 20
429.1305506135
 30
0.0
 11
659.507243151
 21
428.9723123888
 31
0.0
  0
ARC
  5
342
330
1F
100
AcDbEntity
  8
0
  6
Continuous
 62
     7
370
    15
100
AcDbCircle
 10
662.8375420659
 20
430.1597189044
 30
0.0
 40
3.531310715412038
100
AcDbArc
 50
176.7265098369
 51
196.9442389136
  0
LINE
  5
343
330
1F
100
AcDbEntity
  8
0
  6
Continuous
 62
     7
370
    15
100
AcDbLine
 10
632.3401762193
 20
439.1413551289
 30
0.0
 11
658.1032557433
 21
432.2381575125
 31
0.0
  0
LWPOLYLINE
  5
344
330
1F
100
AcDbEntity
  8
0
  6
Continuous
 62
     7
370
    15
100
AcDbPolyline
 90
        9
 70
   128
 43
0.0
 10
631.2380416339
 20
438.0841324105
 10
631.3771290725
 20
438.3419015444
 10
631.5205751007
 20
438.5698213241
 10
631.6660178845
 20
438.7641299049
 10
631.8110508864
 20
438.9216205104
 10
631.9532899206
 20
439.0396935282
 10
632.090373153
 20
439.1164003987
 10
632.2200505083
 20
439.1504751052
 10
632.3401762193
 20
439.1413551289
  0
ARC
  5
345
330
1F
100
AcDbEntity
  8
0
  6
Continuous
 62
     7
370
    15
100
AcDbCircle
 10
627.8535377063
 20
439.6206972864
 30
0.0
 40
3.716974368213455
100
AcDbArc
 50
313.312582342
 51
335.5819500703
  0
LINE
  5
346
330
1F
100
AcDbEntity
  8
0
  6
Continuous
 62
     7
370
    15
100
AcDbLine
 10
630.2759481614
 20
436.7956886067
 30
0.0
 11
630.4033009355
 21
436.9161444715
 31
0.0
  0
LINE
  5
347
330
1F
100
AcDbEntity
  8
0
  6
Continuous
 62
     7
370
    15
100
AcDbLine
 10
628.7048367803
 20
437.2166682965
 30
0.0
 11
629.0412975495
 21
438.4723718044
 31
0.0
  0
LWPOLYLINE
  5
348
330
1F
100
AcDbEntity
  8
0
  6
Continuous
 62
     7
370
    15
100
AcDbPolyline
 90
        7
 70
   128
 43
0.0
 10
631.4559040611
 20
443.5193998738
 10
631.2476305311
 20
443.5155288315
 10
631.0175193494
 20
443.400446698
 10
630.7744218056
 20
443.1785758584
 10
630.5276734774
 20
442.8584425709
 10
630.2867515033
 20
442.4523496068
 10
630.209354872
 20
442.3004962969
  0
LINE
  5
349
330
1F
100
AcDbEntity
  8
0
  6
Continuous
 62
     7
370
    15
100
AcDbLine
 10
631.4559040611
 20
443.5193998738
 30
0.0
 11
660.7127023881
 21
435.6800640467
 31
0.0
  0
LINE
  5
34A
330
1F
100
AcDbEntity
  8
0
  6
Continuous
 62
     7
370
    15
100
AcDbLine
 10
644.1911665743
 20
372.8140482212
 30
0.0
 11
617.2578839605
 21
380.0307960714
 31
0.0
  0
LWPOLYLINE
  5
34B
330
1F
100
AcDbEntity
  8
0
  6
Continuous
 62
     7
370
    15
100
AcDbPolyline
 90
        5
 70
   128
 43
0.0
 10
631.3759518807
 20
439.917356161
 10
631.1275644248
 20
439.1915450919
 10
630.8163983767
 20
438.6031853733
 10
630.4898319786
 20
438.2418493274
 10
630.1975829547
 20
438.1625472101
  0
LWPOLYLINE
  5
34C
330
1F
100
AcDbEntity
  8
0
  6
Continuous
 62
     7
370
    15
100
AcDbPolyline
 90
        5
 70
   128
 43
0.0
 10
631.2328560298
 20
442.0262504368
 10
631.4463077133
 20
441.8114457744
 10
631.5484551733
 20
441.3352362112
 10
631.523749048
 20
440.6701203784
 10
631.3759518807
 20
439.917356161
  0
LINE
  5
34D
330
1F
100
AcDbEntity
  8
0
  6
Continuous
 62
     7
370
    15
100
AcDbLine
 10
632.8619701808
 20
437.1380423195
 30
0.0
 11
657.0952964967
 21
430.6447414215
 31
0.0
  0
LINE
  5
34E
330
1F
100
AcDbEntity
  8
0
  6
Continuous
 62
     7
370
    15
100
AcDbLine
 10
643.2743651812
 20
379.0643030311
 30
0.0
 11
619.0410388654
 21
385.5576032306
 31
0.0
  0
ELLIPSE
  5
34F
330
1F
100
AcDbEntity
  8
0
  6
Continuous
 62
     7
370
    15
100
AcDbEllipse
 10
644.8272787248
 20
384.8598573971
 30
0.0
 11
1.552914270615247
 21
5.795554957734396
 31
0.0
210
0.0
220
0.0
230
1.0
 40
0.3639702343
 41
3.141592653589939
 42
4.712388980384717
  0
LINE
  5
350
330
1F
100
AcDbEntity
  8
0
  6
Continuous
 62
     7
370
    15
100
AcDbLine
 10
657.6517952626
 20
424.2839721496
 30
0.0
 11
646.9366831725
 21
384.2946441377
 31
0.0
  0
ELLIPSE
  5
351
330
1F
100
AcDbEntity
  8
0
  6
Continuous
 62
     7
370
    15
100
AcDbEllipse
 10
655.542387192
 20
424.8491866055
 30
0.0
 11
1.552914270615134
 21
5.795554957734396
 31
0.0
210
0.0
220
0.0
230
1.0
 40
0.3639702343
 41
4.712388980384697
 42
6.283185307179586
  0
LWPOLYLINE
  5
352
330
1F
100
AcDbEntity
  8
0
  6
Continuous
 62
     7
370
    15
100
AcDbPolyline
 90
        3
 70
   128
 43
0.0
 10
658.9043421691
 20
430.4705934132
 10
658.9093787616
 20
430.3210472221
 10
658.9040739482
 20
430.136704957
  0
ARC
  5
353
330
1F
100
AcDbEntity
  8
0
  6
Continuous
 62
     7
370
    15
100
AcDbCircle
 10
663.6606150386
 20
429.6718893193
 30
0.0
 40
4.779198334669996
100
AcDbArc
 50
174.4186999464
 51
196.6869743631
  0
ARC
  5
354
330
1F
100
AcDbEntity
  8
0
  6
Continuous
 62
     7
370
    15
100
AcDbCircle
 10
657.4056050474
 20
427.7906847579
 30
0.0
 40
1.752583626152741
100
AcDbArc
 50
355.3246752757
 51
16.8799258849
  0
ARC
  5
355
330
1F
100
AcDbEntity
  8
0
  6
Continuous
 62
     7
370
    15
100
AcDbCircle
 10
644.9698881451
 20
381.3809866103
 30
0.0
 40
1.752852670863284
100
AcDbArc
 50
313.1223863632
 51
334.6742374678
  0
ARC
  5
356
330
1F
100
AcDbEntity
  8
0
  6
Continuous
 62
     7
370
    15
100
AcDbCircle
 10
649.4464301599
 20
376.6242261941
 30
0.0
 40
4.779091186986058
100
AcDbArc
 50
133.3127737206
 51
155.5815709955
  0
LWPOLYLINE
  5
357
330
1F
100
AcDbEntity
  8
0
  6
Continuous
 62
     7
370
    15
100
AcDbPolyline
 90
        3
 70
   128
 43
0.0
 10
645.0948251431
 20
378.599889716
 10
645.0072510188
 20
378.4375899936
 10
644.9281109517
 20
378.3105985726
  0
LINE
  5
358
330
1F
100
AcDbEntity
  8
0
  6
Continuous
 62
     7
370
    15
100
AcDbLine
 10
643.8121108358
 20
378.0919948126
 30
0.0
 11
617.8463084643
 21
385.0495071615
 31
0.0
  0
LWPOLYLINE
  5
359
330
1F
100
AcDbEntity
  8
0
  6
Continuous
 62
     7
370
    15
100
AcDbPolyline
 90
        9
 70
   128
 43
0.0
 10
617.8463084643
 20
385.0495071615
 10
617.7779344862
 20
385.0823530461
 10
617.7179573124
 20
385.1417565252
 10
617.667352969
 20
385.2267415727
 10
617.6269708221
 20
385.3359000291
 10
617.597466523
 20
385.4674325789
 10
617.5793318098
 20
385.6191748287
 10
617.5728647058
 20
385.7886122073
 10
617.5781695192
 20
385.9729544724
  0
ARC
  5
35A
330
1F
100
AcDbEntity
  8
0
  6
Continuous
 62
     7
370
    15
100
AcDbCircle
 10
610.7821644322
 20
386.4157536863
 30
0.0
 40
6.810415280037555
100
AcDbArc
 50
356.2721164399
 51
4.8151835294
  0
ARC
  5
35B
330
1F
100
AcDbEntity
  8
0
  6
Continuous
 62
     7
370
    15
100
AcDbCircle
 10
625.2810551859
 20
440.5240053791
 30
0.0
 40
6.809793081346829
100
AcDbArc
 50
325.1841808927
 51
333.728043393
  0
LWPOLYLINE
  5
35C
330
1F
100
AcDbEntity
  8
0
  6
Continuous
 62
     7
370
    15
100
AcDbPolyline
 90
        9
 70
   128
 43
0.0
 10
631.3874183243
 20
437.5097706447
 10
631.4749924486
 20
437.6720696687
 10
631.5653158372
 20
437.8155746031
 10
631.6568834727
 20
437.9379170946
 10
631.7482052391
 20
438.0370778031
 10
631.8377612179
 20
438.1114201619
 10
631.9240761941
 20
438.1597170372
 10
632.0057196563
 20
438.1811714497
 10
632.0813579505
 20
438.1754293804
  0
LINE
  5
35D
330
1F
100
AcDbEntity
  8
0
  6
Continuous
 62
     7
370
    15
100
AcDbLine
 10
632.0813579505
 20
438.1754293804
 30
0.0
 11
658.0471528714
 21
431.2179136555
 31
0.0
  0
ARC
  5
35E
330
1F
100
AcDbEntity
  8
0
  6
Continuous
 62
     7
370
    15
100
AcDbCircle
 10
642.3441976467
 20
379.343814391
 30
0.0
 40
0.9712560129175061
100
AcDbArc
 50
343.2747020098
 51
73.1637938838
  0
ELLIPSE
  5
35F
330
1F
100
AcDbEntity
  8
0
  6
Continuous
 62
     7
370
    15
100
AcDbEllipse
 10
643.9196053536
 20
385.1030677439
 30
0.0
 11
1.294095225512706
 21
4.829629131445358
 31
0.0
210
0.0
220
0.0
230
1.0
 40
0.4367642811
 41
3.141592653589875
 42
4.712388980384706
  0
LWPOLYLINE
  5
360
330
1F
100
AcDbEntity
  8
0
  6
Continuous
 62
     7
370
    15
100
AcDbPolyline
 90
        9
 70
   128
 43
0.0
 10
646.9366831725
 20
384.2946441377
 10
646.8758715337
 20
384.3109385575
 10
646.7953307574
 20
384.3325191642
 10
646.6969681924
 20
384.3588755931
 10
646.583048815
 20
384.3894006218
 10
646.4562399333
 20
384.4233789946
 10
646.3194770758
 20
384.4600246753
 10
646.1759490912
 20
384.498480847
 10
646.0290087407
 20
384.5378534402
  0
LINE
  5
361
330
1F
100
AcDbEntity
  8
0
  6
Continuous
 62
     7
370
    15
100
AcDbLine
 10
646.0290087407
 20
384.5378534402
 30
0.0
 11
656.7441208308
 21
424.5271823834
 31
0.0
  0
LWPOLYLINE
  5
362
330
1F
100
AcDbEntity
  8
0
  6
Continuous
 62
     7
370
    15
100
AcDbPolyline
 90
        9
 70
   128
 43
0.0
 10
657.6517952626
 20
424.2839721496
 10
657.5909836238
 20
424.300268432
 10
657.5104428475
 20
424.3218471761
 10
657.4120802825
 20
424.3482054676
 10
657.2981609051
 20
424.378729565
 10
657.1713371222
 20
424.4127098004
 10
657.034589166
 20
424.4493536185
 10
656.8910611813
 20
424.4878097902
 10
656.7441208308
 20
424.5271823834
  0
ELLIPSE
  5
363
330
1F
100
AcDbEntity
  8
0
  6
Continuous
 62
     7
370
    15
100
AcDbEllipse
 10
654.6347138208
 20
425.0923969523
 30
0.0
 11
1.294095225512706
 21
4.829629131445358
 31
0.0
210
0.0
220
0.0
230
1.0
 40
0.4367642811
 41
4.712388980384706
 42
6.283185307179586
  0
ARC
  5
364
330
1F
100
AcDbEntity
  8
0
  6
Continuous
 62
     7
370
    15
100
AcDbCircle
 10
656.1500026297
 20
430.867743162
 30
0.0
 40
0.9712416131574602
100
AcDbArc
 50
256.8354465253
 51
346.7261939486
  0
LINE
  5
365
330
1F
100
AcDbEntity
  8
0
  6
Continuous
 62
     7
370
    15
100
AcDbLine
 10
642.6255090182
 20
380.2734391297
 30
0.0
 11
617.2578839605
 21
387.0706745888
 31
0.0
  0
LINE
  5
366
330
1F
100
AcDbEntity
  8
0
  6
Continuous
 62
     7
370
    15
100
AcDbLine
 10
617.2578839605
 20
402.6930147315
 30
0.0
 11
625.3615079468
 21
432.9361297655
 31
0.0
  0
LWPOLYLINE
  5
367
330
1F
100
AcDbEntity
  8
0
  6
Continuous
 62
     7
370
    15
100
AcDbPolyline
 90
        9
 70
   128
 43
0.0
 10
625.3615079468
 20
432.9361297655
 10
625.3986267393
 20
432.9261837061
 10
625.508560056
 20
432.8967269043
 10
625.6870834177
 20
432.8488918486
 10
625.927327389
 20
432.7845169696
 10
626.2200756018
 20
432.7060758601
 10
626.5540702288
 20
432.6165832113
 10
626.9164739197
 20
432.5194779317
 10
627.2933540886
 20
432.418491831
  0
LINE
  5
368
330
1F
100
AcDbEntity
  8
0
  6
Continuous
 62
     7
370
    15
100
AcDbLine
 10
656.7441208308
 20
424.5271823834
 30
0.0
 11
627.2933540886
 21
432.418491831
 31
0.0
  0
CIRCLE
  5
369
330
1F
100
AcDbEntity
  8
0
  6
Continuous
 62
     7
370
    15
100
AcDbCircle
 10
636.4246892524
 20
408.5415413951
 30
0.0
 40
10.99999999999982
  0
LWPOLYLINE
  5
36A
330
1F
100
AcDbEntity
  8
0
  6
Continuous
 62
     7
370
    15
100
AcDbPolyline
 90
        9
 70
   128
 43
0.0
 10
628.587452883
 20
437.2481209225
 10
628.562582845
 20
437.1553209144
 10
628.4889413064
 20
436.8804871569
 10
628.3693594878
 20
436.4341815467
 10
628.2084194963
 20
435.8335553202
 10
628.012320215
 20
435.1016899104
 10
627.7885867303
 20
434.2667107935
 10
627.5458244627
 20
433.3607057574
 10
627.2933540886
 20
432.418491831
  0
LINE
  5
36B
330
1F
100
AcDbEntity
  8
0
  6
Continuous
 62
     7
370
    15
100
AcDbLine
 10
628.587452883
 20
437.2481209225
 30
0.0
 11
655.9288037961
 21
429.9220257903
 31
0.0
  0
LWPOLYLINE
  5
36C
330
1F
100
AcDbEntity
  8
0
  6
Continuous
 62
     7
370
    15
100
AcDbPolyline
 90
        9
 70
   128
 43
0.0
 10
625.3615079468
 20
432.9361297655
 10
625.5129857009
 20
433.5014579351
 10
625.6586445515
 20
434.045061143
 10
625.7928816622
 20
434.5460488926
 10
625.9105412309
 20
434.9851679522
 10
626.0071082061
 20
435.3455436881
 10
626.0788572972
 20
435.6133268679
 10
626.1230392401
 20
435.7782273087
 10
626.1379627531
 20
435.8339073601
  0
ARC
  5
36D
330
1F
100
AcDbEntity
  8
0
  6
Continuous
 62
     7
370
    15
100
AcDbCircle
 10
628.069813227
 20
435.3162691547
 30
0.0
 40
2.000000000000061
100
AcDbArc
 50
75.0
 51
165.0
  0
ARC
  5
36E
330
1F
100
AcDbEntity
  8
0
  6
Continuous
 62
     7
370
    15
100
AcDbCircle
 10
618.33344978
 20
384.3862092802
 30
0.0
 40
0.4856340033849625
100
AcDbArc
 50
256.83707621
 51
346.7249609341
  0
ARC
  5
36F
330
1F
100
AcDbEntity
  8
0
  6
Continuous
 62
     7
370
    15
100
AcDbCircle
 10
618.3410224138
 20
384.4144489318
 30
0.0
 40
0.4856283790750813
100
AcDbArc
 50
343.2749562277
 51
73.1636867636
  0
ARC
  5
370
330
1F
100
AcDbEntity
  8
0
  6
Continuous
 62
     7
370
    15
100
AcDbCircle
 10
632.8348842502
 20
438.5062918239
 30
0.0
 40
0.4856335582359782
100
AcDbArc
 50
343.2753491734
 51
73.1631421234
  0
ARC
  5
371
330
1F
100
AcDbEntity
  8
0
  6
Continuous
 62
     7
370
    15
100
AcDbCircle
 10
632.8273201305
 20
438.4780534907
 30
0.0
 40
0.4856313897436911
100
AcDbArc
 50
256.8366896026
 51
346.7249343434
  0
ARC
  5
372
330
1F
100
AcDbEntity
  8
0
  6
Continuous
 62
     7
370
    15
100
AcDbCircle
 10
618.1108651952
 20
385.837111298
 30
0.0
 40
0.9712609413964681
100
AcDbArc
 50
343.2749921833
 51
73.1635037102
  0
ARC
  5
373
330
1F
100
AcDbEntity
  8
0
  6
Continuous
 62
     7
370
    15
100
AcDbCircle
 10
631.9166686562
 20
437.3610567245
 30
0.0
 40
0.9712519741239435
100
AcDbArc
 50
256.8360534147
 51
346.7255705313
  0
LINE
  5
374
330
1F
100
AcDbEntity
  8
0
  6
Continuous
 62
     7
370
    15
100
AcDbLine
 10
550.1811785643
 20
499.9362902249
 30
0.0
 11
561.3823218291
 21
499.9362902249
 31
0.0
  0
LINE
  5
375
330
1F
100
AcDbEntity
  8
0
  6
Continuous
 62
     7
370
    15
100
AcDbLine
 10
581.6848335808
 20
489.9650441016
 30
0.0
 11
582.4538154547
 21
488.9900834764
 31
0.0
  0
LINE
  5
376
330
1F
100
AcDbEntity
  8
0
  6
Continuous
 62
     7
370
    15
100
AcDbLine
 10
582.4538154547
 20
488.9900834764
 30
0.0
 11
581.9402990883
 21
487.8766947891
 31
0.0
  0
LINE
  5
377
330
1F
100
AcDbEntity
  8
0
  6
Continuous
 62
     7
370
    15
100
AcDbLine
 10
456.8309394663
 20
489.9650441016
 30
0.0
 11
456.0619575923
 21
488.9900834764
 31
0.0
  0
LINE
  5
378
330
1F
100
AcDbEntity
  8
0
  6
Continuous
 62
     7
370
    15
100
AcDbLine
 10
488.3345944827
 20
499.9362902249
 30
0.0
 11
477.1334512179
 21
499.9362902249
 31
0.0
  0
LINE
  5
379
330
1F
100
AcDbEntity
  8
0
  6
Continuous
 62
     7
370
    15
100
AcDbLine
 10
456.0619575923
 20
488.9900834764
 30
0.0
 11
456.5754739588
 21
487.8766947891
 31
0.0
  0
LINE
  5
37A
330
1F
100
AcDbEntity
  8
0
  6
Continuous
 62
     7
370
    15
100
AcDbLine
 10
582.4538154547
 20
390.8824996556
 30
0.0
 11
581.9402990883
 21
391.995888343
 31
0.0
  0
LINE
  5
37B
330
1F
100
AcDbEntity
  8
0
  6
Continuous
 62
     7
370
    15
100
AcDbLine
 10
550.1811785643
 20
379.9362929071
 30
0.0
 11
561.3823218291
 21
379.9362929071
 31
0.0
  0
LINE
  5
37C
330
1F
100
AcDbEntity
  8
0
  6
Continuous
 62
     7
370
    15
100
AcDbLine
 10
581.6848335808
 20
389.9075390304
 30
0.0
 11
582.4538154547
 21
390.8824996556
 31
0.0
  0
LINE
  5
37D
330
1F
100
AcDbEntity
  8
0
  6
Continuous
 62
     7
370
    15
100
AcDbLine
 10
456.8309394663
 20
389.9075390304
 30
0.0
 11
456.0619575923
 21
390.8824996556
 31
0.0
  0
LINE
  5
37E
330
1F
100
AcDbEntity
  8
0
  6
Continuous
 62
     7
370
    15
100
AcDbLine
 10
456.0619575923
 20
390.8824996556
 30
0.0
 11
456.5754739588
 21
391.995888343
 31
0.0
  0
LINE
  5
37F
330
1F
100
AcDbEntity
  8
0
  6
Continuous
 62
     7
370
    15
100
AcDbLine
 10
488.3345944827
 20
379.9362929071
 30
0.0
 11
477.1334512179
 21
379.9362929071
 31
0.0
  0
ARC
  5
380
330
1F
100
AcDbEntity
  8
0
  6
Continuous
 62
     7
370
    15
100
AcDbCircle
 10
507.2578865235
 20
497.436291566
 30
0.0
 40
10.00000000000006
100
AcDbArc
 50
90.0
 51
132.880866071
  0
LINE
  5
381
330
1F
100
AcDbEntity
  8
0
  6
Continuous
 62
     7
370
    15
100
AcDbLine
 10
507.2578864192
 20
507.4362942482
 30
0.0
 11
519.2578865235
 21
507.4362942482
 31
0.0
  0
LINE
  5
382
330
1F
100
AcDbEntity
  8
0
  6
Continuous
 62
     7
370
    15
100
AcDbLine
 10
519.2578865235
 20
507.4362942482
 30
0.0
 11
531.2578866278
 21
507.4362942482
 31
0.0
  0
ARC
  5
383
330
1F
100
AcDbEntity
  8
0
  6
Continuous
 62
     7
370
    15
100
AcDbCircle
 10
531.2578865235
 20
497.436291566
 30
0.0
 40
10.00000000000002
100
AcDbArc
 50
47.119133929
 51
90.0
  0
LINE
  5
384
330
1F
100
AcDbEntity
  8
0
  6
Continuous
 62
     7
370
    15
100
AcDbLine
 10
514.2578866353
 20
371.1176925804
 30
0.0
 11
514.2578866353
 21
372.6217338349
 31
0.0
  0
ARC
  5
385
330
1F
100
AcDbEntity
  8
0
  6
Continuous
 62
     7
370
    15
100
AcDbCircle
 10
519.2578865235
 20
439.936291566
 30
0.0
 40
69.00000000000003
100
AcDbArc
 50
265.8444897315
 51
274.1555102685
  0
LINE
  5
386
330
1F
100
AcDbEntity
  8
0
  6
Continuous
 62
     7
370
    15
100
AcDbLine
 10
524.2578864118
 20
372.6217338349
 30
0.0
 11
524.2578864118
 21
371.1176925804
 31
0.0
  0
CIRCLE
  5
387
330
1F
100
AcDbEntity
  8
0
  6
Continuous
 62
     7
370
    15
100
AcDbCircle
 10
519.2578865235
 20
439.936291566
 30
0.0
 40
85.0
  0
LINE
  5
388
330
1F
100
AcDbEntity
  8
0
  6
Continuous
 62
     7
370
    15
100
AcDbLine
 10
617.2578839605
 20
504.7610589768
 30
0.0
 11
617.2578839605
 21
375.1115241553
 31
0.0
  0
ARC
  5
389
330
1F
100
AcDbEntity
  8
0
  6
Continuous
 62
     7
370
    15
100
AcDbCircle
 10
519.2578865235
 20
439.936291566
 30
0.0
 40
117.5
100
AcDbArc
 50
303.483726477
 51
326.516273523
  0
LINE
  5
38A
330
1F
100
AcDbEntity
  8
0
  6
Continuous
 62
     7
370
    15
100
AcDbLine
 10
584.0826539343
 20
341.936294129
 30
0.0
 11
454.4331191128
 21
341.936294129
 31
0.0
  0
ARC
  5
38B
330
1F
100
AcDbEntity
  8
0
  6
Continuous
 62
     7
370
    15
100
AcDbCircle
 10
519.2578865235
 20
439.936291566
 30
0.0
 40
117.5
100
AcDbArc
 50
213.483726477
 51
236.516273523
  0
LINE
  5
38C
330
1F
100
AcDbEntity
  8
0
  6
Continuous
 62
     7
370
    15
100
AcDbLine
 10
421.2578890865
 20
375.1115241553
 30
0.0
 11
421.2578890865
 21
504.7610589768
 31
0.0
  0
ARC
  5
38D
330
1F
100
AcDbEntity
  8
0
  6
Continuous
 62
     7
370
    15
100
AcDbCircle
 10
519.2578865235
 20
439.936291566
 30
0.0
 40
117.5
100
AcDbArc
 50
123.483726477
 51
146.516273523
  0
LINE
  5
38E
330
1F
100
AcDbEntity
  8
0
  6
Continuous
 62
     7
370
    15
100
AcDbLine
 10
454.4331191128
 20
537.936289003
 30
0.0
 11
584.0826539343
 21
537.936289003
 31
0.0
  0
ARC
  5
38F
330
1F
100
AcDbEntity
  8
0
  6
Continuous
 62
     7
370
    15
100
AcDbCircle
 10
519.2578865235
 20
439.936291566
 30
0.0
 40
117.5
100
AcDbArc
 50
33.483726477
 51
56.516273523
  0
CIRCLE
  5
390
330
1F
100
AcDbEntity
  8
0
  6
Continuous
 62
     7
370
    15
100
AcDbCircle
 10
574.899409268
 20
350.8912414696
 30
0.0
 40
4.000000000000114
  0
CIRCLE
  5
391
330
1F
100
AcDbEntity
  8
0
  6
Continuous
 62
     7
370
    15
100
AcDbCircle
 10
463.616363779
 20
528.9813416624
 30
0.0
 40
4.0
  0
CIRCLE
  5
392
330
1F
100
AcDbEntity
  8
0
  6
Continuous
 62
     7
370
    15
100
AcDbCircle
 10
595.2718655011
 20
515.9502705436
 30
0.0
 40
6.0
  0
CIRCLE
  5
393
330
1F
100
AcDbEntity
  8
0
  6
Continuous
 62
     7
370
    15
100
AcDbCircle
 10
443.243907546
 20
515.9502705436
 30
0.0
 40
6.0
  0
CIRCLE
  5
394
330
1F
100
AcDbEntity
  8
0
  6
Continuous
 62
     7
370
    15
100
AcDbCircle
 10
595.2718655011
 20
363.9223125885
 30
0.0
 40
5.999999999999886
  0
CIRCLE
  5
395
330
1F
100
AcDbEntity
  8
0
  6
Continuous
 62
     7
370
    15
100
AcDbCircle
 10
443.243907546
 20
363.9223125885
 30
0.0
 40
6.000000000000057
  0
LINE
  5
396
330
1F
100
AcDbEntity
  8
0
  6
Continuous
 62
     7
370
    15
100
AcDbLine
 10
494.257886151
 20
537.936289003
 30
0.0
 11
494.257886151
 21
554.9362936522
 31
0.0
  0
LINE
  5
397
330
1F
100
AcDbEntity
  8
0
  6
Continuous
 62
     7
370
    15
100
AcDbLine
 10
494.257886151
 20
554.9362936522
 30
0.0
 11
504.2578868588
 21
554.9362936522
 31
0.0
  0
LINE
  5
398
330
1F
100
AcDbEntity
  8
0
  6
Continuous
 62
     7
370
    15
100
AcDbLine
 10
544.257886896
 20
554.9362936522
 30
0.0
 11
544.257886896
 21
537.936289003
 31
0.0
  0
LINE
  5
399
330
1F
100
AcDbEntity
  8
0
  6
Continuous
 62
     7
370
    15
100
AcDbLine
 10
534.2578861882
 20
554.9362936522
 30
0.0
 11
544.257886896
 21
554.9362936522
 31
0.0
  0
LINE
  5
39A
330
1F
100
AcDbEntity
  8
0
  6
Continuous
 62
     7
370
    15
100
AcDbLine
 10
534.2578861882
 20
554.9362936522
 30
0.0
 11
504.2578868588
 21
554.9362936522
 31
0.0
  0
LWPOLYLINE
  5
39B
330
1F
100
AcDbEntity
  8
0
  6
Continuous
 62
     7
370
    15
100
AcDbPolyline
 90
       12
 70
   128
 43
0.0
 10
651.7804099267
 20
378.5435074474
 10
651.9297046607
 20
378.4588278736
 10
652.2151513045
 20
378.0184985603
 10
652.3667706197
 20
377.2825115825
 10
652.3710919564
 20
376.316260686
 10
652.2277278846
 20
375.2056026365
 10
651.9494337981
 20
374.0492203738
 10
651.5609158223
 20
372.9498797561
 10
651.0967148488
 20
372.005242994
 10
650.5980474894
 20
371.2992483283
 10
650.1092595999
 20
370.8946370984
 10
649.6737582629
 20
370.8273509051
  0
LWPOLYLINE
  5
39C
330
1F
100
AcDbEntity
  8
0
  6
Continuous
 62
     7
370
    15
100
AcDbPolyline
 90
       13
 70
   128
 43
0.0
 10
666.7558087056
 20
434.5784556585
 10
666.9412089532
 20
434.4825275707
 10
667.226655597
 20
434.0421968604
 10
667.3782749121
 20
433.30620802
 10
667.3825962489
 20
432.3399571235
 10
667.239232177
 20
431.2292990739
 10
666.9609380906
 20
430.0729223992
 10
666.5724201148
 20
428.9735743309
 10
666.1082191413
 20
428.0289375688
 10
665.6095517819
 20
427.3229475598
 10
665.1207638924
 20
426.9183335359
 10
664.6852625554
 20
426.8510492052
 10
664.6852625554
 20
426.8510492052
  0
LWPOLYLINE
  5
39D
330
1F
100
AcDbEntity
  8
0
  6
Continuous
 62
     7
370
    15
100
AcDbPolyline
 90
        8
 70
   128
 43
0.0
 10
650.4686309045
 20
373.720195284
 10
650.4670662825
 20
373.7206125165
 10
650.4215730374
 20
373.7328016664
 10
650.3147764151
 20
373.7614193465
 10
650.1507891362
 20
373.8053554202
 10
649.9359292929
 20
373.8629335071
 10
649.6784223264
 20
373.931933334
 10
649.3881775086
 20
374.0097024943
  0
LWPOLYLINE
  5
39E
330
1F
100
AcDbEntity
  8
0
  6
Continuous
 62
     7
370
    15
100
AcDbPolyline
 90
        8
 70
   128
 43
0.0
 10
665.7389534657
 20
430.7098175864
 10
665.7373888438
 20
430.7102366815
 10
665.6918955987
 20
430.7224267627
 10
665.5850989764
 20
430.7510416488
 10
665.4211265986
 20
430.7949805166
 10
665.2062518542
 20
430.8525558094
 10
664.9487448876
 20
430.9215537737
 10
664.6585000699
 20
430.9993238653
  0
LINE
  5
39F
330
1F
100
AcDbEntity
  8
0
  6
Continuous
 62
     7
370
    15
100
AcDbLine
 10
617.2578839605
 20
378.4778790082
 30
0.0
 11
643.2478858178
 21
371.5138846542
 31
0.0
  0
LINE
  5
3A0
330
1F
100
AcDbEntity
  8
0
  6
Continuous
 62
     7
370
    15
100
AcDbLine
 10
652.7462286895
 20
382.2203428949
 30
0.0
 11
653.0949605649
 21
382.1269014384
 31
0.0
  0
ELLIPSE
  5
3A1
330
1F
100
AcDbEntity
  8
0
  6
Continuous
 62
     7
370
    15
100
AcDbEllipse
 10
652.4342231935
 20
382.3039446797
 30
0.0
 11
1.294095225512592
 21
4.829629131445357
 31
0.0
210
0.0
220
0.0
230
1.0
 40
0.1368080573
 41
3.8052046349609
 42
4.712388980384691
  0
LINE
  5
3A2
330
1F
100
AcDbEntity
  8
0
  6
Continuous
 62
     7
370
    15
100
AcDbLine
 10
663.8100577538
 20
422.1162313129
 30
0.0
 11
663.4613407796
 21
422.2096709068
 31
0.0
  0
ELLIPSE
  5
3A3
330
1F
100
AcDbEntity
  8
0
  6
Continuous
 62
     7
370
    15
100
AcDbEllipse
 10
663.1493316607
 20
422.293273888
 30
0.0
 11
1.294095225512592
 21
4.829629131445357
 31
0.0
210
0.0
220
0.0
230
1.0
 40
0.1368080573
 41
4.712388980384691
 42
5.79137480250495
  0
ARC
  5
3A4
330
1F
100
AcDbEntity
  8
0
  6
Continuous
 62
     7
370
    15
100
AcDbCircle
 10
633.4471759242
 20
443.0189147086
 30
0.0
 40
0.9806435200535153
100
AcDbArc
 50
84.1916817862
 51
136.4913971638
  0
LINE
  5
3A5
330
1F
100
AcDbEntity
  8
0
  6
Continuous
 62
     7
370
    15
100
AcDbLine
 10
628.1483752673
 20
440.7821832224
 30
0.0
 11
626.9920898621
 21
441.0920078167
 31
0.0
  0
ARC
  5
3A6
330
1F
100
AcDbEntity
  8
0
  6
Continuous
 62
     7
370
    15
100
AcDbCircle
 10
632.7600098826
 20
435.6428536476
 30
0.0
 40
1.498661091437352
100
AcDbArc
 50
86.0989106186
 51
146.6974432134
  0
ARC
  5
3A7
330
1F
100
AcDbEntity
  8
0
  6
Continuous
 62
     7
370
    15
100
AcDbCircle
 10
619.7003532851
 20
386.9034781459
 30
0.0
 40
1.498691026051422
100
AcDbArc
 50
183.3033430766
 51
243.9007861335
  0
LINE
  5
3A8
330
1F
100
AcDbEntity
  8
0
  6
Continuous
 62
     7
370
    15
100
AcDbLine
 10
646.3960094397
 20
380.0405079032
 30
0.0
 11
646.1680663769
 21
380.101587763
 31
0.0
  0
LINE
  5
3A9
330
1F
100
AcDbEntity
  8
0
  6
Continuous
 62
     7
370
    15
100
AcDbLine
 10
659.310622329
 20
428.2385000492
 30
0.0
 11
659.0826792662
 21
428.299577115
 31
0.0
  0
LINE
  5
3AA
330
1F
100
AcDbEntity
  8
0
  6
Continuous
 62
     7
370
    15
100
AcDbLine
 10
645.5031467622
 20
378.49047794
 30
0.0
 11
645.0948251431
 21
378.599889716
 31
0.0
  0
LINE
  5
3AB
330
1F
100
AcDbEntity
  8
0
  6
Continuous
 62
     7
370
    15
100
AcDbLine
 10
659.3123955672
 20
430.0272950436
 30
0.0
 11
658.9040739482
 21
430.136704957
 31
0.0
  0
LINE
  5
3AC
330
1F
100
AcDbEntity
  8
0
  6
Continuous
 62
     7
370
    15
100
AcDbLine
 10
617.2578839605
 20
392.2470548655
 30
0.0
 11
646.0290087407
 21
384.5378534402
 31
0.0
  0
LINE
  5
3AD
330
1F
100
AcDbEntity
  8
0
  6
Continuous
 62
     7
370
    15
100
AcDbLine
 10
627.2933540886
 20
432.418491831
 30
0.0
 11
617.2578839605
 21
394.9656078125
 31
0.0
  0
LINE
  5
3AE
330
1F
100
AcDbEntity
  8
0
  6
Continuous
 62
     7
370
    15
100
AcDbLine
 10
643.5475183671
 20
377.6452505494
 30
0.0
 11
618.806107158
 21
384.2746952082
 31
0.0
  0
LINE
  5
3AF
330
1F
100
AcDbEntity
  8
0
  6
Continuous
 62
     7
370
    15
100
AcDbLine
 10
633.2999749129
 20
438.3665397995
 30
0.0
 11
658.041386122
 21
431.7370971198
 31
0.0
  0
LINE
  5
3B0
330
1F
100
AcDbEntity
  8
0
  6
Continuous
 62
     7
370
    15
100
AcDbLine
 10
617.6039559787
 20
385.431707045
 30
0.0
 11
617.2578839605
 21
385.5244369711
 31
0.0
  0
LWPOLYLINE
  5
3B1
330
1F
100
AcDbEntity
  8
0
  6
Continuous
 62
     7
370
    15
100
AcDbPolyline
 90
        8
 70
   128
 43
0.0
 10
618.2228608077
 20
383.9133345987
 10
618.1142685955
 20
383.9654998387
 10
618.019005472
 20
384.0598465408
 10
617.9386360591
 20
384.1948212589
 10
617.8744940107
 20
384.3681925441
 10
617.8276373093
 20
384.5770993735
 10
617.7988333648
 20
384.8180958535
 10
617.7886186188
 20
385.075114807
  0
LWPOLYLINE
  5
3B2
330
1F
100
AcDbEntity
  8
0
  6
Continuous
 62
     7
370
    15
100
AcDbPolyline
 90
        8
 70
   128
 43
0.0
 10
632.0185942595
 20
438.1820982321
 10
632.1559457128
 20
438.3995740441
 10
632.3013884967
 20
438.5938827413
 10
632.4464289491
 20
438.7513732304
 10
632.5886605327
 20
438.8694463064
 10
632.7257437651
 20
438.9461531769
 10
632.8554211204
 20
438.9802278251
 10
632.9755468314
 20
438.971107907
  0
LINE
  5
3B3
330
1F
100
AcDbEntity
  8
0
  6
Continuous
 62
     7
370
    15
100
AcDbLine
 10
631.6803751533
 20
437.9656099713
 30
0.0
 11
631.2380416339
 21
438.0841324105
 31
0.0
  0
ARC
  5
3B4
330
1F
100
AcDbEntity
  8
0
  6
Continuous
 62
     7
370
    15
100
AcDbCircle
 10
619.1763960112
 20
384.8714238722
 30
0.0
 40
0.7022812351040457
100
AcDbArc
 50
179.196729994
 51
238.1791008962
  0
ARC
  5
3B5
330
1F
100
AcDbEntity
  8
0
  6
Continuous
 62
     7
370
    15
100
AcDbCircle
 10
633.3222861468
 20
437.6646213783
 30
0.0
 40
0.7022729250199382
100
AcDbArc
 50
91.8205951507
 51
150.8039014067
  0
LINE
  5
3B6
330
1F
100
AcDbEntity
  8
0
  6
Continuous
 62
     7
370
    15
100
AcDbLine
 10
617.5806282108
 20
386.8296147789
 30
0.0
 11
617.2578839605
 21
386.9160936679
 31
0.0
  0
LINE
  5
3B7
330
1F
100
AcDbEntity
  8
0
  6
Continuous
 62
     7
370
    15
100
AcDbLine
 10
630.9612153118
 20
436.7666518315
 30
0.0
 11
630.4033009355
 21
436.9161444715
 31
0.0
  0
INSERT
  5
404
330
1F
100
AcDbEntity
  8
SLD-0
 62
     7
100
AcDbBlockReference
  2
SW_CENTERMARKSYMBOL_1
 10
443.243907546
 20
515.9502705436
 30
0.0
  0
ENDSEC
  0
SECTION
  2
OBJECTS
  0
DICTIONARY
  5
C
330
0
100
AcDbDictionary
281
     1
  3
ACAD_GROUP
350
D
  3
ACAD_LAYOUT
350
1A
  3
ACAD_MLINESTYLE
350
17
  3
ACAD_PLOTSETTINGS
350
19
  3
ACAD_PLOTSTYLENAME
350
E
  0
DICTIONARY
  5
D
102
{ACAD_REACTORS
330
C
102
}
330
C
100
AcDbDictionary
281
     1
  0
DICTIONARY
  5
1A
102
{ACAD_REACTORS
330
C
102
}
330
C
100
AcDbDictionary
281
     1
  3
Layout1
350
1E
  3
Layout2
350
26
  3
Model
350
22
  0
DICTIONARY
  5
17
102
{ACAD_REACTORS
330
C
102
}
330
C
100
AcDbDictionary
281
     1
  3
Standard
350
18
  0
DICTIONARY
  5
19
102
{ACAD_REACTORS
330
C
102
}
330
C
100
AcDbDictionary
281
     1
  0
ACDBDICTIONARYWDFLT
  5
E
102
{ACAD_REACTORS
330
C
102
}
330
C
100
AcDbDictionary
281
     1
  3
Normal
350
F
100
AcDbDictionaryWithDefault
340
F
  0
LAYOUT
  5
1E
102
{ACAD_REACTORS
330
1A
102
}
330
1A
100
AcDbPlotSettings
  1

  2
none_device
  4

  6

 40
0.0
 41
0.0
 42
0.0
 43
0.0
 44
0.0
 45
0.0
 46
0.0
 47
0.0
 48
0.0
 49
0.0
140
0.0
141
0.0
142
1.0
143
1.0
 70
   688
 72
     0
 73
     0
 74
     5
  7

 75
    16
147
1.0
148
0.0
149
0.0
100
AcDbLayout
  1
Layout1
 70
     1
 71
     1
 10
0.0
 20
0.0
 11
420.0
 21
297.0
 12
0.0
 22
0.0
 32
0.0
 14
1.0000000000E+20
 24
1.0000000000E+20
 34
1.0000000000E+20
 15
-1.0000000000E+20
 25
-1.0000000000E+20
 35
-1.0000000000E+20
146
0.0
 13
0.0
 23
0.0
 33
0.0
 16
1.0
 26
0.0
 36
0.0
 17
0.0
 27
1.0
 37
0.0
 76
     0
330
1B
  0
LAYOUT
  5
26
102
{ACAD_REACTORS
330
1A
102
}
330
1A
100
AcDbPlotSettings
  1

  2
none_device
  4

  6

 40
0.0
 41
0.0
 42
0.0
 43
0.0
 44
0.0
 45
0.0
 46
0.0
 47
0.0
 48
0.0
 49
0.0
140
0.0
141
0.0
142
1.0
143
1.0
 70
   688
 72
     0
 73
     0
 74
     5
  7

 75
    16
147
1.0
148
0.0
149
0.0
100
AcDbLayout
  1
Layout2
 70
     1
 71
     2
 10
0.0
 20
0.0
 11
0.0
 21
0.0
 12
0.0
 22
0.0
 32
0.0
 14
0.0
 24
0.0
 34
0.0
 15
0.0
 25
0.0
 35
0.0
146
0.0
 13
0.0
 23
0.0
 33
0.0
 16
1.0
 26
0.0
 36
0.0
 17
0.0
 27
1.0
 37
0.0
 76
     0
330
23
  0
LAYOUT
  5
22
102
{ACAD_REACTORS
330
1A
102
}
330
1A
100
AcDbPlotSettings
  1

  2
none_device
  4

  6

 40
0.0
 41
0.0
 42
0.0
 43
0.0
 44
0.0
 45
0.0
 46
0.0
 47
0.0
 48
0.0
 49
0.0
140
0.0
141
0.0
142
1.0
143
1.0
 70
  1712
 72
     0
 73
     0
 74
     0
  7

 75
     0
147
1.0
148
0.0
149
0.0
100
AcDbLayout
  1
Model
 70
     1
 71
     0
 10
0.0
 20
0.0
 11
1050.0
 21
1485.0
 12
0.0
 22
0.0
 32
0.0
 14
0.0
 24
0.0
 34
0.0
 15
1050.0
 25
1485.0
 35
0.0
146
0.0
 13
0.0
 23
0.0
 33
0.0
 16
1.0
 26
0.0
 36
0.0
 17
0.0
 27
1.0
 37
0.0
 76
     0
330
1F
331
29
  0
MLINESTYLE
  5
18
102
{ACAD_REACTORS
330
17
102
}
330
17
100
AcDbMlineStyle
  2
Standard
 70
     0
  3

 62
   256
 51
90.0
 52
90.0
 71
     2
 49
0.5
 62
   256
  6
BYLAYER
 49
-0.5
 62
   256
  6
BYLAYER
  0
ACDBPLACEHOLDER
  5
F
102
{ACAD_REACTORS
330
E
102
}
330
E
  0
ENDSEC
  0
EOF
