  0
SECTION
  2
HEADER
  9
$ACADVER
  1
AC1015
  9
$ACADMAINTVER
 70
     6
  9
$DWGCODEPAGE
  3
DOS932
  9
$INSBASE
 10
0.0
 20
0.0
 30
0.0
  9
$EXTMIN
 10
0.0
 20
0.0
 30
0.0
  9
$EXTMAX
 10
1050.0
 20
1485.0
 30
0.0
  9
$LIMMIN
 10
0.0
 20
0.0
  9
$LIMMAX
 10
1050.0
 20
1485.0
  9
$ORTHOMODE
 70
     0
  9
$REGENMODE
 70
     1
  9
$FILLMODE
 70
     1
  9
$QTEXTMODE
 70
     0
  9
$MIRRTEXT
 70
     1
  9
$LTSCALE
 40
5.0
  9
$ATTMODE
 70
     1
  9
$TEXTSIZE
 40
17.5
  9
$TRACEWID
 40
1.0
  9
$TEXTSTYLE
  7
Standard
  9
$CLAYER
  8
0
  9
$CELTYPE
  6
ByLayer
  9
$CECOLOR
 62
   256
  9
$CELTSCALE
 40
1.0
  9
$DISPSILH
 70
     0
  9
$DIMSCALE
 40
1.0
  9
$DIMASZ
 40
12.5
  9
$DIMEXO
 40
5.0
  9
$DIMDLI
 40
3.75
  9
$DIMRND
 40
0.0
  9
$DIMDLE
 40
0.0
  9
$DIMEXE
 40
5.0
  9
$DIMTP
 40
0.0
  9
$DIMTM
 40
0.0
  9
$DIMTXT
 40
17.5
  9
$DIMCEN
 40
2.5
  9
$DIMTSZ
 40
0.0
  9
$DIMTOL
 70
     0
  9
$DIMLIM
 70
     0
  9
$DIMTIH
 70
     1
  9
$DIMTOH
 70
     1
  9
$DIMSE1
 70
     0
  9
$DIMSE2
 70
     0
  9
$DIMTAD
 70
     1
  9
$DIMZIN
 70
     1
  9
$DIMBLK
  1

  9
$DIMASO
 70
     1
  9
$DIMSHO
 70
     1
  9
$DIMPOST
  1

  9
$DIMAPOST
  1

  9
$DIMALT
 70
     0
  9
$DIMALTD
 70
     3
  9
$DIMALTF
 40
0.0393700787
  9
$DIMLFAC
 40
1.0
  9
$DIMTOFL
 70
     1
  9
$DIMTVP
 40
0.0
  9
$DIMTIX
 70
     0
  9
$DIMSOXD
 70
     0
  9
$DIMSAH
 70
     0
  9
$DIMBLK1
  1

  9
$DIMBLK2
  1

  9
$DIMSTYLE
  2
ISO-25
  9
$DIMCLRD
 70
     0
  9
$DIMCLRE
 70
     0
  9
$DIMCLRT
 70
     0
  9
$DIMTFAC
 40
1.0
  9
$DIMGAP
 40
7.62
  9
$DIMJUST
 70
     0
  9
$DIMSD1
 70
     0
  9
$DIMSD2
 70
     0
  9
$DIMTOLJ
 70
     0
  9
$DIMTZIN
 70
     1
  9
$DIMALTZ
 70
     0
  9
$DIMALTTZ
 70
     0
  9
$DIMUPT
 70
     0
  9
$DIMDEC
 70
     0
  9
$DIMTDEC
 70
     0
  9
$DIMALTU
 70
     2
  9
$DIMALTTD
 70
     3
  9
$DIMTXSTY
  7
Standard
  9
$DIMAUNIT
 70
     0
  9
$DIMADEC
 70
     0
  9
$DIMALTRND
 40
0.0
  9
$DIMAZIN
 70
     0
  9
$DIMDSEP
 70
    44
  9
$DIMATFIT
 70
     3
  9
$DIMFRAC
 70
     0
  9
$DIMLDRBLK
  1

  9
$DIMLUNIT
 70
     2
  9
$DIMLWD
 70
    -2
  9
$DIMLWE
 70
    -2
  9
$DIMTMOVE
 70
     0
  9
$LUNITS
 70
     2
  9
$LUPREC
 70
     0
  9
$SKETCHINC
 40
1.0
  9
$FILLETRAD
 40
10.0
  9
$AUNITS
 70
     0
  9
$AUPREC
 70
     0
  9
$MENU
  1
.
  9
$ELEVATION
 40
0.0
  9
$PELEVATION
 40
0.0
  9
$THICKNESS
 40
0.0
  9
$LIMCHECK
 70
     0
  9
$CHAMFERA
 40
10.0
  9
$CHAMFERB
 40
10.0
  9
$CHAMFERC
 40
20.0
  9
$CHAMFERD
 40
0.0
  9
$SKPOLY
 70
     0
  9
$TDCREATE
 40
2456954.663575972
  9
$TDUCREATE
 40
2456954.288575972
  9
$TDUPDATE
 40
2456954.663577489
  9
$TDUUPDATE
 40
2456954.288577489
  9
$TDINDWG
 40
0.0000000116
  9
$TDUSRTIMER
 40
0.0000000116
  9
$USRTIMER
 70
     1
  9
$ANGBASE
 50
0.0
  9
$ANGDIR
 70
     0
  9
$PDMODE
 70
     0
  9
$PDSIZE
 40
-1.0
  9
$PLINEWID
 40
0.0
  9
$SPLFRAME
 70
     0
  9
$SPLINETYPE
 70
     6
  9
$SPLINESEGS
 70
     8
  9
$HANDSEED
  5
41A
  9
$SURFTAB1
 70
     6
  9
$SURFTAB2
 70
     6
  9
$SURFTYPE
 70
     6
  9
$SURFU
 70
     6
  9
$SURFV
 70
     6
  9
$UCSBASE
  2

  9
$UCSNAME
  2

  9
$UCSORG
 10
0.0
 20
0.0
 30
0.0
  9
$UCSXDIR
 10
1.0
 20
0.0
 30
0.0
  9
$UCSYDIR
 10
0.0
 20
1.0
 30
0.0
  9
$UCSORTHOREF
  2

  9
$UCSORTHOVIEW
 70
     0
  9
$UCSORGTOP
 10
0.0
 20
0.0
 30
0.0
  9
$UCSORGBOTTOM
 10
0.0
 20
0.0
 30
0.0
  9
$UCSORGLEFT
 10
0.0
 20
0.0
 30
0.0
  9
$UCSORGRIGHT
 10
0.0
 20
0.0
 30
0.0
  9
$UCSORGFRONT
 10
0.0
 20
0.0
 30
0.0
  9
$UCSORGBACK
 10
0.0
 20
0.0
 30
0.0
  9
$PUCSBASE
  2

  9
$PUCSNAME
  2

  9
$PUCSORG
 10
0.0
 20
0.0
 30
0.0
  9
$PUCSXDIR
 10
1.0
 20
0.0
 30
0.0
  9
$PUCSYDIR
 10
0.0
 20
1.0
 30
0.0
  9
$PUCSORTHOREF
  2

  9
$PUCSORTHOVIEW
 70
     0
  9
$PUCSORGTOP
 10
0.0
 20
0.0
 30
0.0
  9
$PUCSORGBOTTOM
 10
0.0
 20
0.0
 30
0.0
  9
$PUCSORGLEFT
 10
0.0
 20
0.0
 30
0.0
  9
$PUCSORGRIGHT
 10
0.0
 20
0.0
 30
0.0
  9
$PUCSORGFRONT
 10
0.0
 20
0.0
 30
0.0
  9
$PUCSORGBACK
 10
0.0
 20
0.0
 30
0.0
  9
$USERI1
 70
     0
  9
$USERI2
 70
     0
  9
$USERI3
 70
     0
  9
$USERI4
 70
     0
  9
$USERI5
 70
     0
  9
$USERR1
 40
0.0
  9
$USERR2
 40
0.0
  9
$USERR3
 40
0.0
  9
$USERR4
 40
0.0
  9
$USERR5
 40
0.0
  9
$WORLDVIEW
 70
     1
  9
$SHADEDGE
 70
     3
  9
$SHADEDIF
 70
    70
  9
$TILEMODE
 70
     1
  9
$MAXACTVP
 70
    64
  9
$PINSBASE
 10
0.0
 20
0.0
 30
0.0
  9
$PLIMCHECK
 70
     0
  9
$PEXTMIN
 10
1.0000000000E+20
 20
1.0000000000E+20
 30
1.0000000000E+20
  9
$PEXTMAX
 10
-1.0000000000E+20
 20
-1.0000000000E+20
 30
-1.0000000000E+20
  9
$PLIMMIN
 10
0.0
 20
0.0
  9
$PLIMMAX
 10
420.0
 20
297.0
  9
$UNITMODE
 70
     0
  9
$VISRETAIN
 70
     1
  9
$PLINEGEN
 70
     0
  9
$PSLTSCALE
 70
     1
  9
$TREEDEPTH
 70
  3020
  9
$CMLSTYLE
  2
Standard
  9
$CMLJUST
 70
     0
  9
$CMLSCALE
 40
20.0
  9
$PROXYGRAPHICS
 70
     1
  9
$MEASUREMENT
 70
     1
  9
$CELWEIGHT
370
    -1
  9
$ENDCAPS
280
     0
  9
$JOINSTYLE
280
     0
  9
$LWDISPLAY
290
     1
  9
$INSUNITS
 70
     4
  9
$HYPERLINKBASE
  1

  9
$STYLESHEET
  1

  9
$XEDIT
290
     1
  9
$CEPSNTYPE
380
     0
  9
$PSTYLEMODE
290
     1
  9
$FINGERPRINTGUID
  2
{C10F6AF0-4568-4294-B5BB-0B7D64D2A38F}
  9
$VERSIONGUID
  2
{FAEB1C32-E019-11D5-929B-00C0DF256EC4}
  9
$EXTNAMES
290
     1
  9
$PSVPSCALE
 40
0.0
  9
$OLESTARTUP
290
     0
  0
ENDSEC
  0
SECTION
  2
CLASSES
  0
CLASS
  1
ACDBDICTIONARYWDFLT
  2
AcDbDictionaryWithDefault
  3
ObjectDBX Classes
 90
        0
280
     0
281
     0
  0
CLASS
  1
VISUALSTYLE
  2
AcDbVisualStyle
  3
ObjectDBX Classes
 90
     4095
280
     0
281
     0
  0
CLASS
  1
MATERIAL
  2
AcDbMaterial
  3
ObjectDBX Classes
 90
     1153
280
     0
281
     0
  0
CLASS
  1
ACDBPLACEHOLDER
  2
AcDbPlaceHolder
  3
ObjectDBX Classes
 90
        0
280
     0
281
     0
  0
CLASS
  1
LAYOUT
  2
AcDbLayout
  3
ObjectDBX Classes
 90
        0
280
     0
281
     0
  0
ENDSEC
  0
SECTION
  2
TABLES
  0
TABLE
  2
VPORT
  5
8
330
0
100
AcDbSymbolTable
 70
     1
  0
VPORT
  5
29
330
8
100
AcDbSymbolTableRecord
100
AcDbViewportTableRecord
  2
*Active
 70
     0
 10
0.0
 20
0.0
 11
1.0
 21
1.0
 12
525.0
 22
742.5
 13
0.0
 23
0.0
 14
10.0
 24
10.0
 15
10.0
 25
10.0
 16
0.0
 26
0.0
 36
1.0
 17
0.0
 27
0.0
 37
0.0
 40
1485.0
 41
0.7070707071
 42
50.0
 43
0.0
 44
0.0
 50
0.0
 51
0.0
 71
     0
 72
  2000
 73
     1
 74
     3
 75
     0
 76
     0
 77
     0
 78
     0
281
     0
 65
     1
110
0.0
120
0.0
130
0.0
111
1.0
121
0.0
131
0.0
112
0.0
122
1.0
132
0.0
 79
     0
146
0.0
  0
ENDTAB
  0
TABLE
  2
LTYPE
  5
5
330
0
100
AcDbSymbolTable
 70
     6
  0
LTYPE
  5
14
330
5
100
AcDbSymbolTableRecord
100
AcDbLinetypeTableRecord
  2
ByBlock
 70
     0
  3

 72
    65
 73
     0
 40
0.0
  0
LTYPE
  5
15
330
5
100
AcDbSymbolTableRecord
100
AcDbLinetypeTableRecord
  2
ByLayer
 70
     0
  3

 72
    65
 73
     0
 40
0.0
  0
LTYPE
  5
16
330
5
100
AcDbSymbolTableRecord
100
AcDbLinetypeTableRecord
  2
Continuous
 70
     0
  3
Solid line
 72
    65
 73
     0
 40
0.0
  0
LTYPE
  5
3F
330
5
100
AcDbSymbolTableRecord
100
AcDbLinetypeTableRecord
  2
HIDDEN
 70
     0
  3
Hidden __ __ __ __ __ __ __ __ __ __ __ __ __ __
 72
    65
 73
     2
 40
1.905
 49
1.27
 74
     0
 49
-0.635
 74
     0
  0
LTYPE
  5
40
330
5
100
AcDbSymbolTableRecord
100
AcDbLinetypeTableRecord
  2
PHANTOM
 70
     0
  3
Phantom ______  __  __  ______  __  __  ______
 72
    65
 73
     6
 40
12.7
 49
6.35
 74
     0
 49
-1.27
 74
     0
 49
1.27
 74
     0
 49
-1.27
 74
     0
 49
1.27
 74
     0
 49
-1.27
 74
     0
  0
LTYPE
  5
41
330
5
100
AcDbSymbolTableRecord
100
AcDbLinetypeTableRecord
  2
CENTER
 70
     0
  3
Center ____ _ ____ _ ____ _ ____ _ ____ _ ____
 72
    65
 73
     4
 40
10.16
 49
6.35
 74
     0
 49
-1.27
 74
     0
 49
1.27
 74
     0
 49
-1.27
 74
     0
  0
LTYPE
  5
42
330
5
100
AcDbSymbolTableRecord
100
AcDbLinetypeTableRecord
  2
CENTERX2
 70
     0
  3
Center (2x) ________  __  ________  __  _____
 72
    65
 73
     4
 40
20.32
 49
12.7
 74
     0
 49
-2.54
 74
     0
 49
2.54
 74
     0
 49
-2.54
 74
     0
  0
LTYPE
  5
43
330
5
100
AcDbSymbolTableRecord
100
AcDbLinetypeTableRecord
  2
DOT2
 70
     0
  3
Dot (.5x) ........................................
 72
    65
 73
     2
 40
0.635
 49
0.0
 74
     0
 49
-0.635
 74
     0
  0
ENDTAB
  0
TABLE
  2
LAYER
  5
2
330
0
100
AcDbSymbolTable
 70
    11
  0
LAYER
  5
10
330
2
100
AcDbSymbolTableRecord
100
AcDbLayerTableRecord
  2
0
 70
     0
 62
     7
  6
Continuous
370
    -3
390
F
  0
LAYER
  5
44
330
2
100
AcDbSymbolTableRecord
100
AcDbLayerTableRecord
  2
SLD-0
 70
     0
 62
   179
  6
Continuous
370
    -3
390
F
  0
LAYER
  5
45
330
2
100
AcDbSymbolTableRecord
100
AcDbLayerTableRecord
  2
AM_6
 70
     0
 62
     2
  6
Continuous
370
    40
390
F
  0
LAYER
  5
46
330
2
100
AcDbSymbolTableRecord
100
AcDbLayerTableRecord
  2
AM_5
 70
     0
 62
     3
  6
Continuous
370
    15
390
F
  0
LAYER
  5
47
330
2
100
AcDbSymbolTableRecord
100
AcDbLayerTableRecord
  2
AM_7
 70
     0
 62
     4
  6
Continuous
370
    15
390
F
  0
LAYER
  5
48
330
2
100
AcDbSymbolTableRecord
100
AcDbLayerTableRecord
  2
SLD-DEFPOINTS
 70
     0
 62
   179
  6
Continuous
370
    -3
390
F
  0
LAYER
  5
49
330
2
100
AcDbSymbolTableRecord
100
AcDbLayerTableRecord
  2
AM_0
 70
     0
 62
   179
  6
Continuous
370
    60
390
F
  0
LAYER
  5
4A
330
2
100
AcDbSymbolTableRecord
100
AcDbLayerTableRecord
  2
AM_CL
 70
     0
 62
     1
  6
Continuous
370
    15
390
F
  0
LAYER
  5
4B
330
2
100
AcDbSymbolTableRecord
100
AcDbLayerTableRecord
  2
6
 70
     0
 62
     2
  6
Continuous
370
    -3
390
F
  0
LAYER
  5
4C
330
2
100
AcDbSymbolTableRecord
100
AcDbLayerTableRecord
  2
AM_4
 70
     0
 62
     3
  6
Continuous
370
    15
390
F
  0
LAYER
  5
4D
330
2
100
AcDbSymbolTableRecord
100
AcDbLayerTableRecord
  2
AM_8
 70
     0
 62
     1
  6
Continuous
370
    15
390
F
  0
ENDTAB
  0
TABLE
  2
STYLE
  5
3
330
0
100
AcDbSymbolTable
 70
     1
  0
STYLE
  5
11
330
3
100
AcDbSymbolTableRecord
100
AcDbTextStyleTableRecord
  2
Standard
 70
     0
 40
0.0
 41
1.0
 50
0.0
 71
     0
 42
17.5
  3
txt
  4
bigfont
  0
ENDTAB
  0
TABLE
  2
VIEW
  5
6
330
0
100
AcDbSymbolTable
 70
     0
  0
ENDTAB
  0
TABLE
  2
UCS
  5
7
330
0
100
AcDbSymbolTable
 70
     0
  0
ENDTAB
  0
TABLE
  2
APPID
  5
9
330
0
100
AcDbSymbolTable
 70
     1
  0
APPID
  5
12
330
9
100
AcDbSymbolTableRecord
100
AcDbRegAppTableRecord
  2
ACAD
 70
     0
  0
ENDTAB
  0
TABLE
  2
DIMSTYLE
  5
A
330
0
100
AcDbSymbolTable
 70
     1
100
AcDbDimStyleTable
  0
DIMSTYLE
105
27
330
A
100
AcDbSymbolTableRecord
100
AcDbDimStyleTableRecord
  2
ISO-25
 70
     0
 41
2.5
 42
0.625
 43
3.75
 44
1.25
 73
     0
 74
     0
 77
     1
 78
     8
140
2.5
141
2.5
143
0.0393700787
147
0.625
171
     3
172
     1
178
     0
271
     2
272
     2
274
     3
278
    44
283
     0
284
     8
340
11
  0
ENDTAB
  0
TABLE
  2
BLOCK_RECORD
  5
1
330
0
100
AcDbSymbolTable
 70
     3
  0
BLOCK_RECORD
  5
1F
330
1
100
AcDbSymbolTableRecord
100
AcDbBlockTableRecord
  2
*Model_Space
340
22
  0
BLOCK_RECORD
  5
1B
330
1
100
AcDbSymbolTableRecord
100
AcDbBlockTableRecord
  2
*Paper_Space
340
1E
  0
BLOCK_RECORD
  5
23
330
1
100
AcDbSymbolTableRecord
100
AcDbBlockTableRecord
  2
*Paper_Space0
340
26
  0
BLOCK_RECORD
  5
27F
330
1
100
AcDbSymbolTableRecord
100
AcDbBlockTableRecord
  2
SW_CENTERMARKSYMBOL_0
340
0
102
{BLKREFS
331
28A
102
}
  0
BLOCK_RECORD
  5
3CD
330
1
100
AcDbSymbolTableRecord
100
AcDbBlockTableRecord
  2
SW_CENTERMARKSYMBOL_1
340
0
102
{BLKREFS
331
419
102
}
  0
ENDTAB
  0
ENDSEC
  0
SECTION
  2
BLOCKS
  0
BLOCK
  5
20
330
1F
100
AcDbEntity
  8
0
100
AcDbBlockBegin
  2
*Model_Space
 70
     0
 10
0.0
 20
0.0
 30
0.0
  3
*Model_Space
  1

  0
ENDBLK
  5
21
330
1F
100
AcDbEntity
  8
0
100
AcDbBlockEnd
  0
BLOCK
  5
1C
330
1B
100
AcDbEntity
 67
     1
  8
0
100
AcDbBlockBegin
  2
*Paper_Space
 70
     0
 10
0.0
 20
0.0
 30
0.0
  3
*Paper_Space
  1

  0
ENDBLK
  5
1D
330
1B
100
AcDbEntity
 67
     1
  8
0
100
AcDbBlockEnd
  0
BLOCK
  5
24
330
23
100
AcDbEntity
  8
0
100
AcDbBlockBegin
  2
*Paper_Space0
 70
     0
 10
0.0
 20
0.0
 30
0.0
  3
*Paper_Space0
  1

  0
ENDBLK
  5
25
330
23
100
AcDbEntity
  8
0
100
AcDbBlockEnd
  0
BLOCK
  5
280
330
27F
100
AcDbEntity
  8
0
100
AcDbBlockBegin
  2
SW_CENTERMARKSYMBOL_0
 70
     0
 10
0.0
 20
0.0
 30
0.0
  3
SW_CENTERMARKSYMBOL_0
  1

  0
LINE
  5
282
330
27F
100
AcDbEntity
  8
SLD-0
 62
     0
100
AcDbLine
 10
0.0
 20
0.0
 30
0.0
 11
0.0
 21
2.5
 31
0.0
  0
LINE
  5
283
330
27F
100
AcDbEntity
  8
SLD-0
 62
     0
100
AcDbLine
 10
0.0
 20
0.0
 30
0.0
 11
-2.5
 21
0.0
 31
0.0
  0
LINE
  5
284
330
27F
100
AcDbEntity
  8
SLD-0
 62
     0
100
AcDbLine
 10
0.0
 20
0.0
 30
0.0
 11
0.0
 21
-2.5
 31
0.0
  0
LINE
  5
285
330
27F
100
AcDbEntity
  8
SLD-0
 62
     0
100
AcDbLine
 10
0.0
 20
0.0
 30
0.0
 11
2.5
 21
0.0
 31
0.0
  0
LINE
  5
286
330
27F
100
AcDbEntity
  8
SLD-0
 62
     0
100
AcDbLine
 10
0.0
 20
5.0
 30
0.0
 11
0.0
 21
246.695628776
 31
0.0
  0
LINE
  5
287
330
27F
100
AcDbEntity
  8
SLD-0
 62
     0
100
AcDbLine
 10
-5.0
 20
0.0
 30
0.0
 11
-33.8746575296
 21
0.0
 31
0.0
  0
LINE
  5
288
330
27F
100
AcDbEntity
  8
SLD-0
 62
     0
100
AcDbLine
 10
0.0
 20
-5.0
 30
0.0
 11
0.0
 21
-216.488180319
 31
0.0
  0
LINE
  5
289
330
27F
100
AcDbEntity
  8
SLD-0
 62
     0
100
AcDbLine
 10
5.0
 20
0.0
 30
0.0
 11
32.0087914066
 21
0.0
 31
0.0
  0
ENDBLK
  5
281
330
27F
100
AcDbEntity
  8
0
100
AcDbBlockEnd
  0
BLOCK
  5
3CE
330
3CD
100
AcDbEntity
  8
0
100
AcDbBlockBegin
  2
SW_CENTERMARKSYMBOL_1
 70
     0
 10
0.0
 20
0.0
 30
0.0
  3
SW_CENTERMARKSYMBOL_1
  1

  0
ARC
  5
3D0
330
3CD
100
AcDbEntity
  8
SLD-0
 62
     0
100
AcDbCircle
 10
76.0139789776
 20
-76.0139789776
 30
0.0
 40
107.5
100
AcDbArc
 50
135.0
 51
136.3324599887
  0
ARC
  5
3D1
330
3CD
100
AcDbEntity
  8
SLD-0
 62
     0
100
AcDbCircle
 10
76.0139789776
 20
-76.0139789776
 30
0.0
 40
107.5
100
AcDbArc
 50
133.6675400113
 51
135.0
  0
ARC
  5
3D2
330
3CD
100
AcDbEntity
  8
SLD-0
 62
     0
100
AcDbCircle
 10
76.0139789776
 20
-76.0139789776
 30
0.0
 40
107.5
100
AcDbArc
 50
45.0
 51
46.3324599887
  0
ARC
  5
3D3
330
3CD
100
AcDbEntity
  8
SLD-0
 62
     0
100
AcDbCircle
 10
76.0139789776
 20
-76.0139789776
 30
0.0
 40
107.5
100
AcDbArc
 50
43.6675400113
 51
45.0
  0
ARC
  5
3D4
330
3CD
100
AcDbEntity
  8
SLD-0
 62
     0
100
AcDbCircle
 10
76.0139789776
 20
-76.0139789776
 30
0.0
 40
107.5
100
AcDbArc
 50
315.0
 51
316.3324599887
  0
ARC
  5
3D5
330
3CD
100
AcDbEntity
  8
SLD-0
 62
     0
100
AcDbCircle
 10
76.0139789776
 20
-76.0139789776
 30
0.0
 40
107.5
100
AcDbArc
 50
313.6675400113
 51
315.0
  0
ARC
  5
3D6
330
3CD
100
AcDbEntity
  8
SLD-0
 62
     0
100
AcDbCircle
 10
76.0139789776
 20
-76.0139789776
 30
0.0
 40
107.5000000000001
100
AcDbArc
 50
225.0
 51
226.3324599887
  0
ARC
  5
3D7
330
3CD
100
AcDbEntity
  8
SLD-0
 62
     0
100
AcDbCircle
 10
76.0139789776
 20
-76.0139789776
 30
0.0
 40
107.5
100
AcDbArc
 50
223.6675400113
 51
225.0
  0
ARC
  5
3D8
330
3CD
100
AcDbEntity
  8
SLD-0
 62
     0
100
AcDbCircle
 10
76.0139789776
 20
-76.0139789776
 30
0.0
 40
39.00000000000001
100
AcDbArc
 50
90.0
 51
93.672806379
  0
ARC
  5
3D9
330
3CD
100
AcDbEntity
  8
SLD-0
 62
     0
100
AcDbCircle
 10
76.0139789776
 20
-76.0139789776
 30
0.0
 40
39.00000000000001
100
AcDbArc
 50
86.327193621
 51
90.0
  0
ARC
  5
3DA
330
3CD
100
AcDbEntity
  8
SLD-0
 62
     0
100
AcDbCircle
 10
76.0139789776
 20
-76.0139789776
 30
0.0
 40
38.99999999999999
100
AcDbArc
 50
330.0
 51
333.672806379
  0
ARC
  5
3DB
330
3CD
100
AcDbEntity
  8
SLD-0
 62
     0
100
AcDbCircle
 10
76.0139789776
 20
-76.0139789776
 30
0.0
 40
39.0
100
AcDbArc
 50
326.327193621
 51
330.0
  0
ARC
  5
3DC
330
3CD
100
AcDbEntity
  8
SLD-0
 62
     0
100
AcDbCircle
 10
76.0139789776
 20
-76.0139789776
 30
0.0
 40
39.00000000000002
100
AcDbArc
 50
210.0
 51
213.672806379
  0
ARC
  5
3DD
330
3CD
100
AcDbEntity
  8
SLD-0
 62
     0
100
AcDbCircle
 10
76.0139789776
 20
-76.0139789776
 30
0.0
 40
39.00000000000009
100
AcDbArc
 50
206.327193621
 51
210.0
  0
ARC
  5
3DE
330
3CD
100
AcDbEntity
  8
SLD-0
 62
     0
100
AcDbCircle
 10
76.0139789776
 20
-76.0139789776
 30
0.0
 40
105.0000000000001
100
AcDbArc
 50
122.0
 51
123.3641852265
  0
ARC
  5
3DF
330
3CD
100
AcDbEntity
  8
SLD-0
 62
     0
100
AcDbCircle
 10
76.0139789776
 20
-76.0139789776
 30
0.0
 40
105.0000000000001
100
AcDbArc
 50
120.6358147735
 51
122.0
  0
ARC
  5
3E0
330
3CD
100
AcDbEntity
  8
SLD-0
 62
     0
100
AcDbCircle
 10
76.0139789776
 20
-76.0139789776
 30
0.0
 40
105.0
100
AcDbArc
 50
124.728370453
 51
125.5468815889
  0
ARC
  5
3E1
330
3CD
100
AcDbEntity
  8
SLD-0
 62
     0
100
AcDbCircle
 10
76.0139789776
 20
-76.0139789776
 30
0.0
 40
105.0
100
AcDbArc
 50
118.4531184111
 51
119.271629547
  0
ARC
  5
3E2
330
3CD
100
AcDbEntity
  8
SLD-0
 62
     0
100
AcDbCircle
 10
76.0139789776
 20
-76.0139789776
 30
0.0
 40
105.0
100
AcDbArc
 50
302.0
 51
303.3641852265
  0
ARC
  5
3E3
330
3CD
100
AcDbEntity
  8
SLD-0
 62
     0
100
AcDbCircle
 10
76.0139789776
 20
-76.0139789776
 30
0.0
 40
105.0
100
AcDbArc
 50
300.6358147735
 51
302.0
  0
ARC
  5
3E4
330
3CD
100
AcDbEntity
  8
SLD-0
 62
     0
100
AcDbCircle
 10
76.0139789776
 20
-76.0139789776
 30
0.0
 40
105.0
100
AcDbArc
 50
304.728370453
 51
305.5468815889
  0
ARC
  5
3E5
330
3CD
100
AcDbEntity
  8
SLD-0
 62
     0
100
AcDbCircle
 10
76.0139789776
 20
-76.0139789776
 30
0.0
 40
105.0
100
AcDbArc
 50
298.4531184111
 51
299.271629547
  0
ARC
  5
3E6
330
3CD
100
AcDbEntity
  8
SLD-0
 62
     0
100
AcDbCircle
 10
76.0139789776
 20
-76.0139789776
 30
0.0
 40
107.5
100
AcDbArc
 50
47.6649199774
 51
132.3350800226
  0
ARC
  5
3E7
330
3CD
100
AcDbEntity
  8
SLD-0
 62
     0
100
AcDbCircle
 10
76.0139789776
 20
-76.0139789776
 30
0.0
 40
107.5
100
AcDbArc
 50
317.6649199774
 51
42.3350800226
  0
ARC
  5
3E8
330
3CD
100
AcDbEntity
  8
SLD-0
 62
     0
100
AcDbCircle
 10
76.0139789776
 20
-76.0139789776
 30
0.0
 40
107.5
100
AcDbArc
 50
137.6649199774
 51
222.3350800226
  0
ARC
  5
3E9
330
3CD
100
AcDbEntity
  8
SLD-0
 62
     0
100
AcDbCircle
 10
76.0139789776
 20
-76.0139789776
 30
0.0
 40
107.5
100
AcDbArc
 50
227.6649199774
 51
312.3350800226
  0
ARC
  5
3EA
330
3CD
100
AcDbEntity
  8
SLD-0
 62
     0
100
AcDbCircle
 10
76.0139789776
 20
-76.0139789776
 30
0.0
 40
39.00000000000001
100
AcDbArc
 50
337.3456127581
 51
82.6543872419
  0
ARC
  5
3EB
330
3CD
100
AcDbEntity
  8
SLD-0
 62
     0
100
AcDbCircle
 10
76.0139789776
 20
-76.0139789776
 30
0.0
 40
39.00000000000005
100
AcDbArc
 50
97.3456127581
 51
202.6543872419
  0
ARC
  5
3EC
330
3CD
100
AcDbEntity
  8
SLD-0
 62
     0
100
AcDbCircle
 10
76.0139789776
 20
-76.0139789776
 30
0.0
 40
39.00000000000006
100
AcDbArc
 50
217.3456127581
 51
322.6543872419
  0
LINE
  5
3ED
330
3CD
100
AcDbEntity
  8
SLD-0
 62
     0
100
AcDbLine
 10
0.0
 20
0.0
 30
0.0
 11
-1.767766953
 21
1.767766953
 31
0.0
  0
LINE
  5
3EE
330
3CD
100
AcDbEntity
  8
SLD-0
 62
     0
100
AcDbLine
 10
0.0
 20
0.0
 30
0.0
 11
1.767766953
 21
-1.767766953
 31
0.0
  0
LINE
  5
3EF
330
3CD
100
AcDbEntity
  8
SLD-0
 62
     0
100
AcDbLine
 10
-3.5355339059
 20
3.5355339059
 30
0.0
 11
-6.0104076401
 21
6.0104076401
 31
0.0
  0
LINE
  5
3F0
330
3CD
100
AcDbEntity
  8
SLD-0
 62
     0
100
AcDbLine
 10
3.5355339059
 20
-3.5355339059
 30
0.0
 11
6.0104076401
 21
-6.0104076401
 31
0.0
  0
LINE
  5
3F1
330
3CD
100
AcDbEntity
  8
SLD-0
 62
     0
100
AcDbLine
 10
152.0279579551
 20
0.0
 30
0.0
 11
153.7957249081
 21
1.767766953
 31
0.0
  0
LINE
  5
3F2
330
3CD
100
AcDbEntity
  8
SLD-0
 62
     0
100
AcDbLine
 10
152.0279579551
 20
0.0
 30
0.0
 11
150.2601910021
 21
-1.767766953
 31
0.0
  0
LINE
  5
3F3
330
3CD
100
AcDbEntity
  8
SLD-0
 62
     0
100
AcDbLine
 10
155.563491861
 20
3.5355339059
 30
0.0
 11
158.0383655952
 21
6.0104076401
 31
0.0
  0
LINE
  5
3F4
330
3CD
100
AcDbEntity
  8
SLD-0
 62
     0
100
AcDbLine
 10
148.4924240492
 20
-3.5355339059
 30
0.0
 11
146.017550315
 21
-6.0104076401
 31
0.0
  0
LINE
  5
3F5
330
3CD
100
AcDbEntity
  8
SLD-0
 62
     0
100
AcDbLine
 10
152.0279579551
 20
-152.0279579551
 30
0.0
 11
153.7957249081
 21
-153.7957249081
 31
0.0
  0
LINE
  5
3F6
330
3CD
100
AcDbEntity
  8
SLD-0
 62
     0
100
AcDbLine
 10
152.0279579551
 20
-152.0279579551
 30
0.0
 11
150.2601910021
 21
-150.2601910021
 31
0.0
  0
LINE
  5
3F7
330
3CD
100
AcDbEntity
  8
SLD-0
 62
     0
100
AcDbLine
 10
155.563491861
 20
-155.563491861
 30
0.0
 11
158.0383655952
 21
-158.0383655952
 31
0.0
  0
LINE
  5
3F8
330
3CD
100
AcDbEntity
  8
SLD-0
 62
     0
100
AcDbLine
 10
148.4924240492
 20
-148.4924240492
 30
0.0
 11
146.017550315
 21
-146.017550315
 31
0.0
  0
LINE
  5
3F9
330
3CD
100
AcDbEntity
  8
SLD-0
 62
     0
100
AcDbLine
 10
76.0139789776
 20
-76.0139789776
 30
0.0
 11
76.0139789776
 21
-73.5139789776
 31
0.0
  0
LINE
  5
3FA
330
3CD
100
AcDbEntity
  8
SLD-0
 62
     0
100
AcDbLine
 10
76.0139789776
 20
-76.0139789776
 30
0.0
 11
73.5139789776
 21
-76.0139789776
 31
0.0
  0
LINE
  5
3FB
330
3CD
100
AcDbEntity
  8
SLD-0
 62
     0
100
AcDbLine
 10
76.0139789776
 20
-76.0139789776
 30
0.0
 11
76.0139789776
 21
-78.5139789776
 31
0.0
  0
LINE
  5
3FC
330
3CD
100
AcDbEntity
  8
SLD-0
 62
     0
100
AcDbLine
 10
76.0139789776
 20
-76.0139789776
 30
0.0
 11
78.5139789776
 21
-76.0139789776
 31
0.0
  0
LINE
  5
3FD
330
3CD
100
AcDbEntity
  8
SLD-0
 62
     0
100
AcDbLine
 10
76.0139789776
 20
-71.0139789776
 30
0.0
 11
76.0139789776
 21
2.5
 31
0.0
  0
LINE
  5
3FE
330
3CD
100
AcDbEntity
  8
SLD-0
 62
     0
100
AcDbLine
 10
71.0139789776
 20
-76.0139789776
 30
0.0
 11
-2.5
 21
-76.0139789776
 31
0.0
  0
LINE
  5
3FF
330
3CD
100
AcDbEntity
  8
SLD-0
 62
     0
100
AcDbLine
 10
76.0139789776
 20
-81.0139789776
 30
0.0
 11
76.0139789776
 21
-154.5279579551
 31
0.0
  0
LINE
  5
400
330
3CD
100
AcDbEntity
  8
SLD-0
 62
     0
100
AcDbLine
 10
81.0139789776
 20
-76.0139789776
 30
0.0
 11
154.5279579551
 21
-76.0139789776
 31
0.0
  0
LINE
  5
401
330
3CD
100
AcDbEntity
  8
SLD-0
 62
     0
100
AcDbLine
 10
0.0
 20
-152.0279579551
 30
0.0
 11
-1.767766953
 21
-153.7957249081
 31
0.0
  0
LINE
  5
402
330
3CD
100
AcDbEntity
  8
SLD-0
 62
     0
100
AcDbLine
 10
0.0
 20
-152.0279579551
 30
0.0
 11
1.767766953
 21
-150.2601910021
 31
0.0
  0
LINE
  5
403
330
3CD
100
AcDbEntity
  8
SLD-0
 62
     0
100
AcDbLine
 10
-3.5355339059
 20
-155.563491861
 30
0.0
 11
-6.0104076401
 21
-158.0383655952
 31
0.0
  0
LINE
  5
404
330
3CD
100
AcDbEntity
  8
SLD-0
 62
     0
100
AcDbLine
 10
3.5355339059
 20
-148.4924240492
 30
0.0
 11
6.0104076401
 21
-146.017550315
 31
0.0
  0
LINE
  5
405
330
3CD
100
AcDbEntity
  8
SLD-0
 62
     0
100
AcDbLine
 10
76.0139789776
 20
-37.0139789776
 30
0.0
 11
76.0139789776
 21
-34.5139789776
 31
0.0
  0
LINE
  5
406
330
3CD
100
AcDbEntity
  8
SLD-0
 62
     0
100
AcDbLine
 10
76.0139789776
 20
-37.0139789776
 30
0.0
 11
76.0139789776
 21
-39.5139789776
 31
0.0
  0
LINE
  5
407
330
3CD
100
AcDbEntity
  8
SLD-0
 62
     0
100
AcDbLine
 10
76.0139789776
 20
-34.5139789776
 30
0.0
 11
76.0139789776
 21
-32.0139789776
 31
0.0
  0
LINE
  5
408
330
3CD
100
AcDbEntity
  8
SLD-0
 62
     0
100
AcDbLine
 10
76.0139789776
 20
-39.5139789776
 30
0.0
 11
76.0139789776
 21
-42.0139789776
 31
0.0
  0
LINE
  5
409
330
3CD
100
AcDbEntity
  8
SLD-0
 62
     0
100
AcDbLine
 10
109.7889697251
 20
-95.5139789776
 30
0.0
 11
111.9540332346
 21
-96.7639789776
 31
0.0
  0
LINE
  5
40A
330
3CD
100
AcDbEntity
  8
SLD-0
 62
     0
100
AcDbLine
 10
109.7889697251
 20
-95.5139789776
 30
0.0
 11
107.6239062157
 21
-94.2639789776
 31
0.0
  0
LINE
  5
40B
330
3CD
100
AcDbEntity
  8
SLD-0
 62
     0
100
AcDbLine
 10
111.9540332346
 20
-96.7639789776
 30
0.0
 11
114.1190967441
 21
-98.0139789776
 31
0.0
  0
LINE
  5
40C
330
3CD
100
AcDbEntity
  8
SLD-0
 62
     0
100
AcDbLine
 10
107.6239062157
 20
-94.2639789776
 30
0.0
 11
105.4588427062
 21
-93.0139789776
 31
0.0
  0
LINE
  5
40D
330
3CD
100
AcDbEntity
  8
SLD-0
 62
     0
100
AcDbLine
 10
42.23898823
 20
-95.5139789776
 30
0.0
 11
40.0739247205
 21
-96.7639789776
 31
0.0
  0
LINE
  5
40E
330
3CD
100
AcDbEntity
  8
SLD-0
 62
     0
100
AcDbLine
 10
42.23898823
 20
-95.5139789776
 30
0.0
 11
44.4040517394
 21
-94.2639789776
 31
0.0
  0
LINE
  5
40F
330
3CD
100
AcDbEntity
  8
SLD-0
 62
     0
100
AcDbLine
 10
40.0739247205
 20
-96.7639789776
 30
0.0
 11
37.908861211
 21
-98.0139789776
 31
0.0
  0
LINE
  5
410
330
3CD
100
AcDbEntity
  8
SLD-0
 62
     0
100
AcDbLine
 10
44.4040517394
 20
-94.2639789776
 30
0.0
 11
46.5691152489
 21
-93.0139789776
 31
0.0
  0
LINE
  5
411
330
3CD
100
AcDbEntity
  8
SLD-0
 62
     0
100
AcDbLine
 10
20.3724562331
 20
13.0310711189
 30
0.0
 11
19.0476580725
 21
15.1511913593
 31
0.0
  0
LINE
  5
412
330
3CD
100
AcDbEntity
  8
SLD-0
 62
     0
100
AcDbLine
 10
20.3724562331
 20
13.0310711189
 30
0.0
 11
21.6972543937
 21
10.9109508785
 31
0.0
  0
LINE
  5
413
330
3CD
100
AcDbEntity
  8
SLD-0
 62
     0
100
AcDbLine
 10
17.7228599119
 20
17.2713115997
 30
0.0
 11
16.9279810156
 21
18.5433837439
 31
0.0
  0
LINE
  5
414
330
3CD
100
AcDbEntity
  8
SLD-0
 62
     0
100
AcDbLine
 10
23.0220525542
 20
8.7908306381
 30
0.0
 11
23.8169314506
 21
7.5187584939
 31
0.0
  0
LINE
  5
415
330
3CD
100
AcDbEntity
  8
SLD-0
 62
     0
100
AcDbLine
 10
131.655501722
 20
-165.059029074
 30
0.0
 11
132.9802998826
 21
-167.1791493144
 31
0.0
  0
LINE
  5
416
330
3CD
100
AcDbEntity
  8
SLD-0
 62
     0
100
AcDbLine
 10
131.655501722
 20
-165.059029074
 30
0.0
 11
130.3307035615
 21
-162.9389088336
 31
0.0
  0
LINE
  5
417
330
3CD
100
AcDbEntity
  8
SLD-0
 62
     0
100
AcDbLine
 10
134.3050980432
 20
-169.2992695548
 30
0.0
 11
135.0999769396
 21
-170.571341699
 31
0.0
  0
LINE
  5
418
330
3CD
100
AcDbEntity
  8
SLD-0
 62
     0
100
AcDbLine
 10
129.0059054009
 20
-160.8187885932
 30
0.0
 11
128.2110265045
 21
-159.546716449
 31
0.0
  0
ENDBLK
  5
3CF
330
3CD
100
AcDbEntity
  8
0
100
AcDbBlockEnd
  0
ENDSEC
  0
SECTION
  2
ENTITIES
  0
LINE
  5
4E
330
1F
100
AcDbEntity
  8
0
  6
Continuous
 62
     7
370
    15
100
AcDbLine
 10
601.3144621019
 20
1192.0512008456
 30
0.0
 11
584.1179409389
 21
1204.092337468
 31
0.0
  0
LINE
  5
4F
330
1F
100
AcDbEntity
  8
0
  6
Continuous
 62
     7
370
    15
100
AcDbLine
 10
445.412240303
 20
1204.092337468
 30
0.0
 11
428.21571914
 21
1192.0512008456
 31
0.0
  0
ARC
  5
50
330
1F
100
AcDbEntity
  8
0
  6
Continuous
 62
     7
370
    15
100
AcDbCircle
 10
603.7650906209
 20
1189.6895030526
 30
0.0
 40
2.0
100
AcDbArc
 50
0.0
 51
90.0
  0
ARC
  5
51
330
1F
100
AcDbEntity
  8
0
  6
Continuous
 62
     7
370
    15
100
AcDbCircle
 10
425.7650906209
 20
1189.6895030526
 30
0.0
 40
2.0
100
AcDbArc
 50
90.0
 51
180.0
  0
LINE
  5
52
330
1F
100
AcDbEntity
  8
0
  6
Continuous
 62
     7
370
    15
100
AcDbLine
 10
423.7650924687
 20
1189.6895009068
 30
0.0
 11
423.7650924687
 21
1140.6895059136
 31
0.0
  0
LINE
  5
53
330
1F
100
AcDbEntity
  8
0
  6
Continuous
 62
     7
370
    15
100
AcDbLine
 10
605.7650887732
 20
1146.7066097048
 30
0.0
 11
605.7650887732
 21
1189.6895009068
 31
0.0
  0
ARC
  5
54
330
1F
100
AcDbEntity
  8
0
  6
Continuous
 62
     7
370
    15
100
AcDbCircle
 10
602.4616122863
 20
1193.6895030526
 30
0.0
 40
2.0
100
AcDbArc
 50
235.0
 51
270.0
  0
ARC
  5
55
330
1F
100
AcDbEntity
  8
0
  6
Continuous
 62
     7
370
    15
100
AcDbCircle
 10
427.0685689555
 20
1193.6895030526
 30
0.0
 40
2.000000000000018
100
AcDbArc
 50
270.0
 51
305.0
  0
ARC
  5
56
330
1F
100
AcDbEntity
  8
0
  6
Continuous
 62
     7
370
    15
100
AcDbCircle
 10
444.2650906209
 20
1205.7306371537
 30
0.0
 40
2.000000000000051
100
AcDbArc
 50
305.0
 51
0.0
  0
ARC
  5
57
330
1F
100
AcDbEntity
  8
0
  6
Continuous
 62
     7
370
    15
100
AcDbCircle
 10
585.2650906209
 20
1205.7306371537
 30
0.0
 40
2.000000000000051
100
AcDbArc
 50
180.0
 51
235.0
  0
ARC
  5
58
330
1F
100
AcDbEntity
  8
0
  6
Continuous
 62
     7
370
    15
100
AcDbCircle
 10
581.2650906209
 20
1207.6895030526
 30
0.0
 40
2.0
100
AcDbArc
 50
0.0
 51
90.0
  0
ARC
  5
59
330
1F
100
AcDbEntity
  8
0
  6
Continuous
 62
     7
370
    15
100
AcDbCircle
 10
448.2650906209
 20
1207.6895030526
 30
0.0
 40
2.000000000000057
100
AcDbArc
 50
90.0
 51
180.0
  0
LINE
  5
5A
330
1F
100
AcDbEntity
  8
0
  6
Continuous
 62
     7
370
    15
100
AcDbLine
 10
446.2650933627
 20
1207.6895075825
 30
0.0
 11
446.2650933627
 21
1205.7306307343
 31
0.0
  0
LINE
  5
5B
330
1F
100
AcDbEntity
  8
0
  6
Continuous
 62
     7
370
    15
100
AcDbLine
 10
583.2650878791
 20
1205.7306307343
 30
0.0
 11
583.2650878791
 21
1207.6895075825
 31
0.0
  0
ARC
  5
5C
330
1F
100
AcDbEntity
  8
0
  6
Continuous
 62
     7
370
    15
100
AcDbCircle
 10
596.4721001323
 20
1173.6252506575
 30
0.0
 40
2.0
100
AcDbArc
 50
0.0
 51
53.192807859
  0
LINE
  5
5D
330
1F
100
AcDbEntity
  8
0
  6
Continuous
 62
     7
370
    15
100
AcDbLine
 10
598.472102857
 20
1140.6895059136
 30
0.0
 11
598.472102857
 21
1173.6252444771
 31
0.0
  0
ARC
  5
5E
330
1F
100
AcDbEntity
  8
0
  6
Continuous
 62
     7
370
    15
100
AcDbCircle
 10
433.0580811096
 20
1173.6252506575
 30
0.0
 40
2.000000000000078
100
AcDbArc
 50
126.807192141
 51
180.0
  0
LINE
  5
5F
330
1F
100
AcDbEntity
  8
0
  6
Continuous
 62
     7
370
    15
100
AcDbLine
 10
431.0580783848
 20
1173.6252444771
 30
0.0
 11
431.0580783848
 21
1140.6895059136
 31
0.0
  0
SPLINE
  5
60
330
1F
100
AcDbEntity
  8
0
  6
Continuous
 62
     7
370
    15
100
AcDbSpline
210
0.0
220
0.0
230
1.0
 70
     8
 71
     3
 72
    10
 73
     6
 74
     0
 42
0.00000001
 43
0.00000001
 12
1.0
 22
0.0
 32
0.0
 13
1.0
 23
0.0
 33
0.0
 40
0.0
 40
0.0
 40
0.0
 40
0.0
 40
0.1787780642378388
 40
0.7952348869926334
 40
1.0
 40
1.0
 40
1.0
 40
1.0
 10
597.678027427605
 20
1175.221143939819
 30
0.0
 10
597.6804673549285
 20
1175.218935854188
 30
0.0
 10
597.6913205618786
 20
1175.209113918063
 30
0.0
 10
597.6248028699293
 20
1175.289283502078
 30
0.0
 10
597.6445285580688
 20
1175.501340084285
 30
0.0
 10
597.6494470004352
 20
1175.554214694824
 30
0.0
  0
SPLINE
  5
61
330
1F
100
AcDbEntity
  8
0
  6
Continuous
 62
     7
370
    15
100
AcDbSpline
210
0.0
220
0.0
230
1.0
 70
     8
 71
     3
 72
     9
 73
     5
 74
     0
 42
0.00000001
 43
0.00000001
 12
1.0
 22
0.0
 32
0.0
 13
1.0
 23
0.0
 33
0.0
 40
0.0
 40
0.0
 40
0.0
 40
0.0
 40
0.6670610373250803
 40
1.0
 40
1.0
 40
1.0
 40
1.0
 10
431.8949499491962
 20
1175.521044710006
 30
0.0
 10
431.8776804192801
 20
1175.395935993983
 30
0.0
 10
431.8517914391871
 20
1175.208383867532
 30
0.0
 10
431.8546624596502
 20
1175.224094121616
 30
0.0
 10
431.8556183342251
 20
1175.229324677314
 30
0.0
  0
LINE
  5
62
330
1F
100
AcDbEntity
  8
0
  6
Continuous
 62
     7
370
    15
100
AcDbLine
 10
612.6133793358
 20
1138.1895082978
 30
0.0
 11
597.1585654978
 21
1138.1895082978
 31
0.0
  0
LINE
  5
63
330
1F
100
AcDbEntity
  8
0
  6
Continuous
 62
     7
370
    15
100
AcDbLine
 10
597.1585654978
 20
1098.1895017413
 30
0.0
 11
612.6133793358
 21
1098.1895017413
 31
0.0
  0
LINE
  5
64
330
1F
100
AcDbEntity
  8
0
  6
Continuous
 62
     7
370
    15
100
AcDbLine
 10
614.0003868703
 20
1098.9208432821
 30
0.0
 11
614.896959937
 21
1099.8842778591
 31
0.0
  0
LINE
  5
65
330
1F
100
AcDbEntity
  8
0
  6
Continuous
 62
     7
370
    15
100
AcDbLine
 10
614.896959937
 20
1136.4947247294
 30
0.0
 11
614.0003868703
 21
1137.4581593064
 31
0.0
  0
LINE
  5
66
330
1F
100
AcDbEntity
  8
0
  6
Continuous
 62
     7
370
    15
100
AcDbLine
 10
470.6898474459
 20
743.6895060328
 30
0.0
 11
470.6898474459
 21
744.6895080593
 31
0.0
  0
LINE
  5
67
330
1F
100
AcDbEntity
  8
0
  6
Continuous
 62
     7
370
    15
100
AcDbLine
 10
456.3098506395
 20
744.6895080593
 30
0.0
 11
456.3098506395
 21
743.6895060328
 31
0.0
  0
LINE
  5
68
330
1F
100
AcDbEntity
  8
0
  6
Continuous
 62
     7
370
    15
100
AcDbLine
 10
467.4998478357
 20
758.6895066288
 30
0.0
 11
467.4998478357
 21
833.1895011452
 31
0.0
  0
LINE
  5
69
330
1F
100
AcDbEntity
  8
0
  6
Continuous
 62
     7
370
    15
100
AcDbLine
 10
467.4998478357
 20
847.1894997147
 30
0.0
 11
467.4998478357
 21
853.6895054367
 31
0.0
  0
LINE
  5
6A
330
1F
100
AcDbEntity
  8
0
  6
Continuous
 62
     7
370
    15
100
AcDbLine
 10
459.4998502497
 20
853.6895054367
 30
0.0
 11
459.4998502497
 21
847.1894997147
 31
0.0
  0
LINE
  5
6B
330
1F
100
AcDbEntity
  8
0
  6
Continuous
 62
     7
370
    15
100
AcDbLine
 10
459.4998502497
 20
833.1895011452
 30
0.0
 11
459.4998502497
 21
758.6895066288
 31
0.0
  0
LINE
  5
6C
330
1F
100
AcDbEntity
  8
0
  6
Continuous
 62
     7
370
    15
100
AcDbLine
 10
573.2203306023
 20
743.6895060328
 30
0.0
 11
573.2203306023
 21
744.6895080593
 31
0.0
  0
LINE
  5
6D
330
1F
100
AcDbEntity
  8
0
  6
Continuous
 62
     7
370
    15
100
AcDbLine
 10
558.840333796
 20
744.6895080593
 30
0.0
 11
558.840333796
 21
743.6895060328
 31
0.0
  0
LINE
  5
6E
330
1F
100
AcDbEntity
  8
0
  6
Continuous
 62
     7
370
    15
100
AcDbLine
 10
570.0303309922
 20
758.6895066288
 30
0.0
 11
570.0303309922
 21
833.1895011452
 31
0.0
  0
LINE
  5
6F
330
1F
100
AcDbEntity
  8
0
  6
Continuous
 62
     7
370
    15
100
AcDbLine
 10
570.0303309922
 20
847.1894997147
 30
0.0
 11
570.0303309922
 21
853.6895054367
 31
0.0
  0
LINE
  5
70
330
1F
100
AcDbEntity
  8
0
  6
Continuous
 62
     7
370
    15
100
AcDbLine
 10
562.0303334061
 20
853.6895054367
 30
0.0
 11
562.0303334061
 21
847.1894997147
 31
0.0
  0
LINE
  5
71
330
1F
100
AcDbEntity
  8
0
  6
Continuous
 62
     7
370
    15
100
AcDbLine
 10
562.0303334061
 20
833.1895011452
 30
0.0
 11
562.0303334061
 21
758.6895066288
 31
0.0
  0
LINE
  5
72
330
1F
100
AcDbEntity
  8
0
  6
Continuous
 62
     7
370
    15
100
AcDbLine
 10
447.2650879387
 20
760.6894957808
 30
0.0
 11
447.2650879387
 21
744.6895080593
 31
0.0
  0
LINE
  5
73
330
1F
100
AcDbEntity
  8
0
  6
Continuous
 62
     7
370
    15
100
AcDbLine
 10
582.2650933031
 20
744.6895080593
 30
0.0
 11
582.2650933031
 21
760.6894957808
 31
0.0
  0
LINE
  5
74
330
1F
100
AcDbEntity
  8
0
  6
Continuous
 62
     7
370
    15
100
AcDbLine
 10
577.6313611631
 20
744.6895080593
 30
0.0
 11
577.6313611631
 21
758.6895066288
 31
0.0
  0
LINE
  5
75
330
1F
100
AcDbEntity
  8
0
  6
Continuous
 62
     7
370
    15
100
AcDbLine
 10
451.8988200788
 20
758.6895066288
 30
0.0
 11
451.8988200788
 21
744.6895080593
 31
0.0
  0
LINE
  5
76
330
1F
100
AcDbEntity
  8
0
  6
Continuous
 62
     7
370
    15
100
AcDbLine
 10
545.7650901143
 20
729.1894989994
 30
0.0
 11
545.7650901143
 21
744.6895080593
 31
0.0
  0
LINE
  5
77
330
1F
100
AcDbEntity
  8
0
  6
Continuous
 62
     7
370
    15
100
AcDbLine
 10
483.7650911276
 20
744.6895080593
 30
0.0
 11
483.7650911276
 21
729.1894989994
 31
0.0
  0
LWPOLYLINE
  5
78
330
1F
100
AcDbEntity
  8
0
  6
Continuous
 62
     7
370
    15
100
AcDbPolyline
 90
        3
 70
   128
 43
0.0
 10
469.3638750676
 20
738.3895057228
 10
470.0930112366
 20
736.9395035294
 10
473.9901268248
 20
729.1894989994
  0
LWPOLYLINE
  5
79
330
1F
100
AcDbEntity
  8
0
  6
Continuous
 62
     7
370
    15
100
AcDbPolyline
 90
        3
 70
   128
 43
0.0
 10
555.5400544171
 20
729.1894989994
 10
559.4371700053
 20
736.9395035294
 10
560.1663061742
 20
738.3895057228
  0
LINE
  5
7A
330
1F
100
AcDbEntity
  8
0
  6
Continuous
 62
     7
370
    15
100
AcDbLine
 10
582.2650933031
 20
760.6894957808
 30
0.0
 11
582.2650933031
 21
784.189506152
 31
0.0
  0
LINE
  5
7B
330
1F
100
AcDbEntity
  8
0
  6
Continuous
 62
     7
370
    15
100
AcDbLine
 10
447.2650879387
 20
784.189506152
 30
0.0
 11
447.2650879387
 21
760.6894957808
 31
0.0
  0
LINE
  5
7C
330
1F
100
AcDbEntity
  8
0
  6
Continuous
 62
     7
370
    15
100
AcDbLine
 10
582.2650933031
 20
784.189506152
 30
0.0
 11
582.2650933031
 21
807.689501622
 31
0.0
  0
LINE
  5
7D
330
1F
100
AcDbEntity
  8
0
  6
Continuous
 62
     7
370
    15
100
AcDbLine
 10
447.2650879387
 20
807.689501622
 30
0.0
 11
447.2650879387
 21
784.189506152
 31
0.0
  0
LINE
  5
7E
330
1F
100
AcDbEntity
  8
0
  6
Continuous
 62
     7
370
    15
100
AcDbLine
 10
582.2650933031
 20
807.689501622
 30
0.0
 11
582.2650933031
 21
831.1894970921
 31
0.0
  0
LINE
  5
7F
330
1F
100
AcDbEntity
  8
0
  6
Continuous
 62
     7
370
    15
100
AcDbLine
 10
447.2650879387
 20
831.1894970921
 30
0.0
 11
447.2650879387
 21
807.689501622
 31
0.0
  0
LINE
  5
80
330
1F
100
AcDbEntity
  8
0
  6
Continuous
 62
     7
370
    15
100
AcDbLine
 10
640.5690231685
 20
1058.6197140602
 30
0.0
 11
638.6629038815
 21
1057.90147064
 31
0.0
  0
LINE
  5
81
330
1F
100
AcDbEntity
  8
0
  6
Continuous
 62
     7
370
    15
100
AcDbLine
 10
640.0733360414
 20
1054.1583883551
 30
0.0
 11
641.9794478778
 21
1054.8766317752
 31
0.0
  0
LINE
  5
82
330
1F
100
AcDbEntity
  8
0
  6
Continuous
 62
     7
370
    15
100
AcDbLine
 10
659.8173150186
 20
1062.353453317
 30
0.0
 11
659.4609984521
 21
1062.2191864041
 31
0.0
  0
LINE
  5
83
330
1F
100
AcDbEntity
  8
0
  6
Continuous
 62
     7
370
    15
100
AcDbLine
 10
661.6481610898
 20
1054.4942381767
 30
0.0
 11
662.6381644372
 21
1054.8672812966
 31
0.0
  0
LINE
  5
84
330
1F
100
AcDbEntity
  8
0
  6
Continuous
 62
     7
370
    15
100
AcDbLine
 10
659.9659242992
 20
1062.3630496648
 30
0.0
 11
659.8461487655
 21
1062.3252156165
 31
0.0
  0
SPLINE
  5
85
330
1F
100
AcDbEntity
  8
0
  6
Continuous
 62
     7
370
    15
100
AcDbSpline
210
0.0
220
0.0
230
1.0
 70
     8
 71
     3
 72
     9
 73
     5
 74
     0
 42
0.00000001
 43
0.00000001
 12
1.0
 22
0.0
 32
0.0
 13
1.0
 23
0.0
 33
0.0
 40
0.0
 40
0.0
 40
0.0
 40
0.0
 40
0.7029018074924485
 40
1.0
 40
1.0
 40
1.0
 40
1.0
 10
662.6067825917514
 20
1054.893254020538
 30
0.0
 10
662.6655868160681
 20
1054.896755470442
 30
0.0
 10
662.7492460465463
 20
1054.901736891556
 30
0.0
 10
662.790504771241
 20
1054.964159921745
 30
0.0
 10
662.8027626637729
 20
1054.982705691184
 30
0.0
  0
ARC
  5
86
330
1F
100
AcDbEntity
  8
0
  6
Continuous
 62
     7
370
    15
100
AcDbCircle
 10
656.7395730179
 20
1056.9191833068
 30
0.0
 40
6.50000000000017
100
AcDbArc
 50
346.7717712588
 51
14.8077554718
  0
ARC
  5
87
330
1F
100
AcDbEntity
  8
0
  6
Continuous
 62
     7
370
    15
100
AcDbCircle
 10
656.7395730179
 20
1056.9191833068
 30
0.0
 40
6.500000000000078
100
AcDbArc
 50
23.9323549453
 51
54.5220217153
  0
LINE
  5
88
330
1F
100
AcDbEntity
  8
0
  6
Continuous
 62
     7
370
    15
100
AcDbLine
 10
654.7445574168
 20
1058.3047184137
 30
0.0
 11
653.6744007234
 21
1057.90147064
 31
0.0
  0
LINE
  5
89
330
1F
100
AcDbEntity
  8
0
  6
Continuous
 62
     7
370
    15
100
AcDbLine
 10
655.0848403339
 20
1054.1583883551
 30
0.0
 11
656.0022750263
 21
1054.5040878442
 31
0.0
  0
LINE
  5
8A
330
1F
100
AcDbEntity
  8
0
  6
Continuous
 62
     7
370
    15
100
AcDbLine
 10
629.7539987926
 20
1147.865487912
 30
0.0
 11
629.05253408
 21
1147.6011711148
 31
0.0
  0
LINE
  5
8B
330
1F
100
AcDbEntity
  8
0
  6
Continuous
 62
     7
370
    15
100
AcDbLine
 10
632.0516833429
 20
1140.1821809796
 30
0.0
 11
632.5748556618
 21
1140.379308441
 31
0.0
  0
LINE
  5
8C
330
1F
100
AcDbEntity
  8
0
  6
Continuous
 62
     7
370
    15
100
AcDbLine
 10
629.9026080732
 20
1147.8750842598
 30
0.0
 11
629.7828325395
 21
1147.8372502116
 31
0.0
  0
SPLINE
  5
8D
330
1F
100
AcDbEntity
  8
0
  6
Continuous
 62
     7
370
    15
100
AcDbSpline
210
0.0
220
0.0
230
1.0
 70
     8
 71
     3
 72
     9
 73
     5
 74
     0
 42
0.00000001
 43
0.00000001
 12
1.0
 22
0.0
 32
0.0
 13
1.0
 23
0.0
 33
0.0
 40
0.0
 40
0.0
 40
0.0
 40
0.0
 40
0.7029110224222771
 40
1.0
 40
1.0
 40
1.0
 40
1.0
 10
632.5434589151653
 20
1140.40528116497
 30
0.0
 10
632.6022660918574
 20
1140.408787293912
 30
0.0
 10
632.6859284258032
 20
1140.413775306377
 30
0.0
 10
632.7271885188958
 20
1140.476190091052
 30
0.0
 10
632.7394464377674
 20
1140.494732835616
 30
0.0
  0
ARC
  5
8E
330
1F
100
AcDbEntity
  8
0
  6
Continuous
 62
     7
370
    15
100
AcDbCircle
 10
626.6762588689
 20
1142.4312117983
 30
0.0
 40
6.500000000000041
100
AcDbArc
 50
346.7717712588
 51
14.8077554718
  0
ARC
  5
8F
330
1F
100
AcDbEntity
  8
0
  6
Continuous
 62
     7
370
    15
100
AcDbCircle
 10
626.6762588689
 20
1142.4312117983
 30
0.0
 40
6.500000000000013
100
AcDbArc
 50
23.9323549453
 51
54.5220217153
  0
LINE
  5
90
330
1F
100
AcDbEntity
  8
0
  6
Continuous
 62
     7
370
    15
100
AcDbLine
 10
624.6301898126
 20
1143.7975007084
 30
0.0
 11
623.611091948
 21
1143.4134977845
 31
0.0
  0
LINE
  5
91
330
1F
100
AcDbEntity
  8
0
  6
Continuous
 62
     7
370
    15
100
AcDbLine
 10
625.0215241079
 20
1139.6704154995
 30
0.0
 11
626.0082491998
 21
1140.0422292736
 31
0.0
  0
LINE
  5
92
330
1F
100
AcDbEntity
  8
0
  6
Continuous
 62
     7
370
    15
100
AcDbLine
 10
610.5056994919
 20
1144.1317486552
 30
0.0
 11
608.5995876555
 21
1143.4134977845
 31
0.0
  0
LINE
  5
93
330
1F
100
AcDbEntity
  8
0
  6
Continuous
 62
     7
370
    15
100
AcDbLine
 10
610.0100198154
 20
1139.6704154995
 30
0.0
 11
611.9161316518
 21
1140.3886663702
 31
0.0
  0
SPLINE
  5
94
330
1F
100
AcDbEntity
  8
0
  6
Continuous
 62
     7
370
    15
100
AcDbSpline
210
0.0
220
0.0
230
1.0
 70
     8
 71
     3
 72
    15
 73
    11
 74
     0
 42
0.00000001
 43
0.00000001
 12
1.0
 22
0.0
 32
0.0
 13
1.0
 23
0.0
 33
0.0
 40
0.0
 40
0.0
 40
0.0
 40
0.0
 40
0.0834205235436504
 40
0.2433251341927324
 40
0.4054576202492912
 40
0.5743011216477051
 40
0.7649532526206175
 40
0.8696470150714936
 40
0.9791324020696927
 40
0.9999999999999999
 40
0.9999999999999999
 40
0.9999999999999999
 40
0.9999999999999999
 10
630.5279874567302
 20
1144.516168811645
 30
0.0
 10
630.4544556973669
 20
1144.718346908399
 30
0.0
 10
630.2399746026141
 20
1145.308070041672
 30
0.0
 10
629.8233019620604
 20
1146.264156085376
 30
0.0
 10
629.2789529416074
 20
1147.300354020262
 30
0.0
 10
628.6732378365097
 20
1148.210339092183
 30
0.0
 10
628.0962046890494
 20
1148.837613340308
 30
0.0
 10
627.4167982524039
 20
1149.262355111508
 30
0.0
 10
626.910173627836
 20
1149.403373074073
 30
0.0
 10
626.6147653963889
 20
1149.410043085943
 30
0.0
 10
626.5674748782428
 20
1149.411110856857
 30
0.0
  0
LINE
  5
95
330
1F
100
AcDbEntity
  8
0
  6
Continuous
 62
     7
370
    15
100
AcDbLine
 10
660.921669877
 20
1058.0644520906
 30
0.0
 11
630.5279874567
 21
1144.5161688116
 31
0.0
  0
LINE
  5
96
330
1F
100
AcDbEntity
  8
0
  6
Continuous
 62
     7
370
    15
100
AcDbLine
 10
626.5674748782
 20
1149.4111108569
 30
0.0
 11
611.297152317
 21
1149.4111108569
 31
0.0
  0
LINE
  5
97
330
1F
100
AcDbEntity
  8
0
  6
Continuous
 62
     7
370
    15
100
AcDbLine
 10
656.3894816999
 20
1050.6960364965
 30
0.0
 11
660.2924832467
 21
1052.1667215017
 31
0.0
  0
SPLINE
  5
98
330
1F
100
AcDbEntity
  8
0
  6
Continuous
 62
     7
370
    15
100
AcDbSpline
210
0.0
220
0.0
230
1.0
 70
     8
 71
     3
 72
    16
 73
    12
 74
     0
 42
0.00000001
 43
0.00000001
 12
1.0
 22
0.0
 32
0.0
 13
1.0
 23
0.0
 33
0.0
 40
0.0
 40
0.0
 40
0.0
 40
0.0
 40
0.0099193210099259
 40
0.1213604423781948
 40
0.2179264479831609
 40
0.3153035668340484
 40
0.4286811285423007
 40
0.5827613579896008
 40
0.74443682049144
 40
0.9123099244861826
 40
1.0
 40
1.0
 40
1.0
 40
1.0
 10
660.2661826972278
 20
1052.169709184493
 30
0.0
 10
660.2887095513081
 20
1052.173717486132
 30
0.0
 10
660.5643200466076
 20
1052.222758066591
 30
0.0
 10
660.9821101216938
 20
1052.571258774098
 30
0.0
 10
661.3847335349396
 20
1053.106194883069
 30
0.0
 10
661.5936205269147
 20
1053.699417652517
 30
0.0
 10
661.680169566554
 20
1054.37220915726
 30
0.0
 10
661.6438583167526
 20
1055.194959779767
 30
0.0
 10
661.4656435692708
 20
1056.23793910717
 30
0.0
 10
661.2042135224777
 20
1057.230447218931
 30
0.0
 10
660.9938506159771
 20
1057.8513908913
 30
0.0
 10
660.9216698769841
 20
1058.064452090587
 30
0.0
  0
LINE
  5
99
330
1F
100
AcDbEntity
  8
0
  6
Continuous
 62
     7
370
    15
100
AcDbLine
 10
659.2730948095
 20
1062.7536463526
 30
0.0
 11
659.43261174
 21
1062.8137501863
 31
0.0
  0
SPLINE
  5
9A
330
1F
100
AcDbEntity
  8
0
  6
Continuous
 62
     7
370
    15
100
AcDbSpline
210
0.0
220
0.0
230
1.0
 70
     8
 71
     3
 72
    15
 73
    11
 74
     0
 42
0.00000001
 43
0.00000001
 12
1.0
 22
0.0
 32
0.0
 13
1.0
 23
0.0
 33
0.0
 40
0.0
 40
0.0
 40
0.0
 40
0.0
 40
0.0835870203256024
 40
0.2450837148181625
 40
0.4139452537420438
 40
0.6107135726109493
 40
0.7315864310601642
 40
0.8437224320818353
 40
0.9607153090923235
 40
1.0
 40
1.0
 40
1.0
 40
1.0
 10
661.4329883221897
 20
1135.622589567031
 30
0.0
 10
661.4303900331208
 20
1135.819970829828
 30
0.0
 10
661.4227716453056
 20
1136.398708209548
 30
0.0
 10
661.3359278670689
 20
1137.349341921017
 30
0.0
 10
661.1243463763482
 20
1138.420673940435
 30
0.0
 10
660.8077513027075
 20
1139.267309640689
 30
0.0
 10
660.2921357732027
 20
1139.965969447672
 30
0.0
 10
659.6768240753187
 20
1140.419956676516
 30
0.0
 10
659.0934514478544
 20
1140.606532842214
 30
0.0
 10
658.7442986736296
 20
1140.619372177605
 30
0.0
 10
658.656529462746
 20
1140.622599699821
 30
0.0
  0
LINE
  5
9B
330
1F
100
AcDbEntity
  8
0
  6
Continuous
 62
     7
370
    15
100
AcDbLine
 10
661.4329883222
 20
1067.8645062235
 30
0.0
 11
661.4329883222
 21
1135.622589567
 31
0.0
  0
SPLINE
  5
9C
330
1F
100
AcDbEntity
  8
0
  6
Continuous
 62
     7
370
    15
100
AcDbSpline
210
0.0
220
0.0
230
1.0
 70
     8
 71
     3
 72
    15
 73
    11
 74
     0
 42
0.00000001
 43
0.00000001
 12
1.0
 22
0.0
 32
0.0
 13
1.0
 23
0.0
 33
0.0
 40
0.0
 40
0.0
 40
0.0
 40
0.0
 40
0.0100338378390977
 40
0.124150804988685
 40
0.2328985151630336
 40
0.3497710921828585
 40
0.4954815648203859
 40
0.7018476296836884
 40
0.8970698997077403
 40
1.0
 40
1.0
 40
1.0
 40
1.0
 10
659.4230153922351
 20
1062.821714856948
 30
0.0
 10
659.4431055327896
 20
1062.82537331068
 30
0.0
 10
659.6916851054486
 20
1062.870640135109
 30
0.0
 10
660.0780628328339
 20
1063.169348767309
 30
0.0
 10
660.5277346518445
 20
1063.624625824591
 30
0.0
 10
660.854250007856
 20
1064.1986950661
 30
0.0
 10
661.1259787625212
 20
1064.949582587637
 30
0.0
 10
661.3252729622503
 20
1065.953656967072
 30
0.0
 10
661.4216728349588
 20
1067.004543842154
 30
0.0
 10
661.4300844200725
 20
1067.643813421799
 30
0.0
 10
661.4329883221897
 20
1067.864506223525
 30
0.0
  0
LINE
  5
9D
330
1F
100
AcDbEntity
  8
0
  6
Continuous
 62
     7
370
    15
100
AcDbLine
 10
610.6087484721
 20
1149.2862391261
 30
0.0
 11
606.7057543759
 21
1147.8155541209
 31
0.0
  0
LINE
  5
9E
330
1F
100
AcDbEntity
  8
0
  6
Continuous
 62
     7
370
    15
100
AcDbLine
 10
611.297152317
 20
1149.4111108569
 30
0.0
 11
610.6350490217
 21
1149.2832439927
 31
0.0
  0
LINE
  5
9F
330
1F
100
AcDbEntity
  8
0
  6
Continuous
 62
     7
370
    15
100
AcDbLine
 10
611.4297353987
 20
1146.7102753905
 30
0.0
 11
610.6531166796
 21
1146.4176314858
 31
0.0
  0
SPLINE
  5
A0
330
1F
100
AcDbEntity
  8
0
  6
Continuous
 62
     7
370
    15
100
AcDbSpline
210
0.0
220
0.0
230
1.0
 70
     8
 71
     3
 72
    15
 73
    11
 74
     0
 42
0.00000001
 43
0.00000001
 12
1.0
 22
0.0
 32
0.0
 13
1.0
 23
0.0
 33
0.0
 40
0.0
 40
0.0
 40
0.0
 40
0.0
 40
0.0835872068112519
 40
0.2450832409968619
 40
0.4139440784359212
 40
0.6107137255911719
 40
0.7315855678042846
 40
0.8437222353704968
 40
0.960716285513449
 40
1.0
 40
1.0
 40
1.0
 40
1.0
 10
609.308994687012
 20
1065.18950192007
 30
0.0
 10
609.3115959083307
 20
1064.992120653905
 30
0.0
 10
609.3192228619713
 20
1064.413385674363
 30
0.0
 10
609.4060608662592
 20
1063.462756801123
 30
0.0
 10
609.6176465274348
 20
1062.391430463055
 30
0.0
 10
609.9342376429707
 20
1061.544790546338
 30
0.0
 10
610.4498501170932
 20
1060.8461368811
 30
0.0
 10
611.0651584776833
 20
1060.392140827042
 30
0.0
 10
611.6485351438816
 20
1060.20556076271
 30
0.0
 10
611.9976868867934
 20
1060.192731575432
 30
0.0
 10
612.0854535464557
 20
1060.189506688441
 30
0.0
  0
LINE
  5
A1
330
1F
100
AcDbEntity
  8
0
  6
Continuous
 62
     7
370
    15
100
AcDbLine
 10
613.4304398064
 20
1138.7975948838
 30
0.0
 11
611.8166664008
 21
1138.1895082978
 31
0.0
  0
SPLINE
  5
A2
330
1F
100
AcDbEntity
  8
0
  6
Continuous
 62
     7
370
    15
100
AcDbSpline
210
0.0
220
0.0
230
1.0
 70
     8
 71
     3
 72
    10
 73
     6
 74
     0
 42
0.00000001
 43
0.00000001
 12
1.0
 22
0.0
 32
0.0
 13
1.0
 23
0.0
 33
0.0
 40
0.0
 40
0.0
 40
0.0
 40
0.0
 40
0.3258072714840253
 40
0.9389674013775557
 40
1.0
 40
1.0
 40
1.0
 40
1.0
 10
613.7116619710239
 20
1139.011471250381
 30
0.0
 10
613.71433334797
 20
1139.01400741061
 30
0.0
 10
613.7220321812639
 20
1139.021316553127
 30
0.0
 10
613.54183255729
 20
1138.813644265427
 30
0.0
 10
613.4033536860057
 20
1138.791862793257
 30
0.0
 10
613.3908176187786
 20
1138.789890983428
 30
0.0
  0
LINE
  5
A3
330
1F
100
AcDbEntity
  8
0
  6
Continuous
 62
     7
370
    15
100
AcDbLine
 10
609.308994687
 20
1098.1895017413
 30
0.0
 11
609.308994687
 21
1065.1895019201
 31
0.0
  0
LINE
  5
A4
330
1F
100
AcDbEntity
  8
0
  6
Continuous
 62
     7
370
    15
100
AcDbLine
 10
613.5833704237
 20
1141.5532517222
 30
0.0
 11
612.9479998116
 21
1141.3138496664
 31
0.0
  0
SPLINE
  5
A5
330
1F
100
AcDbEntity
  8
0
  6
Continuous
 62
     7
370
    15
100
AcDbSpline
210
0.0
220
0.0
230
1.0
 70
     8
 71
     3
 72
    10
 73
     6
 74
     0
 42
0.00000001
 43
0.00000001
 12
1.0
 22
0.0
 32
0.0
 13
1.0
 23
0.0
 33
0.0
 40
0.0
 40
0.0
 40
0.0
 40
0.0
 40
0.2109613703990744
 40
0.5591349878871036
 40
1.0
 40
1.0
 40
1.0
 40
1.0
 10
613.766133165768
 20
1141.711040118064
 30
0.0
 10
613.7669513963166
 20
1141.711700920504
 30
0.0
 10
613.7691200460888
 20
1141.713452320601
 30
0.0
 10
613.6786946348029
 20
1141.573174238005
 30
0.0
 10
613.5358229709667
 20
1141.545326853779
 30
0.0
 10
613.4559952978404
 20
1141.529767492141
 30
0.0
  0
LINE
  5
A6
330
1F
100
AcDbEntity
  8
0
  6
Continuous
 62
     7
370
    15
100
AcDbLine
 10
610.9477126364
 20
1145.9477829722
 30
0.0
 11
609.8585048084
 21
1145.5373602894
 31
0.0
  0
LINE
  5
A7
330
1F
100
AcDbEntity
  8
0
  6
Continuous
 62
     7
370
    15
100
AcDbLine
 10
597.0650905136
 20
979.1895029576
 30
0.0
 11
597.0650905136
 21
1140.6895059136
 31
0.0
  0
LINE
  5
A8
330
1F
100
AcDbEntity
  8
0
  6
Continuous
 62
     7
370
    15
100
AcDbLine
 10
432.4650907282
 20
1140.6895059136
 30
0.0
 11
432.4650907282
 21
979.1895029576
 31
0.0
  0
LINE
  5
A9
330
1F
100
AcDbEntity
  8
0
  6
Continuous
 62
     7
370
    15
100
AcDbLine
 10
429.7650897269
 20
929.1895019797
 30
0.0
 11
429.7650897269
 21
926.1895033506
 31
0.0
  0
LINE
  5
AA
330
1F
100
AcDbEntity
  8
0
  6
Continuous
 62
     7
370
    15
100
AcDbLine
 10
599.765091515
 20
926.1895033506
 30
0.0
 11
599.765091515
 21
929.1895019797
 31
0.0
  0
LINE
  5
AB
330
1F
100
AcDbEntity
  8
0
  6
Continuous
 62
     7
370
    15
100
AcDbLine
 10
598.7650894884
 20
973.1895026726
 30
0.0
 11
598.7650894884
 21
979.1895029576
 31
0.0
  0
LINE
  5
AC
330
1F
100
AcDbEntity
  8
0
  6
Continuous
 62
     7
370
    15
100
AcDbLine
 10
430.7650917534
 20
979.1895029576
 30
0.0
 11
430.7650917534
 21
973.1895026726
 31
0.0
  0
LINE
  5
AD
330
1F
100
AcDbEntity
  8
0
  6
Continuous
 62
     7
370
    15
100
AcDbLine
 10
582.2650933031
 20
831.1894970921
 30
0.0
 11
582.2650933031
 21
863.1895023373
 31
0.0
  0
LINE
  5
AE
330
1F
100
AcDbEntity
  8
0
  6
Continuous
 62
     7
370
    15
100
AcDbLine
 10
447.2650879387
 20
863.1895023373
 30
0.0
 11
447.2650879387
 21
831.1894970921
 31
0.0
  0
LINE
  5
AF
330
1F
100
AcDbEntity
  8
0
  6
Continuous
 62
     7
370
    15
100
AcDbLine
 10
440.9471595053
 20
973.1895026726
 30
0.0
 11
440.9471595053
 21
941.1895039466
 31
0.0
  0
LINE
  5
B0
330
1F
100
AcDbEntity
  8
0
  6
Continuous
 62
     7
370
    15
100
AcDbLine
 10
588.5830217366
 20
941.1895039466
 30
0.0
 11
588.5830217366
 21
973.1895026726
 31
0.0
  0
LINE
  5
B1
330
1F
100
AcDbEntity
  8
0
  6
Continuous
 62
     7
370
    15
100
AcDbLine
 10
438.7650930647
 20
973.1895026726
 30
0.0
 11
438.7650930647
 21
941.1895039466
 31
0.0
  0
LINE
  5
B2
330
1F
100
AcDbEntity
  8
0
  6
Continuous
 62
     7
370
    15
100
AcDbLine
 10
590.7650881771
 20
941.1895039466
 30
0.0
 11
590.7650881771
 21
973.1895026726
 31
0.0
  0
SPLINE
  5
B3
330
1F
100
AcDbEntity
  8
0
  6
Continuous
 62
     7
370
    15
100
AcDbSpline
210
0.0
220
0.0
230
1.0
 70
     8
 71
     3
 72
    11
 73
     7
 74
     0
 42
0.00000001
 43
0.00000001
 12
1.0
 22
0.0
 32
0.0
 13
1.0
 23
0.0
 33
0.0
 40
0.0
 40
0.0
 40
0.0
 40
0.0
 40
0.2495154938363812
 40
0.4999856497358506
 40
0.8418427508815454
 40
1.0
 40
1.0
 40
1.0
 40
1.0
 10
499.1457837958249
 20
1192.051200845565
 30
0.0
 10
501.736253486993
 20
1192.329683763613
 30
0.0
 10
506.9271041702337
 20
1192.887715092968
 30
0.0
 10
515.7180974455567
 20
1193.134582809468
 30
0.0
 10
523.557304922053
 20
1192.825025043511
 30
0.0
 10
528.74386149145
 20
1192.237149170536
 30
0.0
 10
530.3843974460276
 20
1192.051200845565
 30
0.0
  0
LWPOLYLINE
  5
B4
330
1F
100
AcDbEntity
  8
0
  6
Continuous
 62
     7
370
    15
100
AcDbPolyline
 90
        9
 70
   128
 43
0.0
 10
530.384397446
 20
1192.0512008456
 10
530.3657393296
 20
1191.9035452393
 10
530.3443077345
 20
1191.7339402226
 10
530.3204183791
 20
1191.5448891905
 10
530.2944223721
 20
1191.3391637591
 10
530.266702487
 20
1191.1198037651
 10
530.2376675744
 20
1190.8900278595
 10
530.2077441801
 20
1190.653233507
 10
530.1773737509
 20
1190.4128926781
  0
SPLINE
  5
B5
330
1F
100
AcDbEntity
  8
0
  6
Continuous
 62
     7
370
    15
100
AcDbSpline
210
0.0
220
0.0
230
1.0
 70
     8
 71
     3
 72
    11
 73
     7
 74
     0
 42
0.00000001
 43
0.00000001
 12
1.0
 22
0.0
 32
0.0
 13
1.0
 23
0.0
 33
0.0
 40
0.0
 40
0.0
 40
0.0
 40
0.0
 40
0.2495263480002161
 40
0.5000316570339659
 40
0.7495143342879241
 40
0.9999999999999999
 40
0.9999999999999999
 40
0.9999999999999999
 40
0.9999999999999999
 10
530.1773737509163
 20
1190.412892678107
 30
0.0
 10
527.6212626481802
 20
1190.691526279786
 30
0.0
 10
522.4990121102812
 20
1191.24988664
 30
0.0
 10
514.7746456836392
 20
1191.467012678474
 30
0.0
 10
507.0404226337398
 20
1191.250435795801
 30
0.0
 10
501.9187707272114
 20
1190.692446845281
 30
0.0
 10
499.3528074909361
 20
1190.412892678107
 30
0.0
  0
LWPOLYLINE
  5
B6
330
1F
100
AcDbEntity
  8
0
  6
Continuous
 62
     7
370
    15
100
AcDbPolyline
 90
        9
 70
   128
 43
0.0
 10
499.1457837958
 20
1192.0512008456
 10
499.1644419123
 20
1191.9035452393
 10
499.1858735074
 20
1191.7339402226
 10
499.2097628627
 20
1191.5448891905
 10
499.2357588698
 20
1191.3391637591
 10
499.2634787549
 20
1191.1198037651
 10
499.2925136675
 20
1190.8900278595
 10
499.3224370618
 20
1190.653233507
 10
499.3528074909
 20
1190.4128926781
  0
SPLINE
  5
B7
330
1F
100
AcDbEntity
  8
0
  6
Continuous
 62
     7
370
    15
100
AcDbSpline
210
0.0
220
0.0
230
1.0
 70
     8
 71
     3
 72
    13
 73
     9
 74
     0
 42
0.00000001
 43
0.00000001
 12
1.0
 22
0.0
 32
0.0
 13
1.0
 23
0.0
 33
0.0
 40
0.0
 40
0.0
 40
0.0
 40
0.0
 40
0.2109634217576292
 40
0.4218770455560623
 40
0.6340847539993073
 40
0.8490900553517966
 40
0.9950607488168548
 40
1.0
 40
1.0
 40
1.0
 40
1.0
 10
544.5140407745155
 20
1189.689500906791
 30
0.0
 10
544.5103982533237
 20
1189.912084631048
 30
0.0
 10
544.5031140707582
 20
1190.357199538628
 30
0.0
 10
544.4463386602202
 20
1190.950436860864
 30
0.0
 10
544.3623515971409
 20
1191.405663030719
 30
0.0
 10
544.2678078668653
 20
1191.642800096992
 30
0.0
 10
544.2033996128743
 20
1191.689088601138
 30
0.0
 10
544.1768417750965
 20
1191.689491764455
 30
0.0
 10
544.1759725425752
 20
1191.689504959907
 30
0.0
  0
LINE
  5
B8
330
1F
100
AcDbEntity
  8
0
  6
Continuous
 62
     7
370
    15
100
AcDbLine
 10
544.1759725426
 20
1191.6895049599
 30
0.0
 11
603.7650921706
 21
1191.6895049599
 31
0.0
  0
LINE
  5
B9
330
1F
100
AcDbEntity
  8
0
  6
Continuous
 62
     7
370
    15
100
AcDbLine
 10
425.7650890712
 20
1191.6895049599
 30
0.0
 11
484.8607120429
 21
1191.6895049599
 31
0.0
  0
LWPOLYLINE
  5
BA
330
1F
100
AcDbEntity
  8
0
  6
Continuous
 62
     7
370
    15
100
AcDbPolyline
 90
        9
 70
   128
 43
0.0
 10
484.1887032006
 20
1189.6895009068
 10
484.2016150568
 20
1190.0796878127
 10
484.2398570244
 20
1190.4548692492
 10
484.301955751
 20
1190.8006506947
 10
484.3855289135
 20
1191.1037105111
 10
484.4873634491
 20
1191.3524406937
 10
484.6035440777
 20
1191.537259796
 10
484.729609764
 20
1191.6510748652
 10
484.8607120429
 20
1191.6895049599
  0
LINE
  5
BB
330
1F
100
AcDbEntity
  8
0
  6
Continuous
 62
     7
370
    15
100
AcDbLine
 10
588.5132992033
 20
1177.1894979266
 30
0.0
 11
597.8090011839
 21
1177.1894979266
 31
0.0
  0
LINE
  5
BC
330
1F
100
AcDbEntity
  8
0
  6
Continuous
 62
     7
370
    15
100
AcDbLine
 10
588.5132992033
 20
1140.6895059136
 30
0.0
 11
588.5132992033
 21
1177.1894979266
 31
0.0
  0
LINE
  5
BD
330
1F
100
AcDbEntity
  8
0
  6
Continuous
 62
     7
370
    15
100
AcDbLine
 10
560.7650907103
 20
1140.6895059136
 30
0.0
 11
588.5132992033
 21
1140.6895059136
 31
0.0
  0
SPLINE
  5
BE
330
1F
100
AcDbEntity
  8
0
  6
Continuous
 62
     7
370
    15
100
AcDbSpline
210
0.0
220
0.0
230
1.0
 70
     8
 71
     3
 72
    12
 73
     8
 74
     0
 42
0.00000001
 43
0.00000001
 12
1.0
 22
0.0
 32
0.0
 13
1.0
 23
0.0
 33
0.0
 40
0.0
 40
0.0
 40
0.0
 40
0.0
 40
0.1808730635991682
 40
0.3614164281622609
 40
0.5505827065505166
 40
0.7622092804464417
 40
1.0
 40
1.0
 40
1.0
 40
1.0
 10
558.7650903825077
 20
1142.689509966697
 30
0.0
 10
558.7834809907805
 20
1142.485390932906
 30
0.0
 10
558.8202286845576
 20
1142.077524937578
 30
0.0
 10
559.1017119707524
 20
1141.528924681392
 30
0.0
 10
559.5235813411726
 20
1141.082123529281
 30
0.0
 10
560.0953427843986
 20
1140.755925110436
 30
0.0
 10
560.5333416064024
 20
1140.712488574309
 30
0.0
 10
560.7650907103332
 20
1140.689505913581
 30
0.0
  0
SPLINE
  5
BF
330
1F
100
AcDbEntity
  8
0
  6
Continuous
 62
     7
370
    15
100
AcDbSpline
210
0.0
220
0.0
230
1.0
 70
     8
 71
     3
 72
    12
 73
     8
 74
     0
 42
0.00000001
 43
0.00000001
 12
1.0
 22
0.0
 32
0.0
 13
1.0
 23
0.0
 33
0.0
 40
0.0
 40
0.0
 40
0.0
 40
0.0
 40
0.2521069001501163
 40
0.5047050681829738
 40
0.7406673267095737
 40
0.946331891940417
 40
1.0
 40
1.0
 40
1.0
 40
1.0
 10
556.7650900546821
 20
1144.689499118652
 30
0.0
 10
557.0146033579396
 20
1144.662459763723
 30
0.0
 10
557.5141161783271
 20
1144.60832836365
 30
0.0
 10
558.1629475649822
 20
1144.184696978152
 30
0.0
 10
558.6048639373904
 20
1143.579405710318
 30
0.0
 10
558.7554072037623
 20
1143.037615149574
 30
0.0
 10
558.7634300739262
 20
1142.749197186934
 30
0.0
 10
558.7650903825077
 20
1142.689509966697
 30
0.0
  0
LINE
  5
C0
330
1F
100
AcDbEntity
  8
0
  6
Continuous
 62
     7
370
    15
100
AcDbLine
 10
556.7650900547
 20
1144.6894991187
 30
0.0
 11
544.5140407745
 21
1144.6894991187
 31
0.0
  0
LINE
  5
C1
330
1F
100
AcDbEntity
  8
0
  6
Continuous
 62
     7
370
    15
100
AcDbLine
 10
544.5140407745
 20
1189.6895009068
 30
0.0
 11
544.5140407745
 21
1144.6894991187
 31
0.0
  0
LINE
  5
C2
330
1F
100
AcDbEntity
  8
0
  6
Continuous
 62
     7
370
    15
100
AcDbLine
 10
484.1887032006
 20
1144.6894991187
 30
0.0
 11
484.1887032006
 21
1189.6895009068
 31
0.0
  0
LINE
  5
C3
330
1F
100
AcDbEntity
  8
0
  6
Continuous
 62
     7
370
    15
100
AcDbLine
 10
484.1887032006
 20
1144.6894991187
 30
0.0
 11
472.7650911872
 21
1144.6894991187
 31
0.0
  0
SPLINE
  5
C4
330
1F
100
AcDbEntity
  8
0
  6
Continuous
 62
     7
370
    15
100
AcDbSpline
210
0.0
220
0.0
230
1.0
 70
     8
 71
     3
 72
    12
 73
     8
 74
     0
 42
0.00000001
 43
0.00000001
 12
1.0
 22
0.0
 32
0.0
 13
1.0
 23
0.0
 33
0.0
 40
0.0
 40
0.0
 40
0.0
 40
0.0
 40
0.1829292983008233
 40
0.3655008808760788
 40
0.5574142937087421
 40
0.7721369939645772
 40
1.0
 40
1.0
 40
1.0
 40
1.0
 10
470.7650908593449
 20
1142.689509966697
 30
0.0
 10
470.7835838451234
 20
1142.894164636531
 30
0.0
 10
470.8205336539012
 20
1143.303073776809
 30
0.0
 10
471.1037271818551
 20
1143.853526737322
 30
0.0
 10
471.5302219528937
 20
1144.30282718399
 30
0.0
 10
472.1012119075116
 20
1144.624692936736
 30
0.0
 10
472.5394609107205
 20
1144.66747367338
 30
0.0
 10
472.7650911871704
 20
1144.689499118652
 30
0.0
  0
SPLINE
  5
C5
330
1F
100
AcDbEntity
  8
0
  6
Continuous
 62
     7
370
    15
100
AcDbSpline
210
0.0
220
0.0
230
1.0
 70
     8
 71
     3
 72
    11
 73
     7
 74
     0
 42
0.00000001
 43
0.00000001
 12
1.0
 22
0.0
 32
0.0
 13
1.0
 23
0.0
 33
0.0
 40
0.0
 40
0.0
 40
0.0
 40
0.0
 40
0.3031309490687186
 40
0.5634716074459121
 40
0.7924713186557714
 40
1.0
 40
1.0
 40
1.0
 40
1.0
 10
468.7650905315193
 20
1140.689505913581
 30
0.0
 10
469.0613996759399
 20
1140.726805835141
 30
0.0
 10
469.6121906473684
 20
1140.796140381229
 30
0.0
 10
470.2735083304081
 20
1141.307313472502
 30
0.0
 10
470.6891614326817
 20
1141.962689317778
 30
0.0
 10
470.740624807454
 20
1142.455313127695
 30
0.0
 10
470.7650908593449
 20
1142.689509966697
 30
0.0
  0
LINE
  5
C6
330
1F
100
AcDbEntity
  8
0
  6
Continuous
 62
     7
370
    15
100
AcDbLine
 10
441.0168820385
 20
1140.6895059136
 30
0.0
 11
468.7650905315
 21
1140.6895059136
 31
0.0
  0
LINE
  5
C7
330
1F
100
AcDbEntity
  8
0
  6
Continuous
 62
     7
370
    15
100
AcDbLine
 10
441.0168820385
 20
1177.1894979266
 30
0.0
 11
441.0168820385
 21
1140.6895059136
 31
0.0
  0
LINE
  5
C8
330
1F
100
AcDbEntity
  8
0
  6
Continuous
 62
     7
370
    15
100
AcDbLine
 10
431.7211800579
 20
1177.1894979266
 30
0.0
 11
441.0168820385
 21
1177.1894979266
 31
0.0
  0
LINE
  5
C9
330
1F
100
AcDbEntity
  8
0
  6
Continuous
 62
     7
370
    15
100
AcDbLine
 10
423.7650924687
 20
1140.6895059136
 30
0.0
 11
431.0580783848
 21
1140.6895059136
 31
0.0
  0
SPLINE
  5
CA
330
1F
100
AcDbEntity
  8
0
  6
Continuous
 62
     7
370
    15
100
AcDbSpline
210
0.0
220
0.0
230
1.0
 70
     8
 71
     3
 72
    10
 73
     6
 74
     0
 42
0.00000001
 43
0.00000001
 12
1.0
 22
0.0
 32
0.0
 13
1.0
 23
0.0
 33
0.0
 40
0.0
 40
0.0
 40
0.0
 40
0.0
 40
0.3747290813938582
 40
0.7492100068512634
 40
0.9999999999999999
 40
0.9999999999999999
 40
0.9999999999999999
 40
0.9999999999999999
 10
605.7526984576496
 20
1143.689497092094
 30
0.0
 10
605.7533895729448
 20
1144.124611607213
 30
0.0
 10
605.7547713458596
 20
1144.994552492614
 30
0.0
 10
605.7636008813029
 20
1146.061236267006
 30
0.0
 10
605.7638066841969
 20
1146.521858624299
 30
0.0
 10
605.7638892297061
 20
1146.706609704818
 30
0.0
  0
LINE
  5
CB
330
1F
100
AcDbEntity
  8
0
  6
Continuous
 62
     7
370
    15
100
AcDbLine
 10
605.7526984576
 20
1142.6895099667
 30
0.0
 11
605.7526984576
 21
1143.6894970921
 31
0.0
  0
SPLINE
  5
CC
330
1F
100
AcDbEntity
  8
0
  6
Continuous
 62
     7
370
    15
100
AcDbSpline
210
0.0
220
0.0
230
1.0
 70
     8
 71
     3
 72
    12
 73
     8
 74
     0
 42
0.00000001
 43
0.00000001
 12
1.0
 22
0.0
 32
0.0
 13
1.0
 23
0.0
 33
0.0
 40
0.0
 40
0.0
 40
0.0
 40
0.0
 40
0.2269380291847073
 40
0.4540773290032271
 40
0.6754138392970099
 40
0.8875695229824564
 40
1.0
 40
1.0
 40
1.0
 40
1.0
 10
605.6943231586727
 20
1140.689505913581
 30
0.0
 10
605.7033214419528
 20
1140.712947813552
 30
0.0
 10
605.7213259890623
 20
1140.759852404041
 30
0.0
 10
605.7386035274387
 20
1141.128799444377
 30
0.0
 10
605.7485658378424
 20
1141.66695958884
 30
0.0
 10
605.7522666467762
 20
1142.223558360118
 30
0.0
 10
605.7525873664501
 20
1142.56963544277
 30
0.0
 10
605.7526984576496
 20
1142.689509966697
 30
0.0
  0
LINE
  5
CD
330
1F
100
AcDbEntity
  8
0
  6
Continuous
 62
     7
370
    15
100
AcDbLine
 10
598.472102857
 20
1140.6895059136
 30
0.0
 11
605.6943231587
 21
1140.6895059136
 31
0.0
  0
LINE
  5
CE
330
1F
100
AcDbEntity
  8
0
  6
Continuous
 62
     7
370
    15
100
AcDbLine
 10
544.5140407745
 20
1189.6895009068
 30
0.0
 11
539.9579455469
 21
1189.6895009068
 31
0.0
  0
LINE
  5
CF
330
1F
100
AcDbEntity
  8
0
  6
Continuous
 62
     7
370
    15
100
AcDbLine
 10
539.9579455469
 20
1191.6895049599
 30
0.0
 11
539.9579455469
 21
1189.6895009068
 31
0.0
  0
LINE
  5
D0
330
1F
100
AcDbEntity
  8
0
  6
Continuous
 62
     7
370
    15
100
AcDbLine
 10
539.9579455469
 20
1191.6895049599
 30
0.0
 11
544.1759725426
 21
1191.6895049599
 31
0.0
  0
LINE
  5
D1
330
1F
100
AcDbEntity
  8
0
  6
Continuous
 62
     7
370
    15
100
AcDbLine
 10
489.5722356949
 20
1189.6895009068
 30
0.0
 11
485.8687234436
 21
1189.6895009068
 31
0.0
  0
SPLINE
  5
D2
330
1F
100
AcDbEntity
  8
0
  6
Continuous
 62
     7
370
    15
100
AcDbSpline
210
0.0
220
0.0
230
1.0
 70
     8
 71
     3
 72
     9
 73
     5
 74
     0
 42
0.00000001
 43
0.00000001
 12
1.0
 22
0.0
 32
0.0
 13
1.0
 23
0.0
 33
0.0
 40
0.0
 40
0.0
 40
0.0
 40
0.0
 40
0.1839458265694177
 40
1.0
 40
1.0
 40
1.0
 40
1.0
 10
489.5722356949361
 20
1189.689500906791
 30
0.0
 10
490.1738941348171
 20
1189.696196747408
 30
0.0
 10
493.444739965364
 20
1189.732597902801
 30
0.0
 10
496.6979840656826
 20
1190.107198388436
 30
0.0
 10
499.3528074909361
 20
1190.412892678107
 30
0.0
  0
SPLINE
  5
D3
330
1F
100
AcDbEntity
  8
0
  6
Continuous
 62
     7
370
    15
100
AcDbSpline
210
0.0
220
0.0
230
1.0
 70
     8
 71
     3
 72
     9
 73
     5
 74
     0
 42
0.00000001
 43
0.00000001
 12
1.0
 22
0.0
 32
0.0
 13
1.0
 23
0.0
 33
0.0
 40
0.0
 40
0.0
 40
0.0
 40
0.0
 40
0.1828089188336569
 40
1.0
 40
1.0
 40
1.0
 40
1.0
 10
530.1773737509163
 20
1190.412892678107
 30
0.0
 10
530.7706211476874
 20
1190.338866184729
 30
0.0
 10
534.0157986836414
 20
1189.933927006428
 30
0.0
 10
537.2857612785828
 20
1189.799419357689
 30
0.0
 10
539.9579455469163
 20
1189.689500906791
 30
0.0
  0
LINE
  5
D4
330
1F
100
AcDbEntity
  8
0
  6
Continuous
 62
     7
370
    15
100
AcDbLine
 10
544.5140407745
 20
1144.6894991187
 30
0.0
 11
485.8687234436
 21
1144.6894991187
 31
0.0
  0
LINE
  5
D5
330
1F
100
AcDbEntity
  8
0
  6
Continuous
 62
     7
370
    15
100
AcDbLine
 10
485.8687234436
 20
1189.6895009068
 30
0.0
 11
485.8687234436
 21
1144.6894991187
 31
0.0
  0
LINE
  5
D6
330
1F
100
AcDbEntity
  8
0
  6
Continuous
 62
     7
370
    15
100
AcDbLine
 10
539.9579455469
 20
1191.6895049599
 30
0.0
 11
539.0367669378
 21
1191.7196202067
 31
0.0
  0
LINE
  5
D7
330
1F
100
AcDbEntity
  8
0
  6
Continuous
 62
     7
370
    15
100
AcDbLine
 10
489.5722356949
 20
1191.6895049599
 30
0.0
 11
490.281771249
 21
1191.6959422615
 31
0.0
  0
LINE
  5
D8
330
1F
100
AcDbEntity
  8
0
  6
Continuous
 62
     7
370
    15
100
AcDbLine
 10
489.5722356949
 20
1191.6895049599
 30
0.0
 11
489.5722356949
 21
1189.6895009068
 31
0.0
  0
LINE
  5
D9
330
1F
100
AcDbEntity
  8
0
  6
Continuous
 62
     7
370
    15
100
AcDbLine
 10
485.8687234436
 20
1191.6895049599
 30
0.0
 11
489.5722356949
 21
1191.6895049599
 31
0.0
  0
LINE
  5
DA
330
1F
100
AcDbEntity
  8
0
  6
Continuous
 62
     7
370
    15
100
AcDbLine
 10
485.8687234436
 20
1189.6895009068
 30
0.0
 11
485.8687234436
 21
1191.6895049599
 31
0.0
  0
LINE
  5
DB
330
1F
100
AcDbEntity
  8
0
  6
Continuous
 62
     7
370
    15
100
AcDbLine
 10
485.8687234436
 20
1189.6895009068
 30
0.0
 11
484.1887032006
 21
1189.6895009068
 31
0.0
  0
LINE
  5
DC
330
1F
100
AcDbEntity
  8
0
  6
Continuous
 62
     7
370
    15
100
AcDbLine
 10
484.8607120429
 20
1191.6895049599
 30
0.0
 11
485.8687234436
 21
1191.6895049599
 31
0.0
  0
LINE
  5
DD
330
1F
100
AcDbEntity
  8
0
  6
Continuous
 62
     7
370
    15
100
AcDbLine
 10
484.1887032006
 20
1144.6894991187
 30
0.0
 11
485.8687234436
 21
1144.6894991187
 31
0.0
  0
LINE
  5
DE
330
1F
100
AcDbEntity
  8
0
  6
Continuous
 62
     7
370
    15
100
AcDbLine
 10
448.2650899653
 20
1209.6894967345
 30
0.0
 11
581.2650912766
 21
1209.6894967345
 31
0.0
  0
ARC
  5
DF
330
1F
100
AcDbEntity
  8
0
  6
Continuous
 62
     7
370
    15
100
AcDbCircle
 10
597.0859718852
 20
1170.9650452374
 30
0.0
 40
7.191647188740705
100
AcDbArc
 50
141.8510934718
 51
158.2904731401
  0
SPLINE
  5
E0
330
1F
100
AcDbEntity
  8
0
  6
Continuous
 62
     7
370
    15
100
AcDbSpline
210
0.0
220
0.0
230
1.0
 70
     8
 71
     3
 72
    11
 73
     7
 74
     0
 42
0.00000001
 43
0.00000001
 12
1.0
 22
0.0
 32
0.0
 13
1.0
 23
0.0
 33
0.0
 40
0.0
 40
0.0
 40
0.0
 40
0.0
 40
0.2526168803204581
 40
0.6255215277202237
 40
0.9969429012201051
 40
1.0
 40
1.0
 40
1.0
 40
1.0
 10
590.4044204715999
 20
1173.625244477119
 30
0.0
 10
590.1696372119272
 20
1173.890079232971
 30
0.0
 10
589.588274703265
 20
1174.545854258236
 30
0.0
 10
588.986013994475
 20
1175.786390080889
 30
0.0
 10
588.6490747123557
 20
1176.717170278155
 30
0.0
 10
588.5143986471278
 20
1177.185673247805
 30
0.0
 10
588.5132992033275
 20
1177.189497926559
 30
0.0
  0
SPLINE
  5
E1
330
1F
100
AcDbEntity
  8
0
  6
Continuous
 62
     7
370
    15
100
AcDbSpline
210
0.0
220
0.0
230
1.0
 70
     8
 71
     3
 72
    11
 73
     7
 74
     0
 42
0.00000001
 43
0.00000001
 12
1.0
 22
0.0
 32
0.0
 13
1.0
 23
0.0
 33
0.0
 40
0.0
 40
0.0
 40
0.0
 40
0.0
 40
0.0030645609248684
 40
0.3762740104713214
 40
0.7492853470402219
 40
1.0
 40
1.0
 40
1.0
 40
1.0
 10
588.5132992033275
 20
1177.189497926559
 30
0.0
 10
588.5155361490058
 20
1177.187590550513
 30
0.0
 10
588.7901936096328
 20
1176.953398425861
 30
0.0
 10
589.4012528172767
 20
1176.489513669692
 30
0.0
 10
590.3574635422075
 20
1175.870030146618
 30
0.0
 10
591.1227756610102
 20
1175.540027460324
 30
0.0
 10
591.4304026726993
 20
1175.407378652419
 30
0.0
  0
LINE
  5
E2
330
1F
100
AcDbEntity
  8
0
  6
Continuous
 62
     7
370
    15
100
AcDbLine
 10
590.4044204716
 20
1140.6895059136
 30
0.0
 11
590.4044204716
 21
1173.6252444771
 31
0.0
  0
LINE
  5
E3
330
1F
100
AcDbEntity
  8
0
  6
Continuous
 62
     7
370
    15
100
AcDbLine
 10
590.4044204716
 20
1140.6895059136
 30
0.0
 11
588.5132992033
 21
1140.6895059136
 31
0.0
  0
SPLINE
  5
E4
330
1F
100
AcDbEntity
  8
0
  6
Continuous
 62
     7
370
    15
100
AcDbSpline
210
0.0
220
0.0
230
1.0
 70
     8
 71
     3
 72
    11
 73
     7
 74
     0
 42
0.00000001
 43
0.00000001
 12
1.0
 22
0.0
 32
0.0
 13
1.0
 23
0.0
 33
0.0
 40
0.0
 40
0.0
 40
0.0
 40
0.0
 40
0.250714652959778
 40
0.6237259895286785
 40
0.9969354390751315
 40
1.0
 40
1.0
 40
1.0
 40
1.0
 10
438.0997785691532
 20
1175.407378652419
 30
0.0
 10
438.4074055808423
 20
1175.540027460324
 30
0.0
 10
439.172717699645
 20
1175.870030146618
 30
0.0
 10
440.1289284245758
 20
1176.489513669692
 30
0.0
 10
440.7399876322198
 20
1176.953398425859
 30
0.0
 10
441.0146450928467
 20
1177.187590550513
 30
0.0
 10
441.016882038525
 20
1177.189497926559
 30
0.0
  0
SPLINE
  5
E5
330
1F
100
AcDbEntity
  8
0
  6
Continuous
 62
     7
370
    15
100
AcDbSpline
210
0.0
220
0.0
230
1.0
 70
     8
 71
     3
 72
    11
 73
     7
 74
     0
 42
0.00000001
 43
0.00000001
 12
1.0
 22
0.0
 32
0.0
 13
1.0
 23
0.0
 33
0.0
 40
0.0
 40
0.0
 40
0.0
 40
0.0
 40
0.003057098779895
 40
0.3744784722797764
 40
0.7473831196795419
 40
1.0
 40
1.0
 40
1.0
 40
1.0
 10
441.016882038525
 20
1177.189497926559
 30
0.0
 10
441.0157825947247
 20
1177.185673247804
 30
0.0
 10
440.8811065294977
 20
1176.717170278154
 30
0.0
 10
440.5441672473771
 20
1175.78639008089
 30
0.0
 10
439.9419065385875
 20
1174.545854258236
 30
0.0
 10
439.3605440299252
 20
1173.890079232971
 30
0.0
 10
439.1257607702526
 20
1173.625244477119
 30
0.0
  0
ARC
  5
E6
330
1F
100
AcDbEntity
  8
0
  6
Continuous
 62
     7
370
    15
100
AcDbCircle
 10
432.4442093567
 20
1170.9650452374
 30
0.0
 40
7.191647188736535
100
AcDbArc
 50
21.7095268599
 51
38.1489065282
  0
LINE
  5
E7
330
1F
100
AcDbEntity
  8
0
  6
Continuous
 62
     7
370
    15
100
AcDbLine
 10
439.1257607703
 20
1173.6252444771
 30
0.0
 11
439.1257607703
 21
1140.6895059136
 31
0.0
  0
LINE
  5
E8
330
1F
100
AcDbEntity
  8
0
  6
Continuous
 62
     7
370
    15
100
AcDbLine
 10
441.0168820385
 20
1140.6895059136
 30
0.0
 11
439.1257607703
 21
1140.6895059136
 31
0.0
  0
SPLINE
  5
E9
330
1F
100
AcDbEntity
  8
0
  6
Continuous
 62
     7
370
    15
100
AcDbSpline
210
0.0
220
0.0
230
1.0
 70
     8
 71
     3
 72
    11
 73
     7
 74
     0
 42
0.00000001
 43
0.00000001
 12
1.0
 22
0.0
 32
0.0
 13
1.0
 23
0.0
 33
0.0
 40
0.0
 40
0.0
 40
0.0
 40
0.0
 40
0.2507134197603695
 40
0.6237252574873705
 40
0.9969357488707106
 40
1.0
 40
1.0
 40
1.0
 40
1.0
 10
597.2855084900173
 20
1175.407378652419
 30
0.0
 10
597.2223939263055
 20
1175.540027159291
 30
0.0
 10
597.0653774110351
 20
1175.870030332565
 30
0.0
 10
597.3124525463379
 20
1176.489525176745
 30
0.0
 10
597.6161249051135
 20
1176.953374178789
 30
0.0
 10
597.8074431543853
 20
1177.187590549587
 30
0.0
 10
597.8090011839183
 20
1177.189497926559
 30
0.0
  0
SPLINE
  5
EA
330
1F
100
AcDbEntity
  8
0
  6
Continuous
 62
     7
370
    15
100
AcDbSpline
210
0.0
220
0.0
230
1.0
 70
     8
 71
     3
 72
    10
 73
     6
 74
     0
 42
0.00000001
 43
0.00000001
 12
1.0
 22
0.0
 32
0.0
 13
1.0
 23
0.0
 33
0.0
 40
0.0
 40
0.0
 40
0.0
 40
0.0
 40
0.3415396087735918
 40
0.6902189133083779
 40
1.0
 40
1.0
 40
1.0
 40
1.0
 10
591.4304026726993
 20
1175.407378652419
 30
0.0
 10
592.1263619877344
 20
1175.425415556344
 30
0.0
 10
593.5328292606088
 20
1175.461866415649
 30
0.0
 10
595.4816105504925
 20
1175.459366705437
 30
0.0
 10
596.7083658280561
 20
1175.424011812562
 30
0.0
 10
597.2855084900173
 20
1175.407378652419
 30
0.0
  0
SPLINE
  5
EB
330
1F
100
AcDbEntity
  8
0
  6
Continuous
 62
     7
370
    15
100
AcDbSpline
210
0.0
220
0.0
230
1.0
 70
     8
 71
     3
 72
    11
 73
     7
 74
     0
 42
0.00000001
 43
0.00000001
 12
1.0
 22
0.0
 32
0.0
 13
1.0
 23
0.0
 33
0.0
 40
0.0
 40
0.0
 40
0.0
 40
0.0
 40
0.0030642511292894
 40
0.3762747425126294
 40
0.7492865802396304
 40
1.0
 40
1.0
 40
1.0
 40
1.0
 10
431.7211800579342
 20
1177.189497926559
 30
0.0
 10
431.7227380874672
 20
1177.187590549587
 30
0.0
 10
431.9140563367409
 20
1176.953374178786
 30
0.0
 10
432.2177286955136
 20
1176.489525176747
 30
0.0
 10
432.4648038308176
 20
1175.870030332565
 30
0.0
 10
432.307787315547
 20
1175.54002715929
 30
0.0
 10
432.2446727518353
 20
1175.407378652419
 30
0.0
  0
SPLINE
  5
EC
330
1F
100
AcDbEntity
  8
0
  6
Continuous
 62
     7
370
    15
100
AcDbSpline
210
0.0
220
0.0
230
1.0
 70
     8
 71
     3
 72
    10
 73
     6
 74
     0
 42
0.00000001
 43
0.00000001
 12
1.0
 22
0.0
 32
0.0
 13
1.0
 23
0.0
 33
0.0
 40
0.0
 40
0.0
 40
0.0
 40
0.0
 40
0.3415398624631515
 40
0.6902195007419089
 40
1.0
 40
1.0
 40
1.0
 40
1.0
 10
432.2446727518353
 20
1175.407378652419
 30
0.0
 10
432.8816279312875
 20
1175.425415551988
 30
0.0
 10
434.1688536237319
 20
1175.461866406436
 30
0.0
 10
436.125060190219
 20
1175.459366756667
 30
0.0
 10
437.467983928365
 20
1175.424011811861
 30
0.0
 10
438.0997785691532
 20
1175.407378652419
 30
0.0
  0
ARC
  5
ED
330
1F
100
AcDbEntity
  8
0
  6
Continuous
 62
     7
370
    15
100
AcDbCircle
 10
590.3189115517
 20
1173.6399229362
 30
0.0
 40
2.087896602051207
100
AcDbArc
 50
359.59719237
 51
57.8356477939
  0
LINE
  5
EE
330
1F
100
AcDbEntity
  8
0
  6
Continuous
 62
     7
370
    15
100
AcDbLine
 10
592.4067565564
 20
1173.6252444771
 30
0.0
 11
590.4044204716
 21
1173.6252444771
 31
0.0
  0
LINE
  5
EF
330
1F
100
AcDbEntity
  8
0
  6
Continuous
 62
     7
370
    15
100
AcDbLine
 10
592.4067565564
 20
1173.6252444771
 30
0.0
 11
592.4067565564
 21
1140.6895059136
 31
0.0
  0
LINE
  5
F0
330
1F
100
AcDbEntity
  8
0
  6
Continuous
 62
     7
370
    15
100
AcDbLine
 10
592.4067565564
 20
1140.6895059136
 30
0.0
 11
590.4044204716
 21
1140.6895059136
 31
0.0
  0
LINE
  5
F1
330
1F
100
AcDbEntity
  8
0
  6
Continuous
 62
     7
370
    15
100
AcDbLine
 10
439.1257607703
 20
1173.6252444771
 30
0.0
 11
437.1234246854
 21
1173.6252444771
 31
0.0
  0
ARC
  5
F2
330
1F
100
AcDbEntity
  8
0
  6
Continuous
 62
     7
370
    15
100
AcDbCircle
 10
439.2112696901
 20
1173.6399229362
 30
0.0
 40
2.08789660205115
100
AcDbArc
 50
122.1643522061
 51
180.40280763
  0
LINE
  5
F3
330
1F
100
AcDbEntity
  8
0
  6
Continuous
 62
     7
370
    15
100
AcDbLine
 10
437.1234246854
 20
1140.6895059136
 30
0.0
 11
437.1234246854
 21
1173.6252444771
 31
0.0
  0
LINE
  5
F4
330
1F
100
AcDbEntity
  8
0
  6
Continuous
 62
     7
370
    15
100
AcDbLine
 10
439.1257607703
 20
1140.6895059136
 30
0.0
 11
437.1234246854
 21
1140.6895059136
 31
0.0
  0
ARC
  5
F5
330
1F
100
AcDbEntity
  8
0
  6
Continuous
 62
     7
370
    15
100
AcDbCircle
 10
596.1931341448
 20
1173.7164549072
 30
0.0
 40
2.013083411642199
100
AcDbArc
 50
357.4031069092
 51
57.1366408982
  0
SPLINE
  5
F6
330
1F
100
AcDbEntity
  8
0
  6
Continuous
 62
     7
370
    15
100
AcDbSpline
210
0.0
220
0.0
230
1.0
 70
     8
 71
     3
 72
     9
 73
     5
 74
     0
 42
0.00000001
 43
0.00000001
 12
1.0
 22
0.0
 32
0.0
 13
1.0
 23
0.0
 33
0.0
 40
0.0
 40
0.0
 40
0.0
 40
0.0
 40
0.3099579272377004
 40
1.0
 40
1.0
 40
1.0
 40
1.0
 10
598.2041501764568
 20
1173.625244477119
 30
0.0
 10
597.6052808916774
 20
1173.659897172994
 30
0.0
 10
595.6731822674659
 20
1173.771695235989
 30
0.0
 10
593.7404341047621
 20
1173.685040139509
 30
0.0
 10
592.4067565564426
 20
1173.625244477119
 30
0.0
  0
SPLINE
  5
F7
330
1F
100
AcDbEntity
  8
0
  6
Continuous
 62
     7
370
    15
100
AcDbSpline
210
0.0
220
0.0
230
1.0
 70
     8
 71
     3
 72
     9
 73
     5
 74
     0
 42
0.00000001
 43
0.00000001
 12
1.0
 22
0.0
 32
0.0
 13
1.0
 23
0.0
 33
0.0
 40
0.0
 40
0.0
 40
0.0
 40
0.0
 40
0.3099579272377004
 40
1.0
 40
1.0
 40
1.0
 40
1.0
 10
437.1234246854099
 20
1173.625244477119
 30
0.0
 10
436.5245554006305
 20
1173.659897172994
 30
0.0
 10
434.5924567764189
 20
1173.771695235989
 30
0.0
 10
432.6597086137153
 20
1173.685040139509
 30
0.0
 10
431.3260310653957
 20
1173.625244477119
 30
0.0
  0
ARC
  5
F8
330
1F
100
AcDbEntity
  8
0
  6
Continuous
 62
     7
370
    15
100
AcDbCircle
 10
433.3370470971
 20
1173.7164549072
 30
0.0
 40
2.013083411642248
100
AcDbArc
 50
122.8633591018
 51
182.5968930908
  0
LINE
  5
F9
330
1F
100
AcDbEntity
  8
0
  6
Continuous
 62
     7
370
    15
100
AcDbLine
 10
598.2041501765
 20
1140.6895059136
 30
0.0
 11
598.2041501765
 21
1173.6252444771
 31
0.0
  0
LWPOLYLINE
  5
FA
330
1F
100
AcDbEntity
  8
0
  6
Continuous
 62
     7
370
    15
100
AcDbPolyline
 90
       18
 70
   128
 43
0.0
 10
595.3054496412
 20
1169.7895067719
 10
594.8358395461
 20
1169.6139263895
 10
594.4296487932
 20
1169.1109227923
 10
594.1417434577
 20
1168.3484154728
 10
594.0110006694
 20
1167.4294012574
 10
594.0550783042
 20
1166.4779770163
 10
594.2680307988
 20
1165.6226503638
 10
594.6210914616
 20
1164.9789351014
 10
595.0665765766
 20
1164.6337795046
 10
595.5443301563
 20
1164.6337795046
 10
595.9898152713
 20
1164.9789351014
 10
596.3428759341
 20
1165.6226503638
 10
596.5558284287
 20
1166.4779770163
 10
596.5999060635
 20
1167.4294012574
 10
596.4691632752
 20
1168.3484154728
 10
596.1812579397
 20
1169.1109227923
 10
595.7750671868
 20
1169.6139263895
 10
595.3054496412
 20
1169.7895067719
  0
LINE
  5
FB
330
1F
100
AcDbEntity
  8
0
  6
Continuous
 62
     7
370
    15
100
AcDbLine
 10
598.2041501765
 20
1140.6895059136
 30
0.0
 11
592.4067565564
 21
1140.6895059136
 31
0.0
  0
LINE
  5
FC
330
1F
100
AcDbEntity
  8
0
  6
Continuous
 62
     7
370
    15
100
AcDbLine
 10
431.3260310654
 20
1173.6252444771
 30
0.0
 11
431.3260310654
 21
1140.6895059136
 31
0.0
  0
LWPOLYLINE
  5
FD
330
1F
100
AcDbEntity
  8
0
  6
Continuous
 62
     7
370
    15
100
AcDbPolyline
 90
       18
 70
   128
 43
0.0
 10
434.2247316007
 20
1169.7895067719
 10
433.7551140551
 20
1169.6139263895
 10
433.3489233021
 20
1169.1109227923
 10
433.0610179667
 20
1168.3484154728
 10
432.9302751784
 20
1167.4294012574
 10
432.9743528132
 20
1166.4779770163
 10
433.1873053078
 20
1165.6226503638
 10
433.5403659705
 20
1164.9789351014
 10
433.9858510856
 20
1164.6337795046
 10
434.4636046652
 20
1164.6337795046
 10
434.9090897803
 20
1164.9789351014
 10
435.262150443
 20
1165.6226503638
 10
435.4751029376
 20
1166.4779770163
 10
435.5191805724
 20
1167.4294012574
 10
435.3884377841
 20
1168.3484154728
 10
435.1005324487
 20
1169.1109227923
 10
434.6943416957
 20
1169.6139263895
 10
434.2247316007
 20
1169.7895067719
  0
LINE
  5
FE
330
1F
100
AcDbEntity
  8
0
  6
Continuous
 62
     7
370
    15
100
AcDbLine
 10
437.1234246854
 20
1140.6895059136
 30
0.0
 11
431.3260310654
 21
1140.6895059136
 31
0.0
  0
LINE
  5
FF
330
1F
100
AcDbEntity
  8
0
  6
Continuous
 62
     7
370
    15
100
AcDbLine
 10
598.472102857
 20
1140.6895059136
 30
0.0
 11
598.2041501765
 21
1140.6895059136
 31
0.0
  0
LINE
  5
100
330
1F
100
AcDbEntity
  8
0
  6
Continuous
 62
     7
370
    15
100
AcDbLine
 10
431.3260310654
 20
1140.6895059136
 30
0.0
 11
431.0580783848
 21
1140.6895059136
 31
0.0
  0
LINE
  5
101
330
1F
100
AcDbEntity
  8
0
  6
Continuous
 62
     7
370
    15
100
AcDbLine
 10
593.2309248809
 20
1172.1895026949
 30
0.0
 11
597.2309255366
 21
1172.1895026949
 31
0.0
  0
SPLINE
  5
102
330
1F
100
AcDbEntity
  8
0
  6
Continuous
 62
     7
370
    15
100
AcDbSpline
210
0.0
220
0.0
230
1.0
 70
    11
 71
     3
 72
    26
 73
    22
 74
     0
 42
0.00000001
 43
0.00000001
 12
1.0
 22
0.0
 32
0.0
 13
1.0
 23
0.0
 33
0.0
 40
0.0
 40
0.0
 40
0.0
 40
0.0
 40
0.0536823029747915
 40
0.1073640953544873
 40
0.1610513521488783
 40
0.2147434276572704
 40
0.2684289500252975
 40
0.322107250144915
 40
0.3757895128598013
 40
0.4294794938153946
 40
0.4831701473665954
 40
0.5368521541514764
 40
0.5905302186143861
 40
0.6442150994086511
 40
0.6979070287633218
 40
0.7515956659107856
 40
0.8052743551254309
 40
0.858954585552508
 40
0.9126420095638129
 40
0.9663342670410527
 40
1.0
 40
1.0
 40
1.0
 40
1.0
 10
595.3054496411594
 20
1168.989508130874
 30
0.0
 10
595.406302092599
 20
1168.969610828922
 30
0.0
 10
595.6080060362282
 20
1168.929816414271
 30
0.0
 10
595.8725925486075
 20
1168.619585943646
 30
0.0
 10
596.0720780494418
 20
1168.162718840099
 30
0.0
 10
596.1854046405599
 20
1167.592195190481
 30
0.0
 10
596.2010580772687
 20
1166.97733369872
 30
0.0
 10
596.1174987808693
 20
1166.386162786698
 30
0.0
 10
595.9431918442309
 20
1165.885608098135
 30
0.0
 10
595.6961072062825
 20
1165.531989150015
 30
0.0
 10
595.4024299244106
 20
1165.365230458662
 30
0.0
 10
595.0944116366619
 20
1165.404144235934
 30
0.0
 10
594.8069694909722
 20
1165.644270263112
 30
0.0
 10
594.5737561119669
 20
1166.058590968277
 30
0.0
 10
594.4227870814316
 20
1166.600426714574
 30
0.0
 10
594.3725889503061
 20
1167.208733366655
 30
0.0
 10
594.4293414821939
 20
1167.814604692511
 30
0.0
 10
594.5860726721133
 20
1168.350802260645
 30
0.0
 10
594.823391423131
 20
1168.753127099514
 30
0.0
 10
595.0776001599374
 20
1168.960921867625
 30
0.0
 10
595.2420676894687
 20
1168.981556156849
 30
0.0
 10
595.3054496411594
 20
1168.989508130874
 30
0.0
  0
LINE
  5
103
330
1F
100
AcDbEntity
  8
0
  6
Continuous
 62
     7
370
    15
100
AcDbLine
 10
598.1376611952
 20
1159.6894997147
 30
0.0
 11
595.3054496412
 21
1159.6894997147
 31
0.0
  0
LINE
  5
104
330
1F
100
AcDbEntity
  8
0
  6
Continuous
 62
     7
370
    15
100
AcDbLine
 10
432.2992557053
 20
1172.1895026949
 30
0.0
 11
436.2992563609
 21
1172.1895026949
 31
0.0
  0
SPLINE
  5
105
330
1F
100
AcDbEntity
  8
0
  6
Continuous
 62
     7
370
    15
100
AcDbSpline
210
0.0
220
0.0
230
1.0
 70
    11
 71
     3
 72
    26
 73
    22
 74
     0
 42
0.00000001
 43
0.00000001
 12
1.0
 22
0.0
 32
0.0
 13
1.0
 23
0.0
 33
0.0
 40
0.0
 40
0.0
 40
0.0
 40
0.0
 40
0.0536815750722516
 40
0.1073636052479893
 40
0.1610510716397179
 40
0.2147429139014684
 40
0.2684284632953078
 40
0.3221067647162873
 40
0.3757890899732768
 40
0.4294790990161403
 40
0.4831697596063915
 40
0.5368517380344001
 40
0.5905295558056112
 40
0.644214371441204
 40
0.697906524144798
 40
0.751595144316019
 40
0.8052738609218565
 40
0.8589539289898441
 40
0.9126417393522095
 40
0.966333797854435
 40
1.0
 40
1.0
 40
1.0
 40
1.0
 10
434.2247316006931
 20
1168.989508130874
 30
0.0
 10
434.3262653308461
 20
1168.969610329448
 30
0.0
 10
434.5293336519382
 20
1168.929814557905
 30
0.0
 10
434.803463116314
 20
1168.619585659943
 30
0.0
 10
435.0135501691502
 20
1168.162721697985
 30
0.0
 10
435.1344681209889
 20
1167.592193087713
 30
0.0
 10
435.1512656908797
 20
1166.977334214432
 30
0.0
 10
435.0618875978884
 20
1166.386162282135
 30
0.0
 10
434.8773886009825
 20
1165.885608349299
 30
0.0
 10
434.6201607873832
 20
1165.531989145563
 30
0.0
 10
434.3208805452119
 20
1165.365230575607
 30
0.0
 10
434.0142159457333
 20
1165.404143840037
 30
0.0
 10
433.7345172432284
 20
1165.644270667786
 30
0.0
 10
433.5120248619178
 20
1166.05859274444
 30
0.0
 10
433.3700627978151
 20
1166.600424858147
 30
0.0
 10
433.3232274611776
 20
1167.208734147652
 30
0.0
 10
433.3762078816894
 20
1167.814602974088
 30
0.0
 10
433.5236531594792
 20
1168.350805637882
 30
0.0
 10
433.7503901377578
 20
1168.753124406263
 30
0.0
 10
433.9978428955631
 20
1168.960923066853
 30
0.0
 10
434.1616164185626
 20
1168.981556428206
 30
0.0
 10
434.2247316006931
 20
1168.989508130874
 30
0.0
  0
LINE
  5
106
330
1F
100
AcDbEntity
  8
0
  6
Continuous
 62
     7
370
    15
100
AcDbLine
 10
434.2247316007
 20
1159.6894997147
 30
0.0
 11
431.3925200466
 21
1159.6894997147
 31
0.0
  0
LWPOLYLINE
  5
107
330
1F
100
AcDbEntity
  8
0
  6
Continuous
 62
     7
370
    15
100
AcDbPolyline
 90
       12
 70
   128
 43
0.0
 10
601.1101969842
 20
1118.1894975689
 10
601.0643982653
 20
1120.7766669777
 10
600.9278440241
 20
1123.3156460312
 10
600.7030823592
 20
1125.7591235426
 10
600.394300497
 20
1128.0615913657
 10
600.007242835
 20
1130.1801788596
 10
599.5491364364
 20
1132.075383046
 10
599.0284973149
 20
1133.7119328764
 10
598.4550335769
 20
1135.0593256739
 10
597.8394293551
 20
1136.092467883
 10
597.1931436424
 20
1136.7921072033
 10
597.0650905136
 20
1136.8880855826
  0
LWPOLYLINE
  5
108
330
1F
100
AcDbEntity
  8
0
  6
Continuous
 62
     7
370
    15
100
AcDbPolyline
 90
       12
 70
   128
 43
0.0
 10
597.0650905136
 20
1099.4909170059
 10
597.1931436424
 20
1099.5869028357
 10
597.8394293551
 20
1100.2865421561
 10
598.4550335769
 20
1101.3196843651
 10
599.0284973149
 20
1102.6670771626
 10
599.5491364364
 20
1104.3036195424
 10
600.007242835
 20
1106.1988311795
 10
600.394300497
 20
1108.3174037722
 10
600.7030823592
 20
1110.6198864964
 10
600.9278440241
 20
1113.0633640078
 10
601.0643982653
 20
1115.6023430613
 10
601.1101969842
 20
1118.1894975689
  0
LWPOLYLINE
  5
109
330
1F
100
AcDbEntity
  8
0
  6
Continuous
 62
     7
370
    15
100
AcDbPolyline
 90
       13
 70
   128
 43
0.0
 10
602.3349457745
 20
1118.1894975689
 10
602.2887596254
 20
1115.5237692383
 10
602.1510207419
 20
1112.9055905131
 10
601.9241952662
 20
1110.381721237
 10
601.6123288636
 20
1107.997162917
 10
601.2209871177
 20
1105.7945030716
 10
600.7571437721
 20
1103.8130286125
 10
600.2290913228
 20
1102.088099995
 10
599.6462398533
 20
1100.6505030182
 10
599.0189978246
 20
1099.5258900312
 10
598.3585560087
 20
1098.734332898
 10
597.6766937737
 20
1098.2899504689
 10
597.0650905136
 20
1098.1927650956
  0
LWPOLYLINE
  5
10A
330
1F
100
AcDbEntity
  8
0
  6
Continuous
 62
     7
370
    15
100
AcDbPolyline
 90
       13
 70
   128
 43
0.0
 10
597.0650905136
 20
1138.1862449435
 10
597.6766937737
 20
1138.0890595702
 10
598.3585560087
 20
1137.644677141
 10
599.0189978246
 20
1136.8531125573
 10
599.6462398533
 20
1135.7285070208
 10
600.2290913228
 20
1134.2909025935
 10
600.7571437721
 20
1132.565973976
 10
601.2209871177
 20
1130.5845069674
 10
601.6123288636
 20
1128.3818322209
 10
601.9241952662
 20
1125.997288802
 10
602.1510207419
 20
1123.4734046248
 10
602.2887596254
 20
1120.8552408007
 10
602.3349457745
 20
1118.1894975689
  0
LWPOLYLINE
  5
10B
330
1F
100
AcDbEntity
  8
0
  6
Continuous
 62
     7
370
    15
100
AcDbPolyline
 90
       13
 70
   128
 43
0.0
 10
617.7897596125
 20
1118.1894975689
 10
617.7435734634
 20
1120.8552408007
 10
617.6058345799
 20
1123.4734046248
 10
617.3790091042
 20
1125.997288802
 10
617.0671427016
 20
1128.3818322209
 10
616.6758009557
 20
1130.5845069674
 10
616.2119576101
 20
1132.565973976
 10
615.6838977103
 20
1134.2909025935
 10
615.1010536913
 20
1135.7285070208
 10
614.4738116626
 20
1136.8531125573
 10
613.8133698468
 20
1137.644677141
 10
613.1315076117
 20
1138.0890595702
 10
612.6133793358
 20
1138.1895082978
  0
LWPOLYLINE
  5
10C
330
1F
100
AcDbEntity
  8
0
  6
Continuous
 62
     7
370
    15
100
AcDbPolyline
 90
       13
 70
   128
 43
0.0
 10
612.6133793358
 20
1098.1895017413
 10
613.1315076117
 20
1098.2899504689
 10
613.8133698468
 20
1098.734332898
 10
614.4738116626
 20
1099.5258900312
 10
615.1010536913
 20
1100.6505030182
 10
615.6838977103
 20
1102.088099995
 10
616.2119576101
 20
1103.8130286125
 10
616.6758009557
 20
1105.7945030716
 10
617.0671427016
 20
1107.997162917
 10
617.3790091042
 20
1110.381721237
 10
617.6058345799
 20
1112.9055905131
 10
617.7435734634
 20
1115.5237692383
 10
617.7897596125
 20
1118.1894975689
  0
LWPOLYLINE
  5
10D
330
1F
100
AcDbEntity
  8
0
  6
Continuous
 62
     7
370
    15
100
AcDbPolyline
 90
       11
 70
   128
 43
0.0
 10
618.4968644146
 20
1118.1894975689
 10
618.4510656957
 20
1115.6023430613
 10
618.3145114545
 20
1113.0633640078
 10
618.0897423391
 20
1110.6198864964
 10
617.7809604768
 20
1108.3174037722
 10
617.3939102654
 20
1106.1988311795
 10
616.9357964162
 20
1104.3036195424
 10
616.4151647453
 20
1102.6670771626
 10
615.8417010073
 20
1101.3196843651
 10
615.2260967855
 20
1100.2865421561
 10
614.896959937
 20
1099.8842778591
  0
LWPOLYLINE
  5
10E
330
1F
100
AcDbEntity
  8
0
  6
Continuous
 62
     7
370
    15
100
AcDbPolyline
 90
       11
 70
   128
 43
0.0
 10
614.896959937
 20
1136.4947247294
 10
615.2260967855
 20
1136.092467883
 10
615.8417010073
 20
1135.0593256739
 10
616.4151647453
 20
1133.7119328764
 10
616.9357964162
 20
1132.075383046
 10
617.3939102654
 20
1130.1801788596
 10
617.7809604768
 20
1128.0615913657
 10
618.0897423391
 20
1125.7591235426
 10
618.3145114545
 20
1123.3156460312
 10
618.4510656957
 20
1120.7766669777
 10
618.4968644146
 20
1118.1894975689
  0
LINE
  5
10F
330
1F
100
AcDbEntity
  8
0
  6
Continuous
 62
     7
370
    15
100
AcDbLine
 10
467.0948491756
 20
743.6895060328
 30
0.0
 11
470.6898474459
 21
743.6895060328
 31
0.0
  0
LINE
  5
110
330
1F
100
AcDbEntity
  8
0
  6
Continuous
 62
     7
370
    15
100
AcDbLine
 10
459.9048489098
 20
743.6895060328
 30
0.0
 11
467.0948491756
 21
743.6895060328
 31
0.0
  0
LINE
  5
111
330
1F
100
AcDbEntity
  8
0
  6
Continuous
 62
     7
370
    15
100
AcDbLine
 10
456.3098506395
 20
743.6895060328
 30
0.0
 11
459.9048489098
 21
743.6895060328
 31
0.0
  0
LINE
  5
112
330
1F
100
AcDbEntity
  8
0
  6
Continuous
 62
     7
370
    15
100
AcDbLine
 10
459.9048489098
 20
743.6895060328
 30
0.0
 11
459.9048489098
 21
738.3895057228
 31
0.0
  0
LINE
  5
113
330
1F
100
AcDbEntity
  8
0
  6
Continuous
 62
     7
370
    15
100
AcDbLine
 10
467.0948491756
 20
743.6895060328
 30
0.0
 11
467.0948491756
 21
738.3895057228
 31
0.0
  0
LINE
  5
114
330
1F
100
AcDbEntity
  8
0
  6
Continuous
 62
     7
370
    15
100
AcDbLine
 10
459.9048489098
 20
738.3895057228
 30
0.0
 11
467.0948491756
 21
738.3895057228
 31
0.0
  0
LINE
  5
115
330
1F
100
AcDbEntity
  8
0
  6
Continuous
 62
     7
370
    15
100
AcDbLine
 10
456.3098506395
 20
743.6895060328
 30
0.0
 11
456.3098506395
 21
738.3895057228
 31
0.0
  0
LINE
  5
116
330
1F
100
AcDbEntity
  8
0
  6
Continuous
 62
     7
370
    15
100
AcDbLine
 10
456.3098506395
 20
738.3895057228
 30
0.0
 11
459.9048489098
 21
738.3895057228
 31
0.0
  0
LINE
  5
117
330
1F
100
AcDbEntity
  8
0
  6
Continuous
 62
     7
370
    15
100
AcDbLine
 10
470.6898474459
 20
743.6895060328
 30
0.0
 11
470.6898474459
 21
738.3895057228
 31
0.0
  0
LINE
  5
118
330
1F
100
AcDbEntity
  8
0
  6
Continuous
 62
     7
370
    15
100
AcDbLine
 10
467.0948491756
 20
738.3895057228
 30
0.0
 11
470.6898474459
 21
738.3895057228
 31
0.0
  0
LINE
  5
119
330
1F
100
AcDbEntity
  8
0
  6
Continuous
 62
     7
370
    15
100
AcDbLine
 10
459.4998502497
 20
853.6895054367
 30
0.0
 11
467.4998478357
 21
853.6895054367
 31
0.0
  0
LINE
  5
11A
330
1F
100
AcDbEntity
  8
0
  6
Continuous
 62
     7
370
    15
100
AcDbLine
 10
569.6253323321
 20
743.6895060328
 30
0.0
 11
573.2203306023
 21
743.6895060328
 31
0.0
  0
LINE
  5
11B
330
1F
100
AcDbEntity
  8
0
  6
Continuous
 62
     7
370
    15
100
AcDbLine
 10
562.4353320662
 20
743.6895060328
 30
0.0
 11
569.6253323321
 21
743.6895060328
 31
0.0
  0
LINE
  5
11C
330
1F
100
AcDbEntity
  8
0
  6
Continuous
 62
     7
370
    15
100
AcDbLine
 10
558.840333796
 20
743.6895060328
 30
0.0
 11
562.4353320662
 21
743.6895060328
 31
0.0
  0
LINE
  5
11D
330
1F
100
AcDbEntity
  8
0
  6
Continuous
 62
     7
370
    15
100
AcDbLine
 10
562.4353320662
 20
743.6895060328
 30
0.0
 11
562.4353320662
 21
738.3895057228
 31
0.0
  0
LINE
  5
11E
330
1F
100
AcDbEntity
  8
0
  6
Continuous
 62
     7
370
    15
100
AcDbLine
 10
569.6253323321
 20
743.6895060328
 30
0.0
 11
569.6253323321
 21
738.3895057228
 31
0.0
  0
LINE
  5
11F
330
1F
100
AcDbEntity
  8
0
  6
Continuous
 62
     7
370
    15
100
AcDbLine
 10
562.4353320662
 20
738.3895057228
 30
0.0
 11
569.6253323321
 21
738.3895057228
 31
0.0
  0
LINE
  5
120
330
1F
100
AcDbEntity
  8
0
  6
Continuous
 62
     7
370
    15
100
AcDbLine
 10
558.840333796
 20
743.6895060328
 30
0.0
 11
558.840333796
 21
738.3895057228
 31
0.0
  0
LINE
  5
121
330
1F
100
AcDbEntity
  8
0
  6
Continuous
 62
     7
370
    15
100
AcDbLine
 10
558.840333796
 20
738.3895057228
 30
0.0
 11
562.4353320662
 21
738.3895057228
 31
0.0
  0
LINE
  5
122
330
1F
100
AcDbEntity
  8
0
  6
Continuous
 62
     7
370
    15
100
AcDbLine
 10
573.2203306023
 20
743.6895060328
 30
0.0
 11
573.2203306023
 21
738.3895057228
 31
0.0
  0
LINE
  5
123
330
1F
100
AcDbEntity
  8
0
  6
Continuous
 62
     7
370
    15
100
AcDbLine
 10
569.6253323321
 20
738.3895057228
 30
0.0
 11
573.2203306023
 21
738.3895057228
 31
0.0
  0
LINE
  5
124
330
1F
100
AcDbEntity
  8
0
  6
Continuous
 62
     7
370
    15
100
AcDbLine
 10
562.0303334061
 20
853.6895054367
 30
0.0
 11
570.0303309922
 21
853.6895054367
 31
0.0
  0
LINE
  5
125
330
1F
100
AcDbEntity
  8
0
  6
Continuous
 62
     7
370
    15
100
AcDbLine
 10
582.2650933031
 20
760.6894957808
 30
0.0
 11
570.0303309922
 21
760.6894957808
 31
0.0
  0
LINE
  5
126
330
1F
100
AcDbEntity
  8
0
  6
Continuous
 62
     7
370
    15
100
AcDbLine
 10
562.0303334061
 20
760.6894957808
 30
0.0
 11
467.4998478357
 21
760.6894957808
 31
0.0
  0
LINE
  5
127
330
1F
100
AcDbEntity
  8
0
  6
Continuous
 62
     7
370
    15
100
AcDbLine
 10
459.4998502497
 20
760.6894957808
 30
0.0
 11
447.2650879387
 21
760.6894957808
 31
0.0
  0
LINE
  5
128
330
1F
100
AcDbEntity
  8
0
  6
Continuous
 62
     7
370
    15
100
AcDbLine
 10
582.2650933031
 20
744.6895080593
 30
0.0
 11
577.6313611631
 21
744.6895080593
 31
0.0
  0
LINE
  5
129
330
1F
100
AcDbEntity
  8
0
  6
Continuous
 62
     7
370
    15
100
AcDbLine
 10
549.356936789
 20
744.6895080593
 30
0.0
 11
549.356936789
 21
758.6895066288
 31
0.0
  0
LINE
  5
12A
330
1F
100
AcDbEntity
  8
0
  6
Continuous
 62
     7
370
    15
100
AcDbLine
 10
549.356936789
 20
744.6895080593
 30
0.0
 11
480.1732444529
 21
744.6895080593
 31
0.0
  0
LINE
  5
12B
330
1F
100
AcDbEntity
  8
0
  6
Continuous
 62
     7
370
    15
100
AcDbLine
 10
480.1732444529
 20
758.6895066288
 30
0.0
 11
480.1732444529
 21
744.6895080593
 31
0.0
  0
LINE
  5
12C
330
1F
100
AcDbEntity
  8
0
  6
Continuous
 62
     7
370
    15
100
AcDbLine
 10
451.8988200788
 20
744.6895080593
 30
0.0
 11
447.2650879387
 21
744.6895080593
 31
0.0
  0
LINE
  5
12D
330
1F
100
AcDbEntity
  8
0
  6
Continuous
 62
     7
370
    15
100
AcDbLine
 10
564.7938431565
 20
758.6895066288
 30
0.0
 11
564.7938431565
 21
744.6895080593
 31
0.0
  0
LINE
  5
12E
330
1F
100
AcDbEntity
  8
0
  6
Continuous
 62
     7
370
    15
100
AcDbLine
 10
562.705493844
 20
744.6895080593
 30
0.0
 11
562.705493844
 21
758.6895066288
 31
0.0
  0
LINE
  5
12F
330
1F
100
AcDbEntity
  8
0
  6
Continuous
 62
     7
370
    15
100
AcDbLine
 10
562.705493844
 20
758.6895066288
 30
0.0
 11
564.7938431565
 21
758.6895066288
 31
0.0
  0
LINE
  5
130
330
1F
100
AcDbEntity
  8
0
  6
Continuous
 62
     7
370
    15
100
AcDbLine
 10
564.7938431565
 20
744.6895080593
 30
0.0
 11
562.705493844
 21
744.6895080593
 31
0.0
  0
LINE
  5
131
330
1F
100
AcDbEntity
  8
0
  6
Continuous
 62
     7
370
    15
100
AcDbLine
 10
466.8246873979
 20
758.6895066288
 30
0.0
 11
466.8246873979
 21
744.6895080593
 31
0.0
  0
LINE
  5
132
330
1F
100
AcDbEntity
  8
0
  6
Continuous
 62
     7
370
    15
100
AcDbLine
 10
464.7363380853
 20
744.6895080593
 30
0.0
 11
464.7363380853
 21
758.6895066288
 31
0.0
  0
LINE
  5
133
330
1F
100
AcDbEntity
  8
0
  6
Continuous
 62
     7
370
    15
100
AcDbLine
 10
464.7363380853
 20
758.6895066288
 30
0.0
 11
466.8246873979
 21
758.6895066288
 31
0.0
  0
LINE
  5
134
330
1F
100
AcDbEntity
  8
0
  6
Continuous
 62
     7
370
    15
100
AcDbLine
 10
466.8246873979
 20
744.6895080593
 30
0.0
 11
464.7363380853
 21
744.6895080593
 31
0.0
  0
LINE
  5
135
330
1F
100
AcDbEntity
  8
0
  6
Continuous
 62
     7
370
    15
100
AcDbLine
 10
552.1508002047
 20
758.6895066288
 30
0.0
 11
552.1508002047
 21
744.6895080593
 31
0.0
  0
LINE
  5
136
330
1F
100
AcDbEntity
  8
0
  6
Continuous
 62
     7
370
    15
100
AcDbLine
 10
562.705493844
 20
758.6895066288
 30
0.0
 11
552.1508002047
 21
758.6895066288
 31
0.0
  0
LINE
  5
137
330
1F
100
AcDbEntity
  8
0
  6
Continuous
 62
     7
370
    15
100
AcDbLine
 10
562.705493844
 20
744.6895080593
 30
0.0
 11
552.1508002047
 21
744.6895080593
 31
0.0
  0
LINE
  5
138
330
1F
100
AcDbEntity
  8
0
  6
Continuous
 62
     7
370
    15
100
AcDbLine
 10
477.3793810372
 20
744.6895080593
 30
0.0
 11
477.3793810372
 21
758.6895066288
 31
0.0
  0
LINE
  5
139
330
1F
100
AcDbEntity
  8
0
  6
Continuous
 62
     7
370
    15
100
AcDbLine
 10
477.3793810372
 20
758.6895066288
 30
0.0
 11
466.8246873979
 21
758.6895066288
 31
0.0
  0
LINE
  5
13A
330
1F
100
AcDbEntity
  8
0
  6
Continuous
 62
     7
370
    15
100
AcDbLine
 10
477.3793810372
 20
744.6895080593
 30
0.0
 11
466.8246873979
 21
744.6895080593
 31
0.0
  0
LINE
  5
13B
330
1F
100
AcDbEntity
  8
0
  6
Continuous
 62
     7
370
    15
100
AcDbLine
 10
577.1920376782
 20
744.6895080593
 30
0.0
 11
577.1920376782
 21
758.6895066288
 31
0.0
  0
LINE
  5
13C
330
1F
100
AcDbEntity
  8
0
  6
Continuous
 62
     7
370
    15
100
AcDbLine
 10
577.1920376782
 20
758.6895066288
 30
0.0
 11
564.7938431565
 21
758.6895066288
 31
0.0
  0
LINE
  5
13D
330
1F
100
AcDbEntity
  8
0
  6
Continuous
 62
     7
370
    15
100
AcDbLine
 10
577.1920376782
 20
744.6895080593
 30
0.0
 11
564.7938431565
 21
744.6895080593
 31
0.0
  0
LINE
  5
13E
330
1F
100
AcDbEntity
  8
0
  6
Continuous
 62
     7
370
    15
100
AcDbLine
 10
452.3381435637
 20
758.6895066288
 30
0.0
 11
452.3381435637
 21
744.6895080593
 31
0.0
  0
LINE
  5
13F
330
1F
100
AcDbEntity
  8
0
  6
Continuous
 62
     7
370
    15
100
AcDbLine
 10
464.7363380853
 20
758.6895066288
 30
0.0
 11
452.3381435637
 21
758.6895066288
 31
0.0
  0
LINE
  5
140
330
1F
100
AcDbEntity
  8
0
  6
Continuous
 62
     7
370
    15
100
AcDbLine
 10
464.7363380853
 20
744.6895080593
 30
0.0
 11
452.3381435637
 21
744.6895080593
 31
0.0
  0
LINE
  5
141
330
1F
100
AcDbEntity
  8
0
  6
Continuous
 62
     7
370
    15
100
AcDbLine
 10
549.356936789
 20
758.6895066288
 30
0.0
 11
552.1508002047
 21
758.6895066288
 31
0.0
  0
LINE
  5
142
330
1F
100
AcDbEntity
  8
0
  6
Continuous
 62
     7
370
    15
100
AcDbLine
 10
552.1508002047
 20
744.6895080593
 30
0.0
 11
549.356936789
 21
744.6895080593
 31
0.0
  0
LINE
  5
143
330
1F
100
AcDbEntity
  8
0
  6
Continuous
 62
     7
370
    15
100
AcDbLine
 10
477.3793810372
 20
758.6895066288
 30
0.0
 11
480.1732444529
 21
758.6895066288
 31
0.0
  0
LINE
  5
144
330
1F
100
AcDbEntity
  8
0
  6
Continuous
 62
     7
370
    15
100
AcDbLine
 10
480.1732444529
 20
744.6895080593
 30
0.0
 11
477.3793810372
 21
744.6895080593
 31
0.0
  0
LINE
  5
145
330
1F
100
AcDbEntity
  8
0
  6
Continuous
 62
     7
370
    15
100
AcDbLine
 10
521.765090837
 20
729.1894989994
 30
0.0
 11
521.765090837
 21
744.6895080593
 31
0.0
  0
SPLINE
  5
146
330
1F
100
AcDbEntity
  8
0
  6
Continuous
 62
     7
370
    15
100
AcDbSpline
210
0.0
220
0.0
230
1.0
 70
    24
 71
     3
 72
    15
 73
    11
 74
     0
 42
0.00000001
 43
0.00000001
 12
1.0
 22
0.0
 32
0.0
 13
1.0
 23
0.0
 33
0.0
 40
0.0
 40
0.0
 40
0.0
 40
0.0
 40
0.1249999053834623
 40
0.2500000296035733
 40
0.3749999942636322
 40
0.5000000000000339
 40
0.6250000057363677
 40
0.7499999703964266
 40
0.8750000946165377
 40
1.0
 40
1.0
 40
1.0
 40
1.0
 10
521.7650908369931
 20
729.1894989994423
 30
0.0
 10
521.6598692946139
 20
729.1894989994423
 30
0.0
 10
521.4494260256448
 20
729.1894989994423
 30
0.0
 10
519.8306849909054
 20
729.1894989994424
 30
0.0
 10
517.516867903236
 20
729.1894989994423
 30
0.0
 10
514.765090620926
 20
729.1894989994424
 30
0.0
 10
512.0133133386162
 20
729.1894989994424
 30
0.0
 10
509.699496250947
 20
729.1894989994424
 30
0.0
 10
508.0807552162077
 20
729.1894989994424
 30
0.0
 10
507.8703119472386
 20
729.1894989994423
 30
0.0
 10
507.7650904048594
 20
729.1894989994423
 30
0.0
  0
LINE
  5
147
330
1F
100
AcDbEntity
  8
0
  6
Continuous
 62
     7
370
    15
100
AcDbLine
 10
507.7650904049
 20
744.6895080593
 30
0.0
 11
507.7650904049
 21
729.1894989994
 31
0.0
  0
LINE
  5
148
330
1F
100
AcDbEntity
  8
0
  6
Continuous
 62
     7
370
    15
100
AcDbLine
 10
577.1920376782
 20
758.6895066288
 30
0.0
 11
577.6313611631
 21
758.6895066288
 31
0.0
  0
LINE
  5
149
330
1F
100
AcDbEntity
  8
0
  6
Continuous
 62
     7
370
    15
100
AcDbLine
 10
577.6313611631
 20
744.6895080593
 30
0.0
 11
577.1920376782
 21
744.6895080593
 31
0.0
  0
LINE
  5
14A
330
1F
100
AcDbEntity
  8
0
  6
Continuous
 62
     7
370
    15
100
AcDbLine
 10
451.8988200788
 20
758.6895066288
 30
0.0
 11
452.3381435637
 21
758.6895066288
 31
0.0
  0
LINE
  5
14B
330
1F
100
AcDbEntity
  8
0
  6
Continuous
 62
     7
370
    15
100
AcDbLine
 10
452.3381435637
 20
744.6895080593
 30
0.0
 11
451.8988200788
 21
744.6895080593
 31
0.0
  0
LINE
  5
14C
330
1F
100
AcDbEntity
  8
0
  6
Continuous
 62
     7
370
    15
100
AcDbLine
 10
525.0984237854
 20
729.1894989994
 30
0.0
 11
521.765090837
 21
729.1894989994
 31
0.0
  0
LINE
  5
14D
330
1F
100
AcDbEntity
  8
0
  6
Continuous
 62
     7
370
    15
100
AcDbLine
 10
507.7650904049
 20
729.1894989994
 30
0.0
 11
504.4317574565
 21
729.1894989994
 31
0.0
  0
LINE
  5
14E
330
1F
100
AcDbEntity
  8
0
  6
Continuous
 62
     7
370
    15
100
AcDbLine
 10
545.7650901143
 20
729.1894989994
 30
0.0
 11
525.0984237854
 21
729.1894989994
 31
0.0
  0
LINE
  5
14F
330
1F
100
AcDbEntity
  8
0
  6
Continuous
 62
     7
370
    15
100
AcDbLine
 10
504.4317574565
 20
729.1894989994
 30
0.0
 11
483.7650911276
 21
729.1894989994
 31
0.0
  0
LINE
  5
150
330
1F
100
AcDbEntity
  8
0
  6
Continuous
 62
     7
370
    15
100
AcDbLine
 10
547.6589680974
 20
729.1894989994
 30
0.0
 11
545.7650901143
 21
729.1894989994
 31
0.0
  0
LINE
  5
151
330
1F
100
AcDbEntity
  8
0
  6
Continuous
 62
     7
370
    15
100
AcDbLine
 10
483.7650911276
 20
729.1894989994
 30
0.0
 11
481.8712131445
 21
729.1894989994
 31
0.0
  0
LINE
  5
152
330
1F
100
AcDbEntity
  8
0
  6
Continuous
 62
     7
370
    15
100
AcDbLine
 10
552.0400808517
 20
729.1894989994
 30
0.0
 11
547.6589680974
 21
729.1894989994
 31
0.0
  0
LINE
  5
153
330
1F
100
AcDbEntity
  8
0
  6
Continuous
 62
     7
370
    15
100
AcDbLine
 10
481.8712131445
 20
729.1894989994
 30
0.0
 11
477.4901003901
 21
729.1894989994
 31
0.0
  0
SPLINE
  5
154
330
1F
100
AcDbEntity
  8
0
  6
Continuous
 62
     7
370
    15
100
AcDbSpline
210
0.0
220
0.0
230
1.0
 70
    24
 71
     3
 72
    10
 73
     6
 74
     0
 42
0.00000001
 43
0.00000001
 12
1.0
 22
0.0
 32
0.0
 13
1.0
 23
0.0
 33
0.0
 40
0.0
 40
0.0
 40
0.0
 40
0.0
 40
0.374404774548767
 40
0.7488096892493942
 40
1.0
 40
1.0
 40
1.0
 40
1.0
 10
477.4901003901275
 20
729.1894989994424
 30
0.0
 10
476.757201497662
 20
729.1894989994423
 30
0.0
 10
475.2914034383831
 20
729.1894989994423
 30
0.0
 10
474.1096562948455
 20
729.1894989994424
 30
0.0
 10
474.1090264800604
 20
729.1894989994424
 30
0.0
 10
474.1087735955032
 20
729.1894989994424
 30
0.0
  0
SPLINE
  5
155
330
1F
100
AcDbEntity
  8
0
  6
Continuous
 62
     7
370
    15
100
AcDbSpline
210
0.0
220
0.0
230
1.0
 70
    24
 71
     3
 72
    10
 73
     6
 74
     0
 42
0.00000001
 43
0.00000001
 12
1.0
 22
0.0
 32
0.0
 13
1.0
 23
0.0
 33
0.0
 40
0.0
 40
0.0
 40
0.0
 40
0.0
 40
0.2511903107506059
 40
0.6255952254512331
 40
1.0
 40
1.0
 40
1.0
 40
1.0
 10
555.4214076463493
 20
729.1894989994424
 30
0.0
 10
555.4211547617921
 20
729.1894989994423
 30
0.0
 10
555.4205249470069
 20
729.1894989994423
 30
0.0
 10
554.2387778034694
 20
729.1894989994424
 30
0.0
 10
552.7729797441905
 20
729.1894989994424
 30
0.0
 10
552.040080851725
 20
729.1894989994424
 30
0.0
  0
LINE
  5
156
330
1F
100
AcDbEntity
  8
0
  6
Continuous
 62
     7
370
    15
100
AcDbLine
 10
447.2650879387
 20
784.189506152
 30
0.0
 11
459.4998502497
 21
784.189506152
 31
0.0
  0
LINE
  5
157
330
1F
100
AcDbEntity
  8
0
  6
Continuous
 62
     7
370
    15
100
AcDbLine
 10
467.4998478357
 20
784.189506152
 30
0.0
 11
562.0303334061
 21
784.189506152
 31
0.0
  0
LINE
  5
158
330
1F
100
AcDbEntity
  8
0
  6
Continuous
 62
     7
370
    15
100
AcDbLine
 10
570.0303309922
 20
784.189506152
 30
0.0
 11
582.2650933031
 21
784.189506152
 31
0.0
  0
LINE
  5
159
330
1F
100
AcDbEntity
  8
0
  6
Continuous
 62
     7
370
    15
100
AcDbLine
 10
447.2650879387
 20
807.689501622
 30
0.0
 11
459.4998502497
 21
807.689501622
 31
0.0
  0
LINE
  5
15A
330
1F
100
AcDbEntity
  8
0
  6
Continuous
 62
     7
370
    15
100
AcDbLine
 10
467.4998478357
 20
807.689501622
 30
0.0
 11
562.0303334061
 21
807.689501622
 31
0.0
  0
LINE
  5
15B
330
1F
100
AcDbEntity
  8
0
  6
Continuous
 62
     7
370
    15
100
AcDbLine
 10
570.0303309922
 20
807.689501622
 30
0.0
 11
582.2650933031
 21
807.689501622
 31
0.0
  0
LINE
  5
15C
330
1F
100
AcDbEntity
  8
0
  6
Continuous
 62
     7
370
    15
100
AcDbLine
 10
447.2650879387
 20
831.1894970921
 30
0.0
 11
459.4998502497
 21
831.1894970921
 31
0.0
  0
LINE
  5
15D
330
1F
100
AcDbEntity
  8
0
  6
Continuous
 62
     7
370
    15
100
AcDbLine
 10
467.4998478357
 20
831.1894970921
 30
0.0
 11
562.0303334061
 21
831.1894970921
 31
0.0
  0
LINE
  5
15E
330
1F
100
AcDbEntity
  8
0
  6
Continuous
 62
     7
370
    15
100
AcDbLine
 10
570.0303309922
 20
831.1894970921
 30
0.0
 11
582.2650933031
 21
831.1894970921
 31
0.0
  0
LWPOLYLINE
  5
15F
330
1F
100
AcDbEntity
  8
0
  6
Continuous
 62
     7
370
    15
100
AcDbPolyline
 90
       17
 70
   128
 43
0.0
 10
638.8504796986
 20
1056.0299294976
 10
638.6370280151
 20
1056.7491414932
 10
638.5348805551
 20
1057.3588597563
 10
638.5595866803
 20
1057.7662575034
 10
638.7073838476
 20
1057.9093161014
 10
638.9557713036
 20
1057.7662575034
 10
639.2669373516
 20
1057.3588597563
 10
639.5935037498
 20
1056.7491414932
 10
639.8857602243
 20
1056.0299294976
 10
640.0992044572
 20
1055.3107249525
 10
640.2013519172
 20
1054.7010066894
 10
640.1766457919
 20
1054.2936089424
 10
640.0288560752
 20
1054.1505428937
 10
639.7804686193
 20
1054.2936089424
 10
639.4693025712
 20
1054.7010066894
 10
639.1427361731
 20
1055.3107249525
 10
638.8504796986
 20
1056.0299294976
  0
LWPOLYLINE
  5
160
330
1F
100
AcDbEntity
  8
0
  6
Continuous
 62
     7
370
    15
100
AcDbPolyline
 90
       12
 70
   128
 43
0.0
 10
660.1969370012
 20
1062.329738119
 10
660.2178433303
 20
1062.3305576828
 10
660.5883458022
 20
1062.1533307222
 10
661.0471972589
 20
1061.6390022424
 10
661.5494856004
 20
1060.8379158166
 10
662.0460220937
 20
1059.8284888056
 10
662.4882289533
 20
1058.7095233587
 10
662.8328034047
 20
1057.5905653623
 10
663.0460241203
 20
1056.5811383513
 10
663.107014573
 20
1055.7800519255
 10
663.0098142986
 20
1055.2657234457
 10
662.9248925809
 20
1055.149591246
  0
ARC
  5
161
330
1F
100
AcDbEntity
  8
0
  6
Continuous
 62
     7
370
    15
100
AcDbCircle
 10
662.6254509646
 20
1059.533034118
 30
0.0
 40
0.0598516095664543
100
AcDbArc
 50
340.2029444966
 51
22.5239699578
  0
ARC
  5
162
330
1F
100
AcDbEntity
  8
0
  6
Continuous
 62
     7
370
    15
100
AcDbCircle
 10
656.7125632401
 20
1056.8704817088
 30
0.0
 40
6.527865109575402
100
AcDbArc
 50
14.8624973701
 51
23.8766893635
  0
ARC
  5
163
330
1F
100
AcDbEntity
  8
0
  6
Continuous
 62
     7
370
    15
100
AcDbCircle
 10
662.9674811667
 20
1058.5647014998
 30
0.0
 40
0.0580414053355131
100
AcDbArc
 50
340.0317836197
 51
50.2642683979
  0
LWPOLYLINE
  5
164
330
1F
100
AcDbEntity
  8
0
  6
Continuous
 62
     7
370
    15
100
AcDbPolyline
 90
       17
 70
   128
 43
0.0
 10
653.8619914417
 20
1056.0299294976
 10
653.6485323076
 20
1056.7491414932
 10
653.5463848476
 20
1057.3588597563
 10
653.5710909728
 20
1057.7662575034
 10
653.7188955907
 20
1057.9093161014
 10
653.9672830467
 20
1057.7662575034
 10
654.2784341935
 20
1057.3588597563
 10
654.6050080423
 20
1056.7491414932
 10
654.8972645168
 20
1056.0299294976
 10
655.1107087497
 20
1055.3107249525
 10
655.2128562097
 20
1054.7010066894
 10
655.1881500844
 20
1054.2936089424
 10
655.0403603677
 20
1054.1505428937
 10
654.7919729118
 20
1054.2936089424
 10
654.4808068637
 20
1054.7010066894
 10
654.154233015
 20
1055.3107249525
 10
653.8619914417
 20
1056.0299294976
  0
LWPOLYLINE
  5
165
330
1F
100
AcDbEntity
  8
0
  6
Continuous
 62
     7
370
    15
100
AcDbPolyline
 90
       12
 70
   128
 43
0.0
 10
630.1336282257
 20
1147.8417652634
 10
630.1545345549
 20
1147.8425848273
 10
630.5250370268
 20
1147.6653653172
 10
630.9838884835
 20
1147.1510368374
 10
631.4861693744
 20
1146.3499355105
 10
631.9827133183
 20
1145.34051595
 10
632.4249127273
 20
1144.2215579537
 10
632.7694946293
 20
1143.1025999573
 10
632.9827153448
 20
1142.0931654957
 10
633.0437057976
 20
1141.2920790699
 10
632.9465055231
 20
1140.7777505902
 10
632.8615763549
 20
1140.661625841
  0
ARC
  5
166
330
1F
100
AcDbEntity
  8
0
  6
Continuous
 62
     7
370
    15
100
AcDbCircle
 10
632.5621504037
 20
1145.0450713446
 30
0.0
 40
0.0598332772841619
100
AcDbArc
 50
340.1863634484
 51
22.5207981351
  0
ARC
  5
167
330
1F
100
AcDbEntity
  8
0
  6
Continuous
 62
     7
370
    15
100
AcDbCircle
 10
626.6495655985
 20
1142.3825134513
 30
0.0
 40
6.527565117155794
100
AcDbArc
 50
14.8632220677
 51
23.8778108181
  0
ARC
  5
168
330
1F
100
AcDbEntity
  8
0
  6
Continuous
 62
     7
370
    15
100
AcDbCircle
 10
632.9041640062
 20
1144.0767243752
 30
0.0
 40
0.0580452857001572
100
AcDbArc
 50
340.0454830474
 51
50.2662528494
  0
LWPOLYLINE
  5
169
330
1F
100
AcDbEntity
  8
0
  6
Continuous
 62
     7
370
    15
100
AcDbPolyline
 90
       17
 70
   128
 43
0.0
 10
623.7986677651
 20
1141.541956642
 10
623.5852235321
 20
1142.2611760882
 10
623.4830760721
 20
1142.8708869007
 10
623.5077821974
 20
1143.2782846478
 10
623.6555793647
 20
1143.4213506964
 10
623.9039593701
 20
1143.2782846478
 10
624.2151254181
 20
1142.8708869007
 10
624.5416918163
 20
1142.2611760882
 10
624.8339482908
 20
1141.541956642
 10
625.0473925237
 20
1140.822752097
 10
625.1495399837
 20
1140.2130263832
 10
625.1248338584
 20
1139.8056286362
 10
624.9770366911
 20
1139.6625774887
 10
624.7286566858
 20
1139.8056286362
 10
624.4174906377
 20
1140.2130263832
 10
624.0909242396
 20
1140.822752097
 10
623.7986677651
 20
1141.541956642
  0
LWPOLYLINE
  5
16A
330
1F
100
AcDbEntity
  8
0
  6
Continuous
 62
     7
370
    15
100
AcDbPolyline
 90
       17
 70
   128
 43
0.0
 10
608.6440676216
 20
1143.4213506964
 10
608.8924550776
 20
1143.2782846478
 10
609.2036211256
 20
1142.8708869007
 10
609.5301875238
 20
1142.2611760882
 10
609.8224439983
 20
1141.541956642
 10
610.0358882312
 20
1140.822752097
 10
610.1380356912
 20
1140.2130263832
 10
610.1133295659
 20
1139.8056286362
 10
609.9655323986
 20
1139.6625774887
 10
609.7171523933
 20
1139.8056286362
 10
609.4059863452
 20
1140.2130263832
 10
609.0794199471
 20
1140.822752097
 10
608.7871634726
 20
1141.541956642
 10
608.5737192396
 20
1142.2611760882
 10
608.4715717797
 20
1142.8708869007
 10
608.4962779049
 20
1143.2782846478
 10
608.6440676216
 20
1143.4213506964
  0
ARC
  5
16B
330
1F
100
AcDbEntity
  8
0
  6
Continuous
 62
     7
370
    15
100
AcDbCircle
 10
547.5543533405
 20
1118.1895012942
 30
0.0
 40
51.05062073833835
100
AcDbArc
 50
345.8915659434
 51
14.1084340566
  0
LWPOLYLINE
  5
16C
330
1F
100
AcDbEntity
  8
0
  6
Continuous
 62
     7
370
    15
100
AcDbPolyline
 90
       15
 70
   128
 43
0.0
 10
597.0650905136
 20
1116.9393944529
 10
597.1679010753
 20
1116.4217430142
 10
597.3778211836
 20
1115.8798026827
 10
597.6254337792
 20
1115.6894999531
 10
597.8730463747
 20
1115.8798026827
 10
598.082966483
 20
1116.4217430142
 10
598.2232311134
 20
1117.2327983168
 10
598.2724794511
 20
1118.1894975689
 10
598.2232311134
 20
1119.1462117222
 10
598.082966483
 20
1119.9572670248
 10
597.8730463747
 20
1120.4992073563
 10
597.6254337792
 20
1120.6895100859
 10
597.3778211836
 20
1120.4992073563
 10
597.1679010753
 20
1119.9572670248
 10
597.0650905136
 20
1119.4396155861
  0
LWPOLYLINE
  5
16D
330
1F
100
AcDbEntity
  8
0
  6
Continuous
 62
     7
370
    15
100
AcDbPolyline
 90
       20
 70
   128
 43
0.0
 10
597.0650905136
 20
1134.3415069369
 10
597.5715064768
 20
1133.8057654885
 10
598.1452980403
 20
1132.8636544732
 10
598.6774781112
 20
1131.6087829855
 10
599.1566920046
 20
1130.0679135111
 10
599.5727324251
 20
1128.273873308
 10
599.9167406325
 20
1126.2648987559
 10
600.1813703541
 20
1124.0838157919
 10
600.3609815006
 20
1121.777101138
 10
600.4517593746
 20
1119.3939286259
 10
600.4517593746
 20
1116.9850814131
 10
600.3609815006
 20
1114.6019089011
 10
600.1813703541
 20
1112.2951942471
 10
599.9167406325
 20
1110.1141112831
 10
599.5727324251
 20
1108.105136731
 10
599.1566920046
 20
1106.3110965279
 10
598.6774781112
 20
1104.7702196029
 10
598.1452980403
 20
1103.5153555659
 10
597.5715064768
 20
1102.5732445506
 10
597.0650905136
 20
1102.0375031021
  0
LWPOLYLINE
  5
16E
330
1F
100
AcDbEntity
  8
0
  6
Continuous
 62
     7
370
    15
100
AcDbPolyline
 90
       22
 70
   128
 43
0.0
 10
616.0839417342
 20
1134.5404076365
 10
616.2868359451
 20
1134.4150441674
 10
616.890020049
 20
1133.8057654885
 10
617.4638116125
 20
1132.8636544732
 10
617.9959916834
 20
1131.6087829855
 10
618.4752055768
 20
1130.0679135111
 10
618.8912534479
 20
1128.273873308
 10
619.2352542047
 20
1126.2648987559
 10
619.4998839263
 20
1124.0838157919
 10
619.6795025234
 20
1121.777101138
 10
619.7702729468
 20
1119.3939286259
 10
619.7702729468
 20
1116.9850814131
 10
619.6795025234
 20
1114.6019089011
 10
619.4998839263
 20
1112.2951942471
 10
619.2352542047
 20
1110.1141112831
 10
618.8912534479
 20
1108.105136731
 10
618.4752055768
 20
1106.3110965279
 10
617.9959916834
 20
1104.7702196029
 10
617.4638116125
 20
1103.5153555659
 10
616.890020049
 20
1102.5732445506
 10
616.2868359451
 20
1101.9639658717
 10
616.0839417342
 20
1101.838594952
  0
LWPOLYLINE
  5
16F
330
1F
100
AcDbEntity
  8
0
  6
Continuous
 62
     7
370
    15
100
AcDbPolyline
 90
        9
 70
   128
 43
0.0
 10
625.4612126712
 20
1142.4816536692
 10
625.065489984
 20
1143.5265975979
 10
624.6282899145
 20
1144.5313977984
 10
624.166398621
 20
1145.4574304608
 10
623.697570837
 20
1146.269096711
 10
623.2398295168
 20
1146.9352084187
 10
622.8107580308
 20
1147.4301802901
 10
622.4268519644
 20
1147.7349835423
 10
622.1028560166
 20
1147.8379058627
  0
LINE
  5
170
330
1F
100
AcDbEntity
  8
0
  6
Continuous
 62
     7
370
    15
100
AcDbLine
 10
655.8548876409
 20
1056.0299294976
 30
0.0
 11
625.4612126712
 21
1142.4816536692
 31
0.0
  0
LWPOLYLINE
  5
171
330
1F
100
AcDbEntity
  8
0
  6
Continuous
 62
     7
370
    15
100
AcDbPolyline
 90
        9
 70
   128
 43
0.0
 10
656.2627026204
 20
1050.6736847547
 10
656.5143385295
 20
1050.7765996245
 10
656.6839286451
 20
1051.0814028767
 10
656.7649611596
 20
1051.5763747481
 10
656.7543366317
 20
1052.2424939063
 10
656.6524573926
 20
1053.0541601566
 10
656.4632126455
 20
1053.9801853684
 10
656.1939188604
 20
1054.9849781183
 10
655.8548876409
 20
1056.0299294976
  0
LINE
  5
172
330
1F
100
AcDbEntity
  8
0
  6
Continuous
 62
     7
370
    15
100
AcDbLine
 10
640.9923800592
 20
1050.6736847547
 30
0.0
 11
656.2627026204
 21
1050.6736847547
 31
0.0
  0
LWPOLYLINE
  5
173
330
1F
100
AcDbEntity
  8
0
  6
Continuous
 62
     7
370
    15
100
AcDbPolyline
 90
        9
 70
   128
 43
0.0
 10
637.6340308551
 20
1056.0299294976
 10
638.0297460918
 20
1054.9849781183
 10
638.4669536118
 20
1053.9801853684
 10
638.9288449053
 20
1053.0541601566
 10
639.3976726894
 20
1052.2424939063
 10
639.8554065589
 20
1051.5763747481
 10
640.2844854955
 20
1051.0814028767
 10
640.6683990125
 20
1050.7765996245
 10
640.9923800592
 20
1050.6736847547
  0
LINE
  5
174
330
1F
100
AcDbEntity
  8
0
  6
Continuous
 62
     7
370
    15
100
AcDbLine
 10
607.2403484349
 20
1142.4816536692
 30
0.0
 11
608.7493294243
 21
1138.1895082978
 31
0.0
  0
LINE
  5
175
330
1F
100
AcDbEntity
  8
0
  6
Continuous
 62
     7
370
    15
100
AcDbLine
 10
636.1716532473
 20
1060.1895066884
 30
0.0
 11
637.6340308551
 21
1056.0299294976
 31
0.0
  0
LWPOLYLINE
  5
176
330
1F
100
AcDbEntity
  8
0
  6
Continuous
 62
     7
370
    15
100
AcDbPolyline
 90
        9
 70
   128
 43
0.0
 10
606.8325334553
 20
1147.8379058627
 10
606.5809049968
 20
1147.7349835423
 10
606.4113148813
 20
1147.4301802901
 10
606.3302749161
 20
1146.9352084187
 10
606.340899444
 20
1146.269096711
 10
606.4427935843
 20
1145.4574304608
 10
606.6320234303
 20
1144.5313977984
 10
606.901324666
 20
1143.5265975979
 10
607.2403484349
 20
1142.4816536692
  0
LINE
  5
177
330
1F
100
AcDbEntity
  8
0
  6
Continuous
 62
     7
370
    15
100
AcDbLine
 10
622.1028560166
 20
1147.8379058627
 30
0.0
 11
606.8325334553
 21
1147.8379058627
 31
0.0
  0
LWPOLYLINE
  5
178
330
1F
100
AcDbEntity
  8
0
  6
Continuous
 62
     7
370
    15
100
AcDbPolyline
 90
        9
 70
   128
 43
0.0
 10
622.4992939595
 20
1146.7102753905
 10
622.755079842
 20
1146.6290193585
 10
623.0581620101
 20
1146.3883805064
 10
623.396902657
 20
1145.9976124552
 10
623.7582781677
 20
1145.4717355755
 10
624.1284081106
 20
1144.8309409407
 10
624.4930544261
 20
1144.0998750714
 10
624.8382174734
 20
1143.3066117552
 10
625.1506277684
 20
1142.4816536692
  0
LINE
  5
179
330
1F
100
AcDbEntity
  8
0
  6
Continuous
 62
     7
370
    15
100
AcDbLine
 10
622.4992939595
 20
1146.7102753905
 30
0.0
 11
607.2289713983
 21
1146.7102753905
 31
0.0
  0
LWPOLYLINE
  5
17A
330
1F
100
AcDbEntity
  8
0
  6
Continuous
 62
     7
370
    15
100
AcDbPolyline
 90
        9
 70
   128
 43
0.0
 10
607.5509333376
 20
1142.4816536692
 10
607.2832786803
 20
1143.3066117552
 10
607.0706763629
 20
1144.0998750714
 10
606.9212773208
 20
1144.8309409407
 10
606.8408408527
 20
1145.4717355755
 10
606.8324514989
 20
1145.9976124552
 10
606.8964296345
 20
1146.3883805064
 10
607.0303165678
 20
1146.6290193585
 10
607.2289713983
 20
1146.7102753905
  0
LINE
  5
17B
330
1F
100
AcDbEntity
  8
0
  6
Continuous
 62
     7
370
    15
100
AcDbLine
 10
607.5509333376
 20
1142.4816536692
 30
0.0
 11
609.0599143271
 21
1138.1895082978
 31
0.0
  0
LINE
  5
17C
330
1F
100
AcDbEntity
  8
0
  6
Continuous
 62
     7
370
    15
100
AcDbLine
 10
636.4822381501
 20
1060.1895066884
 30
0.0
 11
637.9446157579
 21
1056.0299294976
 31
0.0
  0
LWPOLYLINE
  5
17D
330
1F
100
AcDbEntity
  8
0
  6
Continuous
 62
     7
370
    15
100
AcDbPolyline
 90
        9
 70
   128
 43
0.0
 10
640.5959495668
 20
1051.8013152269
 10
640.3401562337
 20
1051.8825638083
 10
640.0370815162
 20
1052.1231952098
 10
639.6983334188
 20
1052.513963261
 10
639.3369579081
 20
1053.0398475912
 10
638.9668354158
 20
1053.6806347755
 10
638.6021816496
 20
1054.4117080954
 10
638.2570260529
 20
1055.2049714116
 10
637.9446157579
 20
1056.0299294976
  0
LINE
  5
17E
330
1F
100
AcDbEntity
  8
0
  6
Continuous
 62
     7
370
    15
100
AcDbLine
 10
640.5959495668
 20
1051.8013152269
 30
0.0
 11
655.866272128
 21
1051.8013152269
 31
0.0
  0
LWPOLYLINE
  5
17F
330
1F
100
AcDbEntity
  8
0
  6
Continuous
 62
     7
370
    15
100
AcDbPolyline
 90
        9
 70
   128
 43
0.0
 10
655.5443027381
 20
1056.0299294976
 10
655.8119573955
 20
1055.2049714116
 10
656.0245671634
 20
1054.4117080954
 10
656.1739662055
 20
1053.6806347755
 10
656.2544026737
 20
1053.0398475912
 10
656.2627920274
 20
1052.513963261
 10
656.1988064412
 20
1052.1231952098
 10
656.0649195079
 20
1051.8825638083
 10
655.866272128
 20
1051.8013152269
  0
LINE
  5
180
330
1F
100
AcDbEntity
  8
0
  6
Continuous
 62
     7
370
    15
100
AcDbLine
 10
655.5443027381
 20
1056.0299294976
 30
0.0
 11
625.1506277684
 21
1142.4816536692
 31
0.0
  0
LINE
  5
181
330
1F
100
AcDbEntity
  8
0
  6
Continuous
 62
     7
370
    15
100
AcDbLine
 10
622.1028560166
 20
1147.8379058627
 30
0.0
 11
626.0058501128
 21
1149.3085908678
 31
0.0
  0
LWPOLYLINE
  5
182
330
1F
100
AcDbEntity
  8
0
  6
Continuous
 62
     7
370
    15
100
AcDbPolyline
 90
        9
 70
   128
 43
0.0
 10
629.3642067675
 20
1143.9523386744
 10
628.9684840802
 20
1144.9972975043
 10
628.5312840108
 20
1146.0020828036
 10
628.0693927173
 20
1146.928115466
 10
627.6005649332
 20
1147.7397817162
 10
627.1428236131
 20
1148.4058934239
 10
626.7137521271
 20
1148.9008652953
 10
626.3298460607
 20
1149.2056685475
 10
626.0058501128
 20
1149.3085908678
  0
LINE
  5
183
330
1F
100
AcDbEntity
  8
0
  6
Continuous
 62
     7
370
    15
100
AcDbLine
 10
629.3642067675
 20
1143.9523386744
 30
0.0
 11
625.4612126712
 21
1142.4816536692
 31
0.0
  0
LINE
  5
184
330
1F
100
AcDbEntity
  8
0
  6
Continuous
 62
     7
370
    15
100
AcDbLine
 10
659.7578891877
 20
1057.5006145028
 30
0.0
 11
629.3642067675
 21
1143.9523386744
 31
0.0
  0
LINE
  5
185
330
1F
100
AcDbEntity
  8
0
  6
Continuous
 62
     7
370
    15
100
AcDbLine
 10
655.8548876409
 20
1056.0299294976
 30
0.0
 11
659.7578891877
 21
1057.5006145028
 31
0.0
  0
LINE
  5
186
330
1F
100
AcDbEntity
  8
0
  6
Continuous
 62
     7
370
    15
100
AcDbLine
 10
610.7355275516
 20
1149.3085908678
 30
0.0
 11
606.8325334553
 21
1147.8379058627
 31
0.0
  0
LINE
  5
187
330
1F
100
AcDbEntity
  8
0
  6
Continuous
 62
     7
370
    15
100
AcDbLine
 10
626.0058501128
 20
1149.3085908678
 30
0.0
 11
610.7355275516
 21
1149.3085908678
 31
0.0
  0
LINE
  5
188
330
1F
100
AcDbEntity
  8
0
  6
Continuous
 62
     7
370
    15
100
AcDbLine
 10
632.735356069
 20
1140.6225996998
 30
0.0
 11
658.6565294627
 21
1140.6225996998
 31
0.0
  0
LWPOLYLINE
  5
189
330
1F
100
AcDbEntity
  8
0
  6
Continuous
 62
     7
370
    15
100
AcDbPolyline
 90
        9
 70
   128
 43
0.0
 10
659.9506357078
 20
1135.622589567
 10
659.9257656698
 20
1136.5980493811
 10
659.8521241311
 20
1137.5360178736
 10
659.7325423126
 20
1138.4004491356
 10
659.5715948705
 20
1139.1581284789
 10
659.3754955892
 20
1139.7799390343
 10
659.151769555
 20
1140.2419942406
 10
658.9089998369
 20
1140.5265170124
 10
658.6565294627
 20
1140.6225996998
  0
LINE
  5
18A
330
1F
100
AcDbEntity
  8
0
  6
Continuous
 62
     7
370
    15
100
AcDbLine
 10
659.9506357078
 20
1067.8645062235
 30
0.0
 11
659.9506357078
 21
1135.622589567
 31
0.0
  0
LINE
  5
18B
330
1F
100
AcDbEntity
  8
0
  6
Continuous
 62
     7
370
    15
100
AcDbLine
 10
644.4989362125
 20
1053.2720002321
 30
0.0
 11
640.5959495668
 21
1051.8013152269
 31
0.0
  0
LWPOLYLINE
  5
18C
330
1F
100
AcDbEntity
  8
0
  6
Continuous
 62
     7
370
    15
100
AcDbPolyline
 90
        3
 70
   128
 43
0.0
 10
643.2466128234
 20
1053.4592482236
 10
643.2555684213
 20
1053.4539955643
 10
643.4260824088
 20
1053.3998298434
  0
LWPOLYLINE
  5
18D
330
1F
100
AcDbEntity
  8
0
  6
Continuous
 62
     7
370
    15
100
AcDbPolyline
 90
        5
 70
   128
 43
0.0
 10
610.7198440794
 20
1146.4294034031
 10
610.5874100093
 20
1146.375222781
 10
610.4981446032
 20
1146.2148117808
 10
610.4554974798
 20
1145.9542947796
 10
610.452830172
 20
1145.761309841
  0
LINE
  5
18E
330
1F
100
AcDbEntity
  8
0
  6
Continuous
 62
     7
370
    15
100
AcDbLine
 10
610.7198440794
 20
1146.4294034031
 30
0.0
 11
623.0154329304
 21
1146.4294034031
 31
0.0
  0
LINE
  5
18F
330
1F
100
AcDbEntity
  8
0
  6
Continuous
 62
     7
370
    15
100
AcDbLine
 10
656.2162706022
 20
1053.3998298434
 30
0.0
 11
643.4260824088
 21
1053.3998298434
 31
0.0
  0
ARC
  5
190
330
1F
100
AcDbEntity
  8
0
  6
Continuous
 62
     7
370
    15
100
AcDbCircle
 10
615.9714895688
 20
1139.2562585945
 30
0.0
 40
3.307949671775533
100
AcDbArc
 50
176.7602856996
 51
192.5347335907
  0
ARC
  5
191
330
1F
100
AcDbEntity
  8
0
  6
Continuous
 62
     7
370
    15
100
AcDbCircle
 10
644.4044476573
 20
1062.4260670978
 30
0.0
 40
4.639977307552494
100
AcDbArc
 50
208.8173942387
 51
218.0664943413
  0
ARC
  5
192
330
1F
100
AcDbEntity
  8
0
  6
Continuous
 62
     7
370
    15
100
AcDbCircle
 10
634.8323994574
 20
1055.0531306901
 30
0.0
 40
7.442662699099355
100
AcDbArc
 50
24.8464737034
 51
37.3181228832
  0
ARC
  5
193
330
1F
100
AcDbEntity
  8
0
  6
Continuous
 62
     7
370
    15
100
AcDbCircle
 10
643.967075789
 20
1058.899269956
 30
0.0
 40
2.487071678564632
100
AcDbArc
 50
196.7994460287
 51
239.8726077738
  0
LINE
  5
194
330
1F
100
AcDbEntity
  8
0
  6
Continuous
 62
     7
370
    15
100
AcDbLine
 10
653.6487707261
 20
1056.7481729177
 30
0.0
 11
642.7187540893
 21
1056.7481729177
 31
0.0
  0
LINE
  5
195
330
1F
100
AcDbEntity
  8
0
  6
Continuous
 62
     7
370
    15
100
AcDbLine
 10
612.6554453139
 20
1142.2602075127
 30
0.0
 11
623.5854545001
 21
1142.2602075127
 31
0.0
  0
LWPOLYLINE
  5
196
330
1F
100
AcDbEntity
  8
0
  6
Continuous
 62
     7
370
    15
100
AcDbPolyline
 90
        9
 70
   128
 43
0.0
 10
612.529917932
 20
1140.8279227999
 10
612.4702834849
 20
1141.1358850983
 10
612.4317267303
 20
1141.4161908415
 10
612.4150225286
 20
1141.6633415011
 10
612.4204763536
 20
1141.8725091008
 10
612.4479987983
 20
1142.0396107224
 10
612.4970385198
 20
1142.1613532093
 10
612.5666418437
 20
1142.235367277
 10
612.6554453139
 20
1142.2602075127
  0
ARC
  5
197
330
1F
100
AcDbEntity
  8
0
  6
Continuous
 62
     7
370
    15
100
AcDbCircle
 10
607.9522169951
 20
1139.669381918
 30
0.0
 40
4.722029525832597
100
AcDbArc
 50
357.2545531366
 51
14.2024051519
  0
LWPOLYLINE
  5
198
330
1F
100
AcDbEntity
  8
0
  6
Continuous
 62
     7
370
    15
100
AcDbPolyline
 90
        7
 70
   128
 43
0.0
 10
609.9252247576
 20
1145.5491322068
 10
609.7927906875
 20
1145.4949515847
 10
609.7035327319
 20
1145.3345405844
 10
609.660878158
 20
1145.0740235833
 10
609.6664735441
 20
1144.7234439639
 10
609.7201028232
 20
1144.2962425736
 10
609.8058590059
 20
1143.8680428055
  0
LINE
  5
199
330
1F
100
AcDbEntity
  8
0
  6
Continuous
 62
     7
370
    15
100
AcDbLine
 10
609.9252247576
 20
1145.5491322068
 30
0.0
 11
623.7091937427
 21
1145.5491322068
 31
0.0
  0
LINE
  5
19A
330
1F
100
AcDbEntity
  8
0
  6
Continuous
 62
     7
370
    15
100
AcDbLine
 10
642.3011043433
 20
1053.4592482236
 30
0.0
 11
656.2081494693
 21
1053.4592482236
 31
0.0
  0
ARC
  5
19B
330
1F
100
AcDbEntity
  8
0
  6
Continuous
 62
     7
370
    15
100
AcDbCircle
 10
643.1941985088
 20
1055.2956062286
 30
0.0
 40
2.042015649030814
100
AcDbArc
 50
199.6292970936
 51
244.0644964386
  0
LINE
  5
19C
330
1F
100
AcDbEntity
  8
0
  6
Continuous
 62
     7
370
    15
100
AcDbLine
 10
639.8108371858
 20
1058.3340215472
 30
0.0
 11
639.1585016016
 21
1060.1895066884
 31
0.0
  0
LINE
  5
19D
330
1F
100
AcDbEntity
  8
0
  6
Continuous
 62
     7
370
    15
100
AcDbLine
 10
611.7361777787
 20
1138.1895082978
 30
0.0
 11
611.0745215182
 21
1140.0715249565
 31
0.0
  0
LWPOLYLINE
  5
19E
330
1F
100
AcDbEntity
  8
0
  6
Continuous
 62
     7
370
    15
100
AcDbPolyline
 90
       10
 70
   128
 43
0.0
 10
610.5056994919
 20
1144.1317486552
 10
610.5501869087
 20
1144.139586666
 10
610.7985743646
 20
1143.9965206173
 10
611.1097329621
 20
1143.5891228703
 10
611.4362993602
 20
1142.9794120577
 10
611.7285558347
 20
1142.2602075127
 10
611.9420075182
 20
1141.5409880665
 10
612.0441475276
 20
1140.931277254
 10
612.0194488529
 20
1140.5238795069
 10
611.9161316518
 20
1140.3886663702
  0
LWPOLYLINE
  5
19F
330
1F
100
AcDbEntity
  8
0
  6
Continuous
 62
     7
370
    15
100
AcDbPolyline
 90
       10
 70
   128
 43
0.0
 10
640.5690231685
 20
1058.6197140602
 10
640.6135031347
 20
1058.6275595215
 10
640.8618905906
 20
1058.4845009235
 10
641.1730417375
 20
1058.0770957259
 10
641.4996155862
 20
1057.4673849133
 10
641.7918720607
 20
1056.7481729177
 10
642.0053162936
 20
1056.0289609221
 10
642.1074637536
 20
1055.4192501095
 10
642.0827576284
 20
1055.0118449119
 10
641.9794478778
 20
1054.8766317752
  0
LINE
  5
1A0
330
1F
100
AcDbEntity
  8
0
  6
Continuous
 62
     7
370
    15
100
AcDbLine
 10
611.0144325856
 20
1145.9595548895
 30
0.0
 11
609.9252247576
 21
1145.5491322068
 31
0.0
  0
LINE
  5
1A1
330
1F
100
AcDbEntity
  8
0
  6
Continuous
 62
     7
370
    15
100
AcDbLine
 10
611.0144325856
 20
1145.9595548895
 30
0.0
 11
623.4257140521
 21
1145.9595548895
 31
0.0
  0
LINE
  5
1A2
330
1F
100
AcDbEntity
  8
0
  6
Continuous
 62
     7
370
    15
100
AcDbLine
 10
653.15899936
 20
1059.5315235642
 30
0.0
 11
642.4438872699
 21
1059.5315235642
 31
0.0
  0
LWPOLYLINE
  5
1A3
330
1F
100
AcDbEntity
  8
0
  6
Continuous
 62
     7
370
    15
100
AcDbPolyline
 90
        3
 70
   128
 43
0.0
 10
654.5168676738
 20
1058.9523899344
 10
654.5343169336
 20
1058.8596004036
 10
654.5898833637
 20
1058.5896658686
  0
LWPOLYLINE
  5
1A4
330
1F
100
AcDbEntity
  8
0
  6
Continuous
 62
     7
370
    15
100
AcDbPolyline
 90
        3
 70
   128
 43
0.0
 10
654.5898833637
 20
1058.5896658686
 10
654.6274342899
 20
1058.3957719592
 10
654.6461650495
 20
1058.2676443246
  0
LINE
  5
1A5
330
1F
100
AcDbEntity
  8
0
  6
Continuous
 62
     7
370
    15
100
AcDbLine
 10
653.5529711608
 20
1057.6878624943
 30
0.0
 11
642.3883953456
 21
1057.6878624943
 31
0.0
  0
ARC
  5
1A6
330
1F
100
AcDbEntity
  8
0
  6
Continuous
 62
     7
370
    15
100
AcDbCircle
 10
643.1743307626
 20
1059.0422245779
 30
0.0
 40
1.565883499169902
100
AcDbArc
 50
196.7987993823
 51
239.8734350431
  0
ARC
  5
1A7
330
1F
100
AcDbEntity
  8
0
  6
Continuous
 62
     7
370
    15
100
AcDbCircle
 10
632.4735549685
 20
1054.2897790223
 30
0.0
 40
10.15680043825667
100
AcDbArc
 50
25.0463019071
 51
35.5113897667
  0
ARC
  5
1A8
330
1F
100
AcDbEntity
  8
0
  6
Continuous
 62
     7
370
    15
100
AcDbCircle
 10
607.0213258573
 20
1138.9291664922
 30
0.0
 40
6.071017351725101
100
AcDbArc
 50
357.2543059689
 51
14.2026793212
  0
LWPOLYLINE
  5
1A9
330
1F
100
AcDbEntity
  8
0
  6
Continuous
 62
     7
370
    15
100
AcDbPolyline
 90
        9
 70
   128
 43
0.0
 10
612.9067757491
 20
1140.4187071112
 10
612.8692248229
 20
1140.6126010207
 10
612.8449508313
 20
1140.7890903738
 10
612.8344306115
 20
1140.9447032002
 10
612.8378653292
 20
1141.076414564
 10
612.8551953797
 20
1141.181616762
 10
612.8860705857
 20
1141.2582683352
 10
612.9298949007
 20
1141.3048791674
 10
612.9858115081
 20
1141.3205104855
  0
LINE
  5
1AA
330
1F
100
AcDbEntity
  8
0
  6
Continuous
 62
     7
370
    15
100
AcDbLine
 10
612.9858115081
 20
1141.3205104855
 30
0.0
 11
623.8801324133
 21
1141.3205104855
 31
0.0
  0
LWPOLYLINE
  5
1AB
330
1F
100
AcDbEntity
  8
0
  6
Continuous
 62
     7
370
    15
100
AcDbPolyline
 90
        9
 70
   128
 43
0.0
 10
627.2026815776
 20
1134.118734577
 10
626.8555590276
 20
1135.0353646067
 10
626.472047842
 20
1135.9167533902
 10
626.0668852691
 20
1136.7290603903
 10
625.6556355719
 20
1137.4410527733
 10
625.2541014318
 20
1138.0253571061
 10
624.8777279023
 20
1138.4595471409
 10
624.5409616594
 20
1138.7269186762
 10
624.2567592625
 20
1138.8171899107
  0
ELLIPSE
  5
1AC
330
1F
100
AcDbEntity
  8
0
  6
Continuous
 62
     7
370
    15
100
AcDbEllipse
 10
622.8005601891
 20
1132.9475972778
 30
0.0
 11
-0.7054376055668854
 21
5.068836590658293
 31
0.0
210
0.0
220
0.0
230
1.0
 40
0.250605517
 41
4.677525965372556
 42
6.248322292167479
  0
LINE
  5
1AD
330
1F
100
AcDbEntity
  8
0
  6
Continuous
 62
     7
370
    15
100
AcDbLine
 10
624.0946569804
 20
1132.9475927142
 30
0.0
 11
621.6451668505
 21
1132.9475927142
 31
0.0
  0
ELLIPSE
  5
1AE
330
1F
100
AcDbEntity
  8
0
  6
Continuous
 62
     7
370
    15
100
AcDbEllipse
 10
620.8687085365
 20
1132.9475972778
 30
0.0
 11
0.0
 21
3.19253331742766
 31
0.0
210
0.0
220
0.0
230
1.0
 40
0.2432103468
 41
4.712388980384693
 42
6.283185307179586
  0
ARC
  5
1AF
330
1F
100
AcDbEntity
  8
0
  6
Continuous
 62
     7
370
    15
100
AcDbCircle
 10
622.865895108
 20
1136.1588935448
 30
0.0
 40
1.997271140734066
100
AcDbArc
 50
111.3171853979
 51
180.5380861686
  0
LINE
  5
1B0
330
1F
100
AcDbEntity
  8
0
  6
Continuous
 62
     7
370
    15
100
AcDbLine
 10
624.0946569804
 20
1132.9475927142
 30
0.0
 11
624.0946569804
 21
1065.1895019201
 31
0.0
  0
LINE
  5
1B1
330
1F
100
AcDbEntity
  8
0
  6
Continuous
 62
     7
370
    15
100
AcDbLine
 10
624.0946569804
 20
1065.1895019201
 30
0.0
 11
621.6451668505
 21
1065.1895019201
 31
0.0
  0
LINE
  5
1B2
330
1F
100
AcDbEntity
  8
0
  6
Continuous
 62
     7
370
    15
100
AcDbLine
 10
621.6451668505
 20
1065.1895019201
 30
0.0
 11
621.6451668505
 21
1132.9475927142
 31
0.0
  0
ARC
  5
1B3
330
1F
100
AcDbEntity
  8
0
  6
Continuous
 62
     7
370
    15
100
AcDbCircle
 10
618.1650319385
 20
1064.4897451199
 30
0.0
 40
3.549788526799691
100
AcDbArc
 50
319.6094683009
 51
11.3689649743
  0
LWPOLYLINE
  5
1B4
330
1F
100
AcDbEntity
  8
0
  6
Continuous
 62
     7
370
    15
100
AcDbPolyline
 90
        9
 70
   128
 43
0.0
 10
624.0946569804
 20
1065.1895019201
 10
624.0697869424
 20
1064.2140495566
 10
623.9961454038
 20
1063.2760885147
 10
623.8765635852
 20
1062.4116498021
 10
623.7156235937
 20
1061.6539704588
 10
623.5195243124
 20
1061.0321524528
 10
623.2957908277
 20
1060.5701046971
 10
623.0530285601
 20
1060.2855744747
 10
622.800558186
 20
1060.1895066884
  0
ARC
  5
1B5
330
1F
100
AcDbEntity
  8
0
  6
Continuous
 62
     7
370
    15
100
AcDbCircle
 10
622.8352236189
 20
1062.1559981518
 30
0.0
 40
1.966796981867754
100
AcDbArc
 50
179.0238972578
 51
268.9900910624
  0
LINE
  5
1B6
330
1F
100
AcDbEntity
  8
0
  6
Continuous
 62
     7
370
    15
100
AcDbLine
 10
627.2026815776
 20
1134.118734577
 30
0.0
 11
624.0946569804
 21
1132.9475927142
 31
0.0
  0
LINE
  5
1B7
330
1F
100
AcDbEntity
  8
0
  6
Continuous
 62
     7
370
    15
100
AcDbLine
 10
622.1398257975
 20
1138.0195158509
 30
0.0
 11
624.2567592625
 21
1138.8171899107
 31
0.0
  0
LINE
  5
1B8
330
1F
100
AcDbEntity
  8
0
  6
Continuous
 62
     7
370
    15
100
AcDbLine
 10
651.4360078935
 20
1065.1895019201
 30
0.0
 11
627.2026815776
 21
1134.118734577
 31
0.0
  0
LINE
  5
1B9
330
1F
100
AcDbEntity
  8
0
  6
Continuous
 62
     7
370
    15
100
AcDbLine
 10
624.0946569804
 20
1065.1895019201
 30
0.0
 11
651.4360078935
 21
1065.1895019201
 31
0.0
  0
ARC
  5
1BA
330
1F
100
AcDbEntity
  8
0
  6
Continuous
 62
     7
370
    15
100
AcDbCircle
 10
629.7056856354
 20
1093.6811245241
 30
0.0
 40
0.4916943080858045
100
AcDbArc
 50
179.0239733007
 51
268.9906549699
  0
LINE
  5
1BB
330
1F
100
AcDbEntity
  8
0
  6
Continuous
 62
     7
370
    15
100
AcDbLine
 10
629.6970242028
 20
1093.1895065096
 30
0.0
 11
630.0833964114
 21
1093.1895065096
 31
0.0
  0
ARC
  5
1BC
330
1F
100
AcDbEntity
  8
0
  6
Continuous
 62
     7
370
    15
100
AcDbCircle
 10
630.0747349787
 20
1093.6811245241
 30
0.0
 40
0.4916943080856947
100
AcDbArc
 50
271.0093450301
 51
0.9760266993
  0
LINE
  5
1BD
330
1F
100
AcDbEntity
  8
0
  6
Continuous
 62
     7
370
    15
100
AcDbLine
 10
630.5663579468
 20
1093.6895000723
 30
0.0
 11
630.5663579468
 21
1100.6894993571
 31
0.0
  0
ARC
  5
1BE
330
1F
100
AcDbEntity
  8
0
  6
Continuous
 62
     7
370
    15
100
AcDbCircle
 10
630.0747348919
 20
1100.6978821471
 30
0.0
 40
0.491694518293243
100
AcDbArc
 50
359.0231297207
 51
88.9906452844
  0
LINE
  5
1BF
330
1F
100
AcDbEntity
  8
0
  6
Continuous
 62
     7
370
    15
100
AcDbLine
 10
630.0833964114
 20
1101.1895003703
 30
0.0
 11
629.6970242028
 21
1101.1895003703
 31
0.0
  0
ARC
  5
1C0
330
1F
100
AcDbEntity
  8
0
  6
Continuous
 62
     7
370
    15
100
AcDbCircle
 10
629.7056857222
 20
1100.6978821471
 30
0.0
 40
0.491694518293243
100
AcDbArc
 50
91.0093547156
 51
180.9768702793
  0
LINE
  5
1C1
330
1F
100
AcDbEntity
  8
0
  6
Continuous
 62
     7
370
    15
100
AcDbLine
 10
629.2140626673
 20
1100.6894993571
 30
0.0
 11
629.2140626673
 21
1093.6895000723
 31
0.0
  0
ELLIPSE
  5
1C2
330
1F
100
AcDbEntity
  8
0
  6
Continuous
 62
     7
370
    15
100
AcDbEllipse
 10
650.1419179182
 20
1065.1895030526
 30
0.0
 11
-2.224872611388377
 21
4.976474228213191
 31
0.0
210
0.0
220
0.0
230
1.0
 40
0.2177485805
 41
3.044547831572535
 42
4.61534415836749
  0
LINE
  5
1C3
330
1F
100
AcDbEntity
  8
0
  6
Continuous
 62
     7
370
    15
100
AcDbLine
 10
652.2513249282
 20
1060.1895066884
 30
0.0
 11
622.800558186
 21
1060.1895066884
 31
0.0
  0
ARC
  5
1C4
330
1F
100
AcDbEntity
  8
0
  6
Continuous
 62
     7
370
    15
100
AcDbCircle
 10
612.8572549426
 20
1064.4897386191
 30
0.0
 40
3.549765184037135
100
AcDbArc
 50
168.6308522409
 51
220.390714484
  0
LINE
  5
1C5
330
1F
100
AcDbEntity
  8
0
  6
Continuous
 62
     7
370
    15
100
AcDbLine
 10
610.1535999541
 20
1062.189503291
 30
0.0
 11
620.8687120442
 21
1062.189503291
 31
0.0
  0
ARC
  5
1C6
330
1F
100
AcDbEntity
  8
0
  6
Continuous
 62
     7
370
    15
100
AcDbCircle
 10
615.0559415255
 20
1083.4728846561
 30
0.0
 40
0.5916720982614468
100
AcDbArc
 50
168.6328467814
 51
220.3886509104
  0
LINE
  5
1C7
330
1F
100
AcDbEntity
  8
0
  6
Continuous
 62
     7
370
    15
100
AcDbLine
 10
614.6052846078
 20
1083.0894994524
 30
0.0
 11
616.4170199398
 21
1083.0894994524
 31
0.0
  0
ARC
  5
1C8
330
1F
100
AcDbEntity
  8
0
  6
Continuous
 62
     7
370
    15
100
AcDbCircle
 10
615.9664041887
 20
1083.4728740014
 30
0.0
 40
0.5916338394385711
100
AcDbArc
 50
319.6095517362
 51
11.3689505719
  0
LINE
  5
1C9
330
1F
100
AcDbEntity
  8
0
  6
Continuous
 62
     7
370
    15
100
AcDbLine
 10
616.5464290742
 20
1083.5895004657
 30
0.0
 11
616.5464290742
 21
1083.9894997862
 31
0.0
  0
ARC
  5
1CA
330
1F
100
AcDbEntity
  8
0
  6
Continuous
 62
     7
370
    15
100
AcDbCircle
 10
615.9664414586
 20
1084.1061358966
 30
0.0
 40
0.5915992026417962
100
AcDbArc
 50
348.629422009
 51
40.3920756828
  0
LINE
  5
1CB
330
1F
100
AcDbEntity
  8
0
  6
Continuous
 62
     7
370
    15
100
AcDbLine
 10
616.4170199398
 20
1084.4895007995
 30
0.0
 11
614.6052846078
 21
1084.4895007995
 31
0.0
  0
ARC
  5
1CC
330
1F
100
AcDbEntity
  8
0
  6
Continuous
 62
     7
370
    15
100
AcDbCircle
 10
615.0559042492
 20
1084.1061252436
 30
0.0
 40
0.5916374548707068
100
AcDbArc
 50
139.609721596
 51
191.3687807122
  0
LINE
  5
1CD
330
1F
100
AcDbEntity
  8
0
  6
Continuous
 62
     7
370
    15
100
AcDbLine
 10
614.4758754734
 20
1083.9894997862
 30
0.0
 11
614.4758754734
 21
1083.5895004657
 31
0.0
  0
LWPOLYLINE
  5
1CE
330
1F
100
AcDbEntity
  8
0
  6
Continuous
 62
     7
370
    15
100
AcDbPolyline
 90
       17
 70
   128
 43
0.0
 10
618.3581644062
 20
1095.6895041254
 10
618.2095923785
 20
1095.8036842731
 10
618.0836477641
 20
1096.1288425115
 10
617.9994860057
 20
1096.6154771832
 10
617.9699370031
 20
1097.1894997147
 10
617.9994860057
 20
1097.7635296968
 10
618.0836477641
 20
1098.2501643685
 10
618.2095923785
 20
1098.5753226069
 10
618.3581644062
 20
1098.6895027545
 10
618.5067289833
 20
1098.5753226069
 10
618.6326810483
 20
1098.2501643685
 10
618.7168428067
 20
1097.7635296968
 10
618.7463918094
 20
1097.1894997147
 10
618.7168428067
 20
1096.6154771832
 10
618.6326810483
 20
1096.1288425115
 10
618.5067289833
 20
1095.8036842731
 10
618.3581644062
 20
1095.6895041254
  0
LWPOLYLINE
  5
1CF
330
1F
100
AcDbEntity
  8
0
  6
Continuous
 62
     7
370
    15
100
AcDbPolyline
 90
       17
 70
   128
 43
0.0
 10
615.5111559991
 20
1095.6895041254
 10
615.3625839714
 20
1095.8036842731
 10
615.2366319064
 20
1096.1288425115
 10
615.1524775986
 20
1096.6154771832
 10
615.122928596
 20
1097.1894997147
 10
615.1524775986
 20
1097.7635296968
 10
615.2366319064
 20
1098.2501643685
 10
615.3625839714
 20
1098.5753226069
 10
615.5111559991
 20
1098.6895027545
 10
615.6597205762
 20
1098.5753226069
 10
615.7856726412
 20
1098.2501643685
 10
615.8698343996
 20
1097.7635296968
 10
615.8993834023
 20
1097.1894997147
 10
615.8698343996
 20
1096.6154771832
 10
615.7856726412
 20
1096.1288425115
 10
615.6597205762
 20
1095.8036842731
 10
615.5111559991
 20
1095.6895041254
  0
LINE
  5
1D0
330
1F
100
AcDbEntity
  8
0
  6
Continuous
 62
     7
370
    15
100
AcDbLine
 10
630.5663579468
 20
1100.6894993571
 30
0.0
 11
630.1781305436
 21
1100.6894993571
 31
0.0
  0
ARC
  5
1D1
330
1F
100
AcDbEntity
  8
0
  6
Continuous
 62
     7
370
    15
100
AcDbCircle
 10
629.6865074887
 20
1100.6978821471
 30
0.0
 40
0.491694518293249
100
AcDbArc
 50
359.0231297207
 51
88.9906452843
  0
ARC
  5
1D2
330
1F
100
AcDbEntity
  8
0
  6
Continuous
 62
     7
370
    15
100
AcDbCircle
 10
629.6865075755
 20
1093.6811245241
 30
0.0
 40
0.4916943080859181
100
AcDbArc
 50
271.0093450302
 51
0.9760266993
  0
LINE
  5
1D3
330
1F
100
AcDbEntity
  8
0
  6
Continuous
 62
     7
370
    15
100
AcDbLine
 10
630.1781305436
 20
1093.6895000723
 30
0.0
 11
630.5663579468
 21
1093.6895000723
 31
0.0
  0
LINE
  5
1D4
330
1F
100
AcDbEntity
  8
0
  6
Continuous
 62
     7
370
    15
100
AcDbLine
 10
630.1781305436
 20
1100.6894993571
 30
0.0
 11
630.1781305436
 21
1093.6895000723
 31
0.0
  0
LINE
  5
1D5
330
1F
100
AcDbEntity
  8
0
  6
Continuous
 62
     7
370
    15
100
AcDbLine
 10
613.6211821203
 20
1141.5599274424
 30
0.0
 11
612.9858115081
 21
1141.3205104855
 31
0.0
  0
ARC
  5
1D6
330
1F
100
AcDbEntity
  8
0
  6
Continuous
 62
     7
370
    15
100
AcDbCircle
 10
613.4353062475
 20
1142.0290820929
 30
0.0
 40
0.5046344480758778
100
AcDbArc
 50
291.6131330661
 51
19.8918306088
  0
ARC
  5
1D7
330
1F
100
AcDbEntity
  8
0
  6
Continuous
 62
     7
370
    15
100
AcDbCircle
 10
630.1457474895
 20
1100.8061354674
 30
0.0
 40
0.5915992026410473
100
AcDbArc
 50
139.6079243171
 51
191.370577991
  0
ARC
  5
1D8
330
1F
100
AcDbEntity
  8
0
  6
Continuous
 62
     7
370
    15
100
AcDbCircle
 10
630.1457429824
 20
1093.572868508
 30
0.0
 40
0.5915938877346087
100
AcDbArc
 50
168.6297675928
 51
220.3921443019
  0
LINE
  5
1D9
330
1F
100
AcDbEntity
  8
0
  6
Continuous
 62
     7
370
    15
100
AcDbLine
 10
629.5657598738
 20
1093.6895000723
 30
0.0
 11
629.5657598738
 21
1100.6894993571
 31
0.0
  0
LINE
  5
1DA
330
1F
100
AcDbEntity
  8
0
  6
Continuous
 62
     7
370
    15
100
AcDbLine
 10
629.5657598738
 20
1100.6894993571
 30
0.0
 11
630.1781305436
 21
1100.6894993571
 31
0.0
  0
LINE
  5
1DB
330
1F
100
AcDbEntity
  8
0
  6
Continuous
 62
     7
370
    15
100
AcDbLine
 10
629.5657598738
 20
1093.6895000723
 30
0.0
 11
630.1781305436
 21
1093.6895000723
 31
0.0
  0
LINE
  5
1DC
330
1F
100
AcDbEntity
  8
0
  6
Continuous
 62
     7
370
    15
100
AcDbLine
 10
622.800558186
 20
1060.1895066884
 30
0.0
 11
612.0854535465
 21
1060.1895066884
 31
0.0
  0
ARC
  5
1DD
330
1F
100
AcDbEntity
  8
0
  6
Continuous
 62
     7
370
    15
100
AcDbCircle
 10
612.1201156526
 20
1062.1560022642
 30
0.0
 40
1.966801034989575
100
AcDbArc
 50
179.024019087
 51
268.9901900736
  0
LINE
  5
1DE
330
1F
100
AcDbEntity
  8
0
  6
Continuous
 62
     7
370
    15
100
AcDbLine
 10
624.2567592625
 20
1138.8171899107
 30
0.0
 11
613.5416471724
 21
1138.8171899107
 31
0.0
  0
ARC
  5
1DF
330
1F
100
AcDbEntity
  8
0
  6
Continuous
 62
     7
370
    15
100
AcDbCircle
 10
613.1698747
 20
1139.7555180567
 30
0.0
 40
1.009294050704049
100
AcDbArc
 50
291.6138329231
 51
19.8910758347
  0
ARC
  5
1E0
330
1F
100
AcDbEntity
  8
0
  6
Continuous
 62
     7
370
    15
100
AcDbCircle
 10
652.241630521
 20
1059.2210826133
 30
0.0
 40
0.9684725968147789
100
AcDbArc
 50
18.6960061807
 51
89.426459874
  0
LINE
  5
1E1
330
1F
100
AcDbEntity
  8
0
  6
Continuous
 62
     7
370
    15
100
AcDbLine
 10
643.3541247014
 20
1056.9875898746
 30
0.0
 11
642.7187540893
 21
1056.7481729177
 31
0.0
  0
ARC
  5
1E2
330
1F
100
AcDbEntity
  8
0
  6
Continuous
 62
     7
370
    15
100
AcDbCircle
 10
643.1682561835
 20
1057.4567412124
 30
0.0
 40
0.5046286592430637
100
AcDbArc
 50
291.6124952509
 51
19.8924684241
  0
ARC
  5
1E3
330
1F
100
AcDbEntity
  8
0
  6
Continuous
 62
     7
370
    15
100
AcDbCircle
 10
641.5265184309
 20
1059.2210826133
 30
0.0
 40
0.9684725968147812
100
AcDbArc
 50
18.6960061807
 51
89.4264598739
  0
ARC
  5
1E4
330
1F
100
AcDbEntity
  8
0
  6
Continuous
 62
     7
370
    15
100
AcDbCircle
 10
616.6979412503
 20
1084.1061358966
 30
0.0
 40
0.5915992026417962
100
AcDbArc
 50
139.6079243172
 51
191.370577991
  0
LINE
  5
1E5
330
1F
100
AcDbEntity
  8
0
  6
Continuous
 62
     7
370
    15
100
AcDbLine
 10
616.1179536347
 20
1083.9894997862
 30
0.0
 11
614.4758754734
 21
1083.9894997862
 31
0.0
  0
LINE
  5
1E6
330
1F
100
AcDbEntity
  8
0
  6
Continuous
 62
     7
370
    15
100
AcDbLine
 10
614.4758754734
 20
1083.5895004657
 30
0.0
 11
616.1179536347
 21
1083.5895004657
 31
0.0
  0
ARC
  5
1E7
330
1F
100
AcDbEntity
  8
0
  6
Continuous
 62
     7
370
    15
100
AcDbCircle
 10
616.6979785202
 20
1083.4728740014
 30
0.0
 40
0.5916338394385711
100
AcDbArc
 50
168.6310494281
 51
220.3904482638
  0
LINE
  5
1E8
330
1F
100
AcDbEntity
  8
0
  6
Continuous
 62
     7
370
    15
100
AcDbLine
 10
616.1179536347
 20
1083.5895004657
 30
0.0
 11
616.1179536347
 21
1083.9894997862
 31
0.0
  0
LINE
  5
1E9
330
1F
100
AcDbEntity
  8
0
  6
Continuous
 62
     7
370
    15
100
AcDbLine
 10
613.6211821203
 20
1141.5599274424
 30
0.0
 11
613.5833704237
 21
1141.5532517222
 31
0.0
  0
LINE
  5
1EA
330
1F
100
AcDbEntity
  8
0
  6
Continuous
 62
     7
370
    15
100
AcDbLine
 10
610.9477126364
 20
1145.9477829722
 30
0.0
 11
611.0144325856
 21
1145.9595548895
 31
0.0
  0
LINE
  5
1EB
330
1F
100
AcDbEntity
  8
0
  6
Continuous
 62
     7
370
    15
100
AcDbLine
 10
514.2650905972
 20
989.1895034325
 30
0.0
 11
515.2650906447
 21
989.1895034325
 31
0.0
  0
LINE
  5
1EC
330
1F
100
AcDbEntity
  8
0
  6
Continuous
 62
     7
370
    15
100
AcDbLine
 10
514.2650905972
 20
1025.1895028141
 30
0.0
 11
515.2650906447
 21
1025.1895028141
 31
0.0
  0
LINE
  5
1ED
330
1F
100
AcDbEntity
  8
0
  6
Continuous
 62
     7
370
    15
100
AcDbLine
 10
515.2650906447
 20
1113.1895023373
 30
0.0
 11
514.2650905972
 21
1113.1895023373
 31
0.0
  0
LINE
  5
1EE
330
1F
100
AcDbEntity
  8
0
  6
Continuous
 62
     7
370
    15
100
AcDbLine
 10
514.2650905972
 20
1029.1895034698
 30
0.0
 11
515.2650906447
 21
1029.1895034698
 31
0.0
  0
LINE
  5
1EF
330
1F
100
AcDbEntity
  8
0
  6
Continuous
 62
     7
370
    15
100
AcDbLine
 10
514.2650905972
 20
1109.1895091322
 30
0.0
 11
515.2650906447
 21
1109.1895091322
 31
0.0
  0
LINE
  5
1F0
330
1F
100
AcDbEntity
  8
0
  6
Continuous
 62
     7
370
    15
100
AcDbLine
 10
515.2650906447
 20
1144.6894991187
 30
0.0
 11
515.2650906447
 21
981.1895030526
 31
0.0
  0
LINE
  5
1F1
330
1F
100
AcDbEntity
  8
0
  6
Continuous
 62
     7
370
    15
100
AcDbLine
 10
514.2650905972
 20
981.1895030526
 30
0.0
 11
514.2650905972
 21
1144.6894991187
 31
0.0
  0
CIRCLE
  5
1F2
330
1F
100
AcDbEntity
  8
0
  6
Continuous
 62
     7
370
    15
100
AcDbCircle
 10
514.7650906209
 20
954.1895030526
 30
0.0
 40
10.49999999999989
  0
ARC
  5
1F3
330
1F
100
AcDbEntity
  8
0
  6
Continuous
 62
     7
370
    15
100
AcDbCircle
 10
499.7650906209
 20
942.1895030526
 30
0.0
 40
10.0
100
AcDbArc
 50
180.0
 51
270.0
  0
LINE
  5
1F4
330
1F
100
AcDbEntity
  8
0
  6
Continuous
 62
     7
370
    15
100
AcDbLine
 10
489.7650902484
 20
942.1895022479
 30
0.0
 11
489.7650902484
 21
971.1895032761
 31
0.0
  0
ARC
  5
1F5
330
1F
100
AcDbEntity
  8
0
  6
Continuous
 62
     7
370
    15
100
AcDbCircle
 10
499.7650906209
 20
971.1895030526
 30
0.0
 40
10.0
100
AcDbArc
 50
90.0
 51
180.0
  0
LINE
  5
1F6
330
1F
100
AcDbEntity
  8
0
  6
Continuous
 62
     7
370
    15
100
AcDbLine
 10
529.7650902857
 20
981.1895030526
 30
0.0
 11
499.7650909562
 21
981.1895030526
 31
0.0
  0
ARC
  5
1F7
330
1F
100
AcDbEntity
  8
0
  6
Continuous
 62
     7
370
    15
100
AcDbCircle
 10
529.7650906209
 20
971.1895030526
 30
0.0
 40
10.0
100
AcDbArc
 50
0.0
 51
90.0
  0
LINE
  5
1F8
330
1F
100
AcDbEntity
  8
0
  6
Continuous
 62
     7
370
    15
100
AcDbLine
 10
539.7650909935
 20
942.1895022479
 30
0.0
 11
539.7650909935
 21
971.1895032761
 31
0.0
  0
ARC
  5
1F9
330
1F
100
AcDbEntity
  8
0
  6
Continuous
 62
     7
370
    15
100
AcDbCircle
 10
529.7650906209
 20
942.1895030526
 30
0.0
 40
10.0
100
AcDbArc
 50
270.0
 51
0.0
  0
LINE
  5
1FA
330
1F
100
AcDbEntity
  8
0
  6
Continuous
 62
     7
370
    15
100
AcDbLine
 10
529.7650902857
 20
932.1895043341
 30
0.0
 11
499.7650909562
 21
932.1895043341
 31
0.0
  0
LINE
  5
1FB
330
1F
100
AcDbEntity
  8
0
  6
Continuous
 62
     7
370
    15
100
AcDbLine
 10
416.7650931839
 20
941.1895039466
 30
0.0
 11
449.9403232102
 21
941.1895039466
 31
0.0
  0
LINE
  5
1FC
330
1F
100
AcDbEntity
  8
0
  6
Continuous
 62
     7
370
    15
100
AcDbLine
 10
449.9403232102
 20
941.1895039466
 30
0.0
 11
449.9403232102
 21
929.1895019797
 31
0.0
  0
LINE
  5
1FD
330
1F
100
AcDbEntity
  8
0
  6
Continuous
 62
     7
370
    15
100
AcDbLine
 10
416.7650931839
 20
929.1895019797
 30
0.0
 11
449.9403232102
 21
929.1895019797
 31
0.0
  0
LINE
  5
1FE
330
1F
100
AcDbEntity
  8
0
  6
Continuous
 62
     7
370
    15
100
AcDbLine
 10
416.7650931839
 20
941.1895039466
 30
0.0
 11
416.7650931839
 21
929.1895019797
 31
0.0
  0
LINE
  5
1FF
330
1F
100
AcDbEntity
  8
0
  6
Continuous
 62
     7
370
    15
100
AcDbLine
 10
579.5898580317
 20
941.1895039466
 30
0.0
 11
579.5898580317
 21
929.1895019797
 31
0.0
  0
LINE
  5
200
330
1F
100
AcDbEntity
  8
0
  6
Continuous
 62
     7
370
    15
100
AcDbLine
 10
449.9403232102
 20
929.1895019797
 30
0.0
 11
579.5898580317
 21
929.1895019797
 31
0.0
  0
LINE
  5
201
330
1F
100
AcDbEntity
  8
0
  6
Continuous
 62
     7
370
    15
100
AcDbLine
 10
579.5898580317
 20
941.1895039466
 30
0.0
 11
539.7149653498
 21
941.1895039466
 31
0.0
  0
LINE
  5
202
330
1F
100
AcDbEntity
  8
0
  6
Continuous
 62
     7
370
    15
100
AcDbLine
 10
489.815215892
 20
941.1895039466
 30
0.0
 11
449.9403232102
 21
941.1895039466
 31
0.0
  0
LINE
  5
203
330
1F
100
AcDbEntity
  8
0
  6
Continuous
 62
     7
370
    15
100
AcDbLine
 10
612.7650880579
 20
941.1895039466
 30
0.0
 11
612.7650880579
 21
929.1895019797
 31
0.0
  0
LINE
  5
204
330
1F
100
AcDbEntity
  8
0
  6
Continuous
 62
     7
370
    15
100
AcDbLine
 10
579.5898580317
 20
929.1895019797
 30
0.0
 11
612.7650880579
 21
929.1895019797
 31
0.0
  0
LINE
  5
205
330
1F
100
AcDbEntity
  8
0
  6
Continuous
 62
     7
370
    15
100
AcDbLine
 10
579.5898580317
 20
941.1895039466
 30
0.0
 11
612.7650880579
 21
941.1895039466
 31
0.0
  0
LINE
  5
206
330
1F
100
AcDbEntity
  8
0
  6
Continuous
 62
     7
370
    15
100
AcDbLine
 10
429.7650897269
 20
926.1895033506
 30
0.0
 11
599.765091515
 21
926.1895033506
 31
0.0
  0
LINE
  5
207
330
1F
100
AcDbEntity
  8
0
  6
Continuous
 62
     7
370
    15
100
AcDbLine
 10
430.7650917534
 20
979.1895029576
 30
0.0
 11
493.765090904
 21
979.1895029576
 31
0.0
  0
LINE
  5
208
330
1F
100
AcDbEntity
  8
0
  6
Continuous
 62
     7
370
    15
100
AcDbLine
 10
535.7650903378
 20
979.1895029576
 30
0.0
 11
598.7650894884
 21
979.1895029576
 31
0.0
  0
LINE
  5
209
330
1F
100
AcDbEntity
  8
0
  6
Continuous
 62
     7
370
    15
100
AcDbLine
 10
442.0189553265
 20
973.1895026726
 30
0.0
 11
430.7650917534
 21
973.1895026726
 31
0.0
  0
LINE
  5
20A
330
1F
100
AcDbEntity
  8
0
  6
Continuous
 62
     7
370
    15
100
AcDbLine
 10
598.7650894884
 20
973.1895026726
 30
0.0
 11
587.5112259154
 21
973.1895026726
 31
0.0
  0
LINE
  5
20B
330
1F
100
AcDbEntity
  8
0
  6
Continuous
 62
     7
370
    15
100
AcDbLine
 10
587.5112259154
 20
973.1895026726
 30
0.0
 11
539.5630498741
 21
973.1895026726
 31
0.0
  0
LINE
  5
20C
330
1F
100
AcDbEntity
  8
0
  6
Continuous
 62
     7
370
    15
100
AcDbLine
 10
489.9671313677
 20
973.1895026726
 30
0.0
 11
442.0189553265
 21
973.1895026726
 31
0.0
  0
LINE
  5
20D
330
1F
100
AcDbEntity
  8
0
  6
Continuous
 62
     7
370
    15
100
AcDbLine
 10
576.2239241366
 20
941.1895039466
 30
0.0
 11
576.2239241366
 21
973.1895026726
 31
0.0
  0
LINE
  5
20E
330
1F
100
AcDbEntity
  8
0
  6
Continuous
 62
     7
370
    15
100
AcDbLine
 10
453.3062571053
 20
941.1895039466
 30
0.0
 11
453.3062571053
 21
973.1895026726
 31
0.0
  0
LINE
  5
20F
330
1F
100
AcDbEntity
  8
0
  6
Continuous
 62
     7
370
    15
100
AcDbLine
 10
533.5698531334
 20
863.1895023373
 30
0.0
 11
582.2650933031
 21
863.1895023373
 31
0.0
  0
LINE
  5
210
330
1F
100
AcDbEntity
  8
0
  6
Continuous
 62
     7
370
    15
100
AcDbLine
 10
447.2650879387
 20
863.1895023373
 30
0.0
 11
495.9603281085
 21
863.1895023373
 31
0.0
  0
LINE
  5
211
330
1F
100
AcDbEntity
  8
0
  6
Continuous
 62
     7
370
    15
100
AcDbLine
 10
483.8417985801
 20
847.1894997147
 30
0.0
 11
483.8417985801
 21
833.1895011452
 31
0.0
  0
LINE
  5
212
330
1F
100
AcDbEntity
  8
0
  6
Continuous
 62
     7
370
    15
100
AcDbLine
 10
545.6883826618
 20
847.1894997147
 30
0.0
 11
545.6883826618
 21
833.1895011452
 31
0.0
  0
LINE
  5
213
330
1F
100
AcDbEntity
  8
0
  6
Continuous
 62
     7
370
    15
100
AcDbLine
 10
492.7650907401
 20
863.1895023373
 30
0.0
 11
492.7650907401
 21
926.1895033506
 31
0.0
  0
LINE
  5
214
330
1F
100
AcDbEntity
  8
0
  6
Continuous
 62
     7
370
    15
100
AcDbLine
 10
502.7650905166
 20
926.1895033506
 30
0.0
 11
502.7650905166
 21
863.1895023373
 31
0.0
  0
LINE
  5
215
330
1F
100
AcDbEntity
  8
0
  6
Continuous
 62
     7
370
    15
100
AcDbLine
 10
502.7650905166
 20
863.1895023373
 30
0.0
 11
495.9603281085
 21
863.1895023373
 31
0.0
  0
LINE
  5
216
330
1F
100
AcDbEntity
  8
0
  6
Continuous
 62
     7
370
    15
100
AcDbLine
 10
514.7650906209
 20
863.1895023373
 30
0.0
 11
526.7650907252
 21
863.1895023373
 31
0.0
  0
LINE
  5
217
330
1F
100
AcDbEntity
  8
0
  6
Continuous
 62
     7
370
    15
100
AcDbLine
 10
502.7650905166
 20
863.1895023373
 30
0.0
 11
514.7650906209
 21
863.1895023373
 31
0.0
  0
LINE
  5
218
330
1F
100
AcDbEntity
  8
0
  6
Continuous
 62
     7
370
    15
100
AcDbLine
 10
526.7650907252
 20
863.1895023373
 30
0.0
 11
526.7650907252
 21
926.1895033506
 31
0.0
  0
LINE
  5
219
330
1F
100
AcDbEntity
  8
0
  6
Continuous
 62
     7
370
    15
100
AcDbLine
 10
533.5698531334
 20
863.1895023373
 30
0.0
 11
526.7650907252
 21
863.1895023373
 31
0.0
  0
LINE
  5
21A
330
1F
100
AcDbEntity
  8
0
  6
Continuous
 62
     7
370
    15
100
AcDbLine
 10
536.7650905017
 20
926.1895033506
 30
0.0
 11
536.7650905017
 21
863.1895023373
 31
0.0
  0
LINE
  5
21B
330
1F
100
AcDbEntity
  8
0
  6
Continuous
 62
     7
370
    15
100
AcDbLine
 10
451.5691616897
 20
847.1894997147
 30
0.0
 11
451.5691616897
 21
833.1895011452
 31
0.0
  0
LINE
  5
21C
330
1F
100
AcDbEntity
  8
0
  6
Continuous
 62
     7
370
    15
100
AcDbLine
 10
461.8500651185
 20
847.1894997147
 30
0.0
 11
461.8500651185
 21
833.1895011452
 31
0.0
  0
LINE
  5
21D
330
1F
100
AcDbEntity
  8
0
  6
Continuous
 62
     7
370
    15
100
AcDbLine
 10
461.8500651185
 20
833.1895011452
 30
0.0
 11
451.5691616897
 21
833.1895011452
 31
0.0
  0
LINE
  5
21E
330
1F
100
AcDbEntity
  8
0
  6
Continuous
 62
     7
370
    15
100
AcDbLine
 10
461.8500651185
 20
847.1894997147
 30
0.0
 11
451.5691616897
 21
847.1894997147
 31
0.0
  0
LINE
  5
21F
330
1F
100
AcDbEntity
  8
0
  6
Continuous
 62
     7
370
    15
100
AcDbLine
 10
483.8417985801
 20
833.1895011452
 30
0.0
 11
461.8500651185
 21
833.1895011452
 31
0.0
  0
LINE
  5
220
330
1F
100
AcDbEntity
  8
0
  6
Continuous
 62
     7
370
    15
100
AcDbLine
 10
483.8417985801
 20
847.1894997147
 30
0.0
 11
461.8500651185
 21
847.1894997147
 31
0.0
  0
LINE
  5
221
330
1F
100
AcDbEntity
  8
0
  6
Continuous
 62
     7
370
    15
100
AcDbLine
 10
567.6801161234
 20
847.1894997147
 30
0.0
 11
567.6801161234
 21
833.1895011452
 31
0.0
  0
LINE
  5
222
330
1F
100
AcDbEntity
  8
0
  6
Continuous
 62
     7
370
    15
100
AcDbLine
 10
545.6883826618
 20
833.1895011452
 30
0.0
 11
567.6801161234
 21
833.1895011452
 31
0.0
  0
LINE
  5
223
330
1F
100
AcDbEntity
  8
0
  6
Continuous
 62
     7
370
    15
100
AcDbLine
 10
545.6883826618
 20
847.1894997147
 30
0.0
 11
567.6801161234
 21
847.1894997147
 31
0.0
  0
LINE
  5
224
330
1F
100
AcDbEntity
  8
0
  6
Continuous
 62
     7
370
    15
100
AcDbLine
 10
577.9610195522
 20
847.1894997147
 30
0.0
 11
577.9610195522
 21
833.1895011452
 31
0.0
  0
LINE
  5
225
330
1F
100
AcDbEntity
  8
0
  6
Continuous
 62
     7
370
    15
100
AcDbLine
 10
567.6801161234
 20
833.1895011452
 30
0.0
 11
577.9610195522
 21
833.1895011452
 31
0.0
  0
LINE
  5
226
330
1F
100
AcDbEntity
  8
0
  6
Continuous
 62
     7
370
    15
100
AcDbLine
 10
567.6801161234
 20
847.1894997147
 30
0.0
 11
577.9610195522
 21
847.1894997147
 31
0.0
  0
LINE
  5
227
330
1F
100
AcDbEntity
  8
0
  6
Continuous
 62
     7
370
    15
100
AcDbLine
 10
472.2650901739
 20
926.1895033506
 30
0.0
 11
472.2650901739
 21
863.1895023373
 31
0.0
  0
LINE
  5
228
330
1F
100
AcDbEntity
  8
0
  6
Continuous
 62
     7
370
    15
100
AcDbLine
 10
557.265091068
 20
926.1895033506
 30
0.0
 11
557.265091068
 21
863.1895023373
 31
0.0
  0
LINE
  5
229
330
1F
100
AcDbEntity
  8
0
  6
Continuous
 62
     7
370
    15
100
AcDbLine
 10
584.1179409389
 20
1204.092337468
 30
0.0
 11
445.412240303
 21
1204.092337468
 31
0.0
  0
LINE
  5
22A
330
1F
100
AcDbEntity
  8
0
  6
Continuous
 62
     7
370
    15
100
AcDbLine
 10
530.384397446
 20
1192.0512008456
 30
0.0
 11
601.3144621019
 21
1192.0512008456
 31
0.0
  0
LINE
  5
22B
330
1F
100
AcDbEntity
  8
0
  6
Continuous
 62
     7
370
    15
100
AcDbLine
 10
428.21571914
 20
1192.0512008456
 30
0.0
 11
499.1457837958
 21
1192.0512008456
 31
0.0
  0
LINE
  5
22C
330
1F
100
AcDbEntity
  8
0
  6
Continuous
 62
     7
370
    15
100
AcDbLine
 10
484.1887032006
 20
1189.6895009068
 30
0.0
 11
423.7650924687
 21
1189.6895009068
 31
0.0
  0
LINE
  5
22D
330
1F
100
AcDbEntity
  8
0
  6
Continuous
 62
     7
370
    15
100
AcDbLine
 10
605.7650887732
 20
1189.6895009068
 30
0.0
 11
544.5140407745
 21
1189.6895009068
 31
0.0
  0
LINE
  5
22E
330
1F
100
AcDbEntity
  8
0
  6
Continuous
 62
     7
370
    15
100
AcDbLine
 10
597.8090011839
 20
1177.1894979266
 30
0.0
 11
597.8090011839
 21
1175.1127677945
 31
0.0
  0
LINE
  5
22F
330
1F
100
AcDbEntity
  8
0
  6
Continuous
 62
     7
370
    15
100
AcDbLine
 10
431.7211800579
 20
1175.1127677945
 30
0.0
 11
431.7211800579
 21
1177.1894979266
 31
0.0
  0
SPLINE
  5
230
330
1F
100
AcDbEntity
  8
0
  6
Continuous
 62
     7
370
    15
100
AcDbSpline
210
0.0
220
0.0
230
1.0
 70
     8
 71
     3
 72
     9
 73
     5
 74
     0
 42
0.00000001
 43
0.00000001
 12
1.0
 22
0.0
 32
0.0
 13
1.0
 23
0.0
 33
0.0
 40
0.0
 40
0.0
 40
0.0
 40
0.0
 40
0.7957391898983671
 40
1.0
 40
1.0
 40
1.0
 40
1.0
 10
539.0367669377836
 20
1191.71962020668
 30
0.0
 10
536.7439425587303
 20
1191.769445757878
 30
0.0
 10
533.8625658361057
 20
1191.832061187443
 30
0.0
 10
530.9743473032909
 20
1192.014031451927
 30
0.0
 10
530.3843974460276
 20
1192.051200845565
 30
0.0
  0
SPLINE
  5
231
330
1F
100
AcDbEntity
  8
0
  6
Continuous
 62
     7
370
    15
100
AcDbSpline
210
0.0
220
0.0
230
1.0
 70
     8
 71
     3
 72
     9
 73
     5
 74
     0
 42
0.00000001
 43
0.00000001
 12
1.0
 22
0.0
 32
0.0
 13
1.0
 23
0.0
 33
0.0
 40
0.0
 40
0.0
 40
0.0
 40
0.0
 40
0.1161660863154849
 40
1.0
 40
1.0
 40
1.0
 40
1.0
 10
490.2817712489875
 20
1191.695942261543
 30
0.0
 10
490.6242668703883
 20
1191.69835194951
 30
0.0
 10
493.5725939791342
 20
1191.719095421581
 30
0.0
 10
496.531023475602
 20
1191.895387727167
 30
0.0
 10
499.1457837958249
 20
1192.051200845565
 30
0.0
  0
LINE
  5
232
330
1F
100
AcDbEntity
  8
0
  6
Continuous
 62
     7
370
    15
100
AcDbLine
 10
446.2650933627
 20
1205.7306307343
 30
0.0
 11
583.2650878791
 21
1205.7306307343
 31
0.0
  0
LINE
  5
233
330
1F
100
AcDbEntity
  8
0
  6
Continuous
 62
     7
370
    15
100
AcDbLine
 10
583.2650878791
 20
1207.6895075825
 30
0.0
 11
446.2650933627
 21
1207.6895075825
 31
0.0
  0
LWPOLYLINE
  5
234
330
1F
100
AcDbEntity
  8
0
  6
Continuous
 62
     7
370
    15
100
AcDbPolyline
 90
        3
 70
   128
 43
0.0
 10
597.28550849
 20
1175.4073786524
 10
597.5206935171
 20
1175.3198194292
 10
597.670345879
 20
1175.2265679625
  0
LINE
  5
235
330
1F
100
AcDbEntity
  8
0
  6
Continuous
 62
     7
370
    15
100
AcDbLine
 10
598.472102857
 20
1173.6252444771
 30
0.0
 11
598.2041501765
 21
1173.6252444771
 31
0.0
  0
LINE
  5
236
330
1F
100
AcDbEntity
  8
0
  6
Continuous
 62
     7
370
    15
100
AcDbLine
 10
431.3260310654
 20
1173.6252444771
 30
0.0
 11
431.0580783848
 21
1173.6252444771
 31
0.0
  0
LWPOLYLINE
  5
237
330
1F
100
AcDbEntity
  8
0
  6
Continuous
 62
     7
370
    15
100
AcDbPolyline
 90
        3
 70
   128
 43
0.0
 10
432.2446727518
 20
1175.4073786524
 10
432.0094877247
 20
1175.3198194292
 10
431.8598353628
 20
1175.2265679625
  0
SPLINE
  5
238
330
1F
100
AcDbEntity
  8
0
  6
Continuous
 62
     7
370
    15
100
AcDbSpline
210
0.0
220
0.0
230
1.0
 70
     8
 71
     3
 72
    10
 73
     6
 74
     0
 42
0.00000001
 43
0.00000001
 12
1.0
 22
0.0
 32
0.0
 13
1.0
 23
0.0
 33
0.0
 40
0.0
 40
0.0
 40
0.0
 40
0.0
 40
0.0069625887892427
 40
0.8529899294828132
 40
1.0
 40
1.0
 40
1.0
 40
1.0
 10
597.8090011839183
 20
1177.189497926559
 30
0.0
 10
597.8082387746871
 20
1177.185673509455
 30
0.0
 10
597.7148356718997
 20
1176.717142424989
 30
0.0
 10
597.603565619593
 20
1176.156550995379
 30
0.0
 10
597.6493064998446
 20
1175.632574382652
 30
0.0
 10
597.6560780171665
 20
1175.555004456367
 30
0.0
  0
SPLINE
  5
239
330
1F
100
AcDbEntity
  8
0
  6
Continuous
 62
     7
370
    15
100
AcDbSpline
210
0.0
220
0.0
230
1.0
 70
     8
 71
     3
 72
    10
 73
     6
 74
     0
 42
0.00000001
 43
0.00000001
 12
1.0
 22
0.0
 32
0.0
 13
1.0
 23
0.0
 33
0.0
 40
0.0
 40
0.0
 40
0.0
 40
0.0
 40
0.1641342717106257
 40
0.9931771886772115
 40
1.0
 40
1.0
 40
1.0
 40
1.0
 10
431.8717488412174
 20
1175.522475221481
 30
0.0
 10
431.8796076852124
 20
1175.610824879474
 30
0.0
 10
431.9271615842476
 20
1176.145429042471
 30
0.0
 10
431.8153495648478
 20
1176.717141589043
 30
0.0
 10
431.72194249951
 20
1177.185673502686
 30
0.0
 10
431.7211800579342
 20
1177.189497926559
 30
0.0
  0
LINE
  5
23A
330
1F
100
AcDbEntity
  8
0
  6
Continuous
 62
     7
370
    15
100
AcDbLine
 10
525.0984237854
 20
744.6895080593
 30
0.0
 11
525.0984237854
 21
729.1894989994
 31
0.0
  0
LINE
  5
23B
330
1F
100
AcDbEntity
  8
0
  6
Continuous
 62
     7
370
    15
100
AcDbLine
 10
504.4317574565
 20
729.1894989994
 30
0.0
 11
504.4317574565
 21
744.6895080593
 31
0.0
  0
LINE
  5
23C
330
1F
100
AcDbEntity
  8
0
  6
Continuous
 62
     7
370
    15
100
AcDbLine
 10
547.6589680974
 20
744.6895080593
 30
0.0
 11
547.6589680974
 21
729.1894989994
 31
0.0
  0
LINE
  5
23D
330
1F
100
AcDbEntity
  8
0
  6
Continuous
 62
     7
370
    15
100
AcDbLine
 10
481.8712131445
 20
729.1894989994
 30
0.0
 11
481.8712131445
 21
744.6895080593
 31
0.0
  0
LINE
  5
23E
330
1F
100
AcDbEntity
  8
0
  6
Continuous
 62
     7
370
    15
100
AcDbLine
 10
552.0400808517
 20
729.1894989994
 30
0.0
 11
558.840333796
 21
742.7128243235
 31
0.0
  0
LINE
  5
23F
330
1F
100
AcDbEntity
  8
0
  6
Continuous
 62
     7
370
    15
100
AcDbLine
 10
470.6898474459
 20
742.7128243235
 30
0.0
 11
477.4901003901
 21
729.1894989994
 31
0.0
  0
LWPOLYLINE
  5
240
330
1F
100
AcDbEntity
  8
0
  6
Continuous
 62
     7
370
    15
100
AcDbPolyline
 90
       13
 70
   128
 43
0.0
 10
659.8173150186
 20
1062.353453317
 10
659.83260361
 20
1062.3586314705
 10
660.1697721843
 20
1062.2749018458
 10
660.6009521846
 20
1061.8655594972
 10
661.0878327255
 20
1061.1669781593
 10
661.5871259336
 20
1060.2412360695
 10
662.0545008544
 20
1059.1705876377
 10
662.4484130506
 20
1058.0501544264
 10
662.7338596944
 20
1056.9794985441
 10
662.8854790096
 20
1056.0537564543
 10
662.8898003463
 20
1055.3551751164
 10
662.7464362745
 20
1054.9458402184
 10
662.6381644372
 20
1054.8672812966
  0
LWPOLYLINE
  5
241
330
1F
100
AcDbEntity
  8
0
  6
Continuous
 62
     7
370
    15
100
AcDbPolyline
 90
       13
 70
   128
 43
0.0
 10
629.7539987926
 20
1147.865487912
 10
629.769287384
 20
1147.870658615
 10
630.1064634089
 20
1147.7869289902
 10
630.5376434092
 20
1147.3775940922
 10
631.0245164995
 20
1146.6790127543
 10
631.5238171582
 20
1145.753263214
 10
631.9911846284
 20
1144.6826147822
 10
632.385089374
 20
1143.5621815709
 10
632.6705360178
 20
1142.4915331391
 10
632.8221627836
 20
1141.5657835987
 10
632.8264841203
 20
1140.8672022608
 10
632.683127499
 20
1140.4578673628
 10
632.5748556618
 20
1140.379308441
  0
LWPOLYLINE
  5
242
330
1F
100
AcDbEntity
  8
0
  6
Continuous
 62
     7
370
    15
100
AcDbPolyline
 90
        3
 70
   128
 43
0.0
 10
626.0058501128
 20
1149.3085908678
 10
626.317671812
 20
1149.3913221148
 10
626.5711331133
 20
1149.4111108569
  0
ARC
  5
243
330
1F
100
AcDbEntity
  8
0
  6
Continuous
 62
     7
370
    15
100
AcDbCircle
 10
628.7686571084
 20
1146.6647236612
 30
0.0
 40
2.776996887458924
100
AcDbArc
 50
282.3837410367
 51
309.3119600196
  0
ARC
  5
244
330
1F
100
AcDbEntity
  8
0
  6
Continuous
 62
     7
370
    15
100
AcDbCircle
 10
659.1628562227
 20
1060.2117445625
 30
0.0
 40
2.775660359345034
100
AcDbArc
 50
282.3788789104
 51
309.3203686534
  0
LWPOLYLINE
  5
245
330
1F
100
AcDbEntity
  8
0
  6
Continuous
 62
     7
370
    15
100
AcDbPolyline
 90
        3
 70
   128
 43
0.0
 10
610.7355275516
 20
1149.3085908678
 10
611.0473492507
 20
1149.3913221148
 10
611.297152317
 20
1149.4111108569
  0
LWPOLYLINE
  5
246
330
1F
100
AcDbEntity
  8
0
  6
Continuous
 62
     7
370
    15
100
AcDbPolyline
 90
        9
 70
   128
 43
0.0
 10
660.2924832467
 20
1052.1667215017
 10
660.4173251752
 20
1052.2472920802
 10
660.5869301919
 20
1052.5520878819
 10
660.6679627065
 20
1053.0470597533
 10
660.6573381786
 20
1053.7131789115
 10
660.5554440383
 20
1054.5248451618
 10
660.3662141923
 20
1055.4508703736
 10
660.0969055061
 20
1056.4556631235
 10
659.7578891877
 20
1057.5006145028
  0
LINE
  5
247
330
1F
100
AcDbEntity
  8
0
  6
Continuous
 62
     7
370
    15
100
AcDbLine
 10
655.866272128
 20
1051.8013152269
 30
0.0
 11
656.0532071952
 21
1051.8717530158
 31
0.0
  0
LINE
  5
248
330
1F
100
AcDbEntity
  8
0
  6
Continuous
 62
     7
370
    15
100
AcDbLine
 10
659.9506357078
 20
1135.622589567
 30
0.0
 11
633.6546832089
 21
1135.622589567
 31
0.0
  0
LINE
  5
249
330
1F
100
AcDbEntity
  8
0
  6
Continuous
 62
     7
370
    15
100
AcDbLine
 10
657.7657231454
 20
1067.041209617
 30
0.0
 11
659.9506357078
 21
1067.8645062235
 31
0.0
  0
LINE
  5
24A
330
1F
100
AcDbEntity
  8
0
  6
Continuous
 62
     7
370
    15
100
AcDbLine
 10
656.2321105365
 20
1053.2720002321
 30
0.0
 11
644.4989362125
 21
1053.2720002321
 31
0.0
  0
ARC
  5
24B
330
1F
100
AcDbEntity
  8
0
  6
Continuous
 62
     7
370
    15
100
AcDbCircle
 10
644.3277744882
 20
1053.7234037915
 30
0.0
 40
0.4827644450238299
100
AcDbArc
 50
290.7655615916
 51
317.9134646076
  0
ELLIPSE
  5
24C
330
1F
100
AcDbEntity
  8
0
  6
Continuous
 62
     7
370
    15
100
AcDbEllipse
 10
658.6565357581
 20
1067.8645025533
 30
0.0
 11
-0.7054376055667717
 21
5.068836590658293
 31
0.0
210
0.0
220
0.0
230
1.0
 40
0.250605517
 41
3.198118383623806
 42
4.677525965372567
  0
LINE
  5
24D
330
1F
100
AcDbEntity
  8
0
  6
Continuous
 62
     7
370
    15
100
AcDbLine
 10
659.9506357078
 20
1135.622589567
 30
0.0
 11
661.4329883222
 21
1135.622589567
 31
0.0
  0
LINE
  5
24E
330
1F
100
AcDbEntity
  8
0
  6
Continuous
 62
     7
370
    15
100
AcDbLine
 10
659.9506357078
 20
1067.8645062235
 30
0.0
 11
661.4329883222
 21
1067.8645062235
 31
0.0
  0
LINE
  5
24F
330
1F
100
AcDbEntity
  8
0
  6
Continuous
 62
     7
370
    15
100
AcDbLine
 10
610.7355275516
 20
1149.3085908678
 30
0.0
 11
610.6087484721
 21
1149.2862391261
 31
0.0
  0
LINE
  5
250
330
1F
100
AcDbEntity
  8
0
  6
Continuous
 62
     7
370
    15
100
AcDbLine
 10
610.7974344258
 20
1146.472005823
 30
0.0
 11
610.7661345367
 21
1146.7102753905
 31
0.0
  0
LINE
  5
251
330
1F
100
AcDbEntity
  8
0
  6
Continuous
 62
     7
370
    15
100
AcDbLine
 10
608.4750288491
 20
1142.829864004
 30
0.0
 11
607.5509333376
 21
1142.4816536692
 31
0.0
  0
LINE
  5
252
330
1F
100
AcDbEntity
  8
0
  6
Continuous
 62
     7
370
    15
100
AcDbLine
 10
637.9446157579
 20
1056.0299294976
 30
0.0
 11
638.7505227093
 21
1056.3336077121
 31
0.0
  0
LWPOLYLINE
  5
253
330
1F
100
AcDbEntity
  8
0
  6
Continuous
 62
     7
370
    15
100
AcDbPolyline
 90
        3
 70
   128
 43
0.0
 10
644.4989362125
 20
1053.2720002321
 10
644.2431577806
 20
1053.3532488135
 10
644.169799364
 20
1053.3998298434
  0
LINE
  5
254
330
1F
100
AcDbEntity
  8
0
  6
Continuous
 62
     7
370
    15
100
AcDbLine
 10
611.4652374152
 20
1146.7102753905
 30
0.0
 11
610.7198440794
 21
1146.4294034031
 31
0.0
  0
ARC
  5
255
330
1F
100
AcDbEntity
  8
0
  6
Continuous
 62
     7
370
    15
100
AcDbCircle
 10
620.8496155542
 20
1135.0132989444
 30
0.0
 40
6.629022297008649
100
AcDbArc
 50
29.0535282187
 51
46.4641429515
  0
LINE
  5
256
330
1F
100
AcDbEntity
  8
0
  6
Continuous
 62
     7
370
    15
100
AcDbLine
 10
614.1189554099
 20
1140.0989132908
 30
0.0
 11
624.4920113448
 21
1140.0989132908
 31
0.0
  0
LWPOLYLINE
  5
257
330
1F
100
AcDbEntity
  8
0
  6
Continuous
 62
     7
370
    15
100
AcDbPolyline
 90
        5
 70
   128
 43
0.0
 10
613.5850244526
 20
1139.0319901493
 10
613.5902622108
 20
1139.148710945
 10
613.6755713586
 20
1139.6697300461
 10
613.8540872697
 20
1139.9905669478
 10
614.1189554099
 20
1140.0989132908
  0
ELLIPSE
  5
258
330
1F
100
AcDbEntity
  8
0
  6
Continuous
 62
     7
370
    15
100
AcDbEllipse
 10
640.3344828222
 20
1065.5315231959
 30
0.0
 11
-2.234016371209577
 21
5.978194925898379
 31
0.0
210
0.0
220
0.0
230
1.0
 40
0.228764231
 41
2.586982228316507
 42
3.056312147468343
  0
ELLIPSE
  5
259
330
1F
100
AcDbEntity
  8
0
  6
Continuous
 62
     7
370
    15
100
AcDbEllipse
 10
651.0495912894
 20
1065.5315231959
 30
0.0
 11
-2.234016371209577
 21
5.978194925898606
 31
0.0
210
0.0
220
0.0
230
1.0
 40
0.228764231
 41
3.056312147468395
 42
3.894280302791884
  0
ARC
  5
25A
330
1F
100
AcDbEntity
  8
0
  6
Continuous
 62
     7
370
    15
100
AcDbCircle
 10
623.8956139134
 20
1139.7454495066
 30
0.0
 40
0.9960380718375613
100
AcDbArc
 50
291.258842564
 51
356.5104937373
  0
ARC
  5
25B
330
1F
100
AcDbEntity
  8
0
  6
Continuous
 62
     7
370
    15
100
AcDbCircle
 10
630.6879314224
 20
1124.9533063775
 30
0.0
 40
9.805714688981412
100
AcDbArc
 50
105.9221538043
 51
110.819829594
  0
ARC
  5
25C
330
1F
100
AcDbEntity
  8
0
  6
Continuous
 62
     7
370
    15
100
AcDbCircle
 10
654.9231466125
 20
1056.018461886
 30
0.0
 40
9.811631452135755
100
AcDbArc
 50
105.9238126669
 51
110.818491857
  0
LINE
  5
25D
330
1F
100
AcDbEntity
  8
0
  6
Continuous
 62
     7
370
    15
100
AcDbLine
 10
609.3771451477
 20
1098.1895017413
 30
0.0
 11
609.3771451477
 21
1065.1895019201
 31
0.0
  0
LINE
  5
25E
330
1F
100
AcDbEntity
  8
0
  6
Continuous
 62
     7
370
    15
100
AcDbLine
 10
620.8687120442
 20
1136.1401366976
 30
0.0
 11
615.1909598474
 21
1136.1401366976
 31
0.0
  0
LINE
  5
25F
330
1F
100
AcDbEntity
  8
0
  6
Continuous
 62
     7
370
    15
100
AcDbLine
 10
623.792379475
 20
1141.5599274424
 30
0.0
 11
613.6211821203
 21
1141.5599274424
 31
0.0
  0
LINE
  5
260
330
1F
100
AcDbEntity
  8
0
  6
Continuous
 62
     7
370
    15
100
AcDbLine
 10
613.9098325137
 20
1142.2007816819
 30
0.0
 11
623.5998937253
 21
1142.2007816819
 31
0.0
  0
LINE
  5
261
330
1F
100
AcDbEntity
  8
0
  6
Continuous
 62
     7
370
    15
100
AcDbLine
 10
613.8846122984
 20
1142.2602075127
 30
0.0
 11
613.9098325137
 21
1142.2007816819
 31
0.0
  0
LINE
  5
262
330
1F
100
AcDbEntity
  8
0
  6
Continuous
 62
     7
370
    15
100
AcDbLine
 10
629.5657598738
 20
1100.6894993571
 30
0.0
 11
629.2140626673
 21
1100.6894993571
 31
0.0
  0
LINE
  5
263
330
1F
100
AcDbEntity
  8
0
  6
Continuous
 62
     7
370
    15
100
AcDbLine
 10
629.2140626673
 20
1093.6895000723
 30
0.0
 11
629.5657598738
 21
1093.6895000723
 31
0.0
  0
LINE
  5
264
330
1F
100
AcDbEntity
  8
0
  6
Continuous
 62
     7
370
    15
100
AcDbLine
 10
613.2868298654
 20
1138.0195158509
 30
0.0
 11
622.1398257975
 21
1138.0195158509
 31
0.0
  0
LINE
  5
265
330
1F
100
AcDbEntity
  8
0
  6
Continuous
 62
     7
370
    15
100
AcDbLine
 10
613.5416471724
 20
1138.8171899107
 30
0.0
 11
611.8758389119
 21
1138.1895082978
 31
0.0
  0
LINE
  5
266
330
1F
100
AcDbEntity
  8
0
  6
Continuous
 62
     7
370
    15
100
AcDbLine
 10
654.6380141143
 20
1058.6078005818
 30
0.0
 11
654.5898833637
 21
1058.5896658686
 31
0.0
  0
LINE
  5
267
330
1F
100
AcDbEntity
  8
0
  6
Continuous
 62
     7
370
    15
100
AcDbLine
 10
653.597540534
 20
1056.9875898746
 30
0.0
 11
643.3541247014
 21
1056.9875898746
 31
0.0
  0
LINE
  5
268
330
1F
100
AcDbEntity
  8
0
  6
Continuous
 62
     7
370
    15
100
AcDbLine
 10
653.5454162721
 20
1057.6284441141
 30
0.0
 11
643.6427750949
 21
1057.6284441141
 31
0.0
  0
LINE
  5
269
330
1F
100
AcDbEntity
  8
0
  6
Continuous
 62
     7
370
    15
100
AcDbLine
 10
643.6427750949
 20
1057.6284441141
 30
0.0
 11
643.6175623302
 21
1057.6878624943
 31
0.0
  0
ARC
  5
26A
330
1F
100
AcDbEntity
  8
0
  6
Continuous
 62
     7
370
    15
100
AcDbCircle
 10
616.2468651909
 20
1084.0190364397
 30
0.0
 40
0.4704646228869227
100
AcDbArc
 50
60.4177636498
 51
89.9394021743
  0
ARC
  5
26B
330
1F
100
AcDbEntity
  8
0
  6
Continuous
 62
     7
370
    15
100
AcDbCircle
 10
616.2468234594
 20
1083.5600718012
 30
0.0
 40
0.4705726578184301
100
AcDbArc
 50
270.065665044
 51
299.580611945
  0
LINE
  5
26C
330
1F
100
AcDbEntity
  8
0
  6
Continuous
 62
     7
370
    15
100
AcDbLine
 10
616.1179536347
 20
1083.9894997862
 30
0.0
 11
616.5464290742
 21
1083.9894997862
 31
0.0
  0
LINE
  5
26D
330
1F
100
AcDbEntity
  8
0
  6
Continuous
 62
     7
370
    15
100
AcDbLine
 10
616.5464290742
 20
1083.5895004657
 30
0.0
 11
616.1179536347
 21
1083.5895004657
 31
0.0
  0
LINE
  5
26E
330
1F
100
AcDbEntity
  8
0
  6
Continuous
 62
     7
370
    15
100
AcDbLine
 10
609.3771451477
 20
1065.1895019201
 30
0.0
 11
609.308994687
 21
1065.1895019201
 31
0.0
  0
LINE
  5
26F
330
1F
100
AcDbEntity
  8
0
  6
Continuous
 62
     7
370
    15
100
AcDbLine
 10
613.5416471724
 20
1138.8171899107
 30
0.0
 11
613.4304398064
 21
1138.7975948838
 31
0.0
  0
ARC
  5
270
330
1F
100
AcDbEntity
  8
0
  6
Continuous
 62
     7
370
    15
100
AcDbCircle
 10
615.6499749864
 20
1141.8955809951
 30
0.0
 40
2.597046064795982
100
AcDbArc
 50
171.9289789675
 51
191.6001681715
  0
LINE
  5
271
330
1F
100
AcDbEntity
  8
0
  6
Continuous
 62
     7
370
    15
100
AcDbLine
 10
612.8344827656
 20
1140.9426915434
 30
0.0
 11
612.529917932
 21
1140.8279227999
 31
0.0
  0
LWPOLYLINE
  5
272
330
1F
100
AcDbEntity
  8
0
  6
Continuous
 62
     7
370
    15
100
AcDbPolyline
 90
        7
 70
   128
 43
0.0
 10
613.7159833078
 20
1141.6599291352
 10
613.7139343981
 20
1141.714452484
 10
613.7183823947
 20
1141.8848919657
 10
613.7408011917
 20
1142.0210438755
 10
613.7807661061
 20
1142.1202409056
 10
613.8374799256
 20
1142.180545905
 10
613.9098325137
 20
1142.2007816819
  0
LINE
  5
273
330
1F
100
AcDbEntity
  8
0
  6
Continuous
 62
     7
370
    15
100
AcDbLine
 10
613.0530380968
 20
1139.5879822758
 30
0.0
 11
612.6688265566
 21
1139.4432025937
 31
0.0
  0
LINE
  5
274
330
1F
100
AcDbEntity
  8
0
  6
Continuous
 62
     7
370
    15
100
AcDbLine
 10
641.840434945
 20
1058.2762646464
 30
0.0
 11
641.5861466293
 21
1058.1804501799
 31
0.0
  0
ARC
  5
275
330
1F
100
AcDbEntity
  8
0
  6
Continuous
 62
     7
370
    15
100
AcDbCircle
 10
643.911477938
 20
1058.2959912534
 30
0.0
 40
1.422166234400441
100
AcDbArc
 50
205.315813204
 51
246.9269498707
  0
LWPOLYLINE
  5
276
330
1F
100
AcDbEntity
  8
0
  6
Continuous
 62
     7
370
    15
100
AcDbPolyline
 90
        3
 70
   128
 43
0.0
 10
643.6427750949
 20
1057.6284441141
 10
643.5561993484
 20
1057.648679891
 10
643.4863576059
 20
1057.6878624943
  0
LINE
  5
277
330
1F
100
AcDbEntity
  8
0
  6
Continuous
 62
     7
370
    15
100
AcDbLine
 10
641.0777637128
 20
1059.6881422189
 30
0.0
 11
640.7514133815
 21
1059.5651703862
 31
0.0
  0
LINE
  5
278
330
1F
100
AcDbEntity
  8
0
  6
Continuous
 62
     7
370
    15
100
AcDbLine
 10
514.2650905972
 20
1012.1752887008
 30
0.0
 11
515.2650906447
 21
1012.1752887008
 31
0.0
  0
LINE
  5
279
330
1F
100
AcDbEntity
  8
0
  6
Continuous
 62
     7
370
    15
100
AcDbLine
 10
514.2650905972
 20
994.1895033208
 30
0.0
 11
515.2650906447
 21
994.1895033208
 31
0.0
  0
LINE
  5
27A
330
1F
100
AcDbEntity
  8
0
  6
Continuous
 62
     7
370
    15
100
AcDbLine
 10
514.2650905972
 20
1012.8823953656
 30
0.0
 11
515.2650906447
 21
1012.8823953656
 31
0.0
  0
LINE
  5
27B
330
1F
100
AcDbEntity
  8
0
  6
Continuous
 62
     7
370
    15
100
AcDbLine
 10
515.2650906447
 20
1144.189505556
 30
0.0
 11
514.2650905972
 21
1144.189505556
 31
0.0
  0
LINE
  5
27C
330
1F
100
AcDbEntity
  8
0
  6
Continuous
 62
     7
370
    15
100
AcDbLine
 10
514.2650905972
 20
1126.203714588
 30
0.0
 11
515.2650906447
 21
1126.203714588
 31
0.0
  0
LINE
  5
27D
330
1F
100
AcDbEntity
  8
0
  6
Continuous
 62
     7
370
    15
100
AcDbLine
 10
515.2650906447
 20
1125.4966097859
 30
0.0
 11
514.2650905972
 21
1125.4966097859
 31
0.0
  0
CIRCLE
  5
27E
330
1F
100
AcDbEntity
  8
SLD-0
  6
Continuous
 62
     7
100
AcDbCircle
 10
514.7650906209
 20
954.1895030526
 30
0.0
 40
9.941304535795743
  0
INSERT
  5
28A
330
1F
100
AcDbEntity
  8
SLD-0
 62
     7
100
AcDbBlockReference
  2
SW_CENTERMARKSYMBOL_0
 10
514.7650906209
 20
954.1895030526
 30
0.0
  0
LINE
  5
28B
330
1F
100
AcDbEntity
  8
0
  6
Continuous
 62
     7
370
    15
100
AcDbLine
 10
617.7897596125
 20
416.7468249774
 30
0.0
 11
612.7650880579
 21
418.0931802815
 31
0.0
  0
LINE
  5
28C
330
1F
100
AcDbEntity
  8
0
  6
Continuous
 62
     7
370
    15
100
AcDbLine
 10
618.4968644146
 20
415.5220803781
 30
0.0
 11
617.7897596125
 21
416.7468249774
 31
0.0
  0
LINE
  5
28D
330
1F
100
AcDbEntity
  8
0
  6
Continuous
 62
     7
370
    15
100
AcDbLine
 10
641.3724043731
 20
361.7698927386
 30
0.0
 11
639.8857602243
 21
362.1682380302
 31
0.0
  0
LINE
  5
28E
330
1F
100
AcDbEntity
  8
0
  6
Continuous
 62
     7
370
    15
100
AcDbLine
 10
638.8504796986
 20
358.3045345707
 30
0.0
 11
640.2999529008
 21
357.9161507054
 31
0.0
  0
LINE
  5
28F
330
1F
100
AcDbEntity
  8
0
  6
Continuous
 62
     7
370
    15
100
AcDbLine
 10
644.8371031646
 20
354.6298709674
 30
0.0
 11
645.1809623603
 21
354.5377370878
 31
0.0
  0
LINE
  5
290
330
1F
100
AcDbEntity
  8
0
  6
Continuous
 62
     7
370
    15
100
AcDbLine
 10
647.3806717757
 20
362.1789109869
 30
0.0
 11
647.273368514
 21
362.2327935858
 31
0.0
  0
LINE
  5
291
330
1F
100
AcDbEntity
  8
0
  6
Continuous
 62
     7
370
    15
100
AcDbLine
 10
645.1809623603
 20
354.5377370878
 30
0.0
 11
645.399279273
 21
354.5279246731
 31
0.0
  0
ARC
  5
292
330
1F
100
AcDbEntity
  8
0
  6
Continuous
 62
     7
370
    15
100
AcDbCircle
 10
641.7280684019
 20
359.6040411517
 30
0.0
 40
6.499999999999992
100
AcDbArc
 50
313.9823638146
 51
16.0176361854
  0
LINE
  5
293
330
1F
100
AcDbEntity
  8
0
  6
Continuous
 62
     7
370
    15
100
AcDbLine
 10
656.229011095
 20
417.8350968263
 30
0.0
 11
654.8972645168
 21
418.1919377273
 31
0.0
  0
LINE
  5
294
330
1F
100
AcDbEntity
  8
0
  6
Continuous
 62
     7
370
    15
100
AcDbLine
 10
653.8619914417
 20
414.3282347335
 30
0.0
 11
655.3486355905
 21
413.9298885106
 31
0.0
  0
LINE
  5
295
330
1F
100
AcDbEntity
  8
0
  6
Continuous
 62
     7
370
    15
100
AcDbLine
 10
662.263012803
 20
418.2888418412
 30
0.0
 11
661.5481444959
 21
418.4803911461
 31
0.0
  0
LINE
  5
296
330
1F
100
AcDbEntity
  8
0
  6
Continuous
 62
     7
370
    15
100
AcDbLine
 10
662.3921760682
 20
418.202610684
 30
0.0
 11
662.2848728065
 21
418.2564904889
 31
0.0
  0
LINE
  5
297
330
1F
100
AcDbEntity
  8
0
  6
Continuous
 62
     7
370
    15
100
AcDbLine
 10
660.1924666528
 20
410.5614353879
 30
0.0
 11
660.4107835655
 21
410.5516239046
 31
0.0
  0
ARC
  5
298
330
1F
100
AcDbEntity
  8
0
  6
Continuous
 62
     7
370
    15
100
AcDbCircle
 10
656.7395730179
 20
415.6277390765
 30
0.0
 40
6.500000000000076
100
AcDbArc
 50
313.9823638146
 51
16.0176361854
  0
LINE
  5
299
330
1F
100
AcDbEntity
  8
0
  6
Continuous
 62
     7
370
    15
100
AcDbLine
 10
626.7400601272
 20
425.7366366195
 30
0.0
 11
624.8339482908
 21
426.2473783432
 31
0.0
  0
LINE
  5
29A
330
1F
100
AcDbEntity
  8
0
  6
Continuous
 62
     7
370
    15
100
AcDbLine
 10
623.7986677651
 20
422.3836751165
 30
0.0
 11
625.7047870521
 21
421.8729333928
 31
0.0
  0
LINE
  5
29B
330
1F
100
AcDbEntity
  8
0
  6
Continuous
 62
     7
370
    15
100
AcDbLine
 10
652.5732943181
 20
375.573281662
 30
0.0
 11
652.6215889816
 21
375.5603400035
 31
0.0
  0
LINE
  5
29C
330
1F
100
AcDbEntity
  8
0
  6
Continuous
 62
     7
370
    15
100
AcDbLine
 10
658.1954875354
 20
396.3624187721
 30
0.0
 11
658.147192872
 21
396.3753604306
 31
0.0
  0
LINE
  5
29D
330
1F
100
AcDbEntity
  8
0
  6
Continuous
 62
     7
370
    15
100
AcDbLine
 10
619.7816648845
 20
412.5896277814
 30
0.0
 11
617.8498187427
 21
413.1072652502
 31
0.0
  0
SPLINE
  5
29E
330
1F
100
AcDbEntity
  8
0
  6
Continuous
 62
     7
370
    15
100
AcDbSpline
210
0.0
220
0.0
230
1.0
 70
     8
 71
     3
 72
    15
 73
    11
 74
     0
 42
0.00000001
 43
0.00000001
 12
1.0
 22
0.0
 32
0.0
 13
1.0
 23
0.0
 33
0.0
 40
0.0
 40
0.0
 40
0.0
 40
0.0
 40
0.1127072681414127
 40
0.2198712933538461
 40
0.3293843790836562
 40
0.4560116236609267
 40
0.6132188544683725
 40
0.7803859021501983
 40
0.9394143654662507
 40
1.0
 40
1.0
 40
1.0
 40
1.0
 10
641.5370324019702
 20
352.7188790006886
 30
0.0
 10
641.8017322599736
 20
352.6781691548539
 30
0.0
 10
642.3181133336127
 20
352.5987516815755
 30
0.0
 10
643.0529429351245
 20
352.8170039174055
 30
0.0
 10
643.6869480591828
 20
353.2025690099894
 30
0.0
 10
644.2833813347437
 20
353.7888287765344
 30
0.0
 10
644.8659245207044
 20
354.621919641431
 30
0.0
 10
645.4073263846522
 20
355.7079439712338
 30
0.0
 10
645.7688825588672
 20
356.6920866164236
 30
0.0
 10
645.9310871180322
 20
357.2709018741344
 30
0.0
 10
645.9758350018772
 20
357.4305814666996
 30
0.0
  0
LINE
  5
29F
330
1F
100
AcDbEntity
  8
0
  6
Continuous
 62
     7
370
    15
100
AcDbLine
 10
645.9758350019
 20
357.4305814667
 30
0.0
 11
661.2461575631
 21
414.4202037691
 31
0.0
  0
SPLINE
  5
2A0
330
1F
100
AcDbEntity
  8
0
  6
Continuous
 62
     7
370
    15
100
AcDbSpline
210
0.0
220
0.0
230
1.0
 70
     8
 71
     3
 72
    15
 73
    11
 74
     0
 42
0.00000001
 43
0.00000001
 12
1.0
 22
0.0
 32
0.0
 13
1.0
 23
0.0
 33
0.0
 40
0.0
 40
0.0
 40
0.0
 40
0.0
 40
0.0815962340422242
 40
0.2376380924769491
 40
0.3974092623318632
 40
0.5672459324927414
 40
0.7066729256417474
 40
0.822228033248516
 40
0.9331896326710444
 40
1.0
 40
1.0
 40
1.0
 40
1.0
 10
661.2461575631412
 20
414.4202037690529
 30
0.0
 10
661.3007266392259
 20
414.636883405858
 30
0.0
 10
661.4596517575384
 20
415.2679337989719
 30
0.0
 10
661.6281553114219
 20
416.3245268234932
 30
0.0
 10
661.6883690532509
 20
417.5308117136401
 30
0.0
 10
661.5796081642443
 20
418.5712101460005
 30
0.0
 10
661.2988455720238
 20
419.42759298966
 30
0.0
 10
660.8480682094095
 20
420.099747343627
 30
0.0
 10
660.3050108684887
 20
420.5343907678941
 30
0.0
 10
659.9073415208477
 20
420.6693414698763
 30
0.0
 10
659.7578891877446
 20
420.7200587237576
 30
0.0
  0
LWPOLYLINE
  5
2A1
330
1F
100
AcDbEntity
  8
0
  6
Continuous
 62
     7
370
    15
100
AcDbPolyline
 90
       13
 70
   128
 43
0.0
 10
612.7650880579
 20
397.9945112927
 10
613.1315076117
 20
399.3620094819
 10
613.8133698468
 20
401.9067292078
 10
614.4738116626
 20
404.3715340061
 10
615.1010536913
 20
406.7124356492
 10
615.6838977103
 20
408.8876615255
 10
616.2119576101
 20
410.8583950414
 10
616.6758009557
 20
412.5894685252
 10
617.0671427016
 20
414.0499909384
 10
617.3790091042
 20
415.2138982876
 10
617.6058345799
 20
416.0604220791
 10
617.7435734634
 20
416.5744553296
 10
617.7897596125
 20
416.7468249774
  0
LWPOLYLINE
  5
2A2
330
1F
100
AcDbEntity
  8
0
  6
Continuous
 62
     7
370
    15
100
AcDbPolyline
 90
       14
 70
   128
 43
0.0
 10
618.4968644146
 20
415.5220803781
 10
618.4510656957
 20
415.3511435701
 10
618.3145114545
 20
414.8415164067
 10
618.0897423391
 20
414.0026927902
 10
617.7809604768
 20
412.8502993821
 10
617.3939102654
 20
411.405801305
 10
616.9357964162
 20
409.6961081935
 10
616.4151647453
 20
407.7530675544
 10
615.8417010073
 20
405.6128752394
 10
615.2260967855
 20
403.3153974427
 10
614.5798110728
 20
400.9034340246
 10
613.914891458
 20
398.4219138487
 10
613.2437133555
 20
395.9170640422
 10
612.7650880579
 20
394.1308096959
  0
LINE
  5
2A3
330
1F
100
AcDbEntity
  8
0
  6
Continuous
 62
     7
370
    15
100
AcDbLine
 10
470.6898474459
 20
474.9119211896
 30
0.0
 11
467.0948491756
 21
468.6851953132
 31
0.0
  0
LINE
  5
2A4
330
1F
100
AcDbEntity
  8
0
  6
Continuous
 62
     7
370
    15
100
AcDbLine
 10
459.9048489098
 20
481.1386433406
 30
0.0
 11
467.0948491756
 21
481.1386433406
 31
0.0
  0
LINE
  5
2A5
330
1F
100
AcDbEntity
  8
0
  6
Continuous
 62
     7
370
    15
100
AcDbLine
 10
459.9048489098
 20
468.6851953132
 30
0.0
 11
456.3098506395
 21
474.9119211896
 31
0.0
  0
LINE
  5
2A6
330
1F
100
AcDbEntity
  8
0
  6
Continuous
 62
     7
370
    15
100
AcDbLine
 10
456.3098506395
 20
474.9119211896
 30
0.0
 11
459.9048489098
 21
481.1386433406
 31
0.0
  0
LINE
  5
2A7
330
1F
100
AcDbEntity
  8
0
  6
Continuous
 62
     7
370
    15
100
AcDbLine
 10
467.0948491756
 20
481.1386433406
 30
0.0
 11
470.6898474459
 21
474.9119211896
 31
0.0
  0
LINE
  5
2A8
330
1F
100
AcDbEntity
  8
0
  6
Continuous
 62
     7
370
    15
100
AcDbLine
 10
467.0948491756
 20
468.6851953132
 30
0.0
 11
459.9048489098
 21
468.6851953132
 31
0.0
  0
ARC
  5
2A9
330
1F
100
AcDbEntity
  8
0
  6
Continuous
 62
     7
370
    15
100
AcDbCircle
 10
463.4998489849
 20
474.9119193847
 30
0.0
 40
7.190000000000017
100
AcDbArc
 50
60.0
 51
120.0
  0
ARC
  5
2AA
330
1F
100
AcDbEntity
  8
0
  6
Continuous
 62
     7
370
    15
100
AcDbCircle
 10
463.4998489849
 20
474.9119193847
 30
0.0
 40
7.189999999999988
100
AcDbArc
 50
0.0
 51
60.0
  0
ARC
  5
2AB
330
1F
100
AcDbEntity
  8
0
  6
Continuous
 62
     7
370
    15
100
AcDbCircle
 10
463.4998489849
 20
474.9119193847
 30
0.0
 40
7.189999999999988
100
AcDbArc
 50
300.0
 51
0.0
  0
ARC
  5
2AC
330
1F
100
AcDbEntity
  8
0
  6
Continuous
 62
     7
370
    15
100
AcDbCircle
 10
463.4998489849
 20
474.9119193847
 30
0.0
 40
7.190000000000017
100
AcDbArc
 50
120.0
 51
180.0
  0
ARC
  5
2AD
330
1F
100
AcDbEntity
  8
0
  6
Continuous
 62
     7
370
    15
100
AcDbCircle
 10
463.4998489849
 20
474.9119193847
 30
0.0
 40
7.189999999999988
100
AcDbArc
 50
240.0
 51
300.0
  0
ARC
  5
2AE
330
1F
100
AcDbEntity
  8
0
  6
Continuous
 62
     7
370
    15
100
AcDbCircle
 10
463.4998489849
 20
474.9119193847
 30
0.0
 40
7.189999999999998
100
AcDbArc
 50
180.0
 51
240.0
  0
LINE
  5
2AF
330
1F
100
AcDbEntity
  8
0
  6
Continuous
 62
     7
370
    15
100
AcDbLine
 10
470.6898474459
 20
372.3814343078
 30
0.0
 11
467.0948491756
 21
366.1547121568
 31
0.0
  0
LINE
  5
2B0
330
1F
100
AcDbEntity
  8
0
  6
Continuous
 62
     7
370
    15
100
AcDbLine
 10
467.0948491756
 20
366.1547121568
 30
0.0
 11
459.9048489098
 21
366.1547121568
 31
0.0
  0
LINE
  5
2B1
330
1F
100
AcDbEntity
  8
0
  6
Continuous
 62
     7
370
    15
100
AcDbLine
 10
467.0948491756
 20
378.6081601842
 30
0.0
 11
470.6898474459
 21
372.3814343078
 31
0.0
  0
LINE
  5
2B2
330
1F
100
AcDbEntity
  8
0
  6
Continuous
 62
     7
370
    15
100
AcDbLine
 10
459.9048489098
 20
378.6081601842
 30
0.0
 11
467.0948491756
 21
378.6081601842
 31
0.0
  0
LINE
  5
2B3
330
1F
100
AcDbEntity
  8
0
  6
Continuous
 62
     7
370
    15
100
AcDbLine
 10
456.3098506395
 20
372.3814343078
 30
0.0
 11
459.9048489098
 21
378.6081601842
 31
0.0
  0
LINE
  5
2B4
330
1F
100
AcDbEntity
  8
0
  6
Continuous
 62
     7
370
    15
100
AcDbLine
 10
459.9048489098
 20
366.1547121568
 30
0.0
 11
456.3098506395
 21
372.3814343078
 31
0.0
  0
ARC
  5
2B5
330
1F
100
AcDbEntity
  8
0
  6
Continuous
 62
     7
370
    15
100
AcDbCircle
 10
463.4998489849
 20
372.3814361127
 30
0.0
 40
7.190000000000055
100
AcDbArc
 50
0.0
 51
60.0
  0
ARC
  5
2B6
330
1F
100
AcDbEntity
  8
0
  6
Continuous
 62
     7
370
    15
100
AcDbCircle
 10
463.4998489849
 20
372.3814361127
 30
0.0
 40
7.189999999999998
100
AcDbArc
 50
120.0
 51
180.0
  0
ARC
  5
2B7
330
1F
100
AcDbEntity
  8
0
  6
Continuous
 62
     7
370
    15
100
AcDbCircle
 10
463.4998489849
 20
372.3814361127
 30
0.0
 40
7.190000000000055
100
AcDbArc
 50
300.0
 51
0.0
  0
ARC
  5
2B8
330
1F
100
AcDbEntity
  8
0
  6
Continuous
 62
     7
370
    15
100
AcDbCircle
 10
463.4998489849
 20
372.3814361127
 30
0.0
 40
7.190000000000017
100
AcDbArc
 50
60.0
 51
120.0
  0
ARC
  5
2B9
330
1F
100
AcDbEntity
  8
0
  6
Continuous
 62
     7
370
    15
100
AcDbCircle
 10
463.4998489849
 20
372.3814361127
 30
0.0
 40
7.189999999999998
100
AcDbArc
 50
180.0
 51
240.0
  0
ARC
  5
2BA
330
1F
100
AcDbEntity
  8
0
  6
Continuous
 62
     7
370
    15
100
AcDbCircle
 10
463.4998489849
 20
372.3814361127
 30
0.0
 40
7.190000000000017
100
AcDbArc
 50
240.0
 51
300.0
  0
LINE
  5
2BB
330
1F
100
AcDbEntity
  8
0
  6
Continuous
 62
     7
370
    15
100
AcDbLine
 10
562.4353320662
 20
481.1386433406
 30
0.0
 11
569.6253323321
 21
481.1386433406
 31
0.0
  0
LINE
  5
2BC
330
1F
100
AcDbEntity
  8
0
  6
Continuous
 62
     7
370
    15
100
AcDbLine
 10
569.6253323321
 20
481.1386433406
 30
0.0
 11
573.2203306023
 21
474.9119211896
 31
0.0
  0
LINE
  5
2BD
330
1F
100
AcDbEntity
  8
0
  6
Continuous
 62
     7
370
    15
100
AcDbLine
 10
573.2203306023
 20
474.9119211896
 30
0.0
 11
569.6253323321
 21
468.6851953132
 31
0.0
  0
LINE
  5
2BE
330
1F
100
AcDbEntity
  8
0
  6
Continuous
 62
     7
370
    15
100
AcDbLine
 10
562.4353320662
 20
468.6851953132
 30
0.0
 11
558.840333796
 21
474.9119211896
 31
0.0
  0
LINE
  5
2BF
330
1F
100
AcDbEntity
  8
0
  6
Continuous
 62
     7
370
    15
100
AcDbLine
 10
558.840333796
 20
474.9119211896
 30
0.0
 11
562.4353320662
 21
481.1386433406
 31
0.0
  0
LINE
  5
2C0
330
1F
100
AcDbEntity
  8
0
  6
Continuous
 62
     7
370
    15
100
AcDbLine
 10
569.6253323321
 20
468.6851953132
 30
0.0
 11
562.4353320662
 21
468.6851953132
 31
0.0
  0
ARC
  5
2C1
330
1F
100
AcDbEntity
  8
0
  6
Continuous
 62
     7
370
    15
100
AcDbCircle
 10
566.030332257
 20
474.9119193847
 30
0.0
 40
7.190000000000055
100
AcDbArc
 50
180.0
 51
240.0
  0
ARC
  5
2C2
330
1F
100
AcDbEntity
  8
0
  6
Continuous
 62
     7
370
    15
100
AcDbCircle
 10
566.030332257
 20
474.9119193847
 30
0.0
 40
7.190000000000017
100
AcDbArc
 50
240.0
 51
300.0
  0
ARC
  5
2C3
330
1F
100
AcDbEntity
  8
0
  6
Continuous
 62
     7
370
    15
100
AcDbCircle
 10
566.030332257
 20
474.9119193847
 30
0.0
 40
7.190000000000066
100
AcDbArc
 50
120.0
 51
180.0
  0
ARC
  5
2C4
330
1F
100
AcDbEntity
  8
0
  6
Continuous
 62
     7
370
    15
100
AcDbCircle
 10
566.030332257
 20
474.9119193847
 30
0.0
 40
7.190000000000066
100
AcDbArc
 50
60.0
 51
120.0
  0
ARC
  5
2C5
330
1F
100
AcDbEntity
  8
0
  6
Continuous
 62
     7
370
    15
100
AcDbCircle
 10
566.030332257
 20
474.9119193847
 30
0.0
 40
7.190000000000066
100
AcDbArc
 50
0.0
 51
60.0
  0
ARC
  5
2C6
330
1F
100
AcDbEntity
  8
0
  6
Continuous
 62
     7
370
    15
100
AcDbCircle
 10
566.030332257
 20
474.9119193847
 30
0.0
 40
7.190000000000017
100
AcDbArc
 50
300.0
 51
0.0
  0
LINE
  5
2C7
330
1F
100
AcDbEntity
  8
0
  6
Continuous
 62
     7
370
    15
100
AcDbLine
 10
569.6253323321
 20
378.6081601842
 30
0.0
 11
573.2203306023
 21
372.3814343078
 31
0.0
  0
LINE
  5
2C8
330
1F
100
AcDbEntity
  8
0
  6
Continuous
 62
     7
370
    15
100
AcDbLine
 10
573.2203306023
 20
372.3814343078
 30
0.0
 11
569.6253323321
 21
366.1547121568
 31
0.0
  0
LINE
  5
2C9
330
1F
100
AcDbEntity
  8
0
  6
Continuous
 62
     7
370
    15
100
AcDbLine
 10
569.6253323321
 20
366.1547121568
 30
0.0
 11
562.4353320662
 21
366.1547121568
 31
0.0
  0
LINE
  5
2CA
330
1F
100
AcDbEntity
  8
0
  6
Continuous
 62
     7
370
    15
100
AcDbLine
 10
562.4353320662
 20
366.1547121568
 30
0.0
 11
558.840333796
 21
372.3814343078
 31
0.0
  0
LINE
  5
2CB
330
1F
100
AcDbEntity
  8
0
  6
Continuous
 62
     7
370
    15
100
AcDbLine
 10
562.4353320662
 20
378.6081601842
 30
0.0
 11
569.6253323321
 21
378.6081601842
 31
0.0
  0
LINE
  5
2CC
330
1F
100
AcDbEntity
  8
0
  6
Continuous
 62
     7
370
    15
100
AcDbLine
 10
558.840333796
 20
372.3814343078
 30
0.0
 11
562.4353320662
 21
378.6081601842
 31
0.0
  0
ARC
  5
2CD
330
1F
100
AcDbEntity
  8
0
  6
Continuous
 62
     7
370
    15
100
AcDbCircle
 10
566.030332257
 20
372.3814361127
 30
0.0
 40
7.190000000000009
100
AcDbArc
 50
180.0
 51
240.0
  0
ARC
  5
2CE
330
1F
100
AcDbEntity
  8
0
  6
Continuous
 62
     7
370
    15
100
AcDbCircle
 10
566.030332257
 20
372.3814361127
 30
0.0
 40
7.190000000000073
100
AcDbArc
 50
0.0
 51
60.0
  0
ARC
  5
2CF
330
1F
100
AcDbEntity
  8
0
  6
Continuous
 62
     7
370
    15
100
AcDbCircle
 10
566.030332257
 20
372.3814361127
 30
0.0
 40
7.190000000000066
100
AcDbArc
 50
300.0
 51
0.0
  0
ARC
  5
2D0
330
1F
100
AcDbEntity
  8
0
  6
Continuous
 62
     7
370
    15
100
AcDbCircle
 10
566.030332257
 20
372.3814361127
 30
0.0
 40
7.18999999999996
100
AcDbArc
 50
120.0
 51
180.0
  0
ARC
  5
2D1
330
1F
100
AcDbEntity
  8
0
  6
Continuous
 62
     7
370
    15
100
AcDbCircle
 10
566.030332257
 20
372.3814361127
 30
0.0
 40
7.190000000000066
100
AcDbArc
 50
240.0
 51
300.0
  0
ARC
  5
2D2
330
1F
100
AcDbEntity
  8
0
  6
Continuous
 62
     7
370
    15
100
AcDbCircle
 10
566.030332257
 20
372.3814361127
 30
0.0
 40
7.190000000000073
100
AcDbArc
 50
60.0
 51
120.0
  0
SPLINE
  5
2D3
330
1F
100
AcDbEntity
  8
0
  6
Continuous
 62
     7
370
    15
100
AcDbSpline
210
0.0
220
0.0
230
1.0
 70
     8
 71
     3
 72
    15
 73
    11
 74
     0
 42
0.00000001
 43
0.00000001
 12
1.0
 22
0.0
 32
0.0
 13
1.0
 23
0.0
 33
0.0
 40
0.0
 40
0.0
 40
0.0
 40
0.0
 40
0.1249999053834623
 40
0.2500000296035733
 40
0.3749999942636322
 40
0.5000000000000339
 40
0.6250000057363677
 40
0.7499999703964266
 40
0.8750000946165377
 40
1.0
 40
1.0
 40
1.0
 40
1.0
 10
521.7650908369931
 20
462.6466785533676
 30
0.0
 10
521.6598692946139
 20
463.5628521232973
 30
0.0
 10
521.4494260256448
 20
465.3952008670968
 30
0.0
 10
519.8306849909054
 20
467.7252891668598
 30
0.0
 10
517.516867903236
 20
469.2822006238374
 30
0.0
 10
514.765090620926
 20
469.8289164751919
 30
0.0
 10
512.0133133386162
 20
469.2822006238371
 30
0.0
 10
509.699496250947
 20
467.7252891668598
 30
0.0
 10
508.0807552162077
 20
465.3952008670968
 30
0.0
 10
507.8703119472386
 20
463.5628521232973
 30
0.0
 10
507.7650904048594
 20
462.6466785533676
 30
0.0
  0
LINE
  5
2D4
330
1F
100
AcDbEntity
  8
0
  6
Continuous
 62
     7
370
    15
100
AcDbLine
 10
521.765090837
 20
457.5878013833
 30
0.0
 11
521.765090837
 21
462.6466785534
 31
0.0
  0
ARC
  5
2D5
330
1F
100
AcDbEntity
  8
0
  6
Continuous
 62
     7
370
    15
100
AcDbCircle
 10
526.7650906209
 20
457.5878032457
 30
0.0
 40
5.0
100
AcDbArc
 50
180.0
 51
250.5287793655
  0
ARC
  5
2D6
330
1F
100
AcDbEntity
  8
0
  6
Continuous
 62
     7
370
    15
100
AcDbCircle
 10
514.7650906209
 20
423.6466777487
 30
0.0
 40
31.00000000000002
100
AcDbArc
 50
349.4712206345
 51
70.5287793655
  0
ARC
  5
2D7
330
1F
100
AcDbEntity
  8
0
  6
Continuous
 62
     7
370
    15
100
AcDbCircle
 10
550.1589675343
 20
417.0684198456
 30
0.0
 40
5.000000000000066
100
AcDbArc
 50
169.4712206345
 51
240.0
  0
LINE
  5
2D8
330
1F
100
AcDbEntity
  8
0
  6
Continuous
 62
     7
370
    15
100
AcDbLine
 10
552.0400808517
 20
410.2088552876
 30
0.0
 11
547.6589680974
 21
412.7382929413
 31
0.0
  0
SPLINE
  5
2D9
330
1F
100
AcDbEntity
  8
0
  6
Continuous
 62
     7
370
    15
100
AcDbSpline
210
0.0
220
0.0
230
1.0
 70
     8
 71
     3
 72
    15
 73
    11
 74
     0
 42
0.00000001
 43
0.00000001
 12
1.0
 22
0.0
 32
0.0
 13
1.0
 23
0.0
 33
0.0
 40
0.0
 40
0.0
 40
0.0
 40
0.0
 40
0.1249999727422009
 40
0.2500000625127978
 40
0.3749999674345826
 40
0.5000000245580339
 40
0.6249999973002349
 40
0.7500000075823017
 40
0.8750000271869244
 40
1.0
 40
1.0
 40
1.0
 40
1.0
 10
545.0400815669807
 20
398.0844994051704
 30
0.0
 10
545.8861223955422
 20
397.7175366110869
 30
0.0
 10
547.5782048447518
 20
396.9836106793592
 30
0.0
 10
550.4054908266096
 20
397.2204406118039
 30
0.0
 10
552.910723796171
 20
398.4458082634239
 30
0.0
 10
554.7600844002238
 20
400.5555573488381
 30
0.0
 10
555.6625033558933
 20
403.2120259337735
 30
0.0
 10
555.4710809327944
 20
405.9943044209991
 30
0.0
 10
554.2625409156985
 20
408.5612217003402
 30
0.0
 10
552.7809007806119
 20
409.6596441603603
 30
0.0
 10
552.040080851725
 20
410.2088552875767
 30
0.0
  0
LINE
  5
2DA
330
1F
100
AcDbEntity
  8
0
  6
Continuous
 62
     7
370
    15
100
AcDbLine
 10
540.65896695
 20
400.6139379902
 30
0.0
 11
545.040081567
 21
398.0844994052
 31
0.0
  0
ARC
  5
2DB
330
1F
100
AcDbEntity
  8
0
  6
Continuous
 62
     7
370
    15
100
AcDbCircle
 10
538.1589675343
 20
396.2838101548
 30
0.0
 40
5.000000000000066
100
AcDbArc
 50
60.0
 51
130.5287793655
  0
ARC
  5
2DC
330
1F
100
AcDbEntity
  8
0
  6
Continuous
 62
     7
370
    15
100
AcDbCircle
 10
514.7650906209
 20
423.6466777487
 30
0.0
 40
31.00000000000002
100
AcDbArc
 50
229.4712206345
 51
310.5287793655
  0
ARC
  5
2DD
330
1F
100
AcDbEntity
  8
0
  6
Continuous
 62
     7
370
    15
100
AcDbCircle
 10
491.3712137075
 20
396.2838101548
 30
0.0
 40
5.000000000000038
100
AcDbArc
 50
49.4712206345
 51
120.0
  0
LINE
  5
2DE
330
1F
100
AcDbEntity
  8
0
  6
Continuous
 62
     7
370
    15
100
AcDbLine
 10
484.4900996749
 20
398.0844994052
 30
0.0
 11
488.8712142919
 21
400.6139379902
 31
0.0
  0
SPLINE
  5
2DF
330
1F
100
AcDbEntity
  8
0
  6
Continuous
 62
     7
370
    15
100
AcDbSpline
210
0.0
220
0.0
230
1.0
 70
     8
 71
     3
 72
    15
 73
    11
 74
     0
 42
0.00000001
 43
0.00000001
 12
1.0
 22
0.0
 32
0.0
 13
1.0
 23
0.0
 33
0.0
 40
0.0
 40
0.0
 40
0.0
 40
0.0
 40
0.1249999728130756
 40
0.2499999924176984
 40
0.3750000026997652
 40
0.4999999754419661
 40
0.6250000325654175
 40
0.7499999374872023
 40
0.8750000272577991
 40
1.0
 40
1.0
 40
1.0
 40
1.0
 10
477.4901003901275
 20
410.2088552875767
 30
0.0
 10
476.7492804612406
 20
409.6596441603603
 30
0.0
 10
475.267640326154
 20
408.5612217003402
 30
0.0
 10
474.0591003090581
 20
405.994304420999
 30
0.0
 10
473.8676778859592
 20
403.2120259337735
 30
0.0
 10
474.7700968416287
 20
400.5555573488381
 30
0.0
 10
476.6194574456814
 20
398.4458082634239
 30
0.0
 10
479.1246904152429
 20
397.2204406118039
 30
0.0
 10
481.9519763971006
 20
396.9836106793592
 30
0.0
 10
483.6440588463103
 20
397.7175366110869
 30
0.0
 10
484.4900996748718
 20
398.0844994051704
 30
0.0
  0
LINE
  5
2E0
330
1F
100
AcDbEntity
  8
0
  6
Continuous
 62
     7
370
    15
100
AcDbLine
 10
481.8712131445
 20
412.7382929413
 30
0.0
 11
477.4901003901
 21
410.2088552876
 31
0.0
  0
ARC
  5
2E1
330
1F
100
AcDbEntity
  8
0
  6
Continuous
 62
     7
370
    15
100
AcDbCircle
 10
479.3712137075
 20
417.0684198456
 30
0.0
 40
4.999999999999967
100
AcDbArc
 50
300.0
 51
10.5287793655
  0
ARC
  5
2E2
330
1F
100
AcDbEntity
  8
0
  6
Continuous
 62
     7
370
    15
100
AcDbCircle
 10
514.7650906209
 20
423.6466777487
 30
0.0
 40
31.00000000000001
100
AcDbArc
 50
109.4712206345
 51
190.5287793655
  0
ARC
  5
2E3
330
1F
100
AcDbEntity
  8
0
  6
Continuous
 62
     7
370
    15
100
AcDbCircle
 10
502.7650906209
 20
457.5878032457
 30
0.0
 40
5.000000000000006
100
AcDbArc
 50
289.4712206345
 51
0.0
  0
CIRCLE
  5
2E4
330
1F
100
AcDbEntity
  8
0
  6
Continuous
 62
     7
370
    15
100
AcDbCircle
 10
514.7650906209
 20
462.6466777487
 30
0.0
 40
2.5
  0
CIRCLE
  5
2E5
330
1F
100
AcDbEntity
  8
0
  6
Continuous
 62
     7
370
    15
100
AcDbCircle
 10
548.5400813685
 20
404.1466777487
 30
0.0
 40
2.5
  0
CIRCLE
  5
2E6
330
1F
100
AcDbEntity
  8
0
  6
Continuous
 62
     7
370
    15
100
AcDbCircle
 10
480.9900998733
 20
404.1466777487
 30
0.0
 40
2.5
  0
LINE
  5
2E7
330
1F
100
AcDbEntity
  8
0
  6
Continuous
 62
     7
370
    15
100
AcDbLine
 10
507.7650904049
 20
462.6466785534
 30
0.0
 11
507.7650904049
 21
457.5878013833
 31
0.0
  0
SPLINE
  5
2E8
330
1F
100
AcDbEntity
  8
0
  6
Continuous
 62
     7
370
    15
100
AcDbSpline
210
0.0
220
0.0
230
1.0
 70
     8
 71
     3
 72
    17
 73
    13
 74
     0
 42
0.00000001
 43
0.00000001
 12
1.0
 22
0.0
 32
0.0
 13
1.0
 23
0.0
 33
0.0
 40
0.0
 40
0.0
 40
0.0
 40
0.0
 40
0.1213783473240104
 40
0.2287704143932521
 40
0.3361526731291627
 40
0.4436164546014184
 40
0.5508534581634676
 40
0.6584382597736178
 40
0.7657324509372235
 40
0.8731532639263067
 40
0.9805548816852668
 40
1.0
 40
1.0
 40
1.0
 40
1.0
 10
521.7650908369931
 20
471.6466781659374
 30
0.0
 10
521.6663444643693
 20
472.5376991890596
 30
0.0
 10
521.4802301442867
 20
474.2170699597675
 30
0.0
 10
520.1221972005011
 20
476.3458864116955
 30
0.0
 10
518.2768810544518
 20
477.8582499357727
 30
0.0
 10
516.0201376306053
 20
478.6690448330413
 30
0.0
 10
513.6251730365493
 20
478.6888206600324
 30
0.0
 10
511.35857564317
 20
477.9150983883769
 30
0.0
 10
509.4745278927531
 20
476.432847683042
 30
0.0
 10
508.1923836373529
 20
474.4143822293198
 30
0.0
 10
507.7850245134011
 20
472.713668630483
 30
0.0
 10
507.7677400472521
 20
471.7885025751672
 30
0.0
 10
507.7650904048594
 20
471.6466781659374
 30
0.0
  0
LINE
  5
2E9
330
1F
100
AcDbEntity
  8
0
  6
Continuous
 62
     7
370
    15
100
AcDbLine
 10
521.765090837
 20
462.6466785534
 30
0.0
 11
521.765090837
 21
471.6466781659
 31
0.0
  0
LINE
  5
2EA
330
1F
100
AcDbEntity
  8
0
  6
Continuous
 62
     7
370
    15
100
AcDbLine
 10
507.7650904049
 20
471.6466781659
 30
0.0
 11
507.7650904049
 21
462.6466785534
 31
0.0
  0
SPLINE
  5
2EB
330
1F
100
AcDbEntity
  8
0
  6
Continuous
 62
     7
370
    15
100
AcDbSpline
210
0.0
220
0.0
230
1.0
 70
     8
 71
     3
 72
    17
 73
    13
 74
     0
 42
0.00000001
 43
0.00000001
 12
1.0
 22
0.0
 32
0.0
 13
1.0
 23
0.0
 33
0.0
 40
0.0
 40
0.0
 40
0.0
 40
0.0
 40
0.1213783310908782
 40
0.2287705016429374
 40
0.3361527474989803
 40
0.4436164547390193
 40
0.5508534261661047
 40
0.6584383144708851
 40
0.765732531611393
 40
0.873153182975337
 40
0.9805547654929891
 40
0.9999999999999999
 40
0.9999999999999999
 40
0.9999999999999999
 40
0.9999999999999999
 10
469.6958729390415
 20
405.7088554812918
 30
0.0
 10
468.9735989526722
 20
405.1778284689506
 30
0.0
 10
467.6122770371351
 20
404.1769635294887
 30
0.0
 10
466.4476829470642
 20
401.9364636688523
 30
0.0
 10
466.060595619289
 20
399.5821905722584
 30
0.0
 10
466.486798465271
 20
397.222396652935
 30
0.0
 10
467.6671524327958
 20
395.1384071903628
 30
0.0
 10
469.4705168200924
 20
393.562337166971
 30
0.0
 10
471.6962087007233
 20
392.6718351977846
 30
0.0
 10
474.0853227054329
 20
392.5706906521437
 30
0.0
 10
475.7618608040969
 20
393.0682709593925
 30
0.0
 10
476.5717228192356
 20
393.515882152831
 30
0.0
 10
476.6958722237857
 20
393.5844995988855
 30
0.0
  0
LINE
  5
2EC
330
1F
100
AcDbEntity
  8
0
  6
Continuous
 62
     7
370
    15
100
AcDbLine
 10
469.695872939
 20
405.7088554813
 30
0.0
 11
477.4901003901
 21
410.2088552876
 31
0.0
  0
LINE
  5
2ED
330
1F
100
AcDbEntity
  8
0
  6
Continuous
 62
     7
370
    15
100
AcDbLine
 10
484.4900996749
 20
398.0844994052
 30
0.0
 11
476.6958722238
 21
393.5844995989
 31
0.0
  0
LINE
  5
2EE
330
1F
100
AcDbEntity
  8
0
  6
Continuous
 62
     7
370
    15
100
AcDbLine
 10
552.8343090181
 20
393.5844995989
 30
0.0
 11
545.040081567
 21
398.0844994052
 31
0.0
  0
SPLINE
  5
2EF
330
1F
100
AcDbEntity
  8
0
  6
Continuous
 62
     7
370
    15
100
AcDbSpline
210
0.0
220
0.0
230
1.0
 70
     8
 71
     3
 72
    17
 73
    13
 74
     0
 42
0.00000001
 43
0.00000001
 12
1.0
 22
0.0
 32
0.0
 13
1.0
 23
0.0
 33
0.0
 40
0.0
 40
0.0
 40
0.0
 40
0.0
 40
0.121378379260704
 40
0.2287704068150261
 40
0.3361527147093739
 40
0.443616457756994
 40
0.5508534193744581
 40
0.6584381958343088
 40
0.7657324172266152
 40
0.8731530943169563
 40
0.9805547443855832
 40
1.0
 40
1.0
 40
1.0
 40
1.0
 10
552.8343090180667
 20
393.5844995988855
 30
0.0
 10
553.6553294023233
 20
393.2245054544489
 30
0.0
 10
555.2027645258917
 20
392.5459990567246
 30
0.0
 10
557.7253908257663
 20
392.6576826523462
 30
0.0
 10
559.9577954487556
 20
393.4995902888618
 30
0.0
 10
561.7883339130904
 20
395.0485925169862
 30
0.0
 10
563.0029471018001
 20
397.1128020141882
 30
0.0
 10
563.4661782692233
 20
399.4625957655138
 30
0.0
 10
563.1245360659874
 20
401.8353535548671
 30
0.0
 10
562.0175677346186
 20
403.9549562581653
 30
0.0
 10
560.7483866919524
 20
405.1580995016215
 30
0.0
 10
559.955808236716
 20
405.6356486142192
 30
0.0
 10
559.834308302811
 20
405.7088554812918
 30
0.0
  0
LINE
  5
2F0
330
1F
100
AcDbEntity
  8
0
  6
Continuous
 62
     7
370
    15
100
AcDbLine
 10
552.0400808517
 20
410.2088552876
 30
0.0
 11
559.8343083028
 21
405.7088554813
 31
0.0
  0
CIRCLE
  5
2F1
330
1F
100
AcDbEntity
  8
0
  6
Continuous
 62
     7
370
    15
100
AcDbCircle
 10
548.5400813685
 20
404.1466777487
 30
0.0
 40
2.100000000000023
  0
CIRCLE
  5
2F2
330
1F
100
AcDbEntity
  8
0
  6
Continuous
 62
     7
370
    15
100
AcDbCircle
 10
480.9900998733
 20
404.1466777487
 30
0.0
 40
2.100000000000023
  0
CIRCLE
  5
2F3
330
1F
100
AcDbEntity
  8
0
  6
Continuous
 62
     7
370
    15
100
AcDbCircle
 10
514.7650906209
 20
462.6466777487
 30
0.0
 40
2.100000000000023
  0
ARC
  5
2F4
330
1F
100
AcDbEntity
  8
0
  6
Continuous
 62
     7
370
    15
100
AcDbCircle
 10
465.9870551484
 20
484.5129512952
 30
0.0
 40
2.00000000000002
100
AcDbArc
 50
65.240102306
 51
128.708573461
  0
LINE
  5
2F5
330
1F
100
AcDbEntity
  8
0
  6
Continuous
 62
     7
370
    15
100
AcDbLine
 10
477.3793810372
 20
481.4611007436
 30
0.0
 11
466.8246873979
 21
486.3290903135
 31
0.0
  0
ARC
  5
2F6
330
1F
100
AcDbEntity
  8
0
  6
Continuous
 62
     7
370
    15
100
AcDbCircle
 10
478.6358305233
 20
484.1853147073
 30
0.0
 40
2.999999999999943
100
AcDbArc
 50
245.240102306
 51
300.8286141035
  0
ARC
  5
2F7
330
1F
100
AcDbEntity
  8
0
  6
Continuous
 62
     7
370
    15
100
AcDbCircle
 10
514.7650906209
 20
423.6466777487
 30
0.0
 40
67.50000000000007
100
AcDbArc
 50
59.1713858965
 51
120.8286141035
  0
ARC
  5
2F8
330
1F
100
AcDbEntity
  8
0
  6
Continuous
 62
     7
370
    15
100
AcDbCircle
 10
550.8943507185
 20
484.1853147073
 30
0.0
 40
3.000000000000005
100
AcDbArc
 50
239.1713858965
 51
294.759897694
  0
LINE
  5
2F9
330
1F
100
AcDbEntity
  8
0
  6
Continuous
 62
     7
370
    15
100
AcDbLine
 10
562.705493844
 20
486.3290903135
 30
0.0
 11
552.1508002047
 21
481.4611007436
 31
0.0
  0
ARC
  5
2FA
330
1F
100
AcDbEntity
  8
0
  6
Continuous
 62
     7
370
    15
100
AcDbCircle
 10
563.5431260935
 20
484.5129512952
 30
0.0
 40
2.000000000000035
100
AcDbArc
 50
51.291426539
 51
114.759897694
  0
ARC
  5
2FB
330
1F
100
AcDbEntity
  8
0
  6
Continuous
 62
     7
370
    15
100
AcDbCircle
 10
514.7650906209
 20
423.6466777487
 30
0.0
 40
80.00000000000003
100
AcDbArc
 50
38.708573461
 51
51.291426539
  0
ARC
  5
2FC
330
1F
100
AcDbEntity
  8
0
  6
Continuous
 62
     7
370
    15
100
AcDbCircle
 10
575.6313641674
 20
472.4247132212
 30
0.0
 40
2.000000000000011
100
AcDbArc
 50
335.240102306
 51
38.708573461
  0
LINE
  5
2FD
330
1F
100
AcDbEntity
  8
0
  6
Continuous
 62
     7
370
    15
100
AcDbLine
 10
572.5795136158
 20
461.0323873325
 30
0.0
 11
577.4475031857
 21
471.5870809717
 31
0.0
  0
ARC
  5
2FE
330
1F
100
AcDbEntity
  8
0
  6
Continuous
 62
     7
370
    15
100
AcDbCircle
 10
575.3037275795
 20
459.7759378463
 30
0.0
 40
3.000000000000009
100
AcDbArc
 50
155.240102306
 51
210.8286141035
  0
ARC
  5
2FF
330
1F
100
AcDbEntity
  8
0
  6
Continuous
 62
     7
370
    15
100
AcDbCircle
 10
514.7650906209
 20
423.6466777487
 30
0.0
 40
67.50000000000001
100
AcDbArc
 50
329.1713858965
 51
30.8286141035
  0
ARC
  5
300
330
1F
100
AcDbEntity
  8
0
  6
Continuous
 62
     7
370
    15
100
AcDbCircle
 10
575.3037275795
 20
387.5174176511
 30
0.0
 40
2.999999999999954
100
AcDbArc
 50
149.1713858965
 51
204.759897694
  0
LINE
  5
301
330
1F
100
AcDbEntity
  8
0
  6
Continuous
 62
     7
370
    15
100
AcDbLine
 10
577.4475031857
 20
375.7062745257
 30
0.0
 11
572.5795136158
 21
386.2609681649
 31
0.0
  0
ARC
  5
302
330
1F
100
AcDbEntity
  8
0
  6
Continuous
 62
     7
370
    15
100
AcDbCircle
 10
575.6313641674
 20
374.8686422762
 30
0.0
 40
2.000000000000012
100
AcDbArc
 50
321.291426539
 51
24.759897694
  0
ARC
  5
303
330
1F
100
AcDbEntity
  8
0
  6
Continuous
 62
     7
370
    15
100
AcDbCircle
 10
514.7650906209
 20
423.6466777487
 30
0.0
 40
79.99999999999999
100
AcDbArc
 50
308.708573461
 51
321.291426539
  0
ARC
  5
304
330
1F
100
AcDbEntity
  8
0
  6
Continuous
 62
     7
370
    15
100
AcDbCircle
 10
563.5431260935
 20
362.7804042022
 30
0.0
 40
1.999999999999988
100
AcDbArc
 50
245.240102306
 51
308.708573461
  0
LINE
  5
305
330
1F
100
AcDbEntity
  8
0
  6
Continuous
 62
     7
370
    15
100
AcDbLine
 10
552.1508002047
 20
365.8322547539
 30
0.0
 11
562.705493844
 21
360.964265184
 31
0.0
  0
ARC
  5
306
330
1F
100
AcDbEntity
  8
0
  6
Continuous
 62
     7
370
    15
100
AcDbCircle
 10
550.8943507185
 20
363.1080407902
 30
0.0
 40
3.000000000000005
100
AcDbArc
 50
65.240102306
 51
120.8286141035
  0
ARC
  5
307
330
1F
100
AcDbEntity
  8
0
  6
Continuous
 62
     7
370
    15
100
AcDbCircle
 10
514.7650906209
 20
423.6466777487
 30
0.0
 40
67.50000000000004
100
AcDbArc
 50
239.1713858965
 51
300.8286141035
  0
ARC
  5
308
330
1F
100
AcDbEntity
  8
0
  6
Continuous
 62
     7
370
    15
100
AcDbCircle
 10
478.6358305233
 20
363.1080407902
 30
0.0
 40
3.000000000000057
100
AcDbArc
 50
59.1713858965
 51
114.759897694
  0
LINE
  5
309
330
1F
100
AcDbEntity
  8
0
  6
Continuous
 62
     7
370
    15
100
AcDbLine
 10
466.8246873979
 20
360.964265184
 30
0.0
 11
477.3793810372
 21
365.8322547539
 31
0.0
  0
ARC
  5
30A
330
1F
100
AcDbEntity
  8
0
  6
Continuous
 62
     7
370
    15
100
AcDbCircle
 10
465.9870551484
 20
362.7804042022
 30
0.0
 40
1.99999999999996
100
AcDbArc
 50
231.291426539
 51
294.759897694
  0
ARC
  5
30B
330
1F
100
AcDbEntity
  8
0
  6
Continuous
 62
     7
370
    15
100
AcDbCircle
 10
514.7650906209
 20
423.6466777487
 30
0.0
 40
80.00000000000003
100
AcDbArc
 50
218.708573461
 51
231.291426539
  0
ARC
  5
30C
330
1F
100
AcDbEntity
  8
0
  6
Continuous
 62
     7
370
    15
100
AcDbCircle
 10
453.8988170744
 20
374.8686422762
 30
0.0
 40
1.999999999999976
100
AcDbArc
 50
155.240102306
 51
218.708573461
  0
LINE
  5
30D
330
1F
100
AcDbEntity
  8
0
  6
Continuous
 62
     7
370
    15
100
AcDbLine
 10
456.9506676261
 20
386.2609681649
 30
0.0
 11
452.0826780562
 21
375.7062745257
 31
0.0
  0
ARC
  5
30E
330
1F
100
AcDbEntity
  8
0
  6
Continuous
 62
     7
370
    15
100
AcDbCircle
 10
454.2264536624
 20
387.5174176511
 30
0.0
 40
2.999999999999992
100
AcDbArc
 50
335.240102306
 51
30.8286141035
  0
ARC
  5
30F
330
1F
100
AcDbEntity
  8
0
  6
Continuous
 62
     7
370
    15
100
AcDbCircle
 10
514.7650906209
 20
423.6466777487
 30
0.0
 40
67.5
100
AcDbArc
 50
149.1713858965
 51
210.8286141035
  0
ARC
  5
310
330
1F
100
AcDbEntity
  8
0
  6
Continuous
 62
     7
370
    15
100
AcDbCircle
 10
454.2264536624
 20
459.7759378463
 30
0.0
 40
3.000000000000041
100
AcDbArc
 50
329.1713858965
 51
24.759897694
  0
LINE
  5
311
330
1F
100
AcDbEntity
  8
0
  6
Continuous
 62
     7
370
    15
100
AcDbLine
 10
452.0826780562
 20
471.5870809717
 30
0.0
 11
456.9506676261
 21
461.0323873325
 31
0.0
  0
ARC
  5
312
330
1F
100
AcDbEntity
  8
0
  6
Continuous
 62
     7
370
    15
100
AcDbCircle
 10
453.8988170744
 20
472.4247132212
 30
0.0
 40
2.000000000000064
100
AcDbArc
 50
141.291426539
 51
204.759897694
  0
ARC
  5
313
330
1F
100
AcDbEntity
  8
0
  6
Continuous
 62
     7
370
    15
100
AcDbCircle
 10
514.7650906209
 20
423.6466777487
 30
0.0
 40
80.00000000000004
100
AcDbArc
 50
128.708573461
 51
141.291426539
  0
ARC
  5
314
330
1F
100
AcDbEntity
  8
0
  6
Continuous
 62
     7
370
    15
100
AcDbCircle
 10
502.7650906209
 20
472.1853221468
 30
0.0
 40
5.000000000000625
100
AcDbArc
 50
0.0
 51
103.8865403626
  0
ARC
  5
315
330
1F
100
AcDbEntity
  8
0
  6
Continuous
 62
     7
370
    15
100
AcDbCircle
 10
514.7650906209
 20
423.6466777487
 30
0.0
 40
55.00000000000001
100
AcDbArc
 50
103.8865403626
 51
196.1134596374
  0
ARC
  5
316
330
1F
100
AcDbEntity
  8
0
  6
Continuous
 62
     7
370
    15
100
AcDbCircle
 10
466.729391507
 20
409.7696603951
 30
0.0
 40
4.999999999999996
100
AcDbArc
 50
196.1134596374
 51
300.0
  0
ARC
  5
317
330
1F
100
AcDbEntity
  8
0
  6
Continuous
 62
     7
370
    15
100
AcDbCircle
 10
478.729391507
 20
388.9850507043
 30
0.0
 40
5.000000000000004
100
AcDbArc
 50
120.0
 51
223.8865403626
  0
ARC
  5
318
330
1F
100
AcDbEntity
  8
0
  6
Continuous
 62
     7
370
    15
100
AcDbCircle
 10
514.7650906209
 20
423.6466777487
 30
0.0
 40
55.00000000000001
100
AcDbArc
 50
223.8865403626
 51
316.1134596374
  0
ARC
  5
319
330
1F
100
AcDbEntity
  8
0
  6
Continuous
 62
     7
370
    15
100
AcDbCircle
 10
550.8007897349
 20
388.9850507043
 30
0.0
 40
5.000000000000016
100
AcDbArc
 50
316.1134596374
 51
60.0
  0
ARC
  5
31A
330
1F
100
AcDbEntity
  8
0
  6
Continuous
 62
     7
370
    15
100
AcDbCircle
 10
562.8007897349
 20
409.7696603951
 30
0.0
 40
4.999999999999967
100
AcDbArc
 50
240.0
 51
343.8865403626
  0
ARC
  5
31B
330
1F
100
AcDbEntity
  8
0
  6
Continuous
 62
     7
370
    15
100
AcDbCircle
 10
514.7650906209
 20
423.6466777487
 30
0.0
 40
54.99999999999997
100
AcDbArc
 50
343.8865403626
 51
76.1134596374
  0
ARC
  5
31C
330
1F
100
AcDbEntity
  8
0
  6
Continuous
 62
     7
370
    15
100
AcDbCircle
 10
526.7650906209
 20
472.1853221468
 30
0.0
 40
5.000000000000025
100
AcDbArc
 50
76.1134596374
 51
180.0
  0
LINE
  5
31D
330
1F
100
AcDbEntity
  8
0
  6
Continuous
 62
     7
370
    15
100
AcDbLine
 10
553.3007898692
 20
393.3151778741
 30
0.0
 11
552.8343090181
 21
393.5844995989
 31
0.0
  0
LINE
  5
31E
330
1F
100
AcDbEntity
  8
0
  6
Continuous
 62
     7
370
    15
100
AcDbLine
 10
559.8343083028
 20
405.7088554813
 30
0.0
 11
560.300789154
 21
405.4395337565
 31
0.0
  0
LINE
  5
31F
330
1F
100
AcDbEntity
  8
0
  6
Continuous
 62
     7
370
    15
100
AcDbLine
 10
469.2293920879
 20
405.4395337565
 30
0.0
 11
469.695872939
 21
405.7088554813
 31
0.0
  0
LINE
  5
320
330
1F
100
AcDbEntity
  8
0
  6
Continuous
 62
     7
370
    15
100
AcDbLine
 10
476.6958722238
 20
393.5844995989
 30
0.0
 11
476.2293913726
 21
393.3151778741
 31
0.0
  0
LINE
  5
321
330
1F
100
AcDbEntity
  8
0
  6
Continuous
 62
     7
370
    15
100
AcDbLine
 10
521.765090837
 20
472.1853216155
 30
0.0
 11
521.765090837
 21
471.6466781659
 31
0.0
  0
LINE
  5
322
330
1F
100
AcDbEntity
  8
0
  6
Continuous
 62
     7
370
    15
100
AcDbLine
 10
507.7650904049
 20
471.6466781659
 30
0.0
 11
507.7650904049
 21
472.1853216155
 31
0.0
  0
CIRCLE
  5
323
330
1F
100
AcDbEntity
  8
0
  6
Continuous
 62
     7
370
    15
100
AcDbCircle
 10
514.7650906209
 20
423.6466777487
 30
0.0
 40
19.5
  0
LWPOLYLINE
  5
324
330
1F
100
AcDbEntity
  8
0
  6
Continuous
 62
     7
370
    15
100
AcDbPolyline
 90
       17
 70
   128
 43
0.0
 10
638.8504796986
 20
358.3045345707
 10
638.6370280151
 20
358.5193422599
 10
638.5348805551
 20
358.9955535693
 10
638.5595866803
 20
359.6606668992
 10
638.7073838476
 20
360.4134288593
 10
638.9557713036
 20
361.1392420693
 10
639.2669373516
 20
361.7276032431
 10
639.5935037498
 20
362.0889377756
 10
639.8857602243
 20
362.1682380302
 10
640.0992044572
 20
361.9534340663
 10
640.2013519172
 20
361.4772264822
 10
640.1766457919
 20
360.812109427
 10
640.0288560752
 20
360.059347467
 10
639.7804686193
 20
359.333534257
 10
639.4693025712
 20
358.7451768084
 10
639.1427361731
 20
358.3838385506
 10
638.8504796986
 20
358.3045345707
  0
LWPOLYLINE
  5
325
330
1F
100
AcDbEntity
  8
0
  6
Continuous
 62
     7
370
    15
100
AcDbPolyline
 90
       11
 70
   128
 43
0.0
 10
647.5558200244
 20
362.0237489207
 10
647.8212991123
 20
361.7654670937
 10
648.0345198278
 20
361.1416858597
 10
648.0955102805
 20
360.2427733107
 10
647.9983100061
 20
359.1567096277
 10
647.7524259452
 20
357.9898220463
 10
647.3819234733
 20
356.8563205166
 10
646.9230720166
 20
355.8671590848
 10
646.4207985763
 20
355.119172947
 10
645.9242471818
 20
354.6855789585
 10
645.6074931983
 20
354.5932364626
  0
LWPOLYLINE
  5
326
330
1F
100
AcDbEntity
  8
0
  6
Continuous
 62
     7
370
    15
100
AcDbPolyline
 90
       17
 70
   128
 43
0.0
 10
653.8619914417
 20
414.3282347335
 10
653.6485323076
 20
414.5430386974
 10
653.5463848476
 20
415.0192490755
 10
653.5710909728
 20
415.684364268
 10
653.7188955907
 20
416.4371285564
 10
653.9672830467
 20
417.1629399037
 10
654.2784341935
 20
417.751299215
 10
654.6050080423
 20
418.1126356101
 10
654.8972645168
 20
418.1919377273
 10
655.1107087497
 20
417.9771328321
 10
655.2128562097
 20
417.5009233853
 10
655.1881500844
 20
416.8358077271
 10
655.0403603677
 20
416.0830434388
 10
654.7919729118
 20
415.3572325571
 10
654.4808068637
 20
414.7688723145
 10
654.154233015
 20
414.4075368507
 10
653.8619914417
 20
414.3282347335
  0
LWPOLYLINE
  5
327
330
1F
100
AcDbEntity
  8
0
  6
Continuous
 62
     7
370
    15
100
AcDbPolyline
 90
       11
 70
   128
 43
0.0
 10
662.5673243169
 20
418.0474448925
 10
662.8328034047
 20
417.7891635312
 10
663.0460241203
 20
417.1653850912
 10
663.107014573
 20
416.2664697482
 10
663.0098142986
 20
415.1804107217
 10
662.7639302377
 20
414.0135175525
 10
662.3934277658
 20
412.8800150914
 10
661.9345763091
 20
411.8908573849
 10
661.4323028688
 20
411.1428712471
 10
660.9357514743
 20
410.7092744647
 10
660.6189974908
 20
410.616938488
  0
LWPOLYLINE
  5
328
330
1F
100
AcDbEntity
  8
0
  6
Continuous
 62
     7
370
    15
100
AcDbPolyline
 90
       17
 70
   128
 43
0.0
 10
623.7986677651
 20
422.3836751165
 10
623.5852235321
 20
422.5984797789
 10
623.4830760721
 20
423.0746894003
 10
623.5077821974
 20
423.7398051895
 10
623.6555793647
 20
424.4925694051
 10
623.9039593701
 20
425.2183804032
 10
624.2151254181
 20
425.8067402965
 10
624.5416918163
 20
426.168076226
 10
624.8339482908
 20
426.2473783432
 10
625.0473925237
 20
426.0325736808
 10
625.1495399837
 20
425.5563641176
 10
625.1248338584
 20
424.8912482266
 10
624.9770366911
 20
424.1384840546
 10
624.7286566858
 20
423.4126730274
 10
624.4174906377
 20
422.8243132796
 10
624.0909242396
 20
422.4629772337
 10
623.7986677651
 20
422.3836751165
  0
LINE
  5
329
330
1F
100
AcDbEntity
  8
0
  6
Continuous
 62
     7
370
    15
100
AcDbLine
 10
652.8321125869
 20
376.5392047329
 30
0.0
 11
652.8804072503
 21
376.5262667997
 31
0.0
  0
LWPOLYLINE
  5
32A
330
1F
100
AcDbEntity
  8
0
  6
Continuous
 62
     7
370
    15
100
AcDbPolyline
 90
        7
 70
   128
 43
0.0
 10
652.8804072503
 20
376.5262667997
 10
652.8134265308
 20
376.2762662931
 10
652.7510055665
 20
376.043301539
 10
652.6973911886
 20
375.8432534499
 10
652.6562639837
 20
375.6897491379
 10
652.630410469
 20
375.5932529433
 10
652.6215889816
 20
375.5603400035
  0
LINE
  5
32B
330
1F
100
AcDbEntity
  8
0
  6
Continuous
 62
     7
370
    15
100
AcDbLine
 10
657.9366692666
 20
395.3964938386
 30
0.0
 11
657.8883746032
 21
395.4094354971
 31
0.0
  0
LINE
  5
32C
330
1F
100
AcDbEntity
  8
0
  6
Continuous
 62
     7
370
    15
100
AcDbLine
 10
657.9366692666
 20
395.3964938386
 30
0.0
 11
652.8804072503
 21
376.5262667997
 31
0.0
  0
LWPOLYLINE
  5
32D
330
1F
100
AcDbEntity
  8
0
  6
Continuous
 62
     7
370
    15
100
AcDbPolyline
 90
        7
 70
   128
 43
0.0
 10
658.1954875354
 20
396.3624187721
 10
658.186666048
 20
396.3295058323
 10
658.1608125333
 20
396.2330096377
 10
658.1196853284
 20
396.0795071883
 10
658.0660858516
 20
395.8794572367
 10
658.0036648874
 20
395.6464943452
 10
657.9366692666
 20
395.3964938386
  0
LINE
  5
32E
330
1F
100
AcDbEntity
  8
0
  6
Continuous
 62
     7
370
    15
100
AcDbLine
 10
657.7608206634
 20
394.5470363809
 30
0.0
 11
657.712526
 21
394.5599780394
 31
0.0
  0
LINE
  5
32F
330
1F
100
AcDbEntity
  8
0
  6
Continuous
 62
     7
370
    15
100
AcDbLine
 10
657.7608206634
 20
394.5470363809
 30
0.0
 11
653.1528451804
 21
377.3498390777
 31
0.0
  0
LINE
  5
330
330
1F
100
AcDbEntity
  8
0
  6
Continuous
 62
     7
370
    15
100
AcDbLine
 10
653.1528451804
 20
377.3498390777
 30
0.0
 11
653.104550517
 21
377.3627807362
 31
0.0
  0
LWPOLYLINE
  5
331
330
1F
100
AcDbEntity
  8
0
  6
Continuous
 62
     7
370
    15
100
AcDbPolyline
 90
        9
 70
   128
 43
0.0
 10
625.4612126712
 20
429.9098253226
 10
625.065489984
 20
429.9024702026
 10
624.6282899145
 20
429.6838142885
 10
624.166398621
 20
429.262259507
 10
623.697570837
 20
428.6540062143
 10
623.2398295168
 20
427.8824296756
 10
622.8107580308
 20
426.9771811063
 10
622.4268519644
 20
425.9730481984
 10
622.1028560166
 20
424.9086196045
  0
LINE
  5
332
330
1F
100
AcDbEntity
  8
0
  6
Continuous
 62
     7
370
    15
100
AcDbLine
 10
655.8548876409
 20
421.7658631945
 30
0.0
 11
625.4612126712
 21
429.9098253226
 31
0.0
  0
LWPOLYLINE
  5
333
330
1F
100
AcDbEntity
  8
0
  6
Continuous
 62
     7
370
    15
100
AcDbPolyline
 90
        9
 70
   128
 43
0.0
 10
656.2627026204
 20
415.7555145188
 10
656.5143385295
 20
416.8393332487
 10
656.6839286451
 20
417.9008924378
 10
656.7649611596
 20
418.8993959664
 10
656.7543366317
 20
419.7964724129
 10
656.6524573926
 20
420.5576474754
 10
656.4632126455
 20
421.1536697088
 10
656.1939188604
 20
421.5616341656
 10
655.8548876409
 20
421.7658631945
  0
LINE
  5
334
330
1F
100
AcDbEntity
  8
0
  6
Continuous
 62
     7
370
    15
100
AcDbLine
 10
640.9923800592
 20
358.7658894224
 30
0.0
 11
656.2627026204
 21
415.7555145188
 31
0.0
  0
LWPOLYLINE
  5
335
330
1F
100
AcDbEntity
  8
0
  6
Continuous
 62
     7
370
    15
100
AcDbPolyline
 90
        9
 70
   128
 43
0.0
 10
637.6340308551
 20
353.7646871968
 10
638.0297460918
 20
353.7720409198
 10
638.4669536118
 20
353.9906931086
 10
638.9288449053
 20
354.4122544093
 10
639.3976726894
 20
355.0205049081
 10
639.8554065589
 20
355.7920795841
 10
640.2844854955
 20
356.6973325773
 10
640.6683990125
 20
357.7014622255
 10
640.9923800592
 20
358.7658894224
  0
LINE
  5
336
330
1F
100
AcDbEntity
  8
0
  6
Continuous
 62
     7
370
    15
100
AcDbLine
 10
612.7650880579
 20
360.4283002181
 30
0.0
 11
637.6340308551
 21
353.7646871968
 31
0.0
  0
LINE
  5
337
330
1F
100
AcDbEntity
  8
0
  6
Continuous
 62
     7
370
    15
100
AcDbLine
 10
622.1028560166
 20
424.9086196045
 30
0.0
 11
618.8676202063
 21
412.834546992
 31
0.0
  0
LWPOLYLINE
  5
338
330
1F
100
AcDbEntity
  8
0
  6
Continuous
 62
     7
370
    15
100
AcDbPolyline
 90
        9
 70
   128
 43
0.0
 10
622.4992939595
 20
424.8023939994
 10
622.755079842
 20
425.6427325284
 10
623.0581620101
 20
426.4354689489
 10
623.396902657
 20
427.1501388843
 10
623.7582781677
 20
427.7592785633
 10
624.1284081106
 20
428.2394782616
 10
624.4930544261
 20
428.572284521
 10
624.8382174734
 20
428.7449079542
 10
625.1506277684
 20
428.7507142848
  0
LINE
  5
339
330
1F
100
AcDbEntity
  8
0
  6
Continuous
 62
     7
370
    15
100
AcDbLine
 10
622.4992939595
 20
424.8023939994
 30
0.0
 11
619.2640581493
 21
412.7283212705
 31
0.0
  0
LINE
  5
33A
330
1F
100
AcDbEntity
  8
0
  6
Continuous
 62
     7
370
    15
100
AcDbLine
 10
612.7650880579
 20
361.6706286533
 30
0.0
 11
637.9446157579
 21
354.923796372
 31
0.0
  0
LWPOLYLINE
  5
33B
330
1F
100
AcDbEntity
  8
0
  6
Continuous
 62
     7
370
    15
100
AcDbPolyline
 90
        9
 70
   128
 43
0.0
 10
640.5959495668
 20
358.8721198006
 10
640.3401562337
 20
358.0317762656
 10
640.0370815162
 20
357.2390419407
 10
639.6983334188
 20
356.5243747993
 10
639.3369579081
 20
355.9152302308
 10
638.9668354158
 20
355.4350328608
 10
638.6021816496
 20
355.1022228761
 10
638.2570260529
 20
354.9296003742
 10
637.9446157579
 20
354.923796372
  0
LINE
  5
33C
330
1F
100
AcDbEntity
  8
0
  6
Continuous
 62
     7
370
    15
100
AcDbLine
 10
640.5959495668
 20
358.8721198006
 30
0.0
 11
655.866272128
 21
415.8617397746
 31
0.0
  0
LWPOLYLINE
  5
33D
330
1F
100
AcDbEntity
  8
0
  6
Continuous
 62
     7
370
    15
100
AcDbPolyline
 90
        9
 70
   128
 43
0.0
 10
655.5443027381
 20
420.6067521567
 10
655.8119573955
 20
420.4455187986
 10
656.0245671634
 20
420.1234416081
 10
656.1739662055
 20
419.6528978622
 10
656.2544026737
 20
419.0519698872
 10
656.2627920274
 20
418.3437516889
 10
656.1988064412
 20
417.555459307
 10
656.0649195079
 20
416.7173868021
 10
655.866272128
 20
415.8617397746
  0
LINE
  5
33E
330
1F
100
AcDbEntity
  8
0
  6
Continuous
 62
     7
370
    15
100
AcDbLine
 10
655.5443027381
 20
420.6067521567
 30
0.0
 11
625.1506277684
 21
428.7507142848
 31
0.0
  0
LINE
  5
33F
330
1F
100
AcDbEntity
  8
0
  6
Continuous
 62
     7
370
    15
100
AcDbLine
 10
640.9923800592
 20
358.7658894224
 30
0.0
 11
644.895381606
 21
357.720088677
 31
0.0
  0
LWPOLYLINE
  5
340
330
1F
100
AcDbEntity
  8
0
  6
Continuous
 62
     7
370
    15
100
AcDbPolyline
 90
        9
 70
   128
 43
0.0
 10
641.537032402
 20
352.7188790007
 10
641.9327476386
 20
352.7262327237
 10
642.3699477081
 20
352.9448923631
 10
642.8318390016
 20
353.3664462133
 10
643.3006593351
 20
353.974696712
 10
643.7584081058
 20
354.7462788387
 10
644.1874721412
 20
355.6515243812
 10
644.5713856582
 20
356.6556540294
 10
644.895381606
 20
357.720088677
  0
LINE
  5
341
330
1F
100
AcDbEntity
  8
0
  6
Continuous
 62
     7
370
    15
100
AcDbLine
 10
641.537032402
 20
352.7188790007
 30
0.0
 11
637.6340308551
 21
353.7646871968
 31
0.0
  0
LINE
  5
342
330
1F
100
AcDbEntity
  8
0
  6
Continuous
 62
     7
370
    15
100
AcDbLine
 10
660.1657041673
 20
414.709710048
 30
0.0
 11
656.2627026204
 21
415.7555145188
 31
0.0
  0
LINE
  5
343
330
1F
100
AcDbEntity
  8
0
  6
Continuous
 62
     7
370
    15
100
AcDbLine
 10
644.895381606
 20
357.720088677
 30
0.0
 11
660.1657041673
 21
414.709710048
 31
0.0
  0
LINE
  5
344
330
1F
100
AcDbEntity
  8
0
  6
Continuous
 62
     7
370
    15
100
AcDbLine
 10
655.8548876409
 20
421.7658631945
 30
0.0
 11
659.7578891877
 21
420.7200587238
 31
0.0
  0
LWPOLYLINE
  5
345
330
1F
100
AcDbEntity
  8
0
  6
Continuous
 62
     7
370
    15
100
AcDbPolyline
 90
        9
 70
   128
 43
0.0
 10
660.1657041673
 20
414.709710048
 10
660.4173251752
 20
415.7935292436
 10
660.5869301919
 20
416.8550879671
 10
660.6679627065
 20
417.8535914956
 10
660.6573381786
 20
418.7506679422
 10
660.5554440383
 20
419.5118430047
 10
660.3662141923
 20
420.107865238
 10
660.0969055061
 20
420.5158296949
 10
659.7578891877
 20
420.7200587238
  0
ARC
  5
346
330
1F
100
AcDbEntity
  8
0
  6
Continuous
 62
     7
370
    15
100
AcDbCircle
 10
628.9129656998
 20
427.2400971875
 30
0.0
 40
0.4856283913884453
100
AcDbArc
 50
343.274747337
 51
73.1637485565
  0
LINE
  5
347
330
1F
100
AcDbEntity
  8
0
  6
Continuous
 62
     7
370
    15
100
AcDbLine
 10
648.6021646623
 20
365.837287621
 30
0.0
 11
659.3172618512
 21
405.8266174956
 31
0.0
  0
LWPOLYLINE
  5
348
330
1F
100
AcDbEntity
  8
0
  6
Continuous
 62
     7
370
    15
100
AcDbPolyline
 90
        9
 70
   128
 43
0.0
 10
659.3172618512
 20
405.8266174956
 10
659.5857360725
 20
405.7546821399
 10
659.8325738076
 20
405.6885414733
 10
660.0520381097
 20
405.6297377659
 10
660.2390178804
 20
405.5796363367
 10
660.3891619806
 20
405.5394050641
 10
660.4989686374
 20
405.5099789961
 10
660.5659046535
 20
405.4920473112
 10
660.5883905057
 20
405.4860216542
  0
LINE
  5
349
330
1F
100
AcDbEntity
  8
0
  6
Continuous
 62
     7
370
    15
100
AcDbLine
 10
660.5883905057
 20
405.4860216542
 30
0.0
 11
649.8732784156
 21
365.4966917796
 31
0.0
  0
LWPOLYLINE
  5
34A
330
1F
100
AcDbEntity
  8
0
  6
Continuous
 62
     7
370
    15
100
AcDbPolyline
 90
        9
 70
   128
 43
0.0
 10
648.6021646623
 20
365.837287621
 10
648.8706239824
 20
365.7653522654
 10
649.1174617175
 20
365.6992134614
 10
649.3369260196
 20
365.6404060288
 10
649.5239057903
 20
365.5903083248
 10
649.6740498904
 20
365.5500751896
 10
649.7838714484
 20
365.5206491215
 10
649.8507925634
 20
365.5027155741
 10
649.8732784156
 20
365.4966917796
  0
LWPOLYLINE
  5
34B
330
1F
100
AcDbEntity
  8
0
  6
Continuous
 62
     7
370
    15
100
AcDbPolyline
 90
        9
 70
   128
 43
0.0
 10
649.8732784156
 20
365.4966917796
 10
649.7217932109
 20
364.9313640757
 10
649.5761343602
 20
364.3877622648
 10
649.4419047002
 20
363.8867740495
 10
649.3242451314
 20
363.4476554556
 10
649.2276856069
 20
363.0872783227
 10
649.1559216146
 20
362.8194970055
 10
649.1117396716
 20
362.6545970304
 10
649.0968236093
 20
362.5989151163
  0
ARC
  5
34C
330
1F
100
AcDbEntity
  8
0
  6
Continuous
 62
     7
370
    15
100
AcDbCircle
 10
647.1649701556
 20
363.1165533835
 30
0.0
 40
2.000000000000061
100
AcDbArc
 50
294.7655702553
 51
345.0
  0
ARC
  5
34D
330
1F
100
AcDbEntity
  8
0
  6
Continuous
 62
     7
370
    15
100
AcDbCircle
 10
659.4329928934
 20
408.9014375496
 30
0.0
 40
2.000000000000004
100
AcDbArc
 50
345.0
 51
62.6654072805
  0
LWPOLYLINE
  5
34E
330
1F
100
AcDbEntity
  8
0
  6
Continuous
 62
     7
370
    15
100
AcDbPolyline
 90
       10
 70
   128
 43
0.0
 10
661.3648453121
 20
408.3837992488
 10
661.3530435924
 20
408.3397756307
 10
661.3180258636
 20
408.2090421556
 10
661.2608203058
 20
407.9955709143
 10
661.1831852559
 20
407.7058476372
 10
661.0874899987
 20
407.3486779793
 10
660.9766104583
 20
406.9349099858
 10
660.8539440994
 20
406.4771202369
 10
660.7232162122
 20
405.9892152412
 10
660.5883905057
 20
405.4860216542
  0
LINE
  5
34F
330
1F
100
AcDbEntity
  8
0
  6
Continuous
 62
     7
370
    15
100
AcDbLine
 10
639.4409233097
 20
356.0757753415
 30
0.0
 11
612.7650880579
 21
363.2235419913
 31
0.0
  0
ARC
  5
350
330
1F
100
AcDbEntity
  8
0
  6
Continuous
 62
     7
370
    15
100
AcDbCircle
 10
627.9655620233
 20
426.7175548323
 30
0.0
 40
0.7493382107676883
100
AcDbArc
 50
86.0992474776
 51
146.6970905507
  0
LINE
  5
351
330
1F
100
AcDbEntity
  8
0
  6
Continuous
 62
     7
370
    15
100
AcDbLine
 10
628.0165382985
 20
427.4651571153
 30
0.0
 11
656.0959586267
 21
419.9412979627
 31
0.0
  0
ARC
  5
352
330
1F
100
AcDbEntity
  8
0
  6
Continuous
 62
     7
370
    15
100
AcDbCircle
 10
613.3152292191
 20
368.3129673828
 30
0.0
 40
0.5639092598373341
100
AcDbArc
 50
192.6869610951
 51
246.9781404152
  0
LINE
  5
353
330
1F
100
AcDbEntity
  8
0
  6
Continuous
 62
     7
370
    15
100
AcDbLine
 10
638.857773817
 20
360.8907726569
 30
0.0
 11
613.094694293
 21
367.7939702733
 31
0.0
  0
ARC
  5
354
330
1F
100
AcDbEntity
  8
0
  6
Continuous
 62
     7
370
    15
100
AcDbCircle
 10
643.9973287838
 20
360.3233532445
 30
0.0
 40
3.531717092985712
100
AcDbArc
 50
133.0567442409
 51
153.2721274017
  0
LINE
  5
355
330
1F
100
AcDbEntity
  8
0
  6
Continuous
 62
     7
370
    15
100
AcDbLine
 10
641.7065927152
 20
363.0170826776
 30
0.0
 11
641.5861466293
 21
362.9039009078
 31
0.0
  0
LINE
  5
356
330
1F
100
AcDbEntity
  8
0
  6
Continuous
 62
     7
370
    15
100
AcDbLine
 10
654.9667337302
 20
412.8409367962
 30
0.0
 11
655.0144472484
 21
412.6826985715
 31
0.0
  0
ARC
  5
357
330
1F
100
AcDbEntity
  8
0
  6
Continuous
 62
     7
370
    15
100
AcDbCircle
 10
658.3447461633
 20
413.870105087
 30
0.0
 40
3.531310715412038
100
AcDbArc
 50
176.7265098369
 51
196.9442389136
  0
LINE
  5
358
330
1F
100
AcDbEntity
  8
0
  6
Continuous
 62
     7
370
    15
100
AcDbLine
 10
627.8473803167
 20
422.8517413115
 30
0.0
 11
653.6104598407
 21
415.9485436952
 31
0.0
  0
LWPOLYLINE
  5
359
330
1F
100
AcDbEntity
  8
0
  6
Continuous
 62
     7
370
    15
100
AcDbPolyline
 90
        9
 70
   128
 43
0.0
 10
626.7452457313
 20
421.7945185932
 10
626.8843331699
 20
422.0522877271
 10
627.0277791981
 20
422.2802075068
 10
627.1732219819
 20
422.4745160876
 10
627.3182549838
 20
422.6320066931
 10
627.460494018
 20
422.7500797109
 10
627.5975772504
 20
422.8267865814
 10
627.7272546057
 20
422.8608612879
 10
627.8473803167
 20
422.8517413115
  0
ARC
  5
35A
330
1F
100
AcDbEntity
  8
0
  6
Continuous
 62
     7
370
    15
100
AcDbCircle
 10
623.3607418037
 20
423.3310834691
 30
0.0
 40
3.716974368216365
100
AcDbArc
 50
313.312582342
 51
335.5819500703
  0
LINE
  5
35B
330
1F
100
AcDbEntity
  8
0
  6
Continuous
 62
     7
370
    15
100
AcDbLine
 10
625.7831522588
 20
420.5060747894
 30
0.0
 11
625.9105050329
 21
420.6265306542
 31
0.0
  0
LINE
  5
35C
330
1F
100
AcDbEntity
  8
0
  6
Continuous
 62
     7
370
    15
100
AcDbLine
 10
624.2120408778
 20
420.9270544792
 30
0.0
 11
624.5485016469
 21
422.1827579871
 31
0.0
  0
LWPOLYLINE
  5
35D
330
1F
100
AcDbEntity
  8
0
  6
Continuous
 62
     7
370
    15
100
AcDbPolyline
 90
        7
 70
   128
 43
0.0
 10
626.9631081585
 20
427.2297860565
 10
626.7548346285
 20
427.2259150142
 10
626.5247234468
 20
427.1108328807
 10
626.2816259031
 20
426.8889620411
 10
626.0348775749
 20
426.5688287536
 10
625.7939556007
 20
426.1627357895
 10
625.7165589694
 20
426.0108824795
  0
LINE
  5
35E
330
1F
100
AcDbEntity
  8
0
  6
Continuous
 62
     7
370
    15
100
AcDbLine
 10
626.9631081585
 20
427.2297860565
 30
0.0
 11
656.2199064855
 21
419.3904502293
 31
0.0
  0
LINE
  5
35F
330
1F
100
AcDbEntity
  8
0
  6
Continuous
 62
     7
370
    15
100
AcDbLine
 10
639.6983706717
 20
356.5244344039
 30
0.0
 11
612.7650880579
 21
363.7411822541
 31
0.0
  0
LWPOLYLINE
  5
360
330
1F
100
AcDbEntity
  8
0
  6
Continuous
 62
     7
370
    15
100
AcDbPolyline
 90
        5
 70
   128
 43
0.0
 10
626.8831559781
 20
423.6277423437
 10
626.6347685222
 20
422.9019312746
 10
626.3236024741
 20
422.3135715559
 10
625.997036076
 20
421.95223551
 10
625.7047870521
 20
421.8729333928
  0
LWPOLYLINE
  5
361
330
1F
100
AcDbEntity
  8
0
  6
Continuous
 62
     7
370
    15
100
AcDbPolyline
 90
        5
 70
   128
 43
0.0
 10
626.7400601272
 20
425.7366366195
 10
626.9535118107
 20
425.5218319571
 10
627.0556592707
 20
425.0456223939
 10
627.0309531454
 20
424.3805065611
 10
626.8831559781
 20
423.6277423437
  0
LINE
  5
362
330
1F
100
AcDbEntity
  8
0
  6
Continuous
 62
     7
370
    15
100
AcDbLine
 10
628.3691742782
 20
420.8484285022
 30
0.0
 11
652.6025005941
 21
414.3551276042
 31
0.0
  0
LINE
  5
363
330
1F
100
AcDbEntity
  8
0
  6
Continuous
 62
     7
370
    15
100
AcDbLine
 10
638.7815692786
 20
362.7746892138
 30
0.0
 11
614.5482429628
 21
369.2679894133
 31
0.0
  0
ELLIPSE
  5
364
330
1F
100
AcDbEntity
  8
0
  6
Continuous
 62
     7
370
    15
100
AcDbEllipse
 10
640.3344828222
 20
368.5702435798
 30
0.0
 11
1.552914270615134
 21
5.795554957734455
 31
0.0
210
0.0
220
0.0
230
1.0
 40
0.3639702343
 41
3.141592653589787
 42
4.712388980384696
  0
LINE
  5
365
330
1F
100
AcDbEntity
  8
0
  6
Continuous
 62
     7
370
    15
100
AcDbLine
 10
653.15899936
 20
407.9943583323
 30
0.0
 11
642.4438872699
 21
368.0050303204
 31
0.0
  0
ELLIPSE
  5
366
330
1F
100
AcDbEntity
  8
0
  6
Continuous
 62
     7
370
    15
100
AcDbEllipse
 10
651.0495912894
 20
408.5595727882
 30
0.0
 11
1.552914270615134
 21
5.795554957734396
 31
0.0
210
0.0
220
0.0
230
1.0
 40
0.3639702343
 41
4.712388980384697
 42
6.283185307179586
  0
LWPOLYLINE
  5
367
330
1F
100
AcDbEntity
  8
0
  6
Continuous
 62
     7
370
    15
100
AcDbPolyline
 90
        3
 70
   128
 43
0.0
 10
654.4115462665
 20
414.1809795959
 10
654.416582859
 20
414.0314334048
 10
654.4112780456
 20
413.8470911397
  0
ARC
  5
368
330
1F
100
AcDbEntity
  8
0
  6
Continuous
 62
     7
370
    15
100
AcDbCircle
 10
659.167819136
 20
413.382275502
 30
0.0
 40
4.779198334665744
100
AcDbArc
 50
174.4186999464
 51
196.6869743631
  0
ARC
  5
369
330
1F
100
AcDbEntity
  8
0
  6
Continuous
 62
     7
370
    15
100
AcDbCircle
 10
652.9128091448
 20
411.5010709406
 30
0.0
 40
1.752583626148831
100
AcDbArc
 50
355.3246752757
 51
16.879925885
  0
ARC
  5
36A
330
1F
100
AcDbEntity
  8
0
  6
Continuous
 62
     7
370
    15
100
AcDbCircle
 10
640.4770922425
 20
365.0913727929
 30
0.0
 40
1.752852670863284
100
AcDbArc
 50
313.1223863632
 51
334.6742374678
  0
ARC
  5
36B
330
1F
100
AcDbEntity
  8
0
  6
Continuous
 62
     7
370
    15
100
AcDbCircle
 10
644.9536342573
 20
360.3346123768
 30
0.0
 40
4.7790911869891
100
AcDbArc
 50
133.3127737206
 51
155.5815709955
  0
LWPOLYLINE
  5
36C
330
1F
100
AcDbEntity
  8
0
  6
Continuous
 62
     7
370
    15
100
AcDbPolyline
 90
        3
 70
   128
 43
0.0
 10
640.6020292405
 20
362.3102758987
 10
640.5144551162
 20
362.1479761763
 10
640.4353150491
 20
362.0209847553
  0
LINE
  5
36D
330
1F
100
AcDbEntity
  8
0
  6
Continuous
 62
     7
370
    15
100
AcDbLine
 10
639.3193149332
 20
361.8023809953
 30
0.0
 11
613.3535125617
 21
368.7598933442
 31
0.0
  0
LWPOLYLINE
  5
36E
330
1F
100
AcDbEntity
  8
0
  6
Continuous
 62
     7
370
    15
100
AcDbPolyline
 90
        9
 70
   128
 43
0.0
 10
613.3535125617
 20
368.7598933442
 10
613.2851385836
 20
368.7927392288
 10
613.2251614098
 20
368.8521427078
 10
613.1745570664
 20
368.9371277554
 10
613.1341749195
 20
369.0462862118
 10
613.1046706204
 20
369.1778187616
 10
613.0865359072
 20
369.3295610113
 10
613.0800688032
 20
369.49899839
 10
613.0853736166
 20
369.6833406551
  0
ARC
  5
36F
330
1F
100
AcDbEntity
  8
0
  6
Continuous
 62
     7
370
    15
100
AcDbCircle
 10
606.2893685296
 20
370.126139869
 30
0.0
 40
6.810415280037446
100
AcDbArc
 50
356.2721164399
 51
4.8151835294
  0
ARC
  5
370
330
1F
100
AcDbEntity
  8
0
  6
Continuous
 62
     7
370
    15
100
AcDbCircle
 10
620.7882592834
 20
424.2343915618
 30
0.0
 40
6.80979308133033
100
AcDbArc
 50
325.1841808927
 51
333.728043393
  0
LWPOLYLINE
  5
371
330
1F
100
AcDbEntity
  8
0
  6
Continuous
 62
     7
370
    15
100
AcDbPolyline
 90
        9
 70
   128
 43
0.0
 10
626.8946224217
 20
421.2201568274
 10
626.982196546
 20
421.3824558514
 10
627.0725199346
 20
421.5259607857
 10
627.1640875701
 20
421.6483032773
 10
627.2554093365
 20
421.7474639858
 10
627.3449653153
 20
421.8218063446
 10
627.4312802915
 20
421.8701032199
 10
627.5129237537
 20
421.8915576324
 10
627.5885620479
 20
421.8858155631
  0
LINE
  5
372
330
1F
100
AcDbEntity
  8
0
  6
Continuous
 62
     7
370
    15
100
AcDbLine
 10
627.5885620479
 20
421.8858155631
 30
0.0
 11
653.5543569688
 21
414.9282998382
 31
0.0
  0
ARC
  5
373
330
1F
100
AcDbEntity
  8
0
  6
Continuous
 62
     7
370
    15
100
AcDbCircle
 10
637.8514017441
 20
363.0542005737
 30
0.0
 40
0.9712560129175061
100
AcDbArc
 50
343.2747020098
 51
73.1637938838
  0
ELLIPSE
  5
374
330
1F
100
AcDbEntity
  8
0
  6
Continuous
 62
     7
370
    15
100
AcDbEllipse
 10
639.426809451
 20
368.8134539266
 30
0.0
 11
1.294095225512592
 21
4.829629131445357
 31
0.0
210
0.0
220
0.0
230
1.0
 40
0.4367642811
 41
3.141592653589793
 42
4.712388980384707
  0
LWPOLYLINE
  5
375
330
1F
100
AcDbEntity
  8
0
  6
Continuous
 62
     7
370
    15
100
AcDbPolyline
 90
        9
 70
   128
 43
0.0
 10
642.4438872699
 20
368.0050303204
 10
642.3830756311
 20
368.0213247402
 10
642.3025348548
 20
368.0429053469
 10
642.2041722898
 20
368.0692617758
 10
642.0902529125
 20
368.0997868045
 10
641.9634440307
 20
368.1337651773
 10
641.8266811733
 20
368.1704108579
 10
641.6831531886
 20
368.2088670297
 10
641.5362128381
 20
368.2482396229
  0
LINE
  5
376
330
1F
100
AcDbEntity
  8
0
  6
Continuous
 62
     7
370
    15
100
AcDbLine
 10
641.5362128381
 20
368.2482396229
 30
0.0
 11
652.2513249282
 21
408.237568566
 31
0.0
  0
LWPOLYLINE
  5
377
330
1F
100
AcDbEntity
  8
0
  6
Continuous
 62
     7
370
    15
100
AcDbPolyline
 90
        9
 70
   128
 43
0.0
 10
653.15899936
 20
407.9943583323
 10
653.0981877212
 20
408.0106546147
 10
653.0176469449
 20
408.0322333588
 10
652.9192843799
 20
408.0585916503
 10
652.8053650026
 20
408.0891157477
 10
652.6785412196
 20
408.1230959831
 10
652.5417932634
 20
408.1597398011
 10
652.3982652787
 20
408.1981959729
 10
652.2513249282
 20
408.237568566
  0
ELLIPSE
  5
378
330
1F
100
AcDbEntity
  8
0
  6
Continuous
 62
     7
370
    15
100
AcDbEllipse
 10
650.1419179182
 20
408.802783135
 30
0.0
 11
1.294095225512478
 21
4.829629131445358
 31
0.0
210
0.0
220
0.0
230
1.0
 40
0.4367642811
 41
4.712388980384686
 42
6.283185307179586
  0
ARC
  5
379
330
1F
100
AcDbEntity
  8
0
  6
Continuous
 62
     7
370
    15
100
AcDbCircle
 10
651.6572067272
 20
414.5781293447
 30
0.0
 40
0.9712416131574733
100
AcDbArc
 50
256.8354465253
 51
346.7261939486
  0
LINE
  5
37A
330
1F
100
AcDbEntity
  8
0
  6
Continuous
 62
     7
370
    15
100
AcDbLine
 10
638.1327131156
 20
363.9838253124
 30
0.0
 11
612.7650880579
 21
370.7810607715
 31
0.0
  0
LINE
  5
37B
330
1F
100
AcDbEntity
  8
0
  6
Continuous
 62
     7
370
    15
100
AcDbLine
 10
612.7650880579
 20
386.4034009142
 30
0.0
 11
620.8687120442
 21
416.6465159482
 31
0.0
  0
LWPOLYLINE
  5
37C
330
1F
100
AcDbEntity
  8
0
  6
Continuous
 62
     7
370
    15
100
AcDbPolyline
 90
        9
 70
   128
 43
0.0
 10
620.8687120442
 20
416.6465159482
 10
620.9058308367
 20
416.6365698887
 10
621.0157641534
 20
416.607113087
 10
621.1942875151
 20
416.5592780313
 10
621.4345314864
 20
416.4949031523
 10
621.7272796993
 20
416.4164620428
 10
622.0612743263
 20
416.3269693939
 10
622.4236780171
 20
416.2298641144
 10
622.800558186
 20
416.1288780136
  0
LINE
  5
37D
330
1F
100
AcDbEntity
  8
0
  6
Continuous
 62
     7
370
    15
100
AcDbLine
 10
652.2513249282
 20
408.237568566
 30
0.0
 11
622.800558186
 21
416.1288780136
 31
0.0
  0
CIRCLE
  5
37E
330
1F
100
AcDbEntity
  8
0
  6
Continuous
 62
     7
370
    15
100
AcDbCircle
 10
631.9318933498
 20
392.2519275778
 30
0.0
 40
10.99999999999995
  0
LWPOLYLINE
  5
37F
330
1F
100
AcDbEntity
  8
0
  6
Continuous
 62
     7
370
    15
100
AcDbPolyline
 90
        9
 70
   128
 43
0.0
 10
624.0946569804
 20
420.9585071052
 10
624.0697869424
 20
420.865707097
 10
623.9961454038
 20
420.5908733396
 10
623.8765635852
 20
420.1445677294
 10
623.7156235937
 20
419.5439415029
 10
623.5195243124
 20
418.8120760931
 10
623.2957908277
 20
417.9770969762
 10
623.0530285601
 20
417.0710919401
 10
622.800558186
 20
416.1288780136
  0
LINE
  5
380
330
1F
100
AcDbEntity
  8
0
  6
Continuous
 62
     7
370
    15
100
AcDbLine
 10
624.0946569804
 20
420.9585071052
 30
0.0
 11
651.4360078935
 21
413.632411973
 31
0.0
  0
LWPOLYLINE
  5
381
330
1F
100
AcDbEntity
  8
0
  6
Continuous
 62
     7
370
    15
100
AcDbPolyline
 90
        9
 70
   128
 43
0.0
 10
620.8687120442
 20
416.6465159482
 10
621.0201897983
 20
417.2118441178
 10
621.165848649
 20
417.7554473257
 10
621.3000857596
 20
418.2564350752
 10
621.4177453284
 20
418.6955541348
 10
621.5143123035
 20
419.0559298707
 10
621.5860613946
 20
419.3237130506
 10
621.6302433376
 20
419.4886134914
 10
621.6451668505
 20
419.5442935428
  0
ARC
  5
382
330
1F
100
AcDbEntity
  8
0
  6
Continuous
 62
     7
370
    15
100
AcDbCircle
 10
623.5770173244
 20
419.0266553374
 30
0.0
 40
2.000000000000061
100
AcDbArc
 50
75.0
 51
165.0
  0
ARC
  5
383
330
1F
100
AcDbEntity
  8
0
  6
Continuous
 62
     7
370
    15
100
AcDbCircle
 10
613.8482265112
 20
368.1248351145
 30
0.0
 40
0.4856283790750813
100
AcDbArc
 50
343.2749562277
 51
73.1636867636
  0
ARC
  5
384
330
1F
100
AcDbEntity
  8
0
  6
Continuous
 62
     7
370
    15
100
AcDbCircle
 10
613.8406538774
 20
368.0965954629
 30
0.0
 40
0.4856340033849494
100
AcDbArc
 50
256.83707621
 51
346.7249609341
  0
ARC
  5
385
330
1F
100
AcDbEntity
  8
0
  6
Continuous
 62
     7
370
    15
100
AcDbCircle
 10
628.3420883476
 20
422.2166780066
 30
0.0
 40
0.4856335582359123
100
AcDbArc
 50
343.2753491734
 51
73.1631421234
  0
ARC
  5
386
330
1F
100
AcDbEntity
  8
0
  6
Continuous
 62
     7
370
    15
100
AcDbCircle
 10
628.3345242279
 20
422.1884396734
 30
0.0
 40
0.4856313897437758
100
AcDbArc
 50
256.8366896026
 51
346.7249343434
  0
ARC
  5
387
330
1F
100
AcDbEntity
  8
0
  6
Continuous
 62
     7
370
    15
100
AcDbCircle
 10
613.6180692927
 20
369.5474974807
 30
0.0
 40
0.9712609413964353
100
AcDbArc
 50
343.2749921833
 51
73.1635037102
  0
ARC
  5
388
330
1F
100
AcDbEntity
  8
0
  6
Continuous
 62
     7
370
    15
100
AcDbCircle
 10
627.4238727536
 20
421.0714429072
 30
0.0
 40
0.971251974123722
100
AcDbArc
 50
256.8360534147
 51
346.7255705313
  0
LINE
  5
389
330
1F
100
AcDbEntity
  8
0
  6
Continuous
 62
     7
370
    15
100
AcDbLine
 10
545.6883826618
 20
483.6466764076
 30
0.0
 11
556.8895259265
 21
483.6466764076
 31
0.0
  0
LINE
  5
38A
330
1F
100
AcDbEntity
  8
0
  6
Continuous
 62
     7
370
    15
100
AcDbLine
 10
577.1920376782
 20
473.6754302843
 30
0.0
 11
577.9610195522
 21
472.7004696591
 31
0.0
  0
LINE
  5
38B
330
1F
100
AcDbEntity
  8
0
  6
Continuous
 62
     7
370
    15
100
AcDbLine
 10
577.9610195522
 20
472.7004696591
 30
0.0
 11
577.4475031857
 21
471.5870809717
 31
0.0
  0
LINE
  5
38C
330
1F
100
AcDbEntity
  8
0
  6
Continuous
 62
     7
370
    15
100
AcDbLine
 10
452.3381435637
 20
373.6179252131
 30
0.0
 11
451.5691616897
 21
374.5928858383
 31
0.0
  0
LINE
  5
38D
330
1F
100
AcDbEntity
  8
0
  6
Continuous
 62
     7
370
    15
100
AcDbLine
 10
451.5691616897
 20
374.5928858383
 30
0.0
 11
452.0826780562
 21
375.7062745257
 31
0.0
  0
LINE
  5
38E
330
1F
100
AcDbEntity
  8
0
  6
Continuous
 62
     7
370
    15
100
AcDbLine
 10
483.8417985801
 20
363.6466790898
 30
0.0
 11
472.6406553153
 21
363.6466790898
 31
0.0
  0
LINE
  5
38F
330
1F
100
AcDbEntity
  8
0
  6
Continuous
 62
     7
370
    15
100
AcDbLine
 10
452.3381435637
 20
473.6754302843
 30
0.0
 11
451.5691616897
 21
472.7004696591
 31
0.0
  0
LINE
  5
390
330
1F
100
AcDbEntity
  8
0
  6
Continuous
 62
     7
370
    15
100
AcDbLine
 10
451.5691616897
 20
472.7004696591
 30
0.0
 11
452.0826780562
 21
471.5870809717
 31
0.0
  0
LINE
  5
391
330
1F
100
AcDbEntity
  8
0
  6
Continuous
 62
     7
370
    15
100
AcDbLine
 10
483.8417985801
 20
483.6466764076
 30
0.0
 11
472.6406553153
 21
483.6466764076
 31
0.0
  0
LINE
  5
392
330
1F
100
AcDbEntity
  8
0
  6
Continuous
 62
     7
370
    15
100
AcDbLine
 10
577.1920376782
 20
373.6179252131
 30
0.0
 11
577.9610195522
 21
374.5928858383
 31
0.0
  0
LINE
  5
393
330
1F
100
AcDbEntity
  8
0
  6
Continuous
 62
     7
370
    15
100
AcDbLine
 10
577.9610195522
 20
374.5928858383
 30
0.0
 11
577.4475031857
 21
375.7062745257
 31
0.0
  0
LINE
  5
394
330
1F
100
AcDbEntity
  8
0
  6
Continuous
 62
     7
370
    15
100
AcDbLine
 10
545.6883826618
 20
363.6466790898
 30
0.0
 11
556.8895259265
 21
363.6466790898
 31
0.0
  0
ARC
  5
395
330
1F
100
AcDbEntity
  8
0
  6
Continuous
 62
     7
370
    15
100
AcDbCircle
 10
502.7650906209
 20
481.1466777487
 30
0.0
 40
10.00000000000002
100
AcDbArc
 50
90.0
 51
132.880866071
  0
LINE
  5
396
330
1F
100
AcDbEntity
  8
0
  6
Continuous
 62
     7
370
    15
100
AcDbLine
 10
502.7650905166
 20
491.1466804309
 30
0.0
 11
514.7650906209
 21
491.1466804309
 31
0.0
  0
ARC
  5
397
330
1F
100
AcDbEntity
  8
0
  6
Continuous
 62
     7
370
    15
100
AcDbCircle
 10
526.7650906209
 20
481.1466777487
 30
0.0
 40
10.0
100
AcDbArc
 50
47.119133929
 51
90.0
  0
LINE
  5
398
330
1F
100
AcDbEntity
  8
0
  6
Continuous
 62
     7
370
    15
100
AcDbLine
 10
514.7650906209
 20
491.1466804309
 30
0.0
 11
526.7650907252
 21
491.1466804309
 31
0.0
  0
LINE
  5
399
330
1F
100
AcDbEntity
  8
0
  6
Continuous
 62
     7
370
    15
100
AcDbLine
 10
519.7650905092
 20
356.3321200176
 30
0.0
 11
519.7650905092
 21
354.828078763
 31
0.0
  0
LINE
  5
39A
330
1F
100
AcDbEntity
  8
0
  6
Continuous
 62
     7
370
    15
100
AcDbLine
 10
509.7650907327
 20
354.828078763
 30
0.0
 11
509.7650907327
 21
356.3321200176
 31
0.0
  0
ARC
  5
39B
330
1F
100
AcDbEntity
  8
0
  6
Continuous
 62
     7
370
    15
100
AcDbCircle
 10
514.7650906209
 20
423.6466777487
 30
0.0
 40
69.00000000000003
100
AcDbArc
 50
265.8444897315
 51
274.1555102685
  0
CIRCLE
  5
39C
330
1F
100
AcDbEntity
  8
0
  6
Continuous
 62
     7
370
    15
100
AcDbCircle
 10
514.7650906209
 20
423.6466777487
 30
0.0
 40
85.0
  0
LINE
  5
39D
330
1F
100
AcDbEntity
  8
0
  6
Continuous
 62
     7
370
    15
100
AcDbLine
 10
612.7650880579
 20
488.4714451595
 30
0.0
 11
612.7650880579
 21
358.8219103379
 31
0.0
  0
ARC
  5
39E
330
1F
100
AcDbEntity
  8
0
  6
Continuous
 62
     7
370
    15
100
AcDbCircle
 10
514.7650906209
 20
423.6466777487
 30
0.0
 40
117.5
100
AcDbArc
 50
303.483726477
 51
326.516273523
  0
LINE
  5
39F
330
1F
100
AcDbEntity
  8
0
  6
Continuous
 62
     7
370
    15
100
AcDbLine
 10
579.5898580317
 20
325.6466803117
 30
0.0
 11
449.9403232102
 21
325.6466803117
 31
0.0
  0
ARC
  5
3A0
330
1F
100
AcDbEntity
  8
0
  6
Continuous
 62
     7
370
    15
100
AcDbCircle
 10
514.7650906209
 20
423.6466777487
 30
0.0
 40
117.5
100
AcDbArc
 50
213.483726477
 51
236.516273523
  0
LINE
  5
3A1
330
1F
100
AcDbEntity
  8
0
  6
Continuous
 62
     7
370
    15
100
AcDbLine
 10
416.7650931839
 20
358.8219103379
 30
0.0
 11
416.7650931839
 21
488.4714451595
 31
0.0
  0
ARC
  5
3A2
330
1F
100
AcDbEntity
  8
0
  6
Continuous
 62
     7
370
    15
100
AcDbCircle
 10
514.7650906209
 20
423.6466777487
 30
0.0
 40
117.5
100
AcDbArc
 50
123.483726477
 51
146.516273523
  0
LINE
  5
3A3
330
1F
100
AcDbEntity
  8
0
  6
Continuous
 62
     7
370
    15
100
AcDbLine
 10
449.9403232102
 20
521.6466751857
 30
0.0
 11
579.5898580317
 21
521.6466751857
 31
0.0
  0
ARC
  5
3A4
330
1F
100
AcDbEntity
  8
0
  6
Continuous
 62
     7
370
    15
100
AcDbCircle
 10
514.7650906209
 20
423.6466777487
 30
0.0
 40
117.5
100
AcDbArc
 50
33.483726477
 51
56.516273523
  0
CIRCLE
  5
3A5
330
1F
100
AcDbEntity
  8
0
  6
Continuous
 62
     7
370
    15
100
AcDbCircle
 10
570.4066133654
 20
334.6016276523
 30
0.0
 40
4.0
  0
CIRCLE
  5
3A6
330
1F
100
AcDbEntity
  8
0
  6
Continuous
 62
     7
370
    15
100
AcDbCircle
 10
459.1235678764
 20
512.6917278451
 30
0.0
 40
3.999999999999943
  0
CIRCLE
  5
3A7
330
1F
100
AcDbEntity
  8
0
  6
Continuous
 62
     7
370
    15
100
AcDbCircle
 10
590.7790695985
 20
499.6606567263
 30
0.0
 40
6.0
  0
CIRCLE
  5
3A8
330
1F
100
AcDbEntity
  8
0
  6
Continuous
 62
     7
370
    15
100
AcDbCircle
 10
438.7511116434
 20
499.6606567263
 30
0.0
 40
6.0
  0
CIRCLE
  5
3A9
330
1F
100
AcDbEntity
  8
0
  6
Continuous
 62
     7
370
    15
100
AcDbCircle
 10
590.7790695985
 20
347.6326987712
 30
0.0
 40
6.000000000000114
  0
CIRCLE
  5
3AA
330
1F
100
AcDbEntity
  8
0
  6
Continuous
 62
     7
370
    15
100
AcDbCircle
 10
438.7511116434
 20
347.6326987712
 30
0.0
 40
6.0
  0
LINE
  5
3AB
330
1F
100
AcDbEntity
  8
0
  6
Continuous
 62
     7
370
    15
100
AcDbLine
 10
529.7650902857
 20
538.6466798349
 30
0.0
 11
499.7650909562
 21
538.6466798349
 31
0.0
  0
LINE
  5
3AC
330
1F
100
AcDbEntity
  8
0
  6
Continuous
 62
     7
370
    15
100
AcDbLine
 10
539.7650909935
 20
538.6466798349
 30
0.0
 11
539.7650909935
 21
521.6466751857
 31
0.0
  0
LINE
  5
3AD
330
1F
100
AcDbEntity
  8
0
  6
Continuous
 62
     7
370
    15
100
AcDbLine
 10
529.7650902857
 20
538.6466798349
 30
0.0
 11
539.7650909935
 21
538.6466798349
 31
0.0
  0
LINE
  5
3AE
330
1F
100
AcDbEntity
  8
0
  6
Continuous
 62
     7
370
    15
100
AcDbLine
 10
489.7650902484
 20
521.6466751857
 30
0.0
 11
489.7650902484
 21
538.6466798349
 31
0.0
  0
LINE
  5
3AF
330
1F
100
AcDbEntity
  8
0
  6
Continuous
 62
     7
370
    15
100
AcDbLine
 10
489.7650902484
 20
538.6466798349
 30
0.0
 11
499.7650909562
 21
538.6466798349
 31
0.0
  0
LWPOLYLINE
  5
3B0
330
1F
100
AcDbEntity
  8
0
  6
Continuous
 62
     7
370
    15
100
AcDbPolyline
 90
       12
 70
   128
 43
0.0
 10
647.2876140241
 20
362.2538936301
 10
647.4369087581
 20
362.1692140563
 10
647.7223554019
 20
361.728884743
 10
647.8739747171
 20
360.9928977652
 10
647.8782960538
 20
360.0266468687
 10
647.734931982
 20
358.9159888191
 10
647.4566378955
 20
357.7596065564
 10
647.0681199197
 20
356.6602659388
 10
646.6039189462
 20
355.7156291766
 10
646.1052515868
 20
355.009634511
 10
645.6164636974
 20
354.6050232811
 10
645.1809623603
 20
354.5377370878
  0
LWPOLYLINE
  5
3B1
330
1F
100
AcDbEntity
  8
0
  6
Continuous
 62
     7
370
    15
100
AcDbPolyline
 90
       12
 70
   128
 43
0.0
 10
662.263012803
 20
418.2888418412
 10
662.4484130506
 20
418.1929137534
 10
662.7338596944
 20
417.7525830431
 10
662.8854790096
 20
417.0165942027
 10
662.8898003463
 20
416.0503433062
 10
662.7464362745
 20
414.9396852566
 10
662.468142188
 20
413.7833085819
 10
662.0796242122
 20
412.6839605136
 10
661.6154232387
 20
411.7393237515
 10
661.1167558793
 20
411.0333337425
 10
660.6279679899
 20
410.6287197186
 10
660.1924666528
 20
410.5614353879
  0
LWPOLYLINE
  5
3B2
330
1F
100
AcDbEntity
  8
0
  6
Continuous
 62
     7
370
    15
100
AcDbPolyline
 90
        8
 70
   128
 43
0.0
 10
645.9758350019
 20
357.4305814667
 10
645.97427038
 20
357.4309986992
 10
645.9287771348
 20
357.4431878491
 10
645.8219805126
 20
357.4718055291
 10
645.6579932336
 20
357.5157416029
 10
645.4431333904
 20
357.5733196898
 10
645.1856264238
 20
357.6423195167
 10
644.895381606
 20
357.720088677
  0
LWPOLYLINE
  5
3B3
330
1F
100
AcDbEntity
  8
0
  6
Continuous
 62
     7
370
    15
100
AcDbPolyline
 90
        8
 70
   128
 43
0.0
 10
661.2461575631
 20
414.4202037691
 10
661.2445929412
 20
414.4206228642
 10
661.1990996961
 20
414.4328129454
 10
661.0923030738
 20
414.4614278315
 10
660.928330696
 20
414.5053666992
 10
660.7134559516
 20
414.5629419921
 10
660.455948985
 20
414.6319399564
 10
660.1657041673
 20
414.709710048
  0
LINE
  5
3B4
330
1F
100
AcDbEntity
  8
0
  6
Continuous
 62
     7
370
    15
100
AcDbLine
 10
612.7650880579
 20
362.1882651909
 30
0.0
 11
638.7550899152
 21
355.2242708369
 31
0.0
  0
LINE
  5
3B5
330
1F
100
AcDbEntity
  8
0
  6
Continuous
 62
     7
370
    15
100
AcDbLine
 10
648.2534327869
 20
365.9307290776
 30
0.0
 11
648.6021646623
 21
365.837287621
 31
0.0
  0
ELLIPSE
  5
3B6
330
1F
100
AcDbEntity
  8
0
  6
Continuous
 62
     7
370
    15
100
AcDbEllipse
 10
647.9414272909
 20
366.0143308624
 30
0.0
 11
1.294095225512706
 21
4.829629131445301
 31
0.0
210
0.0
220
0.0
230
1.0
 40
0.1368080573
 41
3.805204634961187
 42
4.712388980384706
  0
LINE
  5
3B7
330
1F
100
AcDbEntity
  8
0
  6
Continuous
 62
     7
370
    15
100
AcDbLine
 10
659.3172618512
 20
405.8266174956
 30
0.0
 11
658.968544877
 21
405.9200570895
 31
0.0
  0
ELLIPSE
  5
3B8
330
1F
100
AcDbEntity
  8
0
  6
Continuous
 62
     7
370
    15
100
AcDbEllipse
 10
658.6565357581
 20
406.0036600707
 30
0.0
 11
1.294095225512706
 21
4.829629131445358
 31
0.0
210
0.0
220
0.0
230
1.0
 40
0.1368080573
 41
4.712388980384706
 42
5.791374802504619
  0
ARC
  5
3B9
330
1F
100
AcDbEntity
  8
0
  6
Continuous
 62
     7
370
    15
100
AcDbCircle
 10
628.9543800216
 20
426.7293008913
 30
0.0
 40
0.9806435200540646
100
AcDbArc
 50
84.1916817862
 51
136.4913971637
  0
LINE
  5
3BA
330
1F
100
AcDbEntity
  8
0
  6
Continuous
 62
     7
370
    15
100
AcDbLine
 10
623.6555793647
 20
424.4925694051
 30
0.0
 11
622.4992939595
 21
424.8023939994
 31
0.0
  0
ARC
  5
3BB
330
1F
100
AcDbEntity
  8
0
  6
Continuous
 62
     7
370
    15
100
AcDbCircle
 10
628.26721398
 20
419.3532398303
 30
0.0
 40
1.498661091437634
100
AcDbArc
 50
86.0989106186
 51
146.6974432134
  0
ARC
  5
3BC
330
1F
100
AcDbEntity
  8
0
  6
Continuous
 62
     7
370
    15
100
AcDbCircle
 10
615.2075573825
 20
370.6138643286
 30
0.0
 40
1.498691026051422
100
AcDbArc
 50
183.3033430766
 51
243.9007861335
  0
LINE
  5
3BD
330
1F
100
AcDbEntity
  8
0
  6
Continuous
 62
     7
370
    15
100
AcDbLine
 10
641.9032135371
 20
363.7508940859
 30
0.0
 11
641.6752704744
 21
363.8119739456
 31
0.0
  0
LINE
  5
3BE
330
1F
100
AcDbEntity
  8
0
  6
Continuous
 62
     7
370
    15
100
AcDbLine
 10
654.8178264264
 20
411.9488862319
 30
0.0
 11
654.5898833637
 21
412.0099632977
 31
0.0
  0
LINE
  5
3BF
330
1F
100
AcDbEntity
  8
0
  6
Continuous
 62
     7
370
    15
100
AcDbLine
 10
641.0103508596
 20
362.2008641227
 30
0.0
 11
640.6020292405
 21
362.3102758987
 31
0.0
  0
LINE
  5
3C0
330
1F
100
AcDbEntity
  8
0
  6
Continuous
 62
     7
370
    15
100
AcDbLine
 10
654.8195996646
 20
413.7376812263
 30
0.0
 11
654.4112780456
 21
413.8470911397
 31
0.0
  0
LINE
  5
3C1
330
1F
100
AcDbEntity
  8
0
  6
Continuous
 62
     7
370
    15
100
AcDbLine
 10
612.7650880579
 20
375.9574410482
 30
0.0
 11
641.5362128381
 21
368.2482396229
 31
0.0
  0
LINE
  5
3C2
330
1F
100
AcDbEntity
  8
0
  6
Continuous
 62
     7
370
    15
100
AcDbLine
 10
622.800558186
 20
416.1288780136
 30
0.0
 11
612.7650880579
 21
378.6759939952
 31
0.0
  0
LINE
  5
3C3
330
1F
100
AcDbEntity
  8
0
  6
Continuous
 62
     7
370
    15
100
AcDbLine
 10
639.0547224645
 20
361.3556367321
 30
0.0
 11
614.3133112554
 21
367.9850813909
 31
0.0
  0
LINE
  5
3C4
330
1F
100
AcDbEntity
  8
0
  6
Continuous
 62
     7
370
    15
100
AcDbLine
 10
628.8071790103
 20
422.0769259822
 30
0.0
 11
653.5485902194
 21
415.4474833025
 31
0.0
  0
LINE
  5
3C5
330
1F
100
AcDbEntity
  8
0
  6
Continuous
 62
     7
370
    15
100
AcDbLine
 10
613.1111600761
 20
369.1420932276
 30
0.0
 11
612.7650880579
 21
369.2348231538
 31
0.0
  0
LWPOLYLINE
  5
3C6
330
1F
100
AcDbEntity
  8
0
  6
Continuous
 62
     7
370
    15
100
AcDbPolyline
 90
        8
 70
   128
 43
0.0
 10
613.7300649051
 20
367.6237207814
 10
613.6214726929
 20
367.6758860214
 10
613.5262095694
 20
367.7702327235
 10
613.4458401565
 20
367.9052074416
 10
613.3816981081
 20
368.0785787268
 10
613.3348414068
 20
368.2874855562
 10
613.3060374622
 20
368.5284820361
 10
613.2958227162
 20
368.7855009897
  0
LWPOLYLINE
  5
3C7
330
1F
100
AcDbEntity
  8
0
  6
Continuous
 62
     7
370
    15
100
AcDbPolyline
 90
        8
 70
   128
 43
0.0
 10
627.5257983569
 20
421.8924844148
 10
627.6631498102
 20
422.1099602267
 10
627.8085925941
 20
422.304268924
 10
627.9536330466
 20
422.4617594131
 10
628.0958646302
 20
422.5798324891
 10
628.2329478626
 20
422.6565393595
 10
628.3626252178
 20
422.6906140078
 10
628.4827509288
 20
422.6814940897
  0
LINE
  5
3C8
330
1F
100
AcDbEntity
  8
0
  6
Continuous
 62
     7
370
    15
100
AcDbLine
 10
627.1875792507
 20
421.675996154
 30
0.0
 11
626.7452457313
 21
421.7945185932
 31
0.0
  0
ARC
  5
3C9
330
1F
100
AcDbEntity
  8
0
  6
Continuous
 62
     7
370
    15
100
AcDbCircle
 10
614.6836001086
 20
368.5818100548
 30
0.0
 40
0.7022812351041544
100
AcDbArc
 50
179.196729994
 51
238.1791008961
  0
ARC
  5
3CA
330
1F
100
AcDbEntity
  8
0
  6
Continuous
 62
     7
370
    15
100
AcDbCircle
 10
628.8294902442
 20
421.375007561
 30
0.0
 40
0.7022729250201051
100
AcDbArc
 50
91.8205951507
 51
150.8039014067
  0
LINE
  5
3CB
330
1F
100
AcDbEntity
  8
0
  6
Continuous
 62
     7
370
    15
100
AcDbLine
 10
613.0878323082
 20
370.5400009616
 30
0.0
 11
612.7650880579
 21
370.6264798506
 31
0.0
  0
LINE
  5
3CC
330
1F
100
AcDbEntity
  8
0
  6
Continuous
 62
     7
370
    15
100
AcDbLine
 10
626.4684194092
 20
420.4770380142
 30
0.0
 11
625.9105050329
 21
420.6265306542
 31
0.0
  0
INSERT
  5
419
330
1F
100
AcDbEntity
  8
SLD-0
 62
     7
100
AcDbBlockReference
  2
SW_CENTERMARKSYMBOL_1
 10
438.7511116434
 20
499.6606567263
 30
0.0
  0
ENDSEC
  0
SECTION
  2
OBJECTS
  0
DICTIONARY
  5
C
330
0
100
AcDbDictionary
281
     1
  3
ACAD_GROUP
350
D
  3
ACAD_LAYOUT
350
1A
  3
ACAD_MLINESTYLE
350
17
  3
ACAD_PLOTSETTINGS
350
19
  3
ACAD_PLOTSTYLENAME
350
E
  0
DICTIONARY
  5
D
102
{ACAD_REACTORS
330
C
102
}
330
C
100
AcDbDictionary
281
     1
  0
DICTIONARY
  5
1A
102
{ACAD_REACTORS
330
C
102
}
330
C
100
AcDbDictionary
281
     1
  3
Layout1
350
1E
  3
Layout2
350
26
  3
Model
350
22
  0
DICTIONARY
  5
17
102
{ACAD_REACTORS
330
C
102
}
330
C
100
AcDbDictionary
281
     1
  3
Standard
350
18
  0
DICTIONARY
  5
19
102
{ACAD_REACTORS
330
C
102
}
330
C
100
AcDbDictionary
281
     1
  0
ACDBDICTIONARYWDFLT
  5
E
102
{ACAD_REACTORS
330
C
102
}
330
C
100
AcDbDictionary
281
     1
  3
Normal
350
F
100
AcDbDictionaryWithDefault
340
F
  0
LAYOUT
  5
1E
102
{ACAD_REACTORS
330
1A
102
}
330
1A
100
AcDbPlotSettings
  1

  2
none_device
  4

  6

 40
0.0
 41
0.0
 42
0.0
 43
0.0
 44
0.0
 45
0.0
 46
0.0
 47
0.0
 48
0.0
 49
0.0
140
0.0
141
0.0
142
1.0
143
1.0
 70
   688
 72
     0
 73
     0
 74
     5
  7

 75
    16
147
1.0
148
0.0
149
0.0
100
AcDbLayout
  1
Layout1
 70
     1
 71
     1
 10
0.0
 20
0.0
 11
420.0
 21
297.0
 12
0.0
 22
0.0
 32
0.0
 14
1.0000000000E+20
 24
1.0000000000E+20
 34
1.0000000000E+20
 15
-1.0000000000E+20
 25
-1.0000000000E+20
 35
-1.0000000000E+20
146
0.0
 13
0.0
 23
0.0
 33
0.0
 16
1.0
 26
0.0
 36
0.0
 17
0.0
 27
1.0
 37
0.0
 76
     0
330
1B
  0
LAYOUT
  5
26
102
{ACAD_REACTORS
330
1A
102
}
330
1A
100
AcDbPlotSettings
  1

  2
none_device
  4

  6

 40
0.0
 41
0.0
 42
0.0
 43
0.0
 44
0.0
 45
0.0
 46
0.0
 47
0.0
 48
0.0
 49
0.0
140
0.0
141
0.0
142
1.0
143
1.0
 70
   688
 72
     0
 73
     0
 74
     5
  7

 75
    16
147
1.0
148
0.0
149
0.0
100
AcDbLayout
  1
Layout2
 70
     1
 71
     2
 10
0.0
 20
0.0
 11
0.0
 21
0.0
 12
0.0
 22
0.0
 32
0.0
 14
0.0
 24
0.0
 34
0.0
 15
0.0
 25
0.0
 35
0.0
146
0.0
 13
0.0
 23
0.0
 33
0.0
 16
1.0
 26
0.0
 36
0.0
 17
0.0
 27
1.0
 37
0.0
 76
     0
330
23
  0
LAYOUT
  5
22
102
{ACAD_REACTORS
330
1A
102
}
330
1A
100
AcDbPlotSettings
  1

  2
none_device
  4

  6

 40
0.0
 41
0.0
 42
0.0
 43
0.0
 44
0.0
 45
0.0
 46
0.0
 47
0.0
 48
0.0
 49
0.0
140
0.0
141
0.0
142
1.0
143
1.0
 70
  1712
 72
     0
 73
     0
 74
     0
  7

 75
     0
147
1.0
148
0.0
149
0.0
100
AcDbLayout
  1
Model
 70
     1
 71
     0
 10
0.0
 20
0.0
 11
1050.0
 21
1485.0
 12
0.0
 22
0.0
 32
0.0
 14
0.0
 24
0.0
 34
0.0
 15
1050.0
 25
1485.0
 35
0.0
146
0.0
 13
0.0
 23
0.0
 33
0.0
 16
1.0
 26
0.0
 36
0.0
 17
0.0
 27
1.0
 37
0.0
 76
     0
330
1F
331
29
  0
MLINESTYLE
  5
18
102
{ACAD_REACTORS
330
17
102
}
330
17
100
AcDbMlineStyle
  2
Standard
 70
     0
  3

 62
   256
 51
90.0
 52
90.0
 71
     2
 49
0.5
 62
   256
  6
BYLAYER
 49
-0.5
 62
   256
  6
BYLAYER
  0
ACDBPLACEHOLDER
  5
F
102
{ACAD_REACTORS
330
E
102
}
330
E
  0
ENDSEC
  0
EOF
