  0
SECTION
  2
HEADER
  9
$ACADVER
  1
AC1015
  9
$ACADMAINTVER
 70
     6
  9
$DWGCODEPAGE
  3
DOS932
  9
$INSBASE
 10
0.0
 20
0.0
 30
0.0
  9
$EXTMIN
 10
0.0
 20
0.0
 30
0.0
  9
$EXTMAX
 10
1050.0
 20
1485.0
 30
0.0
  9
$LIMMIN
 10
0.0
 20
0.0
  9
$LIMMAX
 10
1050.0
 20
1485.0
  9
$ORTHOMODE
 70
     0
  9
$REGENMODE
 70
     1
  9
$FILLMODE
 70
     1
  9
$QTEXTMODE
 70
     0
  9
$MIRRTEXT
 70
     1
  9
$LTSCALE
 40
5.0
  9
$ATTMODE
 70
     1
  9
$TEXTSIZE
 40
17.5
  9
$TRACEWID
 40
1.0
  9
$TEXTSTYLE
  7
Standard
  9
$CLAYER
  8
0
  9
$CELTYPE
  6
ByLayer
  9
$CECOLOR
 62
   256
  9
$CELTSCALE
 40
1.0
  9
$DISPSILH
 70
     0
  9
$DIMSCALE
 40
1.0
  9
$DIMASZ
 40
12.5
  9
$DIMEXO
 40
5.0
  9
$DIMDLI
 40
3.75
  9
$DIMRND
 40
0.0
  9
$DIMDLE
 40
0.0
  9
$DIMEXE
 40
5.0
  9
$DIMTP
 40
0.0
  9
$DIMTM
 40
0.0
  9
$DIMTXT
 40
17.5
  9
$DIMCEN
 40
2.5
  9
$DIMTSZ
 40
0.0
  9
$DIMTOL
 70
     0
  9
$DIMLIM
 70
     0
  9
$DIMTIH
 70
     1
  9
$DIMTOH
 70
     1
  9
$DIMSE1
 70
     0
  9
$DIMSE2
 70
     0
  9
$DIMTAD
 70
     1
  9
$DIMZIN
 70
     1
  9
$DIMBLK
  1

  9
$DIMASO
 70
     1
  9
$DIMSHO
 70
     1
  9
$DIMPOST
  1

  9
$DIMAPOST
  1

  9
$DIMALT
 70
     0
  9
$DIMALTD
 70
     3
  9
$DIMALTF
 40
0.0393700787
  9
$DIMLFAC
 40
1.0
  9
$DIMTOFL
 70
     1
  9
$DIMTVP
 40
0.0
  9
$DIMTIX
 70
     0
  9
$DIMSOXD
 70
     0
  9
$DIMSAH
 70
     0
  9
$DIMBLK1
  1

  9
$DIMBLK2
  1

  9
$DIMSTYLE
  2
ISO-25
  9
$DIMCLRD
 70
     0
  9
$DIMCLRE
 70
     0
  9
$DIMCLRT
 70
     0
  9
$DIMTFAC
 40
1.0
  9
$DIMGAP
 40
7.62
  9
$DIMJUST
 70
     0
  9
$DIMSD1
 70
     0
  9
$DIMSD2
 70
     0
  9
$DIMTOLJ
 70
     0
  9
$DIMTZIN
 70
     1
  9
$DIMALTZ
 70
     0
  9
$DIMALTTZ
 70
     0
  9
$DIMUPT
 70
     0
  9
$DIMDEC
 70
     0
  9
$DIMTDEC
 70
     0
  9
$DIMALTU
 70
     2
  9
$DIMALTTD
 70
     3
  9
$DIMTXSTY
  7
Standard
  9
$DIMAUNIT
 70
     0
  9
$DIMADEC
 70
     0
  9
$DIMALTRND
 40
0.0
  9
$DIMAZIN
 70
     0
  9
$DIMDSEP
 70
    44
  9
$DIMATFIT
 70
     3
  9
$DIMFRAC
 70
     0
  9
$DIMLDRBLK
  1

  9
$DIMLUNIT
 70
     2
  9
$DIMLWD
 70
    -2
  9
$DIMLWE
 70
    -2
  9
$DIMTMOVE
 70
     0
  9
$LUNITS
 70
     2
  9
$LUPREC
 70
     0
  9
$SKETCHINC
 40
1.0
  9
$FILLETRAD
 40
10.0
  9
$AUNITS
 70
     0
  9
$AUPREC
 70
     0
  9
$MENU
  1
.
  9
$ELEVATION
 40
0.0
  9
$PELEVATION
 40
0.0
  9
$THICKNESS
 40
0.0
  9
$LIMCHECK
 70
     0
  9
$CHAMFERA
 40
10.0
  9
$CHAMFERB
 40
10.0
  9
$CHAMFERC
 40
20.0
  9
$CHAMFERD
 40
0.0
  9
$SKPOLY
 70
     0
  9
$TDCREATE
 40
2456954.666250879
  9
$TDUCREATE
 40
2456954.291250879
  9
$TDUPDATE
 40
2456954.66625213
  9
$TDUUPDATE
 40
2456954.29125213
  9
$TDINDWG
 40
0.0000000116
  9
$TDUSRTIMER
 40
0.0000000116
  9
$USRTIMER
 70
     1
  9
$ANGBASE
 50
0.0
  9
$ANGDIR
 70
     0
  9
$PDMODE
 70
     0
  9
$PDSIZE
 40
-1.0
  9
$PLINEWID
 40
0.0
  9
$SPLFRAME
 70
     0
  9
$SPLINETYPE
 70
     6
  9
$SPLINESEGS
 70
     8
  9
$HANDSEED
  5
491
  9
$SURFTAB1
 70
     6
  9
$SURFTAB2
 70
     6
  9
$SURFTYPE
 70
     6
  9
$SURFU
 70
     6
  9
$SURFV
 70
     6
  9
$UCSBASE
  2

  9
$UCSNAME
  2

  9
$UCSORG
 10
0.0
 20
0.0
 30
0.0
  9
$UCSXDIR
 10
1.0
 20
0.0
 30
0.0
  9
$UCSYDIR
 10
0.0
 20
1.0
 30
0.0
  9
$UCSORTHOREF
  2

  9
$UCSORTHOVIEW
 70
     0
  9
$UCSORGTOP
 10
0.0
 20
0.0
 30
0.0
  9
$UCSORGBOTTOM
 10
0.0
 20
0.0
 30
0.0
  9
$UCSORGLEFT
 10
0.0
 20
0.0
 30
0.0
  9
$UCSORGRIGHT
 10
0.0
 20
0.0
 30
0.0
  9
$UCSORGFRONT
 10
0.0
 20
0.0
 30
0.0
  9
$UCSORGBACK
 10
0.0
 20
0.0
 30
0.0
  9
$PUCSBASE
  2

  9
$PUCSNAME
  2

  9
$PUCSORG
 10
0.0
 20
0.0
 30
0.0
  9
$PUCSXDIR
 10
1.0
 20
0.0
 30
0.0
  9
$PUCSYDIR
 10
0.0
 20
1.0
 30
0.0
  9
$PUCSORTHOREF
  2

  9
$PUCSORTHOVIEW
 70
     0
  9
$PUCSORGTOP
 10
0.0
 20
0.0
 30
0.0
  9
$PUCSORGBOTTOM
 10
0.0
 20
0.0
 30
0.0
  9
$PUCSORGLEFT
 10
0.0
 20
0.0
 30
0.0
  9
$PUCSORGRIGHT
 10
0.0
 20
0.0
 30
0.0
  9
$PUCSORGFRONT
 10
0.0
 20
0.0
 30
0.0
  9
$PUCSORGBACK
 10
0.0
 20
0.0
 30
0.0
  9
$USERI1
 70
     0
  9
$USERI2
 70
     0
  9
$USERI3
 70
     0
  9
$USERI4
 70
     0
  9
$USERI5
 70
     0
  9
$USERR1
 40
0.0
  9
$USERR2
 40
0.0
  9
$USERR3
 40
0.0
  9
$USERR4
 40
0.0
  9
$USERR5
 40
0.0
  9
$WORLDVIEW
 70
     1
  9
$SHADEDGE
 70
     3
  9
$SHADEDIF
 70
    70
  9
$TILEMODE
 70
     1
  9
$MAXACTVP
 70
    64
  9
$PINSBASE
 10
0.0
 20
0.0
 30
0.0
  9
$PLIMCHECK
 70
     0
  9
$PEXTMIN
 10
1.0000000000E+20
 20
1.0000000000E+20
 30
1.0000000000E+20
  9
$PEXTMAX
 10
-1.0000000000E+20
 20
-1.0000000000E+20
 30
-1.0000000000E+20
  9
$PLIMMIN
 10
0.0
 20
0.0
  9
$PLIMMAX
 10
420.0
 20
297.0
  9
$UNITMODE
 70
     0
  9
$VISRETAIN
 70
     1
  9
$PLINEGEN
 70
     0
  9
$PSLTSCALE
 70
     1
  9
$TREEDEPTH
 70
  3020
  9
$CMLSTYLE
  2
Standard
  9
$CMLJUST
 70
     0
  9
$CMLSCALE
 40
20.0
  9
$PROXYGRAPHICS
 70
     1
  9
$MEASUREMENT
 70
     1
  9
$CELWEIGHT
370
    -1
  9
$ENDCAPS
280
     0
  9
$JOINSTYLE
280
     0
  9
$LWDISPLAY
290
     1
  9
$INSUNITS
 70
     4
  9
$HYPERLINKBASE
  1

  9
$STYLESHEET
  1

  9
$XEDIT
290
     1
  9
$CEPSNTYPE
380
     0
  9
$PSTYLEMODE
290
     1
  9
$FINGERPRINTGUID
  2
{30490CF0-D6C3-473D-A738-056CFB09759D}
  9
$VERSIONGUID
  2
{FAEB1C32-E019-11D5-929B-00C0DF256EC4}
  9
$EXTNAMES
290
     1
  9
$PSVPSCALE
 40
0.0
  9
$OLESTARTUP
290
     0
  0
ENDSEC
  0
SECTION
  2
CLASSES
  0
CLASS
  1
ACDBDICTIONARYWDFLT
  2
AcDbDictionaryWithDefault
  3
ObjectDBX Classes
 90
        0
280
     0
281
     0
  0
CLASS
  1
VISUALSTYLE
  2
AcDbVisualStyle
  3
ObjectDBX Classes
 90
     4095
280
     0
281
     0
  0
CLASS
  1
MATERIAL
  2
AcDbMaterial
  3
ObjectDBX Classes
 90
     1153
280
     0
281
     0
  0
CLASS
  1
ACDBPLACEHOLDER
  2
AcDbPlaceHolder
  3
ObjectDBX Classes
 90
        0
280
     0
281
     0
  0
CLASS
  1
LAYOUT
  2
AcDbLayout
  3
ObjectDBX Classes
 90
        0
280
     0
281
     0
  0
ENDSEC
  0
SECTION
  2
TABLES
  0
TABLE
  2
VPORT
  5
8
330
0
100
AcDbSymbolTable
 70
     1
  0
VPORT
  5
29
330
8
100
AcDbSymbolTableRecord
100
AcDbViewportTableRecord
  2
*Active
 70
     0
 10
0.0
 20
0.0
 11
1.0
 21
1.0
 12
525.0
 22
742.5
 13
0.0
 23
0.0
 14
10.0
 24
10.0
 15
10.0
 25
10.0
 16
0.0
 26
0.0
 36
1.0
 17
0.0
 27
0.0
 37
0.0
 40
1485.0
 41
0.7070707071
 42
50.0
 43
0.0
 44
0.0
 50
0.0
 51
0.0
 71
     0
 72
  2000
 73
     1
 74
     3
 75
     0
 76
     0
 77
     0
 78
     0
281
     0
 65
     1
110
0.0
120
0.0
130
0.0
111
1.0
121
0.0
131
0.0
112
0.0
122
1.0
132
0.0
 79
     0
146
0.0
  0
ENDTAB
  0
TABLE
  2
LTYPE
  5
5
330
0
100
AcDbSymbolTable
 70
     6
  0
LTYPE
  5
14
330
5
100
AcDbSymbolTableRecord
100
AcDbLinetypeTableRecord
  2
ByBlock
 70
     0
  3

 72
    65
 73
     0
 40
0.0
  0
LTYPE
  5
15
330
5
100
AcDbSymbolTableRecord
100
AcDbLinetypeTableRecord
  2
ByLayer
 70
     0
  3

 72
    65
 73
     0
 40
0.0
  0
LTYPE
  5
16
330
5
100
AcDbSymbolTableRecord
100
AcDbLinetypeTableRecord
  2
Continuous
 70
     0
  3
Solid line
 72
    65
 73
     0
 40
0.0
  0
LTYPE
  5
3F
330
5
100
AcDbSymbolTableRecord
100
AcDbLinetypeTableRecord
  2
HIDDEN
 70
     0
  3
Hidden __ __ __ __ __ __ __ __ __ __ __ __ __ __
 72
    65
 73
     2
 40
1.905
 49
1.27
 74
     0
 49
-0.635
 74
     0
  0
LTYPE
  5
40
330
5
100
AcDbSymbolTableRecord
100
AcDbLinetypeTableRecord
  2
PHANTOM
 70
     0
  3
Phantom ______  __  __  ______  __  __  ______
 72
    65
 73
     6
 40
12.7
 49
6.35
 74
     0
 49
-1.27
 74
     0
 49
1.27
 74
     0
 49
-1.27
 74
     0
 49
1.27
 74
     0
 49
-1.27
 74
     0
  0
LTYPE
  5
41
330
5
100
AcDbSymbolTableRecord
100
AcDbLinetypeTableRecord
  2
CENTER
 70
     0
  3
Center ____ _ ____ _ ____ _ ____ _ ____ _ ____
 72
    65
 73
     4
 40
10.16
 49
6.35
 74
     0
 49
-1.27
 74
     0
 49
1.27
 74
     0
 49
-1.27
 74
     0
  0
LTYPE
  5
42
330
5
100
AcDbSymbolTableRecord
100
AcDbLinetypeTableRecord
  2
CENTERX2
 70
     0
  3
Center (2x) ________  __  ________  __  _____
 72
    65
 73
     4
 40
20.32
 49
12.7
 74
     0
 49
-2.54
 74
     0
 49
2.54
 74
     0
 49
-2.54
 74
     0
  0
LTYPE
  5
43
330
5
100
AcDbSymbolTableRecord
100
AcDbLinetypeTableRecord
  2
DOT2
 70
     0
  3
Dot (.5x) ........................................
 72
    65
 73
     2
 40
0.635
 49
0.0
 74
     0
 49
-0.635
 74
     0
  0
ENDTAB
  0
TABLE
  2
LAYER
  5
2
330
0
100
AcDbSymbolTable
 70
    11
  0
LAYER
  5
10
330
2
100
AcDbSymbolTableRecord
100
AcDbLayerTableRecord
  2
0
 70
     0
 62
     7
  6
Continuous
370
    -3
390
F
  0
LAYER
  5
44
330
2
100
AcDbSymbolTableRecord
100
AcDbLayerTableRecord
  2
SLD-0
 70
     0
 62
   179
  6
Continuous
370
    -3
390
F
  0
LAYER
  5
45
330
2
100
AcDbSymbolTableRecord
100
AcDbLayerTableRecord
  2
AM_6
 70
     0
 62
     2
  6
Continuous
370
    40
390
F
  0
LAYER
  5
46
330
2
100
AcDbSymbolTableRecord
100
AcDbLayerTableRecord
  2
AM_5
 70
     0
 62
     3
  6
Continuous
370
    15
390
F
  0
LAYER
  5
47
330
2
100
AcDbSymbolTableRecord
100
AcDbLayerTableRecord
  2
AM_7
 70
     0
 62
     4
  6
Continuous
370
    15
390
F
  0
LAYER
  5
48
330
2
100
AcDbSymbolTableRecord
100
AcDbLayerTableRecord
  2
SLD-DEFPOINTS
 70
     0
 62
   179
  6
Continuous
370
    -3
390
F
  0
LAYER
  5
49
330
2
100
AcDbSymbolTableRecord
100
AcDbLayerTableRecord
  2
AM_0
 70
     0
 62
   179
  6
Continuous
370
    60
390
F
  0
LAYER
  5
4A
330
2
100
AcDbSymbolTableRecord
100
AcDbLayerTableRecord
  2
AM_CL
 70
     0
 62
     1
  6
Continuous
370
    15
390
F
  0
LAYER
  5
4B
330
2
100
AcDbSymbolTableRecord
100
AcDbLayerTableRecord
  2
6
 70
     0
 62
     2
  6
Continuous
370
    -3
390
F
  0
LAYER
  5
4C
330
2
100
AcDbSymbolTableRecord
100
AcDbLayerTableRecord
  2
AM_4
 70
     0
 62
     3
  6
Continuous
370
    15
390
F
  0
LAYER
  5
4D
330
2
100
AcDbSymbolTableRecord
100
AcDbLayerTableRecord
  2
AM_8
 70
     0
 62
     1
  6
Continuous
370
    15
390
F
  0
ENDTAB
  0
TABLE
  2
STYLE
  5
3
330
0
100
AcDbSymbolTable
 70
     1
  0
STYLE
  5
11
330
3
100
AcDbSymbolTableRecord
100
AcDbTextStyleTableRecord
  2
Standard
 70
     0
 40
0.0
 41
1.0
 50
0.0
 71
     0
 42
17.5
  3
txt
  4
bigfont
  0
ENDTAB
  0
TABLE
  2
VIEW
  5
6
330
0
100
AcDbSymbolTable
 70
     0
  0
ENDTAB
  0
TABLE
  2
UCS
  5
7
330
0
100
AcDbSymbolTable
 70
     0
  0
ENDTAB
  0
TABLE
  2
APPID
  5
9
330
0
100
AcDbSymbolTable
 70
     1
  0
APPID
  5
12
330
9
100
AcDbSymbolTableRecord
100
AcDbRegAppTableRecord
  2
ACAD
 70
     0
  0
ENDTAB
  0
TABLE
  2
DIMSTYLE
  5
A
330
0
100
AcDbSymbolTable
 70
     1
100
AcDbDimStyleTable
  0
DIMSTYLE
105
27
330
A
100
AcDbSymbolTableRecord
100
AcDbDimStyleTableRecord
  2
ISO-25
 70
     0
 41
2.5
 42
0.625
 43
3.75
 44
1.25
 73
     0
 74
     0
 77
     1
 78
     8
140
2.5
141
2.5
143
0.0393700787
147
0.625
171
     3
172
     1
178
     0
271
     2
272
     2
274
     3
278
    44
283
     0
284
     8
340
11
  0
ENDTAB
  0
TABLE
  2
BLOCK_RECORD
  5
1
330
0
100
AcDbSymbolTable
 70
     3
  0
BLOCK_RECORD
  5
1F
330
1
100
AcDbSymbolTableRecord
100
AcDbBlockTableRecord
  2
*Model_Space
340
22
  0
BLOCK_RECORD
  5
1B
330
1
100
AcDbSymbolTableRecord
100
AcDbBlockTableRecord
  2
*Paper_Space
340
1E
  0
BLOCK_RECORD
  5
23
330
1
100
AcDbSymbolTableRecord
100
AcDbBlockTableRecord
  2
*Paper_Space0
340
26
  0
BLOCK_RECORD
  5
2F6
330
1
100
AcDbSymbolTableRecord
100
AcDbBlockTableRecord
  2
SW_CENTERMARKSYMBOL_0
340
0
102
{BLKREFS
331
301
102
}
  0
BLOCK_RECORD
  5
444
330
1
100
AcDbSymbolTableRecord
100
AcDbBlockTableRecord
  2
SW_CENTERMARKSYMBOL_1
340
0
102
{BLKREFS
331
490
102
}
  0
ENDTAB
  0
ENDSEC
  0
SECTION
  2
BLOCKS
  0
BLOCK
  5
20
330
1F
100
AcDbEntity
  8
0
100
AcDbBlockBegin
  2
*Model_Space
 70
     0
 10
0.0
 20
0.0
 30
0.0
  3
*Model_Space
  1

  0
ENDBLK
  5
21
330
1F
100
AcDbEntity
  8
0
100
AcDbBlockEnd
  0
BLOCK
  5
1C
330
1B
100
AcDbEntity
 67
     1
  8
0
100
AcDbBlockBegin
  2
*Paper_Space
 70
     0
 10
0.0
 20
0.0
 30
0.0
  3
*Paper_Space
  1

  0
ENDBLK
  5
1D
330
1B
100
AcDbEntity
 67
     1
  8
0
100
AcDbBlockEnd
  0
BLOCK
  5
24
330
23
100
AcDbEntity
  8
0
100
AcDbBlockBegin
  2
*Paper_Space0
 70
     0
 10
0.0
 20
0.0
 30
0.0
  3
*Paper_Space0
  1

  0
ENDBLK
  5
25
330
23
100
AcDbEntity
  8
0
100
AcDbBlockEnd
  0
BLOCK
  5
2F7
330
2F6
100
AcDbEntity
  8
0
100
AcDbBlockBegin
  2
SW_CENTERMARKSYMBOL_0
 70
     0
 10
0.0
 20
0.0
 30
0.0
  3
SW_CENTERMARKSYMBOL_0
  1

  0
LINE
  5
2F9
330
2F6
100
AcDbEntity
  8
SLD-0
 62
     0
100
AcDbLine
 10
0.0
 20
0.0
 30
0.0
 11
0.0
 21
2.5
 31
0.0
  0
LINE
  5
2FA
330
2F6
100
AcDbEntity
  8
SLD-0
 62
     0
100
AcDbLine
 10
0.0
 20
0.0
 30
0.0
 11
-2.5
 21
0.0
 31
0.0
  0
LINE
  5
2FB
330
2F6
100
AcDbEntity
  8
SLD-0
 62
     0
100
AcDbLine
 10
0.0
 20
0.0
 30
0.0
 11
0.0
 21
-2.5
 31
0.0
  0
LINE
  5
2FC
330
2F6
100
AcDbEntity
  8
SLD-0
 62
     0
100
AcDbLine
 10
0.0
 20
0.0
 30
0.0
 11
2.5
 21
0.0
 31
0.0
  0
LINE
  5
2FD
330
2F6
100
AcDbEntity
  8
SLD-0
 62
     0
100
AcDbLine
 10
0.0
 20
5.0
 30
0.0
 11
0.0
 21
246.695628776
 31
0.0
  0
LINE
  5
2FE
330
2F6
100
AcDbEntity
  8
SLD-0
 62
     0
100
AcDbLine
 10
-5.0
 20
0.0
 30
0.0
 11
-33.8746575296
 21
0.0
 31
0.0
  0
LINE
  5
2FF
330
2F6
100
AcDbEntity
  8
SLD-0
 62
     0
100
AcDbLine
 10
0.0
 20
-5.0
 30
0.0
 11
0.0
 21
-216.488180319
 31
0.0
  0
LINE
  5
300
330
2F6
100
AcDbEntity
  8
SLD-0
 62
     0
100
AcDbLine
 10
5.0
 20
0.0
 30
0.0
 11
32.0087914066
 21
0.0
 31
0.0
  0
ENDBLK
  5
2F8
330
2F6
100
AcDbEntity
  8
0
100
AcDbBlockEnd
  0
BLOCK
  5
445
330
444
100
AcDbEntity
  8
0
100
AcDbBlockBegin
  2
SW_CENTERMARKSYMBOL_1
 70
     0
 10
0.0
 20
0.0
 30
0.0
  3
SW_CENTERMARKSYMBOL_1
  1

  0
ARC
  5
447
330
444
100
AcDbEntity
  8
SLD-0
 62
     0
100
AcDbCircle
 10
76.0139789776
 20
-76.0139789776
 30
0.0
 40
107.5
100
AcDbArc
 50
135.0
 51
136.3324599887
  0
ARC
  5
448
330
444
100
AcDbEntity
  8
SLD-0
 62
     0
100
AcDbCircle
 10
76.0139789776
 20
-76.0139789776
 30
0.0
 40
107.5
100
AcDbArc
 50
133.6675400113
 51
135.0
  0
ARC
  5
449
330
444
100
AcDbEntity
  8
SLD-0
 62
     0
100
AcDbCircle
 10
76.0139789776
 20
-76.0139789776
 30
0.0
 40
107.5
100
AcDbArc
 50
45.0
 51
46.3324599887
  0
ARC
  5
44A
330
444
100
AcDbEntity
  8
SLD-0
 62
     0
100
AcDbCircle
 10
76.0139789776
 20
-76.0139789776
 30
0.0
 40
107.5
100
AcDbArc
 50
43.6675400113
 51
45.0
  0
ARC
  5
44B
330
444
100
AcDbEntity
  8
SLD-0
 62
     0
100
AcDbCircle
 10
76.0139789776
 20
-76.0139789776
 30
0.0
 40
107.5
100
AcDbArc
 50
315.0
 51
316.3324599887
  0
ARC
  5
44C
330
444
100
AcDbEntity
  8
SLD-0
 62
     0
100
AcDbCircle
 10
76.0139789776
 20
-76.0139789776
 30
0.0
 40
107.5
100
AcDbArc
 50
313.6675400113
 51
315.0
  0
ARC
  5
44D
330
444
100
AcDbEntity
  8
SLD-0
 62
     0
100
AcDbCircle
 10
76.0139789776
 20
-76.0139789776
 30
0.0
 40
107.5000000000001
100
AcDbArc
 50
225.0
 51
226.3324599887
  0
ARC
  5
44E
330
444
100
AcDbEntity
  8
SLD-0
 62
     0
100
AcDbCircle
 10
76.0139789776
 20
-76.0139789776
 30
0.0
 40
107.5
100
AcDbArc
 50
223.6675400113
 51
225.0
  0
ARC
  5
44F
330
444
100
AcDbEntity
  8
SLD-0
 62
     0
100
AcDbCircle
 10
76.0139789776
 20
-76.0139789776
 30
0.0
 40
39.00000000000001
100
AcDbArc
 50
90.0
 51
93.672806379
  0
ARC
  5
450
330
444
100
AcDbEntity
  8
SLD-0
 62
     0
100
AcDbCircle
 10
76.0139789776
 20
-76.0139789776
 30
0.0
 40
39.00000000000001
100
AcDbArc
 50
86.327193621
 51
90.0
  0
ARC
  5
451
330
444
100
AcDbEntity
  8
SLD-0
 62
     0
100
AcDbCircle
 10
76.0139789776
 20
-76.0139789776
 30
0.0
 40
39.00000000000006
100
AcDbArc
 50
330.0
 51
333.672806379
  0
ARC
  5
452
330
444
100
AcDbEntity
  8
SLD-0
 62
     0
100
AcDbCircle
 10
76.0139789776
 20
-76.0139789776
 30
0.0
 40
39.00000000000004
100
AcDbArc
 50
326.327193621
 51
330.0
  0
ARC
  5
453
330
444
100
AcDbEntity
  8
SLD-0
 62
     0
100
AcDbCircle
 10
76.0139789776
 20
-76.0139789776
 30
0.0
 40
39.00000000000001
100
AcDbArc
 50
210.0
 51
213.672806379
  0
ARC
  5
454
330
444
100
AcDbEntity
  8
SLD-0
 62
     0
100
AcDbCircle
 10
76.0139789776
 20
-76.0139789776
 30
0.0
 40
39.00000000000002
100
AcDbArc
 50
206.327193621
 51
210.0
  0
ARC
  5
455
330
444
100
AcDbEntity
  8
SLD-0
 62
     0
100
AcDbCircle
 10
76.0139789776
 20
-76.0139789776
 30
0.0
 40
105.0000000000001
100
AcDbArc
 50
122.0
 51
123.3641852265
  0
ARC
  5
456
330
444
100
AcDbEntity
  8
SLD-0
 62
     0
100
AcDbCircle
 10
76.0139789776
 20
-76.0139789776
 30
0.0
 40
105.0000000000001
100
AcDbArc
 50
120.6358147735
 51
122.0
  0
ARC
  5
457
330
444
100
AcDbEntity
  8
SLD-0
 62
     0
100
AcDbCircle
 10
76.0139789776
 20
-76.0139789776
 30
0.0
 40
105.0
100
AcDbArc
 50
124.728370453
 51
125.5468815889
  0
ARC
  5
458
330
444
100
AcDbEntity
  8
SLD-0
 62
     0
100
AcDbCircle
 10
76.0139789776
 20
-76.0139789776
 30
0.0
 40
105.0
100
AcDbArc
 50
118.4531184111
 51
119.271629547
  0
ARC
  5
459
330
444
100
AcDbEntity
  8
SLD-0
 62
     0
100
AcDbCircle
 10
76.0139789776
 20
-76.0139789776
 30
0.0
 40
105.0
100
AcDbArc
 50
302.0
 51
303.3641852265
  0
ARC
  5
45A
330
444
100
AcDbEntity
  8
SLD-0
 62
     0
100
AcDbCircle
 10
76.0139789776
 20
-76.0139789776
 30
0.0
 40
105.0
100
AcDbArc
 50
300.6358147735
 51
302.0
  0
ARC
  5
45B
330
444
100
AcDbEntity
  8
SLD-0
 62
     0
100
AcDbCircle
 10
76.0139789776
 20
-76.0139789776
 30
0.0
 40
105.0
100
AcDbArc
 50
304.728370453
 51
305.5468815889
  0
ARC
  5
45C
330
444
100
AcDbEntity
  8
SLD-0
 62
     0
100
AcDbCircle
 10
76.0139789776
 20
-76.0139789776
 30
0.0
 40
105.0
100
AcDbArc
 50
298.4531184111
 51
299.271629547
  0
ARC
  5
45D
330
444
100
AcDbEntity
  8
SLD-0
 62
     0
100
AcDbCircle
 10
76.0139789776
 20
-76.0139789776
 30
0.0
 40
107.4999999999999
100
AcDbArc
 50
47.6649199774
 51
132.3350800226
  0
ARC
  5
45E
330
444
100
AcDbEntity
  8
SLD-0
 62
     0
100
AcDbCircle
 10
76.0139789776
 20
-76.0139789776
 30
0.0
 40
107.5
100
AcDbArc
 50
317.6649199774
 51
42.3350800226
  0
ARC
  5
45F
330
444
100
AcDbEntity
  8
SLD-0
 62
     0
100
AcDbCircle
 10
76.0139789776
 20
-76.0139789776
 30
0.0
 40
107.5
100
AcDbArc
 50
137.6649199774
 51
222.3350800226
  0
ARC
  5
460
330
444
100
AcDbEntity
  8
SLD-0
 62
     0
100
AcDbCircle
 10
76.0139789776
 20
-76.0139789776
 30
0.0
 40
107.5
100
AcDbArc
 50
227.6649199774
 51
312.3350800226
  0
ARC
  5
461
330
444
100
AcDbEntity
  8
SLD-0
 62
     0
100
AcDbCircle
 10
76.0139789776
 20
-76.0139789776
 30
0.0
 40
39.00000000000001
100
AcDbArc
 50
337.3456127581
 51
82.6543872419
  0
ARC
  5
462
330
444
100
AcDbEntity
  8
SLD-0
 62
     0
100
AcDbCircle
 10
76.0139789776
 20
-76.0139789776
 30
0.0
 40
38.99999999999999
100
AcDbArc
 50
97.3456127581
 51
202.6543872419
  0
ARC
  5
463
330
444
100
AcDbEntity
  8
SLD-0
 62
     0
100
AcDbCircle
 10
76.0139789776
 20
-76.0139789776
 30
0.0
 40
39.00000000000004
100
AcDbArc
 50
217.3456127581
 51
322.6543872419
  0
LINE
  5
464
330
444
100
AcDbEntity
  8
SLD-0
 62
     0
100
AcDbLine
 10
0.0
 20
0.0
 30
0.0
 11
-1.767766953
 21
1.767766953
 31
0.0
  0
LINE
  5
465
330
444
100
AcDbEntity
  8
SLD-0
 62
     0
100
AcDbLine
 10
0.0
 20
0.0
 30
0.0
 11
1.767766953
 21
-1.767766953
 31
0.0
  0
LINE
  5
466
330
444
100
AcDbEntity
  8
SLD-0
 62
     0
100
AcDbLine
 10
-3.5355339059
 20
3.5355339059
 30
0.0
 11
-6.0104076401
 21
6.0104076401
 31
0.0
  0
LINE
  5
467
330
444
100
AcDbEntity
  8
SLD-0
 62
     0
100
AcDbLine
 10
3.5355339059
 20
-3.5355339059
 30
0.0
 11
6.0104076401
 21
-6.0104076401
 31
0.0
  0
LINE
  5
468
330
444
100
AcDbEntity
  8
SLD-0
 62
     0
100
AcDbLine
 10
152.0279579551
 20
0.0
 30
0.0
 11
153.7957249081
 21
1.767766953
 31
0.0
  0
LINE
  5
469
330
444
100
AcDbEntity
  8
SLD-0
 62
     0
100
AcDbLine
 10
152.0279579551
 20
0.0
 30
0.0
 11
150.2601910021
 21
-1.767766953
 31
0.0
  0
LINE
  5
46A
330
444
100
AcDbEntity
  8
SLD-0
 62
     0
100
AcDbLine
 10
155.563491861
 20
3.5355339059
 30
0.0
 11
158.0383655952
 21
6.0104076401
 31
0.0
  0
LINE
  5
46B
330
444
100
AcDbEntity
  8
SLD-0
 62
     0
100
AcDbLine
 10
148.4924240492
 20
-3.5355339059
 30
0.0
 11
146.017550315
 21
-6.0104076401
 31
0.0
  0
LINE
  5
46C
330
444
100
AcDbEntity
  8
SLD-0
 62
     0
100
AcDbLine
 10
152.0279579551
 20
-152.0279579551
 30
0.0
 11
153.7957249081
 21
-153.7957249081
 31
0.0
  0
LINE
  5
46D
330
444
100
AcDbEntity
  8
SLD-0
 62
     0
100
AcDbLine
 10
152.0279579551
 20
-152.0279579551
 30
0.0
 11
150.2601910021
 21
-150.2601910021
 31
0.0
  0
LINE
  5
46E
330
444
100
AcDbEntity
  8
SLD-0
 62
     0
100
AcDbLine
 10
155.563491861
 20
-155.563491861
 30
0.0
 11
158.0383655952
 21
-158.0383655952
 31
0.0
  0
LINE
  5
46F
330
444
100
AcDbEntity
  8
SLD-0
 62
     0
100
AcDbLine
 10
148.4924240492
 20
-148.4924240492
 30
0.0
 11
146.017550315
 21
-146.017550315
 31
0.0
  0
LINE
  5
470
330
444
100
AcDbEntity
  8
SLD-0
 62
     0
100
AcDbLine
 10
76.0139789776
 20
-76.0139789776
 30
0.0
 11
76.0139789776
 21
-73.5139789776
 31
0.0
  0
LINE
  5
471
330
444
100
AcDbEntity
  8
SLD-0
 62
     0
100
AcDbLine
 10
76.0139789776
 20
-76.0139789776
 30
0.0
 11
73.5139789776
 21
-76.0139789776
 31
0.0
  0
LINE
  5
472
330
444
100
AcDbEntity
  8
SLD-0
 62
     0
100
AcDbLine
 10
76.0139789776
 20
-76.0139789776
 30
0.0
 11
76.0139789776
 21
-78.5139789776
 31
0.0
  0
LINE
  5
473
330
444
100
AcDbEntity
  8
SLD-0
 62
     0
100
AcDbLine
 10
76.0139789776
 20
-76.0139789776
 30
0.0
 11
78.5139789776
 21
-76.0139789776
 31
0.0
  0
LINE
  5
474
330
444
100
AcDbEntity
  8
SLD-0
 62
     0
100
AcDbLine
 10
76.0139789776
 20
-71.0139789776
 30
0.0
 11
76.0139789776
 21
2.5
 31
0.0
  0
LINE
  5
475
330
444
100
AcDbEntity
  8
SLD-0
 62
     0
100
AcDbLine
 10
71.0139789776
 20
-76.0139789776
 30
0.0
 11
-2.5
 21
-76.0139789776
 31
0.0
  0
LINE
  5
476
330
444
100
AcDbEntity
  8
SLD-0
 62
     0
100
AcDbLine
 10
76.0139789776
 20
-81.0139789776
 30
0.0
 11
76.0139789776
 21
-154.5279579551
 31
0.0
  0
LINE
  5
477
330
444
100
AcDbEntity
  8
SLD-0
 62
     0
100
AcDbLine
 10
81.0139789776
 20
-76.0139789776
 30
0.0
 11
154.5279579551
 21
-76.0139789776
 31
0.0
  0
LINE
  5
478
330
444
100
AcDbEntity
  8
SLD-0
 62
     0
100
AcDbLine
 10
0.0
 20
-152.0279579551
 30
0.0
 11
-1.767766953
 21
-153.7957249081
 31
0.0
  0
LINE
  5
479
330
444
100
AcDbEntity
  8
SLD-0
 62
     0
100
AcDbLine
 10
0.0
 20
-152.0279579551
 30
0.0
 11
1.767766953
 21
-150.2601910021
 31
0.0
  0
LINE
  5
47A
330
444
100
AcDbEntity
  8
SLD-0
 62
     0
100
AcDbLine
 10
-3.5355339059
 20
-155.563491861
 30
0.0
 11
-6.0104076401
 21
-158.0383655952
 31
0.0
  0
LINE
  5
47B
330
444
100
AcDbEntity
  8
SLD-0
 62
     0
100
AcDbLine
 10
3.5355339059
 20
-148.4924240492
 30
0.0
 11
6.0104076401
 21
-146.017550315
 31
0.0
  0
LINE
  5
47C
330
444
100
AcDbEntity
  8
SLD-0
 62
     0
100
AcDbLine
 10
76.0139789776
 20
-37.0139789776
 30
0.0
 11
76.0139789776
 21
-34.5139789776
 31
0.0
  0
LINE
  5
47D
330
444
100
AcDbEntity
  8
SLD-0
 62
     0
100
AcDbLine
 10
76.0139789776
 20
-37.0139789776
 30
0.0
 11
76.0139789776
 21
-39.5139789776
 31
0.0
  0
LINE
  5
47E
330
444
100
AcDbEntity
  8
SLD-0
 62
     0
100
AcDbLine
 10
76.0139789776
 20
-34.5139789776
 30
0.0
 11
76.0139789776
 21
-32.0139789776
 31
0.0
  0
LINE
  5
47F
330
444
100
AcDbEntity
  8
SLD-0
 62
     0
100
AcDbLine
 10
76.0139789776
 20
-39.5139789776
 30
0.0
 11
76.0139789776
 21
-42.0139789776
 31
0.0
  0
LINE
  5
480
330
444
100
AcDbEntity
  8
SLD-0
 62
     0
100
AcDbLine
 10
109.7889697251
 20
-95.5139789776
 30
0.0
 11
111.9540332346
 21
-96.7639789776
 31
0.0
  0
LINE
  5
481
330
444
100
AcDbEntity
  8
SLD-0
 62
     0
100
AcDbLine
 10
109.7889697251
 20
-95.5139789776
 30
0.0
 11
107.6239062157
 21
-94.2639789776
 31
0.0
  0
LINE
  5
482
330
444
100
AcDbEntity
  8
SLD-0
 62
     0
100
AcDbLine
 10
111.9540332346
 20
-96.7639789776
 30
0.0
 11
114.1190967441
 21
-98.0139789776
 31
0.0
  0
LINE
  5
483
330
444
100
AcDbEntity
  8
SLD-0
 62
     0
100
AcDbLine
 10
107.6239062157
 20
-94.2639789776
 30
0.0
 11
105.4588427062
 21
-93.0139789776
 31
0.0
  0
LINE
  5
484
330
444
100
AcDbEntity
  8
SLD-0
 62
     0
100
AcDbLine
 10
42.23898823
 20
-95.5139789776
 30
0.0
 11
40.0739247205
 21
-96.7639789776
 31
0.0
  0
LINE
  5
485
330
444
100
AcDbEntity
  8
SLD-0
 62
     0
100
AcDbLine
 10
42.23898823
 20
-95.5139789776
 30
0.0
 11
44.4040517394
 21
-94.2639789776
 31
0.0
  0
LINE
  5
486
330
444
100
AcDbEntity
  8
SLD-0
 62
     0
100
AcDbLine
 10
40.0739247205
 20
-96.7639789776
 30
0.0
 11
37.908861211
 21
-98.0139789776
 31
0.0
  0
LINE
  5
487
330
444
100
AcDbEntity
  8
SLD-0
 62
     0
100
AcDbLine
 10
44.4040517394
 20
-94.2639789776
 30
0.0
 11
46.5691152489
 21
-93.0139789776
 31
0.0
  0
LINE
  5
488
330
444
100
AcDbEntity
  8
SLD-0
 62
     0
100
AcDbLine
 10
20.3724562331
 20
13.0310711189
 30
0.0
 11
19.0476580725
 21
15.1511913593
 31
0.0
  0
LINE
  5
489
330
444
100
AcDbEntity
  8
SLD-0
 62
     0
100
AcDbLine
 10
20.3724562331
 20
13.0310711189
 30
0.0
 11
21.6972543937
 21
10.9109508785
 31
0.0
  0
LINE
  5
48A
330
444
100
AcDbEntity
  8
SLD-0
 62
     0
100
AcDbLine
 10
17.7228599119
 20
17.2713115997
 30
0.0
 11
16.9279810156
 21
18.5433837439
 31
0.0
  0
LINE
  5
48B
330
444
100
AcDbEntity
  8
SLD-0
 62
     0
100
AcDbLine
 10
23.0220525542
 20
8.7908306381
 30
0.0
 11
23.8169314506
 21
7.5187584939
 31
0.0
  0
LINE
  5
48C
330
444
100
AcDbEntity
  8
SLD-0
 62
     0
100
AcDbLine
 10
131.655501722
 20
-165.059029074
 30
0.0
 11
132.9802998826
 21
-167.1791493144
 31
0.0
  0
LINE
  5
48D
330
444
100
AcDbEntity
  8
SLD-0
 62
     0
100
AcDbLine
 10
131.655501722
 20
-165.059029074
 30
0.0
 11
130.3307035615
 21
-162.9389088336
 31
0.0
  0
LINE
  5
48E
330
444
100
AcDbEntity
  8
SLD-0
 62
     0
100
AcDbLine
 10
134.3050980432
 20
-169.2992695548
 30
0.0
 11
135.0999769396
 21
-170.571341699
 31
0.0
  0
LINE
  5
48F
330
444
100
AcDbEntity
  8
SLD-0
 62
     0
100
AcDbLine
 10
129.0059054009
 20
-160.8187885932
 30
0.0
 11
128.2110265045
 21
-159.546716449
 31
0.0
  0
ENDBLK
  5
446
330
444
100
AcDbEntity
  8
0
100
AcDbBlockEnd
  0
ENDSEC
  0
SECTION
  2
ENTITIES
  0
LINE
  5
4E
330
1F
100
AcDbEntity
  8
0
  6
Continuous
 62
     7
370
    15
100
AcDbLine
 10
624.5805549759
 20
1299.5626770846
 30
0.0
 11
607.3840338129
 21
1311.6037988059
 31
0.0
  0
LINE
  5
4F
330
1F
100
AcDbEntity
  8
0
  6
Continuous
 62
     7
370
    15
100
AcDbLine
 10
468.678333177
 20
1311.6037988059
 30
0.0
 11
451.481812014
 21
1299.5626770846
 31
0.0
  0
ARC
  5
50
330
1F
100
AcDbEntity
  8
0
  6
Continuous
 62
     7
370
    15
100
AcDbCircle
 10
627.0311834949
 20
1297.2009739272
 30
0.0
 40
2.0
100
AcDbArc
 50
0.0
 51
90.0
  0
ARC
  5
51
330
1F
100
AcDbEntity
  8
0
  6
Continuous
 62
     7
370
    15
100
AcDbCircle
 10
449.0311834949
 20
1297.2009739272
 30
0.0
 40
2.0
100
AcDbArc
 50
90.0
 51
180.0
  0
LINE
  5
52
330
1F
100
AcDbEntity
  8
0
  6
Continuous
 62
     7
370
    15
100
AcDbLine
 10
447.0311853427
 20
1297.2009771458
 30
0.0
 11
447.0311853427
 21
1248.2009672515
 31
0.0
  0
LINE
  5
53
330
1F
100
AcDbEntity
  8
0
  6
Continuous
 62
     7
370
    15
100
AcDbLine
 10
629.0311816472
 20
1254.2180710427
 30
0.0
 11
629.0311816472
 21
1297.2009771458
 31
0.0
  0
ARC
  5
54
330
1F
100
AcDbEntity
  8
0
  6
Continuous
 62
     7
370
    15
100
AcDbCircle
 10
625.7277051603
 20
1301.2009739272
 30
0.0
 40
2.000000000000227
100
AcDbArc
 50
235.0
 51
270.0
  0
ARC
  5
55
330
1F
100
AcDbEntity
  8
0
  6
Continuous
 62
     7
370
    15
100
AcDbCircle
 10
450.3346618295
 20
1301.2009739272
 30
0.0
 40
2.000000000000227
100
AcDbArc
 50
270.0
 51
305.0
  0
ARC
  5
56
330
1F
100
AcDbEntity
  8
0
  6
Continuous
 62
     7
370
    15
100
AcDbCircle
 10
467.5311834949
 20
1313.2421080283
 30
0.0
 40
2.0
100
AcDbArc
 50
305.0
 51
0.0
  0
ARC
  5
57
330
1F
100
AcDbEntity
  8
0
  6
Continuous
 62
     7
370
    15
100
AcDbCircle
 10
608.5311834949
 20
1313.2421080283
 30
0.0
 40
2.000000000000114
100
AcDbArc
 50
180.0
 51
235.0
  0
ARC
  5
58
330
1F
100
AcDbEntity
  8
0
  6
Continuous
 62
     7
370
    15
100
AcDbCircle
 10
604.5311834949
 20
1315.2009739272
 30
0.0
 40
2.0
100
AcDbArc
 50
0.0
 51
90.0
  0
ARC
  5
59
330
1F
100
AcDbEntity
  8
0
  6
Continuous
 62
     7
370
    15
100
AcDbCircle
 10
471.5311834949
 20
1315.2009739272
 30
0.0
 40
2.0
100
AcDbArc
 50
90.0
 51
180.0
  0
LINE
  5
5A
330
1F
100
AcDbEntity
  8
0
  6
Continuous
 62
     7
370
    15
100
AcDbLine
 10
469.5311862367
 20
1315.2009689204
 30
0.0
 11
469.5311862367
 21
1313.2421069733
 31
0.0
  0
LINE
  5
5B
330
1F
100
AcDbEntity
  8
0
  6
Continuous
 62
     7
370
    15
100
AcDbLine
 10
606.5311807531
 20
1313.2421069733
 30
0.0
 11
606.5311807531
 21
1315.2009689204
 31
0.0
  0
ARC
  5
5C
330
1F
100
AcDbEntity
  8
0
  6
Continuous
 62
     7
370
    15
100
AcDbCircle
 10
619.7381930063
 20
1281.1367215321
 30
0.0
 40
2.000000000000114
100
AcDbArc
 50
0.0
 51
53.192807859
  0
LINE
  5
5D
330
1F
100
AcDbEntity
  8
0
  6
Continuous
 62
     7
370
    15
100
AcDbLine
 10
621.738195731
 20
1248.2009672515
 30
0.0
 11
621.738195731
 21
1272.4864625327
 31
0.0
  0
LINE
  5
5E
330
1F
100
AcDbEntity
  8
0
  6
Continuous
 62
     7
370
    15
100
AcDbLine
 10
621.738195731
 20
1276.9154899709
 30
0.0
 11
621.738195731
 21
1281.1367207162
 31
0.0
  0
ARC
  5
5F
330
1F
100
AcDbEntity
  8
0
  6
Continuous
 62
     7
370
    15
100
AcDbCircle
 10
456.3241739836
 20
1281.1367215321
 30
0.0
 40
2.0
100
AcDbArc
 50
126.807192141
 51
180.0
  0
LINE
  5
60
330
1F
100
AcDbEntity
  8
0
  6
Continuous
 62
     7
370
    15
100
AcDbLine
 10
454.3241712588
 20
1281.1367207162
 30
0.0
 11
454.3241712588
 21
1276.9154899709
 31
0.0
  0
LINE
  5
61
330
1F
100
AcDbEntity
  8
0
  6
Continuous
 62
     7
370
    15
100
AcDbLine
 10
454.3241712588
 20
1272.4864625327
 30
0.0
 11
454.3241712588
 21
1248.2009672515
 31
0.0
  0
SPLINE
  5
62
330
1F
100
AcDbEntity
  8
0
  6
Continuous
 62
     7
370
    15
100
AcDbSpline
210
0.0
220
0.0
230
1.0
 70
     8
 71
     3
 72
    10
 73
     6
 74
     0
 42
0.00000001
 43
0.00000001
 12
1.0
 22
0.0
 32
0.0
 13
1.0
 23
0.0
 33
0.0
 40
0.0
 40
0.0
 40
0.0
 40
0.0
 40
0.1787778823881925
 40
0.7952351786847609
 40
0.9999999999999999
 40
0.9999999999999999
 40
0.9999999999999999
 40
0.9999999999999999
 10
620.9441203016048
 20
1282.732620178877
 30
0.0
 10
620.9465602265292
 20
1282.730406221114
 30
0.0
 10
620.9574134378282
 20
1282.72055815113
 30
0.0
 10
620.8908957329294
 20
1282.800762656552
 30
0.0
 10
620.9106214363533
 20
1283.012816974858
 30
0.0
 10
620.9155398744351
 20
1283.065690933882
 30
0.0
  0
SPLINE
  5
63
330
1F
100
AcDbEntity
  8
0
  6
Continuous
 62
     7
370
    15
100
AcDbSpline
210
0.0
220
0.0
230
1.0
 70
     8
 71
     3
 72
     9
 73
     5
 74
     0
 42
0.00000001
 43
0.00000001
 12
1.0
 22
0.0
 32
0.0
 13
1.0
 23
0.0
 33
0.0
 40
0.0
 40
0.0
 40
0.0
 40
0.0
 40
0.6670609738330899
 40
1.0
 40
1.0
 40
1.0
 40
1.0
 10
455.1610428231961
 20
1283.032520949065
 30
0.0
 10
455.1437732936656
 20
1282.90741555469
 30
0.0
 10
455.1178843116866
 20
1282.719868389914
 30
0.0
 10
455.1207553331386
 20
1282.735561249743
 30
0.0
 10
455.121711208225
 20
1282.740786015212
 30
0.0
  0
LINE
  5
64
330
1F
100
AcDbEntity
  8
0
  6
Continuous
 62
     7
370
    15
100
AcDbLine
 10
620.3311833876
 20
1076.7009738322
 30
0.0
 11
620.3311833876
 21
1248.2009672515
 31
0.0
  0
LINE
  5
65
330
1F
100
AcDbEntity
  8
0
  6
Continuous
 62
     7
370
    15
100
AcDbLine
 10
455.7311836022
 20
1248.2009672515
 30
0.0
 11
455.7311836022
 21
1076.7009738322
 31
0.0
  0
LINE
  5
66
330
1F
100
AcDbEntity
  8
0
  6
Continuous
 62
     7
370
    15
100
AcDbLine
 10
490.3896603125
 20
1038.7009748213
 30
0.0
 11
490.3896603125
 21
1039.5454795055
 31
0.0
  0
LINE
  5
67
330
1F
100
AcDbEntity
  8
0
  6
Continuous
 62
     7
370
    15
100
AcDbLine
 10
474.3896576899
 20
1039.5454795055
 30
0.0
 11
474.3896576899
 21
1038.7009748213
 31
0.0
  0
LINE
  5
68
330
1F
100
AcDbEntity
  8
0
  6
Continuous
 62
     7
370
    15
100
AcDbLine
 10
620.4246583718
 20
1206.200971543
 30
0.0
 11
635.8794722098
 21
1206.200971543
 31
0.0
  0
LINE
  5
69
330
1F
100
AcDbEntity
  8
0
  6
Continuous
 62
     7
370
    15
100
AcDbLine
 10
635.8794722098
 20
1246.2009780995
 30
0.0
 11
620.4246583718
 21
1246.2009780995
 31
0.0
  0
LINE
  5
6A
330
1F
100
AcDbEntity
  8
0
  6
Continuous
 62
     7
370
    15
100
AcDbLine
 10
637.2664797443
 20
1206.9323056332
 30
0.0
 11
638.163052811
 21
1207.8957402102
 31
0.0
  0
LINE
  5
6B
330
1F
100
AcDbEntity
  8
0
  6
Continuous
 62
     7
370
    15
100
AcDbLine
 10
638.163052811
 20
1244.5061945311
 30
0.0
 11
637.2664797443
 21
1245.4696291081
 31
0.0
  0
ARC
  5
6C
330
1F
100
AcDbEntity
  8
0
  6
Continuous
 62
     7
370
    15
100
AcDbCircle
 10
615.627059674
 20
1274.7009739272
 30
0.0
 40
6.500000000000077
100
AcDbArc
 50
338.420626824
 51
0.0
  0
ARC
  5
6D
330
1F
100
AcDbEntity
  8
0
  6
Continuous
 62
     7
370
    15
100
AcDbCircle
 10
615.627059674
 20
1274.7009739272
 30
0.0
 40
6.5
100
AcDbArc
 50
0.0
 51
21.579373176
  0
LINE
  5
6E
330
1F
100
AcDbEntity
  8
0
  6
Continuous
 62
     7
370
    15
100
AcDbLine
 10
619.9092868108
 20
1278.7009769074
 30
0.0
 11
618.5715425152
 21
1278.7009769074
 31
0.0
  0
LINE
  5
6F
330
1F
100
AcDbEntity
  8
0
  6
Continuous
 62
     7
370
    15
100
AcDbLine
 10
618.5715425152
 20
1270.7009755961
 30
0.0
 11
619.9092868108
 21
1270.7009755961
 31
0.0
  0
LINE
  5
70
330
1F
100
AcDbEntity
  8
0
  6
Continuous
 62
     7
370
    15
100
AcDbLine
 10
633.7717923659
 20
1252.1432184569
 30
0.0
 11
631.8656805295
 21
1251.4249675862
 31
0.0
  0
LINE
  5
71
330
1F
100
AcDbEntity
  8
0
  6
Continuous
 62
     7
370
    15
100
AcDbLine
 10
633.2761126894
 20
1247.6818853013
 30
0.0
 11
635.1822245258
 21
1248.400136172
 31
0.0
  0
LINE
  5
72
330
1F
100
AcDbEntity
  8
0
  6
Continuous
 62
     7
370
    15
100
AcDbLine
 10
663.8351160425
 20
1166.6311838619
 30
0.0
 11
661.9289967555
 21
1165.9129478924
 31
0.0
  0
LINE
  5
73
330
1F
100
AcDbEntity
  8
0
  6
Continuous
 62
     7
370
    15
100
AcDbLine
 10
663.3394289154
 20
1162.1698581569
 30
0.0
 11
665.2455407518
 21
1162.888101577
 31
0.0
  0
LINE
  5
74
330
1F
100
AcDbEntity
  8
0
  6
Continuous
 62
     7
370
    15
100
AcDbLine
 10
653.0200916666
 20
1255.8769577138
 30
0.0
 11
652.318626954
 21
1255.6126409165
 31
0.0
  0
LINE
  5
75
330
1F
100
AcDbEntity
  8
0
  6
Continuous
 62
     7
370
    15
100
AcDbLine
 10
655.3177762169
 20
1248.1936507813
 30
0.0
 11
655.8409485358
 21
1248.3907782428
 31
0.0
  0
LINE
  5
76
330
1F
100
AcDbEntity
  8
0
  6
Continuous
 62
     7
370
    15
100
AcDbLine
 10
653.1687009472
 20
1255.8865540616
 30
0.0
 11
653.0489254135
 21
1255.8487200133
 31
0.0
  0
SPLINE
  5
77
330
1F
100
AcDbEntity
  8
0
  6
Continuous
 62
     7
370
    15
100
AcDbSpline
210
0.0
220
0.0
230
1.0
 70
     8
 71
     3
 72
     9
 73
     5
 74
     0
 42
0.00000001
 43
0.00000001
 12
1.0
 22
0.0
 32
0.0
 13
1.0
 23
0.0
 33
0.0
 40
0.0
 40
0.0
 40
0.0
 40
0.0
 40
0.7029110224222771
 40
1.0
 40
1.0
 40
1.0
 40
1.0
 10
655.8095517891652
 20
1248.416750966727
 30
0.0
 10
655.8683589658572
 20
1248.420257095669
 30
0.0
 10
655.952021299803
 20
1248.425245108135
 30
0.0
 10
655.9932813928956
 20
1248.487659892809
 30
0.0
 10
656.0055393117673
 20
1248.506202637374
 30
0.0
  0
ARC
  5
78
330
1F
100
AcDbEntity
  8
0
  6
Continuous
 62
     7
370
    15
100
AcDbCircle
 10
649.9423517429
 20
1250.4426826729
 30
0.0
 40
6.50000000000017
100
AcDbArc
 50
346.7717712588
 51
14.8077554718
  0
ARC
  5
79
330
1F
100
AcDbEntity
  8
0
  6
Continuous
 62
     7
370
    15
100
AcDbCircle
 10
649.9423517429
 20
1250.4426826729
 30
0.0
 40
6.500000000000117
100
AcDbArc
 50
23.9323549452
 51
54.5220217153
  0
LINE
  5
7A
330
1F
100
AcDbEntity
  8
0
  6
Continuous
 62
     7
370
    15
100
AcDbLine
 10
647.8962826866
 20
1251.8089854113
 30
0.0
 11
646.877184822
 21
1251.4249675862
 31
0.0
  0
LINE
  5
7B
330
1F
100
AcDbEntity
  8
0
  6
Continuous
 62
     7
370
    15
100
AcDbLine
 10
648.2876169819
 20
1247.6818853013
 30
0.0
 11
649.2743420738
 21
1248.0536990754
 31
0.0
  0
ARC
  5
7C
330
1F
100
AcDbEntity
  8
0
  6
Continuous
 62
     7
370
    15
100
AcDbCircle
 10
460.4353073158
 20
1274.7009739272
 30
0.0
 40
6.500000000000131
100
AcDbArc
 50
158.420626824
 51
201.579373176
  0
LINE
  5
7D
330
1F
100
AcDbEntity
  8
0
  6
Continuous
 62
     7
370
    15
100
AcDbLine
 10
456.1530801791
 20
1270.7009755961
 30
0.0
 11
457.4908244747
 21
1270.7009755961
 31
0.0
  0
LINE
  5
7E
330
1F
100
AcDbEntity
  8
0
  6
Continuous
 62
     7
370
    15
100
AcDbLine
 10
457.4908244747
 20
1278.7009769074
 30
0.0
 11
456.1530801791
 21
1278.7009769074
 31
0.0
  0
LINE
  5
7F
330
1F
100
AcDbEntity
  8
0
  6
Continuous
 62
     7
370
    15
100
AcDbLine
 10
683.0834078926
 20
1170.3649231188
 30
0.0
 11
682.7270913261
 21
1170.2306636564
 31
0.0
  0
LINE
  5
80
330
1F
100
AcDbEntity
  8
0
  6
Continuous
 62
     7
370
    15
100
AcDbLine
 10
684.9142539638
 20
1162.5057079784
 30
0.0
 11
685.9042573112
 21
1162.8787510983
 31
0.0
  0
LINE
  5
81
330
1F
100
AcDbEntity
  8
0
  6
Continuous
 62
     7
370
    15
100
AcDbLine
 10
683.2320171732
 20
1170.3745269172
 30
0.0
 11
683.1122416395
 21
1170.3366854183
 31
0.0
  0
SPLINE
  5
82
330
1F
100
AcDbEntity
  8
0
  6
Continuous
 62
     7
370
    15
100
AcDbSpline
210
0.0
220
0.0
230
1.0
 70
     8
 71
     3
 72
     9
 73
     5
 74
     0
 42
0.00000001
 43
0.00000001
 12
1.0
 22
0.0
 32
0.0
 13
1.0
 23
0.0
 33
0.0
 40
0.0
 40
0.0
 40
0.0
 40
0.0
 40
0.7029075130815834
 40
1.0
 40
1.0
 40
1.0
 40
1.0
 10
685.8728754657512
 20
1162.904723822295
 30
0.0
 10
685.931679439929
 20
1162.90823023396
 30
0.0
 10
686.0153376354712
 20
1162.913218673548
 30
0.0
 10
686.0565975323877
 20
1162.975632742098
 30
0.0
 10
686.0688555377728
 20
1162.994175492942
 30
0.0
  0
ARC
  5
83
330
1F
100
AcDbEntity
  8
0
  6
Continuous
 62
     7
370
    15
100
AcDbCircle
 10
680.0056658919
 20
1164.9306541814
 30
0.0
 40
6.500000000000059
100
AcDbArc
 50
346.7717712588
 51
14.8077554718
  0
ARC
  5
84
330
1F
100
AcDbEntity
  8
0
  6
Continuous
 62
     7
370
    15
100
AcDbCircle
 10
680.0056658919
 20
1164.9306541814
 30
0.0
 40
6.500000000000025
100
AcDbArc
 50
23.9323549452
 51
54.5220217153
  0
LINE
  5
85
330
1F
100
AcDbEntity
  8
0
  6
Continuous
 62
     7
370
    15
100
AcDbLine
 10
678.0106502908
 20
1166.3161882154
 30
0.0
 11
676.9404935974
 21
1165.9129478924
 31
0.0
  0
LINE
  5
86
330
1F
100
AcDbEntity
  8
0
  6
Continuous
 62
     7
370
    15
100
AcDbLine
 10
678.3509332079
 20
1162.1698581569
 30
0.0
 11
679.2683679003
 21
1162.515557646
 31
0.0
  0
SPLINE
  5
87
330
1F
100
AcDbEntity
  8
0
  6
Continuous
 62
     7
370
    15
100
AcDbSpline
210
0.0
220
0.0
230
1.0
 70
     8
 71
     3
 72
    15
 73
    11
 74
     0
 42
0.00000001
 43
0.00000001
 12
1.0
 22
0.0
 32
0.0
 13
1.0
 23
0.0
 33
0.0
 40
0.0
 40
0.0
 40
0.0
 40
0.0
 40
0.0834205235436504
 40
0.2433251341927324
 40
0.4054576202492912
 40
0.5743011216477051
 40
0.7649532526206175
 40
0.8696470150714936
 40
0.9791324020696927
 40
0.9999999999999999
 40
0.9999999999999999
 40
0.9999999999999999
 40
0.9999999999999999
 10
653.79408033073
 20
1252.527638613402
 30
0.0
 10
653.7205485713667
 20
1252.729816710156
 30
0.0
 10
653.506067476614
 20
1253.319539843429
 30
0.0
 10
653.0893948360603
 20
1254.275625887134
 30
0.0
 10
652.5450458156072
 20
1255.31182382202
 30
0.0
 10
651.9393307105096
 20
1256.221808893941
 30
0.0
 10
651.3622975630492
 20
1256.849083142065
 30
0.0
 10
650.6828911264037
 20
1257.273824913265
 30
0.0
 10
650.1762665018358
 20
1257.41484287583
 30
0.0
 10
649.8808582703887
 20
1257.4215128877
 30
0.0
 10
649.8335677522426
 20
1257.422580658614
 30
0.0
  0
LINE
  5
88
330
1F
100
AcDbEntity
  8
0
  6
Continuous
 62
     7
370
    15
100
AcDbLine
 10
684.187762751
 20
1166.0759218923
 30
0.0
 11
653.7940803307
 21
1252.5276386134
 31
0.0
  0
LINE
  5
89
330
1F
100
AcDbEntity
  8
0
  6
Continuous
 62
     7
370
    15
100
AcDbLine
 10
649.8335677522
 20
1257.4225806586
 30
0.0
 11
634.563245191
 21
1257.4225806586
 31
0.0
  0
LINE
  5
8A
330
1F
100
AcDbEntity
  8
0
  6
Continuous
 62
     7
370
    15
100
AcDbLine
 10
679.6555745739
 20
1158.7075062982
 30
0.0
 11
683.5585761207
 21
1160.1781913034
 31
0.0
  0
SPLINE
  5
8B
330
1F
100
AcDbEntity
  8
0
  6
Continuous
 62
     7
370
    15
100
AcDbSpline
210
0.0
220
0.0
230
1.0
 70
     8
 71
     3
 72
    16
 73
    12
 74
     0
 42
0.00000001
 43
0.00000001
 12
1.0
 22
0.0
 32
0.0
 13
1.0
 23
0.0
 33
0.0
 40
0.0
 40
0.0
 40
0.0
 40
0.0
 40
0.0099193209461109
 40
0.1213604415974346
 40
0.2179264465811529
 40
0.315304268513296
 40
0.4286811322178236
 40
0.582761360673864
 40
0.7444368221355802
 40
0.9123099250503282
 40
1.0
 40
1.0
 40
1.0
 40
1.0
 10
683.5322755712276
 20
1160.181178986251
 30
0.0
 10
683.5548024254889
 20
1160.185187287266
 30
0.0
 10
683.8304129230019
 20
1160.234227860097
 30
0.0
 10
684.2482028561628
 20
1160.582729056582
 30
0.0
 10
684.6508277615383
 20
1161.117664453866
 30
0.0
 10
684.8597119078453
 20
1161.710894800352
 30
0.0
 10
684.9462630760644
 20
1162.383677862933
 30
0.0
 10
684.9099509698902
 20
1163.206430355221
 30
0.0
 10
684.7317365072411
 20
1164.249408684833
 30
0.0
 10
684.4703063888732
 20
1165.241917047328
 30
0.0
 10
684.2599434880342
 20
1165.862860699862
 30
0.0
 10
684.1877627509838
 20
1166.075921892344
 30
0.0
  0
LINE
  5
8C
330
1F
100
AcDbEntity
  8
0
  6
Continuous
 62
     7
370
    15
100
AcDbLine
 10
682.5391876835
 20
1170.7651161544
 30
0.0
 11
682.698704614
 21
1170.825219988
 31
0.0
  0
SPLINE
  5
8D
330
1F
100
AcDbEntity
  8
0
  6
Continuous
 62
     7
370
    15
100
AcDbSpline
210
0.0
220
0.0
230
1.0
 70
     8
 71
     3
 72
    15
 73
    11
 74
     0
 42
0.00000001
 43
0.00000001
 12
1.0
 22
0.0
 32
0.0
 13
1.0
 23
0.0
 33
0.0
 40
0.0
 40
0.0
 40
0.0
 40
0.0
 40
0.0835850968208722
 40
0.2450821302868675
 40
0.4139440236426219
 40
0.6107127555183273
 40
0.7315858676735897
 40
0.8437221040630842
 40
0.9607152266357342
 40
1.0
 40
1.0
 40
1.0
 40
1.0
 10
684.6990811961895
 20
1243.63407426995
 30
0.0
 10
684.6964828176168
 20
1243.831450535641
 30
0.0
 10
684.6888640413024
 20
1244.410182839646
 30
0.0
 10
684.6020207543188
 20
1245.360811719934
 30
0.0
 10
684.3904392459993
 20
1246.432143743124
 30
0.0
 10
684.073844177433
 20
1247.27877944229
 30
0.0
 10
683.5582286470614
 20
1247.97743924946
 30
0.0
 10
682.9429169493579
 20
1248.431426478265
 30
0.0
 10
682.3595443218513
 20
1248.618002643972
 30
0.0
 10
682.0103915476288
 20
1248.630841979362
 30
0.0
 10
681.9226223367458
 20
1248.634069501578
 30
0.0
  0
LINE
  5
8E
330
1F
100
AcDbEntity
  8
0
  6
Continuous
 62
     7
370
    15
100
AcDbLine
 10
684.6990811962
 20
1175.8759760253
 30
0.0
 11
684.6990811962
 21
1243.6340742699
 31
0.0
  0
SPLINE
  5
8F
330
1F
100
AcDbEntity
  8
0
  6
Continuous
 62
     7
370
    15
100
AcDbSpline
210
0.0
220
0.0
230
1.0
 70
     8
 71
     3
 72
    15
 73
    11
 74
     0
 42
0.00000001
 43
0.00000001
 12
1.0
 22
0.0
 32
0.0
 13
1.0
 23
0.0
 33
0.0
 40
0.0
 40
0.0
 40
0.0
 40
0.0
 40
0.0100338438932526
 40
0.1241503330725104
 40
0.2328981088623792
 40
0.3497715776897353
 40
0.4954812604071755
 40
0.7018474497863568
 40
0.8970698376024135
 40
1.0
 40
1.0
 40
1.0
 40
1.0
 10
682.6891082662349
 20
1170.833192109286
 30
0.0
 10
682.709198402673
 20
1170.836850571438
 30
0.0
 10
682.9577768295238
 20
1170.882117300677
 30
0.0
 10
683.3441574529693
 20
1171.180817230315
 30
0.0
 10
683.7938289831651
 20
1171.636096056844
 30
0.0
 10
684.1203402425595
 20
1172.210172005702
 30
0.0
 10
684.3920733514249
 20
1172.961051543717
 30
0.0
 10
684.5913654276878
 20
1173.965127488052
 30
0.0
 10
684.6877657560655
 20
1175.016013560986
 30
0.0
 10
684.6961773061615
 20
1175.655283202275
 30
0.0
 10
684.6990811961895
 20
1175.875976025283
 30
0.0
  0
LINE
  5
90
330
1F
100
AcDbEntity
  8
0
  6
Continuous
 62
     7
370
    15
100
AcDbLine
 10
633.8748413461
 20
1257.2977089278
 30
0.0
 11
629.9718472499
 21
1255.8270239226
 31
0.0
  0
LINE
  5
91
330
1F
100
AcDbEntity
  8
0
  6
Continuous
 62
     7
370
    15
100
AcDbLine
 10
634.563245191
 20
1257.4225806586
 30
0.0
 11
633.9011418957
 21
1257.2947137944
 31
0.0
  0
LINE
  5
92
330
1F
100
AcDbEntity
  8
0
  6
Continuous
 62
     7
370
    15
100
AcDbLine
 10
634.6958282727
 20
1254.7217451922
 30
0.0
 11
633.9192095536
 21
1254.4291012875
 31
0.0
  0
SPLINE
  5
93
330
1F
100
AcDbEntity
  8
0
  6
Continuous
 62
     7
370
    15
100
AcDbSpline
210
0.0
220
0.0
230
1.0
 70
     8
 71
     3
 72
    15
 73
    11
 74
     0
 42
0.00000001
 43
0.00000001
 12
1.0
 22
0.0
 32
0.0
 13
1.0
 23
0.0
 33
0.0
 40
0.0
 40
0.0
 40
0.0
 40
0.0
 40
0.0835861605521299
 40
0.245083211957416
 40
0.4139440558920592
 40
0.6107137106164643
 40
0.7315855574791643
 40
0.843722229358947
 40
0.960716284002319
 40
1.0
 40
1.0
 40
1.0
 40
1.0
 10
632.5750875610119
 20
1173.200971721827
 30
0.0
 10
632.5776888600442
 20
1173.003592981887
 30
0.0
 10
632.5853161361135
 20
1172.424858233967
 30
0.0
 10
632.6721531390983
 20
1171.47422849689
 30
0.0
 10
632.8837394655509
 20
1170.402900317573
 30
0.0
 10
633.200330506273
 20
1169.556260339292
 30
0.0
 10
633.7159429931751
 20
1168.857606684571
 30
0.0
 10
634.3312513511008
 20
1168.40361062832
 30
0.0
 10
634.9146280179231
 20
1168.217030564501
 30
0.0
 10
635.2637797608015
 20
1168.204201377197
 30
0.0
 10
635.3515464204555
 20
1168.200976490199
 30
0.0
  0
LINE
  5
94
330
1F
100
AcDbEntity
  8
0
  6
Continuous
 62
     7
370
    15
100
AcDbLine
 10
636.6965326804
 20
1246.8090646855
 30
0.0
 11
635.0827592748
 21
1246.2009780995
 31
0.0
  0
SPLINE
  5
95
330
1F
100
AcDbEntity
  8
0
  6
Continuous
 62
     7
370
    15
100
AcDbSpline
210
0.0
220
0.0
230
1.0
 70
     8
 71
     3
 72
    10
 73
     6
 74
     0
 42
0.00000001
 43
0.00000001
 12
1.0
 22
0.0
 32
0.0
 13
1.0
 23
0.0
 33
0.0
 40
0.0
 40
0.0
 40
0.0
 40
0.0
 40
0.3258068628953242
 40
0.938966776974176
 40
1.0
 40
1.0
 40
1.0
 40
1.0
 10
636.9777548450238
 20
1247.022941052138
 30
0.0
 10
636.9804262768126
 20
1247.025480730762
 30
0.0
 10
636.9881252726975
 20
1247.032800017502
 30
0.0
 10
636.8079240247215
 20
1246.825176584476
 30
0.0
 10
636.6694465538812
 20
1246.803337802154
 30
0.0
 10
636.6569104927784
 20
1246.801360785186
 30
0.0
  0
LINE
  5
96
330
1F
100
AcDbEntity
  8
0
  6
Continuous
 62
     7
370
    15
100
AcDbLine
 10
632.575087561
 20
1206.200971543
 30
0.0
 11
632.575087561
 21
1173.2009717218
 31
0.0
  0
LINE
  5
97
330
1F
100
AcDbEntity
  8
0
  6
Continuous
 62
     7
370
    15
100
AcDbLine
 10
636.8494632977
 20
1249.5647215239
 30
0.0
 11
636.2140926856
 21
1249.3253194682
 31
0.0
  0
SPLINE
  5
98
330
1F
100
AcDbEntity
  8
0
  6
Continuous
 62
     7
370
    15
100
AcDbSpline
210
0.0
220
0.0
230
1.0
 70
     8
 71
     3
 72
    10
 73
     6
 74
     0
 42
0.00000001
 43
0.00000001
 12
1.0
 22
0.0
 32
0.0
 13
1.0
 23
0.0
 33
0.0
 40
0.0
 40
0.0
 40
0.0
 40
0.0
 40
0.2109613703990744
 40
0.5591349878871036
 40
1.0
 40
1.0
 40
1.0
 40
1.0
 10
637.0322260397679
 20
1249.722509919822
 30
0.0
 10
637.0330442703165
 20
1249.723170722262
 30
0.0
 10
637.0352129200887
 20
1249.724922122358
 30
0.0
 10
636.9447875088028
 20
1249.584644039763
 30
0.0
 10
636.8019158449665
 20
1249.556796655536
 30
0.0
 10
636.7220881718404
 20
1249.541237293898
 30
0.0
  0
LINE
  5
99
330
1F
100
AcDbEntity
  8
0
  6
Continuous
 62
     7
370
    15
100
AcDbLine
 10
634.2138055104
 20
1253.9592527739
 30
0.0
 11
633.1245976824
 21
1253.5488300912
 31
0.0
  0
LINE
  5
9A
330
1F
100
AcDbEntity
  8
0
  6
Continuous
 62
     7
370
    15
100
AcDbLine
 10
596.4864234763
 20
817.7009665362
 30
0.0
 11
596.4864234763
 21
818.7009834639
 31
0.0
  0
LINE
  5
9B
330
1F
100
AcDbEntity
  8
0
  6
Continuous
 62
     7
370
    15
100
AcDbLine
 10
582.10642667
 20
818.7009834639
 30
0.0
 11
582.10642667
 21
817.7009665362
 31
0.0
  0
LINE
  5
9C
330
1F
100
AcDbEntity
  8
0
  6
Continuous
 62
     7
370
    15
100
AcDbLine
 10
593.2964238662
 20
832.7009671323
 30
0.0
 11
593.2964238662
 21
930.7009720199
 31
0.0
  0
LINE
  5
9D
330
1F
100
AcDbEntity
  8
0
  6
Continuous
 62
     7
370
    15
100
AcDbLine
 10
593.2964238662
 20
944.7009705893
 30
0.0
 11
593.2964238662
 21
947.700976669
 31
0.0
  0
LINE
  5
9E
330
1F
100
AcDbEntity
  8
0
  6
Continuous
 62
     7
370
    15
100
AcDbLine
 10
585.2964262801
 20
947.700976669
 30
0.0
 11
585.2964262801
 21
944.7009705893
 31
0.0
  0
LINE
  5
9F
330
1F
100
AcDbEntity
  8
0
  6
Continuous
 62
     7
370
    15
100
AcDbLine
 10
585.2964262801
 20
930.7009720199
 30
0.0
 11
585.2964262801
 21
832.7009671323
 31
0.0
  0
LINE
  5
A0
330
1F
100
AcDbEntity
  8
0
  6
Continuous
 62
     7
370
    15
100
AcDbLine
 10
493.9559403199
 20
817.7009665362
 30
0.0
 11
493.9559403199
 21
818.7009834639
 31
0.0
  0
LINE
  5
A1
330
1F
100
AcDbEntity
  8
0
  6
Continuous
 62
     7
370
    15
100
AcDbLine
 10
479.5759435135
 20
818.7009834639
 30
0.0
 11
479.5759435135
 21
817.7009665362
 31
0.0
  0
LINE
  5
A2
330
1F
100
AcDbEntity
  8
0
  6
Continuous
 62
     7
370
    15
100
AcDbLine
 10
490.7659407097
 20
832.7009671323
 30
0.0
 11
490.7659407097
 21
930.7009720199
 31
0.0
  0
LINE
  5
A3
330
1F
100
AcDbEntity
  8
0
  6
Continuous
 62
     7
370
    15
100
AcDbLine
 10
490.7659407097
 20
944.7009705893
 30
0.0
 11
490.7659407097
 21
947.700976669
 31
0.0
  0
LINE
  5
A4
330
1F
100
AcDbEntity
  8
0
  6
Continuous
 62
     7
370
    15
100
AcDbLine
 10
482.7659431237
 20
947.700976669
 30
0.0
 11
482.7659431237
 21
944.7009705893
 31
0.0
  0
LINE
  5
A5
330
1F
100
AcDbEntity
  8
0
  6
Continuous
 62
     7
370
    15
100
AcDbLine
 10
482.7659431237
 20
930.7009720199
 30
0.0
 11
482.7659431237
 21
832.7009671323
 31
0.0
  0
LINE
  5
A6
330
1F
100
AcDbEntity
  8
0
  6
Continuous
 62
     7
370
    15
100
AcDbLine
 10
470.5311808127
 20
834.7009711854
 30
0.0
 11
470.5311808127
 21
818.7009834639
 31
0.0
  0
LINE
  5
A7
330
1F
100
AcDbEntity
  8
0
  6
Continuous
 62
     7
370
    15
100
AcDbLine
 10
605.5311861771
 20
818.7009834639
 30
0.0
 11
605.5311861771
 21
834.7009711854
 31
0.0
  0
LINE
  5
A8
330
1F
100
AcDbEntity
  8
0
  6
Continuous
 62
     7
370
    15
100
AcDbLine
 10
600.8974540371
 20
818.7009834639
 30
0.0
 11
600.8974540371
 21
832.7009671323
 31
0.0
  0
LINE
  5
A9
330
1F
100
AcDbEntity
  8
0
  6
Continuous
 62
     7
370
    15
100
AcDbLine
 10
475.1649129528
 20
832.7009671323
 30
0.0
 11
475.1649129528
 21
818.7009834639
 31
0.0
  0
LINE
  5
AA
330
1F
100
AcDbEntity
  8
0
  6
Continuous
 62
     7
370
    15
100
AcDbLine
 10
569.0311829883
 20
803.200974404
 30
0.0
 11
569.0311829883
 21
818.7009834639
 31
0.0
  0
LINE
  5
AB
330
1F
100
AcDbEntity
  8
0
  6
Continuous
 62
     7
370
    15
100
AcDbLine
 10
507.0311840016
 20
818.7009834639
 30
0.0
 11
507.0311840016
 21
803.200974404
 31
0.0
  0
LWPOLYLINE
  5
AC
330
1F
100
AcDbEntity
  8
0
  6
Continuous
 62
     7
370
    15
100
AcDbPolyline
 90
        3
 70
   128
 43
0.0
 10
492.6299679416
 20
812.4009811274
 10
493.3591041106
 20
810.950978934
 10
497.2562196988
 20
803.200974404
  0
LWPOLYLINE
  5
AD
330
1F
100
AcDbEntity
  8
0
  6
Continuous
 62
     7
370
    15
100
AcDbPolyline
 90
        3
 70
   128
 43
0.0
 10
578.8061472911
 20
803.200974404
 10
582.7032628793
 20
810.950978934
 10
583.4323990482
 20
812.4009811274
  0
LINE
  5
AE
330
1F
100
AcDbEntity
  8
0
  6
Continuous
 62
     7
370
    15
100
AcDbLine
 10
605.5311861771
 20
834.7009711854
 30
0.0
 11
605.5311861771
 21
858.2009666554
 31
0.0
  0
LINE
  5
AF
330
1F
100
AcDbEntity
  8
0
  6
Continuous
 62
     7
370
    15
100
AcDbLine
 10
470.5311808127
 20
858.2009666554
 30
0.0
 11
470.5311808127
 21
834.7009711854
 31
0.0
  0
LINE
  5
B0
330
1F
100
AcDbEntity
  8
0
  6
Continuous
 62
     7
370
    15
100
AcDbLine
 10
605.5311861771
 20
905.2009724967
 30
0.0
 11
605.5311861771
 21
928.7009679667
 31
0.0
  0
LINE
  5
B1
330
1F
100
AcDbEntity
  8
0
  6
Continuous
 62
     7
370
    15
100
AcDbLine
 10
470.5311808127
 20
928.7009679667
 30
0.0
 11
470.5311808127
 21
905.2009724967
 31
0.0
  0
LINE
  5
B2
330
1F
100
AcDbEntity
  8
0
  6
Continuous
 62
     7
370
    15
100
AcDbLine
 10
605.5311861771
 20
881.7009770266
 30
0.0
 11
605.5311861771
 21
905.2009724967
 31
0.0
  0
LINE
  5
B3
330
1F
100
AcDbEntity
  8
0
  6
Continuous
 62
     7
370
    15
100
AcDbLine
 10
470.5311808127
 20
905.2009724967
 30
0.0
 11
470.5311808127
 21
881.7009770266
 31
0.0
  0
LINE
  5
B4
330
1F
100
AcDbEntity
  8
0
  6
Continuous
 62
     7
370
    15
100
AcDbLine
 10
605.5311861771
 20
858.2009666554
 30
0.0
 11
605.5311861771
 21
881.7009770266
 31
0.0
  0
LINE
  5
B5
330
1F
100
AcDbEntity
  8
0
  6
Continuous
 62
     7
370
    15
100
AcDbLine
 10
470.5311808127
 20
881.7009770266
 30
0.0
 11
470.5311808127
 21
858.2009666554
 31
0.0
  0
LINE
  5
B6
330
1F
100
AcDbEntity
  8
0
  6
Continuous
 62
     7
370
    15
100
AcDbLine
 10
453.0311826009
 20
1026.7009728543
 30
0.0
 11
453.0311826009
 21
1023.7009742252
 31
0.0
  0
LINE
  5
B7
330
1F
100
AcDbEntity
  8
0
  6
Continuous
 62
     7
370
    15
100
AcDbLine
 10
623.031184389
 20
1023.7009742252
 30
0.0
 11
623.031184389
 21
1026.7009728543
 31
0.0
  0
LINE
  5
B8
330
1F
100
AcDbEntity
  8
0
  6
Continuous
 62
     7
370
    15
100
AcDbLine
 10
622.0311823624
 20
1070.7009735472
 30
0.0
 11
622.0311823624
 21
1076.7009738322
 31
0.0
  0
LINE
  5
B9
330
1F
100
AcDbEntity
  8
0
  6
Continuous
 62
     7
370
    15
100
AcDbLine
 10
454.0311846274
 20
1076.7009738322
 30
0.0
 11
454.0311846274
 21
1070.7009735472
 31
0.0
  0
LINE
  5
BA
330
1F
100
AcDbEntity
  8
0
  6
Continuous
 62
     7
370
    15
100
AcDbLine
 10
605.5311861771
 20
928.7009679667
 30
0.0
 11
605.5311861771
 21
960.7009732119
 31
0.0
  0
LINE
  5
BB
330
1F
100
AcDbEntity
  8
0
  6
Continuous
 62
     7
370
    15
100
AcDbLine
 10
470.5311808127
 20
960.7009732119
 30
0.0
 11
470.5311808127
 21
928.7009679667
 31
0.0
  0
LINE
  5
BC
330
1F
100
AcDbEntity
  8
0
  6
Continuous
 62
     7
370
    15
100
AcDbLine
 10
464.2132523793
 20
1070.7009735472
 30
0.0
 11
464.2132523793
 21
1038.7009748213
 31
0.0
  0
LINE
  5
BD
330
1F
100
AcDbEntity
  8
0
  6
Continuous
 62
     7
370
    15
100
AcDbLine
 10
611.8491146106
 20
1038.7009748213
 30
0.0
 11
611.8491146106
 21
1070.7009735472
 31
0.0
  0
LINE
  5
BE
330
1F
100
AcDbEntity
  8
0
  6
Continuous
 62
     7
370
    15
100
AcDbLine
 10
462.0311859387
 20
1070.7009735472
 30
0.0
 11
462.0311859387
 21
1038.7009748213
 31
0.0
  0
LINE
  5
BF
330
1F
100
AcDbEntity
  8
0
  6
Continuous
 62
     7
370
    15
100
AcDbLine
 10
614.0311810511
 20
1038.7009748213
 30
0.0
 11
614.0311810511
 21
1070.7009735472
 31
0.0
  0
SPLINE
  5
C0
330
1F
100
AcDbEntity
  8
0
  6
Continuous
 62
     7
370
    15
100
AcDbSpline
210
0.0
220
0.0
230
1.0
 70
     8
 71
     3
 72
    11
 73
     7
 74
     0
 42
0.00000001
 43
0.00000001
 12
1.0
 22
0.0
 32
0.0
 13
1.0
 23
0.0
 33
0.0
 40
0.0
 40
0.0
 40
0.0
 40
0.0
 40
0.2495154938363812
 40
0.4999856497358506
 40
0.8418427508815454
 40
1.0
 40
1.0
 40
1.0
 40
1.0
 10
522.4118766698247
 20
1299.562677084624
 30
0.0
 10
525.0023463609929
 20
1299.841160002671
 30
0.0
 10
530.1931970442337
 20
1300.399191332027
 30
0.0
 10
538.9841903195567
 20
1300.646059048527
 30
0.0
 10
546.8233977960529
 20
1300.336501282569
 30
0.0
 10
552.0099543654499
 20
1299.748625409594
 30
0.0
 10
553.6504903200274
 20
1299.562677084624
 30
0.0
  0
LWPOLYLINE
  5
C1
330
1F
100
AcDbEntity
  8
0
  6
Continuous
 62
     7
370
    15
100
AcDbPolyline
 90
        9
 70
   128
 43
0.0
 10
553.65049032
 20
1299.5626770846
 10
553.6318322036
 20
1299.4150214784
 10
553.6104006085
 20
1299.2454164616
 10
553.5865112531
 20
1299.0563654296
 10
553.5605152461
 20
1298.8506399981
 10
553.532795361
 20
1298.6312800042
 10
553.5037604484
 20
1298.4015040986
 10
553.4738370541
 20
1298.1647097461
 10
553.4434666249
 20
1297.9243689172
  0
SPLINE
  5
C2
330
1F
100
AcDbEntity
  8
0
  6
Continuous
 62
     7
370
    15
100
AcDbSpline
210
0.0
220
0.0
230
1.0
 70
     8
 71
     3
 72
    11
 73
     7
 74
     0
 42
0.00000001
 43
0.00000001
 12
1.0
 22
0.0
 32
0.0
 13
1.0
 23
0.0
 33
0.0
 40
0.0
 40
0.0
 40
0.0
 40
0.0
 40
0.2495263097349749
 40
0.5000316418710249
 40
0.7495143266912445
 40
1.0
 40
1.0
 40
1.0
 40
1.0
 10
553.4434666249161
 20
1297.924368917166
 30
0.0
 10
550.8873553418621
 20
1298.202994550451
 30
0.0
 10
545.7651038124415
 20
1298.761339011308
 30
0.0
 10
538.0407389883574
 20
1298.97849526731
 30
0.0
 10
530.306515439806
 20
1298.761910443809
 30
0.0
 10
525.1848635785365
 20
1298.20392255328
 30
0.0
 10
522.6189003649359
 20
1297.924368917166
 30
0.0
  0
LWPOLYLINE
  5
C3
330
1F
100
AcDbEntity
  8
0
  6
Continuous
 62
     7
370
    15
100
AcDbPolyline
 90
        9
 70
   128
 43
0.0
 10
522.4118766698
 20
1299.5626770846
 10
522.4305347863
 20
1299.4150214784
 10
522.4519663814
 20
1299.2454164616
 10
522.4758557367
 20
1299.0563654296
 10
522.5018517438
 20
1298.8506399981
 10
522.5295716289
 20
1298.6312800042
 10
522.5586065415
 20
1298.4015040986
 10
522.5885299358
 20
1298.1647097461
 10
522.6189003649
 20
1297.9243689172
  0
SPLINE
  5
C4
330
1F
100
AcDbEntity
  8
0
  6
Continuous
 62
     7
370
    15
100
AcDbSpline
210
0.0
220
0.0
230
1.0
 70
     8
 71
     3
 72
    13
 73
     9
 74
     0
 42
0.00000001
 43
0.00000001
 12
1.0
 22
0.0
 32
0.0
 13
1.0
 23
0.0
 33
0.0
 40
0.0
 40
0.0
 40
0.0
 40
0.0
 40
0.210959077025
 40
0.4218730183391119
 40
0.6340842031395493
 40
0.8490898281674514
 40
0.9950607413811584
 40
1.0
 40
1.0
 40
1.0
 40
1.0
 10
567.7801336485153
 20
1297.20097714585
 30
0.0
 10
567.7764910489495
 20
1297.423555998218
 30
0.0
 10
567.7692066291696
 20
1297.868666081137
 30
0.0
 10
567.7124307700061
 20
1298.461897908959
 30
0.0
 10
567.628445419581
 20
1298.917140796227
 30
0.0
 10
567.5339006601013
 20
1299.154275801214
 30
0.0
 10
567.4694924872554
 20
1299.200564842721
 30
0.0
 10
567.4429346491085
 20
1299.200968003594
 30
0.0
 10
567.4420654165751
 20
1299.200981198966
 30
0.0
  0
LINE
  5
C5
330
1F
100
AcDbEntity
  8
0
  6
Continuous
 62
     7
370
    15
100
AcDbLine
 10
567.4420654166
 20
1299.200981199
 30
0.0
 11
627.0311850446
 21
1299.200981199
 31
0.0
  0
LINE
  5
C6
330
1F
100
AcDbEntity
  8
0
  6
Continuous
 62
     7
370
    15
100
AcDbLine
 10
449.0311819452
 20
1299.200981199
 30
0.0
 11
508.1268049169
 21
1299.200981199
 31
0.0
  0
LWPOLYLINE
  5
C7
330
1F
100
AcDbEntity
  8
0
  6
Continuous
 62
     7
370
    15
100
AcDbPolyline
 90
        9
 70
   128
 43
0.0
 10
507.4547960746
 20
1297.2009771458
 10
507.4677079308
 20
1297.5911491505
 10
507.5059498984
 20
1297.9663454882
 10
507.568048625
 20
1298.3121120326
 10
507.6516217875
 20
1298.6151867501
 10
507.7534563231
 20
1298.8639169328
 10
507.8696369517
 20
1299.048736035
 10
507.995702638
 20
1299.1625511042
 10
508.1268049169
 20
1299.200981199
  0
LINE
  5
C8
330
1F
100
AcDbEntity
  8
0
  6
Continuous
 62
     7
370
    15
100
AcDbLine
 10
611.7793920773
 20
1284.7009741656
 30
0.0
 11
621.0750940579
 21
1284.7009741656
 31
0.0
  0
LINE
  5
C9
330
1F
100
AcDbEntity
  8
0
  6
Continuous
 62
     7
370
    15
100
AcDbLine
 10
611.7793920773
 20
1248.2009672515
 30
0.0
 11
611.7793920773
 21
1284.7009741656
 31
0.0
  0
LINE
  5
CA
330
1F
100
AcDbEntity
  8
0
  6
Continuous
 62
     7
370
    15
100
AcDbLine
 10
584.0311835843
 20
1248.2009672515
 30
0.0
 11
611.7793920773
 21
1248.2009672515
 31
0.0
  0
SPLINE
  5
CB
330
1F
100
AcDbEntity
  8
0
  6
Continuous
 62
     7
370
    15
100
AcDbSpline
210
0.0
220
0.0
230
1.0
 70
     8
 71
     3
 72
    12
 73
     8
 74
     0
 42
0.00000001
 43
0.00000001
 12
1.0
 22
0.0
 32
0.0
 13
1.0
 23
0.0
 33
0.0
 40
0.0
 40
0.0
 40
0.0
 40
0.0
 40
0.1808736413559583
 40
0.3614137204323896
 40
0.5505806030681746
 40
0.7622078529558014
 40
1.0
 40
1.0
 40
1.0
 40
1.0
 10
582.0311832565076
 20
1250.200971304595
 30
0.0
 10
582.0495730983636
 20
1249.996851799204
 30
0.0
 10
582.0863188680263
 20
1249.588989220097
 30
0.0
 10
582.3678094219343
 20
1249.040399204642
 30
0.0
 10
582.7896735729126
 20
1248.593598652745
 30
0.0
 10
583.3614368853201
 20
1248.267404616073
 30
0.0
 10
583.7994347044865
 20
1248.223956218573
 30
0.0
 10
584.0311835843331
 20
1248.200967251479
 30
0.0
  0
SPLINE
  5
CC
330
1F
100
AcDbEntity
  8
0
  6
Continuous
 62
     7
370
    15
100
AcDbSpline
210
0.0
220
0.0
230
1.0
 70
     8
 71
     3
 72
    12
 73
     8
 74
     0
 42
0.00000001
 43
0.00000001
 12
1.0
 22
0.0
 32
0.0
 13
1.0
 23
0.0
 33
0.0
 40
0.0
 40
0.0
 40
0.0
 40
0.0
 40
0.2521070864356668
 40
0.504702506152531
 40
0.7406677102816053
 40
0.9463275505374219
 40
1.0
 40
1.0
 40
1.0
 40
1.0
 10
580.0311829286819
 20
1252.20097535771
 30
0.0
 10
580.2806952161413
 20
1252.173928437376
 30
0.0
 10
580.7802030981967
 20
1252.119782206622
 30
0.0
 10
581.4290497701217
 20
1251.696176536532
 30
0.0
 10
581.8709487160294
 20
1251.090870857761
 30
0.0
 10
582.0215022758581
 20
1250.54908204035
 30
0.0
 10
582.0295232115318
 20
1250.260663550537
 30
0.0
 10
582.0311832565076
 20
1250.200971304595
 30
0.0
  0
LINE
  5
CD
330
1F
100
AcDbEntity
  8
0
  6
Continuous
 62
     7
370
    15
100
AcDbLine
 10
580.0311829287
 20
1252.2009753577
 30
0.0
 11
567.7801336485
 21
1252.2009753577
 31
0.0
  0
LINE
  5
CE
330
1F
100
AcDbEntity
  8
0
  6
Continuous
 62
     7
370
    15
100
AcDbLine
 10
567.7801336485
 20
1297.2009771458
 30
0.0
 11
567.7801336485
 21
1252.2009753577
 31
0.0
  0
LINE
  5
CF
330
1F
100
AcDbEntity
  8
0
  6
Continuous
 62
     7
370
    15
100
AcDbLine
 10
507.4547960746
 20
1252.2009753577
 30
0.0
 11
507.4547960746
 21
1297.2009771458
 31
0.0
  0
LINE
  5
D0
330
1F
100
AcDbEntity
  8
0
  6
Continuous
 62
     7
370
    15
100
AcDbLine
 10
507.4547960746
 20
1252.2009753577
 30
0.0
 11
496.0311840612
 21
1252.2009753577
 31
0.0
  0
SPLINE
  5
D1
330
1F
100
AcDbEntity
  8
0
  6
Continuous
 62
     7
370
    15
100
AcDbSpline
210
0.0
220
0.0
230
1.0
 70
     8
 71
     3
 72
    12
 73
     8
 74
     0
 42
0.00000001
 43
0.00000001
 12
1.0
 22
0.0
 32
0.0
 13
1.0
 23
0.0
 33
0.0
 40
0.0
 40
0.0
 40
0.0
 40
0.0
 40
0.1829287871254935
 40
0.3655037551505664
 40
0.5574135850227994
 40
0.7721376307020946
 40
1.0
 40
1.0
 40
1.0
 40
1.0
 10
494.0311837333447
 20
1250.200971304595
 30
0.0
 10
494.0496777167657
 20
1250.405625202041
 30
0.0
 10
494.0866299127229
 20
1250.814537157334
 30
0.0
 10
494.3698111075041
 20
1251.365001930702
 30
0.0
 10
494.7963237420045
 20
1251.814284222661
 30
0.0
 10
495.3673001650556
 20
1252.136174151661
 30
0.0
 10
495.8055528704583
 20
1252.178951667475
 30
0.0
 10
496.0311840611702
 20
1252.20097535771
 30
0.0
  0
SPLINE
  5
D2
330
1F
100
AcDbEntity
  8
0
  6
Continuous
 62
     7
370
    15
100
AcDbSpline
210
0.0
220
0.0
230
1.0
 70
     8
 71
     3
 72
    11
 73
     7
 74
     0
 42
0.00000001
 43
0.00000001
 12
1.0
 22
0.0
 32
0.0
 13
1.0
 23
0.0
 33
0.0
 40
0.0
 40
0.0
 40
0.0
 40
0.0
 40
0.3031313208924162
 40
0.5634747384640458
 40
0.7924710640988484
 40
1.0
 40
1.0
 40
1.0
 40
1.0
 10
492.0311834055191
 20
1248.200967251479
 30
0.0
 10
492.3274935921445
 20
1248.238265639827
 30
0.0
 10
492.8782888858194
 20
1248.307597636132
 30
0.0
 10
493.5395925852488
 20
1248.818790071273
 30
0.0
 10
493.9552573905663
 20
1249.474152460631
 30
0.0
 10
494.0067185358716
 20
1249.966773713955
 30
0.0
 10
494.0311837333447
 20
1250.200971304595
 30
0.0
  0
LINE
  5
D3
330
1F
100
AcDbEntity
  8
0
  6
Continuous
 62
     7
370
    15
100
AcDbLine
 10
464.2829749125
 20
1248.2009672515
 30
0.0
 11
492.0311834055
 21
1248.2009672515
 31
0.0
  0
LINE
  5
D4
330
1F
100
AcDbEntity
  8
0
  6
Continuous
 62
     7
370
    15
100
AcDbLine
 10
464.2829749125
 20
1284.7009741656
 30
0.0
 11
464.2829749125
 21
1248.2009672515
 31
0.0
  0
LINE
  5
D5
330
1F
100
AcDbEntity
  8
0
  6
Continuous
 62
     7
370
    15
100
AcDbLine
 10
454.9872729319
 20
1284.7009741656
 30
0.0
 11
464.2829749125
 21
1284.7009741656
 31
0.0
  0
LINE
  5
D6
330
1F
100
AcDbEntity
  8
0
  6
Continuous
 62
     7
370
    15
100
AcDbLine
 10
447.0311853427
 20
1248.2009672515
 30
0.0
 11
454.3241712588
 21
1248.2009672515
 31
0.0
  0
SPLINE
  5
D7
330
1F
100
AcDbEntity
  8
0
  6
Continuous
 62
     7
370
    15
100
AcDbSpline
210
0.0
220
0.0
230
1.0
 70
     8
 71
     3
 72
    10
 73
     6
 74
     0
 42
0.00000001
 43
0.00000001
 12
1.0
 22
0.0
 32
0.0
 13
1.0
 23
0.0
 33
0.0
 40
0.0
 40
0.0
 40
0.0
 40
0.0
 40
0.3747301573456736
 40
0.7492121580423691
 40
1.0
 40
1.0
 40
1.0
 40
1.0
 10
629.0187913316495
 20
1251.200973331152
 30
0.0
 10
629.0194824466643
 20
1251.636087486012
 30
0.0
 10
629.0208642190186
 20
1252.506027651134
 30
0.0
 10
629.0296937328492
 20
1253.572713167793
 30
0.0
 10
629.029899552173
 20
1254.033325321532
 30
0.0
 10
629.029982103706
 20
1254.218071042716
 30
0.0
  0
LINE
  5
D8
330
1F
100
AcDbEntity
  8
0
  6
Continuous
 62
     7
370
    15
100
AcDbLine
 10
629.0187913316
 20
1250.2009713046
 30
0.0
 11
629.0187913316
 21
1251.2009733312
 31
0.0
  0
SPLINE
  5
D9
330
1F
100
AcDbEntity
  8
0
  6
Continuous
 62
     7
370
    15
100
AcDbSpline
210
0.0
220
0.0
230
1.0
 70
     8
 71
     3
 72
    12
 73
     8
 74
     0
 42
0.00000001
 43
0.00000001
 12
1.0
 22
0.0
 32
0.0
 13
1.0
 23
0.0
 33
0.0
 40
0.0
 40
0.0
 40
0.0
 40
0.0
 40
0.226939617448925
 40
0.4540797313805842
 40
0.6754170349891365
 40
0.8875691200089124
 40
1.0
 40
1.0
 40
1.0
 40
1.0
 10
628.9604160326726
 20
1248.200967251479
 30
0.0
 10
628.9694143102555
 20
1248.224415342088
 30
0.0
 10
628.9874188152145
 20
1248.271332239212
 30
0.0
 10
629.0046964154741
 20
1248.640274497213
 30
0.0
 10
629.0146586186078
 20
1249.178433067955
 30
0.0
 10
629.018359544867
 20
1249.735023949973
 30
0.0
 10
629.0186802455397
 20
1250.081096678862
 30
0.0
 10
629.0187913316495
 20
1250.200971304595
 30
0.0
  0
LINE
  5
DA
330
1F
100
AcDbEntity
  8
0
  6
Continuous
 62
     7
370
    15
100
AcDbLine
 10
621.738195731
 20
1248.2009672515
 30
0.0
 11
628.9604160327
 21
1248.2009672515
 31
0.0
  0
LINE
  5
DB
330
1F
100
AcDbEntity
  8
0
  6
Continuous
 62
     7
370
    15
100
AcDbLine
 10
567.7801336485
 20
1297.2009771458
 30
0.0
 11
563.2240384209
 21
1297.2009771458
 31
0.0
  0
LINE
  5
DC
330
1F
100
AcDbEntity
  8
0
  6
Continuous
 62
     7
370
    15
100
AcDbLine
 10
563.2240384209
 20
1299.200981199
 30
0.0
 11
563.2240384209
 21
1297.2009771458
 31
0.0
  0
LINE
  5
DD
330
1F
100
AcDbEntity
  8
0
  6
Continuous
 62
     7
370
    15
100
AcDbLine
 10
563.2240384209
 20
1299.200981199
 30
0.0
 11
567.4420654166
 21
1299.200981199
 31
0.0
  0
LINE
  5
DE
330
1F
100
AcDbEntity
  8
0
  6
Continuous
 62
     7
370
    15
100
AcDbLine
 10
512.8383285689
 20
1297.2009771458
 30
0.0
 11
509.1348163176
 21
1297.2009771458
 31
0.0
  0
SPLINE
  5
DF
330
1F
100
AcDbEntity
  8
0
  6
Continuous
 62
     7
370
    15
100
AcDbSpline
210
0.0
220
0.0
230
1.0
 70
     8
 71
     3
 72
     9
 73
     5
 74
     0
 42
0.00000001
 43
0.00000001
 12
1.0
 22
0.0
 32
0.0
 13
1.0
 23
0.0
 33
0.0
 40
0.0
 40
0.0
 40
0.0
 40
0.0
 40
0.1839458265694177
 40
1.0
 40
1.0
 40
1.0
 40
1.0
 10
512.8383285689359
 20
1297.20097714585
 30
0.0
 10
513.4399870088171
 20
1297.207672986467
 30
0.0
 10
516.7108328393638
 20
1297.24407414186
 30
0.0
 10
519.9640769396825
 20
1297.618674627495
 30
0.0
 10
522.6189003649359
 20
1297.924368917166
 30
0.0
  0
SPLINE
  5
E0
330
1F
100
AcDbEntity
  8
0
  6
Continuous
 62
     7
370
    15
100
AcDbSpline
210
0.0
220
0.0
230
1.0
 70
     8
 71
     3
 72
     9
 73
     5
 74
     0
 42
0.00000001
 43
0.00000001
 12
1.0
 22
0.0
 32
0.0
 13
1.0
 23
0.0
 33
0.0
 40
0.0
 40
0.0
 40
0.0
 40
0.0
 40
0.1828089188336569
 40
1.0
 40
1.0
 40
1.0
 40
1.0
 10
553.4434666249161
 20
1297.924368917166
 30
0.0
 10
554.0367140216872
 20
1297.850342423788
 30
0.0
 10
557.2818915576412
 20
1297.445403245487
 30
0.0
 10
560.5518541525826
 20
1297.310895596748
 30
0.0
 10
563.2240384209161
 20
1297.20097714585
 30
0.0
  0
LINE
  5
E1
330
1F
100
AcDbEntity
  8
0
  6
Continuous
 62
     7
370
    15
100
AcDbLine
 10
567.7801336485
 20
1252.2009753577
 30
0.0
 11
509.1348163176
 21
1252.2009753577
 31
0.0
  0
LINE
  5
E2
330
1F
100
AcDbEntity
  8
0
  6
Continuous
 62
     7
370
    15
100
AcDbLine
 10
509.1348163176
 20
1297.2009771458
 30
0.0
 11
509.1348163176
 21
1252.2009753577
 31
0.0
  0
LINE
  5
E3
330
1F
100
AcDbEntity
  8
0
  6
Continuous
 62
     7
370
    15
100
AcDbLine
 10
563.2240384209
 20
1299.200981199
 30
0.0
 11
562.3028598118
 21
1299.2310964457
 31
0.0
  0
LINE
  5
E4
330
1F
100
AcDbEntity
  8
0
  6
Continuous
 62
     7
370
    15
100
AcDbLine
 10
512.8383285689
 20
1299.200981199
 30
0.0
 11
513.547864123
 21
1299.2074185006
 31
0.0
  0
LINE
  5
E5
330
1F
100
AcDbEntity
  8
0
  6
Continuous
 62
     7
370
    15
100
AcDbLine
 10
512.8383285689
 20
1299.200981199
 30
0.0
 11
512.8383285689
 21
1297.2009771458
 31
0.0
  0
LINE
  5
E6
330
1F
100
AcDbEntity
  8
0
  6
Continuous
 62
     7
370
    15
100
AcDbLine
 10
509.1348163176
 20
1299.200981199
 30
0.0
 11
512.8383285689
 21
1299.200981199
 31
0.0
  0
LINE
  5
E7
330
1F
100
AcDbEntity
  8
0
  6
Continuous
 62
     7
370
    15
100
AcDbLine
 10
509.1348163176
 20
1297.2009771458
 30
0.0
 11
509.1348163176
 21
1299.200981199
 31
0.0
  0
LINE
  5
E8
330
1F
100
AcDbEntity
  8
0
  6
Continuous
 62
     7
370
    15
100
AcDbLine
 10
509.1348163176
 20
1297.2009771458
 30
0.0
 11
507.4547960746
 21
1297.2009771458
 31
0.0
  0
LINE
  5
E9
330
1F
100
AcDbEntity
  8
0
  6
Continuous
 62
     7
370
    15
100
AcDbLine
 10
508.1268049169
 20
1299.200981199
 30
0.0
 11
509.1348163176
 21
1299.200981199
 31
0.0
  0
LINE
  5
EA
330
1F
100
AcDbEntity
  8
0
  6
Continuous
 62
     7
370
    15
100
AcDbLine
 10
507.4547960746
 20
1252.2009753577
 30
0.0
 11
509.1348163176
 21
1252.2009753577
 31
0.0
  0
LINE
  5
EB
330
1F
100
AcDbEntity
  8
0
  6
Continuous
 62
     7
370
    15
100
AcDbLine
 10
471.5311828393
 20
1317.2009729735
 30
0.0
 11
604.5311841506
 21
1317.2009729735
 31
0.0
  0
ARC
  5
EC
330
1F
100
AcDbEntity
  8
0
  6
Continuous
 62
     7
370
    15
100
AcDbCircle
 10
620.3526707402
 20
1278.4761726107
 30
0.0
 40
7.192339234727601
100
AcDbArc
 50
141.8518898393
 51
158.2896767725
  0
SPLINE
  5
ED
330
1F
100
AcDbEntity
  8
0
  6
Continuous
 62
     7
370
    15
100
AcDbSpline
210
0.0
220
0.0
230
1.0
 70
     8
 71
     3
 72
    11
 73
     7
 74
     0
 42
0.00000001
 43
0.00000001
 12
1.0
 22
0.0
 32
0.0
 13
1.0
 23
0.0
 33
0.0
 40
0.0
 40
0.0
 40
0.0
 40
0.0
 40
0.2526140175175399
 40
0.6255185003825948
 40
0.9969429025689723
 40
1.0
 40
1.0
 40
1.0
 40
1.0
 10
613.6705133455997
 20
1281.136720716177
 30
0.0
 10
613.435729822019
 20
1281.401550237654
 30
0.0
 10
612.8543628851085
 20
1282.057316559568
 30
0.0
 10
612.2521041513943
 20
1283.297854890653
 30
0.0
 10
611.9151687426428
 20
1284.228642527876
 30
0.0
 10
611.7804915211934
 20
1284.697149486902
 30
0.0
 10
611.7793920773273
 20
1284.700974165618
 30
0.0
  0
SPLINE
  5
EE
330
1F
100
AcDbEntity
  8
0
  6
Continuous
 62
     7
370
    15
100
AcDbSpline
210
0.0
220
0.0
230
1.0
 70
     8
 71
     3
 72
    11
 73
     7
 74
     0
 42
0.00000001
 43
0.00000001
 12
1.0
 22
0.0
 32
0.0
 13
1.0
 23
0.0
 33
0.0
 40
0.0
 40
0.0
 40
0.0
 40
0.0
 40
0.003064560444135
 40
0.3762739514457423
 40
0.7492867748862598
 40
1.0
 40
1.0
 40
1.0
 40
1.0
 10
611.7793920773273
 20
1284.700974165618
 30
0.0
 10
611.7816290229757
 20
1284.699066789497
 30
0.0
 10
612.0562864799339
 20
1284.464874655686
 30
0.0
 10
612.6673496308277
 20
1284.000995642181
 30
0.0
 10
613.6235500585522
 20
1283.381485188298
 30
0.0
 10
614.3888679826075
 20
1283.05149707401
 30
0.0
 10
614.6964955466991
 20
1282.918854891478
 30
0.0
  0
LINE
  5
EF
330
1F
100
AcDbEntity
  8
0
  6
Continuous
 62
     7
370
    15
100
AcDbLine
 10
613.6705133456
 20
1248.2009672515
 30
0.0
 11
613.6705133456
 21
1281.1367207162
 31
0.0
  0
LINE
  5
F0
330
1F
100
AcDbEntity
  8
0
  6
Continuous
 62
     7
370
    15
100
AcDbLine
 10
613.6705133456
 20
1248.2009672515
 30
0.0
 11
611.7793920773
 21
1248.2009672515
 31
0.0
  0
SPLINE
  5
F1
330
1F
100
AcDbEntity
  8
0
  6
Continuous
 62
     7
370
    15
100
AcDbSpline
210
0.0
220
0.0
230
1.0
 70
     8
 71
     3
 72
    11
 73
     7
 74
     0
 42
0.00000001
 43
0.00000001
 12
1.0
 22
0.0
 32
0.0
 13
1.0
 23
0.0
 33
0.0
 40
0.0
 40
0.0
 40
0.0
 40
0.0
 40
0.2507132251137402
 40
0.6237260485542577
 40
0.9969354395558649
 40
1.0
 40
1.0
 40
1.0
 40
1.0
 10
461.365871443153
 20
1282.918854891478
 30
0.0
 10
461.6734990072447
 20
1283.05149707401
 30
0.0
 10
462.4388169313
 20
1283.381485188299
 30
0.0
 10
463.3950173590246
 20
1284.00099564218
 30
0.0
 10
464.0060805099181
 20
1284.464874655688
 30
0.0
 10
464.2807379668765
 20
1284.699066789497
 30
0.0
 10
464.2829749125248
 20
1284.700974165618
 30
0.0
  0
SPLINE
  5
F2
330
1F
100
AcDbEntity
  8
0
  6
Continuous
 62
     7
370
    15
100
AcDbSpline
210
0.0
220
0.0
230
1.0
 70
     8
 71
     3
 72
    11
 73
     7
 74
     0
 42
0.00000001
 43
0.00000001
 12
1.0
 22
0.0
 32
0.0
 13
1.0
 23
0.0
 33
0.0
 40
0.0
 40
0.0
 40
0.0
 40
0.0
 40
0.0030570974310277
 40
0.3744814996174052
 40
0.7473859824824601
 40
1.0
 40
1.0
 40
1.0
 40
1.0
 10
464.2829749125248
 20
1284.700974165618
 30
0.0
 10
464.2818754686588
 20
1284.697149486902
 30
0.0
 10
464.14719824721
 20
1284.228642527877
 30
0.0
 10
463.8102628384577
 20
1283.297854890653
 30
0.0
 10
463.2080041047438
 20
1282.057316559568
 30
0.0
 10
462.6266371678332
 20
1281.401550237654
 30
0.0
 10
462.3918536442524
 20
1281.136720716177
 30
0.0
  0
ARC
  5
F3
330
1F
100
AcDbEntity
  8
0
  6
Continuous
 62
     7
370
    15
100
AcDbCircle
 10
455.7096962497
 20
1278.4761726107
 30
0.0
 40
7.192339234719882
100
AcDbArc
 50
21.7103232275
 51
38.1481101607
  0
LINE
  5
F4
330
1F
100
AcDbEntity
  8
0
  6
Continuous
 62
     7
370
    15
100
AcDbLine
 10
462.3918536443
 20
1281.1367207162
 30
0.0
 11
462.3918536443
 21
1248.2009672515
 31
0.0
  0
LINE
  5
F5
330
1F
100
AcDbEntity
  8
0
  6
Continuous
 62
     7
370
    15
100
AcDbLine
 10
464.2829749125
 20
1248.2009672515
 30
0.0
 11
462.3918536443
 21
1248.2009672515
 31
0.0
  0
SPLINE
  5
F6
330
1F
100
AcDbEntity
  8
0
  6
Continuous
 62
     7
370
    15
100
AcDbSpline
210
0.0
220
0.0
230
1.0
 70
     8
 71
     3
 72
    11
 73
     7
 74
     0
 42
0.00000001
 43
0.00000001
 12
1.0
 22
0.0
 32
0.0
 13
1.0
 23
0.0
 33
0.0
 40
0.0
 40
0.0
 40
0.0
 40
0.0
 40
0.2507119919061653
 40
0.6237253165098688
 40
0.9969357493513693
 40
1.0
 40
1.0
 40
1.0
 40
1.0
 10
620.5516013640172
 20
1282.918854891478
 30
0.0
 10
620.4884869816916
 20
1283.051496772993
 30
0.0
 10
620.3314700085783
 20
1283.381485374259
 30
0.0
 10
620.5785447728695
 20
1284.001007149316
 30
0.0
 10
620.8822177791393
 20
1284.46485040861
 30
0.0
 10
621.0735360283853
 20
1284.699066788572
 30
0.0
 10
621.0750940579182
 20
1284.700974165618
 30
0.0
  0
SPLINE
  5
F7
330
1F
100
AcDbEntity
  8
0
  6
Continuous
 62
     7
370
    15
100
AcDbSpline
210
0.0
220
0.0
230
1.0
 70
     8
 71
     3
 72
    10
 73
     6
 74
     0
 42
0.00000001
 43
0.00000001
 12
1.0
 22
0.0
 32
0.0
 13
1.0
 23
0.0
 33
0.0
 40
0.0
 40
0.0
 40
0.0
 40
0.0
 40
0.3415395996476054
 40
0.6902189086753396
 40
0.9999999999999999
 40
0.9999999999999999
 40
0.9999999999999999
 40
0.9999999999999999
 10
614.6964955466991
 20
1282.918854891478
 30
0.0
 10
615.3924548686067
 20
1282.936883879746
 30
0.0
 10
616.79892218351
 20
1282.973318742994
 30
0.0
 10
618.7477034218143
 20
1282.970848196246
 30
0.0
 10
619.9744587007689
 20
1282.935489731888
 30
0.0
 10
620.5516013640172
 20
1282.918854891478
 30
0.0
  0
SPLINE
  5
F8
330
1F
100
AcDbEntity
  8
0
  6
Continuous
 62
     7
370
    15
100
AcDbSpline
210
0.0
220
0.0
230
1.0
 70
     8
 71
     3
 72
    11
 73
     7
 74
     0
 42
0.00000001
 43
0.00000001
 12
1.0
 22
0.0
 32
0.0
 13
1.0
 23
0.0
 33
0.0
 40
0.0
 40
0.0
 40
0.0
 40
0.0
 40
0.0030642506486306
 40
0.376274683490131
 40
0.7492880080938346
 40
1.0
 40
1.0
 40
1.0
 40
1.0
 10
454.987272931934
 20
1284.700974165618
 30
0.0
 10
454.9888309614669
 20
1284.699066788572
 30
0.0
 10
455.1801492107116
 20
1284.46485040861
 30
0.0
 10
455.4838222169834
 20
1284.001007149316
 30
0.0
 10
455.7308969812739
 20
1283.381485374259
 30
0.0
 10
455.5738800081606
 20
1283.051496772993
 30
0.0
 10
455.5107656258351
 20
1282.918854891478
 30
0.0
  0
SPLINE
  5
F9
330
1F
100
AcDbEntity
  8
0
  6
Continuous
 62
     7
370
    15
100
AcDbSpline
210
0.0
220
0.0
230
1.0
 70
     8
 71
     3
 72
    10
 73
     6
 74
     0
 42
0.00000001
 43
0.00000001
 12
1.0
 22
0.0
 32
0.0
 13
1.0
 23
0.0
 33
0.0
 40
0.0
 40
0.0
 40
0.0
 40
0.0
 40
0.3415398533371756
 40
0.6902194961088829
 40
1.0
 40
1.0
 40
1.0
 40
1.0
 10
455.5107656258351
 20
1282.918854891478
 30
0.0
 10
456.1477208122275
 20
1282.93688387539
 30
0.0
 10
457.4349465444518
 20
1282.973318733779
 30
0.0
 10
459.3911530621589
 20
1282.970848247459
 30
0.0
 10
460.7340768012348
 20
1282.93548973118
 30
0.0
 10
461.365871443153
 20
1282.918854891478
 30
0.0
  0
ARC
  5
FA
330
1F
100
AcDbEntity
  8
0
  6
Continuous
 62
     7
370
    15
100
AcDbCircle
 10
613.5849604202
 20
1281.1513750665
 30
0.0
 40
2.087940437146652
100
AcDbArc
 50
359.5978624175
 51
57.8349777464
  0
LINE
  5
FB
330
1F
100
AcDbEntity
  8
0
  6
Continuous
 62
     7
370
    15
100
AcDbLine
 10
615.6728494304
 20
1281.1367207162
 30
0.0
 11
613.6705133456
 21
1281.1367207162
 31
0.0
  0
LINE
  5
FC
330
1F
100
AcDbEntity
  8
0
  6
Continuous
 62
     7
370
    15
100
AcDbLine
 10
615.6728494304
 20
1281.1367207162
 30
0.0
 11
615.6728494304
 21
1248.2009672515
 31
0.0
  0
LINE
  5
FD
330
1F
100
AcDbEntity
  8
0
  6
Continuous
 62
     7
370
    15
100
AcDbLine
 10
615.6728494304
 20
1248.2009672515
 30
0.0
 11
613.6705133456
 21
1248.2009672515
 31
0.0
  0
LINE
  5
FE
330
1F
100
AcDbEntity
  8
0
  6
Continuous
 62
     7
370
    15
100
AcDbLine
 10
462.3918536443
 20
1281.1367207162
 30
0.0
 11
460.3895175594
 21
1281.1367207162
 31
0.0
  0
ARC
  5
FF
330
1F
100
AcDbEntity
  8
0
  6
Continuous
 62
     7
370
    15
100
AcDbCircle
 10
462.4774065697
 20
1281.1513750665
 30
0.0
 40
2.087940437146199
100
AcDbArc
 50
122.1650222536
 51
180.4021375825
  0
LINE
  5
100
330
1F
100
AcDbEntity
  8
0
  6
Continuous
 62
     7
370
    15
100
AcDbLine
 10
460.3895175594
 20
1248.2009672515
 30
0.0
 11
460.3895175594
 21
1281.1367207162
 31
0.0
  0
LINE
  5
101
330
1F
100
AcDbEntity
  8
0
  6
Continuous
 62
     7
370
    15
100
AcDbLine
 10
462.3918536443
 20
1248.2009672515
 30
0.0
 11
460.3895175594
 21
1248.2009672515
 31
0.0
  0
ARC
  5
102
330
1F
100
AcDbEntity
  8
0
  6
Continuous
 62
     7
370
    15
100
AcDbCircle
 10
619.4591863979
 20
1281.2279102073
 30
0.0
 40
2.013123042232165
100
AcDbArc
 50
357.4037546264
 51
57.135993181
  0
SPLINE
  5
103
330
1F
100
AcDbEntity
  8
0
  6
Continuous
 62
     7
370
    15
100
AcDbSpline
210
0.0
220
0.0
230
1.0
 70
     8
 71
     3
 72
     9
 73
     5
 74
     0
 42
0.00000001
 43
0.00000001
 12
1.0
 22
0.0
 32
0.0
 13
1.0
 23
0.0
 33
0.0
 40
0.0
 40
0.0
 40
0.0
 40
0.0
 40
0.3099579105223579
 40
1.0
 40
1.0
 40
1.0
 40
1.0
 10
621.4702430504566
 20
1281.136720716177
 30
0.0
 10
620.8713737584208
 20
1281.171367328934
 30
0.0
 10
618.9392750066046
 20
1281.283145772331
 30
0.0
 10
617.0065269428142
 20
1281.196505885038
 30
0.0
 10
615.6728494304425
 20
1281.136720716177
 30
0.0
  0
SPLINE
  5
104
330
1F
100
AcDbEntity
  8
0
  6
Continuous
 62
     7
370
    15
100
AcDbSpline
210
0.0
220
0.0
230
1.0
 70
     8
 71
     3
 72
     9
 73
     5
 74
     0
 42
0.00000001
 43
0.00000001
 12
1.0
 22
0.0
 32
0.0
 13
1.0
 23
0.0
 33
0.0
 40
0.0
 40
0.0
 40
0.0
 40
0.0
 40
0.3099579105223579
 40
1.0
 40
1.0
 40
1.0
 40
1.0
 10
460.3895175594098
 20
1281.136720716177
 30
0.0
 10
459.7906482673739
 20
1281.171367328934
 30
0.0
 10
457.8585495155577
 20
1281.283145772331
 30
0.0
 10
455.9258014517674
 20
1281.196505885038
 30
0.0
 10
454.5921239393956
 20
1281.136720716177
 30
0.0
  0
ARC
  5
105
330
1F
100
AcDbEntity
  8
0
  6
Continuous
 62
     7
370
    15
100
AcDbCircle
 10
456.603180592
 20
1281.2279102073
 30
0.0
 40
2.013123042232012
100
AcDbArc
 50
122.864006819
 51
182.5962453737
  0
LINE
  5
106
330
1F
100
AcDbEntity
  8
0
  6
Continuous
 62
     7
370
    15
100
AcDbLine
 10
621.4702430505
 20
1248.2009672515
 30
0.0
 11
615.6728494304
 21
1248.2009672515
 31
0.0
  0
LINE
  5
107
330
1F
100
AcDbEntity
  8
0
  6
Continuous
 62
     7
370
    15
100
AcDbLine
 10
460.3895175594
 20
1248.2009672515
 30
0.0
 11
454.5921239394
 21
1248.2009672515
 31
0.0
  0
LINE
  5
108
330
1F
100
AcDbEntity
  8
0
  6
Continuous
 62
     7
370
    15
100
AcDbLine
 10
621.738195731
 20
1248.2009672515
 30
0.0
 11
621.4702430505
 21
1248.2009672515
 31
0.0
  0
LINE
  5
109
330
1F
100
AcDbEntity
  8
0
  6
Continuous
 62
     7
370
    15
100
AcDbLine
 10
454.5921239394
 20
1248.2009672515
 30
0.0
 11
454.3241712588
 21
1248.2009672515
 31
0.0
  0
LINE
  5
10A
330
1F
100
AcDbEntity
  8
0
  6
Continuous
 62
     7
370
    15
100
AcDbLine
 10
616.4970177549
 20
1279.700978934
 30
0.0
 11
620.4970184106
 21
1279.700978934
 31
0.0
  0
LINE
  5
10B
330
1F
100
AcDbEntity
  8
0
  6
Continuous
 62
     7
370
    15
100
AcDbLine
 10
621.4037540692
 20
1267.2009759538
 30
0.0
 11
618.5715425152
 21
1267.2009759538
 31
0.0
  0
LINE
  5
10C
330
1F
100
AcDbEntity
  8
0
  6
Continuous
 62
     7
370
    15
100
AcDbLine
 10
455.5653485793
 20
1279.700978934
 30
0.0
 11
459.5653492349
 21
1279.700978934
 31
0.0
  0
LINE
  5
10D
330
1F
100
AcDbEntity
  8
0
  6
Continuous
 62
     7
370
    15
100
AcDbLine
 10
457.4908244747
 20
1267.2009759538
 30
0.0
 11
454.6586129206
 21
1267.2009759538
 31
0.0
  0
LINE
  5
10E
330
1F
100
AcDbEntity
  8
0
  6
Continuous
 62
     7
370
    15
100
AcDbLine
 10
537.5311834712
 20
1086.7009743072
 30
0.0
 11
538.5311835187
 21
1086.7009743072
 31
0.0
  0
LINE
  5
10F
330
1F
100
AcDbEntity
  8
0
  6
Continuous
 62
     7
370
    15
100
AcDbLine
 10
537.5311834712
 20
1122.7009736888
 30
0.0
 11
538.5311835187
 21
1122.7009736888
 31
0.0
  0
LINE
  5
110
330
1F
100
AcDbEntity
  8
0
  6
Continuous
 62
     7
370
    15
100
AcDbLine
 10
538.5311835187
 20
1220.7009785764
 30
0.0
 11
537.5311834712
 21
1220.7009785764
 31
0.0
  0
LINE
  5
111
330
1F
100
AcDbEntity
  8
0
  6
Continuous
 62
     7
370
    15
100
AcDbLine
 10
537.5311834712
 20
1126.7009743444
 30
0.0
 11
538.5311835187
 21
1126.7009743444
 31
0.0
  0
LINE
  5
112
330
1F
100
AcDbEntity
  8
0
  6
Continuous
 62
     7
370
    15
100
AcDbLine
 10
537.5311834712
 20
1216.7009704701
 30
0.0
 11
538.5311835187
 21
1216.7009704701
 31
0.0
  0
LINE
  5
113
330
1F
100
AcDbEntity
  8
0
  6
Continuous
 62
     7
370
    15
100
AcDbLine
 10
538.5311835187
 20
1252.2009753577
 30
0.0
 11
538.5311835187
 21
1078.7009739272
 31
0.0
  0
LINE
  5
114
330
1F
100
AcDbEntity
  8
0
  6
Continuous
 62
     7
370
    15
100
AcDbLine
 10
537.5311834712
 20
1078.7009739272
 30
0.0
 11
537.5311834712
 21
1252.2009753577
 31
0.0
  0
SPLINE
  5
115
330
1F
100
AcDbEntity
  8
0
  6
Continuous
 62
     7
370
    15
100
AcDbSpline
210
0.0
220
0.0
230
1.0
 70
     8
 71
     3
 72
    10
 73
     6
 74
     0
 42
0.00000001
 43
0.00000001
 12
1.0
 22
0.0
 32
0.0
 13
1.0
 23
0.0
 33
0.0
 40
0.0
 40
0.0
 40
0.0
 40
0.0
 40
0.1956000542005554
 40
0.8845695443310483
 40
1.0
 40
1.0
 40
1.0
 40
1.0
 10
487.1440346676117
 20
1043.404131471335
 30
0.0
 10
487.0262299639942
 20
1043.447904275358
 30
0.0
 10
486.4934772844262
 20
1043.645859687319
 30
0.0
 10
485.8273711197479
 20
1043.697945389276
 30
0.0
 10
485.3110690750261
 20
1043.700593742573
 30
0.0
 10
485.2369803327327
 20
1043.700973778188
 30
0.0
  0
SPLINE
  5
116
330
1F
100
AcDbEntity
  8
0
  6
Continuous
 62
     7
370
    15
100
AcDbSpline
210
0.0
220
0.0
230
1.0
 70
     8
 71
     3
 72
    10
 73
     6
 74
     0
 42
0.00000001
 43
0.00000001
 12
1.0
 22
0.0
 32
0.0
 13
1.0
 23
0.0
 33
0.0
 40
0.0
 40
0.0
 40
0.0
 40
0.0
 40
0.0228954874062789
 40
0.8277321474293667
 40
0.9999999999999999
 40
0.9999999999999999
 40
0.9999999999999999
 40
0.9999999999999999
 10
488.2221932846314
 20
1042.777653127133
 30
0.0
 10
488.2146134739089
 20
1042.783324611782
 30
0.0
 10
487.9405833606778
 20
1042.988363713354
 30
0.0
 10
487.5805211597291
 20
1043.216765628862
 30
0.0
 10
487.2094552336112
 20
1043.376049091502
 30
0.0
 10
487.1440346676117
 20
1043.404131471335
 30
0.0
  0
LINE
  5
117
330
1F
100
AcDbEntity
  8
0
  6
Continuous
 62
     7
370
    15
100
AcDbLine
 10
488.4766082603
 20
1042.5646149508
 30
0.0
 11
488.2221932846
 21
1042.7776531271
 31
0.0
  0
SPLINE
  5
118
330
1F
100
AcDbEntity
  8
0
  6
Continuous
 62
     7
370
    15
100
AcDbSpline
210
0.0
220
0.0
230
1.0
 70
     8
 71
     3
 72
    10
 73
     6
 74
     0
 42
0.00000001
 43
0.00000001
 12
1.0
 22
0.0
 32
0.0
 13
1.0
 23
0.0
 33
0.0
 40
0.0
 40
0.0
 40
0.0
 40
0.0
 40
0.4021153194370208
 40
0.7834157560886238
 40
1.0
 40
1.0
 40
1.0
 40
1.0
 10
489.9281862515217
 20
1040.700975149094
 30
0.0
 10
489.7999142393112
 20
1040.916071667875
 30
0.0
 10
489.5500100188712
 20
1041.335130564036
 30
0.0
 10
489.0187123318833
 20
1042.027888162987
 30
0.0
 10
488.6207650192895
 20
1042.421888123525
 30
0.0
 10
488.4766082602745
 20
1042.564614950835
 30
0.0
  0
LINE
  5
119
330
1F
100
AcDbEntity
  8
0
  6
Continuous
 62
     7
370
    15
100
AcDbLine
 10
489.9281862515
 20
1040.7009751491
 30
0.0
 11
474.8511317509
 21
1040.7009751491
 31
0.0
  0
SPLINE
  5
11A
330
1F
100
AcDbEntity
  8
0
  6
Continuous
 62
     7
370
    15
100
AcDbSpline
210
0.0
220
0.0
230
1.0
 70
     8
 71
     3
 72
    10
 73
     6
 74
     0
 42
0.00000001
 43
0.00000001
 12
1.0
 22
0.0
 32
0.0
 13
1.0
 23
0.0
 33
0.0
 40
0.0
 40
0.0
 40
0.0
 40
0.0
 40
0.3530951575913464
 40
0.7228548013761301
 40
0.9999999999999999
 40
0.9999999999999999
 40
0.9999999999999999
 40
0.9999999999999999
 10
476.3027134674794
 20
1042.564614950835
 30
0.0
 10
476.0718069476547
 20
1042.328148344862
 30
0.0
 10
475.5990961700195
 20
1041.844054984141
 30
0.0
 10
475.1333464342349
 20
1041.180429051682
 30
0.0
 10
474.9357748340896
 20
1040.844775096243
 30
0.0
 10
474.8511317509419
 20
1040.700975149094
 30
0.0
  0
LINE
  5
11B
330
1F
100
AcDbEntity
  8
0
  6
Continuous
 62
     7
370
    15
100
AcDbLine
 10
476.5571284431
 20
1042.7776531271
 30
0.0
 11
476.3027134675
 21
1042.5646149508
 31
0.0
  0
SPLINE
  5
11C
330
1F
100
AcDbEntity
  8
0
  6
Continuous
 62
     7
370
    15
100
AcDbSpline
210
0.0
220
0.0
230
1.0
 70
     8
 71
     3
 72
     9
 73
     5
 74
     0
 42
0.00000001
 43
0.00000001
 12
1.0
 22
0.0
 32
0.0
 13
1.0
 23
0.0
 33
0.0
 40
0.0
 40
0.0
 40
0.0
 40
0.0
 40
0.0954785052499066
 40
1.0
 40
1.0
 40
1.0
 40
1.0
 10
477.6352870601422
 20
1043.404131471335
 30
0.0
 10
477.5989248697524
 20
1043.3888895801
 30
0.0
 10
477.2180832311598
 20
1043.229252694342
 30
0.0
 10
476.8710381650583
 20
1042.992132993433
 30
0.0
 10
476.5571284431225
 20
1042.777653127133
 30
0.0
  0
SPLINE
  5
11D
330
1F
100
AcDbEntity
  8
0
  6
Continuous
 62
     7
370
    15
100
AcDbSpline
210
0.0
220
0.0
230
1.0
 70
     8
 71
     3
 72
    10
 73
     6
 74
     0
 42
0.00000001
 43
0.00000001
 12
1.0
 22
0.0
 32
0.0
 13
1.0
 23
0.0
 33
0.0
 40
0.0
 40
0.0
 40
0.0
 40
0.0
 40
0.1154304556689518
 40
0.8043999457994446
 40
1.0
 40
1.0
 40
1.0
 40
1.0
 10
479.5423413950211
 20
1043.700973778188
 30
0.0
 10
479.4682526527278
 20
1043.700593742573
 30
0.0
 10
478.951950608006
 20
1043.697945389276
 30
0.0
 10
478.2858444433277
 20
1043.645859687319
 30
0.0
 10
477.7530917637597
 20
1043.447904275358
 30
0.0
 10
477.6352870601422
 20
1043.404131471335
 30
0.0
  0
LINE
  5
11E
330
1F
100
AcDbEntity
  8
0
  6
Continuous
 62
     7
370
    15
100
AcDbLine
 10
479.542341395
 20
1043.7009737782
 30
0.0
 11
485.2369803327
 21
1043.7009737782
 31
0.0
  0
SPLINE
  5
11F
330
1F
100
AcDbEntity
  8
0
  6
Continuous
 62
     7
370
    15
100
AcDbSpline
210
0.0
220
0.0
230
1.0
 70
     8
 71
     3
 72
    10
 73
     6
 74
     0
 42
0.00000001
 43
0.00000001
 12
1.0
 22
0.0
 32
0.0
 13
1.0
 23
0.0
 33
0.0
 40
0.0
 40
0.0
 40
0.0
 40
0.0
 40
0.0926894833773145
 40
0.5345597290605549
 40
1.0
 40
1.0
 40
1.0
 40
1.0
 10
490.389660312534
 20
1039.545479505478
 30
0.0
 10
490.388643218429
 20
1039.547790210055
 30
0.0
 10
490.3827774229857
 20
1039.561116528938
 30
0.0
 10
490.2563894444806
 20
1039.817181613651
 30
0.0
 10
490.0394657236866
 20
1040.401319081643
 30
0.0
 10
489.9281862515217
 20
1040.700975149094
 30
0.0
  0
SPLINE
  5
120
330
1F
100
AcDbEntity
  8
0
  6
Continuous
 62
     7
370
    15
100
AcDbSpline
210
0.0
220
0.0
230
1.0
 70
     8
 71
     3
 72
    10
 73
     6
 74
     0
 42
0.00000001
 43
0.00000001
 12
1.0
 22
0.0
 32
0.0
 13
1.0
 23
0.0
 33
0.0
 40
0.0
 40
0.0
 40
0.0
 40
0.0
 40
0.0897430047813835
 40
0.555061336917354
 40
0.9999999999999999
 40
0.9999999999999999
 40
0.9999999999999999
 40
0.9999999999999999
 10
474.8511317509419
 20
1040.700975149094
 30
0.0
 10
474.8297182031567
 20
1040.638732938908
 30
0.0
 10
474.6972752067275
 20
1040.253764277756
 30
0.0
 10
474.4598122660203
 20
1039.693979576596
 30
0.0
 10
474.4126908830362
 20
1039.59423513918
 30
0.0
 10
474.3896576899297
 20
1039.545479505478
 30
0.0
  0
SPLINE
  5
121
330
1F
100
AcDbEntity
  8
0
  6
Continuous
 62
     7
370
    15
100
AcDbSpline
210
0.0
220
0.0
230
1.0
 70
     8
 71
     3
 72
     9
 73
     5
 74
     0
 42
0.00000001
 43
0.00000001
 12
1.0
 22
0.0
 32
0.0
 13
1.0
 23
0.0
 33
0.0
 40
0.0
 40
0.0
 40
0.0
 40
0.0
 40
0.6674190842502666
 40
1.0
 40
1.0
 40
1.0
 40
1.0
 10
479.3885837632424
 20
1044.457982569157
 30
0.0
 10
480.7255448648975
 20
1044.364627606451
 30
0.0
 10
482.7287256746835
 20
1044.224753028528
 30
0.0
 10
484.7263593891361
 20
1044.399773950614
 30
0.0
 10
485.3907342392212
 20
1044.457982569157
 30
0.0
  0
ARC
  5
122
330
1F
100
AcDbEntity
  8
0
  6
Continuous
 62
     7
370
    15
100
AcDbCircle
 10
483.9665022476
 20
1044.3531356305
 30
0.0
 40
1.428086008040948
100
AcDbArc
 50
332.8276619868
 51
4.2103184934
  0
ARC
  5
123
330
1F
100
AcDbEntity
  8
0
  6
Continuous
 62
     7
370
    15
100
AcDbCircle
 10
480.8128786876
 20
1044.353154665
 30
0.0
 40
1.428147373679962
100
AcDbArc
 50
175.790628455
 51
207.1719326358
  0
LINE
  5
124
330
1F
100
AcDbEntity
  8
0
  6
Continuous
 62
     7
370
    15
100
AcDbLine
 10
476.670477851
 20
1044.6041294329
 30
0.0
 11
479.3885837632
 21
1044.4579825692
 31
0.0
  0
ARC
  5
125
330
1F
100
AcDbEntity
  8
0
  6
Continuous
 62
     7
370
    15
100
AcDbCircle
 10
479.343700823
 20
1045.7655682246
 30
0.0
 40
2.914628814190811
100
AcDbArc
 50
203.4835653918
 51
234.1156270757
  0
LINE
  5
126
330
1F
100
AcDbEntity
  8
0
  6
Continuous
 62
     7
370
    15
100
AcDbLine
 10
485.3907342392
 20
1044.4579825692
 30
0.0
 11
488.1088438767
 21
1044.6041294329
 31
0.0
  0
ARC
  5
127
330
1F
100
AcDbEntity
  8
0
  6
Continuous
 62
     7
370
    15
100
AcDbCircle
 10
485.4356209048
 20
1045.7655682246
 30
0.0
 40
2.914628814190355
100
AcDbArc
 50
305.8843729243
 51
336.5164346082
  0
LWPOLYLINE
  5
128
330
1F
100
AcDbEntity
  8
0
  6
Continuous
 62
     7
370
    15
100
AcDbPolyline
 90
        9
 70
   128
 43
0.0
 10
476.5571284431
 20
1042.7776531271
 10
476.4683361489
 20
1042.8822816305
 10
476.3575869936
 20
1043.0127785496
 10
476.2271310526
 20
1043.1665026538
 10
476.0795946556
 20
1043.3403470508
 10
475.9179654855
 20
1043.5307987921
 10
475.7455068964
 20
1043.7340096526
 10
475.5657057601
 20
1043.9458743624
 10
475.3821942347
 20
1044.1621088378
  0
SPLINE
  5
129
330
1F
100
AcDbEntity
  8
0
  6
Continuous
 62
     7
370
    15
100
AcDbSpline
210
0.0
220
0.0
230
1.0
 70
     8
 71
     3
 72
    10
 73
     6
 74
     0
 42
0.00000001
 43
0.00000001
 12
1.0
 22
0.0
 32
0.0
 13
1.0
 23
0.0
 33
0.0
 40
0.0
 40
0.0
 40
0.0
 40
0.0
 40
0.794668588659534
 40
0.894973569962253
 40
1.0
 40
1.0
 40
1.0
 40
1.0
 10
475.3821942347294
 20
1044.162108837783
 30
0.0
 10
475.7155197129071
 20
1044.317077523016
 30
0.0
 10
476.0909183349505
 20
1044.491606728567
 30
0.0
 10
476.5328185508872
 20
1044.581404571009
 30
0.0
 10
476.6238933510524
 20
1044.596439241746
 30
0.0
 10
476.6704778510338
 20
1044.604129432856
 30
0.0
  0
SPLINE
  5
12A
330
1F
100
AcDbEntity
  8
0
  6
Continuous
 62
     7
370
    15
100
AcDbSpline
210
0.0
220
0.0
230
1.0
 70
     8
 71
     3
 72
     9
 73
     5
 74
     0
 42
0.00000001
 43
0.00000001
 12
1.0
 22
0.0
 32
0.0
 13
1.0
 23
0.0
 33
0.0
 40
0.0
 40
0.0
 40
0.0
 40
0.0
 40
0.1881654446252543
 40
1.0
 40
1.0
 40
1.0
 40
1.0
 10
488.10884387672
 20
1044.604129432856
 30
0.0
 10
488.1923777671864
 20
1044.590107413216
 30
0.0
 10
488.6363162949681
 20
1044.515587781476
 30
0.0
 10
489.0562263085558
 20
1044.320493288635
 30
0.0
 10
489.3971237677341
 20
1044.162108837783
 30
0.0
  0
LWPOLYLINE
  5
12B
330
1F
100
AcDbEntity
  8
0
  6
Continuous
 62
     7
370
    15
100
AcDbPolyline
 90
        9
 70
   128
 43
0.0
 10
489.3971237677
 20
1044.1621088378
 10
489.2136159676
 20
1043.9458743624
 10
489.0338148314
 20
1043.7340096526
 10
488.8613562423
 20
1043.5307987921
 10
488.6997270721
 20
1043.3403470508
 10
488.5521906751
 20
1043.1665026538
 10
488.4217347342
 20
1043.0127785496
 10
488.3109855789
 20
1042.8822816305
 10
488.2221932846
 20
1042.7776531271
  0
SPLINE
  5
12C
330
1F
100
AcDbEntity
  8
0
  6
Continuous
 62
     7
370
    15
100
AcDbSpline
210
0.0
220
0.0
230
1.0
 70
     8
 71
     3
 72
    10
 73
     6
 74
     0
 42
0.00000001
 43
0.00000001
 12
1.0
 22
0.0
 32
0.0
 13
1.0
 23
0.0
 33
0.0
 40
0.0
 40
0.0
 40
0.0
 40
0.0
 40
0.2308257722282257
 40
0.6150101003719679
 40
1.0
 40
1.0
 40
1.0
 40
1.0
 10
489.7744025427108
 20
1043.807043968855
 30
0.0
 10
489.9195801482047
 20
1043.677102603565
 30
0.0
 10
490.3063900475699
 20
1043.33088800483
 30
0.0
 10
490.7641344485635
 20
1042.638971287534
 30
0.0
 10
490.9363115591457
 20
1042.185841426818
 30
0.0
 10
491.0224902766949
 20
1041.959039210497
 30
0.0
  0
ARC
  5
12D
330
1F
100
AcDbEntity
  8
0
  6
Continuous
 62
     7
370
    15
100
AcDbCircle
 10
491.9492188975
 20
1040.0479790548
 30
0.0
 40
2.123906037351755
100
AcDbArc
 50
115.8700949771
 51
162.0943437995
  0
LWPOLYLINE
  5
12E
330
1F
100
AcDbEntity
  8
0
  6
Continuous
 62
     7
370
    15
100
AcDbPolyline
 90
        9
 70
   128
 43
0.0
 10
489.7744025427
 20
1043.8070439689
 10
489.5735348898
 20
1043.6147444836
 10
489.3765676159
 20
1043.4261814646
 10
489.1873303193
 20
1043.2450168721
 10
489.0094961363
 20
1043.0747711055
 10
488.8465221363
 20
1042.9187484972
 10
488.7015748161
 20
1042.7799814336
 10
488.5774667698
 20
1042.6611707501
 10
488.4766082603
 20
1042.5646149508
  0
ARC
  5
12F
330
1F
100
AcDbEntity
  8
0
  6
Continuous
 62
     7
370
    15
100
AcDbCircle
 10
472.8301297526
 20
1040.0480112013
 30
0.0
 40
2.123866990774462
100
AcDbArc
 50
17.9050851816
 51
64.1300897045
  0
SPLINE
  5
130
330
1F
100
AcDbEntity
  8
0
  6
Continuous
 62
     7
370
    15
100
AcDbSpline
210
0.0
220
0.0
230
1.0
 70
     8
 71
     3
 72
    10
 73
     6
 74
     0
 42
0.00000001
 43
0.00000001
 12
1.0
 22
0.0
 32
0.0
 13
1.0
 23
0.0
 33
0.0
 40
0.0
 40
0.0
 40
0.0
 40
0.0
 40
0.2634004463743332
 40
0.6293247411495027
 40
1.0
 40
1.0
 40
1.0
 40
1.0
 10
473.7568351763493
 20
1041.959039210497
 30
0.0
 10
473.8122774512779
 20
1042.110193339581
 30
0.0
 10
473.9447419015037
 20
1042.471335602125
 30
0.0
 10
474.3243184677526
 20
1043.158345724805
 30
0.0
 10
474.7770788655371
 20
1043.589883434885
 30
0.0
 10
475.004919185043
 20
1043.807043968855
 30
0.0
  0
LWPOLYLINE
  5
131
330
1F
100
AcDbEntity
  8
0
  6
Continuous
 62
     7
370
    15
100
AcDbPolyline
 90
        9
 70
   128
 43
0.0
 10
476.3027134675
 20
1042.5646149508
 10
476.2018549579
 20
1042.6611707501
 10
476.0777469116
 20
1042.7799814336
 10
475.9327995914
 20
1042.9187484972
 10
475.7698255914
 20
1043.0747711055
 10
475.5919914085
 20
1043.2450168721
 10
475.4027503866
 20
1043.4261814646
 10
475.2057868379
 20
1043.6147444836
 10
475.004919185
 20
1043.8070439689
  0
LINE
  5
132
330
1F
100
AcDbEntity
  8
0
  6
Continuous
 62
     7
370
    15
100
AcDbLine
 10
475.004919185
 20
1043.8070439689
 30
0.0
 11
475.3821942347
 21
1044.1621088378
 31
0.0
  0
LINE
  5
133
330
1F
100
AcDbEntity
  8
0
  6
Continuous
 62
     7
370
    15
100
AcDbLine
 10
489.3971237677
 20
1044.1621088378
 30
0.0
 11
489.7744025427
 21
1043.8070439689
 31
0.0
  0
ARC
  5
134
330
1F
100
AcDbEntity
  8
0
  6
Continuous
 62
     7
370
    15
100
AcDbCircle
 10
482.3896607504
 20
1055.7009739272
 30
0.0
 40
10.49999999999995
100
AcDbArc
 50
297.2660444507
 51
242.7339555493
  0
LWPOLYLINE
  5
135
330
1F
100
AcDbEntity
  8
0
  6
Continuous
 62
     7
370
    15
100
AcDbPolyline
 90
        9
 70
   128
 43
0.0
 10
477.5793704528
 20
1046.367640882
 10
477.563280924
 20
1046.3364229493
 10
477.5153923172
 20
1046.2435067586
 10
477.4368259448
 20
1046.0910641543
 10
477.3294183749
 20
1045.8826639644
 10
477.1956879038
 20
1045.623182594
 10
477.0387600499
 20
1045.318703442
 10
476.8623154002
 20
1044.9763455383
 10
476.670477851
 20
1044.6041294329
  0
ARC
  5
136
330
1F
100
AcDbEntity
  8
0
  6
Continuous
 62
     7
370
    15
100
AcDbCircle
 10
482.3896607504
 20
1055.7009739272
 30
0.0
 40
13.4999999999999
100
AcDbArc
 50
301.2699870408
 51
238.7300129592
  0
LWPOLYLINE
  5
137
330
1F
100
AcDbEntity
  8
0
  6
Continuous
 62
     7
370
    15
100
AcDbPolyline
 90
        9
 70
   128
 43
0.0
 10
488.1088438767
 20
1044.6041294329
 10
487.9170063275
 20
1044.9763455383
 10
487.7405616778
 20
1045.318703442
 10
487.583633824
 20
1045.623182594
 10
487.4499033529
 20
1045.8826639644
 10
487.342495783
 20
1046.0910641543
 10
487.2639294106
 20
1046.2435067586
 10
487.2160408038
 20
1046.3364229493
 10
487.199951275
 20
1046.367640882
  0
ARC
  5
138
330
1F
100
AcDbEntity
  8
0
  6
Continuous
 62
     7
370
    15
100
AcDbCircle
 10
482.3896607504
 20
1055.7009739272
 30
0.0
 40
16.99999999999996
100
AcDbArc
 50
301.7568638593
 51
238.2431361407
  0
SPLINE
  5
139
330
1F
100
AcDbEntity
  8
0
  6
Continuous
 62
     7
370
    15
100
AcDbSpline
210
0.0
220
0.0
230
1.0
 70
     8
 71
     3
 72
    10
 73
     6
 74
     0
 42
0.00000001
 43
0.00000001
 12
1.0
 22
0.0
 32
0.0
 13
1.0
 23
0.0
 33
0.0
 40
0.0
 40
0.0
 40
0.0
 40
0.0
 40
0.4528339723492271
 40
0.9042339760520411
 40
1.0
 40
1.0
 40
1.0
 40
1.0
 10
491.0224902766949
 20
1041.959039210497
 30
0.0
 10
491.0958069629428
 20
1041.771672814685
 30
0.0
 10
491.242208166839
 20
1041.397533347663
 30
0.0
 10
491.3320912739492
 20
1041.255727042859
 30
0.0
 10
491.336292420006
 20
1041.247499606841
 30
0.0
 10
491.3370277124649
 20
1041.246059625565
 30
0.0
  0
ARC
  5
13A
330
1F
100
AcDbEntity
  8
0
  6
Continuous
 62
     7
370
    15
100
AcDbCircle
 10
482.3896607504
 20
1055.7009739272
 30
0.0
 40
13.99999999999998
100
AcDbArc
 50
301.8354464016
 51
238.1645535984
  0
SPLINE
  5
13B
330
1F
100
AcDbEntity
  8
0
  6
Continuous
 62
     7
370
    15
100
AcDbSpline
210
0.0
220
0.0
230
1.0
 70
     8
 71
     3
 72
    10
 73
     6
 74
     0
 42
0.00000001
 43
0.00000001
 12
1.0
 22
0.0
 32
0.0
 13
1.0
 23
0.0
 33
0.0
 40
0.0
 40
0.0
 40
0.0
 40
0.0
 40
0.4570261775258384
 40
0.9148327429632152
 40
1.0
 40
1.0
 40
1.0
 40
1.0
 10
473.442294015289
 20
1041.246059625565
 30
0.0
 10
473.4586344109961
 20
1041.274490801274
 30
0.0
 10
473.4913431041978
 20
1041.331401699901
 30
0.0
 10
473.6584909970584
 20
1041.670108664588
 30
0.0
 10
473.7435010635696
 20
1041.919864218013
 30
0.0
 10
473.7568351763493
 20
1041.959039210497
 30
0.0
  0
SPLINE
  5
13C
330
1F
100
AcDbEntity
  8
0
  6
Continuous
 62
     7
370
    15
100
AcDbSpline
210
0.0
220
0.0
230
1.0
 70
     8
 71
     3
 72
    11
 73
     7
 74
     0
 42
0.00000001
 43
0.00000001
 12
1.0
 22
0.0
 32
0.0
 13
1.0
 23
0.0
 33
0.0
 40
0.0
 40
0.0
 40
0.0
 40
0.0
 40
0.2447166804051064
 40
0.5563131980195593
 40
0.8818541210740086
 40
1.0
 40
1.0
 40
1.0
 40
1.0
 10
477.5793704527622
 20
1046.367640881955
 30
0.0
 10
478.3279843986166
 20
1046.0439725757
 30
0.0
 10
480.0298047143011
 20
1045.308179043962
 30
0.0
 10
483.0168381885894
 20
1045.071476484676
 30
0.0
 10
485.5072173649598
 20
1045.567758881293
 30
0.0
 10
486.8439920323468
 20
1046.199436423195
 30
0.0
 10
487.1999512749916
 20
1046.367640881955
 30
0.0
  0
ARC
  5
13D
330
1F
100
AcDbEntity
  8
0
  6
Continuous
 62
     7
370
    15
100
AcDbCircle
 10
492.3896607504
 20
1039.5454795058
 30
0.0
 40
2.00000000000007
100
AcDbArc
 50
121.7568638593
 51
180.0
  0
ARC
  5
13E
330
1F
100
AcDbEntity
  8
0
  6
Continuous
 62
     7
370
    15
100
AcDbCircle
 10
472.3896607504
 20
1039.5454795058
 30
0.0
 40
2.00000000000007
100
AcDbArc
 50
0.0
 51
58.2431361407
  0
SPLINE
  5
13F
330
1F
100
AcDbEntity
  8
0
  6
Continuous
 62
     7
370
    15
100
AcDbSpline
210
0.0
220
0.0
230
1.0
 70
     8
 71
     3
 72
    11
 73
     7
 74
     0
 42
0.00000001
 43
0.00000001
 12
1.0
 22
0.0
 32
0.0
 13
1.0
 23
0.0
 33
0.0
 40
0.0
 40
0.0
 40
0.0
 40
0.0
 40
0.2447166503817836
 40
0.55631321122828
 40
0.881854104682016
 40
1.0
 40
1.0
 40
1.0
 40
1.0
 10
487.1999512749916
 20
1046.367640881955
 30
0.0
 10
486.451337261313
 20
1046.04397257749
 30
0.0
 10
484.7495165422473
 20
1045.308178942081
 30
0.0
 10
481.7624841370828
 20
1045.071476456735
 30
0.0
 10
479.2721040511372
 20
1045.567758994453
 30
0.0
 10
477.93532967724
 20
1046.199436424607
 30
0.0
 10
477.5793704527622
 20
1046.367640881955
 30
0.0
  0
LWPOLYLINE
  5
140
330
1F
100
AcDbEntity
  8
0
  6
Continuous
 62
     7
370
    15
100
AcDbPolyline
 90
       13
 70
   128
 43
0.0
 10
625.6010386485
 20
1226.2009673707
 10
625.5548524994
 20
1223.5352390401
 10
625.4171136159
 20
1220.9170603148
 10
625.1902881402
 20
1218.3931910388
 10
624.8784217376
 20
1216.0086476199
 10
624.4870799917
 20
1213.8059728734
 10
624.0232366461
 20
1211.8245058648
 10
623.4951841968
 20
1210.0995772473
 10
622.9123327273
 20
1208.66197282
 10
622.2850906986
 20
1207.5373672835
 10
621.6246488827
 20
1206.7458026997
 10
620.9427866477
 20
1206.3014202706
 10
620.3311833876
 20
1206.2042348973
  0
LWPOLYLINE
  5
141
330
1F
100
AcDbEntity
  8
0
  6
Continuous
 62
     7
370
    15
100
AcDbPolyline
 90
       13
 70
   128
 43
0.0
 10
620.3311833876
 20
1246.1977147452
 10
620.9427866477
 20
1246.1005293719
 10
621.6246488827
 20
1245.6561469428
 10
622.2850906986
 20
1244.864582359
 10
622.9123327273
 20
1243.7399768226
 10
623.4951841968
 20
1242.3023723952
 10
624.0232366461
 20
1240.5774437777
 10
624.4870799917
 20
1238.5959767691
 10
624.8784217376
 20
1236.3933020226
 10
625.1902881402
 20
1234.0087586038
 10
625.4171136159
 20
1231.4848893277
 10
625.5548524994
 20
1228.8667106025
 10
625.6010386485
 20
1226.2009673707
  0
LWPOLYLINE
  5
142
330
1F
100
AcDbEntity
  8
0
  6
Continuous
 62
     7
370
    15
100
AcDbPolyline
 90
       12
 70
   128
 43
0.0
 10
624.3762898582
 20
1226.2009673707
 10
624.3304911393
 20
1228.7881367795
 10
624.1939368981
 20
1231.327115833
 10
623.9691752332
 20
1233.7705933444
 10
623.660393371
 20
1236.0730760686
 10
623.273335709
 20
1238.1916486613
 10
622.8152293104
 20
1240.0868528478
 10
622.2945901889
 20
1241.7234026782
 10
621.7211264509
 20
1243.0707954757
 10
621.1055222291
 20
1244.1039376847
 10
620.4592365164
 20
1244.8035770051
 10
620.3311833876
 20
1244.8995553843
  0
LWPOLYLINE
  5
143
330
1F
100
AcDbEntity
  8
0
  6
Continuous
 62
     7
370
    15
100
AcDbPolyline
 90
       12
 70
   128
 43
0.0
 10
620.3311833876
 20
1207.5023942582
 10
620.4592365164
 20
1207.5983726374
 10
621.1055222291
 20
1208.2980119578
 10
621.7211264509
 20
1209.3311541669
 10
622.2945901889
 20
1210.6785469643
 10
622.8152293104
 20
1212.3150967948
 10
623.273335709
 20
1214.2103009812
 10
623.660393371
 20
1216.328873574
 10
623.9691752332
 20
1218.6313562981
 10
624.1939368981
 20
1221.0748338096
 10
624.3304911393
 20
1223.6138128631
 10
624.3762898582
 20
1226.2009673707
  0
LWPOLYLINE
  5
144
330
1F
100
AcDbEntity
  8
0
  6
Continuous
 62
     7
370
    15
100
AcDbPolyline
 90
       13
 70
   128
 43
0.0
 10
641.0558524865
 20
1226.2009673707
 10
641.0096663374
 20
1228.8667106025
 10
640.8719274539
 20
1231.4848893277
 10
640.6451019782
 20
1234.0087586038
 10
640.3332355756
 20
1236.3933020226
 10
639.9418938297
 20
1238.5959767691
 10
639.4780504841
 20
1240.5774437777
 10
638.9499905843
 20
1242.3023723952
 10
638.3671465653
 20
1243.7399768226
 10
637.7399045366
 20
1244.864582359
 10
637.0794627208
 20
1245.6561469428
 10
636.3976004857
 20
1246.1005293719
 10
635.8794722098
 20
1246.2009780995
  0
LWPOLYLINE
  5
145
330
1F
100
AcDbEntity
  8
0
  6
Continuous
 62
     7
370
    15
100
AcDbPolyline
 90
       13
 70
   128
 43
0.0
 10
635.8794722098
 20
1206.200971543
 10
636.3976004857
 20
1206.3014202706
 10
637.0794627208
 20
1206.7458026997
 10
637.7399045366
 20
1207.5373672835
 10
638.3671465653
 20
1208.66197282
 10
638.9499905843
 20
1210.0995772473
 10
639.4780504841
 20
1211.8245058648
 10
639.9418938297
 20
1213.8059728734
 10
640.3332355756
 20
1216.0086476199
 10
640.6451019782
 20
1218.3931910388
 10
640.8719274539
 20
1220.9170603148
 10
641.0096663374
 20
1223.5352390401
 10
641.0558524865
 20
1226.2009673707
  0
LWPOLYLINE
  5
146
330
1F
100
AcDbEntity
  8
0
  6
Continuous
 62
     7
370
    15
100
AcDbPolyline
 90
       11
 70
   128
 43
0.0
 10
641.7629572886
 20
1226.2009673707
 10
641.7171585697
 20
1223.6138128631
 10
641.5806043285
 20
1221.0748338096
 10
641.3558352131
 20
1218.6313562981
 10
641.0470533508
 20
1216.328873574
 10
640.6600031394
 20
1214.2103009812
 10
640.2018892902
 20
1212.3150967948
 10
639.6812576193
 20
1210.6785469643
 10
639.1077938813
 20
1209.3311541669
 10
638.4921896595
 20
1208.2980119578
 10
638.163052811
 20
1207.8957402102
  0
LWPOLYLINE
  5
147
330
1F
100
AcDbEntity
  8
0
  6
Continuous
 62
     7
370
    15
100
AcDbPolyline
 90
       11
 70
   128
 43
0.0
 10
638.163052811
 20
1244.5061945311
 10
638.4921896595
 20
1244.1039376847
 10
639.1077938813
 20
1243.0707954757
 10
639.6812576193
 20
1241.7234026782
 10
640.2018892902
 20
1240.0868528478
 10
640.6600031394
 20
1238.1916486613
 10
641.0470533508
 20
1236.0730760686
 10
641.3558352131
 20
1233.7705933444
 10
641.5806043285
 20
1231.327115833
 10
641.7171585697
 20
1228.7881367795
 10
641.7629572886
 20
1226.2009673707
  0
LINE
  5
148
330
1F
100
AcDbEntity
  8
0
  6
Continuous
 62
     7
370
    15
100
AcDbLine
 10
621.6218772668
 20
1274.1859697692
 30
0.0
 11
621.9611320037
 21
1274.1859697692
 31
0.0
  0
ARC
  5
149
330
1F
100
AcDbEntity
  8
0
  6
Continuous
 62
     7
370
    15
100
AcDbCircle
 10
615.5425848348
 20
1274.7009688012
 30
0.0
 40
6.439174773358952
100
AcDbArc
 50
355.4126389081
 51
4.587361092
  0
LINE
  5
14A
330
1F
100
AcDbEntity
  8
0
  6
Continuous
 62
     7
370
    15
100
AcDbLine
 10
621.9611320037
 20
1275.2159678332
 30
0.0
 11
621.6218772668
 21
1275.2159678332
 31
0.0
  0
ARC
  5
14B
330
1F
100
AcDbEntity
  8
0
  6
Continuous
 62
     7
370
    15
100
AcDbCircle
 10
620.6696221752
 20
1274.9603495335
 30
0.0
 40
0.9859667714950524
100
AcDbArc
 50
15.0259503975
 51
38.1041519566
  0
ARC
  5
14C
330
1F
100
AcDbEntity
  8
0
  6
Continuous
 62
     7
370
    15
100
AcDbCircle
 10
614.1545256332
 20
1274.7180769096
 30
0.0
 40
7.340406533808959
100
AcDbArc
 50
6.6551658889
 51
15.5471483046
  0
ARC
  5
14D
330
1F
100
AcDbEntity
  8
0
  6
Continuous
 62
     7
370
    15
100
AcDbCircle
 10
620.9688487786
 20
1273.1066953563
 30
0.0
 40
3.588091553332253
100
AcDbArc
 50
85.8846286964
 51
94.1153713036
  0
ARC
  5
14E
330
1F
100
AcDbEntity
  8
0
  6
Continuous
 62
     7
370
    15
100
AcDbCircle
 10
613.6384568434
 20
1274.717867009
 30
0.0
 40
7.34149340971251
100
AcDbArc
 50
6.6558254224
 51
15.5464887711
  0
ARC
  5
14F
330
1F
100
AcDbEntity
  8
0
  6
Continuous
 62
     7
370
    15
100
AcDbCircle
 10
621.7064969508
 20
1274.9602804374
 30
0.0
 40
0.9861498072179253
100
AcDbArc
 50
141.8990859546
 51
164.9727476211
  0
LINE
  5
150
330
1F
100
AcDbEntity
  8
0
  6
Continuous
 62
     7
370
    15
100
AcDbLine
 10
620.7540708917
 20
1275.2159678332
 30
0.0
 11
619.9765730041
 21
1275.2159678332
 31
0.0
  0
ARC
  5
151
330
1F
100
AcDbEntity
  8
0
  6
Continuous
 62
     7
370
    15
100
AcDbCircle
 10
608.3581686586
 20
1274.7009688012
 30
0.0
 40
11.62981270442891
100
AcDbArc
 50
357.4619605671
 51
2.5380394329
  0
LINE
  5
152
330
1F
100
AcDbEntity
  8
0
  6
Continuous
 62
     7
370
    15
100
AcDbLine
 10
619.9765730041
 20
1274.1859697692
 30
0.0
 11
620.7540708917
 21
1274.1859697692
 31
0.0
  0
ARC
  5
153
330
1F
100
AcDbEntity
  8
0
  6
Continuous
 62
     7
370
    15
100
AcDbCircle
 10
621.7064787168
 20
1274.441673749
 30
0.0
 40
0.9861364969222396
100
AcDbArc
 50
195.0284576596
 51
218.1016446945
  0
ARC
  5
154
330
1F
100
AcDbEntity
  8
0
  6
Continuous
 62
     7
370
    15
100
AcDbCircle
 10
613.6387916481
 20
1274.6840198015
 30
0.0
 40
7.341153247436854
100
AcDbArc
 50
344.4533048341
 51
353.3443809724
  0
ARC
  5
155
330
1F
100
AcDbEntity
  8
0
  6
Continuous
 62
     7
370
    15
100
AcDbCircle
 10
620.9688487786
 20
1276.2952571472
 30
0.0
 40
3.588091553224302
100
AcDbArc
 50
265.8846286963
 51
274.1153713037
  0
ARC
  5
156
330
1F
100
AcDbEntity
  8
0
  6
Continuous
 62
     7
370
    15
100
AcDbCircle
 10
614.1548601048
 20
1274.6838099663
 30
0.0
 40
7.340066710163653
100
AcDbArc
 50
344.4526454449
 51
353.3450403617
  0
ARC
  5
157
330
1F
100
AcDbEntity
  8
0
  6
Continuous
 62
     7
370
    15
100
AcDbCircle
 10
620.6696404202
 20
1274.4416046441
 30
0.0
 40
0.9859534477982728
100
AcDbArc
 50
321.8951172228
 51
344.9728444442
  0
ARC
  5
158
330
1F
100
AcDbEntity
  8
0
  6
Continuous
 62
     7
370
    15
100
AcDbCircle
 10
619.5728321679
 20
1272.8778309006
 30
0.0
 40
2.174008553121317
100
AcDbArc
 50
294.3877609141
 51
344.8687104371
  0
ARC
  5
159
330
1F
100
AcDbEntity
  8
0
  6
Continuous
 62
     7
370
    15
100
AcDbCircle
 10
619.6068461556
 20
1276.5446279978
 30
0.0
 40
2.135848902084729
100
AcDbArc
 50
14.8384391168
 51
67.5412052102
  0
LWPOLYLINE
  5
15A
330
1F
100
AcDbEntity
  8
0
  6
Continuous
 62
     7
370
    15
100
AcDbPolyline
 90
       12
 70
   128
 43
0.0
 10
619.9092868108
 20
1278.7009769074
 10
619.3197819728
 20
1278.523265659
 10
618.7826472658
 20
1278.0059271447
 10
618.3456260103
 20
1277.1949314467
 10
618.0475431818
 20
1276.1623405806
 10
617.9148855942
 20
1274.9999009959
 10
617.9594326156
 20
1273.8108926408
 10
618.1772428888
 20
1272.7009796492
 10
618.5489449042
 20
1271.768763005
 10
619.0415251392
 20
1271.0970931641
 10
619.6112039822
 20
1270.7456492774
 10
619.9092868108
 20
1270.7009755961
  0
LWPOLYLINE
  5
15B
330
1F
100
AcDbEntity
  8
0
  6
Continuous
 62
     7
370
    15
100
AcDbPolyline
 90
        3
 70
   128
 43
0.0
 10
620.6079426545
 20
1278.4489833705
 10
620.4987990993
 20
1278.523265659
 10
619.9092868108
 20
1278.7009769074
  0
LWPOLYLINE
  5
15C
330
1F
100
AcDbEntity
  8
0
  6
Continuous
 62
     7
370
    15
100
AcDbPolyline
 90
       12
 70
   128
 43
0.0
 10
618.5715425152
 20
1278.7009769074
 10
617.9820376772
 20
1278.523265659
 10
617.4449029702
 20
1278.0059271447
 10
617.0078817147
 20
1277.1949314467
 10
616.7097988862
 20
1276.1623405806
 10
616.5771412987
 20
1274.9999009959
 10
616.62168832
 20
1273.8108926408
 10
616.8394985932
 20
1272.7009796492
 10
617.2112006086
 20
1271.768763005
 10
617.7037808436
 20
1271.0970931641
 10
618.2734596866
 20
1270.7456492774
 10
618.5715425152
 20
1270.7009755961
  0
LINE
  5
15D
330
1F
100
AcDbEntity
  8
0
  6
Continuous
 62
     7
370
    15
100
AcDbLine
 10
621.2263482946
 20
1272.7164172522
 30
0.0
 11
620.7781586188
 21
1272.9744457595
 31
0.0
  0
LINE
  5
15E
330
1F
100
AcDbEntity
  8
0
  6
Continuous
 62
     7
370
    15
100
AcDbLine
 10
621.2263482946
 20
1276.6855352513
 30
0.0
 11
620.7781586188
 21
1276.4274918429
 31
0.0
  0
SPLINE
  5
15F
330
1F
100
AcDbEntity
  8
0
  6
Continuous
 62
     7
370
    15
100
AcDbSpline
210
0.0
220
0.0
230
1.0
 70
    24
 71
     3
 72
     9
 73
     5
 74
     0
 42
0.00000001
 43
0.00000001
 12
1.0
 22
0.0
 32
0.0
 13
1.0
 23
0.0
 33
0.0
 40
0.0
 40
0.0
 40
0.0
 40
0.0
 40
0.413165121229153
 40
1.0
 40
1.0
 40
1.0
 40
1.0
 10
621.6218772667653
 20
1275.21596783322
 30
0.0
 10
621.5443889657025
 20
1275.21596783322
 30
0.0
 10
621.3568409441457
 20
1275.21596783322
 30
0.0
 10
621.1689398777826
 20
1275.21596783322
 30
0.0
 10
621.0586729782825
 20
1275.21596783322
 30
0.0
  0
SPLINE
  5
160
330
1F
100
AcDbEntity
  8
0
  6
Continuous
 62
     7
370
    15
100
AcDbSpline
210
0.0
220
0.0
230
1.0
 70
     8
 71
     3
 72
     9
 73
     5
 74
     0
 42
0.00000001
 43
0.00000001
 12
1.0
 22
0.0
 32
0.0
 13
1.0
 23
0.0
 33
0.0
 40
0.0
 40
0.0
 40
0.0
 40
0.0
 40
0.5816807207934092
 40
1.0
 40
1.0
 40
1.0
 40
1.0
 10
620.9146830576665
 20
1275.517835556685
 30
0.0
 10
621.0175844054139
 20
1275.527934764865
 30
0.0
 10
621.1944878922739
 20
1275.545296880916
 30
0.0
 10
621.3714452116712
 20
1275.561855737751
 30
0.0
 10
621.4454698699718
 20
1275.568782626807
 30
0.0
  0
SPLINE
  5
161
330
1F
100
AcDbEntity
  8
0
  6
Continuous
 62
     7
370
    15
100
AcDbSpline
210
0.0
220
0.0
230
1.0
 70
     8
 71
     3
 72
     9
 73
     5
 74
     0
 42
0.00000001
 43
0.00000001
 12
1.0
 22
0.0
 32
0.0
 13
1.0
 23
0.0
 33
0.0
 40
0.0
 40
0.0
 40
0.0
 40
0.0
 40
0.3998860205703846
 40
1.0
 40
1.0
 40
1.0
 40
1.0
 10
621.4454698699718
 20
1273.833169876754
 30
0.0
 10
621.3714451294862
 20
1273.84009199813
 30
0.0
 10
621.186330530131
 20
1273.857402234099
 30
0.0
 10
621.0012763825072
 20
1273.875587750219
 30
0.0
 10
620.8902228015667
 20
1273.886501132666
 30
0.0
  0
SPLINE
  5
162
330
1F
100
AcDbEntity
  8
0
  6
Continuous
 62
     7
370
    15
100
AcDbSpline
210
0.0
220
0.0
230
1.0
 70
    24
 71
     3
 72
     9
 73
     5
 74
     0
 42
0.00000001
 43
0.00000001
 12
1.0
 22
0.0
 32
0.0
 13
1.0
 23
0.0
 33
0.0
 40
0.0
 40
0.0
 40
0.0
 40
0.0
 40
0.5868348787708471
 40
1.0
 40
1.0
 40
1.0
 40
1.0
 10
621.0586729782825
 20
1274.185969769179
 30
0.0
 10
621.1689398777826
 20
1274.185969769179
 30
0.0
 10
621.3568409441456
 20
1274.185969769179
 30
0.0
 10
621.5443889657024
 20
1274.185969769179
 30
0.0
 10
621.6218772667653
 20
1274.185969769179
 30
0.0
  0
LWPOLYLINE
  5
163
330
1F
100
AcDbEntity
  8
0
  6
Continuous
 62
     7
370
    15
100
AcDbPolyline
 90
       17
 70
   128
 43
0.0
 10
631.9101604956
 20
1251.4328204982
 10
632.1585479516
 20
1251.2897544495
 10
632.4697139996
 20
1250.8823567025
 10
632.7962803978
 20
1250.2726458899
 10
633.0885368723
 20
1249.5534264438
 10
633.3019811052
 20
1248.8342218987
 10
633.4041285652
 20
1248.2245110862
 10
633.3794224399
 20
1247.817098438
 10
633.2316252726
 20
1247.6740472905
 10
632.9832452673
 20
1247.817098438
 10
632.6720792192
 20
1248.2245110862
 10
632.3455128211
 20
1248.8342218987
 10
632.0532563466
 20
1249.5534264438
 10
631.8398121136
 20
1250.2726458899
 10
631.7376646537
 20
1250.8823567025
 10
631.7623707789
 20
1251.2897544495
 10
631.9101604956
 20
1251.4328204982
  0
LWPOLYLINE
  5
164
330
1F
100
AcDbEntity
  8
0
  6
Continuous
 62
     7
370
    15
100
AcDbPolyline
 90
       17
 70
   128
 43
0.0
 10
662.1165725726
 20
1164.0413992993
 10
661.9031208891
 20
1164.7606112949
 10
661.8009734291
 20
1165.3703295581
 10
661.8256795543
 20
1165.7777273051
 10
661.9734767216
 20
1165.9207859032
 10
662.2218641776
 20
1165.7777273051
 10
662.5330302256
 20
1165.3703295581
 10
662.8595966238
 20
1164.7606112949
 10
663.1518530983
 20
1164.0413992993
 10
663.3652973312
 20
1163.3221947543
 10
663.4674447912
 20
1162.7124764912
 10
663.4427386659
 20
1162.3050787441
 10
663.2949489492
 20
1162.1620201461
 10
663.0465614933
 20
1162.3050787441
 10
662.7353954452
 20
1162.7124764912
 10
662.4088290471
 20
1163.3221947543
 10
662.1165725726
 20
1164.0413992993
  0
LWPOLYLINE
  5
165
330
1F
100
AcDbEntity
  8
0
  6
Continuous
 62
     7
370
    15
100
AcDbPolyline
 90
       12
 70
   128
 43
0.0
 10
653.3997210997
 20
1255.8532350652
 10
653.4206274289
 20
1255.854054629
 10
653.7911299008
 20
1255.6768351189
 10
654.2499813575
 20
1255.1625066392
 10
654.7522622484
 20
1254.3614202134
 10
655.2488061923
 20
1253.3519857518
 10
655.6910056013
 20
1252.2330277554
 10
656.0355875033
 20
1251.1140697591
 10
656.2488082188
 20
1250.1046352975
 10
656.3097986716
 20
1249.3035488717
 10
656.2125983971
 20
1248.7892203919
 10
656.1276692289
 20
1248.6730956427
  0
ARC
  5
166
330
1F
100
AcDbEntity
  8
0
  6
Continuous
 62
     7
370
    15
100
AcDbCircle
 10
655.8282432777
 20
1253.0565411464
 30
0.0
 40
0.0598332772843459
100
AcDbArc
 50
340.1863634482
 51
22.5207981348
  0
ARC
  5
167
330
1F
100
AcDbEntity
  8
0
  6
Continuous
 62
     7
370
    15
100
AcDbCircle
 10
649.9156584725
 20
1250.393983253
 30
0.0
 40
6.527565117146466
100
AcDbArc
 50
14.8632220677
 51
23.8778108181
  0
ARC
  5
168
330
1F
100
AcDbEntity
  8
0
  6
Continuous
 62
     7
370
    15
100
AcDbCircle
 10
656.1702568802
 20
1252.0881941769
 30
0.0
 40
0.0580452857014518
100
AcDbArc
 50
340.0454830487
 51
50.266252849
  0
LWPOLYLINE
  5
169
330
1F
100
AcDbEntity
  8
0
  6
Continuous
 62
     7
370
    15
100
AcDbPolyline
 90
       17
 70
   128
 43
0.0
 10
647.0647606391
 20
1249.5534264438
 10
646.8513164061
 20
1250.2726458899
 10
646.7491689461
 20
1250.8823567025
 10
646.7738750714
 20
1251.2897544495
 10
646.9216722387
 20
1251.4328204982
 10
647.1700522441
 20
1251.2897544495
 10
647.4812182921
 20
1250.8823567025
 10
647.8077846903
 20
1250.2726458899
 10
648.1000411648
 20
1249.5534264438
 10
648.3134853977
 20
1248.8342218987
 10
648.4156328577
 20
1248.2245110862
 10
648.3909267324
 20
1247.817098438
 10
648.2431295651
 20
1247.6740472905
 10
647.9947495598
 20
1247.817098438
 10
647.6835835117
 20
1248.2245110862
 10
647.3570171136
 20
1248.8342218987
 10
647.0647606391
 20
1249.5534264438
  0
LINE
  5
16A
330
1F
100
AcDbEntity
  8
0
  6
Continuous
 62
     7
370
    15
100
AcDbLine
 10
455.3082960981
 20
1274.1859697692
 30
0.0
 11
456.0857939857
 21
1274.1859697692
 31
0.0
  0
ARC
  5
16B
330
1F
100
AcDbEntity
  8
0
  6
Continuous
 62
     7
370
    15
100
AcDbCircle
 10
467.7041983313
 20
1274.7009688012
 30
0.0
 40
11.62981270446752
100
AcDbArc
 50
177.4619605671
 51
182.5380394329
  0
LINE
  5
16C
330
1F
100
AcDbEntity
  8
0
  6
Continuous
 62
     7
370
    15
100
AcDbLine
 10
456.0857939857
 20
1275.2159678332
 30
0.0
 11
455.3082960981
 21
1275.2159678332
 31
0.0
  0
ARC
  5
16D
330
1F
100
AcDbEntity
  8
0
  6
Continuous
 62
     7
370
    15
100
AcDbCircle
 10
454.3558700391
 20
1274.9602804374
 30
0.0
 40
0.9861498072181165
100
AcDbArc
 50
15.0272523789
 51
38.1009140454
  0
ARC
  5
16E
330
1F
100
AcDbEntity
  8
0
  6
Continuous
 62
     7
370
    15
100
AcDbCircle
 10
462.4239101464
 20
1274.717867009
 30
0.0
 40
7.341493409737564
100
AcDbArc
 50
164.4535112289
 51
173.3441745776
  0
ARC
  5
16F
330
1F
100
AcDbEntity
  8
0
  6
Continuous
 62
     7
370
    15
100
AcDbCircle
 10
455.0935182112
 20
1273.1066953563
 30
0.0
 40
3.588091553330208
100
AcDbArc
 50
85.8846286964
 51
94.1153713036
  0
ARC
  5
170
330
1F
100
AcDbEntity
  8
0
  6
Continuous
 62
     7
370
    15
100
AcDbCircle
 10
461.9078413567
 20
1274.7180769096
 30
0.0
 40
7.340406533803012
100
AcDbArc
 50
164.4528516954
 51
173.3448341111
  0
ARC
  5
171
330
1F
100
AcDbEntity
  8
0
  6
Continuous
 62
     7
370
    15
100
AcDbCircle
 10
455.3927448146
 20
1274.9603495335
 30
0.0
 40
0.9859667714925109
100
AcDbArc
 50
141.8958480434
 51
164.9740496025
  0
LINE
  5
172
330
1F
100
AcDbEntity
  8
0
  6
Continuous
 62
     7
370
    15
100
AcDbLine
 10
454.4404897231
 20
1275.2159678332
 30
0.0
 11
454.1012349862
 21
1275.2159678332
 31
0.0
  0
ARC
  5
173
330
1F
100
AcDbEntity
  8
0
  6
Continuous
 62
     7
370
    15
100
AcDbCircle
 10
460.5197821551
 20
1274.7009688012
 30
0.0
 40
6.439174773412044
100
AcDbArc
 50
175.4126389081
 51
184.5873610919
  0
LINE
  5
174
330
1F
100
AcDbEntity
  8
0
  6
Continuous
 62
     7
370
    15
100
AcDbLine
 10
454.1012349862
 20
1274.1859697692
 30
0.0
 11
454.4404897231
 21
1274.1859697692
 31
0.0
  0
ARC
  5
175
330
1F
100
AcDbEntity
  8
0
  6
Continuous
 62
     7
370
    15
100
AcDbCircle
 10
455.3927265697
 20
1274.4416046441
 30
0.0
 40
0.9859534477958715
100
AcDbArc
 50
195.0271555558
 51
218.1048827773
  0
ARC
  5
176
330
1F
100
AcDbEntity
  8
0
  6
Continuous
 62
     7
370
    15
100
AcDbCircle
 10
461.907506885
 20
1274.6838099663
 30
0.0
 40
7.340066710157623
100
AcDbArc
 50
186.6549596383
 51
195.5473545551
  0
ARC
  5
177
330
1F
100
AcDbEntity
  8
0
  6
Continuous
 62
     7
370
    15
100
AcDbCircle
 10
455.0935182112
 20
1276.2952571472
 30
0.0
 40
3.58809155322203
100
AcDbArc
 50
265.8846286963
 51
274.1153713037
  0
ARC
  5
178
330
1F
100
AcDbEntity
  8
0
  6
Continuous
 62
     7
370
    15
100
AcDbCircle
 10
462.4235753418
 20
1274.6840198015
 30
0.0
 40
7.341153247461712
100
AcDbArc
 50
186.6556190276
 51
195.5466951658
  0
ARC
  5
179
330
1F
100
AcDbEntity
  8
0
  6
Continuous
 62
     7
370
    15
100
AcDbCircle
 10
454.355888273
 20
1274.441673749
 30
0.0
 40
0.9861364969225263
100
AcDbArc
 50
321.8983553054
 51
344.9715423404
  0
ARC
  5
17A
330
1F
100
AcDbEntity
  8
0
  6
Continuous
 62
     7
370
    15
100
AcDbCircle
 10
456.5485540849
 20
1276.4884710219
 30
0.0
 40
2.240368206226632
100
AcDbArc
 50
117.5610514674
 51
164.3825714123
  0
ARC
  5
17B
330
1F
100
AcDbEntity
  8
0
  6
Continuous
 62
     7
370
    15
100
AcDbCircle
 10
456.5453449627
 20
1272.9115310304
 30
0.0
 40
2.236752706079324
100
AcDbArc
 50
195.5914414187
 51
242.6087161962
  0
LWPOLYLINE
  5
17C
330
1F
100
AcDbEntity
  8
0
  6
Continuous
 62
     7
370
    15
100
AcDbPolyline
 90
       14
 70
   128
 43
0.0
 10
455.4544243354
 20
1270.9529691331
 10
455.8549899
 20
1270.7456492774
 10
456.4511630076
 20
1270.7456492774
 10
457.0208418506
 20
1271.0970931641
 10
457.5134220856
 20
1271.768763005
 10
457.885124101
 20
1272.7009796492
 10
458.1029343742
 20
1273.8108926408
 10
458.1474813956
 20
1274.9999009959
 10
458.0148238081
 20
1276.1623405806
 10
457.7167409796
 20
1277.1949314467
 10
457.2797197241
 20
1278.0059271447
 10
456.7425850171
 20
1278.523265659
 10
456.1530801791
 20
1278.7009769074
 10
456.1530801791
 20
1278.7009769074
  0
LWPOLYLINE
  5
17D
330
1F
100
AcDbEntity
  8
0
  6
Continuous
 62
     7
370
    15
100
AcDbPolyline
 90
       12
 70
   128
 43
0.0
 10
457.4908244747
 20
1270.7009755961
 10
457.7889073032
 20
1270.7456492774
 10
458.3585861462
 20
1271.0970931641
 10
458.8511663812
 20
1271.768763005
 10
459.2228683966
 20
1272.7009796492
 10
459.4406786698
 20
1273.8108926408
 10
459.4852256912
 20
1274.9999009959
 10
459.3525681037
 20
1276.1623405806
 10
459.0544852752
 20
1277.1949314467
 10
458.6174640197
 20
1278.0059271447
 10
458.0803293127
 20
1278.523265659
 10
457.4908244747
 20
1278.7009769074
  0
LINE
  5
17E
330
1F
100
AcDbEntity
  8
0
  6
Continuous
 62
     7
370
    15
100
AcDbLine
 10
454.8360186952
 20
1276.6855352513
 30
0.0
 11
455.284208371
 21
1276.4274918429
 31
0.0
  0
LINE
  5
17F
330
1F
100
AcDbEntity
  8
0
  6
Continuous
 62
     7
370
    15
100
AcDbLine
 10
454.8360186952
 20
1272.7164172522
 30
0.0
 11
455.284208371
 21
1272.9744457595
 31
0.0
  0
SPLINE
  5
180
330
1F
100
AcDbEntity
  8
0
  6
Continuous
 62
     7
370
    15
100
AcDbSpline
210
0.0
220
0.0
230
1.0
 70
    24
 71
     3
 72
     9
 73
     5
 74
     0
 42
0.00000001
 43
0.00000001
 12
1.0
 22
0.0
 32
0.0
 13
1.0
 23
0.0
 33
0.0
 40
0.0
 40
0.0
 40
0.0
 40
0.0
 40
0.5868348787708471
 40
1.0
 40
1.0
 40
1.0
 40
1.0
 10
455.0036940115697
 20
1275.21596783322
 30
0.0
 10
454.8934271120696
 20
1275.21596783322
 30
0.0
 10
454.7055260457066
 20
1275.21596783322
 30
0.0
 10
454.5179780241498
 20
1275.21596783322
 30
0.0
 10
454.440489723087
 20
1275.21596783322
 30
0.0
  0
SPLINE
  5
181
330
1F
100
AcDbEntity
  8
0
  6
Continuous
 62
     7
370
    15
100
AcDbSpline
210
0.0
220
0.0
230
1.0
 70
     8
 71
     3
 72
     9
 73
     5
 74
     0
 42
0.00000001
 43
0.00000001
 12
1.0
 22
0.0
 32
0.0
 13
1.0
 23
0.0
 33
0.0
 40
0.0
 40
0.0
 40
0.0
 40
0.0
 40
0.3998879281357381
 40
1.0
 40
1.0
 40
1.0
 40
1.0
 10
454.6168971198804
 20
1275.568782626807
 30
0.0
 10
454.690921742761
 20
1275.561853895134
 30
0.0
 10
454.8760351649784
 20
1275.544527211367
 30
0.0
 10
455.0610903423712
 20
1275.526356083866
 30
0.0
 10
455.1721441882855
 20
1275.515451370894
 30
0.0
  0
SPLINE
  5
182
330
1F
100
AcDbEntity
  8
0
  6
Continuous
 62
     7
370
    15
100
AcDbSpline
210
0.0
220
0.0
230
1.0
 70
     8
 71
     3
 72
     9
 73
     5
 74
     0
 42
0.00000001
 43
0.00000001
 12
1.0
 22
0.0
 32
0.0
 13
1.0
 23
0.0
 33
0.0
 40
0.0
 40
0.0
 40
0.0
 40
0.0
 40
0.5816827173588882
 40
1.0
 40
1.0
 40
1.0
 40
1.0
 10
455.1476839321858
 20
1273.884116946875
 30
0.0
 10
455.0447828300906
 20
1273.874009341054
 30
0.0
 10
454.8678803727468
 20
1273.856632847788
 30
0.0
 10
454.6909219051752
 20
1273.840090025303
 30
0.0
 10
454.6168971198804
 20
1273.833169876754
 30
0.0
  0
SPLINE
  5
183
330
1F
100
AcDbEntity
  8
0
  6
Continuous
 62
     7
370
    15
100
AcDbSpline
210
0.0
220
0.0
230
1.0
 70
    24
 71
     3
 72
     9
 73
     5
 74
     0
 42
0.00000001
 43
0.00000001
 12
1.0
 22
0.0
 32
0.0
 13
1.0
 23
0.0
 33
0.0
 40
0.0
 40
0.0
 40
0.0
 40
0.0
 40
0.413165121229153
 40
1.0
 40
1.0
 40
1.0
 40
1.0
 10
454.4404897230869
 20
1274.185969769179
 30
0.0
 10
454.5179780241498
 20
1274.185969769179
 30
0.0
 10
454.7055260457066
 20
1274.185969769179
 30
0.0
 10
454.8934271120696
 20
1274.185969769179
 30
0.0
 10
455.0036940115697
 20
1274.185969769179
 30
0.0
  0
LWPOLYLINE
  5
184
330
1F
100
AcDbEntity
  8
0
  6
Continuous
 62
     7
370
    15
100
AcDbPolyline
 90
       12
 70
   128
 43
0.0
 10
683.4630298752
 20
1170.3412079207
 10
683.4839362043
 20
1170.3420274846
 10
683.8544386762
 20
1170.1648005239
 10
684.3132901329
 20
1169.6504720442
 10
684.8155784744
 20
1168.8493856184
 10
685.3121149677
 20
1167.8399586074
 10
685.7543218273
 20
1166.7209931604
 10
686.0988962787
 20
1165.6020351641
 10
686.3121169943
 20
1164.592608153
 10
686.373107447
 20
1163.7915217273
 10
686.2759071726
 20
1163.2771932475
 10
686.1909854549
 20
1163.1610610477
  0
ARC
  5
185
330
1F
100
AcDbEntity
  8
0
  6
Continuous
 62
     7
370
    15
100
AcDbCircle
 10
685.8915438386
 20
1167.5445039197
 30
0.0
 40
0.0598516095669615
100
AcDbArc
 50
340.202944497
 51
22.5239699578
  0
ARC
  5
186
330
1F
100
AcDbEntity
  8
0
  6
Continuous
 62
     7
370
    15
100
AcDbCircle
 10
679.978656114
 20
1164.8819515105
 30
0.0
 40
6.527865109597268
100
AcDbArc
 50
14.8624973701
 51
23.8766893635
  0
ARC
  5
187
330
1F
100
AcDbEntity
  8
0
  6
Continuous
 62
     7
370
    15
100
AcDbCircle
 10
686.2335785327
 20
1166.5761725177
 30
0.0
 40
0.0580375987292225
100
AcDbArc
 50
340.0291408527
 51
50.2669111652
  0
LWPOLYLINE
  5
188
330
1F
100
AcDbEntity
  8
0
  6
Continuous
 62
     7
370
    15
100
AcDbPolyline
 90
       17
 70
   128
 43
0.0
 10
677.1280843157
 20
1164.0413992993
 10
676.9146251816
 20
1164.7606112949
 10
676.8124777216
 20
1165.3703295581
 10
676.8371838468
 20
1165.7777273051
 10
676.9849884647
 20
1165.9207859032
 10
677.2333759207
 20
1165.7777273051
 10
677.5445270675
 20
1165.3703295581
 10
677.8711009163
 20
1164.7606112949
 10
678.1633573908
 20
1164.0413992993
 10
678.3768016237
 20
1163.3221947543
 10
678.4789490837
 20
1162.7124764912
 10
678.4542429584
 20
1162.3050787441
 10
678.3064532417
 20
1162.1620201461
 10
678.0580657858
 20
1162.3050787441
 10
677.7468997377
 20
1162.7124764912
 10
677.420325889
 20
1163.3221947543
 10
677.1280843157
 20
1164.0413992993
  0
LWPOLYLINE
  5
189
330
1F
100
AcDbEntity
  8
0
  6
Continuous
 62
     7
370
    15
100
AcDbPolyline
 90
       22
 70
   128
 43
0.0
 10
639.3500346082
 20
1242.5518923394
 10
639.5529288191
 20
1242.4265139691
 10
640.156112923
 20
1241.8172352902
 10
640.7299044865
 20
1240.8751242749
 10
641.2620845574
 20
1239.6202527873
 10
641.7412984508
 20
1238.0793833129
 10
642.1573463219
 20
1236.2853431098
 10
642.5013470787
 20
1234.2763685576
 10
642.7659768003
 20
1232.0952855937
 10
642.9455953974
 20
1229.7885709397
 10
643.0363658208
 20
1227.4053984277
 10
643.0363658208
 20
1224.9965512149
 10
642.9455953974
 20
1222.6133787028
 10
642.7659768003
 20
1220.3066640488
 10
642.5013470787
 20
1218.1255810849
 10
642.1573463219
 20
1216.1166065328
 10
641.7412984508
 20
1214.3225663297
 10
641.2620845574
 20
1212.7816968552
 10
640.7299044865
 20
1211.5268253676
 10
640.156112923
 20
1210.5847143523
 10
639.5529288191
 20
1209.9754356734
 10
639.3500346082
 20
1209.8500573031
  0
ARC
  5
18A
330
1F
100
AcDbEntity
  8
0
  6
Continuous
 62
     7
370
    15
100
AcDbCircle
 10
570.8204914639
 20
1226.2009748213
 30
0.0
 40
51.05057594573289
100
AcDbArc
 50
345.8915576191
 51
14.1084423809
  0
LWPOLYLINE
  5
18B
330
1F
100
AcDbEntity
  8
0
  6
Continuous
 62
     7
370
    15
100
AcDbPolyline
 90
       20
 70
   128
 43
0.0
 10
620.3311833876
 20
1242.3529767386
 10
620.8375993508
 20
1241.8172352902
 10
621.4113909143
 20
1240.8751242749
 10
621.9435709852
 20
1239.6202527873
 10
622.4227848786
 20
1238.0793833129
 10
622.8388252991
 20
1236.2853431098
 10
623.1828335065
 20
1234.2763685576
 10
623.4474632281
 20
1232.0952855937
 10
623.6270743746
 20
1229.7885709397
 10
623.7178522486
 20
1227.4053984277
 10
623.7178522486
 20
1224.9965512149
 10
623.6270743746
 20
1222.6133787028
 10
623.4474632281
 20
1220.3066640488
 10
623.1828335065
 20
1218.1255810849
 10
622.8388252991
 20
1216.1166065328
 10
622.4227848786
 20
1214.3225663297
 10
621.9435709852
 20
1212.7816968552
 10
621.4113909143
 20
1211.5268253676
 10
620.8375993508
 20
1210.5847143523
 10
620.3311833876
 20
1210.0489729039
  0
LWPOLYLINE
  5
18C
330
1F
100
AcDbEntity
  8
0
  6
Continuous
 62
     7
370
    15
100
AcDbPolyline
 90
       15
 70
   128
 43
0.0
 10
620.3311833876
 20
1224.9508642547
 10
620.4339939493
 20
1224.4332128159
 10
620.6439140576
 20
1223.8912724845
 10
620.8915266532
 20
1223.7009697549
 10
621.1391392487
 20
1223.8912724845
 10
621.349059357
 20
1224.4332128159
 10
621.4893239874
 20
1225.2442681186
 10
621.5385723251
 20
1226.2009673707
 10
621.4893239874
 20
1227.157681524
 10
621.349059357
 20
1227.9687368266
 10
621.1391392487
 20
1228.5106771581
 10
620.8915266532
 20
1228.7009798877
 10
620.6439140576
 20
1228.5106771581
 10
620.4339939493
 20
1227.9687368266
 10
620.3311833876
 20
1227.4510853879
  0
LWPOLYLINE
  5
18D
330
1F
100
AcDbEntity
  8
0
  6
Continuous
 62
     7
370
    15
100
AcDbPolyline
 90
        9
 70
   128
 43
0.0
 10
648.7273055452
 20
1250.493123471
 10
648.331582858
 20
1251.5380823008
 10
647.8943827885
 20
1252.5428676001
 10
647.432491495
 20
1253.4689002625
 10
646.963663711
 20
1254.2805665128
 10
646.5059223908
 20
1254.9466782204
 10
646.0768509048
 20
1255.4416500918
 10
645.6929448384
 20
1255.746453344
 10
645.3689488906
 20
1255.8493756644
  0
LINE
  5
18E
330
1F
100
AcDbEntity
  8
0
  6
Continuous
 62
     7
370
    15
100
AcDbLine
 10
645.3689488906
 20
1255.8493756644
 30
0.0
 11
649.2719429868
 21
1257.3200606696
 31
0.0
  0
LWPOLYLINE
  5
18F
330
1F
100
AcDbEntity
  8
0
  6
Continuous
 62
     7
370
    15
100
AcDbPolyline
 90
        9
 70
   128
 43
0.0
 10
652.6302996415
 20
1251.9638084761
 10
652.2345769542
 20
1253.008767306
 10
651.7973768848
 20
1254.0135526053
 10
651.3354855913
 20
1254.9395852677
 10
650.8666578072
 20
1255.751251518
 10
650.4089164871
 20
1256.4173632256
 10
649.9798450011
 20
1256.912335097
 10
649.5959389347
 20
1257.2171383492
 10
649.2719429868
 20
1257.3200606696
  0
LINE
  5
190
330
1F
100
AcDbEntity
  8
0
  6
Continuous
 62
     7
370
    15
100
AcDbLine
 10
652.6302996415
 20
1251.9638084761
 30
0.0
 11
648.7273055452
 21
1250.493123471
 31
0.0
  0
LINE
  5
191
330
1F
100
AcDbEntity
  8
0
  6
Continuous
 62
     7
370
    15
100
AcDbLine
 10
679.1209805149
 20
1164.0413992993
 30
0.0
 11
648.7273055452
 21
1250.493123471
 31
0.0
  0
LWPOLYLINE
  5
192
330
1F
100
AcDbEntity
  8
0
  6
Continuous
 62
     7
370
    15
100
AcDbPolyline
 90
        9
 70
   128
 43
0.0
 10
679.5287954944
 20
1158.6851545565
 10
679.7804314035
 20
1158.7880694262
 10
679.9500215191
 20
1159.0928726785
 10
680.0310540336
 20
1159.5878445498
 10
680.0204295057
 20
1160.2539637081
 10
679.9185502666
 20
1161.0656299583
 10
679.7293055195
 20
1161.9916551701
 10
679.4600117344
 20
1162.99644792
 10
679.1209805149
 20
1164.0413992993
  0
LINE
  5
193
330
1F
100
AcDbEntity
  8
0
  6
Continuous
 62
     7
370
    15
100
AcDbLine
 10
664.2584729332
 20
1158.6851545565
 30
0.0
 11
679.5287954944
 21
1158.6851545565
 31
0.0
  0
LWPOLYLINE
  5
194
330
1F
100
AcDbEntity
  8
0
  6
Continuous
 62
     7
370
    15
100
AcDbPolyline
 90
        9
 70
   128
 43
0.0
 10
660.9001237291
 20
1164.0413992993
 10
661.2958389658
 20
1162.99644792
 10
661.7330464858
 20
1161.9916551701
 10
662.1949377793
 20
1161.0656299583
 10
662.6637655634
 20
1160.2539637081
 10
663.1214994329
 20
1159.5878445498
 10
663.5505783695
 20
1159.0928726785
 10
663.9344918865
 20
1158.7880694262
 10
664.2584729332
 20
1158.6851545565
  0
LINE
  5
195
330
1F
100
AcDbEntity
  8
0
  6
Continuous
 62
     7
370
    15
100
AcDbLine
 10
630.5064413089
 20
1250.493123471
 30
0.0
 11
632.0154222983
 21
1246.2009780995
 31
0.0
  0
LINE
  5
196
330
1F
100
AcDbEntity
  8
0
  6
Continuous
 62
     7
370
    15
100
AcDbLine
 10
659.4377461213
 20
1168.2009764902
 30
0.0
 11
660.9001237291
 21
1164.0413992993
 31
0.0
  0
LWPOLYLINE
  5
197
330
1F
100
AcDbEntity
  8
0
  6
Continuous
 62
     7
370
    15
100
AcDbPolyline
 90
        9
 70
   128
 43
0.0
 10
630.0986263293
 20
1255.8493756644
 10
629.8469978708
 20
1255.746453344
 10
629.6774077553
 20
1255.4416500918
 10
629.5963677901
 20
1254.9466782204
 10
629.606992318
 20
1254.2805665128
 10
629.7088864583
 20
1253.4689002625
 10
629.8981163043
 20
1252.5428676001
 10
630.16741754
 20
1251.5380823008
 10
630.5064413089
 20
1250.493123471
  0
LINE
  5
198
330
1F
100
AcDbEntity
  8
0
  6
Continuous
 62
     7
370
    15
100
AcDbLine
 10
645.3689488906
 20
1255.8493756644
 30
0.0
 11
630.0986263293
 21
1255.8493756644
 31
0.0
  0
LWPOLYLINE
  5
199
330
1F
100
AcDbEntity
  8
0
  6
Continuous
 62
     7
370
    15
100
AcDbPolyline
 90
        9
 70
   128
 43
0.0
 10
645.7653868335
 20
1254.7217451922
 10
646.021172716
 20
1254.6404891602
 10
646.3242548841
 20
1254.3998503081
 10
646.662995531
 20
1254.009082257
 10
647.0243710417
 20
1253.4832053773
 10
647.3945009846
 20
1252.8424107425
 10
647.7591473001
 20
1252.1113448731
 10
648.1043103474
 20
1251.318081557
 10
648.4167206424
 20
1250.493123471
  0
LINE
  5
19A
330
1F
100
AcDbEntity
  8
0
  6
Continuous
 62
     7
370
    15
100
AcDbLine
 10
645.7653868335
 20
1254.7217451922
 30
0.0
 11
630.4950642723
 21
1254.7217451922
 31
0.0
  0
LWPOLYLINE
  5
19B
330
1F
100
AcDbEntity
  8
0
  6
Continuous
 62
     7
370
    15
100
AcDbPolyline
 90
        9
 70
   128
 43
0.0
 10
630.8170262116
 20
1250.493123471
 10
630.5493715543
 20
1251.318081557
 10
630.3367692369
 20
1252.1113448731
 10
630.1873701948
 20
1252.8424107425
 10
630.1069337267
 20
1253.4832053773
 10
630.0985443729
 20
1254.009082257
 10
630.1625225085
 20
1254.3998503081
 10
630.2964094418
 20
1254.6404891602
 10
630.4950642723
 20
1254.7217451922
  0
LINE
  5
19C
330
1F
100
AcDbEntity
  8
0
  6
Continuous
 62
     7
370
    15
100
AcDbLine
 10
630.8170262116
 20
1250.493123471
 30
0.0
 11
632.3260072011
 21
1246.2009780995
 31
0.0
  0
LINE
  5
19D
330
1F
100
AcDbEntity
  8
0
  6
Continuous
 62
     7
370
    15
100
AcDbLine
 10
659.7483310241
 20
1168.2009764902
 30
0.0
 11
661.2107086319
 21
1164.0413992993
 31
0.0
  0
LWPOLYLINE
  5
19E
330
1F
100
AcDbEntity
  8
0
  6
Continuous
 62
     7
370
    15
100
AcDbPolyline
 90
        9
 70
   128
 43
0.0
 10
663.8620424408
 20
1159.8127850286
 10
663.6062491077
 20
1159.89403361
 10
663.3031743902
 20
1160.1346724622
 10
662.9644262928
 20
1160.5254330627
 10
662.6030507821
 20
1161.051317393
 10
662.2329282898
 20
1161.6921045772
 10
661.8682745236
 20
1162.4231778972
 10
661.5231189269
 20
1163.2164412133
 10
661.2107086319
 20
1164.0413992993
  0
LINE
  5
19F
330
1F
100
AcDbEntity
  8
0
  6
Continuous
 62
     7
370
    15
100
AcDbLine
 10
663.8620424408
 20
1159.8127850286
 30
0.0
 11
679.132365002
 21
1159.8127850286
 31
0.0
  0
LWPOLYLINE
  5
1A0
330
1F
100
AcDbEntity
  8
0
  6
Continuous
 62
     7
370
    15
100
AcDbPolyline
 90
        9
 70
   128
 43
0.0
 10
678.8103956121
 20
1164.0413992993
 10
679.0780502695
 20
1163.2164412133
 10
679.2906600374
 20
1162.4231778972
 10
679.4400590795
 20
1161.6921045772
 10
679.5204955477
 20
1161.051317393
 10
679.5288849014
 20
1160.5254330627
 10
679.4648993152
 20
1160.1346724622
 10
679.3310123819
 20
1159.89403361
 10
679.132365002
 20
1159.8127850286
  0
LINE
  5
1A1
330
1F
100
AcDbEntity
  8
0
  6
Continuous
 62
     7
370
    15
100
AcDbLine
 10
678.8103956121
 20
1164.0413992993
 30
0.0
 11
648.4167206424
 21
1250.493123471
 31
0.0
  0
LINE
  5
1A2
330
1F
100
AcDbEntity
  8
0
  6
Continuous
 62
     7
370
    15
100
AcDbLine
 10
683.0239820617
 20
1165.5120917551
 30
0.0
 11
652.6302996415
 21
1251.9638084761
 31
0.0
  0
LINE
  5
1A3
330
1F
100
AcDbEntity
  8
0
  6
Continuous
 62
     7
370
    15
100
AcDbLine
 10
679.1209805149
 20
1164.0413992993
 30
0.0
 11
683.0239820617
 21
1165.5120917551
 31
0.0
  0
LINE
  5
1A4
330
1F
100
AcDbEntity
  8
0
  6
Continuous
 62
     7
370
    15
100
AcDbLine
 10
634.0016204256
 20
1257.3200606696
 30
0.0
 11
630.0986263293
 21
1255.8493756644
 31
0.0
  0
LINE
  5
1A5
330
1F
100
AcDbEntity
  8
0
  6
Continuous
 62
     7
370
    15
100
AcDbLine
 10
649.2719429868
 20
1257.3200606696
 30
0.0
 11
634.0016204256
 21
1257.3200606696
 31
0.0
  0
LINE
  5
1A6
330
1F
100
AcDbEntity
  8
0
  6
Continuous
 62
     7
370
    15
100
AcDbLine
 10
656.001448943
 20
1248.6340695016
 30
0.0
 11
681.9226223367
 21
1248.6340695016
 31
0.0
  0
LWPOLYLINE
  5
1A7
330
1F
100
AcDbEntity
  8
0
  6
Continuous
 62
     7
370
    15
100
AcDbPolyline
 90
        9
 70
   128
 43
0.0
 10
683.2167285818
 20
1243.6340742699
 10
683.1918585438
 20
1244.6095191829
 10
683.1182170051
 20
1245.5474876754
 10
682.9986351866
 20
1246.4119189374
 10
682.8376877445
 20
1247.1695982806
 10
682.6415884632
 20
1247.7914088361
 10
682.417862429
 20
1248.2534640424
 10
682.1750927109
 20
1248.5379868142
 10
681.9226223367
 20
1248.6340695016
  0
LINE
  5
1A8
330
1F
100
AcDbEntity
  8
0
  6
Continuous
 62
     7
370
    15
100
AcDbLine
 10
683.2167285818
 20
1175.8759760253
 30
0.0
 11
683.2167285818
 21
1243.6340742699
 31
0.0
  0
LINE
  5
1A9
330
1F
100
AcDbEntity
  8
0
  6
Continuous
 62
     7
370
    15
100
AcDbLine
 10
667.7650290865
 20
1161.2834700338
 30
0.0
 11
663.8620424408
 21
1159.8127850286
 31
0.0
  0
LWPOLYLINE
  5
1AA
330
1F
100
AcDbEntity
  8
0
  6
Continuous
 62
     7
370
    15
100
AcDbPolyline
 90
        3
 70
   128
 43
0.0
 10
666.5127056974
 20
1161.4707180254
 10
666.5216612953
 20
1161.4654653661
 10
666.6921752828
 20
1161.4112996451
  0
LWPOLYLINE
  5
1AB
330
1F
100
AcDbEntity
  8
0
  6
Continuous
 62
     7
370
    15
100
AcDbPolyline
 90
        5
 70
   128
 43
0.0
 10
633.9859369534
 20
1254.4408732049
 10
633.8535028833
 20
1254.3866925828
 10
633.7642374772
 20
1254.2262815825
 10
633.7215903538
 20
1253.9657645814
 10
633.718923046
 20
1253.7727796428
  0
LINE
  5
1AC
330
1F
100
AcDbEntity
  8
0
  6
Continuous
 62
     7
370
    15
100
AcDbLine
 10
633.9859369534
 20
1254.4408732049
 30
0.0
 11
646.2815258044
 21
1254.4408732049
 31
0.0
  0
LINE
  5
1AD
330
1F
100
AcDbEntity
  8
0
  6
Continuous
 62
     7
370
    15
100
AcDbLine
 10
679.4823634762
 20
1161.4112996451
 30
0.0
 11
666.6921752828
 21
1161.4112996451
 31
0.0
  0
ARC
  5
1AE
330
1F
100
AcDbEntity
  8
0
  6
Continuous
 62
     7
370
    15
100
AcDbCircle
 10
639.2376937488
 20
1247.2677374446
 30
0.0
 40
3.308060288574015
100
AcDbArc
 50
176.7605511156
 51
192.5344681747
  0
ARC
  5
1AF
330
1F
100
AcDbEntity
  8
0
  6
Continuous
 62
     7
370
    15
100
AcDbCircle
 10
667.6711181005
 20
1170.4379183433
 30
0.0
 40
4.640667214525119
100
AcDbArc
 50
208.8180832461
 51
218.0658053339
  0
ARC
  5
1B0
330
1F
100
AcDbEntity
  8
0
  6
Continuous
 62
     7
370
    15
100
AcDbCircle
 10
658.0984923314
 20
1163.0646004918
 30
0.0
 40
7.442662699100681
100
AcDbArc
 50
24.8464737034
 51
37.3181228832
  0
ARC
  5
1B1
330
1F
100
AcDbEntity
  8
0
  6
Continuous
 62
     7
370
    15
100
AcDbCircle
 10
667.233168663
 20
1166.9107397578
 30
0.0
 40
2.487071678565337
100
AcDbArc
 50
196.7994460287
 51
239.8726077739
  0
LINE
  5
1B2
330
1F
100
AcDbEntity
  8
0
  6
Continuous
 62
     7
370
    15
100
AcDbLine
 10
676.9148636001
 20
1164.7596427194
 30
0.0
 11
665.9848469633
 21
1164.7596427194
 31
0.0
  0
LINE
  5
1B3
330
1F
100
AcDbEntity
  8
0
  6
Continuous
 62
     7
370
    15
100
AcDbLine
 10
635.9215381879
 20
1250.2716773145
 30
0.0
 11
646.8515473741
 21
1250.2716773145
 31
0.0
  0
LWPOLYLINE
  5
1B4
330
1F
100
AcDbEntity
  8
0
  6
Continuous
 62
     7
370
    15
100
AcDbPolyline
 90
        9
 70
   128
 43
0.0
 10
635.796010806
 20
1248.8393926017
 10
635.7363763589
 20
1249.1473549001
 10
635.6978196043
 20
1249.4276606433
 10
635.6811154026
 20
1249.6748113028
 10
635.6865692276
 20
1249.8839789025
 10
635.7140916723
 20
1250.0510805241
 10
635.7631313938
 20
1250.1728230111
 10
635.8327347177
 20
1250.2468370787
 10
635.9215381879
 20
1250.2716773145
  0
ARC
  5
1B5
330
1F
100
AcDbEntity
  8
0
  6
Continuous
 62
     7
370
    15
100
AcDbCircle
 10
631.218307276
 20
1247.6808514596
 30
0.0
 40
4.722032103501197
100
AcDbArc
 50
357.2545577964
 51
14.2024004921
  0
LWPOLYLINE
  5
1B6
330
1F
100
AcDbEntity
  8
0
  6
Continuous
 62
     7
370
    15
100
AcDbPolyline
 90
        7
 70
   128
 43
0.0
 10
633.1913176316
 20
1253.5606020085
 10
633.0588835615
 20
1253.5064362876
 10
632.9696256059
 20
1253.3460103862
 10
632.926971032
 20
1253.085493385
 10
632.9325664181
 20
1252.7349137656
 10
632.9861956972
 20
1252.3077123753
 10
633.0719518799
 20
1251.8795126073
  0
LINE
  5
1B7
330
1F
100
AcDbEntity
  8
0
  6
Continuous
 62
     7
370
    15
100
AcDbLine
 10
633.1913176316
 20
1253.5606020085
 30
0.0
 11
646.9752866167
 21
1253.5606020085
 31
0.0
  0
LINE
  5
1B8
330
1F
100
AcDbEntity
  8
0
  6
Continuous
 62
     7
370
    15
100
AcDbLine
 10
665.5671972173
 20
1161.4707180254
 30
0.0
 11
679.4742423433
 21
1161.4707180254
 31
0.0
  0
ARC
  5
1B9
330
1F
100
AcDbEntity
  8
0
  6
Continuous
 62
     7
370
    15
100
AcDbCircle
 10
666.4603173746
 20
1163.3070993081
 30
0.0
 40
2.042047950108298
100
AcDbArc
 50
199.6296672735
 51
244.0641262587
  0
LINE
  5
1BA
330
1F
100
AcDbEntity
  8
0
  6
Continuous
 62
     7
370
    15
100
AcDbLine
 10
663.0769300598
 20
1166.3454913489
 30
0.0
 11
662.4245944756
 21
1168.2009764902
 31
0.0
  0
LINE
  5
1BB
330
1F
100
AcDbEntity
  8
0
  6
Continuous
 62
     7
370
    15
100
AcDbLine
 10
635.0022706527
 20
1246.2009780995
 30
0.0
 11
634.3406143922
 21
1248.0829947583
 31
0.0
  0
LWPOLYLINE
  5
1BC
330
1F
100
AcDbEntity
  8
0
  6
Continuous
 62
     7
370
    15
100
AcDbPolyline
 90
       10
 70
   128
 43
0.0
 10
633.7717923659
 20
1252.1432184569
 10
633.8162797827
 20
1252.1510564677
 10
634.0646672386
 20
1252.0080053203
 10
634.3758258361
 20
1251.600592672
 10
634.7023922342
 20
1250.9908818595
 10
634.9946487087
 20
1250.2716773145
 10
635.2081003922
 20
1249.5524578683
 10
635.3102404016
 20
1248.9427470557
 10
635.2855417269
 20
1248.5353493087
 10
635.1822245258
 20
1248.400136172
  0
LWPOLYLINE
  5
1BD
330
1F
100
AcDbEntity
  8
0
  6
Continuous
 62
     7
370
    15
100
AcDbPolyline
 90
       10
 70
   128
 43
0.0
 10
663.8351160425
 20
1166.6311838619
 10
663.8795960087
 20
1166.6390293233
 10
664.1279834646
 20
1166.4959707252
 10
664.4391346115
 20
1166.0885729782
 10
664.7657084602
 20
1165.478854715
 10
665.0579649347
 20
1164.7596427194
 10
665.2714091676
 20
1164.0404381744
 10
665.3735566276
 20
1163.4307199113
 10
665.3488505024
 20
1163.0233221642
 10
665.2455407518
 20
1162.888101577
  0
LINE
  5
1BE
330
1F
100
AcDbEntity
  8
0
  6
Continuous
 62
     7
370
    15
100
AcDbLine
 10
634.2805254596
 20
1253.9710246913
 30
0.0
 11
633.1913176316
 21
1253.5606020085
 31
0.0
  0
LINE
  5
1BF
330
1F
100
AcDbEntity
  8
0
  6
Continuous
 62
     7
370
    15
100
AcDbLine
 10
634.2805254596
 20
1253.9710246913
 30
0.0
 11
646.6918069261
 21
1253.9710246913
 31
0.0
  0
LINE
  5
1C0
330
1F
100
AcDbEntity
  8
0
  6
Continuous
 62
     7
370
    15
100
AcDbLine
 10
676.425092234
 20
1167.5429933659
 30
0.0
 11
665.7099801439
 21
1167.5429933659
 31
0.0
  0
LWPOLYLINE
  5
1C1
330
1F
100
AcDbEntity
  8
0
  6
Continuous
 62
     7
370
    15
100
AcDbPolyline
 90
        3
 70
   128
 43
0.0
 10
677.7829605478
 20
1166.9638597361
 10
677.8004098076
 20
1166.8710702054
 10
677.8559762377
 20
1166.6011356704
  0
LWPOLYLINE
  5
1C2
330
1F
100
AcDbEntity
  8
0
  6
Continuous
 62
     7
370
    15
100
AcDbPolyline
 90
        3
 70
   128
 43
0.0
 10
677.8559762377
 20
1166.6011356704
 10
677.8935271639
 20
1166.4072417609
 10
677.9122579235
 20
1166.2791141264
  0
LINE
  5
1C3
330
1F
100
AcDbEntity
  8
0
  6
Continuous
 62
     7
370
    15
100
AcDbLine
 10
676.8190640348
 20
1165.6993397467
 30
0.0
 11
665.6544882196
 21
1165.6993397467
 31
0.0
  0
ARC
  5
1C4
330
1F
100
AcDbEntity
  8
0
  6
Continuous
 62
     7
370
    15
100
AcDbCircle
 10
666.4403611002
 20
1167.0536561166
 30
0.0
 40
1.565812573138618
100
AcDbArc
 50
196.798120369
 51
239.8745746798
  0
ARC
  5
1C5
330
1F
100
AcDbEntity
  8
0
  6
Continuous
 62
     7
370
    15
100
AcDbCircle
 10
655.7396478425
 20
1162.301248824
 30
0.0
 40
10.15680043827382
100
AcDbArc
 50
25.0463019071
 51
35.5113897667
  0
ARC
  5
1C6
330
1F
100
AcDbEntity
  8
0
  6
Continuous
 62
     7
370
    15
100
AcDbCircle
 10
630.2874187313
 20
1246.940636294
 30
0.0
 40
6.07101735173596
100
AcDbArc
 50
357.254305969
 51
14.2026793211
  0
LWPOLYLINE
  5
1C7
330
1F
100
AcDbEntity
  8
0
  6
Continuous
 62
     7
370
    15
100
AcDbPolyline
 90
        9
 70
   128
 43
0.0
 10
636.1728686231
 20
1248.430176913
 10
636.1353176969
 20
1248.6240708224
 10
636.1110437053
 20
1248.8005601756
 10
636.1005234855
 20
1248.9561730019
 10
636.1039582032
 20
1249.0878843657
 10
636.1212882537
 20
1249.1930865638
 10
636.1521634597
 20
1249.2697381369
 10
636.1959877747
 20
1249.3163489692
 10
636.2519043821
 20
1249.3319802873
  0
LINE
  5
1C8
330
1F
100
AcDbEntity
  8
0
  6
Continuous
 62
     7
370
    15
100
AcDbLine
 10
636.2519043821
 20
1249.3319802873
 30
0.0
 11
647.1462252873
 21
1249.3319802873
 31
0.0
  0
LWPOLYLINE
  5
1C9
330
1F
100
AcDbEntity
  8
0
  6
Continuous
 62
     7
370
    15
100
AcDbPolyline
 90
        9
 70
   128
 43
0.0
 10
650.4687744516
 20
1242.1302043788
 10
650.1216519016
 20
1243.0468344085
 10
649.738140716
 20
1243.9282231919
 10
649.3329781431
 20
1244.7405301921
 10
648.9217284459
 20
1245.4525225751
 10
648.5201943058
 20
1246.0368269078
 10
648.1438207763
 20
1246.4710169427
 10
647.8070545334
 20
1246.738388478
 10
647.5228521365
 20
1246.8286597125
  0
ELLIPSE
  5
1CA
330
1F
100
AcDbEntity
  8
0
  6
Continuous
 62
     7
370
    15
100
AcDbEllipse
 10
646.0666530631
 20
1240.9590681524
 30
0.0
 11
-0.7054376055669991
 21
5.068836590658293
 31
0.0
210
0.0
220
0.0
230
1.0
 40
0.250605517
 41
4.677525965372557
 42
6.248322292167498
  0
LINE
  5
1CB
330
1F
100
AcDbEntity
  8
0
  6
Continuous
 62
     7
370
    15
100
AcDbLine
 10
647.3607498544
 20
1240.9590625159
 30
0.0
 11
644.9112597245
 21
1240.9590625159
 31
0.0
  0
ELLIPSE
  5
1CC
330
1F
100
AcDbEntity
  8
0
  6
Continuous
 62
     7
370
    15
100
AcDbEllipse
 10
644.1348014105
 20
1240.9590681524
 30
0.0
 11
0.0
 21
3.19253331742766
 31
0.0
210
0.0
220
0.0
230
1.0
 40
0.2432103468
 41
4.712388980384693
 42
6.283185307179586
  0
ARC
  5
1CD
330
1F
100
AcDbEntity
  8
0
  6
Continuous
 62
     7
370
    15
100
AcDbCircle
 10
646.131987982
 20
1244.1703633465
 30
0.0
 40
1.997271140733849
100
AcDbArc
 50
111.3171853979
 51
180.5380861686
  0
LINE
  5
1CE
330
1F
100
AcDbEntity
  8
0
  6
Continuous
 62
     7
370
    15
100
AcDbLine
 10
647.3607498544
 20
1240.9590625159
 30
0.0
 11
647.3607498544
 21
1173.2009717218
 31
0.0
  0
LINE
  5
1CF
330
1F
100
AcDbEntity
  8
0
  6
Continuous
 62
     7
370
    15
100
AcDbLine
 10
647.3607498544
 20
1173.2009717218
 30
0.0
 11
644.9112597245
 21
1173.2009717218
 31
0.0
  0
LINE
  5
1D0
330
1F
100
AcDbEntity
  8
0
  6
Continuous
 62
     7
370
    15
100
AcDbLine
 10
644.9112597245
 20
1173.2009717218
 30
0.0
 11
644.9112597245
 21
1240.9590625159
 31
0.0
  0
ARC
  5
1D1
330
1F
100
AcDbEntity
  8
0
  6
Continuous
 62
     7
370
    15
100
AcDbCircle
 10
641.4311161839
 20
1172.5012171549
 30
0.0
 40
3.549796545925112
100
AcDbArc
 50
319.6095310938
 51
11.3689021814
  0
LWPOLYLINE
  5
1D2
330
1F
100
AcDbEntity
  8
0
  6
Continuous
 62
     7
370
    15
100
AcDbPolyline
 90
        9
 70
   128
 43
0.0
 10
647.3607498544
 20
1173.2009717218
 10
647.3358798164
 20
1172.2255193583
 10
647.2622382778
 20
1171.2875583164
 10
647.1426564592
 20
1170.4231196038
 10
646.9817164677
 20
1169.6654402606
 10
646.7856171864
 20
1169.0436222545
 10
646.5618837017
 20
1168.5815744988
 10
646.3191214341
 20
1168.2970442764
 10
646.06665106
 20
1168.2009764902
  0
ARC
  5
1D3
330
1F
100
AcDbEntity
  8
0
  6
Continuous
 62
     7
370
    15
100
AcDbCircle
 10
646.1013207781
 20
1170.1674720928
 30
0.0
 40
1.96680119592093
100
AcDbArc
 50
179.0240199468
 51
268.9899683734
  0
LINE
  5
1D4
330
1F
100
AcDbEntity
  8
0
  6
Continuous
 62
     7
370
    15
100
AcDbLine
 10
650.4687744516
 20
1242.1302043788
 30
0.0
 11
647.3607498544
 21
1240.9590625159
 31
0.0
  0
LINE
  5
1D5
330
1F
100
AcDbEntity
  8
0
  6
Continuous
 62
     7
370
    15
100
AcDbLine
 10
645.4059186715
 20
1246.0309856526
 30
0.0
 11
647.5228521365
 21
1246.8286597125
 31
0.0
  0
LINE
  5
1D6
330
1F
100
AcDbEntity
  8
0
  6
Continuous
 62
     7
370
    15
100
AcDbLine
 10
674.7021007675
 20
1173.2009717218
 30
0.0
 11
650.4687744516
 21
1242.1302043788
 31
0.0
  0
LINE
  5
1D7
330
1F
100
AcDbEntity
  8
0
  6
Continuous
 62
     7
370
    15
100
AcDbLine
 10
647.3607498544
 20
1173.2009717218
 30
0.0
 11
674.7021007675
 21
1173.2009717218
 31
0.0
  0
ARC
  5
1D8
330
1F
100
AcDbEntity
  8
0
  6
Continuous
 62
     7
370
    15
100
AcDbCircle
 10
652.9717785962
 20
1201.6925945346
 30
0.0
 40
0.4916945182930136
100
AcDbArc
 50
179.0231297207
 51
268.9906452844
  0
LINE
  5
1D9
330
1F
100
AcDbEntity
  8
0
  6
Continuous
 62
     7
370
    15
100
AcDbLine
 10
652.9631170768
 20
1201.2009763114
 30
0.0
 11
653.3494892854
 21
1201.2009763114
 31
0.0
  0
ARC
  5
1DA
330
1F
100
AcDbEntity
  8
0
  6
Continuous
 62
     7
370
    15
100
AcDbCircle
 10
653.3408277659
 20
1201.6925945346
 30
0.0
 40
0.4916945182927804
100
AcDbArc
 50
271.0093547156
 51
0.9768702793
  0
LINE
  5
1DB
330
1F
100
AcDbEntity
  8
0
  6
Continuous
 62
     7
370
    15
100
AcDbLine
 10
653.8324508208
 20
1201.7009773247
 30
0.0
 11
653.8324508208
 21
1208.7009691588
 31
0.0
  0
ARC
  5
1DC
330
1F
100
AcDbEntity
  8
0
  6
Continuous
 62
     7
370
    15
100
AcDbCircle
 10
653.3408202489
 20
1208.7093520138
 30
0.0
 40
0.4917020352862348
100
AcDbArc
 50
359.0231370911
 51
88.9897846616
  0
LINE
  5
1DD
330
1F
100
AcDbEntity
  8
0
  6
Continuous
 62
     7
370
    15
100
AcDbLine
 10
653.3494892854
 20
1209.2009776227
 30
0.0
 11
652.9631170768
 21
1209.2009776227
 31
0.0
  0
ARC
  5
1DE
330
1F
100
AcDbEntity
  8
0
  6
Continuous
 62
     7
370
    15
100
AcDbCircle
 10
652.9717861132
 20
1208.7093520138
 30
0.0
 40
0.4917020352866452
100
AcDbArc
 50
91.0102153385
 51
180.9768629089
  0
LINE
  5
1DF
330
1F
100
AcDbEntity
  8
0
  6
Continuous
 62
     7
370
    15
100
AcDbLine
 10
652.4801555413
 20
1208.7009691588
 30
0.0
 11
652.4801555413
 21
1201.7009773247
 31
0.0
  0
ELLIPSE
  5
1E0
330
1F
100
AcDbEntity
  8
0
  6
Continuous
 62
     7
370
    15
100
AcDbEllipse
 10
673.4080107922
 20
1173.2009739272
 30
0.0
 11
-2.224872611388377
 21
4.976474228213191
 31
0.0
210
0.0
220
0.0
230
1.0
 40
0.2177485805
 41
3.044547831572534
 42
4.615344158367491
  0
LINE
  5
1E1
330
1F
100
AcDbEntity
  8
0
  6
Continuous
 62
     7
370
    15
100
AcDbLine
 10
675.5174178022
 20
1168.2009764902
 30
0.0
 11
646.06665106
 21
1168.2009764902
 31
0.0
  0
ARC
  5
1E2
330
1F
100
AcDbEntity
  8
0
  6
Continuous
 62
     7
370
    15
100
AcDbCircle
 10
636.1233564453
 20
1172.5012106541
 30
0.0
 40
3.549773203148897
100
AcDbArc
 50
168.6309150346
 51
220.3906516902
  0
LINE
  5
1E3
330
1F
100
AcDbEntity
  8
0
  6
Continuous
 62
     7
370
    15
100
AcDbLine
 10
633.4196928281
 20
1170.2009730927
 30
0.0
 11
644.1348049182
 21
1170.2009730927
 31
0.0
  0
ARC
  5
1E4
330
1F
100
AcDbEntity
  8
0
  6
Continuous
 62
     7
370
    15
100
AcDbCircle
 10
638.321992616
 20
1191.4843493563
 30
0.0
 40
0.5916321399900631
100
AcDbArc
 50
168.6315648779
 51
220.3903470167
  0
LINE
  5
1E5
330
1F
100
AcDbEntity
  8
0
  6
Continuous
 62
     7
370
    15
100
AcDbLine
 10
637.8713774818
 20
1191.1009767048
 30
0.0
 11
639.6831128138
 21
1191.1009767048
 31
0.0
  0
ARC
  5
1E6
330
1F
100
AcDbEntity
  8
0
  6
Continuous
 62
     7
370
    15
100
AcDbCircle
 10
639.2325388397
 20
1191.4843387032
 30
0.0
 40
0.5915938877350416
100
AcDbArc
 50
319.6078556981
 51
11.3702324072
  0
LINE
  5
1E7
330
1F
100
AcDbEntity
  8
0
  6
Continuous
 62
     7
370
    15
100
AcDbLine
 10
639.8125219482
 20
1191.6009702675
 30
0.0
 11
639.8125219482
 21
1192.0009770386
 31
0.0
  0
ARC
  5
1E8
330
1F
100
AcDbEntity
  8
0
  6
Continuous
 62
     7
370
    15
100
AcDbCircle
 10
639.2325388397
 20
1192.1176086029
 30
0.0
 40
0.5915938877369556
100
AcDbArc
 50
348.6297675929
 51
40.3921443018
  0
LINE
  5
1E9
330
1F
100
AcDbEntity
  8
0
  6
Continuous
 62
     7
370
    15
100
AcDbLine
 10
639.6831128138
 20
1192.5009706013
 30
0.0
 11
637.8713774818
 21
1192.5009706013
 31
0.0
  0
ARC
  5
1EA
330
1F
100
AcDbEntity
  8
0
  6
Continuous
 62
     7
370
    15
100
AcDbCircle
 10
638.321992616
 20
1192.1175979498
 30
0.0
 40
0.59163213999181
100
AcDbArc
 50
139.6096529833
 51
191.3684351221
  0
LINE
  5
1EB
330
1F
100
AcDbEntity
  8
0
  6
Continuous
 62
     7
370
    15
100
AcDbLine
 10
637.7419683474
 20
1192.0009770386
 30
0.0
 11
637.7419683474
 21
1191.6009702675
 31
0.0
  0
LWPOLYLINE
  5
1EC
330
1F
100
AcDbEntity
  8
0
  6
Continuous
 62
     7
370
    15
100
AcDbPolyline
 90
       17
 70
   128
 43
0.0
 10
641.6242572802
 20
1203.7009739272
 10
641.4756852525
 20
1203.8151615254
 10
641.3497406381
 20
1204.1403197638
 10
641.2655788797
 20
1204.6269469849
 10
641.2360298771
 20
1205.2009695165
 10
641.2655788797
 20
1205.774992048
 10
641.3497406381
 20
1206.2616341702
 10
641.4756852525
 20
1206.5867924086
 10
641.6242572802
 20
1206.7009800069
 10
641.7728218573
 20
1206.5867924086
 10
641.8987739223
 20
1206.2616341702
 10
641.9829356807
 20
1205.774992048
 10
642.0124846834
 20
1205.2009695165
 10
641.9829356807
 20
1204.6269469849
 10
641.8987739223
 20
1204.1403197638
 10
641.7728218573
 20
1203.8151615254
 10
641.6242572802
 20
1203.7009739272
  0
LWPOLYLINE
  5
1ED
330
1F
100
AcDbEntity
  8
0
  6
Continuous
 62
     7
370
    15
100
AcDbPolyline
 90
       17
 70
   128
 43
0.0
 10
638.7772488731
 20
1203.7009739272
 10
638.6286768454
 20
1203.8151615254
 10
638.5027247804
 20
1204.1403197638
 10
638.4185704726
 20
1204.6269469849
 10
638.38902147
 20
1205.2009695165
 10
638.4185704726
 20
1205.774992048
 10
638.5027247804
 20
1206.2616341702
 10
638.6286768454
 20
1206.5867924086
 10
638.7772488731
 20
1206.7009800069
 10
638.9258134502
 20
1206.5867924086
 10
639.0517655152
 20
1206.2616341702
 10
639.1359272736
 20
1205.774992048
 10
639.1654762763
 20
1205.2009695165
 10
639.1359272736
 20
1204.6269469849
 10
639.0517655152
 20
1204.1403197638
 10
638.9258134502
 20
1203.8151615254
 10
638.7772488731
 20
1203.7009739272
  0
LINE
  5
1EE
330
1F
100
AcDbEntity
  8
0
  6
Continuous
 62
     7
370
    15
100
AcDbLine
 10
653.8324508208
 20
1208.7009691588
 30
0.0
 11
653.4442234176
 21
1208.7009691588
 31
0.0
  0
ARC
  5
1EF
330
1F
100
AcDbEntity
  8
0
  6
Continuous
 62
     7
370
    15
100
AcDbCircle
 10
652.9525928457
 20
1208.7093520138
 30
0.0
 40
0.4917020352862348
100
AcDbArc
 50
359.0231370911
 51
88.9897846616
  0
ARC
  5
1F0
330
1F
100
AcDbEntity
  8
0
  6
Continuous
 62
     7
370
    15
100
AcDbCircle
 10
652.9526003627
 20
1201.6925945346
 30
0.0
 40
0.4916945182927843
100
AcDbArc
 50
271.0093547156
 51
0.9768702793
  0
LINE
  5
1F1
330
1F
100
AcDbEntity
  8
0
  6
Continuous
 62
     7
370
    15
100
AcDbLine
 10
653.4442234176
 20
1201.7009773247
 30
0.0
 11
653.8324508208
 21
1201.7009773247
 31
0.0
  0
LINE
  5
1F2
330
1F
100
AcDbEntity
  8
0
  6
Continuous
 62
     7
370
    15
100
AcDbLine
 10
653.4442234176
 20
1208.7009691588
 30
0.0
 11
653.4442234176
 21
1201.7009773247
 31
0.0
  0
LINE
  5
1F3
330
1F
100
AcDbEntity
  8
0
  6
Continuous
 62
     7
370
    15
100
AcDbLine
 10
636.8872749943
 20
1249.5713972442
 30
0.0
 11
636.2519043821
 21
1249.3319802873
 31
0.0
  0
ARC
  5
1F4
330
1F
100
AcDbEntity
  8
0
  6
Continuous
 62
     7
370
    15
100
AcDbCircle
 10
636.7013991215
 20
1250.0405518947
 30
0.0
 40
0.5046344480758201
100
AcDbArc
 50
291.6131330661
 51
19.8918306088
  0
ARC
  5
1F5
330
1F
100
AcDbEntity
  8
0
  6
Continuous
 62
     7
370
    15
100
AcDbCircle
 10
653.4118644751
 20
1208.8176047413
 30
0.0
 40
0.5916227369986099
100
AcDbArc
 50
139.6088490022
 51
191.3700674972
  0
ARC
  5
1F6
330
1F
100
AcDbEntity
  8
0
  6
Continuous
 62
     7
370
    15
100
AcDbCircle
 10
653.4118403635
 20
1201.5843412143
 30
0.0
 40
0.5915992026396432
100
AcDbArc
 50
168.6294220089
 51
220.3920756829
  0
LINE
  5
1F7
330
1F
100
AcDbEntity
  8
0
  6
Continuous
 62
     7
370
    15
100
AcDbLine
 10
652.8318527478
 20
1208.7009691588
 30
0.0
 11
653.4442234176
 21
1208.7009691588
 31
0.0
  0
LINE
  5
1F8
330
1F
100
AcDbEntity
  8
0
  6
Continuous
 62
     7
370
    15
100
AcDbLine
 10
652.8318527478
 20
1201.7009773247
 30
0.0
 11
652.8318527478
 21
1208.7009691588
 31
0.0
  0
LINE
  5
1F9
330
1F
100
AcDbEntity
  8
0
  6
Continuous
 62
     7
370
    15
100
AcDbLine
 10
652.8318527478
 20
1201.7009773247
 30
0.0
 11
653.4442234176
 21
1201.7009773247
 31
0.0
  0
LINE
  5
1FA
330
1F
100
AcDbEntity
  8
0
  6
Continuous
 62
     7
370
    15
100
AcDbLine
 10
646.06665106
 20
1168.2009764902
 30
0.0
 11
635.3515464205
 21
1168.2009764902
 31
0.0
  0
ARC
  5
1FB
330
1F
100
AcDbEntity
  8
0
  6
Continuous
 62
     7
370
    15
100
AcDbCircle
 10
635.3862128118
 20
1170.1674762052
 30
0.0
 40
1.966805249100515
100
AcDbArc
 50
179.0241417773
 51
268.9900673833
  0
LINE
  5
1FC
330
1F
100
AcDbEntity
  8
0
  6
Continuous
 62
     7
370
    15
100
AcDbLine
 10
647.5228521365
 20
1246.8286597125
 30
0.0
 11
636.8077400464
 21
1246.8286597125
 31
0.0
  0
ARC
  5
1FD
330
1F
100
AcDbEntity
  8
0
  6
Continuous
 62
     7
370
    15
100
AcDbCircle
 10
636.435967574
 20
1247.7669878585
 30
0.0
 40
1.009294050704252
100
AcDbArc
 50
291.6138329231
 51
19.8910758346
  0
ARC
  5
1FE
330
1F
100
AcDbEntity
  8
0
  6
Continuous
 62
     7
370
    15
100
AcDbCircle
 10
675.5077298072
 20
1167.2325612606
 30
0.0
 40
0.9684636876026724
100
AcDbArc
 50
18.695632083
 51
89.4268339716
  0
LINE
  5
1FF
330
1F
100
AcDbEntity
  8
0
  6
Continuous
 62
     7
370
    15
100
AcDbLine
 10
666.6202175754
 20
1164.9990596763
 30
0.0
 11
665.9848469633
 21
1164.7596427194
 31
0.0
  0
ARC
  5
200
330
1F
100
AcDbEntity
  8
0
  6
Continuous
 62
     7
370
    15
100
AcDbCircle
 10
666.4343490575
 20
1165.4682110142
 30
0.0
 40
0.5046286592434864
100
AcDbArc
 50
291.6124952509
 51
19.892468424
  0
ARC
  5
201
330
1F
100
AcDbEntity
  8
0
  6
Continuous
 62
     7
370
    15
100
AcDbCircle
 10
664.7926177171
 20
1167.2325612606
 30
0.0
 40
0.9684636876028997
100
AcDbArc
 50
18.695632083
 51
89.4268339716
  0
ARC
  5
202
330
1F
100
AcDbEntity
  8
0
  6
Continuous
 62
     7
370
    15
100
AcDbCircle
 10
639.9640296172
 20
1192.1176086029
 30
0.0
 40
0.5915938877356086
100
AcDbArc
 50
139.6078556982
 51
191.3702324072
  0
LINE
  5
203
330
1F
100
AcDbEntity
  8
0
  6
Continuous
 62
     7
370
    15
100
AcDbLine
 10
639.3840465087
 20
1192.0009770386
 30
0.0
 11
637.7419683474
 21
1192.0009770386
 31
0.0
  0
LINE
  5
204
330
1F
100
AcDbEntity
  8
0
  6
Continuous
 62
     7
370
    15
100
AcDbLine
 10
637.7419683474
 20
1191.6009702675
 30
0.0
 11
639.3840465087
 21
1191.6009702675
 31
0.0
  0
ARC
  5
205
330
1F
100
AcDbEntity
  8
0
  6
Continuous
 62
     7
370
    15
100
AcDbCircle
 10
639.9640296172
 20
1191.4843387032
 30
0.0
 40
0.5915938877338253
100
AcDbArc
 50
168.6297675927
 51
220.3921443019
  0
LINE
  5
206
330
1F
100
AcDbEntity
  8
0
  6
Continuous
 62
     7
370
    15
100
AcDbLine
 10
639.3840465087
 20
1191.6009702675
 30
0.0
 11
639.3840465087
 21
1192.0009770386
 31
0.0
  0
LINE
  5
207
330
1F
100
AcDbEntity
  8
0
  6
Continuous
 62
     7
370
    15
100
AcDbLine
 10
636.8872749943
 20
1249.5713972442
 30
0.0
 11
636.8494632977
 21
1249.5647215239
 31
0.0
  0
LINE
  5
208
330
1F
100
AcDbEntity
  8
0
  6
Continuous
 62
     7
370
    15
100
AcDbLine
 10
634.2138055104
 20
1253.9592527739
 30
0.0
 11
634.2805254596
 21
1253.9710246913
 31
0.0
  0
LINE
  5
209
330
1F
100
AcDbEntity
  8
0
  6
Continuous
 62
     7
370
    15
100
AcDbLine
 10
596.4563752848
 20
817.7009665362
 30
0.0
 11
596.4864234763
 21
817.7009665362
 31
0.0
  0
LINE
  5
20A
330
1F
100
AcDbEntity
  8
0
  6
Continuous
 62
     7
370
    15
100
AcDbLine
 10
592.3077169198
 20
817.7009665362
 30
0.0
 11
596.4563752848
 21
817.7009665362
 31
0.0
  0
LINE
  5
20B
330
1F
100
AcDbEntity
  8
0
  6
Continuous
 62
     7
370
    15
100
AcDbLine
 10
585.1477648455
 20
817.7009665362
 30
0.0
 11
592.3077169198
 21
817.7009665362
 31
0.0
  0
LINE
  5
20C
330
1F
100
AcDbEntity
  8
0
  6
Continuous
 62
     7
370
    15
100
AcDbLine
 10
582.10642667
 20
817.7009665362
 30
0.0
 11
585.1477648455
 21
817.7009665362
 31
0.0
  0
LINE
  5
20D
330
1F
100
AcDbEntity
  8
0
  6
Continuous
 62
     7
370
    15
100
AcDbLine
 10
592.3077169198
 20
817.7009665362
 30
0.0
 11
592.3077169198
 21
812.4009811274
 31
0.0
  0
LINE
  5
20E
330
1F
100
AcDbEntity
  8
0
  6
Continuous
 62
     7
370
    15
100
AcDbLine
 10
596.4563752848
 20
817.7009665362
 30
0.0
 11
596.4563752848
 21
812.4009811274
 31
0.0
  0
LINE
  5
20F
330
1F
100
AcDbEntity
  8
0
  6
Continuous
 62
     7
370
    15
100
AcDbLine
 10
592.3077169198
 20
812.4009811274
 30
0.0
 11
596.4563752848
 21
812.4009811274
 31
0.0
  0
LINE
  5
210
330
1F
100
AcDbEntity
  8
0
  6
Continuous
 62
     7
370
    15
100
AcDbLine
 10
585.1477648455
 20
817.7009665362
 30
0.0
 11
585.1477648455
 21
812.4009811274
 31
0.0
  0
LINE
  5
211
330
1F
100
AcDbEntity
  8
0
  6
Continuous
 62
     7
370
    15
100
AcDbLine
 10
585.1477648455
 20
812.4009811274
 30
0.0
 11
592.3077169198
 21
812.4009811274
 31
0.0
  0
LINE
  5
212
330
1F
100
AcDbEntity
  8
0
  6
Continuous
 62
     7
370
    15
100
AcDbLine
 10
582.1364748615
 20
817.7009665362
 30
0.0
 11
582.1364748615
 21
812.4009811274
 31
0.0
  0
LINE
  5
213
330
1F
100
AcDbEntity
  8
0
  6
Continuous
 62
     7
370
    15
100
AcDbLine
 10
582.1364748615
 20
812.4009811274
 30
0.0
 11
585.1477648455
 21
812.4009811274
 31
0.0
  0
LINE
  5
214
330
1F
100
AcDbEntity
  8
0
  6
Continuous
 62
     7
370
    15
100
AcDbLine
 10
585.2964262801
 20
947.700976669
 30
0.0
 11
593.2964238662
 21
947.700976669
 31
0.0
  0
LINE
  5
215
330
1F
100
AcDbEntity
  8
0
  6
Continuous
 62
     7
370
    15
100
AcDbLine
 10
479.6059917051
 20
817.7009665362
 30
0.0
 11
479.6059917051
 21
812.4009811274
 31
0.0
  0
LINE
  5
216
330
1F
100
AcDbEntity
  8
0
  6
Continuous
 62
     7
370
    15
100
AcDbLine
 10
479.6059917051
 20
812.4009811274
 30
0.0
 11
480.2369143206
 21
812.4009811274
 31
0.0
  0
LINE
  5
217
330
1F
100
AcDbEntity
  8
0
  6
Continuous
 62
     7
370
    15
100
AcDbLine
 10
492.6383125919
 20
817.7009665362
 30
0.0
 11
493.9559403199
 21
817.7009665362
 31
0.0
  0
LINE
  5
218
330
1F
100
AcDbEntity
  8
0
  6
Continuous
 62
     7
370
    15
100
AcDbLine
 10
486.1092831331
 20
817.7009665362
 30
0.0
 11
492.6383125919
 21
817.7009665362
 31
0.0
  0
LINE
  5
219
330
1F
100
AcDbEntity
  8
0
  6
Continuous
 62
     7
370
    15
100
AcDbLine
 10
480.2369143206
 20
817.7009665362
 30
0.0
 11
486.1092831331
 21
817.7009665362
 31
0.0
  0
LINE
  5
21A
330
1F
100
AcDbEntity
  8
0
  6
Continuous
 62
     7
370
    15
100
AcDbLine
 10
479.5759435135
 20
817.7009665362
 30
0.0
 11
480.2369143206
 21
817.7009665362
 31
0.0
  0
LINE
  5
21B
330
1F
100
AcDbEntity
  8
0
  6
Continuous
 62
     7
370
    15
100
AcDbLine
 10
486.1092831331
 20
817.7009665362
 30
0.0
 11
486.1092831331
 21
812.4009811274
 31
0.0
  0
LINE
  5
21C
330
1F
100
AcDbEntity
  8
0
  6
Continuous
 62
     7
370
    15
100
AcDbLine
 10
492.6383125919
 20
817.7009665362
 30
0.0
 11
492.6383125919
 21
812.4009811274
 31
0.0
  0
LINE
  5
21D
330
1F
100
AcDbEntity
  8
0
  6
Continuous
 62
     7
370
    15
100
AcDbLine
 10
486.1092831331
 20
812.4009811274
 30
0.0
 11
492.6383125919
 21
812.4009811274
 31
0.0
  0
LINE
  5
21E
330
1F
100
AcDbEntity
  8
0
  6
Continuous
 62
     7
370
    15
100
AcDbLine
 10
480.2369143206
 20
817.7009665362
 30
0.0
 11
480.2369143206
 21
812.4009811274
 31
0.0
  0
LINE
  5
21F
330
1F
100
AcDbEntity
  8
0
  6
Continuous
 62
     7
370
    15
100
AcDbLine
 10
480.2369143206
 20
812.4009811274
 30
0.0
 11
486.1092831331
 21
812.4009811274
 31
0.0
  0
LINE
  5
220
330
1F
100
AcDbEntity
  8
0
  6
Continuous
 62
     7
370
    15
100
AcDbLine
 10
482.7659431237
 20
947.700976669
 30
0.0
 11
490.7659407097
 21
947.700976669
 31
0.0
  0
LINE
  5
221
330
1F
100
AcDbEntity
  8
0
  6
Continuous
 62
     7
370
    15
100
AcDbLine
 10
493.2949695128
 20
817.7009665362
 30
0.0
 11
493.2949695128
 21
812.4009811274
 31
0.0
  0
LINE
  5
222
330
1F
100
AcDbEntity
  8
0
  6
Continuous
 62
     7
370
    15
100
AcDbLine
 10
492.6383125919
 20
812.4009811274
 30
0.0
 11
493.2949695128
 21
812.4009811274
 31
0.0
  0
LINE
  5
223
330
1F
100
AcDbEntity
  8
0
  6
Continuous
 62
     7
370
    15
100
AcDbLine
 10
605.5311861771
 20
818.7009834639
 30
0.0
 11
600.8974540371
 21
818.7009834639
 31
0.0
  0
LINE
  5
224
330
1F
100
AcDbEntity
  8
0
  6
Continuous
 62
     7
370
    15
100
AcDbLine
 10
572.623029663
 20
818.7009834639
 30
0.0
 11
572.623029663
 21
832.7009671323
 31
0.0
  0
LINE
  5
225
330
1F
100
AcDbEntity
  8
0
  6
Continuous
 62
     7
370
    15
100
AcDbLine
 10
572.623029663
 20
818.7009834639
 30
0.0
 11
503.4393373269
 21
818.7009834639
 31
0.0
  0
LINE
  5
226
330
1F
100
AcDbEntity
  8
0
  6
Continuous
 62
     7
370
    15
100
AcDbLine
 10
503.4393373269
 20
832.7009671323
 30
0.0
 11
503.4393373269
 21
818.7009834639
 31
0.0
  0
LINE
  5
227
330
1F
100
AcDbEntity
  8
0
  6
Continuous
 62
     7
370
    15
100
AcDbLine
 10
475.1649129528
 20
818.7009834639
 30
0.0
 11
470.5311808127
 21
818.7009834639
 31
0.0
  0
LINE
  5
228
330
1F
100
AcDbEntity
  8
0
  6
Continuous
 62
     7
370
    15
100
AcDbLine
 10
605.5311861771
 20
834.7009711854
 30
0.0
 11
593.2964238662
 21
834.7009711854
 31
0.0
  0
LINE
  5
229
330
1F
100
AcDbEntity
  8
0
  6
Continuous
 62
     7
370
    15
100
AcDbLine
 10
585.2964262801
 20
834.7009711854
 30
0.0
 11
490.7659407097
 21
834.7009711854
 31
0.0
  0
LINE
  5
22A
330
1F
100
AcDbEntity
  8
0
  6
Continuous
 62
     7
370
    15
100
AcDbLine
 10
482.7659431237
 20
834.7009711854
 30
0.0
 11
470.5311808127
 21
834.7009711854
 31
0.0
  0
LINE
  5
22B
330
1F
100
AcDbEntity
  8
0
  6
Continuous
 62
     7
370
    15
100
AcDbLine
 10
588.0599360305
 20
832.7009671323
 30
0.0
 11
588.0599360305
 21
818.7009834639
 31
0.0
  0
LINE
  5
22C
330
1F
100
AcDbEntity
  8
0
  6
Continuous
 62
     7
370
    15
100
AcDbLine
 10
585.971586718
 20
818.7009834639
 30
0.0
 11
585.971586718
 21
832.7009671323
 31
0.0
  0
LINE
  5
22D
330
1F
100
AcDbEntity
  8
0
  6
Continuous
 62
     7
370
    15
100
AcDbLine
 10
585.971586718
 20
832.7009671323
 30
0.0
 11
588.0599360305
 21
832.7009671323
 31
0.0
  0
LINE
  5
22E
330
1F
100
AcDbEntity
  8
0
  6
Continuous
 62
     7
370
    15
100
AcDbLine
 10
588.0599360305
 20
818.7009834639
 30
0.0
 11
585.971586718
 21
818.7009834639
 31
0.0
  0
LINE
  5
22F
330
1F
100
AcDbEntity
  8
0
  6
Continuous
 62
     7
370
    15
100
AcDbLine
 10
490.0907802719
 20
832.7009671323
 30
0.0
 11
490.0907802719
 21
818.7009834639
 31
0.0
  0
LINE
  5
230
330
1F
100
AcDbEntity
  8
0
  6
Continuous
 62
     7
370
    15
100
AcDbLine
 10
488.0024309593
 20
818.7009834639
 30
0.0
 11
488.0024309593
 21
832.7009671323
 31
0.0
  0
LINE
  5
231
330
1F
100
AcDbEntity
  8
0
  6
Continuous
 62
     7
370
    15
100
AcDbLine
 10
488.0024309593
 20
832.7009671323
 30
0.0
 11
490.0907802719
 21
832.7009671323
 31
0.0
  0
LINE
  5
232
330
1F
100
AcDbEntity
  8
0
  6
Continuous
 62
     7
370
    15
100
AcDbLine
 10
490.0907802719
 20
818.7009834639
 30
0.0
 11
488.0024309593
 21
818.7009834639
 31
0.0
  0
LINE
  5
233
330
1F
100
AcDbEntity
  8
0
  6
Continuous
 62
     7
370
    15
100
AcDbLine
 10
575.4168930787
 20
832.7009671323
 30
0.0
 11
575.4168930787
 21
818.7009834639
 31
0.0
  0
LINE
  5
234
330
1F
100
AcDbEntity
  8
0
  6
Continuous
 62
     7
370
    15
100
AcDbLine
 10
585.971586718
 20
832.7009671323
 30
0.0
 11
575.4168930787
 21
832.7009671323
 31
0.0
  0
LINE
  5
235
330
1F
100
AcDbEntity
  8
0
  6
Continuous
 62
     7
370
    15
100
AcDbLine
 10
585.971586718
 20
818.7009834639
 30
0.0
 11
575.4168930787
 21
818.7009834639
 31
0.0
  0
LINE
  5
236
330
1F
100
AcDbEntity
  8
0
  6
Continuous
 62
     7
370
    15
100
AcDbLine
 10
500.6454739112
 20
818.7009834639
 30
0.0
 11
500.6454739112
 21
832.7009671323
 31
0.0
  0
LINE
  5
237
330
1F
100
AcDbEntity
  8
0
  6
Continuous
 62
     7
370
    15
100
AcDbLine
 10
500.6454739112
 20
832.7009671323
 30
0.0
 11
490.0907802719
 21
832.7009671323
 31
0.0
  0
LINE
  5
238
330
1F
100
AcDbEntity
  8
0
  6
Continuous
 62
     7
370
    15
100
AcDbLine
 10
500.6454739112
 20
818.7009834639
 30
0.0
 11
490.0907802719
 21
818.7009834639
 31
0.0
  0
LINE
  5
239
330
1F
100
AcDbEntity
  8
0
  6
Continuous
 62
     7
370
    15
100
AcDbLine
 10
600.4581305522
 20
818.7009834639
 30
0.0
 11
600.4581305522
 21
832.7009671323
 31
0.0
  0
LINE
  5
23A
330
1F
100
AcDbEntity
  8
0
  6
Continuous
 62
     7
370
    15
100
AcDbLine
 10
600.4581305522
 20
832.7009671323
 30
0.0
 11
588.0599360305
 21
832.7009671323
 31
0.0
  0
LINE
  5
23B
330
1F
100
AcDbEntity
  8
0
  6
Continuous
 62
     7
370
    15
100
AcDbLine
 10
600.4581305522
 20
818.7009834639
 30
0.0
 11
588.0599360305
 21
818.7009834639
 31
0.0
  0
LINE
  5
23C
330
1F
100
AcDbEntity
  8
0
  6
Continuous
 62
     7
370
    15
100
AcDbLine
 10
475.6042364377
 20
832.7009671323
 30
0.0
 11
475.6042364377
 21
818.7009834639
 31
0.0
  0
LINE
  5
23D
330
1F
100
AcDbEntity
  8
0
  6
Continuous
 62
     7
370
    15
100
AcDbLine
 10
488.0024309593
 20
832.7009671323
 30
0.0
 11
475.6042364377
 21
832.7009671323
 31
0.0
  0
LINE
  5
23E
330
1F
100
AcDbEntity
  8
0
  6
Continuous
 62
     7
370
    15
100
AcDbLine
 10
488.0024309593
 20
818.7009834639
 30
0.0
 11
475.6042364377
 21
818.7009834639
 31
0.0
  0
LINE
  5
23F
330
1F
100
AcDbEntity
  8
0
  6
Continuous
 62
     7
370
    15
100
AcDbLine
 10
572.623029663
 20
832.7009671323
 30
0.0
 11
575.4168930787
 21
832.7009671323
 31
0.0
  0
LINE
  5
240
330
1F
100
AcDbEntity
  8
0
  6
Continuous
 62
     7
370
    15
100
AcDbLine
 10
575.4168930787
 20
818.7009834639
 30
0.0
 11
572.623029663
 21
818.7009834639
 31
0.0
  0
LINE
  5
241
330
1F
100
AcDbEntity
  8
0
  6
Continuous
 62
     7
370
    15
100
AcDbLine
 10
500.6454739112
 20
832.7009671323
 30
0.0
 11
503.4393373269
 21
832.7009671323
 31
0.0
  0
LINE
  5
242
330
1F
100
AcDbEntity
  8
0
  6
Continuous
 62
     7
370
    15
100
AcDbLine
 10
503.4393373269
 20
818.7009834639
 30
0.0
 11
500.6454739112
 21
818.7009834639
 31
0.0
  0
LINE
  5
243
330
1F
100
AcDbEntity
  8
0
  6
Continuous
 62
     7
370
    15
100
AcDbLine
 10
545.031183711
 20
803.200974404
 30
0.0
 11
545.031183711
 21
818.7009834639
 31
0.0
  0
SPLINE
  5
244
330
1F
100
AcDbEntity
  8
0
  6
Continuous
 62
     7
370
    15
100
AcDbSpline
210
0.0
220
0.0
230
1.0
 70
    24
 71
     3
 72
    15
 73
    11
 74
     0
 42
0.00000001
 43
0.00000001
 12
1.0
 22
0.0
 32
0.0
 13
1.0
 23
0.0
 33
0.0
 40
0.0
 40
0.0
 40
0.0
 40
0.0
 40
0.1249999053834623
 40
0.2500000296035733
 40
0.3749999942636322
 40
0.5000000000000323
 40
0.6250000057363677
 40
0.7499999703964266
 40
0.8750000946165377
 40
1.0
 40
1.0
 40
1.0
 40
1.0
 10
545.0311837109929
 20
803.2009744040361
 30
0.0
 10
544.9259621686138
 20
803.2009744040361
 30
0.0
 10
544.7155188996447
 20
803.2009744040361
 30
0.0
 10
543.0967778649052
 20
803.2009744040361
 30
0.0
 10
540.7829607772358
 20
803.2009744040361
 30
0.0
 10
538.0311834949258
 20
803.2009744040361
 30
0.0
 10
535.279406212616
 20
803.2009744040361
 30
0.0
 10
532.965589124947
 20
803.2009744040361
 30
0.0
 10
531.3468480902076
 20
803.2009744040361
 30
0.0
 10
531.1364048212384
 20
803.2009744040361
 30
0.0
 10
531.0311832788592
 20
803.2009744040361
 30
0.0
  0
LINE
  5
245
330
1F
100
AcDbEntity
  8
0
  6
Continuous
 62
     7
370
    15
100
AcDbLine
 10
531.0311832789
 20
818.7009834639
 30
0.0
 11
531.0311832789
 21
803.200974404
 31
0.0
  0
LINE
  5
246
330
1F
100
AcDbEntity
  8
0
  6
Continuous
 62
     7
370
    15
100
AcDbLine
 10
600.4581305522
 20
832.7009671323
 30
0.0
 11
600.8974540371
 21
832.7009671323
 31
0.0
  0
LINE
  5
247
330
1F
100
AcDbEntity
  8
0
  6
Continuous
 62
     7
370
    15
100
AcDbLine
 10
600.8974540371
 20
818.7009834639
 30
0.0
 11
600.4581305522
 21
818.7009834639
 31
0.0
  0
LINE
  5
248
330
1F
100
AcDbEntity
  8
0
  6
Continuous
 62
     7
370
    15
100
AcDbLine
 10
475.1649129528
 20
832.7009671323
 30
0.0
 11
475.6042364377
 21
832.7009671323
 31
0.0
  0
LINE
  5
249
330
1F
100
AcDbEntity
  8
0
  6
Continuous
 62
     7
370
    15
100
AcDbLine
 10
475.6042364377
 20
818.7009834639
 30
0.0
 11
475.1649129528
 21
818.7009834639
 31
0.0
  0
LINE
  5
24A
330
1F
100
AcDbEntity
  8
0
  6
Continuous
 62
     7
370
    15
100
AcDbLine
 10
548.3645166594
 20
803.200974404
 30
0.0
 11
545.031183711
 21
803.200974404
 31
0.0
  0
LINE
  5
24B
330
1F
100
AcDbEntity
  8
0
  6
Continuous
 62
     7
370
    15
100
AcDbLine
 10
531.0311832789
 20
803.200974404
 30
0.0
 11
527.6978503305
 21
803.200974404
 31
0.0
  0
LINE
  5
24C
330
1F
100
AcDbEntity
  8
0
  6
Continuous
 62
     7
370
    15
100
AcDbLine
 10
569.0311829883
 20
803.200974404
 30
0.0
 11
548.3645166594
 21
803.200974404
 31
0.0
  0
LINE
  5
24D
330
1F
100
AcDbEntity
  8
0
  6
Continuous
 62
     7
370
    15
100
AcDbLine
 10
527.6978503305
 20
803.200974404
 30
0.0
 11
507.0311840016
 21
803.200974404
 31
0.0
  0
LINE
  5
24E
330
1F
100
AcDbEntity
  8
0
  6
Continuous
 62
     7
370
    15
100
AcDbLine
 10
570.9250609714
 20
803.200974404
 30
0.0
 11
569.0311829883
 21
803.200974404
 31
0.0
  0
LINE
  5
24F
330
1F
100
AcDbEntity
  8
0
  6
Continuous
 62
     7
370
    15
100
AcDbLine
 10
507.0311840016
 20
803.200974404
 30
0.0
 11
505.1373060185
 21
803.200974404
 31
0.0
  0
LINE
  5
250
330
1F
100
AcDbEntity
  8
0
  6
Continuous
 62
     7
370
    15
100
AcDbLine
 10
575.3061737257
 20
803.200974404
 30
0.0
 11
570.9250609714
 21
803.200974404
 31
0.0
  0
LINE
  5
251
330
1F
100
AcDbEntity
  8
0
  6
Continuous
 62
     7
370
    15
100
AcDbLine
 10
505.1373060185
 20
803.200974404
 30
0.0
 11
500.7561932641
 21
803.200974404
 31
0.0
  0
SPLINE
  5
252
330
1F
100
AcDbEntity
  8
0
  6
Continuous
 62
     7
370
    15
100
AcDbSpline
210
0.0
220
0.0
230
1.0
 70
    24
 71
     3
 72
    10
 73
     6
 74
     0
 42
0.00000001
 43
0.00000001
 12
1.0
 22
0.0
 32
0.0
 13
1.0
 23
0.0
 33
0.0
 40
0.0
 40
0.0
 40
0.0
 40
0.0
 40
0.374404774548767
 40
0.7488096892493942
 40
1.0
 40
1.0
 40
1.0
 40
1.0
 10
500.7561932641274
 20
803.2009744040361
 30
0.0
 10
500.0232943716619
 20
803.2009744040363
 30
0.0
 10
498.557496312383
 20
803.2009744040361
 30
0.0
 10
497.3757491688454
 20
803.2009744040363
 30
0.0
 10
497.3751193540603
 20
803.2009744040361
 30
0.0
 10
497.374866469503
 20
803.2009744040361
 30
0.0
  0
SPLINE
  5
253
330
1F
100
AcDbEntity
  8
0
  6
Continuous
 62
     7
370
    15
100
AcDbSpline
210
0.0
220
0.0
230
1.0
 70
    24
 71
     3
 72
    10
 73
     6
 74
     0
 42
0.00000001
 43
0.00000001
 12
1.0
 22
0.0
 32
0.0
 13
1.0
 23
0.0
 33
0.0
 40
0.0
 40
0.0
 40
0.0
 40
0.0
 40
0.2511903107506059
 40
0.6255952254512331
 40
1.0
 40
1.0
 40
1.0
 40
1.0
 10
578.6875005203491
 20
803.2009744040361
 30
0.0
 10
578.6872476357919
 20
803.2009744040361
 30
0.0
 10
578.6866178210067
 20
803.2009744040361
 30
0.0
 10
577.5048706774692
 20
803.2009744040361
 30
0.0
 10
576.0390726181903
 20
803.2009744040361
 30
0.0
 10
575.3061737257248
 20
803.2009744040361
 30
0.0
  0
LINE
  5
254
330
1F
100
AcDbEntity
  8
0
  6
Continuous
 62
     7
370
    15
100
AcDbLine
 10
470.5311808127
 20
858.2009666554
 30
0.0
 11
482.7659431237
 21
858.2009666554
 31
0.0
  0
LINE
  5
255
330
1F
100
AcDbEntity
  8
0
  6
Continuous
 62
     7
370
    15
100
AcDbLine
 10
490.7659407097
 20
858.2009666554
 30
0.0
 11
585.2964262801
 21
858.2009666554
 31
0.0
  0
LINE
  5
256
330
1F
100
AcDbEntity
  8
0
  6
Continuous
 62
     7
370
    15
100
AcDbLine
 10
593.2964238662
 20
858.2009666554
 30
0.0
 11
605.5311861771
 21
858.2009666554
 31
0.0
  0
LINE
  5
257
330
1F
100
AcDbEntity
  8
0
  6
Continuous
 62
     7
370
    15
100
AcDbLine
 10
605.5311861771
 20
905.2009724967
 30
0.0
 11
593.2964238662
 21
905.2009724967
 31
0.0
  0
LINE
  5
258
330
1F
100
AcDbEntity
  8
0
  6
Continuous
 62
     7
370
    15
100
AcDbLine
 10
585.2964262801
 20
905.2009724967
 30
0.0
 11
490.7659407097
 21
905.2009724967
 31
0.0
  0
LINE
  5
259
330
1F
100
AcDbEntity
  8
0
  6
Continuous
 62
     7
370
    15
100
AcDbLine
 10
482.7659431237
 20
905.2009724967
 30
0.0
 11
470.5311808127
 21
905.2009724967
 31
0.0
  0
LINE
  5
25A
330
1F
100
AcDbEntity
  8
0
  6
Continuous
 62
     7
370
    15
100
AcDbLine
 10
470.5311808127
 20
928.7009679667
 30
0.0
 11
482.7659431237
 21
928.7009679667
 31
0.0
  0
LINE
  5
25B
330
1F
100
AcDbEntity
  8
0
  6
Continuous
 62
     7
370
    15
100
AcDbLine
 10
490.7659407097
 20
928.7009679667
 30
0.0
 11
585.2964262801
 21
928.7009679667
 31
0.0
  0
LINE
  5
25C
330
1F
100
AcDbEntity
  8
0
  6
Continuous
 62
     7
370
    15
100
AcDbLine
 10
593.2964238662
 20
928.7009679667
 30
0.0
 11
605.5311861771
 21
928.7009679667
 31
0.0
  0
LINE
  5
25D
330
1F
100
AcDbEntity
  8
0
  6
Continuous
 62
     7
370
    15
100
AcDbLine
 10
605.5311861771
 20
881.7009770266
 30
0.0
 11
593.2964238662
 21
881.7009770266
 31
0.0
  0
LINE
  5
25E
330
1F
100
AcDbEntity
  8
0
  6
Continuous
 62
     7
370
    15
100
AcDbLine
 10
585.2964262801
 20
881.7009770266
 30
0.0
 11
490.7659407097
 21
881.7009770266
 31
0.0
  0
LINE
  5
25F
330
1F
100
AcDbEntity
  8
0
  6
Continuous
 62
     7
370
    15
100
AcDbLine
 10
482.7659431237
 20
881.7009770266
 30
0.0
 11
470.5311808127
 21
881.7009770266
 31
0.0
  0
CIRCLE
  5
260
330
1F
100
AcDbEntity
  8
0
  6
Continuous
 62
     7
370
    15
100
AcDbCircle
 10
538.0311834949
 20
1051.7009739272
 30
0.0
 40
10.49999999999977
  0
ARC
  5
261
330
1F
100
AcDbEntity
  8
0
  6
Continuous
 62
     7
370
    15
100
AcDbCircle
 10
523.0311834949
 20
1039.7009739272
 30
0.0
 40
10.0
100
AcDbArc
 50
180.0
 51
270.0
  0
LINE
  5
262
330
1F
100
AcDbEntity
  8
0
  6
Continuous
 62
     7
370
    15
100
AcDbLine
 10
513.0311831224
 20
1039.7009731225
 30
0.0
 11
513.0311831224
 21
1068.7009741507
 31
0.0
  0
ARC
  5
263
330
1F
100
AcDbEntity
  8
0
  6
Continuous
 62
     7
370
    15
100
AcDbCircle
 10
523.0311834949
 20
1068.7009739272
 30
0.0
 40
10.0
100
AcDbArc
 50
90.0
 51
180.0
  0
LINE
  5
264
330
1F
100
AcDbEntity
  8
0
  6
Continuous
 62
     7
370
    15
100
AcDbLine
 10
553.0311831596
 20
1078.7009739272
 30
0.0
 11
523.0311838302
 21
1078.7009739272
 31
0.0
  0
ARC
  5
265
330
1F
100
AcDbEntity
  8
0
  6
Continuous
 62
     7
370
    15
100
AcDbCircle
 10
553.0311834949
 20
1068.7009739272
 30
0.0
 40
10.0
100
AcDbArc
 50
0.0
 51
90.0
  0
LINE
  5
266
330
1F
100
AcDbEntity
  8
0
  6
Continuous
 62
     7
370
    15
100
AcDbLine
 10
563.0311838675
 20
1039.7009731225
 30
0.0
 11
563.0311838675
 21
1068.7009741507
 31
0.0
  0
ARC
  5
267
330
1F
100
AcDbEntity
  8
0
  6
Continuous
 62
     7
370
    15
100
AcDbCircle
 10
553.0311834949
 20
1039.7009739272
 30
0.0
 40
10.0
100
AcDbArc
 50
270.0
 51
0.0
  0
LINE
  5
268
330
1F
100
AcDbEntity
  8
0
  6
Continuous
 62
     7
370
    15
100
AcDbLine
 10
553.0311831596
 20
1029.7009752087
 30
0.0
 11
523.0311838302
 21
1029.7009752087
 31
0.0
  0
LINE
  5
269
330
1F
100
AcDbEntity
  8
0
  6
Continuous
 62
     7
370
    15
100
AcDbLine
 10
440.0311860579
 20
1038.7009748213
 30
0.0
 11
473.2064160842
 21
1038.7009748213
 31
0.0
  0
LINE
  5
26A
330
1F
100
AcDbEntity
  8
0
  6
Continuous
 62
     7
370
    15
100
AcDbLine
 10
473.2064160842
 20
1038.7009748213
 30
0.0
 11
473.2064160842
 21
1026.7009728543
 31
0.0
  0
LINE
  5
26B
330
1F
100
AcDbEntity
  8
0
  6
Continuous
 62
     7
370
    15
100
AcDbLine
 10
440.0311860579
 20
1026.7009728543
 30
0.0
 11
473.2064160842
 21
1026.7009728543
 31
0.0
  0
LINE
  5
26C
330
1F
100
AcDbEntity
  8
0
  6
Continuous
 62
     7
370
    15
100
AcDbLine
 10
440.0311860579
 20
1038.7009748213
 30
0.0
 11
440.0311860579
 21
1026.7009728543
 31
0.0
  0
LINE
  5
26D
330
1F
100
AcDbEntity
  8
0
  6
Continuous
 62
     7
370
    15
100
AcDbLine
 10
602.8559509057
 20
1038.7009748213
 30
0.0
 11
602.8559509057
 21
1026.7009728543
 31
0.0
  0
LINE
  5
26E
330
1F
100
AcDbEntity
  8
0
  6
Continuous
 62
     7
370
    15
100
AcDbLine
 10
473.2064160842
 20
1026.7009728543
 30
0.0
 11
602.8559509057
 21
1026.7009728543
 31
0.0
  0
LINE
  5
26F
330
1F
100
AcDbEntity
  8
0
  6
Continuous
 62
     7
370
    15
100
AcDbLine
 10
602.8559509057
 20
1038.7009748213
 30
0.0
 11
562.9810582238
 21
1038.7009748213
 31
0.0
  0
LINE
  5
270
330
1F
100
AcDbEntity
  8
0
  6
Continuous
 62
     7
370
    15
100
AcDbLine
 10
513.081308766
 20
1038.7009748213
 30
0.0
 11
473.2064160842
 21
1038.7009748213
 31
0.0
  0
LINE
  5
271
330
1F
100
AcDbEntity
  8
0
  6
Continuous
 62
     7
370
    15
100
AcDbLine
 10
636.0311809319
 20
1038.7009748213
 30
0.0
 11
636.0311809319
 21
1026.7009728543
 31
0.0
  0
LINE
  5
272
330
1F
100
AcDbEntity
  8
0
  6
Continuous
 62
     7
370
    15
100
AcDbLine
 10
602.8559509057
 20
1026.7009728543
 30
0.0
 11
636.0311809319
 21
1026.7009728543
 31
0.0
  0
LINE
  5
273
330
1F
100
AcDbEntity
  8
0
  6
Continuous
 62
     7
370
    15
100
AcDbLine
 10
602.8559509057
 20
1038.7009748213
 30
0.0
 11
636.0311809319
 21
1038.7009748213
 31
0.0
  0
LINE
  5
274
330
1F
100
AcDbEntity
  8
0
  6
Continuous
 62
     7
370
    15
100
AcDbLine
 10
453.0311826009
 20
1023.7009742252
 30
0.0
 11
623.031184389
 21
1023.7009742252
 31
0.0
  0
LINE
  5
275
330
1F
100
AcDbEntity
  8
0
  6
Continuous
 62
     7
370
    15
100
AcDbLine
 10
465.2850482005
 20
1070.7009735472
 30
0.0
 11
454.0311846274
 21
1070.7009735472
 31
0.0
  0
LINE
  5
276
330
1F
100
AcDbEntity
  8
0
  6
Continuous
 62
     7
370
    15
100
AcDbLine
 10
622.0311823624
 20
1070.7009735472
 30
0.0
 11
610.7773187894
 21
1070.7009735472
 31
0.0
  0
LINE
  5
277
330
1F
100
AcDbEntity
  8
0
  6
Continuous
 62
     7
370
    15
100
AcDbLine
 10
610.7773187894
 20
1070.7009735472
 30
0.0
 11
562.8291427481
 21
1070.7009735472
 31
0.0
  0
LINE
  5
278
330
1F
100
AcDbEntity
  8
0
  6
Continuous
 62
     7
370
    15
100
AcDbLine
 10
513.2332242417
 20
1070.7009735472
 30
0.0
 11
490.3896603125
 21
1070.7009735472
 31
0.0
  0
LINE
  5
279
330
1F
100
AcDbEntity
  8
0
  6
Continuous
 62
     7
370
    15
100
AcDbLine
 10
474.3896576899
 20
1070.7009735472
 30
0.0
 11
465.2850482005
 21
1070.7009735472
 31
0.0
  0
LINE
  5
27A
330
1F
100
AcDbEntity
  8
0
  6
Continuous
 62
     7
370
    15
100
AcDbLine
 10
454.0311846274
 20
1076.7009738322
 30
0.0
 11
517.031183778
 21
1076.7009738322
 31
0.0
  0
LINE
  5
27B
330
1F
100
AcDbEntity
  8
0
  6
Continuous
 62
     7
370
    15
100
AcDbLine
 10
559.0311832118
 20
1076.7009738322
 30
0.0
 11
622.0311823624
 21
1076.7009738322
 31
0.0
  0
LINE
  5
27C
330
1F
100
AcDbEntity
  8
0
  6
Continuous
 62
     7
370
    15
100
AcDbLine
 10
599.4900170106
 20
1038.7009748213
 30
0.0
 11
599.4900170106
 21
1070.7009735472
 31
0.0
  0
LINE
  5
27D
330
1F
100
AcDbEntity
  8
0
  6
Continuous
 62
     7
370
    15
100
AcDbLine
 10
476.5723499793
 20
1046.9597534232
 30
0.0
 11
476.5723499793
 21
1064.4421924792
 31
0.0
  0
LINE
  5
27E
330
1F
100
AcDbEntity
  8
0
  6
Continuous
 62
     7
370
    15
100
AcDbLine
 10
556.8359460074
 20
960.7009732119
 30
0.0
 11
605.5311861771
 21
960.7009732119
 31
0.0
  0
LINE
  5
27F
330
1F
100
AcDbEntity
  8
0
  6
Continuous
 62
     7
370
    15
100
AcDbLine
 10
470.5311808127
 20
960.7009732119
 30
0.0
 11
519.2264209825
 21
960.7009732119
 31
0.0
  0
LINE
  5
280
330
1F
100
AcDbEntity
  8
0
  6
Continuous
 62
     7
370
    15
100
AcDbLine
 10
507.1078914541
 20
944.7009705893
 30
0.0
 11
507.1078914541
 21
930.7009720199
 31
0.0
  0
LINE
  5
281
330
1F
100
AcDbEntity
  8
0
  6
Continuous
 62
     7
370
    15
100
AcDbLine
 10
568.9544755358
 20
944.7009705893
 30
0.0
 11
568.9544755358
 21
930.7009720199
 31
0.0
  0
LINE
  5
282
330
1F
100
AcDbEntity
  8
0
  6
Continuous
 62
     7
370
    15
100
AcDbLine
 10
516.0311836141
 20
960.7009732119
 30
0.0
 11
516.0311836141
 21
1023.7009742252
 31
0.0
  0
LINE
  5
283
330
1F
100
AcDbEntity
  8
0
  6
Continuous
 62
     7
370
    15
100
AcDbLine
 10
526.0311833906
 20
1023.7009742252
 30
0.0
 11
526.0311833906
 21
960.7009732119
 31
0.0
  0
LINE
  5
284
330
1F
100
AcDbEntity
  8
0
  6
Continuous
 62
     7
370
    15
100
AcDbLine
 10
526.0311833906
 20
960.7009732119
 30
0.0
 11
519.2264209825
 21
960.7009732119
 31
0.0
  0
LINE
  5
285
330
1F
100
AcDbEntity
  8
0
  6
Continuous
 62
     7
370
    15
100
AcDbLine
 10
538.0311834949
 20
960.7009732119
 30
0.0
 11
550.0311835992
 21
960.7009732119
 31
0.0
  0
LINE
  5
286
330
1F
100
AcDbEntity
  8
0
  6
Continuous
 62
     7
370
    15
100
AcDbLine
 10
526.0311833906
 20
960.7009732119
 30
0.0
 11
538.0311834949
 21
960.7009732119
 31
0.0
  0
LINE
  5
287
330
1F
100
AcDbEntity
  8
0
  6
Continuous
 62
     7
370
    15
100
AcDbLine
 10
550.0311835992
 20
960.7009732119
 30
0.0
 11
550.0311835992
 21
1023.7009742252
 31
0.0
  0
LINE
  5
288
330
1F
100
AcDbEntity
  8
0
  6
Continuous
 62
     7
370
    15
100
AcDbLine
 10
556.8359460074
 20
960.7009732119
 30
0.0
 11
550.0311835992
 21
960.7009732119
 31
0.0
  0
LINE
  5
289
330
1F
100
AcDbEntity
  8
0
  6
Continuous
 62
     7
370
    15
100
AcDbLine
 10
560.0311833757
 20
1023.7009742252
 30
0.0
 11
560.0311833757
 21
960.7009732119
 31
0.0
  0
LINE
  5
28A
330
1F
100
AcDbEntity
  8
0
  6
Continuous
 62
     7
370
    15
100
AcDbLine
 10
474.8352545637
 20
944.7009705893
 30
0.0
 11
474.8352545637
 21
930.7009720199
 31
0.0
  0
LINE
  5
28B
330
1F
100
AcDbEntity
  8
0
  6
Continuous
 62
     7
370
    15
100
AcDbLine
 10
485.1161579925
 20
944.7009705893
 30
0.0
 11
485.1161579925
 21
930.7009720199
 31
0.0
  0
LINE
  5
28C
330
1F
100
AcDbEntity
  8
0
  6
Continuous
 62
     7
370
    15
100
AcDbLine
 10
485.1161579925
 20
930.7009720199
 30
0.0
 11
474.8352545637
 21
930.7009720199
 31
0.0
  0
LINE
  5
28D
330
1F
100
AcDbEntity
  8
0
  6
Continuous
 62
     7
370
    15
100
AcDbLine
 10
485.1161579925
 20
944.7009705893
 30
0.0
 11
474.8352545637
 21
944.7009705893
 31
0.0
  0
LINE
  5
28E
330
1F
100
AcDbEntity
  8
0
  6
Continuous
 62
     7
370
    15
100
AcDbLine
 10
507.1078914541
 20
930.7009720199
 30
0.0
 11
485.1161579925
 21
930.7009720199
 31
0.0
  0
LINE
  5
28F
330
1F
100
AcDbEntity
  8
0
  6
Continuous
 62
     7
370
    15
100
AcDbLine
 10
507.1078914541
 20
944.7009705893
 30
0.0
 11
485.1161579925
 21
944.7009705893
 31
0.0
  0
LINE
  5
290
330
1F
100
AcDbEntity
  8
0
  6
Continuous
 62
     7
370
    15
100
AcDbLine
 10
568.9544755358
 20
944.7009705893
 30
0.0
 11
590.9462089974
 21
944.7009705893
 31
0.0
  0
LINE
  5
291
330
1F
100
AcDbEntity
  8
0
  6
Continuous
 62
     7
370
    15
100
AcDbLine
 10
590.9462089974
 20
944.7009705893
 30
0.0
 11
590.9462089974
 21
930.7009720199
 31
0.0
  0
LINE
  5
292
330
1F
100
AcDbEntity
  8
0
  6
Continuous
 62
     7
370
    15
100
AcDbLine
 10
568.9544755358
 20
930.7009720199
 30
0.0
 11
590.9462089974
 21
930.7009720199
 31
0.0
  0
LINE
  5
293
330
1F
100
AcDbEntity
  8
0
  6
Continuous
 62
     7
370
    15
100
AcDbLine
 10
601.2271124262
 20
944.7009705893
 30
0.0
 11
601.2271124262
 21
930.7009720199
 31
0.0
  0
LINE
  5
294
330
1F
100
AcDbEntity
  8
0
  6
Continuous
 62
     7
370
    15
100
AcDbLine
 10
590.9462089974
 20
930.7009720199
 30
0.0
 11
601.2271124262
 21
930.7009720199
 31
0.0
  0
LINE
  5
295
330
1F
100
AcDbEntity
  8
0
  6
Continuous
 62
     7
370
    15
100
AcDbLine
 10
590.9462089974
 20
944.7009705893
 30
0.0
 11
601.2271124262
 21
944.7009705893
 31
0.0
  0
LINE
  5
296
330
1F
100
AcDbEntity
  8
0
  6
Continuous
 62
     7
370
    15
100
AcDbLine
 10
495.5311830479
 20
1023.7009742252
 30
0.0
 11
495.5311830479
 21
960.7009732119
 31
0.0
  0
LINE
  5
297
330
1F
100
AcDbEntity
  8
0
  6
Continuous
 62
     7
370
    15
100
AcDbLine
 10
580.531183942
 20
1023.7009742252
 30
0.0
 11
580.531183942
 21
960.7009732119
 31
0.0
  0
LINE
  5
298
330
1F
100
AcDbEntity
  8
0
  6
Continuous
 62
     7
370
    15
100
AcDbLine
 10
607.3840338129
 20
1311.6037988059
 30
0.0
 11
468.678333177
 21
1311.6037988059
 31
0.0
  0
LINE
  5
299
330
1F
100
AcDbEntity
  8
0
  6
Continuous
 62
     7
370
    15
100
AcDbLine
 10
553.65049032
 20
1299.5626770846
 30
0.0
 11
624.5805549759
 21
1299.5626770846
 31
0.0
  0
LINE
  5
29A
330
1F
100
AcDbEntity
  8
0
  6
Continuous
 62
     7
370
    15
100
AcDbLine
 10
451.481812014
 20
1299.5626770846
 30
0.0
 11
522.4118766698
 21
1299.5626770846
 31
0.0
  0
LINE
  5
29B
330
1F
100
AcDbEntity
  8
0
  6
Continuous
 62
     7
370
    15
100
AcDbLine
 10
507.4547960746
 20
1297.2009771458
 30
0.0
 11
447.0311853427
 21
1297.2009771458
 31
0.0
  0
LINE
  5
29C
330
1F
100
AcDbEntity
  8
0
  6
Continuous
 62
     7
370
    15
100
AcDbLine
 10
629.0311816472
 20
1297.2009771458
 30
0.0
 11
567.7801336485
 21
1297.2009771458
 31
0.0
  0
LINE
  5
29D
330
1F
100
AcDbEntity
  8
0
  6
Continuous
 62
     7
370
    15
100
AcDbLine
 10
621.0750940579
 20
1284.7009741656
 30
0.0
 11
621.0750940579
 21
1282.6242291324
 31
0.0
  0
LINE
  5
29E
330
1F
100
AcDbEntity
  8
0
  6
Continuous
 62
     7
370
    15
100
AcDbLine
 10
454.9872729319
 20
1282.6242291324
 30
0.0
 11
454.9872729319
 21
1284.7009741656
 31
0.0
  0
SPLINE
  5
29F
330
1F
100
AcDbEntity
  8
0
  6
Continuous
 62
     7
370
    15
100
AcDbSpline
210
0.0
220
0.0
230
1.0
 70
     8
 71
     3
 72
     9
 73
     5
 74
     0
 42
0.00000001
 43
0.00000001
 12
1.0
 22
0.0
 32
0.0
 13
1.0
 23
0.0
 33
0.0
 40
0.0
 40
0.0
 40
0.0
 40
0.0
 40
0.7957391898983671
 40
1.0
 40
1.0
 40
1.0
 40
1.0
 10
562.3028598117835
 20
1299.231096445739
 30
0.0
 10
560.0100354327301
 20
1299.280921996936
 30
0.0
 10
557.1286587101055
 20
1299.343537426502
 30
0.0
 10
554.2404401772908
 20
1299.525507690986
 30
0.0
 10
553.6504903200274
 20
1299.562677084624
 30
0.0
  0
SPLINE
  5
2A0
330
1F
100
AcDbEntity
  8
0
  6
Continuous
 62
     7
370
    15
100
AcDbSpline
210
0.0
220
0.0
230
1.0
 70
     8
 71
     3
 72
     9
 73
     5
 74
     0
 42
0.00000001
 43
0.00000001
 12
1.0
 22
0.0
 32
0.0
 13
1.0
 23
0.0
 33
0.0
 40
0.0
 40
0.0
 40
0.0
 40
0.0
 40
0.1161660645755869
 40
0.9999999999999999
 40
0.9999999999999999
 40
0.9999999999999999
 40
0.9999999999999999
 10
513.5478641229873
 20
1299.207418500601
 30
0.0
 10
513.8903597486192
 20
1299.209822895412
 30
0.0
 10
516.8386874455509
 20
1299.230520805932
 30
0.0
 10
519.7971165934038
 20
1299.406840104808
 30
0.0
 10
522.4118766698247
 20
1299.562677084624
 30
0.0
  0
LINE
  5
2A1
330
1F
100
AcDbEntity
  8
0
  6
Continuous
 62
     7
370
    15
100
AcDbLine
 10
469.5311862367
 20
1313.2421069733
 30
0.0
 11
606.5311807531
 21
1313.2421069733
 31
0.0
  0
LINE
  5
2A2
330
1F
100
AcDbEntity
  8
0
  6
Continuous
 62
     7
370
    15
100
AcDbLine
 10
606.5311807531
 20
1315.2009689204
 30
0.0
 11
469.5311862367
 21
1315.2009689204
 31
0.0
  0
LINE
  5
2A3
330
1F
100
AcDbEntity
  8
0
  6
Continuous
 62
     7
370
    15
100
AcDbLine
 10
621.4702430505
 20
1248.2009672515
 30
0.0
 11
621.4702430505
 21
1272.2002410285
 31
0.0
  0
LINE
  5
2A4
330
1F
100
AcDbEntity
  8
0
  6
Continuous
 62
     7
370
    15
100
AcDbLine
 10
621.4702430505
 20
1277.5268697135
 30
0.0
 11
621.4702430505
 21
1281.1367207162
 31
0.0
  0
LINE
  5
2A5
330
1F
100
AcDbEntity
  8
0
  6
Continuous
 62
     7
370
    15
100
AcDbLine
 10
454.5921239394
 20
1281.1367207162
 30
0.0
 11
454.5921239394
 21
1277.2017114751
 31
0.0
  0
LINE
  5
2A6
330
1F
100
AcDbEntity
  8
0
  6
Continuous
 62
     7
370
    15
100
AcDbLine
 10
454.5921239394
 20
1271.8750678889
 30
0.0
 11
454.5921239394
 21
1248.2009672515
 31
0.0
  0
LWPOLYLINE
  5
2A7
330
1F
100
AcDbEntity
  8
0
  6
Continuous
 62
     7
370
    15
100
AcDbPolyline
 90
        3
 70
   128
 43
0.0
 10
620.551601364
 20
1282.9188548915
 10
620.7867863911
 20
1282.8312807671
 10
620.936438753
 20
1282.7380293004
  0
LINE
  5
2A8
330
1F
100
AcDbEntity
  8
0
  6
Continuous
 62
     7
370
    15
100
AcDbLine
 10
621.738195731
 20
1281.1367207162
 30
0.0
 11
621.4702430505
 21
1281.1367207162
 31
0.0
  0
LINE
  5
2A9
330
1F
100
AcDbEntity
  8
0
  6
Continuous
 62
     7
370
    15
100
AcDbLine
 10
454.5921239394
 20
1281.1367207162
 30
0.0
 11
454.3241712588
 21
1281.1367207162
 31
0.0
  0
LWPOLYLINE
  5
2AA
330
1F
100
AcDbEntity
  8
0
  6
Continuous
 62
     7
370
    15
100
AcDbPolyline
 90
        3
 70
   128
 43
0.0
 10
455.5107656258
 20
1282.9188548915
 10
455.2755805987
 20
1282.8312807671
 10
455.1259282368
 20
1282.7380293004
  0
SPLINE
  5
2AB
330
1F
100
AcDbEntity
  8
0
  6
Continuous
 62
     7
370
    15
100
AcDbSpline
210
0.0
220
0.0
230
1.0
 70
     8
 71
     3
 72
    10
 73
     6
 74
     0
 42
0.00000001
 43
0.00000001
 12
1.0
 22
0.0
 32
0.0
 13
1.0
 23
0.0
 33
0.0
 40
0.0
 40
0.0
 40
0.0
 40
0.0
 40
0.0069625871037041
 40
0.8529969950358931
 40
1.0
 40
1.0
 40
1.0
 40
1.0
 10
621.0750940579182
 20
1284.700974165618
 30
0.0
 10
621.0743316486992
 20
1284.697149748704
 30
0.0
 10
620.9809277511
 20
1284.228614693232
 30
0.0
 10
620.869657018773
 20
1283.668012979255
 30
0.0
 10
620.9153994671684
 20
1283.14404553604
 30
0.0
 10
620.9221708911664
 20
1283.066480695426
 30
0.0
  0
SPLINE
  5
2AC
330
1F
100
AcDbEntity
  8
0
  6
Continuous
 62
     7
370
    15
100
AcDbSpline
210
0.0
220
0.0
230
1.0
 70
     8
 71
     3
 72
    10
 73
     6
 74
     0
 42
0.00000001
 43
0.00000001
 12
1.0
 22
0.0
 32
0.0
 13
1.0
 23
0.0
 33
0.0
 40
0.0
 40
0.0
 40
0.0
 40
0.0
 40
0.1641273439395901
 40
0.9931771902957521
 40
1.0
 40
1.0
 40
1.0
 40
1.0
 10
455.1378417152173
 20
1283.033951460539
 30
0.0
 10
455.1457004540585
 20
1283.122296015998
 30
0.0
 10
455.1932557240964
 20
1283.656891868598
 30
0.0
 10
455.0814432341563
 20
1284.228613854867
 30
0.0
 10
454.9880353735015
 20
1284.697149741916
 30
0.0
 10
454.987272931934
 20
1284.700974165618
 30
0.0
  0
LINE
  5
2AD
330
1F
100
AcDbEntity
  8
0
  6
Continuous
 62
     7
370
    15
100
AcDbLine
 10
537.5311834712
 20
1110.3938662402
 30
0.0
 11
538.5311835187
 21
1110.3938662402
 31
0.0
  0
LINE
  5
2AE
330
1F
100
AcDbEntity
  8
0
  6
Continuous
 62
     7
370
    15
100
AcDbLine
 10
537.5311834712
 20
1109.6867595754
 30
0.0
 11
538.5311835187
 21
1109.6867595754
 31
0.0
  0
LINE
  5
2AF
330
1F
100
AcDbEntity
  8
0
  6
Continuous
 62
     7
370
    15
100
AcDbLine
 10
537.5311834712
 20
1091.7009741954
 30
0.0
 11
538.5311835187
 21
1091.7009741954
 31
0.0
  0
LINE
  5
2B0
330
1F
100
AcDbEntity
  8
0
  6
Continuous
 62
     7
370
    15
100
AcDbLine
 10
538.5311835187
 20
1251.7009668939
 30
0.0
 11
537.5311834712
 21
1251.7009668939
 31
0.0
  0
LINE
  5
2B1
330
1F
100
AcDbEntity
  8
0
  6
Continuous
 62
     7
370
    15
100
AcDbLine
 10
537.5311834712
 20
1233.7151908271
 30
0.0
 11
538.5311835187
 21
1233.7151908271
 31
0.0
  0
LINE
  5
2B2
330
1F
100
AcDbEntity
  8
0
  6
Continuous
 62
     7
370
    15
100
AcDbLine
 10
538.5311835187
 20
1233.0080860249
 30
0.0
 11
537.5311834712
 21
1233.0080860249
 31
0.0
  0
LWPOLYLINE
  5
2B3
330
1F
100
AcDbEntity
  8
0
  6
Continuous
 62
     7
370
    15
100
AcDbPolyline
 90
       13
 70
   128
 43
0.0
 10
620.4227808255
 20
1278.5184823863
 10
620.1603639263
 20
1278.5543941848
 10
619.5649805802
 20
1278.3657901875
 10
619.0278756756
 20
1277.8184556357
 10
618.6016279596
 20
1276.9659602038
 10
618.3279532331
 20
1275.8917503945
 10
618.2336586851
 20
1274.7009688012
 10
618.3279532331
 20
1273.510202109
 10
618.6016279596
 20
1272.4359922997
 10
619.0278756756
 20
1271.5834968678
 10
619.5649805802
 20
1271.0361474149
 10
620.1603639263
 20
1270.8475583188
 10
620.4705017942
 20
1270.8978050343
  0
LWPOLYLINE
  5
2B4
330
1F
100
AcDbEntity
  8
0
  6
Continuous
 62
     7
370
    15
100
AcDbPolyline
 90
       13
 70
   128
 43
0.0
 10
653.0200916666
 20
1255.8769577138
 10
653.035380258
 20
1255.8821284167
 10
653.3725562829
 20
1255.798398792
 10
653.8037362832
 20
1255.389063894
 10
654.2906093735
 20
1254.690482556
 10
654.7899100322
 20
1253.7647330157
 10
655.2572775024
 20
1252.6940845839
 10
655.651182248
 20
1251.5736513726
 10
655.9366288918
 20
1250.5030029408
 10
656.0882556576
 20
1249.5772534005
 10
656.0925769943
 20
1248.8786720626
 10
655.949220373
 20
1248.4693371646
 10
655.8409485358
 20
1248.3907782428
  0
LINE
  5
2B5
330
1F
100
AcDbEntity
  8
0
  6
Continuous
 62
     7
370
    15
100
AcDbLine
 10
455.9020030636
 20
1278.5543941848
 30
0.0
 11
455.5119502681
 21
1278.4745984666
 31
0.0
  0
LWPOLYLINE
  5
2B6
330
1F
100
AcDbEntity
  8
0
  6
Continuous
 62
     7
370
    15
100
AcDbPolyline
 90
       12
 70
   128
 43
0.0
 10
455.5162939566
 20
1270.9255509965
 10
455.9020030636
 20
1270.8475583188
 10
456.4973864096
 20
1271.0361474149
 10
457.0344913143
 20
1271.5834968678
 10
457.4607390302
 20
1272.4359922997
 10
457.7344137567
 20
1273.510202109
 10
457.8287083048
 20
1274.7009688012
 10
457.7344137567
 20
1275.8917503945
 10
457.4607390302
 20
1276.9659602038
 10
457.0344913143
 20
1277.8184556357
 10
456.4973864096
 20
1278.3657901875
 10
455.9020030636
 20
1278.5543941848
  0
LWPOLYLINE
  5
2B7
330
1F
100
AcDbEntity
  8
0
  6
Continuous
 62
     7
370
    15
100
AcDbPolyline
 90
       13
 70
   128
 43
0.0
 10
683.0834078926
 20
1170.3649231188
 10
683.098696484
 20
1170.3701012723
 10
683.4358650583
 20
1170.2863716475
 10
683.8670450586
 20
1169.877029299
 10
684.3539255995
 20
1169.1784554116
 10
684.8532188076
 20
1168.2527058713
 10
685.3205937284
 20
1167.1820574395
 10
685.7145059246
 20
1166.0616242282
 10
685.9999525684
 20
1164.9909683458
 10
686.1515718836
 20
1164.0652262561
 10
686.1558932203
 20
1163.3666449181
 10
686.0125291485
 20
1162.9573100201
 10
685.9042573112
 20
1162.8787510983
  0
LWPOLYLINE
  5
2B8
330
1F
100
AcDbEntity
  8
0
  6
Continuous
 62
     7
370
    15
100
AcDbPolyline
 90
        3
 70
   128
 43
0.0
 10
649.2719429868
 20
1257.3200606696
 10
649.583764686
 20
1257.4027919165
 10
649.8372259873
 20
1257.4225806586
  0
ARC
  5
2B9
330
1F
100
AcDbEntity
  8
0
  6
Continuous
 62
     7
370
    15
100
AcDbCircle
 10
652.0347499824
 20
1254.6761934629
 30
0.0
 40
2.776996887464059
100
AcDbArc
 50
282.3837410367
 51
309.3119600195
  0
ARC
  5
2BA
330
1F
100
AcDbEntity
  8
0
  6
Continuous
 62
     7
370
    15
100
AcDbCircle
 10
682.4290383864
 20
1168.2230658902
 30
0.0
 40
2.775488918693764
100
AcDbArc
 50
282.3777685497
 51
309.3208848572
  0
LWPOLYLINE
  5
2BB
330
1F
100
AcDbEntity
  8
0
  6
Continuous
 62
     7
370
    15
100
AcDbPolyline
 90
        3
 70
   128
 43
0.0
 10
634.0016204256
 20
1257.3200606696
 10
634.3134421247
 20
1257.4027919165
 10
634.563245191
 20
1257.4225806586
  0
LWPOLYLINE
  5
2BC
330
1F
100
AcDbEntity
  8
0
  6
Continuous
 62
     7
370
    15
100
AcDbPolyline
 90
        9
 70
   128
 43
0.0
 10
683.5585761207
 20
1160.1781913034
 10
683.6834180492
 20
1160.258761882
 10
683.8530230659
 20
1160.5635576836
 10
683.9340555805
 20
1161.058529555
 10
683.9234310526
 20
1161.7246487133
 10
683.8215369123
 20
1162.5363149635
 10
683.6323070663
 20
1163.4623401753
 10
683.3629983801
 20
1164.4671329252
 10
683.0239820617
 20
1165.5120917551
  0
LINE
  5
2BD
330
1F
100
AcDbEntity
  8
0
  6
Continuous
 62
     7
370
    15
100
AcDbLine
 10
679.132365002
 20
1159.8127850286
 30
0.0
 11
679.3193000692
 21
1159.8832228176
 31
0.0
  0
LINE
  5
2BE
330
1F
100
AcDbEntity
  8
0
  6
Continuous
 62
     7
370
    15
100
AcDbLine
 10
683.2167285818
 20
1243.6340742699
 30
0.0
 11
656.9207760829
 21
1243.6340742699
 31
0.0
  0
LINE
  5
2BF
330
1F
100
AcDbEntity
  8
0
  6
Continuous
 62
     7
370
    15
100
AcDbLine
 10
681.0318160194
 20
1175.0526794187
 30
0.0
 11
683.2167285818
 21
1175.8759760253
 31
0.0
  0
LINE
  5
2C0
330
1F
100
AcDbEntity
  8
0
  6
Continuous
 62
     7
370
    15
100
AcDbLine
 10
679.4982034105
 20
1161.2834700338
 30
0.0
 11
667.7650290865
 21
1161.2834700338
 31
0.0
  0
ARC
  5
2C1
330
1F
100
AcDbEntity
  8
0
  6
Continuous
 62
     7
370
    15
100
AcDbCircle
 10
667.5938673622
 20
1161.7348735933
 30
0.0
 40
0.4827644450170911
100
AcDbArc
 50
290.7655615914
 51
317.9134646078
  0
ELLIPSE
  5
2C2
330
1F
100
AcDbEntity
  8
0
  6
Continuous
 62
     7
370
    15
100
AcDbEllipse
 10
681.9226286321
 20
1175.8759734279
 30
0.0
 11
-0.7054376055669992
 21
5.068836590658521
 31
0.0
210
0.0
220
0.0
230
1.0
 40
0.250605517
 41
3.198118383623562
 42
4.677525965372554
  0
LINE
  5
2C3
330
1F
100
AcDbEntity
  8
0
  6
Continuous
 62
     7
370
    15
100
AcDbLine
 10
683.2167285818
 20
1243.6340742699
 30
0.0
 11
684.6990811962
 21
1243.6340742699
 31
0.0
  0
LINE
  5
2C4
330
1F
100
AcDbEntity
  8
0
  6
Continuous
 62
     7
370
    15
100
AcDbLine
 10
683.2167285818
 20
1175.8759760253
 30
0.0
 11
684.6990811962
 21
1175.8759760253
 31
0.0
  0
LINE
  5
2C5
330
1F
100
AcDbEntity
  8
0
  6
Continuous
 62
     7
370
    15
100
AcDbLine
 10
634.0016204256
 20
1257.3200606696
 30
0.0
 11
633.8748413461
 21
1257.2977089278
 31
0.0
  0
LINE
  5
2C6
330
1F
100
AcDbEntity
  8
0
  6
Continuous
 62
     7
370
    15
100
AcDbLine
 10
634.0635272998
 20
1254.4834756247
 30
0.0
 11
634.0322274107
 21
1254.7217451922
 31
0.0
  0
LINE
  5
2C7
330
1F
100
AcDbEntity
  8
0
  6
Continuous
 62
     7
370
    15
100
AcDbLine
 10
631.7411217231
 20
1250.8413338057
 30
0.0
 11
630.8170262116
 21
1250.493123471
 31
0.0
  0
LINE
  5
2C8
330
1F
100
AcDbEntity
  8
0
  6
Continuous
 62
     7
370
    15
100
AcDbLine
 10
661.2107086319
 20
1164.0413992993
 30
0.0
 11
662.0166155833
 21
1164.3450775139
 31
0.0
  0
LWPOLYLINE
  5
2C9
330
1F
100
AcDbEntity
  8
0
  6
Continuous
 62
     7
370
    15
100
AcDbPolyline
 90
        3
 70
   128
 43
0.0
 10
667.7650290865
 20
1161.2834700338
 10
667.5092506546
 20
1161.3647260658
 10
667.435892238
 20
1161.4112996451
  0
LINE
  5
2CA
330
1F
100
AcDbEntity
  8
0
  6
Continuous
 62
     7
370
    15
100
AcDbLine
 10
634.7313302892
 20
1254.7217451922
 30
0.0
 11
633.9859369534
 21
1254.4408732049
 31
0.0
  0
ARC
  5
2CB
330
1F
100
AcDbEntity
  8
0
  6
Continuous
 62
     7
370
    15
100
AcDbCircle
 10
644.1151084975
 20
1243.0242738398
 30
0.0
 40
6.629794314173773
100
AcDbArc
 50
29.0548618293
 51
46.4633304139
  0
LINE
  5
2CC
330
1F
100
AcDbEntity
  8
0
  6
Continuous
 62
     7
370
    15
100
AcDbLine
 10
637.3850482839
 20
1248.1103830926
 30
0.0
 11
647.7581042188
 21
1248.1103830926
 31
0.0
  0
LWPOLYLINE
  5
2CD
330
1F
100
AcDbEntity
  8
0
  6
Continuous
 62
     7
370
    15
100
AcDbPolyline
 90
        5
 70
   128
 43
0.0
 10
636.8511173266
 20
1247.0434599511
 10
636.8563550848
 20
1247.1601807467
 10
636.9416642326
 20
1247.6811998479
 10
637.1201801437
 20
1248.0020367495
 10
637.3850482839
 20
1248.1103830926
  0
ELLIPSE
  5
2CE
330
1F
100
AcDbEntity
  8
0
  6
Continuous
 62
     7
370
    15
100
AcDbEllipse
 10
663.6005756962
 20
1173.5429940705
 30
0.0
 11
-2.234016371209691
 21
5.978194925898379
 31
0.0
210
0.0
220
0.0
230
1.0
 40
0.228764231
 41
2.586982228316317
 42
3.056312147468266
  0
ELLIPSE
  5
2CF
330
1F
100
AcDbEntity
  8
0
  6
Continuous
 62
     7
370
    15
100
AcDbEllipse
 10
674.3156841634
 20
1173.5429940705
 30
0.0
 11
-2.234016371209691
 21
5.978194925898379
 31
0.0
210
0.0
220
0.0
230
1.0
 40
0.228764231
 41
3.05631214746827
 42
3.894280302791745
  0
ARC
  5
2D0
330
1F
100
AcDbEntity
  8
0
  6
Continuous
 62
     7
370
    15
100
AcDbCircle
 10
647.1617067874
 20
1247.7569193084
 30
0.0
 40
0.9960380718381425
100
AcDbArc
 50
291.258842564
 51
356.5104937373
  0
ARC
  5
2D1
330
1F
100
AcDbEntity
  8
0
  6
Continuous
 62
     7
370
    15
100
AcDbCircle
 10
653.9540242964
 20
1232.9647761792
 30
0.0
 40
9.805714688981269
100
AcDbArc
 50
105.9221538043
 51
110.819829594
  0
ARC
  5
2D2
330
1F
100
AcDbEntity
  8
0
  6
Continuous
 62
     7
370
    15
100
AcDbCircle
 10
678.1921610575
 20
1164.0214007592
 30
0.0
 40
9.820643761304419
100
AcDbArc
 50
105.9265365602
 51
110.8167349335
  0
LINE
  5
2D3
330
1F
100
AcDbEntity
  8
0
  6
Continuous
 62
     7
370
    15
100
AcDbLine
 10
632.6432380217
 20
1206.200971543
 30
0.0
 11
632.6432380217
 21
1173.2009717218
 31
0.0
  0
LINE
  5
2D4
330
1F
100
AcDbEntity
  8
0
  6
Continuous
 62
     7
370
    15
100
AcDbLine
 10
644.1348049182
 20
1244.1516064994
 30
0.0
 11
638.4570527214
 21
1244.1516064994
 31
0.0
  0
LINE
  5
2D5
330
1F
100
AcDbEntity
  8
0
  6
Continuous
 62
     7
370
    15
100
AcDbLine
 10
647.058472349
 20
1249.5713972442
 30
0.0
 11
636.8872749943
 21
1249.5713972442
 31
0.0
  0
LINE
  5
2D6
330
1F
100
AcDbEntity
  8
0
  6
Continuous
 62
     7
370
    15
100
AcDbLine
 10
637.1759253877
 20
1250.2122514836
 30
0.0
 11
646.8659865993
 21
1250.2122514836
 31
0.0
  0
LINE
  5
2D7
330
1F
100
AcDbEntity
  8
0
  6
Continuous
 62
     7
370
    15
100
AcDbLine
 10
637.1507051724
 20
1250.2716773145
 30
0.0
 11
637.1759253877
 21
1250.2122514836
 31
0.0
  0
LINE
  5
2D8
330
1F
100
AcDbEntity
  8
0
  6
Continuous
 62
     7
370
    15
100
AcDbLine
 10
652.8318527478
 20
1208.7009691588
 30
0.0
 11
652.4801555413
 21
1208.7009691588
 31
0.0
  0
LINE
  5
2D9
330
1F
100
AcDbEntity
  8
0
  6
Continuous
 62
     7
370
    15
100
AcDbLine
 10
652.4801555413
 20
1201.7009773247
 30
0.0
 11
652.8318527478
 21
1201.7009773247
 31
0.0
  0
LINE
  5
2DA
330
1F
100
AcDbEntity
  8
0
  6
Continuous
 62
     7
370
    15
100
AcDbLine
 10
636.5529227394
 20
1246.0309856526
 30
0.0
 11
645.4059186715
 21
1246.0309856526
 31
0.0
  0
LINE
  5
2DB
330
1F
100
AcDbEntity
  8
0
  6
Continuous
 62
     7
370
    15
100
AcDbLine
 10
636.8077400464
 20
1246.8286597125
 30
0.0
 11
635.1419317859
 21
1246.2009780995
 31
0.0
  0
LINE
  5
2DC
330
1F
100
AcDbEntity
  8
0
  6
Continuous
 62
     7
370
    15
100
AcDbLine
 10
677.9041069883
 20
1166.6192778341
 30
0.0
 11
677.8559762377
 21
1166.6011356704
 31
0.0
  0
LINE
  5
2DD
330
1F
100
AcDbEntity
  8
0
  6
Continuous
 62
     7
370
    15
100
AcDbLine
 10
676.863633408
 20
1164.9990596763
 30
0.0
 11
666.6202175754
 21
1164.9990596763
 31
0.0
  0
LINE
  5
2DE
330
1F
100
AcDbEntity
  8
0
  6
Continuous
 62
     7
370
    15
100
AcDbLine
 10
676.8115091461
 20
1165.6399139158
 30
0.0
 11
666.9088679689
 21
1165.6399139158
 31
0.0
  0
LINE
  5
2DF
330
1F
100
AcDbEntity
  8
0
  6
Continuous
 62
     7
370
    15
100
AcDbLine
 10
666.9088679689
 20
1165.6399139158
 30
0.0
 11
666.8836552042
 21
1165.6993397467
 31
0.0
  0
ARC
  5
2E0
330
1F
100
AcDbEntity
  8
0
  6
Continuous
 62
     7
370
    15
100
AcDbCircle
 10
639.5129580649
 20
1192.0305062415
 30
0.0
 40
0.4704646228862602
100
AcDbArc
 50
60.4177636497
 51
89.9394021742
  0
ARC
  5
2E1
330
1F
100
AcDbEntity
  8
0
  6
Continuous
 62
     7
370
    15
100
AcDbCircle
 10
639.5129580649
 20
1191.5714410645
 30
0.0
 40
0.4704646228869222
100
AcDbArc
 50
270.0605978256
 51
299.5822363501
  0
LINE
  5
2E2
330
1F
100
AcDbEntity
  8
0
  6
Continuous
 62
     7
370
    15
100
AcDbLine
 10
639.3840465087
 20
1192.0009770386
 30
0.0
 11
639.8125219482
 21
1192.0009770386
 31
0.0
  0
LINE
  5
2E3
330
1F
100
AcDbEntity
  8
0
  6
Continuous
 62
     7
370
    15
100
AcDbLine
 10
639.8125219482
 20
1191.6009702675
 30
0.0
 11
639.3840465087
 21
1191.6009702675
 31
0.0
  0
LINE
  5
2E4
330
1F
100
AcDbEntity
  8
0
  6
Continuous
 62
     7
370
    15
100
AcDbLine
 10
632.6432380217
 20
1173.2009717218
 30
0.0
 11
632.575087561
 21
1173.2009717218
 31
0.0
  0
LINE
  5
2E5
330
1F
100
AcDbEntity
  8
0
  6
Continuous
 62
     7
370
    15
100
AcDbLine
 10
636.8077400464
 20
1246.8286597125
 30
0.0
 11
636.6965326804
 21
1246.8090646855
 31
0.0
  0
ARC
  5
2E6
330
1F
100
AcDbEntity
  8
0
  6
Continuous
 62
     7
370
    15
100
AcDbCircle
 10
638.9160678599
 20
1249.9070507968
 30
0.0
 40
2.597046064327418
100
AcDbArc
 50
171.9289789657
 51
191.6001681733
  0
LINE
  5
2E7
330
1F
100
AcDbEntity
  8
0
  6
Continuous
 62
     7
370
    15
100
AcDbLine
 10
636.1005756396
 20
1248.9541613452
 30
0.0
 11
635.796010806
 21
1248.8393926017
 31
0.0
  0
LWPOLYLINE
  5
2E8
330
1F
100
AcDbEntity
  8
0
  6
Continuous
 62
     7
370
    15
100
AcDbPolyline
 90
        6
 70
   128
 43
0.0
 10
636.979691996
 20
1249.7422539584
 10
636.9844752687
 20
1249.8963617675
 10
637.0068940657
 20
1250.0325136773
 10
637.0468589801
 20
1250.1317107074
 10
637.1035727996
 20
1250.1920157067
 10
637.1759253877
 20
1250.2122514836
  0
LINE
  5
2E9
330
1F
100
AcDbEntity
  8
0
  6
Continuous
 62
     7
370
    15
100
AcDbLine
 10
636.3191309708
 20
1247.5994520776
 30
0.0
 11
635.9349194306
 21
1247.4546723954
 31
0.0
  0
LINE
  5
2EA
330
1F
100
AcDbEntity
  8
0
  6
Continuous
 62
     7
370
    15
100
AcDbLine
 10
665.106527819
 20
1166.2877344481
 30
0.0
 11
664.8522395033
 21
1166.1919199817
 31
0.0
  0
ARC
  5
2EB
330
1F
100
AcDbEntity
  8
0
  6
Continuous
 62
     7
370
    15
100
AcDbCircle
 10
667.1775103642
 20
1166.3073917243
 30
0.0
 40
1.422078760129329
100
AcDbArc
 50
205.3140581723
 51
246.9280957717
  0
LWPOLYLINE
  5
2EC
330
1F
100
AcDbEntity
  8
0
  6
Continuous
 62
     7
370
    15
100
AcDbPolyline
 90
        3
 70
   128
 43
0.0
 10
666.9088679689
 20
1165.6399139158
 10
666.8222922224
 20
1165.6601496927
 10
666.7524504799
 20
1165.6993397467
  0
LINE
  5
2ED
330
1F
100
AcDbEntity
  8
0
  6
Continuous
 62
     7
370
    15
100
AcDbLine
 10
664.3438565868
 20
1167.6996194713
 30
0.0
 11
664.0175062555
 21
1167.5766401879
 31
0.0
  0
LINE
  5
2EE
330
1F
100
AcDbEntity
  8
0
  6
Continuous
 62
     7
370
    15
100
AcDbLine
 10
548.3645166594
 20
818.7009834639
 30
0.0
 11
548.3645166594
 21
803.200974404
 31
0.0
  0
LINE
  5
2EF
330
1F
100
AcDbEntity
  8
0
  6
Continuous
 62
     7
370
    15
100
AcDbLine
 10
527.6978503305
 20
803.200974404
 30
0.0
 11
527.6978503305
 21
818.7009834639
 31
0.0
  0
LINE
  5
2F0
330
1F
100
AcDbEntity
  8
0
  6
Continuous
 62
     7
370
    15
100
AcDbLine
 10
570.9250609714
 20
818.7009834639
 30
0.0
 11
570.9250609714
 21
803.200974404
 31
0.0
  0
LINE
  5
2F1
330
1F
100
AcDbEntity
  8
0
  6
Continuous
 62
     7
370
    15
100
AcDbLine
 10
505.1373060185
 20
803.200974404
 30
0.0
 11
505.1373060185
 21
818.7009834639
 31
0.0
  0
LINE
  5
2F2
330
1F
100
AcDbEntity
  8
0
  6
Continuous
 62
     7
370
    15
100
AcDbLine
 10
575.3061737257
 20
803.200974404
 30
0.0
 11
582.1364748615
 21
816.7840682856
 31
0.0
  0
LINE
  5
2F3
330
1F
100
AcDbEntity
  8
0
  6
Continuous
 62
     7
370
    15
100
AcDbLine
 10
493.4648166734
 20
817.7009665362
 30
0.0
 11
500.7561932641
 21
803.200974404
 31
0.0
  0
LINE
  5
2F4
330
1F
100
AcDbEntity
  8
SLD-0
 62
     7
100
AcDbLine
 10
460.4357488475
 20
833.7009739272
 30
0.0
 11
513.7608835434
 21
833.7009739272
 31
0.0
  0
CIRCLE
  5
2F5
330
1F
100
AcDbEntity
  8
SLD-0
  6
Continuous
 62
     7
100
AcDbCircle
 10
538.0311834949
 20
1051.7009739272
 30
0.0
 40
9.941304535795775
  0
INSERT
  5
301
330
1F
100
AcDbEntity
  8
SLD-0
 62
     7
100
AcDbBlockReference
  2
SW_CENTERMARKSYMBOL_0
 10
538.0311834949
 20
1051.7009739272
 30
0.0
  0
LINE
  5
302
330
1F
100
AcDbEntity
  8
0
  6
Continuous
 62
     7
370
    15
100
AcDbLine
 10
641.0558524865
 20
567.7664748742
 30
0.0
 11
636.0311809319
 21
569.1128301783
 31
0.0
  0
LINE
  5
303
330
1F
100
AcDbEntity
  8
0
  6
Continuous
 62
     7
370
    15
100
AcDbLine
 10
641.7629572886
 20
566.5417302749
 30
0.0
 11
641.0558524865
 21
567.7664748742
 31
0.0
  0
LINE
  5
304
330
1F
100
AcDbEntity
  8
0
  6
Continuous
 62
     7
370
    15
100
AcDbLine
 10
664.6384972471
 20
512.7895426354
 30
0.0
 11
663.1518530983
 21
513.187887927
 31
0.0
  0
LINE
  5
305
330
1F
100
AcDbEntity
  8
0
  6
Continuous
 62
     7
370
    15
100
AcDbLine
 10
662.1165725726
 20
509.3241844675
 30
0.0
 11
663.5660457748
 21
508.9358006022
 31
0.0
  0
LINE
  5
306
330
1F
100
AcDbEntity
  8
0
  6
Continuous
 62
     7
370
    15
100
AcDbLine
 10
668.1031960386
 20
505.6495208642
 30
0.0
 11
668.4470552343
 21
505.5573869845
 31
0.0
  0
LINE
  5
307
330
1F
100
AcDbEntity
  8
0
  6
Continuous
 62
     7
370
    15
100
AcDbLine
 10
670.6467646497
 20
513.1985608837
 30
0.0
 11
670.539461388
 21
513.2524434826
 31
0.0
  0
LINE
  5
308
330
1F
100
AcDbEntity
  8
0
  6
Continuous
 62
     7
370
    15
100
AcDbLine
 10
668.4470552343
 20
505.5573869845
 30
0.0
 11
668.665372147
 21
505.5475745699
 31
0.0
  0
ARC
  5
309
330
1F
100
AcDbEntity
  8
0
  6
Continuous
 62
     7
370
    15
100
AcDbCircle
 10
664.9941612759
 20
510.6236910485
 30
0.0
 40
6.500000000000109
100
AcDbArc
 50
313.9823638146
 51
16.0176361854
  0
LINE
  5
30A
330
1F
100
AcDbEntity
  8
0
  6
Continuous
 62
     7
370
    15
100
AcDbLine
 10
650.0061530012
 20
576.7562865163
 30
0.0
 11
648.1000411648
 21
577.26702824
 31
0.0
  0
LINE
  5
30B
330
1F
100
AcDbEntity
  8
0
  6
Continuous
 62
     7
370
    15
100
AcDbLine
 10
647.0647606391
 20
573.4033250133
 30
0.0
 11
648.9708799261
 21
572.8925832896
 31
0.0
  0
LINE
  5
30C
330
1F
100
AcDbEntity
  8
0
  6
Continuous
 62
     7
370
    15
100
AcDbLine
 10
679.495103969
 20
568.854746723
 30
0.0
 11
678.1633573908
 21
569.2115876241
 31
0.0
  0
LINE
  5
30D
330
1F
100
AcDbEntity
  8
0
  6
Continuous
 62
     7
370
    15
100
AcDbLine
 10
677.1280843157
 20
565.3478846303
 30
0.0
 11
678.6147284645
 21
564.9495384073
 31
0.0
  0
LINE
  5
30E
330
1F
100
AcDbEntity
  8
0
  6
Continuous
 62
     7
370
    15
100
AcDbLine
 10
685.529105677
 20
569.308491738
 30
0.0
 11
684.8142373699
 21
569.5000410429
 31
0.0
  0
LINE
  5
30F
330
1F
100
AcDbEntity
  8
0
  6
Continuous
 62
     7
370
    15
100
AcDbLine
 10
685.6582689422
 20
569.2222605808
 30
0.0
 11
685.5509656805
 21
569.2761403857
 31
0.0
  0
LINE
  5
310
330
1F
100
AcDbEntity
  8
0
  6
Continuous
 62
     7
370
    15
100
AcDbLine
 10
683.4585595268
 20
561.5810852847
 30
0.0
 11
683.6768764395
 21
561.5712738013
 31
0.0
  0
ARC
  5
311
330
1F
100
AcDbEntity
  8
0
  6
Continuous
 62
     7
370
    15
100
AcDbCircle
 10
680.0056658919
 20
566.6473889733
 30
0.0
 40
6.500000000000071
100
AcDbArc
 50
313.9823638146
 51
16.0176361854
  0
LINE
  5
312
330
1F
100
AcDbEntity
  8
0
  6
Continuous
 62
     7
370
    15
100
AcDbLine
 10
681.4615804094
 20
547.3820686689
 30
0.0
 11
681.413285746
 21
547.3950103274
 31
0.0
  0
LINE
  5
313
330
1F
100
AcDbEntity
  8
0
  6
Continuous
 62
     7
370
    15
100
AcDbLine
 10
675.8393871921
 20
526.5929315588
 30
0.0
 11
675.8876818556
 21
526.5799899003
 31
0.0
  0
LINE
  5
314
330
1F
100
AcDbEntity
  8
0
  6
Continuous
 62
     7
370
    15
100
AcDbLine
 10
643.0477577585
 20
563.6092776781
 30
0.0
 11
641.1159116167
 21
564.126915147
 31
0.0
  0
SPLINE
  5
315
330
1F
100
AcDbEntity
  8
0
  6
Continuous
 62
     7
370
    15
100
AcDbSpline
210
0.0
220
0.0
230
1.0
 70
     8
 71
     3
 72
    15
 73
    11
 74
     0
 42
0.00000001
 43
0.00000001
 12
1.0
 22
0.0
 32
0.0
 13
1.0
 23
0.0
 33
0.0
 40
0.0
 40
0.0
 40
0.0
 40
0.0
 40
0.0815961959866825
 40
0.2376379816452859
 40
0.3974090769847706
 40
0.5672456679357862
 40
0.7066725960576521
 40
0.8222276497708525
 40
0.9331891974421717
 40
1.0
 40
1.0
 40
1.0
 40
1.0
 10
684.512250437141
 20
565.439853665841
 30
0.0
 10
684.5668195131003
 20
565.6565333026828
 30
0.0
 10
684.7257446310473
 20
566.2875836959035
 30
0.0
 10
684.8942481896587
 20
567.3441767190417
 30
0.0
 10
684.9544619108564
 20
568.5504616152245
 30
0.0
 10
684.8457010986235
 20
569.5908600251237
 30
0.0
 10
684.5649382782515
 20
570.4472429355326
 30
0.0
 10
684.1141615859281
 20
571.1193970933949
 30
0.0
 10
683.5711013764624
 20
571.5540417953639
 30
0.0
 10
683.1734342218571
 20
571.6889915149012
 30
0.0
 10
683.0239820617443
 20
571.7397086205457
 30
0.0
  0
LINE
  5
316
330
1F
100
AcDbEntity
  8
0
  6
Continuous
 62
     7
370
    15
100
AcDbLine
 10
669.2419278759
 20
508.4502313635
 30
0.0
 11
684.5122504371
 21
565.4398536658
 31
0.0
  0
SPLINE
  5
317
330
1F
100
AcDbEntity
  8
0
  6
Continuous
 62
     7
370
    15
100
AcDbSpline
210
0.0
220
0.0
230
1.0
 70
     8
 71
     3
 72
    15
 73
    11
 74
     0
 42
0.00000001
 43
0.00000001
 12
1.0
 22
0.0
 32
0.0
 13
1.0
 23
0.0
 33
0.0
 40
0.0
 40
0.0
 40
0.0
 40
0.0
 40
0.1127076876759337
 40
0.2198716622184963
 40
0.3293846961677404
 40
0.4560118808724362
 40
0.6132190373483137
 40
0.7803860059893171
 40
0.9394143941126762
 40
1.0
 40
1.0
 40
1.0
 40
1.0
 10
664.80312527597
 20
503.7385288974766
 30
0.0
 10
665.0678248462091
 20
503.6978189556498
 30
0.0
 10
665.5842043026341
 20
503.618401457493
 30
0.0
 10
666.3190360363038
 20
503.8366537627724
 30
0.0
 10
666.9530408614664
 20
504.2222189230101
 30
0.0
 10
667.5494742345945
 20
504.8084786674711
 30
0.0
 10
668.1320173865995
 20
505.6415695400535
 30
0.0
 10
668.6734192608163
 20
506.727593867532
 30
0.0
 10
669.0349754326957
 20
507.7117365132504
 30
0.0
 10
669.1971799919951
 20
508.2905517709309
 30
0.0
 10
669.241927875877
 20
508.4502313634877
 30
0.0
  0
LWPOLYLINE
  5
318
330
1F
100
AcDbEntity
  8
0
  6
Continuous
 62
     7
370
    15
100
AcDbPolyline
 90
       13
 70
   128
 43
0.0
 10
636.0311809319
 20
549.0141611895
 10
636.3976004857
 20
550.3816593787
 10
637.0794627208
 20
552.9263791046
 10
637.7399045366
 20
555.3911839029
 10
638.3671465653
 20
557.732085546
 10
638.9499905843
 20
559.9073114222
 10
639.4780504841
 20
561.8780449382
 10
639.9418938297
 20
563.609118422
 10
640.3332355756
 20
565.0696408352
 10
640.6451019782
 20
566.2335481843
 10
640.8719274539
 20
567.0800719759
 10
641.0096663374
 20
567.5941052264
 10
641.0558524865
 20
567.7664748742
  0
LWPOLYLINE
  5
319
330
1F
100
AcDbEntity
  8
0
  6
Continuous
 62
     7
370
    15
100
AcDbPolyline
 90
       14
 70
   128
 43
0.0
 10
641.7629572886
 20
566.5417302749
 10
641.7171585697
 20
566.3707934669
 10
641.5806043285
 20
565.8611663035
 10
641.3558352131
 20
565.022342687
 10
641.0470533508
 20
563.8699492788
 10
640.6600031394
 20
562.4254512018
 10
640.2018892902
 20
560.7157580903
 10
639.6812576193
 20
558.7727174512
 10
639.1077938813
 20
556.6325251362
 10
638.4921896595
 20
554.3350473395
 10
637.8459039468
 20
551.9230839214
 10
637.180984332
 20
549.4415637455
 10
636.5098062295
 20
546.936713939
 10
636.0311809319
 20
545.1504595927
  0
LWPOLYLINE
  5
31A
330
1F
100
AcDbEntity
  8
0
  6
Continuous
 62
     7
370
    15
100
AcDbPolyline
 90
       17
 70
   128
 43
0.0
 10
662.1165725726
 20
509.3241844675
 10
661.9031208891
 20
509.5389921567
 10
661.8009734291
 20
510.0152034661
 10
661.8256795543
 20
510.680316796
 10
661.9734767216
 20
511.433078756
 10
662.2218641776
 20
512.1588919661
 10
662.5330302256
 20
512.7472531399
 10
662.8595966238
 20
513.1085876724
 10
663.1518530983
 20
513.187887927
 10
663.3652973312
 20
512.9730839631
 10
663.4674447912
 20
512.496876379
 10
663.4427386659
 20
511.8317593238
 10
663.2949489492
 20
511.0789973638
 10
663.0465614933
 20
510.3531841537
 10
662.7353954452
 20
509.7648267052
 10
662.4088290471
 20
509.4034884474
 10
662.1165725726
 20
509.3241844675
  0
LWPOLYLINE
  5
31B
330
1F
100
AcDbEntity
  8
0
  6
Continuous
 62
     7
370
    15
100
AcDbPolyline
 90
       11
 70
   128
 43
0.0
 10
670.8219128984
 20
513.0433988175
 10
671.0873919863
 20
512.7851169905
 10
671.3006127018
 20
512.1613357565
 10
671.3616031545
 20
511.2624232075
 10
671.2644028801
 20
510.1763595244
 10
671.0185188192
 20
509.0094719431
 10
670.6480163473
 20
507.8759704134
 10
670.1891648906
 20
506.8868089816
 10
669.6868914503
 20
506.1388228437
 10
669.1903400558
 20
505.7052288553
 10
668.8735860723
 20
505.6128863594
  0
LWPOLYLINE
  5
31C
330
1F
100
AcDbEntity
  8
0
  6
Continuous
 62
     7
370
    15
100
AcDbPolyline
 90
       17
 70
   128
 43
0.0
 10
647.0647606391
 20
573.4033250133
 10
646.8513164061
 20
573.6181296757
 10
646.7491689461
 20
574.0943392971
 10
646.7738750714
 20
574.7594550863
 10
646.9216722387
 20
575.5122193018
 10
647.1700522441
 20
576.2380303
 10
647.4812182921
 20
576.8263901933
 10
647.8077846903
 20
577.1877261227
 10
648.1000411648
 20
577.26702824
 10
648.3134853977
 20
577.0522235776
 10
648.4156328577
 20
576.5760140144
 10
648.3909267324
 20
575.9108981234
 10
648.2431295651
 20
575.1581339514
 10
647.9947495598
 20
574.4323229242
 10
647.6835835117
 20
573.8439631764
 10
647.3570171136
 20
573.4826271305
 10
647.0647606391
 20
573.4033250133
  0
LWPOLYLINE
  5
31D
330
1F
100
AcDbEntity
  8
0
  6
Continuous
 62
     7
370
    15
100
AcDbPolyline
 90
       17
 70
   128
 43
0.0
 10
677.1280843157
 20
565.3478846303
 10
676.9146251816
 20
565.5626885942
 10
676.8124777216
 20
566.0388989723
 10
676.8371838468
 20
566.7040141648
 10
676.9849884647
 20
567.4567784532
 10
677.2333759207
 20
568.1825898005
 10
677.5445270675
 20
568.7709491117
 10
677.8711009163
 20
569.1322855069
 10
678.1633573908
 20
569.2115876241
 10
678.3768016237
 20
568.9967827289
 10
678.4789490837
 20
568.5205732821
 10
678.4542429584
 20
567.8554576239
 10
678.3064532417
 20
567.1026933356
 10
678.0580657858
 20
566.3768824539
 10
677.7468997377
 20
565.7885222113
 10
677.420325889
 20
565.4271867475
 10
677.1280843157
 20
565.3478846303
  0
LWPOLYLINE
  5
31E
330
1F
100
AcDbEntity
  8
0
  6
Continuous
 62
     7
370
    15
100
AcDbPolyline
 90
       11
 70
   128
 43
0.0
 10
685.8334171909
 20
569.0670947893
 10
686.0988962787
 20
568.808813428
 10
686.3121169943
 20
568.1850349879
 10
686.373107447
 20
567.286119645
 10
686.2759071726
 20
566.2000606185
 10
686.0300231117
 20
565.0331674492
 10
685.6595206398
 20
563.8996649882
 10
685.2006691831
 20
562.9105072817
 10
684.6983957428
 20
562.1625211439
 10
684.2018443483
 20
561.7289243615
 10
683.8850903648
 20
561.6365883848
  0
LINE
  5
31F
330
1F
100
AcDbEntity
  8
0
  6
Continuous
 62
     7
370
    15
100
AcDbLine
 10
681.2027621406
 20
546.4161437354
 30
0.0
 11
681.1544674772
 21
546.4290853939
 31
0.0
  0
LWPOLYLINE
  5
320
330
1F
100
AcDbEntity
  8
0
  6
Continuous
 62
     7
370
    15
100
AcDbPolyline
 90
        7
 70
   128
 43
0.0
 10
681.4615804094
 20
547.3820686689
 10
681.452758922
 20
547.3491557291
 10
681.4269054073
 20
547.2526595345
 10
681.3857782024
 20
547.0991570851
 10
681.3321787256
 20
546.8991071335
 10
681.2697577614
 20
546.666144242
 10
681.2027621406
 20
546.4161437354
  0
LINE
  5
321
330
1F
100
AcDbEntity
  8
0
  6
Continuous
 62
     7
370
    15
100
AcDbLine
 10
676.0982054609
 20
527.5588546297
 30
0.0
 11
676.1465001243
 21
527.5459166965
 31
0.0
  0
LINE
  5
322
330
1F
100
AcDbEntity
  8
0
  6
Continuous
 62
     7
370
    15
100
AcDbLine
 10
681.2027621406
 20
546.4161437354
 30
0.0
 11
676.1465001243
 21
527.5459166965
 31
0.0
  0
LWPOLYLINE
  5
323
330
1F
100
AcDbEntity
  8
0
  6
Continuous
 62
     7
370
    15
100
AcDbPolyline
 90
        7
 70
   128
 43
0.0
 10
676.1465001243
 20
527.5459166965
 10
676.0795194048
 20
527.2959161899
 10
676.0170984405
 20
527.0629514358
 10
675.9634840626
 20
526.8629033467
 10
675.9223568577
 20
526.7093990347
 10
675.896503343
 20
526.6129028401
 10
675.8876818556
 20
526.5799899003
  0
LINE
  5
324
330
1F
100
AcDbEntity
  8
0
  6
Continuous
 62
     7
370
    15
100
AcDbLine
 10
681.0269135374
 20
545.5666862777
 30
0.0
 11
680.978618874
 21
545.5796279362
 31
0.0
  0
LINE
  5
325
330
1F
100
AcDbEntity
  8
0
  6
Continuous
 62
     7
370
    15
100
AcDbLine
 10
681.0269135374
 20
545.5666862777
 30
0.0
 11
676.4189380544
 21
528.3694889745
 31
0.0
  0
LINE
  5
326
330
1F
100
AcDbEntity
  8
0
  6
Continuous
 62
     7
370
    15
100
AcDbLine
 10
676.4189380544
 20
528.3694889745
 30
0.0
 11
676.370643391
 21
528.382430633
 31
0.0
  0
LWPOLYLINE
  5
327
330
1F
100
AcDbEntity
  8
0
  6
Continuous
 62
     7
370
    15
100
AcDbPolyline
 90
        9
 70
   128
 43
0.0
 10
679.5287954944
 20
566.7751644156
 10
679.7804314035
 20
567.8589831455
 10
679.9500215191
 20
568.9205423346
 10
680.0310540336
 20
569.9190458632
 10
680.0204295057
 20
570.8161223097
 10
679.9185502666
 20
571.5772973722
 10
679.7293055195
 20
572.1733196056
 10
679.4600117344
 20
572.5812840624
 10
679.1209805149
 20
572.7855130913
  0
LINE
  5
328
330
1F
100
AcDbEntity
  8
0
  6
Continuous
 62
     7
370
    15
100
AcDbLine
 10
679.1209805149
 20
572.7855130913
 30
0.0
 11
683.0239820617
 21
571.7397086205
 31
0.0
  0
LWPOLYLINE
  5
329
330
1F
100
AcDbEntity
  8
0
  6
Continuous
 62
     7
370
    15
100
AcDbPolyline
 90
        9
 70
   128
 43
0.0
 10
683.4317970413
 20
565.7293599448
 10
683.6834180492
 20
566.8131791404
 10
683.8530230659
 20
567.8747378639
 10
683.9340555805
 20
568.8732413924
 10
683.9234310526
 20
569.7703178389
 10
683.8215369123
 20
570.5314929015
 10
683.6323070663
 20
571.1275151348
 10
683.3629983801
 20
571.5354795917
 10
683.0239820617
 20
571.7397086205
  0
LINE
  5
32A
330
1F
100
AcDbEntity
  8
0
  6
Continuous
 62
     7
370
    15
100
AcDbLine
 10
683.4317970413
 20
565.7293599448
 30
0.0
 11
679.5287954944
 21
566.7751644156
 31
0.0
  0
LWPOLYLINE
  5
32B
330
1F
100
AcDbEntity
  8
0
  6
Continuous
 62
     7
370
    15
100
AcDbPolyline
 90
        9
 70
   128
 43
0.0
 10
648.7273055452
 20
580.9294752194
 10
648.331582858
 20
580.9221200994
 10
647.8943827885
 20
580.7034641853
 10
647.432491495
 20
580.2819094038
 10
646.963663711
 20
579.6736561111
 10
646.5059223908
 20
578.9020795724
 10
646.0768509048
 20
577.9968310031
 10
645.6929448384
 20
576.9926980952
 10
645.3689488906
 20
575.9282695013
  0
LINE
  5
32C
330
1F
100
AcDbEntity
  8
0
  6
Continuous
 62
     7
370
    15
100
AcDbLine
 10
679.1209805149
 20
572.7855130913
 30
0.0
 11
648.7273055452
 21
580.9294752194
 31
0.0
  0
LINE
  5
32D
330
1F
100
AcDbEntity
  8
0
  6
Continuous
 62
     7
370
    15
100
AcDbLine
 10
664.2584729332
 20
509.7855393192
 30
0.0
 11
679.5287954944
 21
566.7751644156
 31
0.0
  0
LWPOLYLINE
  5
32E
330
1F
100
AcDbEntity
  8
0
  6
Continuous
 62
     7
370
    15
100
AcDbPolyline
 90
        9
 70
   128
 43
0.0
 10
660.9001237291
 20
504.7843370935
 10
661.2958389658
 20
504.7916908166
 10
661.7330464858
 20
505.0103430054
 10
662.1949377793
 20
505.4319043061
 10
662.6637655634
 20
506.0401548049
 10
663.1214994329
 20
506.8117294809
 10
663.5505783695
 20
507.716982474
 10
663.9344918865
 20
508.7211121222
 10
664.2584729332
 20
509.7855393192
  0
LINE
  5
32F
330
1F
100
AcDbEntity
  8
0
  6
Continuous
 62
     7
370
    15
100
AcDbLine
 10
636.0311809319
 20
511.4479501149
 30
0.0
 11
660.9001237291
 21
504.7843370935
 31
0.0
  0
LINE
  5
330
330
1F
100
AcDbEntity
  8
0
  6
Continuous
 62
     7
370
    15
100
AcDbLine
 10
645.3689488906
 20
575.9282695013
 30
0.0
 11
642.1337130803
 21
563.8541968888
 31
0.0
  0
LWPOLYLINE
  5
331
330
1F
100
AcDbEntity
  8
0
  6
Continuous
 62
     7
370
    15
100
AcDbPolyline
 90
        9
 70
   128
 43
0.0
 10
645.7653868335
 20
575.8220438961
 10
646.021172716
 20
576.6623824252
 10
646.3242548841
 20
577.4551188456
 10
646.662995531
 20
578.169788781
 10
647.0243710417
 20
578.77892846
 10
647.3945009846
 20
579.2591281584
 10
647.7591473001
 20
579.5919344178
 10
648.1043103474
 20
579.764557851
 10
648.4167206424
 20
579.7703641816
  0
LINE
  5
332
330
1F
100
AcDbEntity
  8
0
  6
Continuous
 62
     7
370
    15
100
AcDbLine
 10
645.7653868335
 20
575.8220438961
 30
0.0
 11
642.5301510233
 21
563.7479711673
 31
0.0
  0
LINE
  5
333
330
1F
100
AcDbEntity
  8
0
  6
Continuous
 62
     7
370
    15
100
AcDbLine
 10
636.0311809319
 20
512.6902785501
 30
0.0
 11
661.2107086319
 21
505.9434462687
 31
0.0
  0
LWPOLYLINE
  5
334
330
1F
100
AcDbEntity
  8
0
  6
Continuous
 62
     7
370
    15
100
AcDbPolyline
 90
        9
 70
   128
 43
0.0
 10
663.8620424408
 20
509.8917696974
 10
663.6062491077
 20
509.0514261624
 10
663.3031743902
 20
508.2586918375
 10
662.9644262928
 20
507.5440246961
 10
662.6030507821
 20
506.9348801276
 10
662.2329282898
 20
506.4546827576
 10
661.8682745236
 20
506.1218727729
 10
661.5231189269
 20
505.949250271
 10
661.2107086319
 20
505.9434462687
  0
LINE
  5
335
330
1F
100
AcDbEntity
  8
0
  6
Continuous
 62
     7
370
    15
100
AcDbLine
 10
663.8620424408
 20
509.8917696974
 30
0.0
 11
679.132365002
 21
566.8813896714
 31
0.0
  0
LWPOLYLINE
  5
336
330
1F
100
AcDbEntity
  8
0
  6
Continuous
 62
     7
370
    15
100
AcDbPolyline
 90
        9
 70
   128
 43
0.0
 10
678.8103956121
 20
571.6264020535
 10
679.0780502695
 20
571.4651686954
 10
679.2906600374
 20
571.1430915049
 10
679.4400590795
 20
570.672547759
 10
679.5204955477
 20
570.071619784
 10
679.5288849014
 20
569.3634015857
 10
679.4648993152
 20
568.5751092038
 10
679.3310123819
 20
567.7370366989
 10
679.132365002
 20
566.8813896714
  0
LINE
  5
337
330
1F
100
AcDbEntity
  8
0
  6
Continuous
 62
     7
370
    15
100
AcDbLine
 10
678.8103956121
 20
571.6264020535
 30
0.0
 11
648.4167206424
 21
579.7703641816
 31
0.0
  0
LINE
  5
338
330
1F
100
AcDbEntity
  8
0
  6
Continuous
 62
     7
370
    15
100
AcDbLine
 10
668.16147448
 20
508.7397385737
 30
0.0
 11
683.4317970413
 21
565.7293599448
 31
0.0
  0
LINE
  5
339
330
1F
100
AcDbEntity
  8
0
  6
Continuous
 62
     7
370
    15
100
AcDbLine
 10
664.2584729332
 20
509.7855393192
 30
0.0
 11
668.16147448
 21
508.7397385737
 31
0.0
  0
LWPOLYLINE
  5
33A
330
1F
100
AcDbEntity
  8
0
  6
Continuous
 62
     7
370
    15
100
AcDbPolyline
 90
        9
 70
   128
 43
0.0
 10
664.803125276
 20
503.7385288975
 10
665.1988405126
 20
503.7458826205
 10
665.6360405821
 20
503.9645422599
 10
666.0979318756
 20
504.3860961101
 10
666.5667522091
 20
504.9943466088
 10
667.0245009798
 20
505.7659287354
 10
667.4535650152
 20
506.671174278
 10
667.8374785322
 20
507.6753039262
 10
668.16147448
 20
508.7397385737
  0
LINE
  5
33B
330
1F
100
AcDbEntity
  8
0
  6
Continuous
 62
     7
370
    15
100
AcDbLine
 10
664.803125276
 20
503.7385288975
 30
0.0
 11
660.9001237291
 21
504.7843370935
 31
0.0
  0
ARC
  5
33C
330
1F
100
AcDbEntity
  8
0
  6
Continuous
 62
     7
370
    15
100
AcDbCircle
 10
652.1790585738
 20
578.2597470843
 30
0.0
 40
0.48562839138832
100
AcDbArc
 50
343.274747337
 51
73.1637485566
  0
LINE
  5
33D
330
1F
100
AcDbEntity
  8
0
  6
Continuous
 62
     7
370
    15
100
AcDbLine
 10
671.8682575363
 20
516.8569375178
 30
0.0
 11
682.5833547252
 21
556.8462673923
 31
0.0
  0
ARC
  5
33E
330
1F
100
AcDbEntity
  8
0
  6
Continuous
 62
     7
370
    15
100
AcDbCircle
 10
682.6990857674
 20
559.9210874464
 30
0.0
 40
2.000000000000052
100
AcDbArc
 50
345.0
 51
62.6654072805
  0
LWPOLYLINE
  5
33F
330
1F
100
AcDbEntity
  8
0
  6
Continuous
 62
     7
370
    15
100
AcDbPolyline
 90
        9
 70
   128
 43
0.0
 10
684.6309381861
 20
559.4034491456
 10
684.6160221237
 20
559.3477690941
 10
684.5718401808
 20
559.1828691191
 10
684.5000761884
 20
558.9150850079
 10
684.4035166639
 20
558.5547097376
 10
684.2858570951
 20
558.1155911437
 10
684.1516125339
 20
557.6146029285
 10
684.0059536833
 20
557.0710011175
 10
683.8544833797
 20
556.5056715509
  0
LWPOLYLINE
  5
340
330
1F
100
AcDbEntity
  8
0
  6
Continuous
 62
     7
370
    15
100
AcDbPolyline
 90
        9
 70
   128
 43
0.0
 10
682.5833547252
 20
556.8462673923
 10
682.8518289465
 20
556.7743320367
 10
683.0986666816
 20
556.7081913701
 10
683.3181309837
 20
556.6493876627
 10
683.5051107544
 20
556.5992862335
 10
683.6552548546
 20
556.5590549609
 10
683.7650615114
 20
556.5296288929
 10
683.8319975275
 20
556.511697208
 10
683.8544833797
 20
556.5056715509
  0
LINE
  5
341
330
1F
100
AcDbEntity
  8
0
  6
Continuous
 62
     7
370
    15
100
AcDbLine
 10
683.8544833797
 20
556.5056715509
 30
0.0
 11
673.1393712896
 21
516.5163416764
 31
0.0
  0
LWPOLYLINE
  5
342
330
1F
100
AcDbEntity
  8
0
  6
Continuous
 62
     7
370
    15
100
AcDbPolyline
 90
        9
 70
   128
 43
0.0
 10
671.8682575363
 20
516.8569375178
 10
672.1367168564
 20
516.7850021622
 10
672.3835545915
 20
516.7188633582
 10
672.6030188936
 20
516.6600559256
 10
672.7899986643
 20
516.6099582216
 10
672.9401427644
 20
516.5697250864
 10
673.0499643224
 20
516.5402990183
 10
673.1168854374
 20
516.5223654708
 10
673.1393712896
 20
516.5163416764
  0
LWPOLYLINE
  5
343
330
1F
100
AcDbEntity
  8
0
  6
Continuous
 62
     7
370
    15
100
AcDbPolyline
 90
        9
 70
   128
 43
0.0
 10
673.1393712896
 20
516.5163416764
 10
672.9878860849
 20
515.9510139725
 10
672.8422272342
 20
515.4074121615
 10
672.7079975742
 20
514.9064239463
 10
672.5903380054
 20
514.4673053524
 10
672.4937784809
 20
514.1069282195
 10
672.4220144886
 20
513.8391469023
 10
672.3778325456
 20
513.6742469272
 10
672.3629164833
 20
513.6185650131
  0
ARC
  5
344
330
1F
100
AcDbEntity
  8
0
  6
Continuous
 62
     7
370
    15
100
AcDbCircle
 10
670.4310630296
 20
514.1362032803
 30
0.0
 40
2.000000000000061
100
AcDbArc
 50
294.7655702552
 51
345.0
  0
LINE
  5
345
330
1F
100
AcDbEntity
  8
0
  6
Continuous
 62
     7
370
    15
100
AcDbLine
 10
662.7070161837
 20
507.0954252383
 30
0.0
 11
636.0311809319
 21
514.243191888
 31
0.0
  0
ARC
  5
346
330
1F
100
AcDbEntity
  8
0
  6
Continuous
 62
     7
370
    15
100
AcDbCircle
 10
651.2316548973
 20
577.7372047291
 30
0.0
 40
0.7493382107676103
100
AcDbArc
 50
86.0992474776
 51
146.6970905507
  0
LINE
  5
347
330
1F
100
AcDbEntity
  8
0
  6
Continuous
 62
     7
370
    15
100
AcDbLine
 10
651.2826311725
 20
578.4848070121
 30
0.0
 11
679.3620515007
 21
570.9609478595
 31
0.0
  0
ARC
  5
348
330
1F
100
AcDbEntity
  8
0
  6
Continuous
 62
     7
370
    15
100
AcDbCircle
 10
636.5813220931
 20
519.3326172796
 30
0.0
 40
0.5639092598376172
100
AcDbArc
 50
192.6869610951
 51
246.9781404151
  0
LINE
  5
349
330
1F
100
AcDbEntity
  8
0
  6
Continuous
 62
     7
370
    15
100
AcDbLine
 10
662.123866691
 20
511.9104225537
 30
0.0
 11
636.360787167
 21
518.8136201701
 31
0.0
  0
ARC
  5
34A
330
1F
100
AcDbEntity
  8
0
  6
Continuous
 62
     7
370
    15
100
AcDbCircle
 10
667.2634216578
 20
511.3430031413
 30
0.0
 40
3.531717092982074
100
AcDbArc
 50
133.0567442409
 51
153.2721274017
  0
LINE
  5
34B
330
1F
100
AcDbEntity
  8
0
  6
Continuous
 62
     7
370
    15
100
AcDbLine
 10
664.9726855892
 20
514.0367325744
 30
0.0
 11
664.8522395033
 21
513.9235508046
 31
0.0
  0
LINE
  5
34C
330
1F
100
AcDbEntity
  8
0
  6
Continuous
 62
     7
370
    15
100
AcDbLine
 10
678.2328266042
 20
563.860586693
 30
0.0
 11
678.2805401224
 21
563.7023484683
 31
0.0
  0
ARC
  5
34D
330
1F
100
AcDbEntity
  8
0
  6
Continuous
 62
     7
370
    15
100
AcDbCircle
 10
681.6108390373
 20
564.8897549838
 30
0.0
 40
3.531310715422848
100
AcDbArc
 50
176.726509837
 51
196.9442389136
  0
LINE
  5
34E
330
1F
100
AcDbEntity
  8
0
  6
Continuous
 62
     7
370
    15
100
AcDbLine
 10
651.1134731907
 20
573.8713912083
 30
0.0
 11
676.8765527147
 21
566.968193592
 31
0.0
  0
LWPOLYLINE
  5
34F
330
1F
100
AcDbEntity
  8
0
  6
Continuous
 62
     7
370
    15
100
AcDbPolyline
 90
        9
 70
   128
 43
0.0
 10
650.0113386053
 20
572.81416849
 10
650.1504260439
 20
573.0719376239
 10
650.2938720721
 20
573.2998574036
 10
650.4393148559
 20
573.4941659844
 10
650.5843478578
 20
573.6516565899
 10
650.726586892
 20
573.7697296077
 10
650.8636701244
 20
573.8464364782
 10
650.9933474797
 20
573.8805111846
 10
651.1134731907
 20
573.8713912083
  0
ARC
  5
350
330
1F
100
AcDbEntity
  8
0
  6
Continuous
 62
     7
370
    15
100
AcDbCircle
 10
646.6268346777
 20
574.3507333659
 30
0.0
 40
3.71697436821732
100
AcDbArc
 50
313.312582342
 51
335.5819500703
  0
LINE
  5
351
330
1F
100
AcDbEntity
  8
0
  6
Continuous
 62
     7
370
    15
100
AcDbLine
 10
649.0492451328
 20
571.5257246862
 30
0.0
 11
649.1765979069
 21
571.646180551
 31
0.0
  0
LINE
  5
352
330
1F
100
AcDbEntity
  8
0
  6
Continuous
 62
     7
370
    15
100
AcDbLine
 10
647.4781337518
 20
571.946704376
 30
0.0
 11
647.8145945209
 21
573.2024078839
 31
0.0
  0
LWPOLYLINE
  5
353
330
1F
100
AcDbEntity
  8
0
  6
Continuous
 62
     7
370
    15
100
AcDbPolyline
 90
        7
 70
   128
 43
0.0
 10
650.2292010325
 20
578.2494359533
 10
650.0209275025
 20
578.245564911
 10
649.7908163208
 20
578.1304827774
 10
649.5477187771
 20
577.9086119378
 10
649.3009704489
 20
577.5884786504
 10
649.0600484747
 20
577.1823856863
 10
648.9826518434
 20
577.0305323763
  0
LINE
  5
354
330
1F
100
AcDbEntity
  8
0
  6
Continuous
 62
     7
370
    15
100
AcDbLine
 10
650.2292010325
 20
578.2494359533
 30
0.0
 11
679.4859993595
 21
570.4101001261
 31
0.0
  0
LINE
  5
355
330
1F
100
AcDbEntity
  8
0
  6
Continuous
 62
     7
370
    15
100
AcDbLine
 10
662.9644635457
 20
507.5440843007
 30
0.0
 11
636.0311809319
 21
514.7608321509
 31
0.0
  0
LWPOLYLINE
  5
356
330
1F
100
AcDbEntity
  8
0
  6
Continuous
 62
     7
370
    15
100
AcDbPolyline
 90
        5
 70
   128
 43
0.0
 10
650.1492488521
 20
574.6473922405
 10
649.9008613962
 20
573.9215811714
 10
649.5896953481
 20
573.3332214527
 10
649.26312895
 20
572.9718854068
 10
648.9708799261
 20
572.8925832896
  0
LWPOLYLINE
  5
357
330
1F
100
AcDbEntity
  8
0
  6
Continuous
 62
     7
370
    15
100
AcDbPolyline
 90
        5
 70
   128
 43
0.0
 10
650.0061530012
 20
576.7562865163
 10
650.2196046847
 20
576.5414818539
 10
650.3217521447
 20
576.0652722907
 10
650.2970460194
 20
575.4001564579
 10
650.1492488521
 20
574.6473922405
  0
LINE
  5
358
330
1F
100
AcDbEntity
  8
0
  6
Continuous
 62
     7
370
    15
100
AcDbLine
 10
651.6352671522
 20
571.8680783989
 30
0.0
 11
675.8685934681
 21
565.3747775009
 31
0.0
  0
LINE
  5
359
330
1F
100
AcDbEntity
  8
0
  6
Continuous
 62
     7
370
    15
100
AcDbLine
 10
662.0476621526
 20
513.7943391106
 30
0.0
 11
637.8143358368
 21
520.2876393101
 31
0.0
  0
ELLIPSE
  5
35A
330
1F
100
AcDbEntity
  8
0
  6
Continuous
 62
     7
370
    15
100
AcDbEllipse
 10
663.6005756962
 20
519.5898934766
 30
0.0
 11
1.552914270614906
 21
5.795554957734453
 31
0.0
210
0.0
220
0.0
230
1.0
 40
0.3639702343
 41
3.141592653589693
 42
4.712388980384674
  0
LINE
  5
35B
330
1F
100
AcDbEntity
  8
0
  6
Continuous
 62
     7
370
    15
100
AcDbLine
 10
676.425092234
 20
559.0140082291
 30
0.0
 11
665.7099801439
 21
519.0246802172
 31
0.0
  0
ELLIPSE
  5
35C
330
1F
100
AcDbEntity
  8
0
  6
Continuous
 62
     7
370
    15
100
AcDbEllipse
 10
674.3156841634
 20
559.579222685
 30
0.0
 11
1.55291427061502
 21
5.795554957734453
 31
0.0
210
0.0
220
0.0
230
1.0
 40
0.3639702343
 41
4.712388980384699
 42
6.283185307179586
  0
LWPOLYLINE
  5
35D
330
1F
100
AcDbEntity
  8
0
  6
Continuous
 62
     7
370
    15
100
AcDbPolyline
 90
        3
 70
   128
 43
0.0
 10
677.6776391405
 20
565.2006294927
 10
677.682675733
 20
565.0510833016
 10
677.6773709196
 20
564.8667410365
  0
ARC
  5
35E
330
1F
100
AcDbEntity
  8
0
  6
Continuous
 62
     7
370
    15
100
AcDbCircle
 10
682.43391201
 20
564.4019253988
 30
0.0
 40
4.779198334669642
100
AcDbArc
 50
174.4186999464
 51
196.6869743631
  0
ARC
  5
35F
330
1F
100
AcDbEntity
  8
0
  6
Continuous
 62
     7
370
    15
100
AcDbCircle
 10
676.1789020188
 20
562.5207208374
 30
0.0
 40
1.752583626150625
100
AcDbArc
 50
355.3246752757
 51
16.8799258849
  0
ARC
  5
360
330
1F
100
AcDbEntity
  8
0
  6
Continuous
 62
     7
370
    15
100
AcDbCircle
 10
663.7431851165
 20
516.1110226897
 30
0.0
 40
1.752852670866642
100
AcDbArc
 50
313.1223863632
 51
334.6742374678
  0
ARC
  5
361
330
1F
100
AcDbEntity
  8
0
  6
Continuous
 62
     7
370
    15
100
AcDbCircle
 10
668.2197271313
 20
511.3542622736
 30
0.0
 40
4.779091186985851
100
AcDbArc
 50
133.3127737206
 51
155.5815709955
  0
LWPOLYLINE
  5
362
330
1F
100
AcDbEntity
  8
0
  6
Continuous
 62
     7
370
    15
100
AcDbPolyline
 90
        3
 70
   128
 43
0.0
 10
663.8681221145
 20
513.3299257955
 10
663.7805479902
 20
513.1676260731
 10
663.7014079231
 20
513.0406346521
  0
LINE
  5
363
330
1F
100
AcDbEntity
  8
0
  6
Continuous
 62
     7
370
    15
100
AcDbLine
 10
662.5854078072
 20
512.8220308921
 30
0.0
 11
636.6196054357
 21
519.779543241
 31
0.0
  0
LWPOLYLINE
  5
364
330
1F
100
AcDbEntity
  8
0
  6
Continuous
 62
     7
370
    15
100
AcDbPolyline
 90
        9
 70
   128
 43
0.0
 10
636.6196054357
 20
519.779543241
 10
636.5512314576
 20
519.8123891255
 10
636.4912542838
 20
519.8717926046
 10
636.4406499404
 20
519.9567776522
 10
636.4002677935
 20
520.0659361085
 10
636.3707634944
 20
520.1974686584
 10
636.3526287812
 20
520.3492109081
 10
636.3461616772
 20
520.5186482868
 10
636.3514664906
 20
520.7029905519
  0
ARC
  5
365
330
1F
100
AcDbEntity
  8
0
  6
Continuous
 62
     7
370
    15
100
AcDbCircle
 10
629.5554614036
 20
521.1457897657
 30
0.0
 40
6.810415280028782
100
AcDbArc
 50
356.2721164399
 51
4.8151835294
  0
ARC
  5
366
330
1F
100
AcDbEntity
  8
0
  6
Continuous
 62
     7
370
    15
100
AcDbCircle
 10
644.0543521574
 20
575.2540414585
 30
0.0
 40
6.809793081313949
100
AcDbArc
 50
325.1841808927
 51
333.728043393
  0
LWPOLYLINE
  5
367
330
1F
100
AcDbEntity
  8
0
  6
Continuous
 62
     7
370
    15
100
AcDbPolyline
 90
        9
 70
   128
 43
0.0
 10
650.1607152957
 20
572.2398067242
 10
650.24828942
 20
572.4021057481
 10
650.3386128086
 20
572.5456106825
 10
650.4301804441
 20
572.6679531741
 10
650.5215022105
 20
572.7671138825
 10
650.6110581893
 20
572.8414562414
 10
650.6973731655
 20
572.8897531167
 10
650.7790166277
 20
572.9112075292
 10
650.8546549219
 20
572.9054654599
  0
LINE
  5
368
330
1F
100
AcDbEntity
  8
0
  6
Continuous
 62
     7
370
    15
100
AcDbLine
 10
650.8546549219
 20
572.9054654599
 30
0.0
 11
676.8204498428
 21
565.9479497349
 31
0.0
  0
LWPOLYLINE
  5
369
330
1F
100
AcDbEntity
  8
0
  6
Continuous
 62
     7
370
    15
100
AcDbPolyline
 90
        9
 70
   128
 43
0.0
 10
676.425092234
 20
559.0140082291
 10
676.3642805952
 20
559.0303045115
 10
676.2837398189
 20
559.0518832556
 10
676.1853772539
 20
559.0782415471
 10
676.0714578766
 20
559.1087656444
 10
675.9446340936
 20
559.1427458799
 10
675.8078861374
 20
559.1793896979
 10
675.6643581527
 20
559.2178458697
 10
675.5174178022
 20
559.2572184628
  0
ELLIPSE
  5
36A
330
1F
100
AcDbEntity
  8
0
  6
Continuous
 62
     7
370
    15
100
AcDbEllipse
 10
673.4080107922
 20
559.8224330318
 30
0.0
 11
1.294095225512706
 21
4.829629131445358
 31
0.0
210
0.0
220
0.0
230
1.0
 40
0.4367642811
 41
4.712388980384716
 42
6.283185307179586
  0
ARC
  5
36B
330
1F
100
AcDbEntity
  8
0
  6
Continuous
 62
     7
370
    15
100
AcDbCircle
 10
674.9232996012
 20
565.5977792415
 30
0.0
 40
0.9712416131570731
100
AcDbArc
 50
256.8354465253
 51
346.7261939486
  0
LWPOLYLINE
  5
36C
330
1F
100
AcDbEntity
  8
0
  6
Continuous
 62
     7
370
    15
100
AcDbPolyline
 90
        9
 70
   128
 43
0.0
 10
665.7099801439
 20
519.0246802172
 10
665.6491685051
 20
519.040974637
 10
665.5686277288
 20
519.0625552437
 10
665.4702651638
 20
519.0889116725
 10
665.3563457865
 20
519.1194367013
 10
665.2295369047
 20
519.1534150741
 10
665.0927740473
 20
519.1900607547
 10
664.9492460626
 20
519.2285169265
 10
664.8023057121
 20
519.2678895196
  0
LINE
  5
36D
330
1F
100
AcDbEntity
  8
0
  6
Continuous
 62
     7
370
    15
100
AcDbLine
 10
664.8023057121
 20
519.2678895196
 30
0.0
 11
675.5174178022
 21
559.2572184628
 31
0.0
  0
ARC
  5
36E
330
1F
100
AcDbEntity
  8
0
  6
Continuous
 62
     7
370
    15
100
AcDbCircle
 10
661.1174946181
 20
514.0738504704
 30
0.0
 40
0.9712560129176693
100
AcDbArc
 50
343.2747020098
 51
73.1637938838
  0
ELLIPSE
  5
36F
330
1F
100
AcDbEntity
  8
0
  6
Continuous
 62
     7
370
    15
100
AcDbEllipse
 10
662.692902325
 20
519.8331038234
 30
0.0
 11
1.294095225512706
 21
4.829629131445358
 31
0.0
210
0.0
220
0.0
230
1.0
 40
0.4367642811
 41
3.141592653589926
 42
4.712388980384694
  0
LINE
  5
370
330
1F
100
AcDbEntity
  8
0
  6
Continuous
 62
     7
370
    15
100
AcDbLine
 10
675.5174178022
 20
559.2572184628
 30
0.0
 11
646.06665106
 21
567.1485279104
 31
0.0
  0
LWPOLYLINE
  5
371
330
1F
100
AcDbEntity
  8
0
  6
Continuous
 62
     7
370
    15
100
AcDbPolyline
 90
        9
 70
   128
 43
0.0
 10
647.3607498544
 20
571.978157002
 10
647.3358798164
 20
571.8853569938
 10
647.2622382778
 20
571.6105232364
 10
647.1426564592
 20
571.1642176262
 10
646.9817164677
 20
570.5635913997
 10
646.7856171864
 20
569.8317259899
 10
646.5618837017
 20
568.996746873
 10
646.3191214341
 20
568.0907418369
 10
646.06665106
 20
567.1485279104
  0
LINE
  5
372
330
1F
100
AcDbEntity
  8
0
  6
Continuous
 62
     7
370
    15
100
AcDbLine
 10
647.3607498544
 20
571.978157002
 30
0.0
 11
674.7021007675
 21
564.6520618698
 31
0.0
  0
LWPOLYLINE
  5
373
330
1F
100
AcDbEntity
  8
0
  6
Continuous
 62
     7
370
    15
100
AcDbPolyline
 90
        9
 70
   128
 43
0.0
 10
644.1348049182
 20
567.666165845
 10
644.2862826723
 20
568.2314940146
 10
644.431941523
 20
568.7750972225
 10
644.5661786336
 20
569.276084972
 10
644.6838382024
 20
569.7152040316
 10
644.7804051775
 20
570.0755797675
 10
644.8521542686
 20
570.3433629474
 10
644.8963362116
 20
570.5082633881
 10
644.9112597245
 20
570.5639434396
  0
ARC
  5
374
330
1F
100
AcDbEntity
  8
0
  6
Continuous
 62
     7
370
    15
100
AcDbCircle
 10
646.8431101984
 20
570.0463052341
 30
0.0
 40
1.999999999999951
100
AcDbArc
 50
75.0
 51
165.0
  0
LWPOLYLINE
  5
375
330
1F
100
AcDbEntity
  8
0
  6
Continuous
 62
     7
370
    15
100
AcDbPolyline
 90
        9
 70
   128
 43
0.0
 10
644.1348049182
 20
567.666165845
 10
644.1719237107
 20
567.6562197855
 10
644.2818570274
 20
567.6267629838
 10
644.4603803891
 20
567.5789279281
 10
644.7006243604
 20
567.5145530491
 10
644.9933725733
 20
567.4361119396
 10
645.3273672003
 20
567.3466192907
 10
645.6897708911
 20
567.2495140112
 10
646.06665106
 20
567.1485279104
  0
CIRCLE
  5
376
330
1F
100
AcDbEntity
  8
0
  6
Continuous
 62
     7
370
    15
100
AcDbCircle
 10
655.1979862238
 20
543.2715774746
 30
0.0
 40
11.00000000000006
  0
LINE
  5
377
330
1F
100
AcDbEntity
  8
0
  6
Continuous
 62
     7
370
    15
100
AcDbLine
 10
636.0311809319
 20
537.423050811
 30
0.0
 11
644.1348049182
 21
567.666165845
 31
0.0
  0
LINE
  5
378
330
1F
100
AcDbEntity
  8
0
  6
Continuous
 62
     7
370
    15
100
AcDbLine
 10
661.3988059896
 20
515.0034752092
 30
0.0
 11
636.0311809319
 21
521.8007106683
 31
0.0
  0
ARC
  5
379
330
1F
100
AcDbEntity
  8
0
  6
Continuous
 62
     7
370
    15
100
AcDbCircle
 10
651.6081812216
 20
573.2363279034
 30
0.0
 40
0.4856335582358794
100
AcDbArc
 50
343.2753491733
 51
73.1631421234
  0
ARC
  5
37A
330
1F
100
AcDbEntity
  8
0
  6
Continuous
 62
     7
370
    15
100
AcDbCircle
 10
651.6006171019
 20
573.2080895702
 30
0.0
 40
0.485631389744108
100
AcDbArc
 50
256.8366896027
 51
346.7249343433
  0
ARC
  5
37B
330
1F
100
AcDbEntity
  8
0
  6
Continuous
 62
     7
370
    15
100
AcDbCircle
 10
637.1067467514
 20
519.1162453597
 30
0.0
 40
0.4856340033849233
100
AcDbArc
 50
256.83707621
 51
346.7249609341
  0
ARC
  5
37C
330
1F
100
AcDbEntity
  8
0
  6
Continuous
 62
     7
370
    15
100
AcDbCircle
 10
637.1143193852
 20
519.1444850113
 30
0.0
 40
0.4856283790751504
100
AcDbArc
 50
343.2749562277
 51
73.1636867636
  0
ARC
  5
37D
330
1F
100
AcDbEntity
  8
0
  6
Continuous
 62
     7
370
    15
100
AcDbCircle
 10
650.6899656276
 20
572.091092804
 30
0.0
 40
0.9712519741235782
100
AcDbArc
 50
256.8360534147
 51
346.7255705313
  0
ARC
  5
37E
330
1F
100
AcDbEntity
  8
0
  6
Continuous
 62
     7
370
    15
100
AcDbCircle
 10
636.8841621667
 20
520.5671473774
 30
0.0
 40
0.9712609413963265
100
AcDbArc
 50
343.2749921833
 51
73.1635037102
  0
LINE
  5
37F
330
1F
100
AcDbEntity
  8
0
  6
Continuous
 62
     7
370
    15
100
AcDbLine
 10
593.4450853008
 20
620.0591985485
 30
0.0
 11
586.2851332265
 21
619.4025416276
 31
0.0
  0
LINE
  5
380
330
1F
100
AcDbEntity
  8
0
  6
Continuous
 62
     7
370
    15
100
AcDbLine
 10
585.1477648455
 20
631.8039398989
 30
0.0
 11
592.3077169198
 21
632.4605968198
 31
0.0
  0
LINE
  5
381
330
1F
100
AcDbEntity
  8
0
  6
Continuous
 62
     7
370
    15
100
AcDbLine
 10
586.2851332265
 20
619.4025416276
 30
0.0
 11
582.1364748615
 21
625.2749104402
 31
0.0
  0
LINE
  5
382
330
1F
100
AcDbEntity
  8
0
  6
Continuous
 62
     7
370
    15
100
AcDbLine
 10
582.1364748615
 20
625.2749104402
 30
0.0
 11
585.1477648455
 21
631.8039398989
 31
0.0
  0
LINE
  5
383
330
1F
100
AcDbEntity
  8
0
  6
Continuous
 62
     7
370
    15
100
AcDbLine
 10
596.4563752848
 20
626.5882280073
 30
0.0
 11
593.4450853008
 21
620.0591985485
 31
0.0
  0
LINE
  5
384
330
1F
100
AcDbEntity
  8
0
  6
Continuous
 62
     7
370
    15
100
AcDbLine
 10
592.3077169198
 20
632.4605968198
 30
0.0
 11
596.4563752848
 21
626.5882280073
 31
0.0
  0
ARC
  5
385
330
1F
100
AcDbEntity
  8
0
  6
Continuous
 62
     7
370
    15
100
AcDbCircle
 10
589.296425131
 20
625.9315692815
 30
0.0
 40
7.189999999999991
100
AcDbArc
 50
305.240102306
 51
5.240102306
  0
ARC
  5
386
330
1F
100
AcDbEntity
  8
0
  6
Continuous
 62
     7
370
    15
100
AcDbCircle
 10
589.296425131
 20
625.9315692815
 30
0.0
 40
7.189999999999974
100
AcDbArc
 50
5.240102306
 51
65.240102306
  0
ARC
  5
387
330
1F
100
AcDbEntity
  8
0
  6
Continuous
 62
     7
370
    15
100
AcDbCircle
 10
589.296425131
 20
625.9315692815
 30
0.0
 40
7.189999999999991
100
AcDbArc
 50
65.240102306
 51
125.240102306
  0
ARC
  5
388
330
1F
100
AcDbEntity
  8
0
  6
Continuous
 62
     7
370
    15
100
AcDbCircle
 10
589.296425131
 20
625.9315692815
 30
0.0
 40
7.189999999999974
100
AcDbArc
 50
185.240102306
 51
245.240102306
  0
ARC
  5
389
330
1F
100
AcDbEntity
  8
0
  6
Continuous
 62
     7
370
    15
100
AcDbCircle
 10
589.296425131
 20
625.9315692815
 30
0.0
 40
7.189999999999991
100
AcDbArc
 50
125.240102306
 51
185.240102306
  0
ARC
  5
38A
330
1F
100
AcDbEntity
  8
0
  6
Continuous
 62
     7
370
    15
100
AcDbCircle
 10
589.296425131
 20
625.9315692815
 30
0.0
 40
7.189999999999991
100
AcDbArc
 50
245.240102306
 51
305.240102306
  0
LINE
  5
38B
330
1F
100
AcDbEntity
  8
0
  6
Continuous
 62
     7
370
    15
100
AcDbLine
 10
588.6397662896
 20
530.5610362789
 30
0.0
 11
595.1687957484
 21
527.5497462949
 31
0.0
  0
LINE
  5
38C
330
1F
100
AcDbEntity
  8
0
  6
Continuous
 62
     7
370
    15
100
AcDbLine
 10
595.1687957484
 20
527.5497462949
 30
0.0
 11
595.8254526693
 21
520.3897942206
 31
0.0
  0
LINE
  5
38D
330
1F
100
AcDbEntity
  8
0
  6
Continuous
 62
     7
370
    15
100
AcDbLine
 10
582.767397477
 20
526.4123779139
 30
0.0
 11
588.6397662896
 21
530.5610362789
 31
0.0
  0
LINE
  5
38E
330
1F
100
AcDbEntity
  8
0
  6
Continuous
 62
     7
370
    15
100
AcDbLine
 10
583.4240543979
 20
519.2524258396
 30
0.0
 11
582.767397477
 21
526.4123779139
 31
0.0
  0
LINE
  5
38F
330
1F
100
AcDbEntity
  8
0
  6
Continuous
 62
     7
370
    15
100
AcDbLine
 10
589.9530838567
 20
516.2411358556
 30
0.0
 11
583.4240543979
 21
519.2524258396
 31
0.0
  0
LINE
  5
390
330
1F
100
AcDbEntity
  8
0
  6
Continuous
 62
     7
370
    15
100
AcDbLine
 10
595.8254526693
 20
520.3897942206
 30
0.0
 11
589.9530838567
 21
516.2411358556
 31
0.0
  0
ARC
  5
391
330
1F
100
AcDbEntity
  8
0
  6
Continuous
 62
     7
370
    15
100
AcDbCircle
 10
589.296425131
 20
523.4010860095
 30
0.0
 40
7.189999999999969
100
AcDbArc
 50
215.240102306
 51
275.240102306
  0
ARC
  5
392
330
1F
100
AcDbEntity
  8
0
  6
Continuous
 62
     7
370
    15
100
AcDbCircle
 10
589.296425131
 20
523.4010860095
 30
0.0
 40
7.190000000000084
100
AcDbArc
 50
335.240102306
 51
35.240102306
  0
ARC
  5
393
330
1F
100
AcDbEntity
  8
0
  6
Continuous
 62
     7
370
    15
100
AcDbCircle
 10
589.296425131
 20
523.4010860095
 30
0.0
 40
7.189999999999927
100
AcDbArc
 50
155.240102306
 51
215.240102306
  0
ARC
  5
394
330
1F
100
AcDbEntity
  8
0
  6
Continuous
 62
     7
370
    15
100
AcDbCircle
 10
589.296425131
 20
523.4010860095
 30
0.0
 40
7.190000000000029
100
AcDbArc
 50
275.240102306
 51
335.240102306
  0
ARC
  5
395
330
1F
100
AcDbEntity
  8
0
  6
Continuous
 62
     7
370
    15
100
AcDbCircle
 10
589.296425131
 20
523.4010860095
 30
0.0
 40
7.190000000000084
100
AcDbArc
 50
35.240102306
 51
95.240102306
  0
ARC
  5
396
330
1F
100
AcDbEntity
  8
0
  6
Continuous
 62
     7
370
    15
100
AcDbCircle
 10
589.296425131
 20
523.4010860095
 30
0.0
 40
7.190000000000071
100
AcDbArc
 50
95.240102306
 51
155.240102306
  0
LINE
  5
397
330
1F
100
AcDbEntity
  8
0
  6
Continuous
 62
     7
370
    15
100
AcDbLine
 10
490.9146021444
 20
517.5287153921
 30
0.0
 11
483.7546500701
 21
516.8720584712
 31
0.0
  0
LINE
  5
398
330
1F
100
AcDbEntity
  8
0
  6
Continuous
 62
     7
370
    15
100
AcDbLine
 10
483.7546500701
 20
516.8720584712
 30
0.0
 11
479.6059917051
 21
522.7444272837
 31
0.0
  0
LINE
  5
399
330
1F
100
AcDbEntity
  8
0
  6
Continuous
 62
     7
370
    15
100
AcDbLine
 10
479.6059917051
 20
522.7444272837
 30
0.0
 11
482.617281689
 21
529.2734567425
 31
0.0
  0
LINE
  5
39A
330
1F
100
AcDbEntity
  8
0
  6
Continuous
 62
     7
370
    15
100
AcDbLine
 10
489.7772337633
 20
529.9301136634
 30
0.0
 11
493.9258921283
 21
524.0577448508
 31
0.0
  0
LINE
  5
39B
330
1F
100
AcDbEntity
  8
0
  6
Continuous
 62
     7
370
    15
100
AcDbLine
 10
493.9258921283
 20
524.0577448508
 30
0.0
 11
490.9146021444
 21
517.5287153921
 31
0.0
  0
LINE
  5
39C
330
1F
100
AcDbEntity
  8
0
  6
Continuous
 62
     7
370
    15
100
AcDbLine
 10
482.617281689
 20
529.2734567425
 30
0.0
 11
489.7772337633
 21
529.9301136634
 31
0.0
  0
ARC
  5
39D
330
1F
100
AcDbEntity
  8
0
  6
Continuous
 62
     7
370
    15
100
AcDbCircle
 10
486.7659418589
 20
523.4010860095
 30
0.0
 40
7.189999999999998
100
AcDbArc
 50
245.240102306
 51
305.240102306
  0
ARC
  5
39E
330
1F
100
AcDbEntity
  8
0
  6
Continuous
 62
     7
370
    15
100
AcDbCircle
 10
486.7659418589
 20
523.4010860095
 30
0.0
 40
7.189999999999974
100
AcDbArc
 50
5.240102306
 51
65.240102306
  0
ARC
  5
39F
330
1F
100
AcDbEntity
  8
0
  6
Continuous
 62
     7
370
    15
100
AcDbCircle
 10
486.7659418589
 20
523.4010860095
 30
0.0
 40
7.189999999999969
100
AcDbArc
 50
305.240102306
 51
5.240102306
  0
ARC
  5
3A0
330
1F
100
AcDbEntity
  8
0
  6
Continuous
 62
     7
370
    15
100
AcDbCircle
 10
486.7659418589
 20
523.4010860095
 30
0.0
 40
7.19000000000005
100
AcDbArc
 50
125.240102306
 51
185.240102306
  0
ARC
  5
3A1
330
1F
100
AcDbEntity
  8
0
  6
Continuous
 62
     7
370
    15
100
AcDbCircle
 10
486.7659418589
 20
523.4010860095
 30
0.0
 40
7.19000000000005
100
AcDbArc
 50
65.240102306
 51
125.240102306
  0
ARC
  5
3A2
330
1F
100
AcDbEntity
  8
0
  6
Continuous
 62
     7
370
    15
100
AcDbCircle
 10
486.7659418589
 20
523.4010860095
 30
0.0
 40
7.190000000000026
100
AcDbArc
 50
185.240102306
 51
245.240102306
  0
LINE
  5
3A3
330
1F
100
AcDbEntity
  8
0
  6
Continuous
 62
     7
370
    15
100
AcDbLine
 10
480.2369143206
 20
628.9428610703
 30
0.0
 11
486.1092831331
 21
633.0915194354
 31
0.0
  0
LINE
  5
3A4
330
1F
100
AcDbEntity
  8
0
  6
Continuous
 62
     7
370
    15
100
AcDbLine
 10
480.8935712415
 20
621.7829089961
 30
0.0
 11
480.2369143206
 21
628.9428610703
 31
0.0
  0
LINE
  5
3A5
330
1F
100
AcDbEntity
  8
0
  6
Continuous
 62
     7
370
    15
100
AcDbLine
 10
492.6383125919
 20
630.0802294514
 30
0.0
 11
493.2949695128
 21
622.9202773771
 31
0.0
  0
LINE
  5
3A6
330
1F
100
AcDbEntity
  8
0
  6
Continuous
 62
     7
370
    15
100
AcDbLine
 10
487.4226007003
 20
618.7716190121
 30
0.0
 11
480.8935712415
 21
621.7829089961
 31
0.0
  0
LINE
  5
3A7
330
1F
100
AcDbEntity
  8
0
  6
Continuous
 62
     7
370
    15
100
AcDbLine
 10
493.2949695128
 20
622.9202773771
 30
0.0
 11
487.4226007003
 21
618.7716190121
 31
0.0
  0
LINE
  5
3A8
330
1F
100
AcDbEntity
  8
0
  6
Continuous
 62
     7
370
    15
100
AcDbLine
 10
486.1092831331
 20
633.0915194354
 30
0.0
 11
492.6383125919
 21
630.0802294514
 31
0.0
  0
ARC
  5
3A9
330
1F
100
AcDbEntity
  8
0
  6
Continuous
 62
     7
370
    15
100
AcDbCircle
 10
486.7659418589
 20
625.9315692815
 30
0.0
 40
7.190000000000029
100
AcDbArc
 50
275.240102306
 51
335.240102306
  0
ARC
  5
3AA
330
1F
100
AcDbEntity
  8
0
  6
Continuous
 62
     7
370
    15
100
AcDbCircle
 10
486.7659418589
 20
625.9315692815
 30
0.0
 40
7.190000000000084
100
AcDbArc
 50
35.240102306
 51
95.240102306
  0
ARC
  5
3AB
330
1F
100
AcDbEntity
  8
0
  6
Continuous
 62
     7
370
    15
100
AcDbCircle
 10
486.7659418589
 20
625.9315692815
 30
0.0
 40
7.190000000000071
100
AcDbArc
 50
95.240102306
 51
155.240102306
  0
ARC
  5
3AC
330
1F
100
AcDbEntity
  8
0
  6
Continuous
 62
     7
370
    15
100
AcDbCircle
 10
486.7659418589
 20
625.9315692815
 30
0.0
 40
7.189999999999974
100
AcDbArc
 50
155.240102306
 51
215.240102306
  0
ARC
  5
3AD
330
1F
100
AcDbEntity
  8
0
  6
Continuous
 62
     7
370
    15
100
AcDbCircle
 10
486.7659418589
 20
625.9315692815
 30
0.0
 40
7.189999999999971
100
AcDbArc
 50
215.240102306
 51
275.240102306
  0
ARC
  5
3AE
330
1F
100
AcDbEntity
  8
0
  6
Continuous
 62
     7
370
    15
100
AcDbCircle
 10
486.7659418589
 20
625.9315692815
 30
0.0
 40
7.190000000000084
100
AcDbArc
 50
335.240102306
 51
35.240102306
  0
SPLINE
  5
3AF
330
1F
100
AcDbEntity
  8
0
  6
Continuous
 62
     7
370
    15
100
AcDbSpline
210
0.0
220
0.0
230
1.0
 70
     8
 71
     3
 72
    15
 73
    11
 74
     0
 42
0.00000001
 43
0.00000001
 12
1.0
 22
0.0
 32
0.0
 13
1.0
 23
0.0
 33
0.0
 40
0.0
 40
0.0
 40
0.0
 40
0.0
 40
0.1249999053834623
 40
0.2500000296035733
 40
0.3749999942636322
 40
0.5000000000000323
 40
0.6250000057363677
 40
0.7499999703964266
 40
0.8750000946165377
 40
1.0
 40
1.0
 40
1.0
 40
1.0
 10
545.0311837109929
 20
613.6663284501557
 30
0.0
 10
544.9259621686138
 20
614.5825020200854
 30
0.0
 10
544.7155188996447
 20
616.4148507638849
 30
0.0
 10
543.0967778649052
 20
618.7449390636478
 30
0.0
 10
540.7829607772358
 20
620.3018505206254
 30
0.0
 10
538.0311834949258
 20
620.8485663719799
 30
0.0
 10
535.279406212616
 20
620.3018505206252
 30
0.0
 10
532.965589124947
 20
618.7449390636478
 30
0.0
 10
531.3468480902076
 20
616.4148507638849
 30
0.0
 10
531.1364048212384
 20
614.5825020200854
 30
0.0
 10
531.0311832788592
 20
613.6663284501557
 30
0.0
  0
LINE
  5
3B0
330
1F
100
AcDbEntity
  8
0
  6
Continuous
 62
     7
370
    15
100
AcDbLine
 10
545.031183711
 20
608.6074512801
 30
0.0
 11
545.031183711
 21
613.6663284502
 31
0.0
  0
ARC
  5
3B1
330
1F
100
AcDbEntity
  8
0
  6
Continuous
 62
     7
370
    15
100
AcDbCircle
 10
550.0311834949
 20
608.6074531424
 30
0.0
 40
5.000000000000094
100
AcDbArc
 50
180.0
 51
250.5287793655
  0
ARC
  5
3B2
330
1F
100
AcDbEntity
  8
0
  6
Continuous
 62
     7
370
    15
100
AcDbCircle
 10
538.0311834949
 20
574.6663276455
 30
0.0
 40
31.00000000000002
100
AcDbArc
 50
349.4712206345
 51
70.5287793655
  0
ARC
  5
3B3
330
1F
100
AcDbEntity
  8
0
  6
Continuous
 62
     7
370
    15
100
AcDbCircle
 10
573.4250604083
 20
568.0880697424
 30
0.0
 40
5.000000000000016
100
AcDbArc
 50
169.4712206345
 51
240.0
  0
LINE
  5
3B4
330
1F
100
AcDbEntity
  8
0
  6
Continuous
 62
     7
370
    15
100
AcDbLine
 10
575.3061737257
 20
561.2285051844
 30
0.0
 11
570.9250609714
 21
563.7579428381
 31
0.0
  0
SPLINE
  5
3B5
330
1F
100
AcDbEntity
  8
0
  6
Continuous
 62
     7
370
    15
100
AcDbSpline
210
0.0
220
0.0
230
1.0
 70
     8
 71
     3
 72
    15
 73
    11
 74
     0
 42
0.00000001
 43
0.00000001
 12
1.0
 22
0.0
 32
0.0
 13
1.0
 23
0.0
 33
0.0
 40
0.0
 40
0.0
 40
0.0
 40
0.0
 40
0.1249999727422009
 40
0.2500000625127978
 40
0.3749999674345826
 40
0.5000000245580339
 40
0.6249999973002349
 40
0.7500000075823017
 40
0.8750000271869244
 40
1.0
 40
1.0
 40
1.0
 40
1.0
 10
568.3061744409806
 20
549.1041493019585
 30
0.0
 10
569.152215269542
 20
548.737186507875
 30
0.0
 10
570.8442977187517
 20
548.0032605761473
 30
0.0
 10
573.6715837006095
 20
548.240090508592
 30
0.0
 10
576.1768166701709
 20
549.4654581602119
 30
0.0
 10
578.0261772742236
 20
551.5752072456261
 30
0.0
 10
578.9285962298931
 20
554.2316758305616
 30
0.0
 10
578.7371738067942
 20
557.0139543177871
 30
0.0
 10
577.5286337896985
 20
559.5808715971282
 30
0.0
 10
576.0469936546117
 20
560.6792940571484
 30
0.0
 10
575.3061737257248
 20
561.2285051843647
 30
0.0
  0
LINE
  5
3B6
330
1F
100
AcDbEntity
  8
0
  6
Continuous
 62
     7
370
    15
100
AcDbLine
 10
563.925059824
 20
551.633587887
 30
0.0
 11
568.306174441
 21
549.104149302
 31
0.0
  0
ARC
  5
3B7
330
1F
100
AcDbEntity
  8
0
  6
Continuous
 62
     7
370
    15
100
AcDbCircle
 10
561.4250604083
 20
547.3034600516
 30
0.0
 40
5.000000000000016
100
AcDbArc
 50
60.0
 51
130.5287793655
  0
ARC
  5
3B8
330
1F
100
AcDbEntity
  8
0
  6
Continuous
 62
     7
370
    15
100
AcDbCircle
 10
538.0311834949
 20
574.6663276455
 30
0.0
 40
30.99999999999998
100
AcDbArc
 50
229.4712206345
 51
310.5287793655
  0
ARC
  5
3B9
330
1F
100
AcDbEntity
  8
0
  6
Continuous
 62
     7
370
    15
100
AcDbCircle
 10
514.6373065815
 20
547.3034600516
 30
0.0
 40
5.000000000000073
100
AcDbArc
 50
49.4712206345
 51
120.0
  0
LINE
  5
3BA
330
1F
100
AcDbEntity
  8
0
  6
Continuous
 62
     7
370
    15
100
AcDbLine
 10
507.7561925489
 20
549.104149302
 30
0.0
 11
512.1373071659
 21
551.633587887
 31
0.0
  0
SPLINE
  5
3BB
330
1F
100
AcDbEntity
  8
0
  6
Continuous
 62
     7
370
    15
100
AcDbSpline
210
0.0
220
0.0
230
1.0
 70
     8
 71
     3
 72
    15
 73
    11
 74
     0
 42
0.00000001
 43
0.00000001
 12
1.0
 22
0.0
 32
0.0
 13
1.0
 23
0.0
 33
0.0
 40
0.0
 40
0.0
 40
0.0
 40
0.0
 40
0.1249999728130756
 40
0.2499999924176984
 40
0.3750000026997652
 40
0.4999999754419661
 40
0.6250000325654175
 40
0.7499999374872023
 40
0.8750000272577991
 40
1.0
 40
1.0
 40
1.0
 40
1.0
 10
500.7561932641274
 20
561.2285051843647
 30
0.0
 10
500.0153733352405
 20
560.6792940571484
 30
0.0
 10
498.5337332001538
 20
559.5808715971282
 30
0.0
 10
497.3251931830579
 20
557.0139543177871
 30
0.0
 10
497.1337707599591
 20
554.2316758305616
 30
0.0
 10
498.0361897156285
 20
551.5752072456261
 30
0.0
 10
499.8855503196813
 20
549.4654581602119
 30
0.0
 10
502.3907832892428
 20
548.240090508592
 30
0.0
 10
505.2180692711005
 20
548.0032605761473
 30
0.0
 10
506.9101517203101
 20
548.737186507875
 30
0.0
 10
507.7561925488716
 20
549.1041493019585
 30
0.0
  0
LINE
  5
3BC
330
1F
100
AcDbEntity
  8
0
  6
Continuous
 62
     7
370
    15
100
AcDbLine
 10
505.1373060185
 20
563.7579428381
 30
0.0
 11
500.7561932641
 21
561.2285051844
 31
0.0
  0
ARC
  5
3BD
330
1F
100
AcDbEntity
  8
0
  6
Continuous
 62
     7
370
    15
100
AcDbCircle
 10
502.6373065815
 20
568.0880697424
 30
0.0
 40
5.000000000000012
100
AcDbArc
 50
300.0
 51
10.5287793655
  0
ARC
  5
3BE
330
1F
100
AcDbEntity
  8
0
  6
Continuous
 62
     7
370
    15
100
AcDbCircle
 10
538.0311834949
 20
574.6663276455
 30
0.0
 40
31.00000000000001
100
AcDbArc
 50
109.4712206345
 51
190.5287793655
  0
ARC
  5
3BF
330
1F
100
AcDbEntity
  8
0
  6
Continuous
 62
     7
370
    15
100
AcDbCircle
 10
526.0311834949
 20
608.6074531424
 30
0.0
 40
5.000000000000026
100
AcDbArc
 50
289.4712206345
 51
0.0
  0
LINE
  5
3C0
330
1F
100
AcDbEntity
  8
0
  6
Continuous
 62
     7
370
    15
100
AcDbLine
 10
531.0311832789
 20
613.6663284502
 30
0.0
 11
531.0311832789
 21
608.6074512801
 31
0.0
  0
CIRCLE
  5
3C1
330
1F
100
AcDbEntity
  8
0
  6
Continuous
 62
     7
370
    15
100
AcDbCircle
 10
538.0311834949
 20
613.6663276455
 30
0.0
 40
2.5
  0
CIRCLE
  5
3C2
330
1F
100
AcDbEntity
  8
0
  6
Continuous
 62
     7
370
    15
100
AcDbCircle
 10
571.8061742425
 20
555.1663276455
 30
0.0
 40
2.5
  0
CIRCLE
  5
3C3
330
1F
100
AcDbEntity
  8
0
  6
Continuous
 62
     7
370
    15
100
AcDbCircle
 10
504.2561927473
 20
555.1663276455
 30
0.0
 40
2.5
  0
SPLINE
  5
3C4
330
1F
100
AcDbEntity
  8
0
  6
Continuous
 62
     7
370
    15
100
AcDbSpline
210
0.0
220
0.0
230
1.0
 70
     8
 71
     3
 72
    17
 73
    13
 74
     0
 42
0.00000001
 43
0.00000001
 12
1.0
 22
0.0
 32
0.0
 13
1.0
 23
0.0
 33
0.0
 40
0.0
 40
0.0
 40
0.0
 40
0.0
 40
0.1213783473240104
 40
0.2287704143932521
 40
0.3361526731291627
 40
0.4436164546014184
 40
0.5508534581634676
 40
0.6584382597736178
 40
0.7657324509372235
 40
0.8731532639263067
 40
0.9805548816852668
 40
1.0
 40
1.0
 40
1.0
 40
1.0
 10
545.0311837109929
 20
622.6663280627255
 30
0.0
 10
544.9324373383691
 20
623.5573490858477
 30
0.0
 10
544.7463230182865
 20
625.2367198565555
 30
0.0
 10
543.3882900745009
 20
627.3655363084836
 30
0.0
 10
541.5429739284517
 20
628.8778998325607
 30
0.0
 10
539.2862305046052
 20
629.6886947298294
 30
0.0
 10
536.8912659105491
 20
629.7084705568204
 30
0.0
 10
534.6246685171699
 20
628.9347482851649
 30
0.0
 10
532.7406207667531
 20
627.4524975798302
 30
0.0
 10
531.4584765113527
 20
625.4340321261079
 30
0.0
 10
531.051117387401
 20
623.733318527271
 30
0.0
 10
531.0338329212519
 20
622.8081524719553
 30
0.0
 10
531.0311832788592
 20
622.6663280627255
 30
0.0
  0
LINE
  5
3C5
330
1F
100
AcDbEntity
  8
0
  6
Continuous
 62
     7
370
    15
100
AcDbLine
 10
531.0311832789
 20
622.6663280627
 30
0.0
 11
531.0311832789
 21
613.6663284502
 31
0.0
  0
LINE
  5
3C6
330
1F
100
AcDbEntity
  8
0
  6
Continuous
 62
     7
370
    15
100
AcDbLine
 10
545.031183711
 20
613.6663284502
 30
0.0
 11
545.031183711
 21
622.6663280627
 31
0.0
  0
SPLINE
  5
3C7
330
1F
100
AcDbEntity
  8
0
  6
Continuous
 62
     7
370
    15
100
AcDbSpline
210
0.0
220
0.0
230
1.0
 70
     8
 71
     3
 72
    17
 73
    13
 74
     0
 42
0.00000001
 43
0.00000001
 12
1.0
 22
0.0
 32
0.0
 13
1.0
 23
0.0
 33
0.0
 40
0.0
 40
0.0
 40
0.0
 40
0.0
 40
0.1213783310908782
 40
0.2287705016429374
 40
0.3361527474989803
 40
0.4436164547390193
 40
0.5508534261661047
 40
0.6584383144708851
 40
0.765732531611393
 40
0.873153182975337
 40
0.9805547654929891
 40
0.9999999999999999
 40
0.9999999999999999
 40
0.9999999999999999
 40
0.9999999999999999
 10
492.9619658130413
 20
556.7285053780798
 30
0.0
 10
492.2396918266721
 20
556.1974783657387
 30
0.0
 10
490.8783699111349
 20
555.1966134262768
 30
0.0
 10
489.7137758210641
 20
552.9561135656404
 30
0.0
 10
489.3266884932889
 20
550.6018404690465
 30
0.0
 10
489.7528913392708
 20
548.2420465497231
 30
0.0
 10
490.9332453067956
 20
546.158057087151
 30
0.0
 10
492.7366096940922
 20
544.5819870637591
 30
0.0
 10
494.9623015747231
 20
543.6914850945727
 30
0.0
 10
497.3514155794328
 20
543.5903405489317
 30
0.0
 10
499.0279536780968
 20
544.0879208561806
 30
0.0
 10
499.8378156932354
 20
544.5355320496191
 30
0.0
 10
499.9619650977856
 20
544.6041494956736
 30
0.0
  0
LINE
  5
3C8
330
1F
100
AcDbEntity
  8
0
  6
Continuous
 62
     7
370
    15
100
AcDbLine
 10
492.961965813
 20
556.7285053781
 30
0.0
 11
500.7561932641
 21
561.2285051844
 31
0.0
  0
LINE
  5
3C9
330
1F
100
AcDbEntity
  8
0
  6
Continuous
 62
     7
370
    15
100
AcDbLine
 10
507.7561925489
 20
549.104149302
 30
0.0
 11
499.9619650978
 21
544.6041494957
 31
0.0
  0
SPLINE
  5
3CA
330
1F
100
AcDbEntity
  8
0
  6
Continuous
 62
     7
370
    15
100
AcDbSpline
210
0.0
220
0.0
230
1.0
 70
     8
 71
     3
 72
    17
 73
    13
 74
     0
 42
0.00000001
 43
0.00000001
 12
1.0
 22
0.0
 32
0.0
 13
1.0
 23
0.0
 33
0.0
 40
0.0
 40
0.0
 40
0.0
 40
0.0
 40
0.121378379260704
 40
0.2287704068150261
 40
0.3361527147093739
 40
0.443616457756994
 40
0.5508534193744581
 40
0.6584381958343088
 40
0.7657324172266152
 40
0.8731530943169563
 40
0.9805547443855832
 40
1.0
 40
1.0
 40
1.0
 40
1.0
 10
576.1004018920665
 20
544.6041494956736
 30
0.0
 10
576.9214222763231
 20
544.2441553512369
 30
0.0
 10
578.4688573998916
 20
543.5656489535127
 30
0.0
 10
580.9914836997661
 20
543.6773325491343
 30
0.0
 10
583.2238883227554
 20
544.5192401856499
 30
0.0
 10
585.0544267870902
 20
546.0682424137742
 30
0.0
 10
586.2690399758001
 20
548.1324519109762
 30
0.0
 10
586.7322711432232
 20
550.4822456623018
 30
0.0
 10
586.3906289399872
 20
552.8550034516552
 30
0.0
 10
585.2836606086184
 20
554.9746061549534
 30
0.0
 10
584.0144795659523
 20
556.1777493984094
 30
0.0
 10
583.221901110716
 20
556.6552985110073
 30
0.0
 10
583.1004011768109
 20
556.7285053780798
 30
0.0
  0
LINE
  5
3CB
330
1F
100
AcDbEntity
  8
0
  6
Continuous
 62
     7
370
    15
100
AcDbLine
 10
576.1004018921
 20
544.6041494957
 30
0.0
 11
568.306174441
 21
549.104149302
 31
0.0
  0
LINE
  5
3CC
330
1F
100
AcDbEntity
  8
0
  6
Continuous
 62
     7
370
    15
100
AcDbLine
 10
575.3061737257
 20
561.2285051844
 30
0.0
 11
583.1004011768
 21
556.7285053781
 31
0.0
  0
CIRCLE
  5
3CD
330
1F
100
AcDbEntity
  8
0
  6
Continuous
 62
     7
370
    15
100
AcDbCircle
 10
571.8061742425
 20
555.1663276455
 30
0.0
 40
2.099999999999909
  0
CIRCLE
  5
3CE
330
1F
100
AcDbEntity
  8
0
  6
Continuous
 62
     7
370
    15
100
AcDbCircle
 10
538.0311834949
 20
613.6663276455
 30
0.0
 40
2.100000000000023
  0
CIRCLE
  5
3CF
330
1F
100
AcDbEntity
  8
0
  6
Continuous
 62
     7
370
    15
100
AcDbCircle
 10
504.2561927473
 20
555.1663276455
 30
0.0
 40
2.100000000000023
  0
ARC
  5
3D0
330
1F
100
AcDbEntity
  8
0
  6
Continuous
 62
     7
370
    15
100
AcDbCircle
 10
489.2531480224
 20
635.532601192
 30
0.0
 40
2.0000000000001
100
AcDbArc
 50
65.240102306
 51
128.708573461
  0
LINE
  5
3D1
330
1F
100
AcDbEntity
  8
0
  6
Continuous
 62
     7
370
    15
100
AcDbLine
 10
500.6454739112
 20
632.4807506403
 30
0.0
 11
490.0907802719
 21
637.3487402102
 31
0.0
  0
ARC
  5
3D2
330
1F
100
AcDbEntity
  8
0
  6
Continuous
 62
     7
370
    15
100
AcDbCircle
 10
501.9019233973
 20
635.204964604
 30
0.0
 40
2.999999999999906
100
AcDbArc
 50
245.240102306
 51
300.8286141035
  0
ARC
  5
3D3
330
1F
100
AcDbEntity
  8
0
  6
Continuous
 62
     7
370
    15
100
AcDbCircle
 10
538.0311834949
 20
574.6663276455
 30
0.0
 40
67.5000000000001
100
AcDbArc
 50
59.1713858965
 51
120.8286141035
  0
ARC
  5
3D4
330
1F
100
AcDbEntity
  8
0
  6
Continuous
 62
     7
370
    15
100
AcDbCircle
 10
574.1604435925
 20
635.204964604
 30
0.0
 40
3.000000000000061
100
AcDbArc
 50
239.1713858965
 51
294.759897694
  0
LINE
  5
3D5
330
1F
100
AcDbEntity
  8
0
  6
Continuous
 62
     7
370
    15
100
AcDbLine
 10
585.971586718
 20
637.3487402102
 30
0.0
 11
575.4168930787
 21
632.4807506403
 31
0.0
  0
ARC
  5
3D6
330
1F
100
AcDbEntity
  8
0
  6
Continuous
 62
     7
370
    15
100
AcDbCircle
 10
586.8092189675
 20
635.532601192
 30
0.0
 40
1.99999999999994
100
AcDbArc
 50
51.291426539
 51
114.759897694
  0
ARC
  5
3D7
330
1F
100
AcDbEntity
  8
0
  6
Continuous
 62
     7
370
    15
100
AcDbCircle
 10
538.0311834949
 20
574.6663276455
 30
0.0
 40
80.00000000000006
100
AcDbArc
 50
38.708573461
 51
51.291426539
  0
ARC
  5
3D8
330
1F
100
AcDbEntity
  8
0
  6
Continuous
 62
     7
370
    15
100
AcDbCircle
 10
598.8974570414
 20
623.444363118
 30
0.0
 40
2.0000000000001
100
AcDbArc
 50
335.240102306
 51
38.708573461
  0
LINE
  5
3D9
330
1F
100
AcDbEntity
  8
0
  6
Continuous
 62
     7
370
    15
100
AcDbLine
 10
595.8456064898
 20
612.0520372293
 30
0.0
 11
600.7135960597
 21
622.6067308685
 31
0.0
  0
ARC
  5
3DA
330
1F
100
AcDbEntity
  8
0
  6
Continuous
 62
     7
370
    15
100
AcDbCircle
 10
598.5698204535
 20
610.7955877431
 30
0.0
 40
3.000000000000057
100
AcDbArc
 50
155.240102306
 51
210.8286141035
  0
ARC
  5
3DB
330
1F
100
AcDbEntity
  8
0
  6
Continuous
 62
     7
370
    15
100
AcDbCircle
 10
538.0311834949
 20
574.6663276455
 30
0.0
 40
67.5
100
AcDbArc
 50
329.1713858965
 51
30.8286141035
  0
ARC
  5
3DC
330
1F
100
AcDbEntity
  8
0
  6
Continuous
 62
     7
370
    15
100
AcDbCircle
 10
598.5698204535
 20
538.5370675479
 30
0.0
 40
3.000000000000104
100
AcDbArc
 50
149.1713858965
 51
204.759897694
  0
LINE
  5
3DD
330
1F
100
AcDbEntity
  8
0
  6
Continuous
 62
     7
370
    15
100
AcDbLine
 10
600.7135960597
 20
526.7259244225
 30
0.0
 11
595.8456064898
 21
537.2806180617
 31
0.0
  0
ARC
  5
3DE
330
1F
100
AcDbEntity
  8
0
  6
Continuous
 62
     7
370
    15
100
AcDbCircle
 10
598.8974570414
 20
525.888292173
 30
0.0
 40
1.99999999999994
100
AcDbArc
 50
321.291426539
 51
24.759897694
  0
ARC
  5
3DF
330
1F
100
AcDbEntity
  8
0
  6
Continuous
 62
     7
370
    15
100
AcDbCircle
 10
538.0311834949
 20
574.6663276455
 30
0.0
 40
80.0
100
AcDbArc
 50
308.708573461
 51
321.291426539
  0
ARC
  5
3E0
330
1F
100
AcDbEntity
  8
0
  6
Continuous
 62
     7
370
    15
100
AcDbCircle
 10
586.8092189675
 20
513.800054099
 30
0.0
 40
2.000000000000011
100
AcDbArc
 50
245.240102306
 51
308.708573461
  0
LINE
  5
3E1
330
1F
100
AcDbEntity
  8
0
  6
Continuous
 62
     7
370
    15
100
AcDbLine
 10
575.4168930787
 20
516.8519046506
 30
0.0
 11
585.971586718
 21
511.9839150807
 31
0.0
  0
ARC
  5
3E2
330
1F
100
AcDbEntity
  8
0
  6
Continuous
 62
     7
370
    15
100
AcDbCircle
 10
574.1604435925
 20
514.1276906869
 30
0.0
 40
3.000000000000057
100
AcDbArc
 50
65.240102306
 51
120.8286141035
  0
ARC
  5
3E3
330
1F
100
AcDbEntity
  8
0
  6
Continuous
 62
     7
370
    15
100
AcDbCircle
 10
538.0311834949
 20
574.6663276455
 30
0.0
 40
67.5
100
AcDbArc
 50
239.1713858965
 51
300.8286141035
  0
ARC
  5
3E4
330
1F
100
AcDbEntity
  8
0
  6
Continuous
 62
     7
370
    15
100
AcDbCircle
 10
501.9019233973
 20
514.1276906869
 30
0.0
 40
3.000000000000081
100
AcDbArc
 50
59.1713858965
 51
114.759897694
  0
LINE
  5
3E5
330
1F
100
AcDbEntity
  8
0
  6
Continuous
 62
     7
370
    15
100
AcDbLine
 10
490.0907802719
 20
511.9839150807
 30
0.0
 11
500.6454739112
 21
516.8519046506
 31
0.0
  0
ARC
  5
3E6
330
1F
100
AcDbEntity
  8
0
  6
Continuous
 62
     7
370
    15
100
AcDbCircle
 10
489.2531480224
 20
513.800054099
 30
0.0
 40
1.99999999999994
100
AcDbArc
 50
231.291426539
 51
294.759897694
  0
ARC
  5
3E7
330
1F
100
AcDbEntity
  8
0
  6
Continuous
 62
     7
370
    15
100
AcDbCircle
 10
538.0311834949
 20
574.6663276455
 30
0.0
 40
80.00000000000009
100
AcDbArc
 50
218.708573461
 51
231.291426539
  0
ARC
  5
3E8
330
1F
100
AcDbEntity
  8
0
  6
Continuous
 62
     7
370
    15
100
AcDbCircle
 10
477.1649099484
 20
525.888292173
 30
0.0
 40
2.0000000000001
100
AcDbArc
 50
155.240102306
 51
218.708573461
  0
LINE
  5
3E9
330
1F
100
AcDbEntity
  8
0
  6
Continuous
 62
     7
370
    15
100
AcDbLine
 10
480.2167605001
 20
537.2806180617
 30
0.0
 11
475.3487709302
 21
526.7259244225
 31
0.0
  0
ARC
  5
3EA
330
1F
100
AcDbEntity
  8
0
  6
Continuous
 62
     7
370
    15
100
AcDbCircle
 10
477.4925465364
 20
538.5370675479
 30
0.0
 40
3.000000000000057
100
AcDbArc
 50
335.240102306
 51
30.8286141035
  0
ARC
  5
3EB
330
1F
100
AcDbEntity
  8
0
  6
Continuous
 62
     7
370
    15
100
AcDbCircle
 10
538.0311834949
 20
574.6663276455
 30
0.0
 40
67.50000000000001
100
AcDbArc
 50
149.1713858965
 51
210.8286141035
  0
ARC
  5
3EC
330
1F
100
AcDbEntity
  8
0
  6
Continuous
 62
     7
370
    15
100
AcDbCircle
 10
477.4925465364
 20
610.7955877431
 30
0.0
 40
3.000000000000012
100
AcDbArc
 50
329.1713858965
 51
24.759897694
  0
LINE
  5
3ED
330
1F
100
AcDbEntity
  8
0
  6
Continuous
 62
     7
370
    15
100
AcDbLine
 10
475.3487709302
 20
622.6067308685
 30
0.0
 11
480.2167605001
 21
612.0520372293
 31
0.0
  0
ARC
  5
3EE
330
1F
100
AcDbEntity
  8
0
  6
Continuous
 62
     7
370
    15
100
AcDbCircle
 10
477.1649099484
 20
623.444363118
 30
0.0
 40
2.000000000000029
100
AcDbArc
 50
141.291426539
 51
204.759897694
  0
ARC
  5
3EF
330
1F
100
AcDbEntity
  8
0
  6
Continuous
 62
     7
370
    15
100
AcDbCircle
 10
538.0311834949
 20
574.6663276455
 30
0.0
 40
80.00000000000011
100
AcDbArc
 50
128.708573461
 51
141.291426539
  0
ARC
  5
3F0
330
1F
100
AcDbEntity
  8
0
  6
Continuous
 62
     7
370
    15
100
AcDbCircle
 10
526.0311834949
 20
623.2049720435
 30
0.0
 40
5.000000000000568
100
AcDbArc
 50
0.0
 51
103.8865403626
  0
ARC
  5
3F1
330
1F
100
AcDbEntity
  8
0
  6
Continuous
 62
     7
370
    15
100
AcDbCircle
 10
538.0311834949
 20
574.6663276455
 30
0.0
 40
55.00000000000004
100
AcDbArc
 50
103.8865403626
 51
196.1134596374
  0
ARC
  5
3F2
330
1F
100
AcDbEntity
  8
0
  6
Continuous
 62
     7
370
    15
100
AcDbCircle
 10
489.995484381
 20
560.7893102919
 30
0.0
 40
4.999999999999957
100
AcDbArc
 50
196.1134596374
 51
300.0
  0
ARC
  5
3F3
330
1F
100
AcDbEntity
  8
0
  6
Continuous
 62
     7
370
    15
100
AcDbCircle
 10
501.995484381
 20
540.0047006011
 30
0.0
 40
5.000000000000004
100
AcDbArc
 50
120.0
 51
223.8865403626
  0
ARC
  5
3F4
330
1F
100
AcDbEntity
  8
0
  6
Continuous
 62
     7
370
    15
100
AcDbCircle
 10
538.0311834949
 20
574.6663276455
 30
0.0
 40
54.99999999999999
100
AcDbArc
 50
223.8865403626
 51
316.1134596374
  0
ARC
  5
3F5
330
1F
100
AcDbEntity
  8
0
  6
Continuous
 62
     7
370
    15
100
AcDbCircle
 10
574.0668826089
 20
540.0047006011
 30
0.0
 40
5.000000000000016
100
AcDbArc
 50
316.1134596374
 51
60.0
  0
ARC
  5
3F6
330
1F
100
AcDbEntity
  8
0
  6
Continuous
 62
     7
370
    15
100
AcDbCircle
 10
586.0668826089
 20
560.7893102919
 30
0.0
 40
4.999999999999957
100
AcDbArc
 50
240.0
 51
343.8865403626
  0
ARC
  5
3F7
330
1F
100
AcDbEntity
  8
0
  6
Continuous
 62
     7
370
    15
100
AcDbCircle
 10
538.0311834949
 20
574.6663276455
 30
0.0
 40
54.99999999999997
100
AcDbArc
 50
343.8865403626
 51
76.1134596374
  0
ARC
  5
3F8
330
1F
100
AcDbEntity
  8
0
  6
Continuous
 62
     7
370
    15
100
AcDbCircle
 10
550.0311834949
 20
623.2049720435
 30
0.0
 40
5.0
100
AcDbArc
 50
76.1134596374
 51
180.0
  0
LINE
  5
3F9
330
1F
100
AcDbEntity
  8
0
  6
Continuous
 62
     7
370
    15
100
AcDbLine
 10
576.5668827432
 20
544.3348277709
 30
0.0
 11
576.1004018921
 21
544.6041494957
 31
0.0
  0
LINE
  5
3FA
330
1F
100
AcDbEntity
  8
0
  6
Continuous
 62
     7
370
    15
100
AcDbLine
 10
583.1004011768
 20
556.7285053781
 30
0.0
 11
583.566882028
 21
556.4591836533
 31
0.0
  0
LINE
  5
3FB
330
1F
100
AcDbEntity
  8
0
  6
Continuous
 62
     7
370
    15
100
AcDbLine
 10
492.4954849619
 20
556.4591836533
 30
0.0
 11
492.961965813
 21
556.7285053781
 31
0.0
  0
LINE
  5
3FC
330
1F
100
AcDbEntity
  8
0
  6
Continuous
 62
     7
370
    15
100
AcDbLine
 10
499.9619650978
 20
544.6041494957
 30
0.0
 11
499.4954842466
 21
544.3348277709
 31
0.0
  0
LINE
  5
3FD
330
1F
100
AcDbEntity
  8
0
  6
Continuous
 62
     7
370
    15
100
AcDbLine
 10
531.0311832789
 20
622.6663280627
 30
0.0
 11
531.0311832789
 21
623.2049715123
 31
0.0
  0
LINE
  5
3FE
330
1F
100
AcDbEntity
  8
0
  6
Continuous
 62
     7
370
    15
100
AcDbLine
 10
545.031183711
 20
623.2049715123
 30
0.0
 11
545.031183711
 21
622.6663280627
 31
0.0
  0
CIRCLE
  5
3FF
330
1F
100
AcDbEntity
  8
0
  6
Continuous
 62
     7
370
    15
100
AcDbCircle
 10
538.0311834949
 20
574.6663276455
 30
0.0
 40
19.5
  0
LINE
  5
400
330
1F
100
AcDbEntity
  8
0
  6
Continuous
 62
     7
370
    15
100
AcDbLine
 10
474.8352545637
 20
623.7201195559
 30
0.0
 11
475.3487709302
 21
622.6067308685
 31
0.0
  0
LINE
  5
401
330
1F
100
AcDbEntity
  8
0
  6
Continuous
 62
     7
370
    15
100
AcDbLine
 10
475.6042364377
 20
624.6950801811
 30
0.0
 11
474.8352545637
 21
623.7201195559
 31
0.0
  0
LINE
  5
402
330
1F
100
AcDbEntity
  8
0
  6
Continuous
 62
     7
370
    15
100
AcDbLine
 10
507.1078914541
 20
634.6663263044
 30
0.0
 11
495.9067481893
 21
634.6663263044
 31
0.0
  0
LINE
  5
403
330
1F
100
AcDbEntity
  8
0
  6
Continuous
 62
     7
370
    15
100
AcDbLine
 10
600.4581305522
 20
524.6375751099
 30
0.0
 11
601.2271124262
 21
525.6125357351
 31
0.0
  0
LINE
  5
404
330
1F
100
AcDbEntity
  8
0
  6
Continuous
 62
     7
370
    15
100
AcDbLine
 10
601.2271124262
 20
525.6125357351
 30
0.0
 11
600.7135960597
 21
526.7259244225
 31
0.0
  0
LINE
  5
405
330
1F
100
AcDbEntity
  8
0
  6
Continuous
 62
     7
370
    15
100
AcDbLine
 10
568.9544755358
 20
514.6663289866
 30
0.0
 11
580.1556188005
 21
514.6663289866
 31
0.0
  0
LINE
  5
406
330
1F
100
AcDbEntity
  8
0
  6
Continuous
 62
     7
370
    15
100
AcDbLine
 10
474.8352545637
 20
525.6125357351
 30
0.0
 11
475.3487709302
 21
526.7259244225
 31
0.0
  0
LINE
  5
407
330
1F
100
AcDbEntity
  8
0
  6
Continuous
 62
     7
370
    15
100
AcDbLine
 10
475.6042364377
 20
524.6375751099
 30
0.0
 11
474.8352545637
 21
525.6125357351
 31
0.0
  0
LINE
  5
408
330
1F
100
AcDbEntity
  8
0
  6
Continuous
 62
     7
370
    15
100
AcDbLine
 10
507.1078914541
 20
514.6663289866
 30
0.0
 11
495.9067481893
 21
514.6663289866
 31
0.0
  0
LINE
  5
409
330
1F
100
AcDbEntity
  8
0
  6
Continuous
 62
     7
370
    15
100
AcDbLine
 10
568.9544755358
 20
634.6663263044
 30
0.0
 11
580.1556188005
 21
634.6663263044
 31
0.0
  0
LINE
  5
40A
330
1F
100
AcDbEntity
  8
0
  6
Continuous
 62
     7
370
    15
100
AcDbLine
 10
600.4581305522
 20
624.6950801811
 30
0.0
 11
601.2271124262
 21
623.7201195559
 31
0.0
  0
LINE
  5
40B
330
1F
100
AcDbEntity
  8
0
  6
Continuous
 62
     7
370
    15
100
AcDbLine
 10
601.2271124262
 20
623.7201195559
 30
0.0
 11
600.7135960597
 21
622.6067308685
 31
0.0
  0
LINE
  5
40C
330
1F
100
AcDbEntity
  8
0
  6
Continuous
 62
     7
370
    15
100
AcDbLine
 10
538.0311834949
 20
642.1663303277
 30
0.0
 11
550.0311835992
 21
642.1663303277
 31
0.0
  0
ARC
  5
40D
330
1F
100
AcDbEntity
  8
0
  6
Continuous
 62
     7
370
    15
100
AcDbCircle
 10
550.0311834949
 20
632.1663276455
 30
0.0
 40
10.0
100
AcDbArc
 50
47.119133929
 51
90.0
  0
LINE
  5
40E
330
1F
100
AcDbEntity
  8
0
  6
Continuous
 62
     7
370
    15
100
AcDbLine
 10
526.0311833906
 20
642.1663303277
 30
0.0
 11
538.0311834949
 21
642.1663303277
 31
0.0
  0
ARC
  5
40F
330
1F
100
AcDbEntity
  8
0
  6
Continuous
 62
     7
370
    15
100
AcDbCircle
 10
526.0311834949
 20
632.1663276455
 30
0.0
 40
10.00000000000006
100
AcDbArc
 50
90.0
 51
132.880866071
  0
LINE
  5
410
330
1F
100
AcDbEntity
  8
0
  6
Continuous
 62
     7
370
    15
100
AcDbLine
 10
543.0311833832
 20
507.3517699143
 30
0.0
 11
543.0311833832
 21
505.8477286598
 31
0.0
  0
LINE
  5
411
330
1F
100
AcDbEntity
  8
0
  6
Continuous
 62
     7
370
    15
100
AcDbLine
 10
533.0311836067
 20
505.8477286598
 30
0.0
 11
533.0311836067
 21
507.3517699143
 31
0.0
  0
ARC
  5
412
330
1F
100
AcDbEntity
  8
0
  6
Continuous
 62
     7
370
    15
100
AcDbCircle
 10
538.0311834949
 20
574.6663276455
 30
0.0
 40
69.00000000000003
100
AcDbArc
 50
265.8444897315
 51
274.1555102685
  0
CIRCLE
  5
413
330
1F
100
AcDbEntity
  8
0
  6
Continuous
 62
     7
370
    15
100
AcDbCircle
 10
538.0311834949
 20
574.6663276455
 30
0.0
 40
85.00000000000006
  0
LINE
  5
414
330
1F
100
AcDbEntity
  8
0
  6
Continuous
 62
     7
370
    15
100
AcDbLine
 10
636.0311809319
 20
639.4910950562
 30
0.0
 11
636.0311809319
 21
509.8415602347
 31
0.0
  0
ARC
  5
415
330
1F
100
AcDbEntity
  8
0
  6
Continuous
 62
     7
370
    15
100
AcDbCircle
 10
538.0311834949
 20
574.6663276455
 30
0.0
 40
117.5
100
AcDbArc
 50
303.483726477
 51
326.516273523
  0
LINE
  5
416
330
1F
100
AcDbEntity
  8
0
  6
Continuous
 62
     7
370
    15
100
AcDbLine
 10
602.8559509057
 20
476.6663302085
 30
0.0
 11
473.2064160842
 21
476.6663302085
 31
0.0
  0
ARC
  5
417
330
1F
100
AcDbEntity
  8
0
  6
Continuous
 62
     7
370
    15
100
AcDbCircle
 10
538.0311834949
 20
574.6663276455
 30
0.0
 40
117.5
100
AcDbArc
 50
213.483726477
 51
236.516273523
  0
LINE
  5
418
330
1F
100
AcDbEntity
  8
0
  6
Continuous
 62
     7
370
    15
100
AcDbLine
 10
440.0311860579
 20
509.8415602347
 30
0.0
 11
440.0311860579
 21
639.4910950562
 31
0.0
  0
ARC
  5
419
330
1F
100
AcDbEntity
  8
0
  6
Continuous
 62
     7
370
    15
100
AcDbCircle
 10
538.0311834949
 20
574.6663276455
 30
0.0
 40
117.5
100
AcDbArc
 50
123.483726477
 51
146.516273523
  0
LINE
  5
41A
330
1F
100
AcDbEntity
  8
0
  6
Continuous
 62
     7
370
    15
100
AcDbLine
 10
473.2064160842
 20
672.6663250825
 30
0.0
 11
602.8559509057
 21
672.6663250825
 31
0.0
  0
ARC
  5
41B
330
1F
100
AcDbEntity
  8
0
  6
Continuous
 62
     7
370
    15
100
AcDbCircle
 10
538.0311834949
 20
574.6663276455
 30
0.0
 40
117.5
100
AcDbArc
 50
33.483726477
 51
56.516273523
  0
CIRCLE
  5
41C
330
1F
100
AcDbEntity
  8
0
  6
Continuous
 62
     7
370
    15
100
AcDbCircle
 10
593.6727062394
 20
485.6212775491
 30
0.0
 40
4.0
  0
CIRCLE
  5
41D
330
1F
100
AcDbEntity
  8
0
  6
Continuous
 62
     7
370
    15
100
AcDbCircle
 10
482.3896607504
 20
663.7113777419
 30
0.0
 40
3.999999999999943
  0
CIRCLE
  5
41E
330
1F
100
AcDbEntity
  8
0
  6
Continuous
 62
     7
370
    15
100
AcDbCircle
 10
614.0451624725
 20
650.680306623
 30
0.0
 40
6.000000000000114
  0
CIRCLE
  5
41F
330
1F
100
AcDbEntity
  8
0
  6
Continuous
 62
     7
370
    15
100
AcDbCircle
 10
462.0172045174
 20
650.680306623
 30
0.0
 40
6.000000000000057
  0
CIRCLE
  5
420
330
1F
100
AcDbEntity
  8
0
  6
Continuous
 62
     7
370
    15
100
AcDbCircle
 10
614.0451624725
 20
498.6523486679
 30
0.0
 40
6.0
  0
CIRCLE
  5
421
330
1F
100
AcDbEntity
  8
0
  6
Continuous
 62
     7
370
    15
100
AcDbCircle
 10
462.0172045174
 20
498.6523486679
 30
0.0
 40
6.0
  0
LINE
  5
422
330
1F
100
AcDbEntity
  8
0
  6
Continuous
 62
     7
370
    15
100
AcDbLine
 10
513.0311831224
 20
672.6663250825
 30
0.0
 11
513.0311831224
 21
689.6663297317
 31
0.0
  0
LINE
  5
423
330
1F
100
AcDbEntity
  8
0
  6
Continuous
 62
     7
370
    15
100
AcDbLine
 10
513.0311831224
 20
689.6663297317
 30
0.0
 11
523.0311838302
 21
689.6663297317
 31
0.0
  0
LINE
  5
424
330
1F
100
AcDbEntity
  8
0
  6
Continuous
 62
     7
370
    15
100
AcDbLine
 10
553.0311831596
 20
689.6663297317
 30
0.0
 11
563.0311838675
 21
689.6663297317
 31
0.0
  0
LINE
  5
425
330
1F
100
AcDbEntity
  8
0
  6
Continuous
 62
     7
370
    15
100
AcDbLine
 10
563.0311838675
 20
689.6663297317
 30
0.0
 11
563.0311838675
 21
672.6663250825
 31
0.0
  0
LINE
  5
426
330
1F
100
AcDbEntity
  8
0
  6
Continuous
 62
     7
370
    15
100
AcDbLine
 10
553.0311831596
 20
689.6663297317
 30
0.0
 11
523.0311838302
 21
689.6663297317
 31
0.0
  0
LWPOLYLINE
  5
427
330
1F
100
AcDbEntity
  8
0
  6
Continuous
 62
     7
370
    15
100
AcDbPolyline
 90
       12
 70
   128
 43
0.0
 10
670.5537068981
 20
513.2735435268
 10
670.7030016321
 20
513.1888639531
 10
670.9884482759
 20
512.7485346398
 10
671.1400675911
 20
512.012547662
 10
671.1443889278
 20
511.0462967655
 10
671.001024856
 20
509.9356387159
 10
670.7227307695
 20
508.7792564532
 10
670.3342127937
 20
507.6799158356
 10
669.8700118202
 20
506.7352790734
 10
669.3713444608
 20
506.0292844078
 10
668.8825565714
 20
505.6246731779
 10
668.4470552343
 20
505.5573869845
  0
LWPOLYLINE
  5
428
330
1F
100
AcDbEntity
  8
0
  6
Continuous
 62
     7
370
    15
100
AcDbPolyline
 90
       12
 70
   128
 43
0.0
 10
685.529105677
 20
569.308491738
 10
685.7145059246
 20
569.2125636502
 10
685.9999525684
 20
568.7722329399
 10
686.1515718836
 20
568.0362440995
 10
686.1558932203
 20
567.069993203
 10
686.0125291485
 20
565.9593351534
 10
685.734235062
 20
564.8029584786
 10
685.3457170862
 20
563.7036104104
 10
684.8815161127
 20
562.7589736483
 10
684.3828487533
 20
562.0529836393
 10
683.8940608639
 20
561.6483696154
 10
683.4585595268
 20
561.5810852847
  0
LWPOLYLINE
  5
429
330
1F
100
AcDbEntity
  8
0
  6
Continuous
 62
     7
370
    15
100
AcDbPolyline
 90
        8
 70
   128
 43
0.0
 10
684.5122504371
 20
565.4398536658
 10
684.5106858152
 20
565.440272761
 10
684.4651925701
 20
565.4524628422
 10
684.3583959478
 20
565.4810777283
 10
684.19442357
 20
565.525016596
 10
683.9795488256
 20
565.5825918889
 10
683.722041859
 20
565.6515898532
 10
683.4317970413
 20
565.7293599448
  0
LWPOLYLINE
  5
42A
330
1F
100
AcDbEntity
  8
0
  6
Continuous
 62
     7
370
    15
100
AcDbPolyline
 90
        8
 70
   128
 43
0.0
 10
669.2419278759
 20
508.4502313635
 10
669.240363254
 20
508.450648596
 10
669.1948700088
 20
508.4628377459
 10
669.0880733866
 20
508.4914554259
 10
668.9240861076
 20
508.5353914997
 10
668.7092262644
 20
508.5929695866
 10
668.4517192978
 20
508.6619694135
 10
668.16147448
 20
508.7397385737
  0
LINE
  5
42B
330
1F
100
AcDbEntity
  8
0
  6
Continuous
 62
     7
370
    15
100
AcDbLine
 10
636.0311809319
 20
513.2079150877
 30
0.0
 11
662.0211827892
 21
506.2439207336
 31
0.0
  0
ELLIPSE
  5
42C
330
1F
100
AcDbEntity
  8
0
  6
Continuous
 62
     7
370
    15
100
AcDbEllipse
 10
681.9226286321
 20
557.0233099675
 30
0.0
 11
1.294095225512592
 21
4.829629131445357
 31
0.0
210
0.0
220
0.0
230
1.0
 40
0.1368080573
 41
4.71238898038468
 42
5.791374802504975
  0
LINE
  5
42D
330
1F
100
AcDbEntity
  8
0
  6
Continuous
 62
     7
370
    15
100
AcDbLine
 10
682.5833547252
 20
556.8462673923
 30
0.0
 11
682.234637751
 21
556.9397069863
 31
0.0
  0
LINE
  5
42E
330
1F
100
AcDbEntity
  8
0
  6
Continuous
 62
     7
370
    15
100
AcDbLine
 10
671.5195256609
 20
516.9503789744
 30
0.0
 11
671.8682575363
 21
516.8569375178
 31
0.0
  0
ELLIPSE
  5
42F
330
1F
100
AcDbEntity
  8
0
  6
Continuous
 62
     7
370
    15
100
AcDbEllipse
 10
671.2075201649
 20
517.0339807591
 30
0.0
 11
1.294095225512592
 21
4.829629131445357
 31
0.0
210
0.0
220
0.0
230
1.0
 40
0.1368080573
 41
3.80520463496067
 42
4.71238898038468
  0
ARC
  5
430
330
1F
100
AcDbEntity
  8
0
  6
Continuous
 62
     7
370
    15
100
AcDbCircle
 10
652.2204728956
 20
577.7489507881
 30
0.0
 40
0.9806435200537934
100
AcDbArc
 50
84.1916817862
 51
136.4913971638
  0
LINE
  5
431
330
1F
100
AcDbEntity
  8
0
  6
Continuous
 62
     7
370
    15
100
AcDbLine
 10
646.9216722387
 20
575.5122193018
 30
0.0
 11
645.7653868335
 21
575.8220438961
 31
0.0
  0
ARC
  5
432
330
1F
100
AcDbEntity
  8
0
  6
Continuous
 62
     7
370
    15
100
AcDbCircle
 10
651.533306854
 20
570.372889727
 30
0.0
 40
1.498661091437823
100
AcDbArc
 50
86.0989106186
 51
146.6974432134
  0
ARC
  5
433
330
1F
100
AcDbEntity
  8
0
  6
Continuous
 62
     7
370
    15
100
AcDbCircle
 10
638.4736502565
 20
521.6335142253
 30
0.0
 40
1.498691026051769
100
AcDbArc
 50
183.3033430767
 51
243.9007861335
  0
LINE
  5
434
330
1F
100
AcDbEntity
  8
0
  6
Continuous
 62
     7
370
    15
100
AcDbLine
 10
678.0839193004
 20
562.9685361287
 30
0.0
 11
677.8559762377
 21
563.0296131945
 31
0.0
  0
LINE
  5
435
330
1F
100
AcDbEntity
  8
0
  6
Continuous
 62
     7
370
    15
100
AcDbLine
 10
665.1693064111
 20
514.7705439827
 30
0.0
 11
664.9413633484
 21
514.8316238424
 31
0.0
  0
LINE
  5
436
330
1F
100
AcDbEntity
  8
0
  6
Continuous
 62
     7
370
    15
100
AcDbLine
 10
678.0856925386
 20
564.7573311231
 30
0.0
 11
677.6773709196
 21
564.8667410365
 31
0.0
  0
LINE
  5
437
330
1F
100
AcDbEntity
  8
0
  6
Continuous
 62
     7
370
    15
100
AcDbLine
 10
664.2764437336
 20
513.2205140194
 30
0.0
 11
663.8681221145
 21
513.3299257955
 31
0.0
  0
LINE
  5
438
330
1F
100
AcDbEntity
  8
0
  6
Continuous
 62
     7
370
    15
100
AcDbLine
 10
636.0311809319
 20
526.977090945
 30
0.0
 11
664.8023057121
 21
519.2678895196
 31
0.0
  0
LINE
  5
439
330
1F
100
AcDbEntity
  8
0
  6
Continuous
 62
     7
370
    15
100
AcDbLine
 10
646.06665106
 20
567.1485279104
 30
0.0
 11
636.0311809319
 21
529.695643892
 31
0.0
  0
LINE
  5
43A
330
1F
100
AcDbEntity
  8
0
  6
Continuous
 62
     7
370
    15
100
AcDbLine
 10
652.0732718843
 20
573.096575879
 30
0.0
 11
676.8146830934
 21
566.4671331993
 31
0.0
  0
LINE
  5
43B
330
1F
100
AcDbEntity
  8
0
  6
Continuous
 62
     7
370
    15
100
AcDbLine
 10
662.3208153385
 20
512.3752866289
 30
0.0
 11
637.5794041294
 21
519.0047312877
 31
0.0
  0
LWPOLYLINE
  5
43C
330
1F
100
AcDbEntity
  8
0
  6
Continuous
 62
     7
370
    15
100
AcDbPolyline
 90
        8
 70
   128
 43
0.0
 10
650.7918912309
 20
572.9121343116
 10
650.9292426842
 20
573.1296101235
 10
651.0746854681
 20
573.3239188208
 10
651.2197259206
 20
573.4814093099
 10
651.3619575042
 20
573.5994823859
 10
651.4990407366
 20
573.6761892563
 10
651.6287180918
 20
573.7102639046
 10
651.7488438028
 20
573.7011439865
  0
LINE
  5
43D
330
1F
100
AcDbEntity
  8
0
  6
Continuous
 62
     7
370
    15
100
AcDbLine
 10
650.4536721247
 20
572.6956460508
 30
0.0
 11
650.0113386053
 21
572.81416849
 31
0.0
  0
LINE
  5
43E
330
1F
100
AcDbEntity
  8
0
  6
Continuous
 62
     7
370
    15
100
AcDbLine
 10
636.3772529501
 20
520.1617431244
 30
0.0
 11
636.0311809319
 21
520.2544730505
 31
0.0
  0
LWPOLYLINE
  5
43F
330
1F
100
AcDbEntity
  8
0
  6
Continuous
 62
     7
370
    15
100
AcDbPolyline
 90
        8
 70
   128
 43
0.0
 10
636.9961577791
 20
518.6433706781
 10
636.8875655669
 20
518.6955359182
 10
636.7923024434
 20
518.7898826203
 10
636.7119330305
 20
518.9248573384
 10
636.6477909821
 20
519.0982286236
 10
636.6009342808
 20
519.3071354529
 10
636.5721303362
 20
519.5481319329
 10
636.5619155902
 20
519.8051508865
  0
ARC
  5
440
330
1F
100
AcDbEntity
  8
0
  6
Continuous
 62
     7
370
    15
100
AcDbCircle
 10
652.0955831182
 20
572.3946574578
 30
0.0
 40
0.7022729250199083
100
AcDbArc
 50
91.8205951507
 51
150.8039014067
  0
ARC
  5
441
330
1F
100
AcDbEntity
  8
0
  6
Continuous
 62
     7
370
    15
100
AcDbCircle
 10
637.9496929826
 20
519.6014599516
 30
0.0
 40
0.7022812351043795
100
AcDbArc
 50
179.196729994
 51
238.1791008961
  0
LINE
  5
442
330
1F
100
AcDbEntity
  8
0
  6
Continuous
 62
     7
370
    15
100
AcDbLine
 10
649.7345122832
 20
571.4966879109
 30
0.0
 11
649.1765979069
 21
571.646180551
 31
0.0
  0
LINE
  5
443
330
1F
100
AcDbEntity
  8
0
  6
Continuous
 62
     7
370
    15
100
AcDbLine
 10
636.3539251822
 20
521.5596508584
 30
0.0
 11
636.0311809319
 21
521.6461297473
 31
0.0
  0
INSERT
  5
490
330
1F
100
AcDbEntity
  8
SLD-0
 62
     7
100
AcDbBlockReference
  2
SW_CENTERMARKSYMBOL_1
 10
462.0172045174
 20
650.680306623
 30
0.0
  0
ENDSEC
  0
SECTION
  2
OBJECTS
  0
DICTIONARY
  5
C
330
0
100
AcDbDictionary
281
     1
  3
ACAD_GROUP
350
D
  3
ACAD_LAYOUT
350
1A
  3
ACAD_MLINESTYLE
350
17
  3
ACAD_PLOTSETTINGS
350
19
  3
ACAD_PLOTSTYLENAME
350
E
  0
DICTIONARY
  5
D
102
{ACAD_REACTORS
330
C
102
}
330
C
100
AcDbDictionary
281
     1
  0
DICTIONARY
  5
1A
102
{ACAD_REACTORS
330
C
102
}
330
C
100
AcDbDictionary
281
     1
  3
Layout1
350
1E
  3
Layout2
350
26
  3
Model
350
22
  0
DICTIONARY
  5
17
102
{ACAD_REACTORS
330
C
102
}
330
C
100
AcDbDictionary
281
     1
  3
Standard
350
18
  0
DICTIONARY
  5
19
102
{ACAD_REACTORS
330
C
102
}
330
C
100
AcDbDictionary
281
     1
  0
ACDBDICTIONARYWDFLT
  5
E
102
{ACAD_REACTORS
330
C
102
}
330
C
100
AcDbDictionary
281
     1
  3
Normal
350
F
100
AcDbDictionaryWithDefault
340
F
  0
LAYOUT
  5
1E
102
{ACAD_REACTORS
330
1A
102
}
330
1A
100
AcDbPlotSettings
  1

  2
none_device
  4

  6

 40
0.0
 41
0.0
 42
0.0
 43
0.0
 44
0.0
 45
0.0
 46
0.0
 47
0.0
 48
0.0
 49
0.0
140
0.0
141
0.0
142
1.0
143
1.0
 70
   688
 72
     0
 73
     0
 74
     5
  7

 75
    16
147
1.0
148
0.0
149
0.0
100
AcDbLayout
  1
Layout1
 70
     1
 71
     1
 10
0.0
 20
0.0
 11
420.0
 21
297.0
 12
0.0
 22
0.0
 32
0.0
 14
1.0000000000E+20
 24
1.0000000000E+20
 34
1.0000000000E+20
 15
-1.0000000000E+20
 25
-1.0000000000E+20
 35
-1.0000000000E+20
146
0.0
 13
0.0
 23
0.0
 33
0.0
 16
1.0
 26
0.0
 36
0.0
 17
0.0
 27
1.0
 37
0.0
 76
     0
330
1B
  0
LAYOUT
  5
26
102
{ACAD_REACTORS
330
1A
102
}
330
1A
100
AcDbPlotSettings
  1

  2
none_device
  4

  6

 40
0.0
 41
0.0
 42
0.0
 43
0.0
 44
0.0
 45
0.0
 46
0.0
 47
0.0
 48
0.0
 49
0.0
140
0.0
141
0.0
142
1.0
143
1.0
 70
   688
 72
     0
 73
     0
 74
     5
  7

 75
    16
147
1.0
148
0.0
149
0.0
100
AcDbLayout
  1
Layout2
 70
     1
 71
     2
 10
0.0
 20
0.0
 11
0.0
 21
0.0
 12
0.0
 22
0.0
 32
0.0
 14
0.0
 24
0.0
 34
0.0
 15
0.0
 25
0.0
 35
0.0
146
0.0
 13
0.0
 23
0.0
 33
0.0
 16
1.0
 26
0.0
 36
0.0
 17
0.0
 27
1.0
 37
0.0
 76
     0
330
23
  0
LAYOUT
  5
22
102
{ACAD_REACTORS
330
1A
102
}
330
1A
100
AcDbPlotSettings
  1

  2
none_device
  4

  6

 40
0.0
 41
0.0
 42
0.0
 43
0.0
 44
0.0
 45
0.0
 46
0.0
 47
0.0
 48
0.0
 49
0.0
140
0.0
141
0.0
142
1.0
143
1.0
 70
  1712
 72
     0
 73
     0
 74
     0
  7

 75
     0
147
1.0
148
0.0
149
0.0
100
AcDbLayout
  1
Model
 70
     1
 71
     0
 10
0.0
 20
0.0
 11
1050.0
 21
1485.0
 12
0.0
 22
0.0
 32
0.0
 14
0.0
 24
0.0
 34
0.0
 15
1050.0
 25
1485.0
 35
0.0
146
0.0
 13
0.0
 23
0.0
 33
0.0
 16
1.0
 26
0.0
 36
0.0
 17
0.0
 27
1.0
 37
0.0
 76
     0
330
1F
331
29
  0
MLINESTYLE
  5
18
102
{ACAD_REACTORS
330
17
102
}
330
17
100
AcDbMlineStyle
  2
Standard
 70
     0
  3

 62
   256
 51
90.0
 52
90.0
 71
     2
 49
0.5
 62
   256
  6
BYLAYER
 49
-0.5
 62
   256
  6
BYLAYER
  0
ACDBPLACEHOLDER
  5
F
102
{ACAD_REACTORS
330
E
102
}
330
E
  0
ENDSEC
  0
EOF
