  0
SECTION
  2
HEADER
  9
$ACADVER
  1
AC1015
  9
$ACADMAINTVER
 70
     6
  9
$DWGCODEPAGE
  3
DOS932
  9
$INSBASE
 10
0.0
 20
0.0
 30
0.0
  9
$EXTMIN
 10
0.0
 20
0.0
 30
0.0
  9
$EXTMAX
 10
420.0
 20
297.0
 30
0.0
  9
$LIMMIN
 10
0.0
 20
0.0
  9
$LIMMAX
 10
420.0
 20
297.0
  9
$ORTHOMODE
 70
     0
  9
$REGENMODE
 70
     1
  9
$FILLMODE
 70
     1
  9
$QTEXTMODE
 70
     0
  9
$MIRRTEXT
 70
     1
  9
$LTSCALE
 40
1.0
  9
$ATTMODE
 70
     1
  9
$TEXTSIZE
 40
3.5
  9
$TRACEWID
 40
1.0
  9
$TEXTSTYLE
  7
Standard
  9
$CLAYER
  8
0
  9
$CELTYPE
  6
ByLayer
  9
$CECOLOR
 62
   256
  9
$CELTSCALE
 40
1.0
  9
$DISPSILH
 70
     0
  9
$DIMSCALE
 40
1.0
  9
$DIMASZ
 40
3.302
  9
$DIMEXO
 40
1.0
  9
$DIMDLI
 40
3.75
  9
$DIMRND
 40
0.0
  9
$DIMDLE
 40
0.0
  9
$DIMEXE
 40
1.0
  9
$DIMTP
 40
0.0
  9
$DIMTM
 40
0.0
  9
$DIMTXT
 40
3.5
  9
$DIMCEN
 40
2.5
  9
$DIMTSZ
 40
0.0
  9
$DIMTOL
 70
     0
  9
$DIMLIM
 70
     0
  9
$DIMTIH
 70
     1
  9
$DIMTOH
 70
     1
  9
$DIMSE1
 70
     0
  9
$DIMSE2
 70
     0
  9
$DIMTAD
 70
     1
  9
$DIMZIN
 70
     1
  9
$DIMBLK
  1

  9
$DIMASO
 70
     1
  9
$DIMSHO
 70
     1
  9
$DIMPOST
  1

  9
$DIMAPOST
  1

  9
$DIMALT
 70
     0
  9
$DIMALTD
 70
     3
  9
$DIMALTF
 40
0.0393700787
  9
$DIMLFAC
 40
1.0
  9
$DIMTOFL
 70
     1
  9
$DIMTVP
 40
0.0
  9
$DIMTIX
 70
     0
  9
$DIMSOXD
 70
     0
  9
$DIMSAH
 70
     0
  9
$DIMBLK1
  1

  9
$DIMBLK2
  1

  9
$DIMSTYLE
  2
ISO-25
  9
$DIMCLRD
 70
     0
  9
$DIMCLRE
 70
     0
  9
$DIMCLRT
 70
     0
  9
$DIMTFAC
 40
1.0
  9
$DIMGAP
 40
1.524
  9
$DIMJUST
 70
     0
  9
$DIMSD1
 70
     0
  9
$DIMSD2
 70
     0
  9
$DIMTOLJ
 70
     0
  9
$DIMTZIN
 70
     1
  9
$DIMALTZ
 70
     0
  9
$DIMALTTZ
 70
     0
  9
$DIMUPT
 70
     0
  9
$DIMDEC
 70
     3
  9
$DIMTDEC
 70
     3
  9
$DIMALTU
 70
     2
  9
$DIMALTTD
 70
     3
  9
$DIMTXSTY
  7
Standard
  9
$DIMAUNIT
 70
     0
  9
$DIMADEC
 70
     0
  9
$DIMALTRND
 40
0.0
  9
$DIMAZIN
 70
     0
  9
$DIMDSEP
 70
    44
  9
$DIMATFIT
 70
     3
  9
$DIMFRAC
 70
     0
  9
$DIMLDRBLK
  1

  9
$DIMLUNIT
 70
     2
  9
$DIMLWD
 70
    -2
  9
$DIMLWE
 70
    -2
  9
$DIMTMOVE
 70
     0
  9
$LUNITS
 70
     2
  9
$LUPREC
 70
     3
  9
$SKETCHINC
 40
1.0
  9
$FILLETRAD
 40
10.0
  9
$AUNITS
 70
     0
  9
$AUPREC
 70
     0
  9
$MENU
  1
.
  9
$ELEVATION
 40
0.0
  9
$PELEVATION
 40
0.0
  9
$THICKNESS
 40
0.0
  9
$LIMCHECK
 70
     0
  9
$CHAMFERA
 40
0.0
  9
$CHAMFERB
 40
0.0
  9
$CHAMFERC
 40
0.0
  9
$CHAMFERD
 40
0.0
  9
$SKPOLY
 70
     0
  9
$TDCREATE
 40
2460161.497631169
  9
$TDUCREATE
 40
2460161.122631169
  9
$TDUPDATE
 40
2460161.497632153
  9
$TDUUPDATE
 40
2460161.122632153
  9
$TDINDWG
 40
0.0000000116
  9
$TDUSRTIMER
 40
0.0000000116
  9
$USRTIMER
 70
     1
  9
$ANGBASE
 50
0.0
  9
$ANGDIR
 70
     0
  9
$PDMODE
 70
     0
  9
$PDSIZE
 40
-1.0
  9
$PLINEWID
 40
0.0
  9
$SPLFRAME
 70
     0
  9
$SPLINETYPE
 70
     6
  9
$SPLINESEGS
 70
     8
  9
$HANDSEED
  5
435
  9
$SURFTAB1
 70
     6
  9
$SURFTAB2
 70
     6
  9
$SURFTYPE
 70
     6
  9
$SURFU
 70
     6
  9
$SURFV
 70
     6
  9
$UCSBASE
  2

  9
$UCSNAME
  2

  9
$UCSORG
 10
0.0
 20
0.0
 30
0.0
  9
$UCSXDIR
 10
1.0
 20
0.0
 30
0.0
  9
$UCSYDIR
 10
0.0
 20
1.0
 30
0.0
  9
$UCSORTHOREF
  2

  9
$UCSORTHOVIEW
 70
     0
  9
$UCSORGTOP
 10
0.0
 20
0.0
 30
0.0
  9
$UCSORGBOTTOM
 10
0.0
 20
0.0
 30
0.0
  9
$UCSORGLEFT
 10
0.0
 20
0.0
 30
0.0
  9
$UCSORGRIGHT
 10
0.0
 20
0.0
 30
0.0
  9
$UCSORGFRONT
 10
0.0
 20
0.0
 30
0.0
  9
$UCSORGBACK
 10
0.0
 20
0.0
 30
0.0
  9
$PUCSBASE
  2

  9
$PUCSNAME
  2

  9
$PUCSORG
 10
0.0
 20
0.0
 30
0.0
  9
$PUCSXDIR
 10
1.0
 20
0.0
 30
0.0
  9
$PUCSYDIR
 10
0.0
 20
1.0
 30
0.0
  9
$PUCSORTHOREF
  2

  9
$PUCSORTHOVIEW
 70
     0
  9
$PUCSORGTOP
 10
0.0
 20
0.0
 30
0.0
  9
$PUCSORGBOTTOM
 10
0.0
 20
0.0
 30
0.0
  9
$PUCSORGLEFT
 10
0.0
 20
0.0
 30
0.0
  9
$PUCSORGRIGHT
 10
0.0
 20
0.0
 30
0.0
  9
$PUCSORGFRONT
 10
0.0
 20
0.0
 30
0.0
  9
$PUCSORGBACK
 10
0.0
 20
0.0
 30
0.0
  9
$USERI1
 70
     0
  9
$USERI2
 70
     0
  9
$USERI3
 70
     0
  9
$USERI4
 70
     0
  9
$USERI5
 70
     0
  9
$USERR1
 40
0.0
  9
$USERR2
 40
0.0
  9
$USERR3
 40
0.0
  9
$USERR4
 40
0.0
  9
$USERR5
 40
0.0
  9
$WORLDVIEW
 70
     1
  9
$SHADEDGE
 70
     3
  9
$SHADEDIF
 70
    70
  9
$TILEMODE
 70
     1
  9
$MAXACTVP
 70
    64
  9
$PINSBASE
 10
0.0
 20
0.0
 30
0.0
  9
$PLIMCHECK
 70
     0
  9
$PEXTMIN
 10
1.0000000000E+20
 20
1.0000000000E+20
 30
1.0000000000E+20
  9
$PEXTMAX
 10
-1.0000000000E+20
 20
-1.0000000000E+20
 30
-1.0000000000E+20
  9
$PLIMMIN
 10
0.0
 20
0.0
  9
$PLIMMAX
 10
420.0
 20
297.0
  9
$UNITMODE
 70
     0
  9
$VISRETAIN
 70
     1
  9
$PLINEGEN
 70
     0
  9
$PSLTSCALE
 70
     1
  9
$TREEDEPTH
 70
  3020
  9
$CMLSTYLE
  2
Standard
  9
$CMLJUST
 70
     0
  9
$CMLSCALE
 40
20.0
  9
$PROXYGRAPHICS
 70
     1
  9
$MEASUREMENT
 70
     1
  9
$CELWEIGHT
370
    -1
  9
$ENDCAPS
280
     0
  9
$JOINSTYLE
280
     0
  9
$LWDISPLAY
290
     1
  9
$INSUNITS
 70
     4
  9
$HYPERLINKBASE
  1

  9
$STYLESHEET
  1

  9
$XEDIT
290
     1
  9
$CEPSNTYPE
380
     0
  9
$PSTYLEMODE
290
     1
  9
$FINGERPRINTGUID
  2
{3543c2e8-5994-4a80-a3d4-9fb786bea39c}
  9
$VERSIONGUID
  2
{FAEB1C32-E019-11D5-929B-00C0DF256EC4}
  9
$EXTNAMES
290
     1
  9
$PSVPSCALE
 40
0.0
  9
$OLESTARTUP
290
     0
  0
ENDSEC
  0
SECTION
  2
CLASSES
  0
CLASS
  1
ACDBDICTIONARYWDFLT
  2
AcDbDictionaryWithDefault
  3
ObjectDBX Classes
 90
        0
280
     0
281
     0
  0
CLASS
  1
VISUALSTYLE
  2
AcDbVisualStyle
  3
ObjectDBX Classes
 90
     4095
280
     0
281
     0
  0
CLASS
  1
MATERIAL
  2
AcDbMaterial
  3
ObjectDBX Classes
 90
     1153
280
     0
281
     0
  0
CLASS
  1
SCALE
  2
AcDbScale
  3
ObjectDBX Classes
 90
     1153
280
     0
281
     0
  0
CLASS
  1
TABLESTYLE
  2
AcDbTableStyle
  3
ObjectDBX Classes
 90
     4095
280
     0
281
     0
  0
CLASS
  1
MLEADERSTYLE
  2
AcDbMLeaderStyle
  3
ACDB_MLEADERSTYLE_CLASS
 90
     4095
280
     0
281
     0
  0
CLASS
  1
SUN
  2
AcDbSun
  3
SCENEOE
 90
     1153
280
     0
281
     0
  0
CLASS
  1
ACDBPLACEHOLDER
  2
AcDbPlaceHolder
  3
ObjectDBX Classes
 90
        0
280
     0
281
     0
  0
CLASS
  1
LAYOUT
  2
AcDbLayout
  3
ObjectDBX Classes
 90
        0
280
     0
281
     0
  0
ENDSEC
  0
SECTION
  2
TABLES
  0
TABLE
  2
VPORT
  5
8
330
0
100
AcDbSymbolTable
 70
     1
  0
VPORT
  5
29
330
8
100
AcDbSymbolTableRecord
100
AcDbViewportTableRecord
  2
*Active
 70
     0
 10
0.0
 20
0.0
 11
1.0
 21
1.0
 12
210.0
 22
148.5
 13
0.0
 23
0.0
 14
10.0
 24
10.0
 15
10.0
 25
10.0
 16
0.0
 26
0.0
 36
1.0
 17
0.0
 27
0.0
 37
0.0
 40
297.0
 41
1.4141414141
 42
50.0
 43
0.0
 44
0.0
 50
0.0
 51
0.0
 71
     0
 72
  2000
 73
     1
 74
     3
 75
     0
 76
     0
 77
     0
 78
     0
281
     0
 65
     1
110
0.0
120
0.0
130
0.0
111
1.0
121
0.0
131
0.0
112
0.0
122
1.0
132
0.0
 79
     0
146
0.0
  0
ENDTAB
  0
TABLE
  2
LTYPE
  5
5
330
0
100
AcDbSymbolTable
 70
     6
  0
LTYPE
  5
14
330
5
100
AcDbSymbolTableRecord
100
AcDbLinetypeTableRecord
  2
ByBlock
 70
     0
  3

 72
    65
 73
     0
 40
0.0
  0
LTYPE
  5
15
330
5
100
AcDbSymbolTableRecord
100
AcDbLinetypeTableRecord
  2
ByLayer
 70
     0
  3

 72
    65
 73
     0
 40
0.0
  0
LTYPE
  5
16
330
5
100
AcDbSymbolTableRecord
100
AcDbLinetypeTableRecord
  2
Continuous
 70
     0
  3
Solid line
 72
    65
 73
     0
 40
0.0
  0
LTYPE
  5
6E
330
5
100
AcDbSymbolTableRecord
100
AcDbLinetypeTableRecord
  2
HIDDEN
 70
     0
  3
Hidden __ __ __ __ __ __ __ __ __ __ __ __ __ __
 72
    65
 73
     2
 40
1.905
 49
1.27
 74
     0
 49
-0.635
 74
     0
  0
LTYPE
  5
6F
330
5
100
AcDbSymbolTableRecord
100
AcDbLinetypeTableRecord
  2
PHANTOM
 70
     0
  3
Phantom ______  __  __  ______  __  __  ______
 72
    65
 73
     6
 40
12.7
 49
6.35
 74
     0
 49
-1.27
 74
     0
 49
1.27
 74
     0
 49
-1.27
 74
     0
 49
1.27
 74
     0
 49
-1.27
 74
     0
  0
LTYPE
  5
70
330
5
100
AcDbSymbolTableRecord
100
AcDbLinetypeTableRecord
  2
CENTER
 70
     0
  3
Center ____ _ ____ _ ____ _ ____ _ ____ _ ____
 72
    65
 73
     4
 40
10.16
 49
6.35
 74
     0
 49
-1.27
 74
     0
 49
1.27
 74
     0
 49
-1.27
 74
     0
  0
LTYPE
  5
71
330
5
100
AcDbSymbolTableRecord
100
AcDbLinetypeTableRecord
  2
CENTERX2
 70
     0
  3
Center (2x) ________  __  ________  __  _____
 72
    65
 73
     4
 40
20.32
 49
12.7
 74
     0
 49
-2.54
 74
     0
 49
2.54
 74
     0
 49
-2.54
 74
     0
  0
LTYPE
  5
72
330
5
100
AcDbSymbolTableRecord
100
AcDbLinetypeTableRecord
  2
DOT2
 70
     0
  3
Dot (.5x) ........................................
 72
    65
 73
     2
 40
0.635
 49
0.0
 74
     0
 49
-0.635
 74
     0
  0
ENDTAB
  0
TABLE
  2
LAYER
  5
2
330
0
100
AcDbSymbolTable
 70
     3
  0
LAYER
  5
10
330
2
100
AcDbSymbolTableRecord
100
AcDbLayerTableRecord
  2
0
 70
     0
 62
     7
  6
Continuous
370
    -3
390
F
  0
LAYER
  5
73
330
2
100
AcDbSymbolTableRecord
100
AcDbLayerTableRecord
  2
SLD-0_0
 70
     0
 62
     7
  6
Continuous
370
    -1
390
F
  0
LAYER
  5
74
330
2
100
AcDbSymbolTableRecord
100
AcDbLayerTableRecord
  2
SLD-0
 70
     0
 62
   179
  6
Continuous
370
    -3
390
F
  0
ENDTAB
  0
TABLE
  2
STYLE
  5
3
330
0
100
AcDbSymbolTable
 70
     1
  0
STYLE
  5
11
330
3
100
AcDbSymbolTableRecord
100
AcDbTextStyleTableRecord
  2
Standard
 70
     0
 40
0.0
 41
1.0
 50
0.0
 71
     0
 42
3.5
  3
txt
  4
bigfont
  0
ENDTAB
  0
TABLE
  2
VIEW
  5
6
330
0
100
AcDbSymbolTable
 70
     0
  0
ENDTAB
  0
TABLE
  2
UCS
  5
7
330
0
100
AcDbSymbolTable
 70
     0
  0
ENDTAB
  0
TABLE
  2
APPID
  5
9
330
0
100
AcDbSymbolTable
 70
     1
  0
APPID
  5
12
330
9
100
AcDbSymbolTableRecord
100
AcDbRegAppTableRecord
  2
ACAD
 70
     0
  0
ENDTAB
  0
TABLE
  2
DIMSTYLE
  5
A
330
0
100
AcDbSymbolTable
 70
     1
100
AcDbDimStyleTable
  0
DIMSTYLE
105
27
330
A
100
AcDbSymbolTableRecord
100
AcDbDimStyleTableRecord
  2
ISO-25
 70
     0
 41
2.5
 42
0.625
 43
3.75
 44
1.25
 73
     0
 74
     0
 77
     1
 78
     8
140
2.5
141
2.5
143
0.0393700787
147
0.625
171
     3
172
     1
178
     0
271
     2
272
     2
274
     3
278
    44
283
     0
284
     8
340
11
  0
ENDTAB
  0
TABLE
  2
BLOCK_RECORD
  5
1
330
0
100
AcDbSymbolTable
 70
     1
  0
BLOCK_RECORD
  5
1F
330
1
100
AcDbSymbolTableRecord
100
AcDbBlockTableRecord
  2
*Model_Space
340
22
  0
BLOCK_RECORD
  5
1B
330
1
100
AcDbSymbolTableRecord
100
AcDbBlockTableRecord
  2
*Paper_Space
340
1E
  0
BLOCK_RECORD
  5
23
330
1
100
AcDbSymbolTableRecord
100
AcDbBlockTableRecord
  2
*Paper_Space0
340
26
  0
ENDTAB
  0
ENDSEC
  0
SECTION
  2
BLOCKS
  0
BLOCK
  5
20
330
1F
100
AcDbEntity
  8
0
100
AcDbBlockBegin
  2
*Model_Space
 70
     0
 10
0.0
 20
0.0
 30
0.0
  3
*Model_Space
  1

  0
ENDBLK
  5
21
330
1F
100
AcDbEntity
  8
0
100
AcDbBlockEnd
  0
BLOCK
  5
1C
330
1B
100
AcDbEntity
 67
     1
  8
0
100
AcDbBlockBegin
  2
*Paper_Space
 70
     0
 10
0.0
 20
0.0
 30
0.0
  3
*Paper_Space
  1

  0
ENDBLK
  5
1D
330
1B
100
AcDbEntity
 67
     1
  8
0
100
AcDbBlockEnd
  0
BLOCK
  5
24
330
23
100
AcDbEntity
  8
0
100
AcDbBlockBegin
  2
*Paper_Space0
 70
     0
 10
0.0
 20
0.0
 30
0.0
  3
*Paper_Space0
  1

  0
ENDBLK
  5
25
330
23
100
AcDbEntity
  8
0
100
AcDbBlockEnd
  0
ENDSEC
  0
SECTION
  2
ENTITIES
  0
LINE
  5
75
330
1F
100
AcDbEntity
  8
SLD-0_0
  6
Continuous
 62
   179
370
    25
100
AcDbLine
 10
206.5968147769
 20
553.6445106978
 30
0.0
 11
206.5968147769
 21
551.6445108356
 31
0.0
  0
LINE
  5
76
330
1F
100
AcDbEntity
  8
SLD-0_0
  6
Continuous
 62
   179
370
    25
100
AcDbLine
 10
223.3968141778
 20
551.6445108356
 30
0.0
 11
223.3968141778
 21
553.6445106978
 31
0.0
  0
LINE
  5
77
330
1F
100
AcDbEntity
  8
SLD-0_0
  6
Continuous
 62
   179
370
    25
100
AcDbLine
 10
207.246814604
 20
545.6445107835
 30
0.0
 11
207.246814604
 21
542.6445102917
 31
0.0
  0
LINE
  5
78
330
1F
100
AcDbEntity
  8
SLD-0_0
  6
Continuous
 62
   179
370
    25
100
AcDbLine
 10
222.7468143507
 20
542.6445102917
 30
0.0
 11
222.7468143507
 21
545.6445107835
 31
0.0
  0
LINE
  5
79
330
1F
100
AcDbEntity
  8
SLD-0_0
  6
Continuous
 62
   179
370
    25
100
AcDbLine
 10
207.5968144751
 20
547.6445111113
 30
0.0
 11
207.5968144751
 21
545.6445107835
 31
0.0
  0
LINE
  5
7A
330
1F
100
AcDbEntity
  8
SLD-0_0
  6
Continuous
 62
   179
370
    25
100
AcDbLine
 10
222.3968144796
 20
545.6445107835
 30
0.0
 11
222.3968144796
 21
547.6445111113
 31
0.0
  0
LINE
  5
7B
330
1F
100
AcDbEntity
  8
SLD-0_0
  6
Continuous
 62
   179
370
    25
100
AcDbLine
 10
207.746814686
 20
542.6445102917
 30
0.0
 11
207.746814686
 21
343.7445128935
 31
0.0
  0
LINE
  5
7C
330
1F
100
AcDbEntity
  8
SLD-0_0
  6
Continuous
 62
   179
370
    25
100
AcDbLine
 10
222.2468142687
 20
343.7445128935
 30
0.0
 11
222.2468142687
 21
542.6445102917
 31
0.0
  0
LINE
  5
7D
330
1F
100
AcDbEntity
  8
SLD-0_0
  6
Continuous
 62
   179
370
    25
100
AcDbLine
 10
150.9968144989
 20
556.6445108183
 30
0.0
 11
150.9968144989
 21
552.2152249381
 31
0.0
  0
LINE
  5
7E
330
1F
100
AcDbEntity
  8
SLD-0_0
  6
Continuous
 62
   179
370
    25
100
AcDbLine
 10
278.996816692
 20
553.6445107239
 30
0.0
 11
278.996816692
 21
556.64451075
 31
0.0
  0
LINE
  5
7F
330
1F
100
AcDbEntity
  8
SLD-0_0
  6
Continuous
 62
   179
370
    25
100
AcDbLine
 10
152.4968144774
 20
334.7193563955
 30
0.0
 11
152.4968144774
 21
323.7445170658
 31
0.0
  0
LINE
  5
80
330
1F
100
AcDbEntity
  8
SLD-0_0
  6
Continuous
 62
   179
370
    25
100
AcDbLine
 10
277.4968144774
 20
323.7445170658
 30
0.0
 11
277.4968144774
 21
329.744514324
 31
0.0
  0
LINE
  5
81
330
1F
100
AcDbEntity
  8
SLD-0_0
  6
Continuous
 62
   179
370
    25
100
AcDbLine
 10
275.9968151628
 20
604.5518706219
 30
0.0
 11
275.9968151628
 21
604.6445111411
 31
0.0
  0
LINE
  5
82
330
1F
100
AcDbEntity
  8
SLD-0_0
  6
Continuous
 62
   179
370
    25
100
AcDbLine
 10
275.9968144774
 20
567.6445107239
 30
0.0
 11
275.9968151628
 21
589.1177880245
 31
0.0
  0
LINE
  5
83
330
1F
100
AcDbEntity
  8
SLD-0_0
  6
Continuous
 62
   179
370
    25
100
AcDbLine
 10
190.9968144774
 20
345.7445107239
 30
0.0
 11
190.9968144774
 21
344.7445107239
 31
0.0
  0
LINE
  5
84
330
1F
100
AcDbEntity
  8
SLD-0_0
  6
Continuous
 62
   179
370
    25
100
AcDbLine
 10
238.9968144774
 20
344.7445107239
 30
0.0
 11
238.9968144774
 21
345.7445107239
 31
0.0
  0
LINE
  5
85
330
1F
100
AcDbEntity
  8
SLD-0_0
  6
Continuous
 62
   179
370
    25
100
AcDbLine
 10
278.9348063349
 20
603.6445091145
 30
0.0
 11
278.9348063349
 21
605.6445094424
 31
0.0
  0
LINE
  5
86
330
1F
100
AcDbEntity
  8
SLD-0_0
  6
Continuous
 62
   179
370
    25
100
AcDbLine
 10
149.0588260173
 20
619.7445134299
 30
0.0
 11
149.0588260173
 21
617.6445114093
 31
0.0
  0
LINE
  5
87
330
1F
100
AcDbEntity
  8
SLD-0_0
  6
Continuous
 62
   179
370
    25
100
AcDbLine
 10
151.0588226198
 20
605.6445094424
 30
0.0
 11
151.0588226198
 21
603.6445091145
 31
0.0
  0
LINE
  5
88
330
1F
100
AcDbEntity
  8
SLD-0_0
  6
Continuous
 62
   179
370
    25
100
AcDbLine
 10
156.058825302
 20
603.6445091145
 30
0.0
 11
156.058825302
 21
605.6445094424
 31
0.0
  0
LINE
  5
89
330
1F
100
AcDbEntity
  8
SLD-0_0
  6
Continuous
 62
   179
370
    25
100
AcDbLine
 10
202.4342554911
 20
320.4445059078
 30
0.0
 11
202.4342554911
 21
321.4445079344
 31
0.0
  0
LINE
  5
8A
330
1F
100
AcDbEntity
  8
SLD-0_0
  6
Continuous
 62
   179
370
    25
100
AcDbLine
 10
193.6442551493
 20
321.4445079344
 30
0.0
 11
193.6442551493
 21
320.4445059078
 31
0.0
  0
LINE
  5
8B
330
1F
100
AcDbEntity
  8
SLD-0_0
  6
Continuous
 62
   179
370
    25
100
AcDbLine
 10
274.8574910044
 20
320.4445059078
 30
0.0
 11
274.8574910044
 21
321.4445079344
 31
0.0
  0
LINE
  5
8C
330
1F
100
AcDbEntity
  8
SLD-0_0
  6
Continuous
 62
   179
370
    25
100
AcDbLine
 10
266.0674897312
 20
321.4445079344
 30
0.0
 11
266.0674897312
 21
320.4445059078
 31
0.0
  0
LINE
  5
8D
330
1F
100
AcDbEntity
  8
SLD-0_0
  6
Continuous
 62
   179
370
    25
100
AcDbLine
 10
272.9624917089
 20
331.7445034759
 30
0.0
 11
272.9624917089
 21
332.4445153253
 31
0.0
  0
LINE
  5
8E
330
1F
100
AcDbEntity
  8
SLD-0_0
  6
Continuous
 62
   179
370
    25
100
AcDbLine
 10
163.9261392235
 20
320.4445059078
 30
0.0
 11
163.9261392235
 21
321.4445079344
 31
0.0
  0
LINE
  5
8F
330
1F
100
AcDbEntity
  8
SLD-0_0
  6
Continuous
 62
   179
370
    25
100
AcDbLine
 10
155.1361379503
 20
321.4445079344
 30
0.0
 11
155.1361379503
 21
320.4445059078
 31
0.0
  0
LINE
  5
90
330
1F
100
AcDbEntity
  8
SLD-0_0
  6
Continuous
 62
   179
370
    25
100
AcDbLine
 10
277.4968144774
 20
321.4445079344
 30
0.0
 11
277.4968144774
 21
323.7445170658
 31
0.0
  0
LINE
  5
91
330
1F
100
AcDbEntity
  8
SLD-0_0
  6
Continuous
 62
   179
370
    25
100
AcDbLine
 10
186.9441231071
 20
321.4445079344
 30
0.0
 11
188.0441231012
 21
320.344504215
 31
0.0
  0
LINE
  5
92
330
1F
100
AcDbEntity
  8
SLD-0_0
  6
Continuous
 62
   179
370
    25
100
AcDbLine
 10
241.9495058536
 20
320.344504215
 30
0.0
 11
243.0495058476
 21
321.4445079344
 31
0.0
  0
LINE
  5
93
330
1F
100
AcDbEntity
  8
SLD-0_0
  6
Continuous
 62
   179
370
    25
100
AcDbLine
 10
152.4968144774
 20
323.7445170658
 30
0.0
 11
152.4968144774
 21
321.4445079344
 31
0.0
  0
LINE
  5
94
330
1F
100
AcDbEntity
  8
SLD-0_0
  6
Continuous
 62
   179
370
    25
100
AcDbLine
 10
202.0568761333
 20
319.8281640785
 30
0.0
 11
202.1299095183
 21
319.7587246673
 31
0.0
  0
LINE
  5
95
330
1F
100
AcDbEntity
  8
SLD-0_0
  6
Continuous
 62
   179
370
    25
100
AcDbLine
 10
202.1299095183
 20
319.7587246673
 30
0.0
 11
204.4441231816
 21
317.4445147293
 31
0.0
  0
LINE
  5
96
330
1F
100
AcDbEntity
  8
SLD-0_0
  6
Continuous
 62
   179
370
    25
100
AcDbLine
 10
225.5495057731
 20
317.4445147293
 30
0.0
 11
227.8637192332
 21
319.7587242863
 31
0.0
  0
LINE
  5
97
330
1F
100
AcDbEntity
  8
SLD-0_0
  6
Continuous
 62
   179
370
    25
100
AcDbLine
 10
198.8142018496
 20
613.6445107537
 30
0.0
 11
198.8142018496
 21
604.6445111411
 31
0.0
  0
LINE
  5
98
330
1F
100
AcDbEntity
  8
SLD-0_0
  6
Continuous
 62
   179
370
    25
100
AcDbLine
 10
187.734437856
 20
627.128687002
 30
0.0
 11
187.5612099945
 21
617.6445114093
 31
0.0
  0
LINE
  5
99
330
1F
100
AcDbEntity
  8
SLD-0_0
  6
Continuous
 62
   179
370
    25
100
AcDbLine
 10
178.2648635387
 20
702.6664579885
 30
0.0
 11
176.3985378026
 21
617.6445114093
 31
0.0
  0
LINE
  5
9A
330
1F
100
AcDbEntity
  8
SLD-0_0
  6
Continuous
 62
   179
370
    25
100
AcDbLine
 10
266.5900809049
 20
724.0450049417
 30
0.0
 11
261.583126831
 21
724.4158948438
 31
0.0
  0
LINE
  5
9B
330
1F
100
AcDbEntity
  8
SLD-0_0
  6
Continuous
 62
   179
370
    25
100
AcDbLine
 10
247.4330661177
 20
725.4640425222
 30
0.0
 11
246.937717992
 21
725.5007440822
 31
0.0
  0
LINE
  5
9C
330
1F
100
AcDbEntity
  8
SLD-0_0
  6
Continuous
 62
   179
370
    25
100
AcDbLine
 10
184.070685628
 20
725.5759055393
 30
0.0
 11
182.560562837
 21
725.4640425222
 31
0.0
  0
LINE
  5
9D
330
1F
100
AcDbEntity
  8
SLD-0_0
  6
Continuous
 62
   179
370
    25
100
AcDbLine
 10
168.4123809517
 20
724.4160312865
 30
0.0
 11
163.4035456061
 21
724.0450072739
 31
0.0
  0
LINE
  5
9E
330
1F
100
AcDbEntity
  8
SLD-0_0
  6
Continuous
 62
   179
370
    25
100
AcDbLine
 10
281.4968156692
 20
614.6445090941
 30
0.0
 11
281.4968156692
 21
617.6445114485
 31
0.0
  0
LINE
  5
9F
330
1F
100
AcDbEntity
  8
SLD-0_0
  6
Continuous
 62
   179
370
    25
100
AcDbLine
 10
263.8286498665
 20
604.6445111411
 30
0.0
 11
263.8286498665
 21
613.6445107537
 31
0.0
  0
LINE
  5
A0
330
1F
100
AcDbEntity
  8
SLD-0_0
  6
Continuous
 62
   179
370
    25
100
AcDbLine
 10
167.1280038833
 20
705.1568443554
 30
0.0
 11
164.9675813793
 21
617.6445114093
 31
0.0
  0
LINE
  5
A1
330
1F
100
AcDbEntity
  8
SLD-0_0
  6
Continuous
 62
   179
370
    25
100
AcDbLine
 10
265.0260475754
 20
617.6445114093
 30
0.0
 11
262.8656250714
 21
705.1568443554
 31
0.0
  0
LINE
  5
A2
330
1F
100
AcDbEntity
  8
SLD-0_0
  6
Continuous
 62
   179
370
    25
100
AcDbLine
 10
262.0331493496
 20
705.9605235832
 30
0.0
 11
261.5769577502
 21
724.6689016598
 31
0.0
  0
LINE
  5
A3
330
1F
100
AcDbEntity
  8
SLD-0_0
  6
Continuous
 62
   179
370
    25
100
AcDbLine
 10
168.4185487508
 20
724.6688271539
 30
0.0
 11
167.9623087227
 21
705.9624607342
 31
0.0
  0
LINE
  5
A4
330
1F
100
AcDbEntity
  8
SLD-0_0
  6
Continuous
 62
   179
370
    25
100
AcDbLine
 10
275.9968151628
 20
604.6445111411
 30
0.0
 11
275.9968151628
 21
613.6445107537
 31
0.0
  0
LINE
  5
A5
330
1F
100
AcDbEntity
  8
SLD-0_0
  6
Continuous
 62
   179
370
    25
100
AcDbLine
 10
272.5290033102
 20
704.1308821738
 30
0.0
 11
272.1446174558
 21
718.2249762432
 31
0.0
  0
LINE
  5
A6
330
1F
100
AcDbEntity
  8
SLD-0_0
  6
Continuous
 62
   179
370
    25
100
AcDbLine
 10
157.8490090551
 20
718.2249785755
 30
0.0
 11
157.4646232008
 21
704.130884506
 31
0.0
  0
LINE
  5
A7
330
1F
100
AcDbEntity
  8
SLD-0_0
  6
Continuous
 62
   179
370
    25
100
AcDbLine
 10
270.5921783218
 20
617.6445108165
 30
0.0
 11
268.3341681132
 21
702.6710618545
 31
0.0
  0
LINE
  5
A8
330
1F
100
AcDbEntity
  8
SLD-0_0
  6
Continuous
 62
   179
370
    25
100
AcDbLine
 10
162.5191492318
 20
631.0030112641
 30
0.0
 11
150.8749124884
 21
618.3993818836
 31
0.0
  0
LINE
  5
A9
330
1F
100
AcDbEntity
  8
SLD-0_0
  6
Continuous
 62
   179
370
    25
100
AcDbLine
 10
244.9968167798
 20
726.5731748655
 30
0.0
 11
244.9968161092
 21
726.6445109966
 31
0.0
  0
LINE
  5
AA
330
1F
100
AcDbEntity
  8
SLD-0_0
  6
Continuous
 62
   179
370
    25
100
AcDbLine
 10
184.9968167798
 20
726.6445109966
 30
0.0
 11
184.9968161093
 21
726.5731748655
 31
0.0
  0
LINE
  5
AB
330
1F
100
AcDbEntity
  8
SLD-0_0
  6
Continuous
 62
   179
370
    25
100
AcDbLine
 10
276.5685994961
 20
617.64451213
 30
0.0
 11
274.2291395404
 21
702.6720168424
 31
0.0
  0
LINE
  5
AC
330
1F
100
AcDbEntity
  8
SLD-0_0
  6
Continuous
 62
   179
370
    25
100
AcDbLine
 10
145.2927442635
 20
617.6445092218
 30
0.0
 11
145.2927442635
 21
606.1445082681
 31
0.0
  0
LINE
  5
AD
330
1F
100
AcDbEntity
  8
SLD-0_0
  6
Continuous
 62
   179
370
    25
100
AcDbLine
 10
280.2172588031
 20
617.6445103108
 30
0.0
 11
277.8862925093
 21
702.671910715
 31
0.0
  0
LINE
  5
AE
330
1F
100
AcDbEntity
  8
SLD-0_0
  6
Continuous
 62
   179
370
    25
100
AcDbLine
 10
151.8959842464
 20
702.6718527336
 30
0.0
 11
149.6559597393
 21
620.7820818085
 31
0.0
  0
LINE
  5
AF
330
1F
100
AcDbEntity
  8
SLD-0_0
  6
Continuous
 62
   179
370
    25
100
AcDbLine
 10
157.2701704978
 20
703.7485803144
 30
0.0
 11
157.2482695161
 21
703.7326211708
 31
0.0
  0
LINE
  5
B0
330
1F
100
AcDbEntity
  8
SLD-0_0
  6
Continuous
 62
   179
370
    25
100
AcDbLine
 10
278.1638202547
 20
604.6445111411
 30
0.0
 11
278.1638202547
 21
613.6445107537
 31
0.0
  0
LINE
  5
B1
330
1F
100
AcDbEntity
  8
SLD-0_0
  6
Continuous
 62
   179
370
    25
100
AcDbLine
 10
284.7008822387
 20
606.1445107631
 30
0.0
 11
284.7008857009
 21
617.6445114485
 31
0.0
  0
LINE
  5
B2
330
1F
100
AcDbEntity
  8
SLD-0_0
  6
Continuous
 62
   179
370
    25
100
AcDbLine
 10
239.9968148499
 20
720.5774004238
 30
0.0
 11
239.9968148499
 21
720.0490946548
 31
0.0
  0
LINE
  5
B3
330
1F
100
AcDbEntity
  8
SLD-0_0
  6
Continuous
 62
   179
370
    25
100
AcDbLine
 10
247.9968142985
 20
720.0490946548
 30
0.0
 11
247.9968142985
 21
720.5774004238
 31
0.0
  0
LINE
  5
B4
330
1F
100
AcDbEntity
  8
SLD-0_0
  6
Continuous
 62
   179
370
    25
100
AcDbLine
 10
181.9968146562
 20
635.0653732794
 30
0.0
 11
181.9968146562
 21
634.5370600598
 31
0.0
  0
LINE
  5
B5
330
1F
100
AcDbEntity
  8
SLD-0_0
  6
Continuous
 62
   179
370
    25
100
AcDbLine
 10
189.9968141048
 20
634.5370600598
 30
0.0
 11
189.9968141048
 21
635.0653732794
 31
0.0
  0
LINE
  5
B6
330
1F
100
AcDbEntity
  8
SLD-0_0
  6
Continuous
 62
   179
370
    25
100
AcDbLine
 10
181.9968146562
 20
720.5774004238
 30
0.0
 11
181.9968146562
 21
720.0490946548
 31
0.0
  0
LINE
  5
B7
330
1F
100
AcDbEntity
  8
SLD-0_0
  6
Continuous
 62
   179
370
    25
100
AcDbLine
 10
189.9968141048
 20
720.0490946548
 30
0.0
 11
189.9968141048
 21
720.5774004238
 31
0.0
  0
LINE
  5
B8
330
1F
100
AcDbEntity
  8
SLD-0_0
  6
Continuous
 62
   179
370
    25
100
AcDbLine
 10
239.9968148499
 20
635.0653732794
 30
0.0
 11
239.9968148499
 21
634.5370600598
 31
0.0
  0
LINE
  5
B9
330
1F
100
AcDbEntity
  8
SLD-0_0
  6
Continuous
 62
   179
370
    25
100
AcDbLine
 10
247.9968142985
 20
634.5370600598
 30
0.0
 11
247.9968142985
 21
635.0653732794
 31
0.0
  0
LINE
  5
BA
330
1F
100
AcDbEntity
  8
SLD-0_0
  6
Continuous
 62
   179
370
    25
100
AcDbLine
 10
244.9968138069
 20
725.8661205547
 30
0.0
 11
185.9968153119
 21
725.8661205547
 31
0.0
  0
LINE
  5
BB
330
1F
100
AcDbEntity
  8
SLD-0_0
  6
Continuous
 62
   179
370
    25
100
AcDbLine
 10
230.496814224
 20
727.6445145386
 30
0.0
 11
230.496814224
 21
728.8445050495
 31
0.0
  0
LINE
  5
BC
330
1F
100
AcDbEntity
  8
SLD-0_0
  6
Continuous
 62
   179
370
    25
100
AcDbLine
 10
199.4968147307
 20
728.8445050495
 30
0.0
 11
199.4968147307
 21
727.6445145386
 31
0.0
  0
LINE
  5
BD
330
1F
100
AcDbEntity
  8
SLD-0_0
  6
Continuous
 62
   179
370
    25
100
AcDbLine
 10
200.9968140452
 20
550.1445105897
 30
0.0
 11
204.31799044
 21
549.853945397
 31
0.0
  0
LINE
  5
BE
330
1F
100
AcDbEntity
  8
SLD-0_0
  6
Continuous
 62
   179
370
    25
100
AcDbLine
 10
225.6756385147
 20
549.853945397
 30
0.0
 11
228.9968149095
 21
550.1445105897
 31
0.0
  0
LINE
  5
BF
330
1F
100
AcDbEntity
  8
SLD-0_0
  6
Continuous
 62
   179
370
    25
100
AcDbLine
 10
200.9968140452
 20
551.6445108356
 30
0.0
 11
200.9968140452
 21
550.1445105897
 31
0.0
  0
LINE
  5
C0
330
1F
100
AcDbEntity
  8
SLD-0_0
  6
Continuous
 62
   179
370
    25
100
AcDbLine
 10
228.9968149095
 20
550.1445105897
 30
0.0
 11
228.9968149095
 21
551.6445108356
 31
0.0
  0
LINE
  5
C1
330
1F
100
AcDbEntity
  8
SLD-0_0
  6
Continuous
 62
   179
370
    25
100
AcDbLine
 10
205.6138419335
 20
548.8231788368
 30
0.0
 11
205.9968148232
 21
547.6445110589
 31
0.0
  0
LINE
  5
C2
330
1F
100
AcDbEntity
  8
SLD-0_0
  6
Continuous
 62
   179
370
    25
100
AcDbLine
 10
223.9968140483
 20
547.6445110589
 30
0.0
 11
224.3797869379
 21
548.8231788368
 31
0.0
  0
LINE
  5
C3
330
1F
100
AcDbEntity
  8
SLD-0_0
  6
Continuous
 62
   179
370
    25
100
AcDbLine
 10
207.246814604
 20
545.6445107835
 30
0.0
 11
222.7468143507
 21
545.6445107835
 31
0.0
  0
LINE
  5
C4
330
1F
100
AcDbEntity
  8
SLD-0_0
  6
Continuous
 62
   179
370
    25
100
AcDbLine
 10
207.246814604
 20
542.6445102917
 30
0.0
 11
222.7468143507
 21
542.6445102917
 31
0.0
  0
LINE
  5
C5
330
1F
100
AcDbEntity
  8
SLD-0_0
  6
Continuous
 62
   179
370
    25
100
AcDbLine
 10
158.4282738446
 20
564.6445111038
 30
0.0
 11
158.4282738446
 21
556.6445107239
 31
0.0
  0
LINE
  5
C6
330
1F
100
AcDbEntity
  8
SLD-0_0
  6
Continuous
 62
   179
370
    25
100
AcDbLine
 10
144.9968141793
 20
564.6445111038
 30
0.0
 11
144.9968141793
 21
556.6445107239
 31
0.0
  0
LINE
  5
C7
330
1F
100
AcDbEntity
  8
SLD-0_0
  6
Continuous
 62
   179
370
    25
100
AcDbLine
 10
158.4282738446
 20
564.6445111038
 30
0.0
 11
144.9968141793
 21
564.6445111038
 31
0.0
  0
LINE
  5
C8
330
1F
100
AcDbEntity
  8
SLD-0_0
  6
Continuous
 62
   179
370
    25
100
AcDbLine
 10
158.4282738446
 20
556.6445107239
 30
0.0
 11
144.9968141793
 21
556.6445107239
 31
0.0
  0
LINE
  5
C9
330
1F
100
AcDbEntity
  8
SLD-0_0
  6
Continuous
 62
   179
370
    25
100
AcDbLine
 10
271.5653551101
 20
564.6445111038
 30
0.0
 11
271.5653551101
 21
556.6445107239
 31
0.0
  0
LINE
  5
CA
330
1F
100
AcDbEntity
  8
SLD-0_0
  6
Continuous
 62
   179
370
    25
100
AcDbLine
 10
271.5653551101
 20
564.6445111038
 30
0.0
 11
158.4282738446
 21
564.6445111038
 31
0.0
  0
LINE
  5
CB
330
1F
100
AcDbEntity
  8
SLD-0_0
  6
Continuous
 62
   179
370
    25
100
AcDbLine
 10
271.5653551101
 20
556.6445107239
 30
0.0
 11
158.4282738446
 21
556.6445107239
 31
0.0
  0
LINE
  5
CC
330
1F
100
AcDbEntity
  8
SLD-0_0
  6
Continuous
 62
   179
370
    25
100
AcDbLine
 10
284.9968147754
 20
564.6445111038
 30
0.0
 11
284.9968147754
 21
556.6445107239
 31
0.0
  0
LINE
  5
CD
330
1F
100
AcDbEntity
  8
SLD-0_0
  6
Continuous
 62
   179
370
    25
100
AcDbLine
 10
284.9968147754
 20
564.6445111038
 30
0.0
 11
271.5653551101
 21
564.6445111038
 31
0.0
  0
LINE
  5
CE
330
1F
100
AcDbEntity
  8
SLD-0_0
  6
Continuous
 62
   179
370
    25
100
AcDbLine
 10
284.9968147754
 20
556.6445107239
 30
0.0
 11
271.5653551101
 21
556.6445107239
 31
0.0
  0
LINE
  5
CF
330
1F
100
AcDbEntity
  8
SLD-0_0
  6
Continuous
 62
   179
370
    25
100
AcDbLine
 10
152.4968210938
 20
334.7445099356
 30
0.0
 11
152.4979126038
 21
334.7445099356
 31
0.0
  0
LINE
  5
D0
330
1F
100
AcDbEntity
  8
SLD-0_0
  6
Continuous
 62
   179
370
    25
100
AcDbLine
 10
278.996816692
 20
553.6445107239
 30
0.0
 11
153.6664653989
 21
553.6445107239
 31
0.0
  0
LINE
  5
D1
330
1F
100
AcDbEntity
  8
SLD-0_0
  6
Continuous
 62
   179
370
    25
100
AcDbLine
 10
277.4968144774
 20
323.7445170658
 30
0.0
 11
152.4968144774
 21
323.7445170658
 31
0.0
  0
LINE
  5
D2
330
1F
100
AcDbEntity
  8
SLD-0_0
  6
Continuous
 62
   179
370
    25
100
AcDbLine
 10
162.2523327648
 20
604.6445111411
 30
0.0
 11
198.8142018496
 21
604.6445111411
 31
0.0
  0
LINE
  5
D3
330
1F
100
AcDbEntity
  8
SLD-0_0
  6
Continuous
 62
   179
370
    25
100
AcDbLine
 10
205.7571855663
 20
604.6445111411
 30
0.0
 11
257.9130378842
 21
604.6445111411
 31
0.0
  0
LINE
  5
D4
330
1F
100
AcDbEntity
  8
SLD-0_0
  6
Continuous
 62
   179
370
    25
100
AcDbLine
 10
263.8286498665
 20
604.6445111411
 30
0.0
 11
275.9968151628
 21
604.6445111411
 31
0.0
  0
LINE
  5
D5
330
1F
100
AcDbEntity
  8
SLD-0_0
  6
Continuous
 62
   179
370
    25
100
AcDbLine
 10
173.9366625191
 20
343.7445065316
 30
0.0
 11
214.8710243278
 21
343.7445087013
 31
0.0
  0
LINE
  5
D6
330
1F
100
AcDbEntity
  8
SLD-0_0
  6
Continuous
 62
   179
370
    25
100
AcDbLine
 10
214.8710243278
 20
343.7445087013
 30
0.0
 11
251.9471558558
 21
343.7445087013
 31
0.0
  0
LINE
  5
D7
330
1F
100
AcDbEntity
  8
SLD-0_0
  6
Continuous
 62
   179
370
    25
100
AcDbLine
 10
214.996817231
 20
334.7445087013
 30
0.0
 11
214.996817231
 21
335.7445087013
 31
0.0
  0
LINE
  5
D8
330
1F
100
AcDbEntity
  8
SLD-0_0
  6
Continuous
 62
   179
370
    25
100
AcDbLine
 10
199.7456441453
 20
335.7445107239
 30
0.0
 11
199.7456445648
 21
334.7445095556
 31
0.0
  0
LINE
  5
D9
330
1F
100
AcDbEntity
  8
SLD-0_0
  6
Continuous
 62
   179
370
    25
100
AcDbLine
 10
268.5463314234
 20
334.7445095556
 30
0.0
 11
268.5463314234
 21
335.7445115822
 31
0.0
  0
LINE
  5
DA
330
1F
100
AcDbEntity
  8
SLD-0_0
  6
Continuous
 62
   179
370
    25
100
AcDbLine
 10
195.9569507568
 20
334.7445095556
 30
0.0
 11
195.9569506223
 21
335.7445107239
 31
0.0
  0
LINE
  5
DB
330
1F
100
AcDbEntity
  8
SLD-0_0
  6
Continuous
 62
   179
370
    25
100
AcDbLine
 10
195.9392556279
 20
337.2445071714
 30
0.0
 11
199.8604952647
 21
337.2445071714
 31
0.0
  0
LINE
  5
DC
330
1F
100
AcDbEntity
  8
SLD-0_0
  6
Continuous
 62
   179
370
    25
100
AcDbLine
 10
152.4979126038
 20
548.6445107239
 30
0.0
 11
152.4979126038
 21
334.7445099356
 31
0.0
  0
LINE
  5
DD
330
1F
100
AcDbEntity
  8
SLD-0_0
  6
Continuous
 62
   179
370
    25
100
AcDbLine
 10
258.0097920756
 20
331.7445179718
 30
0.0
 11
275.4805433736
 21
331.7445107239
 31
0.0
  0
LINE
  5
DE
330
1F
100
AcDbEntity
  8
SLD-0_0
  6
Continuous
 62
   179
370
    25
100
AcDbLine
 10
151.9826358735
 20
603.6445082502
 30
0.0
 11
153.2466343224
 21
603.6445082502
 31
0.0
  0
LINE
  5
DF
330
1F
100
AcDbEntity
  8
SLD-0_0
  6
Continuous
 62
   179
370
    25
100
AcDbLine
 10
158.9020450889
 20
591.6445108729
 30
0.0
 11
152.8639530121
 21
591.6445108729
 31
0.0
  0
LINE
  5
E0
330
1F
100
AcDbEntity
  8
SLD-0_0
  6
Continuous
 62
   179
370
    25
100
AcDbLine
 10
153.2466343224
 20
603.6445082502
 30
0.0
 11
159.9786548495
 21
603.6445082502
 31
0.0
  0
LINE
  5
E1
330
1F
100
AcDbEntity
  8
SLD-0_0
  6
Continuous
 62
   179
370
    25
100
AcDbLine
 10
147.0464623153
 20
603.6445082502
 30
0.0
 11
151.9826358735
 21
603.6445082502
 31
0.0
  0
LINE
  5
E2
330
1F
100
AcDbEntity
  8
SLD-0_0
  6
Continuous
 62
   179
370
    25
100
AcDbLine
 10
152.8639530121
 20
591.6445108729
 30
0.0
 11
148.3541128515
 21
591.6445108729
 31
0.0
  0
LINE
  5
E3
330
1F
100
AcDbEntity
  8
SLD-0_0
  6
Continuous
 62
   179
370
    25
100
AcDbLine
 10
159.9786548495
 20
603.6445082502
 30
0.0
 11
161.3876676737
 21
603.6445082502
 31
0.0
  0
LINE
  5
E4
330
1F
100
AcDbEntity
  8
SLD-0_0
  6
Continuous
 62
   179
370
    25
100
AcDbLine
 10
156.1554183542
 20
604.6445111411
 30
0.0
 11
162.2523327648
 21
604.6445111411
 31
0.0
  0
LINE
  5
E5
330
1F
100
AcDbEntity
  8
SLD-0_0
  6
Continuous
 62
   179
370
    25
100
AcDbLine
 10
179.2635171506
 20
548.6445107239
 30
0.0
 11
179.2635171506
 21
363.7445107239
 31
0.0
  0
LINE
  5
E6
330
1F
100
AcDbEntity
  8
SLD-0_0
  6
Continuous
 62
   179
370
    25
100
AcDbLine
 10
250.4968144774
 20
375.7445181387
 30
0.0
 11
250.4968144774
 21
548.6445107239
 31
0.0
  0
LINE
  5
E7
330
1F
100
AcDbEntity
  8
SLD-0_0
  6
Continuous
 62
   179
370
    25
100
AcDbLine
 10
260.9951083838
 20
343.7445128935
 30
0.0
 11
262.4832165717
 21
343.7445128935
 31
0.0
  0
LINE
  5
E8
330
1F
100
AcDbEntity
  8
SLD-0_0
  6
Continuous
 62
   179
370
    25
100
AcDbLine
 10
268.6079631784
 20
337.3496839779
 30
0.0
 11
268.4611047843
 21
337.2445115822
 31
0.0
  0
LINE
  5
E9
330
1F
100
AcDbEntity
  8
SLD-0_0
  6
Continuous
 62
   179
370
    25
100
AcDbLine
 10
144.9968141793
 20
564.6445111038
 30
0.0
 11
144.9968141793
 21
567.6445106643
 31
0.0
  0
LINE
  5
EA
330
1F
100
AcDbEntity
  8
SLD-0_0
  6
Continuous
 62
   179
370
    25
100
AcDbLine
 10
145.9968162059
 20
600.6285215395
 30
0.0
 11
145.9968162059
 21
602.6445108133
 31
0.0
  0
LINE
  5
EB
330
1F
100
AcDbEntity
  8
SLD-0_0
  6
Continuous
 62
   179
370
    25
100
AcDbLine
 10
146.9968153416
 20
603.6445098596
 30
0.0
 11
147.0464623153
 21
603.6445082502
 31
0.0
  0
LINE
  5
EC
330
1F
100
AcDbEntity
  8
SLD-0_0
  6
Continuous
 62
   179
370
    25
100
AcDbLine
 10
134.9968162655
 20
564.6445111038
 30
0.0
 11
134.9968162655
 21
596.6445098298
 31
0.0
  0
LINE
  5
ED
330
1F
100
AcDbEntity
  8
SLD-0_0
  6
Continuous
 62
   179
370
    25
100
AcDbLine
 10
134.9968162655
 20
563.6445109399
 30
0.0
 11
134.9968162655
 21
564.6445111038
 31
0.0
  0
LINE
  5
EE
330
1F
100
AcDbEntity
  8
SLD-0_0
  6
Continuous
 62
   179
370
    25
100
AcDbLine
 10
134.9968162655
 20
596.6445098298
 30
0.0
 11
134.9968162655
 21
599.6445121842
 31
0.0
  0
LINE
  5
EF
330
1F
100
AcDbEntity
  8
SLD-0_0
  6
Continuous
 62
   179
370
    25
100
AcDbLine
 10
144.9968150734
 20
561.6445115062
 30
0.0
 11
136.9968153715
 21
561.6445116179
 31
0.0
  0
LINE
  5
F0
330
1F
100
AcDbEntity
  8
SLD-0_0
  6
Continuous
 62
   179
370
    25
100
AcDbLine
 10
136.9968153715
 20
601.6445098298
 30
0.0
 11
143.1683904408
 21
601.6445116179
 31
0.0
  0
LINE
  5
F1
330
1F
100
AcDbEntity
  8
SLD-0_0
  6
Continuous
 62
   179
370
    25
100
AcDbLine
 10
269.1894485176
 20
335.7445107239
 30
0.0
 11
269.1894469141
 21
334.7445095556
 31
0.0
  0
LINE
  5
F2
330
1F
100
AcDbEntity
  8
SLD-0_0
  6
Continuous
 62
   179
370
    25
100
AcDbLine
 10
268.4234080195
 20
337.2445071714
 30
0.0
 11
269.0079186535
 21
337.2445107239
 31
0.0
  0
LINE
  5
F3
330
1F
100
AcDbEntity
  8
SLD-0_0
  6
Continuous
 62
   179
370
    25
100
AcDbLine
 10
179.4968133151
 20
355.6204701441
 30
0.0
 11
179.4938554346
 21
356.4457411545
 31
0.0
  0
LINE
  5
F4
330
1F
100
AcDbEntity
  8
SLD-0_0
  6
Continuous
 62
   179
370
    25
100
AcDbLine
 10
179.4968133151
 20
355.6204701441
 30
0.0
 11
179.4968133151
 21
346.744504072
 31
0.0
  0
LINE
  5
F5
330
1F
100
AcDbEntity
  8
SLD-0_0
  6
Continuous
 62
   179
370
    25
100
AcDbLine
 10
193.8308046489
 20
346.744504072
 30
0.0
 11
194.9968149244
 21
346.744504072
 31
0.0
  0
LINE
  5
F6
330
1F
100
AcDbEntity
  8
SLD-0_0
  6
Continuous
 62
   179
370
    25
100
AcDbLine
 10
195.9968111514
 20
345.744507398
 30
0.0
 11
195.9968111514
 21
344.744507398
 31
0.0
  0
LINE
  5
F7
330
1F
100
AcDbEntity
  8
SLD-0_0
  6
Continuous
 62
   179
370
    25
100
AcDbLine
 10
233.9968144774
 20
344.7445107239
 30
0.0
 11
233.9968144774
 21
345.7445107239
 31
0.0
  0
LINE
  5
F8
330
1F
100
AcDbEntity
  8
SLD-0_0
  6
Continuous
 62
   179
370
    25
100
AcDbLine
 10
234.9968144774
 20
346.7445107239
 30
0.0
 11
236.1628243058
 21
346.744504072
 31
0.0
  0
LINE
  5
F9
330
1F
100
AcDbEntity
  8
SLD-0_0
  6
Continuous
 62
   179
370
    25
100
AcDbLine
 10
191.9968144774
 20
346.7445107239
 30
0.0
 11
193.8308046489
 21
346.744504072
 31
0.0
  0
LINE
  5
FA
330
1F
100
AcDbEntity
  8
SLD-0_0
  6
Continuous
 62
   179
370
    25
100
AcDbLine
 10
236.1628243058
 20
346.744504072
 30
0.0
 11
237.9968144774
 21
346.7445107239
 31
0.0
  0
LINE
  5
FB
330
1F
100
AcDbEntity
  8
SLD-0_0
  6
Continuous
 62
   179
370
    25
100
AcDbLine
 10
179.4968144774
 20
548.6445107239
 30
0.0
 11
179.4968144774
 21
374.3902559059
 31
0.0
  0
LINE
  5
FC
330
1F
100
AcDbEntity
  8
SLD-0_0
  6
Continuous
 62
   179
370
    25
100
AcDbLine
 10
272.4968144774
 20
548.6445107239
 30
0.0
 11
272.4968144774
 21
334.7445107239
 31
0.0
  0
LINE
  5
FD
330
1F
100
AcDbEntity
  8
SLD-0_0
  6
Continuous
 62
   179
370
    25
100
AcDbLine
 10
276.9947757303
 20
603.6445091145
 30
0.0
 11
278.9264616846
 21
603.6445091145
 31
0.0
  0
LINE
  5
FE
330
1F
100
AcDbEntity
  8
SLD-0_0
  6
Continuous
 62
   179
370
    25
100
AcDbLine
 10
182.4968144774
 20
372.7445107239
 30
0.0
 11
187.5826006114
 21
372.744512059
 31
0.0
  0
LINE
  5
FF
330
1F
100
AcDbEntity
  8
SLD-0_0
  6
Continuous
 62
   179
370
    25
100
AcDbLine
 10
184.9968195145
 20
355.7445104781
 30
0.0
 11
184.9968195145
 21
346.7445104781
 31
0.0
  0
LINE
  5
100
330
1F
100
AcDbEntity
  8
SLD-0_0
  6
Continuous
 62
   179
370
    25
100
AcDbLine
 10
188.2897085208
 20
372.4516178395
 30
0.0
 11
197.7039231617
 21
363.0374069239
 31
0.0
  0
LINE
  5
101
330
1F
100
AcDbEntity
  8
SLD-0_0
  6
Continuous
 62
   179
370
    25
100
AcDbLine
 10
196.9968202893
 20
360.7445172968
 30
0.0
 11
189.9968195145
 21
360.7445104781
 31
0.0
  0
LINE
  5
102
330
1F
100
AcDbEntity
  8
SLD-0_0
  6
Continuous
 62
   179
370
    25
100
AcDbLine
 10
197.9968161052
 20
362.3303003251
 30
0.0
 11
197.9968161052
 21
361.7445138875
 31
0.0
  0
LINE
  5
103
330
1F
100
AcDbEntity
  8
SLD-0_0
  6
Continuous
 62
   179
370
    25
100
AcDbLine
 10
232.9968137025
 20
361.744504668
 30
0.0
 11
232.8017239749
 21
361.5494186657
 31
0.0
  0
LINE
  5
104
330
1F
100
AcDbEntity
  8
SLD-0_0
  6
Continuous
 62
   179
370
    25
100
AcDbLine
 10
232.8017239749
 20
361.5494186657
 30
0.0
 11
232.6141313939
 21
361.3618279474
 31
0.0
  0
LINE
  5
105
330
1F
100
AcDbEntity
  8
SLD-0_0
  6
Continuous
 62
   179
370
    25
100
AcDbLine
 10
232.6141313939
 20
361.3618279474
 30
0.0
 11
232.4412443965
 21
361.1889446752
 31
0.0
  0
LINE
  5
106
330
1F
100
AcDbEntity
  8
SLD-0_0
  6
Continuous
 62
   179
370
    25
100
AcDbLine
 10
232.4412443965
 20
361.1889446752
 30
0.0
 11
232.2897070377
 21
361.0373998659
 31
0.0
  0
LINE
  5
107
330
1F
100
AcDbEntity
  8
SLD-0_0
  6
Continuous
 62
   179
370
    25
100
AcDbLine
 10
232.2897070377
 20
361.0373998659
 30
0.0
 11
232.1653456717
 21
360.9130347746
 31
0.0
  0
LINE
  5
108
330
1F
100
AcDbEntity
  8
SLD-0_0
  6
Continuous
 62
   179
370
    25
100
AcDbLine
 10
232.1653456717
 20
360.9130347746
 30
0.0
 11
232.0729342579
 21
360.820632674
 31
0.0
  0
LINE
  5
109
330
1F
100
AcDbEntity
  8
SLD-0_0
  6
Continuous
 62
   179
370
    25
100
AcDbLine
 10
232.0729342579
 20
360.820632674
 30
0.0
 11
232.0160285859
 21
360.7637251394
 31
0.0
  0
LINE
  5
10A
330
1F
100
AcDbEntity
  8
SLD-0_0
  6
Continuous
 62
   179
370
    25
100
AcDbLine
 10
232.0160285859
 20
360.7637251394
 30
0.0
 11
231.9968154012
 21
360.7445175426
 31
0.0
  0
LINE
  5
10B
330
1F
100
AcDbEntity
  8
SLD-0_0
  6
Continuous
 62
   179
370
    25
100
AcDbLine
 10
231.9968154012
 20
360.7445175426
 30
0.0
 11
231.9968144774
 21
362.3302971615
 31
0.0
  0
LINE
  5
10C
330
1F
100
AcDbEntity
  8
SLD-0_0
  6
Continuous
 62
   179
370
    25
100
AcDbLine
 10
239.9968148499
 20
360.7445175426
 30
0.0
 11
231.9968154012
 21
360.7445175426
 31
0.0
  0
LINE
  5
10D
330
1F
100
AcDbEntity
  8
SLD-0_0
  6
Continuous
 62
   179
370
    25
100
AcDbLine
 10
232.2897076962
 20
363.0374039427
 30
0.0
 11
241.7039216786
 21
372.4516148346
 31
0.0
  0
LINE
  5
10E
330
1F
100
AcDbEntity
  8
SLD-0_0
  6
Continuous
 62
   179
370
    25
100
AcDbLine
 10
242.4110288123
 20
372.7445088586
 30
0.0
 11
247.5451496995
 21
372.7445101937
 31
0.0
  0
LINE
  5
10F
330
1F
100
AcDbEntity
  8
SLD-0_0
  6
Continuous
 62
   179
370
    25
100
AcDbLine
 10
244.9968178868
 20
346.7445141333
 30
0.0
 11
244.9968178868
 21
355.7445141333
 31
0.0
  0
LINE
  5
110
330
1F
100
AcDbEntity
  8
SLD-0_0
  6
Continuous
 62
   179
370
    25
100
AcDbLine
 10
276.0803361713
 20
331.654932596
 30
0.0
 11
275.8815137028
 21
331.7055220382
 31
0.0
  0
LINE
  5
111
330
1F
100
AcDbEntity
  8
SLD-0_0
  6
Continuous
 62
   179
370
    25
100
AcDbLine
 10
275.8815137028
 20
331.7055220382
 30
0.0
 11
275.491855461
 21
331.7445148225
 31
0.0
  0
LINE
  5
112
330
1F
100
AcDbEntity
  8
SLD-0_0
  6
Continuous
 62
   179
370
    25
100
AcDbLine
 10
152.4968234746
 20
548.6445107239
 30
0.0
 11
152.4979126038
 21
548.6445107239
 31
0.0
  0
LINE
  5
113
330
1F
100
AcDbEntity
  8
SLD-0_0
  6
Continuous
 62
   179
370
    25
100
AcDbLine
 10
281.9968162804
 20
591.644510858
 30
0.0
 11
278.9655550151
 21
591.644510858
 31
0.0
  0
LINE
  5
114
330
1F
100
AcDbEntity
  8
SLD-0_0
  6
Continuous
 62
   179
370
    25
100
AcDbLine
 10
278.9264616846
 20
603.6445091145
 30
0.0
 11
281.9968161463
 21
603.6445091145
 31
0.0
  0
LINE
  5
115
330
1F
100
AcDbEntity
  8
SLD-0_0
  6
Continuous
 62
   179
370
    25
100
AcDbLine
 10
283.9968128084
 20
602.6445108729
 30
0.0
 11
283.996814537
 21
593.6445107835
 31
0.0
  0
LINE
  5
116
330
1F
100
AcDbEntity
  8
SLD-0_0
  6
Continuous
 62
   179
370
    25
100
AcDbLine
 10
281.9968161463
 20
603.6445091145
 30
0.0
 11
282.9968181728
 21
603.6445091145
 31
0.0
  0
LINE
  5
117
330
1F
100
AcDbEntity
  8
SLD-0_0
  6
Continuous
 62
   179
370
    25
100
AcDbLine
 10
150.2588257913
 20
620.944510498
 30
0.0
 11
153.2263047748
 21
620.9445111655
 31
0.0
  0
LINE
  5
118
330
1F
100
AcDbEntity
  8
SLD-0_0
  6
Continuous
 62
   179
370
    25
100
AcDbLine
 10
201.5911347522
 20
320.4445059078
 30
0.0
 11
202.4342554911
 21
320.4445059078
 31
0.0
  0
LINE
  5
119
330
1F
100
AcDbEntity
  8
SLD-0_0
  6
Continuous
 62
   179
370
    25
100
AcDbLine
 10
197.5735144048
 20
320.4445059078
 30
0.0
 11
201.5911347522
 21
320.4445059078
 31
0.0
  0
LINE
  5
11A
330
1F
100
AcDbEntity
  8
SLD-0_0
  6
Continuous
 62
   179
370
    25
100
AcDbLine
 10
194.0216345071
 20
320.4445059078
 30
0.0
 11
197.5735144048
 21
320.4445059078
 31
0.0
  0
LINE
  5
11B
330
1F
100
AcDbEntity
  8
SLD-0_0
  6
Continuous
 62
   179
370
    25
100
AcDbLine
 10
193.6442551493
 20
320.4445059078
 30
0.0
 11
194.0216345071
 21
320.4445059078
 31
0.0
  0
LINE
  5
11C
330
1F
100
AcDbEntity
  8
SLD-0_0
  6
Continuous
 62
   179
370
    25
100
AcDbLine
 10
197.5735144048
 20
320.4445059078
 30
0.0
 11
197.5735144048
 21
316.9445062654
 31
0.0
  0
LINE
  5
11D
330
1F
100
AcDbEntity
  8
SLD-0_0
  6
Continuous
 62
   179
370
    25
100
AcDbLine
 10
201.5911347522
 20
320.4445059078
 30
0.0
 11
201.5911347522
 21
316.9445062654
 31
0.0
  0
LINE
  5
11E
330
1F
100
AcDbEntity
  8
SLD-0_0
  6
Continuous
 62
   179
370
    25
100
AcDbLine
 10
197.5735144048
 20
316.9445062654
 30
0.0
 11
201.5911347522
 21
316.9445062654
 31
0.0
  0
LINE
  5
11F
330
1F
100
AcDbEntity
  8
SLD-0_0
  6
Continuous
 62
   179
370
    25
100
AcDbLine
 10
194.0216345071
 20
320.4445059078
 30
0.0
 11
194.0216345071
 21
316.9445062654
 31
0.0
  0
LINE
  5
120
330
1F
100
AcDbEntity
  8
SLD-0_0
  6
Continuous
 62
   179
370
    25
100
AcDbLine
 10
194.0216345071
 20
316.9445062654
 30
0.0
 11
197.5735144048
 21
316.9445062654
 31
0.0
  0
LINE
  5
121
330
1F
100
AcDbEntity
  8
SLD-0_0
  6
Continuous
 62
   179
370
    25
100
AcDbLine
 10
195.9608325093
 20
332.4445153253
 30
0.0
 11
199.2140987246
 21
332.4445153253
 31
0.0
  0
LINE
  5
122
330
1F
100
AcDbEntity
  8
SLD-0_0
  6
Continuous
 62
   179
370
    25
100
AcDbLine
 10
202.0568761333
 20
320.4445059078
 30
0.0
 11
202.0568761333
 21
316.9445062654
 31
0.0
  0
LINE
  5
123
330
1F
100
AcDbEntity
  8
SLD-0_0
  6
Continuous
 62
   179
370
    25
100
AcDbLine
 10
201.5911347522
 20
316.9445062654
 30
0.0
 11
202.0568761333
 21
316.9445062654
 31
0.0
  0
LINE
  5
124
330
1F
100
AcDbEntity
  8
SLD-0_0
  6
Continuous
 62
   179
370
    25
100
AcDbLine
 10
274.2686716198
 20
320.4445059078
 30
0.0
 11
274.8574910044
 21
320.4445059078
 31
0.0
  0
LINE
  5
125
330
1F
100
AcDbEntity
  8
SLD-0_0
  6
Continuous
 62
   179
370
    25
100
AcDbLine
 10
270.4624903678
 20
320.4445059078
 30
0.0
 11
274.2686716198
 21
320.4445059078
 31
0.0
  0
LINE
  5
126
330
1F
100
AcDbEntity
  8
SLD-0_0
  6
Continuous
 62
   179
370
    25
100
AcDbLine
 10
266.6563091158
 20
320.4445059078
 30
0.0
 11
270.4624903678
 21
320.4445059078
 31
0.0
  0
LINE
  5
127
330
1F
100
AcDbEntity
  8
SLD-0_0
  6
Continuous
 62
   179
370
    25
100
AcDbLine
 10
266.0674897312
 20
320.4445059078
 30
0.0
 11
266.6563091158
 21
320.4445059078
 31
0.0
  0
LINE
  5
128
330
1F
100
AcDbEntity
  8
SLD-0_0
  6
Continuous
 62
   179
370
    25
100
AcDbLine
 10
266.6563091158
 20
320.4445059078
 30
0.0
 11
266.6563091158
 21
316.9445062654
 31
0.0
  0
LINE
  5
129
330
1F
100
AcDbEntity
  8
SLD-0_0
  6
Continuous
 62
   179
370
    25
100
AcDbLine
 10
270.4624903678
 20
320.4445059078
 30
0.0
 11
270.4624903678
 21
316.9445062654
 31
0.0
  0
LINE
  5
12A
330
1F
100
AcDbEntity
  8
SLD-0_0
  6
Continuous
 62
   179
370
    25
100
AcDbLine
 10
266.6563091158
 20
316.9445062654
 30
0.0
 11
270.4624903678
 21
316.9445062654
 31
0.0
  0
LINE
  5
12B
330
1F
100
AcDbEntity
  8
SLD-0_0
  6
Continuous
 62
   179
370
    25
100
AcDbLine
 10
274.2686716198
 20
320.4445059078
 30
0.0
 11
274.2686716198
 21
316.9445062654
 31
0.0
  0
LINE
  5
12C
330
1F
100
AcDbEntity
  8
SLD-0_0
  6
Continuous
 62
   179
370
    25
100
AcDbLine
 10
270.4624903678
 20
316.9445062654
 30
0.0
 11
274.2686716198
 21
316.9445062654
 31
0.0
  0
LINE
  5
12D
330
1F
100
AcDbEntity
  8
SLD-0_0
  6
Continuous
 62
   179
370
    25
100
AcDbLine
 10
269.275296229
 20
332.4445153253
 30
0.0
 11
272.9624917089
 21
332.4445153253
 31
0.0
  0
LINE
  5
12E
330
1F
100
AcDbEntity
  8
SLD-0_0
  6
Continuous
 62
   179
370
    25
100
AcDbLine
 10
228.1481919169
 20
319.9948633688
 30
0.0
 11
228.1481919169
 21
316.9445062654
 31
0.0
  0
LINE
  5
12F
330
1F
100
AcDbEntity
  8
SLD-0_0
  6
Continuous
 62
   179
370
    25
100
AcDbLine
 10
231.9543731689
 20
320.344504215
 30
0.0
 11
231.9543731689
 21
316.9445062654
 31
0.0
  0
LINE
  5
130
330
1F
100
AcDbEntity
  8
SLD-0_0
  6
Continuous
 62
   179
370
    25
100
AcDbLine
 10
228.1481919169
 20
316.9445062654
 30
0.0
 11
231.9543731689
 21
316.9445062654
 31
0.0
  0
LINE
  5
131
330
1F
100
AcDbEntity
  8
SLD-0_0
  6
Continuous
 62
   179
370
    25
100
AcDbLine
 10
235.7605544209
 20
320.344504215
 30
0.0
 11
235.7605544209
 21
316.9445062654
 31
0.0
  0
LINE
  5
132
330
1F
100
AcDbEntity
  8
SLD-0_0
  6
Continuous
 62
   179
370
    25
100
AcDbLine
 10
231.9543731689
 20
316.9445062654
 30
0.0
 11
235.7605544209
 21
316.9445062654
 31
0.0
  0
LINE
  5
133
330
1F
100
AcDbEntity
  8
SLD-0_0
  6
Continuous
 62
   179
370
    25
100
AcDbLine
 10
163.3373198389
 20
320.4445059078
 30
0.0
 11
163.9261392235
 21
320.4445059078
 31
0.0
  0
LINE
  5
134
330
1F
100
AcDbEntity
  8
SLD-0_0
  6
Continuous
 62
   179
370
    25
100
AcDbLine
 10
159.5311385869
 20
320.4445059078
 30
0.0
 11
163.3373198389
 21
320.4445059078
 31
0.0
  0
LINE
  5
135
330
1F
100
AcDbEntity
  8
SLD-0_0
  6
Continuous
 62
   179
370
    25
100
AcDbLine
 10
155.7249573349
 20
320.4445059078
 30
0.0
 11
159.5311385869
 21
320.4445059078
 31
0.0
  0
LINE
  5
136
330
1F
100
AcDbEntity
  8
SLD-0_0
  6
Continuous
 62
   179
370
    25
100
AcDbLine
 10
155.1361379503
 20
320.4445059078
 30
0.0
 11
155.7249573349
 21
320.4445059078
 31
0.0
  0
LINE
  5
137
330
1F
100
AcDbEntity
  8
SLD-0_0
  6
Continuous
 62
   179
370
    25
100
AcDbLine
 10
155.7249573349
 20
320.4445059078
 30
0.0
 11
155.7249573349
 21
316.9445062654
 31
0.0
  0
LINE
  5
138
330
1F
100
AcDbEntity
  8
SLD-0_0
  6
Continuous
 62
   179
370
    25
100
AcDbLine
 10
159.5311385869
 20
320.4445059078
 30
0.0
 11
159.5311385869
 21
316.9445062654
 31
0.0
  0
LINE
  5
139
330
1F
100
AcDbEntity
  8
SLD-0_0
  6
Continuous
 62
   179
370
    25
100
AcDbLine
 10
155.7249573349
 20
316.9445062654
 30
0.0
 11
159.5311385869
 21
316.9445062654
 31
0.0
  0
LINE
  5
13A
330
1F
100
AcDbEntity
  8
SLD-0_0
  6
Continuous
 62
   179
370
    25
100
AcDbLine
 10
163.3373198389
 20
320.4445059078
 30
0.0
 11
163.3373198389
 21
316.9445062654
 31
0.0
  0
LINE
  5
13B
330
1F
100
AcDbEntity
  8
SLD-0_0
  6
Continuous
 62
   179
370
    25
100
AcDbLine
 10
159.5311385869
 20
316.9445062654
 30
0.0
 11
163.3373198389
 21
316.9445062654
 31
0.0
  0
LINE
  5
13C
330
1F
100
AcDbEntity
  8
SLD-0_0
  6
Continuous
 62
   179
370
    25
100
AcDbLine
 10
165.9233530342
 20
323.7445170658
 30
0.0
 11
165.9233530342
 21
321.4445079344
 31
0.0
  0
LINE
  5
13D
330
1F
100
AcDbEntity
  8
SLD-0_0
  6
Continuous
 62
   179
370
    25
100
AcDbLine
 10
234.0372276782
 20
323.7445170658
 30
0.0
 11
234.0372276782
 21
321.4445079344
 31
0.0
  0
LINE
  5
13E
330
1F
100
AcDbEntity
  8
SLD-0_0
  6
Continuous
 62
   179
370
    25
100
AcDbLine
 10
165.9233530342
 20
323.7445170658
 30
0.0
 11
234.0372276782
 21
323.7445170658
 31
0.0
  0
LINE
  5
13F
330
1F
100
AcDbEntity
  8
SLD-0_0
  6
Continuous
 62
   179
370
    25
100
AcDbLine
 10
165.9233530342
 20
321.4445079344
 30
0.0
 11
234.0372276782
 21
321.4445079344
 31
0.0
  0
LINE
  5
140
330
1F
100
AcDbEntity
  8
SLD-0_0
  6
Continuous
 62
   179
370
    25
100
AcDbLine
 10
253.7014034866
 20
323.7445170658
 30
0.0
 11
253.7014034866
 21
321.4445079344
 31
0.0
  0
LINE
  5
141
330
1F
100
AcDbEntity
  8
SLD-0_0
  6
Continuous
 62
   179
370
    25
100
AcDbLine
 10
234.0372276782
 20
321.4445079344
 30
0.0
 11
253.7014034866
 21
321.4445079344
 31
0.0
  0
LINE
  5
142
330
1F
100
AcDbEntity
  8
SLD-0_0
  6
Continuous
 62
   179
370
    25
100
AcDbLine
 10
253.7014034866
 20
323.7445170658
 30
0.0
 11
277.4968144774
 21
323.7445170658
 31
0.0
  0
LINE
  5
143
330
1F
100
AcDbEntity
  8
SLD-0_0
  6
Continuous
 62
   179
370
    25
100
AcDbLine
 10
253.7014034866
 20
321.4445079344
 30
0.0
 11
277.4968144774
 21
321.4445079344
 31
0.0
  0
LINE
  5
144
330
1F
100
AcDbEntity
  8
SLD-0_0
  6
Continuous
 62
   179
370
    25
100
AcDbLine
 10
155.4677223145
 20
323.7445170658
 30
0.0
 11
155.4677223145
 21
321.4445079344
 31
0.0
  0
LINE
  5
145
330
1F
100
AcDbEntity
  8
SLD-0_0
  6
Continuous
 62
   179
370
    25
100
AcDbLine
 10
155.4677223145
 20
321.4445079344
 30
0.0
 11
165.9233530342
 21
321.4445079344
 31
0.0
  0
LINE
  5
146
330
1F
100
AcDbEntity
  8
SLD-0_0
  6
Continuous
 62
   179
370
    25
100
AcDbLine
 10
188.0441231012
 20
320.344504215
 30
0.0
 11
194.0216345071
 21
320.344504215
 31
0.0
  0
LINE
  5
147
330
1F
100
AcDbEntity
  8
SLD-0_0
  6
Continuous
 62
   179
370
    25
100
AcDbLine
 10
202.0568761333
 20
320.344504215
 30
0.0
 11
241.9495058536
 21
320.344504215
 31
0.0
  0
LINE
  5
148
330
1F
100
AcDbEntity
  8
SLD-0_0
  6
Continuous
 62
   179
370
    25
100
AcDbLine
 10
152.4968144774
 20
323.7445170658
 30
0.0
 11
155.4677223145
 21
323.7445170658
 31
0.0
  0
LINE
  5
149
330
1F
100
AcDbEntity
  8
SLD-0_0
  6
Continuous
 62
   179
370
    25
100
AcDbLine
 10
152.4968144774
 20
321.4445079344
 30
0.0
 11
155.4677223145
 21
321.4445079344
 31
0.0
  0
LINE
  5
14A
330
1F
100
AcDbEntity
  8
SLD-0_0
  6
Continuous
 62
   179
370
    25
100
AcDbLine
 10
204.4441231816
 20
317.4445147293
 30
0.0
 11
225.5495057731
 21
317.4445147293
 31
0.0
  0
LINE
  5
14B
330
1F
100
AcDbEntity
  8
SLD-0_0
  6
Continuous
 62
   179
370
    25
100
AcDbLine
 10
204.2754596647
 20
613.6445104056
 30
0.0
 11
200.3529450473
 21
613.6445104056
 31
0.0
  0
LINE
  5
14C
330
1F
100
AcDbEntity
  8
SLD-0_0
  6
Continuous
 62
   179
370
    25
100
AcDbLine
 10
231.8522004958
 20
613.6445104056
 30
0.0
 11
204.2754596647
 21
613.6445104056
 31
0.0
  0
LINE
  5
14D
330
1F
100
AcDbEntity
  8
SLD-0_0
  6
Continuous
 62
   179
370
    25
100
AcDbLine
 10
232.8520103065
 20
613.6445104056
 30
0.0
 11
231.8522004958
 21
613.6445104056
 31
0.0
  0
LINE
  5
14E
330
1F
100
AcDbEntity
  8
SLD-0_0
  6
Continuous
 62
   179
370
    25
100
AcDbLine
 10
200.3529450473
 20
613.6445104056
 30
0.0
 11
198.1414301869
 21
613.6445104056
 31
0.0
  0
LINE
  5
14F
330
1F
100
AcDbEntity
  8
SLD-0_0
  6
Continuous
 62
   179
370
    25
100
AcDbLine
 10
198.1414301869
 20
613.6445104056
 30
0.0
 11
197.1416200128
 21
613.6445104056
 31
0.0
  0
LINE
  5
150
330
1F
100
AcDbEntity
  8
SLD-0_0
  6
Continuous
 62
   179
370
    25
100
AcDbLine
 10
233.7431001093
 20
627.1286866837
 30
0.0
 11
233.8519722296
 21
614.6532369411
 31
0.0
  0
LINE
  5
151
330
1F
100
AcDbEntity
  8
SLD-0_0
  6
Continuous
 62
   179
370
    25
100
AcDbLine
 10
196.1416584682
 20
614.653236926
 30
0.0
 11
196.2505305883
 21
627.1286866686
 31
0.0
  0
LINE
  5
152
330
1F
100
AcDbEntity
  8
SLD-0_0
  6
Continuous
 62
   179
370
    25
100
AcDbLine
 10
205.7571855663
 20
604.6445111411
 30
0.0
 11
205.7571855663
 21
613.6445107537
 31
0.0
  0
LINE
  5
153
330
1F
100
AcDbEntity
  8
SLD-0_0
  6
Continuous
 62
   179
370
    25
100
AcDbLine
 10
205.7571855663
 20
604.6445111411
 30
0.0
 11
198.8142018496
 21
604.6445111411
 31
0.0
  0
LINE
  5
154
330
1F
100
AcDbEntity
  8
SLD-0_0
  6
Continuous
 62
   179
370
    25
100
AcDbLine
 10
189.9459506419
 20
617.6445113643
 30
0.0
 11
191.2431600538
 21
617.6445113643
 31
0.0
  0
LINE
  5
155
330
1F
100
AcDbEntity
  8
SLD-0_0
  6
Continuous
 62
   179
370
    25
100
AcDbLine
 10
157.5682430294
 20
617.6445110759
 30
0.0
 11
157.5682430294
 21
614.6445087215
 31
0.0
  0
LINE
  5
156
330
1F
100
AcDbEntity
  8
SLD-0_0
  6
Continuous
 62
   179
370
    25
100
AcDbLine
 10
165.1183410313
 20
617.6445110759
 30
0.0
 11
157.5682430294
 21
617.6445110759
 31
0.0
  0
LINE
  5
157
330
1F
100
AcDbEntity
  8
SLD-0_0
  6
Continuous
 62
   179
370
    25
100
AcDbLine
 10
170.6864545872
 20
617.6445118002
 30
0.0
 11
165.4101043413
 21
617.6445111148
 31
0.0
  0
LINE
  5
158
330
1F
100
AcDbEntity
  8
SLD-0_0
  6
Continuous
 62
   179
370
    25
100
AcDbLine
 10
189.9459506419
 20
617.6445113643
 30
0.0
 11
171.0151410696
 21
617.6445113643
 31
0.0
  0
LINE
  5
159
330
1F
100
AcDbEntity
  8
SLD-0_0
  6
Continuous
 62
   179
370
    25
100
AcDbLine
 10
190.3226549503
 20
613.6445104203
 30
0.0
 11
158.5008322027
 21
613.6445104203
 31
0.0
  0
LINE
  5
15A
330
1F
100
AcDbEntity
  8
SLD-0_0
  6
Continuous
 62
   179
370
    25
100
AcDbLine
 10
193.0112453874
 20
614.6445087215
 30
0.0
 11
193.0112453874
 21
613.6445104203
 31
0.0
  0
LINE
  5
15B
330
1F
100
AcDbEntity
  8
SLD-0_0
  6
Continuous
 62
   179
370
    25
100
AcDbLine
 10
193.3049387333
 20
617.6445113643
 30
0.0
 11
191.2431600538
 21
617.6445113643
 31
0.0
  0
LINE
  5
15C
330
1F
100
AcDbEntity
  8
SLD-0_0
  6
Continuous
 62
   179
370
    25
100
AcDbLine
 10
192.0811633345
 20
613.6445104203
 30
0.0
 11
190.3226549503
 21
613.6445104203
 31
0.0
  0
LINE
  5
15D
330
1F
100
AcDbEntity
  8
SLD-0_0
  6
Continuous
 62
   179
370
    25
100
AcDbLine
 10
254.4669366058
 20
613.6445104354
 30
0.0
 11
233.8607745793
 21
613.6445104354
 31
0.0
  0
LINE
  5
15E
330
1F
100
AcDbEntity
  8
SLD-0_0
  6
Continuous
 62
   179
370
    25
100
AcDbLine
 10
254.4669366058
 20
613.6445104354
 30
0.0
 11
254.4669366058
 21
614.6445087366
 31
0.0
  0
LINE
  5
15F
330
1F
100
AcDbEntity
  8
SLD-0_0
  6
Continuous
 62
   179
370
    25
100
AcDbLine
 10
257.9130378842
 20
613.6445107537
 30
0.0
 11
257.9130378842
 21
604.6445111411
 31
0.0
  0
LINE
  5
160
330
1F
100
AcDbEntity
  8
SLD-0_0
  6
Continuous
 62
   179
370
    25
100
AcDbLine
 10
233.8519722296
 20
614.6532369411
 30
0.0
 11
233.8607745793
 21
613.6445104354
 31
0.0
  0
LINE
  5
161
330
1F
100
AcDbEntity
  8
SLD-0_0
  6
Continuous
 62
   179
370
    25
100
AcDbLine
 10
196.1328561183
 20
613.6445104203
 30
0.0
 11
193.0112453874
 21
613.6445104203
 31
0.0
  0
LINE
  5
162
330
1F
100
AcDbEntity
  8
SLD-0_0
  6
Continuous
 62
   179
370
    25
100
AcDbLine
 10
156.1554183542
 20
604.6445111411
 30
0.0
 11
156.1554183542
 21
605.6445094424
 31
0.0
  0
LINE
  5
163
330
1F
100
AcDbEntity
  8
SLD-0_0
  6
Continuous
 62
   179
370
    25
100
AcDbLine
 10
196.1328561183
 20
613.6445104203
 30
0.0
 11
196.1416584682
 21
614.653236926
 31
0.0
  0
LINE
  5
164
330
1F
100
AcDbEntity
  8
SLD-0_0
  6
Continuous
 62
   179
370
    25
100
AcDbLine
 10
198.9129704713
 20
604.6445111411
 30
0.0
 11
156.1554183542
 21
604.6445111411
 31
0.0
  0
LINE
  5
165
330
1F
100
AcDbEntity
  8
SLD-0_0
  6
Continuous
 62
   179
370
    25
100
AcDbLine
 10
250.6968152999
 20
692.6445181148
 30
0.0
 11
252.845946449
 21
692.6445181148
 31
0.0
  0
LINE
  5
166
330
1F
100
AcDbEntity
  8
SLD-0_0
  6
Continuous
 62
   179
370
    25
100
AcDbLine
 10
179.264621821
 20
703.6445098584
 30
0.0
 11
179.6252360942
 21
703.6445097391
 31
0.0
  0
LINE
  5
167
330
1F
100
AcDbEntity
  8
SLD-0_0
  6
Continuous
 62
   179
370
    25
100
AcDbLine
 10
179.6252360942
 20
703.6445097391
 30
0.0
 11
180.2968165281
 21
703.6445097391
 31
0.0
  0
LINE
  5
168
330
1F
100
AcDbEntity
  8
SLD-0_0
  6
Continuous
 62
   179
370
    25
100
AcDbLine
 10
258.7764634718
 20
617.6445114602
 30
0.0
 11
259.0772508611
 21
618.1403587748
 31
0.0
  0
LINE
  5
169
330
1F
100
AcDbEntity
  8
SLD-0_0
  6
Continuous
 62
   179
370
    25
100
AcDbLine
 10
257.7072790791
 20
617.6445114602
 30
0.0
 11
258.7764634718
 21
617.6445114602
 31
0.0
  0
LINE
  5
16A
330
1F
100
AcDbEntity
  8
SLD-0_0
  6
Continuous
 62
   179
370
    25
100
AcDbLine
 10
264.5835259056
 20
617.6445108372
 30
0.0
 11
259.30717688
 21
617.6445101518
 31
0.0
  0
LINE
  5
16B
330
1F
100
AcDbEntity
  8
SLD-0_0
  6
Continuous
 62
   179
370
    25
100
AcDbLine
 10
281.4968156692
 20
617.6445114485
 30
0.0
 11
264.8752893385
 21
617.6445114485
 31
0.0
  0
LINE
  5
16C
330
1F
100
AcDbEntity
  8
SLD-0_0
  6
Continuous
 62
   179
370
    25
100
AcDbLine
 10
280.4968153414
 20
613.6445104353
 30
0.0
 11
258.4143845912
 21
613.6445104353
 31
0.0
  0
LINE
  5
16D
330
1F
100
AcDbEntity
  8
SLD-0_0
  6
Continuous
 62
   179
370
    25
100
AcDbLine
 10
258.4143845912
 20
613.6445104353
 30
0.0
 11
255.2260874387
 21
613.6445104353
 31
0.0
  0
LINE
  5
16E
330
1F
100
AcDbEntity
  8
SLD-0_0
  6
Continuous
 62
   179
370
    25
100
AcDbLine
 10
257.7072790791
 20
617.6445114602
 30
0.0
 11
253.9180143703
 21
617.6445114602
 31
0.0
  0
LINE
  5
16F
330
1F
100
AcDbEntity
  8
SLD-0_0
  6
Continuous
 62
   179
370
    25
100
AcDbLine
 10
257.2537360071
 20
705.6445146578
 30
0.0
 11
257.7236292242
 21
705.6445146578
 31
0.0
  0
LINE
  5
170
330
1F
100
AcDbEntity
  8
SLD-0_0
  6
Continuous
 62
   179
370
    25
100
AcDbLine
 10
172.2699997305
 20
705.6445146578
 30
0.0
 11
172.7398929476
 21
705.6445146578
 31
0.0
  0
LINE
  5
171
330
1F
100
AcDbEntity
  8
SLD-0_0
  6
Continuous
 62
   179
370
    25
100
AcDbLine
 10
177.1476825058
 20
692.6445181148
 30
0.0
 11
178.0448702454
 21
692.6445181148
 31
0.0
  0
LINE
  5
172
330
1F
100
AcDbEntity
  8
SLD-0_0
  6
Continuous
 62
   179
370
    25
100
AcDbLine
 10
257.7236292242
 20
705.6445146578
 30
0.0
 11
262.2193803369
 21
705.6445146578
 31
0.0
  0
LINE
  5
173
330
1F
100
AcDbEntity
  8
SLD-0_0
  6
Continuous
 62
   179
370
    25
100
AcDbLine
 10
167.7742486178
 20
705.6445146578
 30
0.0
 11
172.2699997305
 21
705.6445146578
 31
0.0
  0
LINE
  5
174
330
1F
100
AcDbEntity
  8
SLD-0_0
  6
Continuous
 62
   179
370
    25
100
AcDbLine
 10
256.3226406752
 20
725.6445104854
 30
0.0
 11
260.5775706839
 21
725.6445107239
 31
0.0
  0
LINE
  5
175
330
1F
100
AcDbEntity
  8
SLD-0_0
  6
Continuous
 62
   179
370
    25
100
AcDbLine
 10
169.4160582708
 20
725.6445107239
 30
0.0
 11
173.6709882795
 21
725.6445104854
 31
0.0
  0
LINE
  5
176
330
1F
100
AcDbEntity
  8
SLD-0_0
  6
Continuous
 62
   179
370
    25
100
AcDbLine
 10
248.2434479248
 20
725.6445107239
 30
0.0
 11
256.3226406752
 21
725.6445104854
 31
0.0
  0
LINE
  5
177
330
1F
100
AcDbEntity
  8
SLD-0_0
  6
Continuous
 62
   179
370
    25
100
AcDbLine
 10
173.6709882795
 20
725.6445104854
 30
0.0
 11
181.7501810299
 21
725.6445107239
 31
0.0
  0
LINE
  5
178
330
1F
100
AcDbEntity
  8
SLD-0_0
  6
Continuous
 62
   179
370
    25
100
AcDbLine
 10
263.8286498665
 20
604.6445111411
 30
0.0
 11
257.9130378842
 21
604.6445111411
 31
0.0
  0
LINE
  5
179
330
1F
100
AcDbEntity
  8
SLD-0_0
  6
Continuous
 62
   179
370
    25
100
AcDbLine
 10
262.2193803369
 20
705.6445146578
 30
0.0
 11
262.3657777652
 21
705.6445107239
 31
0.0
  0
LINE
  5
17A
330
1F
100
AcDbEntity
  8
SLD-0_0
  6
Continuous
 62
   179
370
    25
100
AcDbLine
 10
167.6278511895
 20
705.6445107239
 30
0.0
 11
167.7742486178
 21
705.6445146578
 31
0.0
  0
LINE
  5
17B
330
1F
100
AcDbEntity
  8
SLD-0_0
  6
Continuous
 62
   179
370
    25
100
AcDbLine
 10
262.2064386784
 20
705.6445146578
 30
0.0
 11
262.1430714904
 21
705.6445146578
 31
0.0
  0
LINE
  5
17C
330
1F
100
AcDbEntity
  8
SLD-0_0
  6
Continuous
 62
   179
370
    25
100
AcDbLine
 10
167.8505574643
 20
705.6445146578
 30
0.0
 11
167.7887101947
 21
705.6445146578
 31
0.0
  0
LINE
  5
17D
330
1F
100
AcDbEntity
  8
SLD-0_0
  6
Continuous
 62
   179
370
    25
100
AcDbLine
 10
262.0258291542
 20
706.0350442903
 30
0.0
 11
262.0304000854
 21
705.9604490774
 31
0.0
  0
LINE
  5
17E
330
1F
100
AcDbEntity
  8
SLD-0_0
  6
Continuous
 62
   179
370
    25
100
AcDbLine
 10
167.9607515513
 20
705.9625054376
 30
0.0
 11
167.9677998006
 21
706.0350442903
 31
0.0
  0
LINE
  5
17F
330
1F
100
AcDbEntity
  8
SLD-0_0
  6
Continuous
 62
   179
370
    25
100
AcDbLine
 10
157.8804773568
 20
692.6445181148
 30
0.0
 11
166.8191102623
 21
692.6445181148
 31
0.0
  0
LINE
  5
180
330
1F
100
AcDbEntity
  8
SLD-0_0
  6
Continuous
 62
   179
370
    25
100
AcDbLine
 10
262.9029599308
 20
703.6445106046
 30
0.0
 11
267.0889866828
 21
703.6445106046
 31
0.0
  0
LINE
  5
181
330
1F
100
AcDbEntity
  8
SLD-0_0
  6
Continuous
 62
   179
370
    25
100
AcDbLine
 10
267.0889866828
 20
703.6445106046
 30
0.0
 11
267.3345200943
 21
703.6445107239
 31
0.0
  0
LINE
  5
182
330
1F
100
AcDbEntity
  8
SLD-0_0
  6
Continuous
 62
   179
370
    25
100
AcDbLine
 10
151.5404215784
 20
618.5908718049
 30
0.0
 11
151.4860463618
 21
618.5872408228
 31
0.0
  0
LINE
  5
183
330
1F
100
AcDbEntity
  8
SLD-0_0
  6
Continuous
 62
   179
370
    25
100
AcDbLine
 10
152.6070222079
 20
605.6445055238
 30
0.0
 11
151.9780516444
 21
605.6445055238
 31
0.0
  0
LINE
  5
184
330
1F
100
AcDbEntity
  8
SLD-0_0
  6
Continuous
 62
   179
370
    25
100
AcDbLine
 10
162.1130093752
 20
605.6445055238
 30
0.0
 11
152.6070222079
 21
605.6445055238
 31
0.0
  0
LINE
  5
185
330
1F
100
AcDbEntity
  8
SLD-0_0
  6
Continuous
 62
   179
370
    25
100
AcDbLine
 10
151.9780516444
 20
605.6445055238
 30
0.0
 11
145.8123013197
 21
605.6445055238
 31
0.0
  0
LINE
  5
186
330
1F
100
AcDbEntity
  8
SLD-0_0
  6
Continuous
 62
   179
370
    25
100
AcDbLine
 10
150.593906864
 20
617.6445092218
 30
0.0
 11
145.331852361
 21
617.6445092218
 31
0.0
  0
LINE
  5
187
330
1F
100
AcDbEntity
  8
SLD-0_0
  6
Continuous
 62
   179
370
    25
100
AcDbLine
 10
162.478557211
 20
605.6445055238
 30
0.0
 11
162.1130093752
 21
605.6445055238
 31
0.0
  0
LINE
  5
188
330
1F
100
AcDbEntity
  8
SLD-0_0
  6
Continuous
 62
   179
370
    25
100
AcDbLine
 10
185.9968164445
 20
727.6445088732
 30
0.0
 11
243.9968164445
 21
727.6445088732
 31
0.0
  0
LINE
  5
189
330
1F
100
AcDbEntity
  8
SLD-0_0
  6
Continuous
 62
   179
370
    25
100
AcDbLine
 10
268.3442530512
 20
703.6445106046
 30
0.0
 11
273.0590549587
 21
703.6445106046
 31
0.0
  0
LINE
  5
18A
330
1F
100
AcDbEntity
  8
SLD-0_0
  6
Continuous
 62
   179
370
    25
100
AcDbLine
 10
273.0590549587
 20
703.6445106046
 30
0.0
 11
273.2295185876
 21
703.6445107239
 31
0.0
  0
LINE
  5
18B
330
1F
100
AcDbEntity
  8
SLD-0_0
  6
Continuous
 62
   179
370
    25
100
AcDbLine
 10
268.3299144088
 20
703.6445106046
 30
0.0
 11
268.3442530512
 21
703.6445106046
 31
0.0
  0
LINE
  5
18C
330
1F
100
AcDbEntity
  8
SLD-0_0
  6
Continuous
 62
   179
370
    25
100
AcDbLine
 10
145.2927442635
 20
617.6445092218
 30
0.0
 11
145.331852361
 21
617.6445092218
 31
0.0
  0
LINE
  5
18D
330
1F
100
AcDbEntity
  8
SLD-0_0
  6
Continuous
 62
   179
370
    25
100
AcDbLine
 10
145.8123013197
 20
605.6445055238
 30
0.0
 11
145.7927459946
 21
605.6445068053
 31
0.0
  0
LINE
  5
18E
330
1F
100
AcDbEntity
  8
SLD-0_0
  6
Continuous
 62
   179
370
    25
100
AcDbLine
 10
156.1554183542
 20
604.6445111411
 30
0.0
 11
156.058825302
 21
604.6445111411
 31
0.0
  0
LINE
  5
18F
330
1F
100
AcDbEntity
  8
SLD-0_0
  6
Continuous
 62
   179
370
    25
100
AcDbLine
 10
273.2295185876
 20
703.6445107239
 30
0.0
 11
276.7978233575
 21
703.6445106046
 31
0.0
  0
LINE
  5
190
330
1F
100
AcDbEntity
  8
SLD-0_0
  6
Continuous
 62
   179
370
    25
100
AcDbLine
 10
276.7978233575
 20
703.6445106046
 30
0.0
 11
276.8866669193
 21
703.6445107239
 31
0.0
  0
LINE
  5
191
330
1F
100
AcDbEntity
  8
SLD-0_0
  6
Continuous
 62
   179
370
    25
100
AcDbLine
 10
152.9769857704
 20
703.6445106046
 30
0.0
 11
158.0090706526
 21
703.6445106046
 31
0.0
  0
LINE
  5
192
330
1F
100
AcDbEntity
  8
SLD-0_0
  6
Continuous
 62
   179
370
    25
100
AcDbLine
 10
152.8956098868
 20
703.6445107239
 30
0.0
 11
152.9769857704
 21
703.6445106046
 31
0.0
  0
LINE
  5
193
330
1F
100
AcDbEntity
  8
SLD-0_0
  6
Continuous
 62
   179
370
    25
100
AcDbLine
 10
158.0090706526
 20
703.6445106046
 30
0.0
 11
158.0243555187
 21
703.6445106046
 31
0.0
  0
LINE
  5
194
330
1F
100
AcDbEntity
  8
SLD-0_0
  6
Continuous
 62
   179
370
    25
100
AcDbLine
 10
276.8866669193
 20
703.6445107239
 30
0.0
 11
278.1616148829
 21
703.6445106046
 31
0.0
  0
LINE
  5
195
330
1F
100
AcDbEntity
  8
SLD-0_0
  6
Continuous
 62
   179
370
    25
100
AcDbLine
 10
281.3979235767
 20
617.6445114093
 30
0.0
 11
279.1650441765
 21
702.6706899183
 31
0.0
  0
LINE
  5
196
330
1F
100
AcDbEntity
  8
SLD-0_0
  6
Continuous
 62
   179
370
    25
100
AcDbLine
 10
148.595705378
 20
617.6445114093
 30
0.0
 11
150.8285847782
 21
702.6706899183
 31
0.0
  0
LINE
  5
197
330
1F
100
AcDbEntity
  8
SLD-0_0
  6
Continuous
 62
   179
370
    25
100
AcDbLine
 10
278.1616148829
 20
703.6445106046
 30
0.0
 11
278.1654221295
 21
703.6445106046
 31
0.0
  0
LINE
  5
198
330
1F
100
AcDbEntity
  8
SLD-0_0
  6
Continuous
 62
   179
370
    25
100
AcDbLine
 10
151.8282068252
 20
703.6445106046
 30
0.0
 11
152.8956098868
 21
703.6445107239
 31
0.0
  0
LINE
  5
199
330
1F
100
AcDbEntity
  8
SLD-0_0
  6
Continuous
 62
   179
370
    25
100
AcDbLine
 10
278.1638202547
 20
604.6445111411
 30
0.0
 11
275.9968151628
 21
604.6445111411
 31
0.0
  0
LINE
  5
19A
330
1F
100
AcDbEntity
  8
SLD-0_0
  6
Continuous
 62
   179
370
    25
100
AcDbLine
 10
283.8922220346
 20
605.6445094816
 30
0.0
 11
278.1638207909
 21
605.6445094816
 31
0.0
  0
LINE
  5
19B
330
1F
100
AcDbEntity
  8
SLD-0_0
  6
Continuous
 62
   179
370
    25
100
AcDbLine
 10
284.0835678455
 20
617.6445114485
 30
0.0
 11
281.4968156692
 21
617.6445114485
 31
0.0
  0
LINE
  5
19C
330
1F
100
AcDbEntity
  8
SLD-0_0
  6
Continuous
 62
   179
370
    25
100
AcDbLine
 10
284.2008822387
 20
605.6445107631
 30
0.0
 11
283.8922220346
 21
605.6445094816
 31
0.0
  0
LINE
  5
19D
330
1F
100
AcDbEntity
  8
SLD-0_0
  6
Continuous
 62
   179
370
    25
100
AcDbLine
 10
284.0835678455
 20
617.6445114485
 30
0.0
 11
284.7008857009
 21
617.6445114485
 31
0.0
  0
LINE
  5
19E
330
1F
100
AcDbEntity
  8
SLD-0_0
  6
Continuous
 62
   179
370
    25
100
AcDbLine
 10
244.5118145376
 20
721.8978668229
 30
0.0
 11
244.5118145376
 21
722.8607351558
 31
0.0
  0
LINE
  5
19F
330
1F
100
AcDbEntity
  8
SLD-0_0
  6
Continuous
 62
   179
370
    25
100
AcDbLine
 10
243.4818146109
 20
722.8607351558
 30
0.0
 11
243.4818146109
 21
721.897866823
 31
0.0
  0
LINE
  5
1A0
330
1F
100
AcDbEntity
  8
SLD-0_0
  6
Continuous
 62
   179
370
    25
100
AcDbLine
 10
243.4818146111
 20
720.266919829
 30
0.0
 11
243.4818146111
 21
719.1309894101
 31
0.0
  0
LINE
  5
1A1
330
1F
100
AcDbEntity
  8
SLD-0_0
  6
Continuous
 62
   179
370
    25
100
AcDbLine
 10
244.5118145377
 20
719.1309894101
 30
0.0
 11
244.5118145377
 21
720.2669198292
 31
0.0
  0
LINE
  5
1A2
330
1F
100
AcDbEntity
  8
SLD-0_0
  6
Continuous
 62
   179
370
    25
100
AcDbLine
 10
243.4818146109
 20
719.3850095051
 30
0.0
 11
244.5118145376
 21
719.3850095051
 31
0.0
  0
LINE
  5
1A3
330
1F
100
AcDbEntity
  8
SLD-0_0
  6
Continuous
 62
   179
370
    25
100
AcDbLine
 10
243.9968136429
 20
724.3361736315
 30
0.0
 11
242.8177946537
 21
724.169176318
 31
0.0
  0
LINE
  5
1A4
330
1F
100
AcDbEntity
  8
SLD-0_0
  6
Continuous
 62
   179
370
    25
100
AcDbLine
 10
242.8177946537
 20
724.169176318
 30
0.0
 11
241.743534553
 21
723.6830408352
 31
0.0
  0
LINE
  5
1A5
330
1F
100
AcDbEntity
  8
SLD-0_0
  6
Continuous
 62
   179
370
    25
100
AcDbLine
 10
241.743534553
 20
723.6830408352
 30
0.0
 11
240.8694883167
 21
722.9209656494
 31
0.0
  0
LINE
  5
1A6
330
1F
100
AcDbEntity
  8
SLD-0_0
  6
Continuous
 62
   179
370
    25
100
AcDbLine
 10
240.8694883167
 20
722.9209656494
 30
0.0
 11
240.2733189344
 21
721.9506318348
 31
0.0
  0
LINE
  5
1A7
330
1F
100
AcDbEntity
  8
SLD-0_0
  6
Continuous
 62
   179
370
    25
100
AcDbLine
 10
240.2733189344
 20
721.9506318348
 30
0.0
 11
240.008000034
 21
720.8583022135
 31
0.0
  0
LINE
  5
1A8
330
1F
100
AcDbEntity
  8
SLD-0_0
  6
Continuous
 62
   179
370
    25
100
AcDbLine
 10
240.008000034
 20
720.8583022135
 30
0.0
 11
240.09710339
 21
719.740998246
 31
0.0
  0
LINE
  5
1A9
330
1F
100
AcDbEntity
  8
SLD-0_0
  6
Continuous
 62
   179
370
    25
100
AcDbLine
 10
240.09710339
 20
719.740998246
 30
0.0
 11
240.5327127605
 21
718.6980212705
 31
0.0
  0
LINE
  5
1AA
330
1F
100
AcDbEntity
  8
SLD-0_0
  6
Continuous
 62
   179
370
    25
100
AcDbLine
 10
240.5327127605
 20
718.6980212705
 30
0.0
 11
241.2761242419
 21
717.8220267074
 31
0.0
  0
LINE
  5
1AB
330
1F
100
AcDbEntity
  8
SLD-0_0
  6
Continuous
 62
   179
370
    25
100
AcDbLine
 10
241.2761242419
 20
717.8220267074
 30
0.0
 11
242.2612791239
 21
717.1908731239
 31
0.0
  0
LINE
  5
1AC
330
1F
100
AcDbEntity
  8
SLD-0_0
  6
Continuous
 62
   179
370
    25
100
AcDbLine
 10
242.2612791239
 20
717.1908731239
 30
0.0
 11
243.4006461232
 21
716.8606186884
 31
0.0
  0
LINE
  5
1AD
330
1F
100
AcDbEntity
  8
SLD-0_0
  6
Continuous
 62
   179
370
    25
100
AcDbLine
 10
243.4006461232
 20
716.8606186884
 30
0.0
 11
244.5929830252
 21
716.8606186884
 31
0.0
  0
LINE
  5
1AE
330
1F
100
AcDbEntity
  8
SLD-0_0
  6
Continuous
 62
   179
370
    25
100
AcDbLine
 10
244.5929830252
 20
716.8606186884
 30
0.0
 11
245.7323500245
 21
717.1908731239
 31
0.0
  0
LINE
  5
1AF
330
1F
100
AcDbEntity
  8
SLD-0_0
  6
Continuous
 62
   179
370
    25
100
AcDbLine
 10
245.7323500245
 20
717.1908731239
 30
0.0
 11
246.7175049066
 21
717.8220267074
 31
0.0
  0
LINE
  5
1B0
330
1F
100
AcDbEntity
  8
SLD-0_0
  6
Continuous
 62
   179
370
    25
100
AcDbLine
 10
246.7175049066
 20
717.8220267074
 30
0.0
 11
247.460916388
 21
718.6980212705
 31
0.0
  0
LINE
  5
1B1
330
1F
100
AcDbEntity
  8
SLD-0_0
  6
Continuous
 62
   179
370
    25
100
AcDbLine
 10
247.460916388
 20
718.6980212705
 30
0.0
 11
247.8965257584
 21
719.740998246
 31
0.0
  0
LINE
  5
1B2
330
1F
100
AcDbEntity
  8
SLD-0_0
  6
Continuous
 62
   179
370
    25
100
AcDbLine
 10
247.8965257584
 20
719.740998246
 30
0.0
 11
247.9856309771
 21
720.8583022135
 31
0.0
  0
LINE
  5
1B3
330
1F
100
AcDbEntity
  8
SLD-0_0
  6
Continuous
 62
   179
370
    25
100
AcDbLine
 10
247.9856309771
 20
720.8583022135
 30
0.0
 11
247.7203083514
 21
721.9506318348
 31
0.0
  0
LINE
  5
1B4
330
1F
100
AcDbEntity
  8
SLD-0_0
  6
Continuous
 62
   179
370
    25
100
AcDbLine
 10
247.7203083514
 20
721.9506318348
 30
0.0
 11
247.1241389691
 21
722.9209656494
 31
0.0
  0
LINE
  5
1B5
330
1F
100
AcDbEntity
  8
SLD-0_0
  6
Continuous
 62
   179
370
    25
100
AcDbLine
 10
247.1241389691
 20
722.9209656494
 30
0.0
 11
246.2500964581
 21
723.6830408352
 31
0.0
  0
LINE
  5
1B6
330
1F
100
AcDbEntity
  8
SLD-0_0
  6
Continuous
 62
   179
370
    25
100
AcDbLine
 10
246.2500964581
 20
723.6830408352
 30
0.0
 11
245.1758344947
 21
724.169176318
 31
0.0
  0
LINE
  5
1B7
330
1F
100
AcDbEntity
  8
SLD-0_0
  6
Continuous
 62
   179
370
    25
100
AcDbLine
 10
245.1758344947
 20
724.169176318
 30
0.0
 11
243.9968136429
 21
724.3361736315
 31
0.0
  0
LINE
  5
1B8
330
1F
100
AcDbEntity
  8
SLD-0_0
  6
Continuous
 62
   179
370
    25
100
AcDbLine
 10
244.9801338195
 20
720.5927486198
 30
0.0
 11
244.9801338195
 21
720.7929606216
 31
0.0
  0
LINE
  5
1B9
330
1F
100
AcDbEntity
  8
SLD-0_0
  6
Continuous
 62
   179
370
    25
100
AcDbLine
 10
245.9813707798
 20
721.4797998445
 30
0.0
 11
244.9801338195
 21
720.7929606216
 31
0.0
  0
LINE
  5
1BA
330
1F
100
AcDbEntity
  8
SLD-0_0
  6
Continuous
 62
   179
370
    25
100
AcDbLine
 10
242.0122583687
 20
721.4797998445
 30
0.0
 11
243.0134953289
 21
720.7929606216
 31
0.0
  0
LINE
  5
1BB
330
1F
100
AcDbEntity
  8
SLD-0_0
  6
Continuous
 62
   179
370
    25
100
AcDbLine
 10
243.0134953289
 20
720.7929606216
 30
0.0
 11
243.0134953289
 21
720.5927486198
 31
0.0
  0
LINE
  5
1BC
330
1F
100
AcDbEntity
  8
SLD-0_0
  6
Continuous
 62
   179
370
    25
100
AcDbLine
 10
244.6742930739
 20
720.7929606216
 30
0.0
 11
244.9801338195
 21
720.7929606216
 31
0.0
  0
LINE
  5
1BD
330
1F
100
AcDbEntity
  8
SLD-0_0
  6
Continuous
 62
   179
370
    25
100
AcDbLine
 10
243.0134953289
 20
720.7929606216
 30
0.0
 11
243.3193360745
 21
720.7929606216
 31
0.0
  0
LINE
  5
1BE
330
1F
100
AcDbEntity
  8
SLD-0_0
  6
Continuous
 62
   179
370
    25
100
AcDbLine
 10
244.5118145376
 20
721.2330366152
 30
0.0
 11
243.4818146109
 21
721.2330366152
 31
0.0
  0
LINE
  5
1BF
330
1F
100
AcDbEntity
  8
SLD-0_0
  6
Continuous
 62
   179
370
    25
100
AcDbLine
 10
185.4818144172
 20
634.7548926847
 30
0.0
 11
185.4818144172
 21
633.6189548152
 31
0.0
  0
LINE
  5
1C0
330
1F
100
AcDbEntity
  8
SLD-0_0
  6
Continuous
 62
   179
370
    25
100
AcDbLine
 10
186.5118143438
 20
633.6189548152
 30
0.0
 11
186.5118143438
 21
634.7548926847
 31
0.0
  0
LINE
  5
1C1
330
1F
100
AcDbEntity
  8
SLD-0_0
  6
Continuous
 62
   179
370
    25
100
AcDbLine
 10
186.5118143439
 20
636.3858396786
 30
0.0
 11
186.5118143439
 21
637.3487005608
 31
0.0
  0
LINE
  5
1C2
330
1F
100
AcDbEntity
  8
SLD-0_0
  6
Continuous
 62
   179
370
    25
100
AcDbLine
 10
185.4818144173
 20
637.3487005608
 30
0.0
 11
185.4818144173
 21
636.3858396786
 31
0.0
  0
LINE
  5
1C3
330
1F
100
AcDbEntity
  8
SLD-0_0
  6
Continuous
 62
   179
370
    25
100
AcDbLine
 10
185.4818144172
 20
633.87297491
 30
0.0
 11
186.5118143438
 21
633.87297491
 31
0.0
  0
LINE
  5
1C4
330
1F
100
AcDbEntity
  8
SLD-0_0
  6
Continuous
 62
   179
370
    25
100
AcDbLine
 10
189.9968141048
 20
635.0653732794
 30
0.0
 11
189.8191065817
 21
636.1732895153
 31
0.0
  0
LINE
  5
1C5
330
1F
100
AcDbEntity
  8
SLD-0_0
  6
Continuous
 62
   179
370
    25
100
AcDbLine
 10
189.8191065817
 20
636.1732895153
 30
0.0
 11
189.30176993
 21
637.1827686804
 31
0.0
  0
LINE
  5
1C6
330
1F
100
AcDbEntity
  8
SLD-0_0
  6
Continuous
 62
   179
370
    25
100
AcDbLine
 10
189.30176993
 20
637.1827686804
 30
0.0
 11
188.4907742321
 21
638.0040983336
 31
0.0
  0
LINE
  5
1C7
330
1F
100
AcDbEntity
  8
SLD-0_0
  6
Continuous
 62
   179
370
    25
100
AcDbLine
 10
188.4907742321
 20
638.0040983336
 30
0.0
 11
187.458177778
 21
638.5643149393
 31
0.0
  0
LINE
  5
1C8
330
1F
100
AcDbEntity
  8
SLD-0_0
  6
Continuous
 62
   179
370
    25
100
AcDbLine
 10
187.458177778
 20
638.5643149393
 30
0.0
 11
186.295734468
 21
638.8136337178
 31
0.0
  0
LINE
  5
1C9
330
1F
100
AcDbEntity
  8
SLD-0_0
  6
Continuous
 62
   179
370
    25
100
AcDbLine
 10
186.295734468
 20
638.8136337178
 30
0.0
 11
185.1067298382
 21
638.7299040931
 31
0.0
  0
LINE
  5
1CA
330
1F
100
AcDbEntity
  8
SLD-0_0
  6
Continuous
 62
   179
370
    25
100
AcDbLine
 10
185.1067298382
 20
638.7299040931
 30
0.0
 11
183.996814984
 21
638.3205691951
 31
0.0
  0
LINE
  5
1CB
330
1F
100
AcDbEntity
  8
SLD-0_0
  6
Continuous
 62
   179
370
    25
100
AcDbLine
 10
183.996814984
 20
638.3205691951
 30
0.0
 11
183.0646057903
 21
637.6219878571
 31
0.0
  0
LINE
  5
1CC
330
1F
100
AcDbEntity
  8
SLD-0_0
  6
Continuous
 62
   179
370
    25
100
AcDbLine
 10
183.0646057903
 20
637.6219878571
 30
0.0
 11
182.3929396748
 21
636.6962457674
 31
0.0
  0
LINE
  5
1CD
330
1F
100
AcDbEntity
  8
SLD-0_0
  6
Continuous
 62
   179
370
    25
100
AcDbLine
 10
182.3929396748
 20
636.6962457674
 30
0.0
 11
182.0414920627
 21
635.625589885
 31
0.0
  0
LINE
  5
1CE
330
1F
100
AcDbEntity
  8
SLD-0_0
  6
Continuous
 62
   179
370
    25
100
AcDbLine
 10
182.0414920627
 20
635.625589885
 30
0.0
 11
182.0414920627
 21
634.5051566737
 31
0.0
  0
LINE
  5
1CF
330
1F
100
AcDbEntity
  8
SLD-0_0
  6
Continuous
 62
   179
370
    25
100
AcDbLine
 10
182.0414920627
 20
634.5051566737
 30
0.0
 11
182.3929396748
 21
633.4345082419
 31
0.0
  0
LINE
  5
1D0
330
1F
100
AcDbEntity
  8
SLD-0_0
  6
Continuous
 62
   179
370
    25
100
AcDbLine
 10
182.3929396748
 20
633.4345082419
 30
0.0
 11
183.0646057903
 21
632.5087661522
 31
0.0
  0
LINE
  5
1D1
330
1F
100
AcDbEntity
  8
SLD-0_0
  6
Continuous
 62
   179
370
    25
100
AcDbLine
 10
183.0646057903
 20
632.5087661522
 30
0.0
 11
183.996814984
 21
631.8101848142
 31
0.0
  0
LINE
  5
1D2
330
1F
100
AcDbEntity
  8
SLD-0_0
  6
Continuous
 62
   179
370
    25
100
AcDbLine
 10
183.996814984
 20
631.8101848142
 30
0.0
 11
185.1067298382
 21
631.4008424657
 31
0.0
  0
LINE
  5
1D3
330
1F
100
AcDbEntity
  8
SLD-0_0
  6
Continuous
 62
   179
370
    25
100
AcDbLine
 10
185.1067298382
 20
631.4008424657
 30
0.0
 11
186.295734468
 21
631.3171128409
 31
0.0
  0
LINE
  5
1D4
330
1F
100
AcDbEntity
  8
SLD-0_0
  6
Continuous
 62
   179
370
    25
100
AcDbLine
 10
186.295734468
 20
631.3171128409
 30
0.0
 11
187.458177778
 21
631.5664316194
 31
0.0
  0
LINE
  5
1D5
330
1F
100
AcDbEntity
  8
SLD-0_0
  6
Continuous
 62
   179
370
    25
100
AcDbLine
 10
187.458177778
 20
631.5664316194
 30
0.0
 11
188.4907742321
 21
632.1266482251
 31
0.0
  0
LINE
  5
1D6
330
1F
100
AcDbEntity
  8
SLD-0_0
  6
Continuous
 62
   179
370
    25
100
AcDbLine
 10
188.4907742321
 20
632.1266482251
 30
0.0
 11
189.30176993
 21
632.9479853289
 31
0.0
  0
LINE
  5
1D7
330
1F
100
AcDbEntity
  8
SLD-0_0
  6
Continuous
 62
   179
370
    25
100
AcDbLine
 10
189.30176993
 20
632.9479853289
 30
0.0
 11
189.8191065817
 21
633.9574570434
 31
0.0
  0
LINE
  5
1D8
330
1F
100
AcDbEntity
  8
SLD-0_0
  6
Continuous
 62
   179
370
    25
100
AcDbLine
 10
189.8191065817
 20
633.9574570434
 30
0.0
 11
189.9968141048
 21
635.0653732794
 31
0.0
  0
LINE
  5
1D9
330
1F
100
AcDbEntity
  8
SLD-0_0
  6
Continuous
 62
   179
370
    25
100
AcDbLine
 10
186.9801336259
 20
635.0807214754
 30
0.0
 11
186.9801336259
 21
635.2809334772
 31
0.0
  0
LINE
  5
1DA
330
1F
100
AcDbEntity
  8
SLD-0_0
  6
Continuous
 62
   179
370
    25
100
AcDbLine
 10
187.9813705861
 20
635.9677727001
 30
0.0
 11
186.9801336259
 21
635.2809334772
 31
0.0
  0
LINE
  5
1DB
330
1F
100
AcDbEntity
  8
SLD-0_0
  6
Continuous
 62
   179
370
    25
100
AcDbLine
 10
184.0122581749
 20
635.9677727001
 30
0.0
 11
185.0134951352
 21
635.2809334772
 31
0.0
  0
LINE
  5
1DC
330
1F
100
AcDbEntity
  8
SLD-0_0
  6
Continuous
 62
   179
370
    25
100
AcDbLine
 10
185.0134951352
 20
635.2809334772
 30
0.0
 11
185.0134951352
 21
635.0807214754
 31
0.0
  0
LINE
  5
1DD
330
1F
100
AcDbEntity
  8
SLD-0_0
  6
Continuous
 62
   179
370
    25
100
AcDbLine
 10
186.6742928803
 20
635.2809334772
 30
0.0
 11
186.9801336259
 21
635.2809334772
 31
0.0
  0
LINE
  5
1DE
330
1F
100
AcDbEntity
  8
SLD-0_0
  6
Continuous
 62
   179
370
    25
100
AcDbLine
 10
185.0134951352
 20
635.2809334772
 30
0.0
 11
185.3193358808
 21
635.2809334772
 31
0.0
  0
LINE
  5
1DF
330
1F
100
AcDbEntity
  8
SLD-0_0
  6
Continuous
 62
   179
370
    25
100
AcDbLine
 10
186.5118143438
 20
635.7210094707
 30
0.0
 11
185.4818144172
 21
635.7210094707
 31
0.0
  0
LINE
  5
1E0
330
1F
100
AcDbEntity
  8
SLD-0_0
  6
Continuous
 62
   179
370
    25
100
AcDbLine
 10
185.4818144174
 20
720.2669198291
 30
0.0
 11
185.4818144174
 21
719.1309894101
 31
0.0
  0
LINE
  5
1E1
330
1F
100
AcDbEntity
  8
SLD-0_0
  6
Continuous
 62
   179
370
    25
100
AcDbLine
 10
186.511814344
 20
719.1309894101
 30
0.0
 11
186.511814344
 21
720.2669198292
 31
0.0
  0
LINE
  5
1E2
330
1F
100
AcDbEntity
  8
SLD-0_0
  6
Continuous
 62
   179
370
    25
100
AcDbLine
 10
186.5118143438
 20
721.897866823
 30
0.0
 11
186.5118143438
 21
722.8607351559
 31
0.0
  0
LINE
  5
1E3
330
1F
100
AcDbEntity
  8
SLD-0_0
  6
Continuous
 62
   179
370
    25
100
AcDbLine
 10
185.4818144172
 20
722.8607351559
 30
0.0
 11
185.4818144172
 21
721.897866823
 31
0.0
  0
LINE
  5
1E4
330
1F
100
AcDbEntity
  8
SLD-0_0
  6
Continuous
 62
   179
370
    25
100
AcDbLine
 10
185.4818144172
 20
719.3850095051
 30
0.0
 11
186.5118143438
 21
719.3850095051
 31
0.0
  0
LINE
  5
1E5
330
1F
100
AcDbEntity
  8
SLD-0_0
  6
Continuous
 62
   179
370
    25
100
AcDbLine
 10
189.9968141048
 20
720.5774004238
 30
0.0
 11
189.8191065817
 21
721.6853166597
 31
0.0
  0
LINE
  5
1E6
330
1F
100
AcDbEntity
  8
SLD-0_0
  6
Continuous
 62
   179
370
    25
100
AcDbLine
 10
189.8191065817
 20
721.6853166597
 30
0.0
 11
189.30176993
 21
722.6947958248
 31
0.0
  0
LINE
  5
1E7
330
1F
100
AcDbEntity
  8
SLD-0_0
  6
Continuous
 62
   179
370
    25
100
AcDbLine
 10
189.30176993
 20
722.6947958248
 30
0.0
 11
188.4907742321
 21
723.5161329286
 31
0.0
  0
LINE
  5
1E8
330
1F
100
AcDbEntity
  8
SLD-0_0
  6
Continuous
 62
   179
370
    25
100
AcDbLine
 10
188.4907742321
 20
723.5161329286
 30
0.0
 11
187.458177778
 21
724.0763420837
 31
0.0
  0
LINE
  5
1E9
330
1F
100
AcDbEntity
  8
SLD-0_0
  6
Continuous
 62
   179
370
    25
100
AcDbLine
 10
187.458177778
 20
724.0763420837
 30
0.0
 11
186.295734468
 21
724.3256683128
 31
0.0
  0
LINE
  5
1EA
330
1F
100
AcDbEntity
  8
SLD-0_0
  6
Continuous
 62
   179
370
    25
100
AcDbLine
 10
186.295734468
 20
724.3256683128
 30
0.0
 11
185.1067298382
 21
724.2419386881
 31
0.0
  0
LINE
  5
1EB
330
1F
100
AcDbEntity
  8
SLD-0_0
  6
Continuous
 62
   179
370
    25
100
AcDbLine
 10
185.1067298382
 20
724.2419386881
 30
0.0
 11
183.996814984
 21
723.8325888889
 31
0.0
  0
LINE
  5
1EC
330
1F
100
AcDbEntity
  8
SLD-0_0
  6
Continuous
 62
   179
370
    25
100
AcDbLine
 10
183.996814984
 20
723.8325888889
 30
0.0
 11
183.0646057903
 21
723.1340224521
 31
0.0
  0
LINE
  5
1ED
330
1F
100
AcDbEntity
  8
SLD-0_0
  6
Continuous
 62
   179
370
    25
100
AcDbLine
 10
183.0646057903
 20
723.1340224521
 30
0.0
 11
182.3929396748
 21
722.2082729118
 31
0.0
  0
LINE
  5
1EE
330
1F
100
AcDbEntity
  8
SLD-0_0
  6
Continuous
 62
   179
370
    25
100
AcDbLine
 10
182.3929396748
 20
722.2082729118
 30
0.0
 11
182.0414920627
 21
721.13762448
 31
0.0
  0
LINE
  5
1EF
330
1F
100
AcDbEntity
  8
SLD-0_0
  6
Continuous
 62
   179
370
    25
100
AcDbLine
 10
182.0414920627
 20
721.13762448
 30
0.0
 11
182.0414920627
 21
720.0171912687
 31
0.0
  0
LINE
  5
1F0
330
1F
100
AcDbEntity
  8
SLD-0_0
  6
Continuous
 62
   179
370
    25
100
AcDbLine
 10
182.0414920627
 20
720.0171912687
 30
0.0
 11
182.3929396748
 21
718.9465279358
 31
0.0
  0
LINE
  5
1F1
330
1F
100
AcDbEntity
  8
SLD-0_0
  6
Continuous
 62
   179
370
    25
100
AcDbLine
 10
182.3929396748
 20
718.9465279358
 30
0.0
 11
183.0646057903
 21
718.0207932966
 31
0.0
  0
LINE
  5
1F2
330
1F
100
AcDbEntity
  8
SLD-0_0
  6
Continuous
 62
   179
370
    25
100
AcDbLine
 10
183.0646057903
 20
718.0207932966
 30
0.0
 11
183.996814984
 21
717.3222119587
 31
0.0
  0
LINE
  5
1F3
330
1F
100
AcDbEntity
  8
SLD-0_0
  6
Continuous
 62
   179
370
    25
100
AcDbLine
 10
183.996814984
 20
717.3222119587
 30
0.0
 11
185.1067298382
 21
716.9128770607
 31
0.0
  0
LINE
  5
1F4
330
1F
100
AcDbEntity
  8
SLD-0_0
  6
Continuous
 62
   179
370
    25
100
AcDbLine
 10
185.1067298382
 20
716.9128770607
 30
0.0
 11
186.295734468
 21
716.8291474359
 31
0.0
  0
LINE
  5
1F5
330
1F
100
AcDbEntity
  8
SLD-0_0
  6
Continuous
 62
   179
370
    25
100
AcDbLine
 10
186.295734468
 20
716.8291474359
 30
0.0
 11
187.458177778
 21
717.0784587639
 31
0.0
  0
LINE
  5
1F6
330
1F
100
AcDbEntity
  8
SLD-0_0
  6
Continuous
 62
   179
370
    25
100
AcDbLine
 10
187.458177778
 20
717.0784587639
 30
0.0
 11
188.4907742321
 21
717.6386828201
 31
0.0
  0
LINE
  5
1F7
330
1F
100
AcDbEntity
  8
SLD-0_0
  6
Continuous
 62
   179
370
    25
100
AcDbLine
 10
188.4907742321
 20
717.6386828201
 30
0.0
 11
189.30176993
 21
718.460019924
 31
0.0
  0
LINE
  5
1F8
330
1F
100
AcDbEntity
  8
SLD-0_0
  6
Continuous
 62
   179
370
    25
100
AcDbLine
 10
189.30176993
 20
718.460019924
 30
0.0
 11
189.8191065817
 21
719.4694841879
 31
0.0
  0
LINE
  5
1F9
330
1F
100
AcDbEntity
  8
SLD-0_0
  6
Continuous
 62
   179
370
    25
100
AcDbLine
 10
189.8191065817
 20
719.4694841879
 30
0.0
 11
189.9968141048
 21
720.5774004238
 31
0.0
  0
LINE
  5
1FA
330
1F
100
AcDbEntity
  8
SLD-0_0
  6
Continuous
 62
   179
370
    25
100
AcDbLine
 10
186.9801336259
 20
720.5927486198
 30
0.0
 11
186.9801336259
 21
720.7929606216
 31
0.0
  0
LINE
  5
1FB
330
1F
100
AcDbEntity
  8
SLD-0_0
  6
Continuous
 62
   179
370
    25
100
AcDbLine
 10
187.9813705862
 20
721.4797998445
 30
0.0
 11
186.9801336259
 21
720.7929606216
 31
0.0
  0
LINE
  5
1FC
330
1F
100
AcDbEntity
  8
SLD-0_0
  6
Continuous
 62
   179
370
    25
100
AcDbLine
 10
184.0122581749
 20
721.4797998445
 30
0.0
 11
185.0134951352
 21
720.7929606216
 31
0.0
  0
LINE
  5
1FD
330
1F
100
AcDbEntity
  8
SLD-0_0
  6
Continuous
 62
   179
370
    25
100
AcDbLine
 10
185.0134951352
 20
720.7929606216
 30
0.0
 11
185.0134951352
 21
720.5927486198
 31
0.0
  0
LINE
  5
1FE
330
1F
100
AcDbEntity
  8
SLD-0_0
  6
Continuous
 62
   179
370
    25
100
AcDbLine
 10
186.6742928803
 20
720.7929606216
 30
0.0
 11
186.9801336259
 21
720.7929606216
 31
0.0
  0
LINE
  5
1FF
330
1F
100
AcDbEntity
  8
SLD-0_0
  6
Continuous
 62
   179
370
    25
100
AcDbLine
 10
185.0134951352
 20
720.7929606216
 30
0.0
 11
185.3193358808
 21
720.7929606216
 31
0.0
  0
LINE
  5
200
330
1F
100
AcDbEntity
  8
SLD-0_0
  6
Continuous
 62
   179
370
    25
100
AcDbLine
 10
186.5118143438
 20
721.2330366152
 30
0.0
 11
185.4818144172
 21
721.2330366152
 31
0.0
  0
LINE
  5
201
330
1F
100
AcDbEntity
  8
SLD-0_0
  6
Continuous
 62
   179
370
    25
100
AcDbLine
 10
243.481814611
 20
634.7548926848
 30
0.0
 11
243.481814611
 21
633.6189548153
 31
0.0
  0
LINE
  5
202
330
1F
100
AcDbEntity
  8
SLD-0_0
  6
Continuous
 62
   179
370
    25
100
AcDbLine
 10
244.5118145376
 20
633.6189548153
 30
0.0
 11
244.5118145376
 21
634.7548926848
 31
0.0
  0
LINE
  5
203
330
1F
100
AcDbEntity
  8
SLD-0_0
  6
Continuous
 62
   179
370
    25
100
AcDbLine
 10
244.5118145377
 20
636.3858396786
 30
0.0
 11
244.5118145377
 21
637.3487005608
 31
0.0
  0
LINE
  5
204
330
1F
100
AcDbEntity
  8
SLD-0_0
  6
Continuous
 62
   179
370
    25
100
AcDbLine
 10
243.481814611
 20
637.3487005608
 30
0.0
 11
243.481814611
 21
636.3858396786
 31
0.0
  0
LINE
  5
205
330
1F
100
AcDbEntity
  8
SLD-0_0
  6
Continuous
 62
   179
370
    25
100
AcDbLine
 10
243.4818146109
 20
633.87297491
 30
0.0
 11
244.5118145376
 21
633.87297491
 31
0.0
  0
LINE
  5
206
330
1F
100
AcDbEntity
  8
SLD-0_0
  6
Continuous
 62
   179
370
    25
100
AcDbLine
 10
247.9968142985
 20
635.0653732794
 30
0.0
 11
247.8191067754
 21
636.1732895153
 31
0.0
  0
LINE
  5
207
330
1F
100
AcDbEntity
  8
SLD-0_0
  6
Continuous
 62
   179
370
    25
100
AcDbLine
 10
247.8191067754
 20
636.1732895153
 30
0.0
 11
247.3017682611
 21
637.1827686804
 31
0.0
  0
LINE
  5
208
330
1F
100
AcDbEntity
  8
SLD-0_0
  6
Continuous
 62
   179
370
    25
100
AcDbLine
 10
247.3017682611
 20
637.1827686804
 30
0.0
 11
246.4907725631
 21
638.0040983336
 31
0.0
  0
LINE
  5
209
330
1F
100
AcDbEntity
  8
SLD-0_0
  6
Continuous
 62
   179
370
    25
100
AcDbLine
 10
246.4907725631
 20
638.0040983336
 30
0.0
 11
245.4581779718
 21
638.5643149393
 31
0.0
  0
LINE
  5
20A
330
1F
100
AcDbEntity
  8
SLD-0_0
  6
Continuous
 62
   179
370
    25
100
AcDbLine
 10
245.4581779718
 20
638.5643149393
 30
0.0
 11
244.2957346617
 21
638.8136337178
 31
0.0
  0
LINE
  5
20B
330
1F
100
AcDbEntity
  8
SLD-0_0
  6
Continuous
 62
   179
370
    25
100
AcDbLine
 10
244.2957346617
 20
638.8136337178
 30
0.0
 11
243.1067300319
 21
638.7299040931
 31
0.0
  0
LINE
  5
20C
330
1F
100
AcDbEntity
  8
SLD-0_0
  6
Continuous
 62
   179
370
    25
100
AcDbLine
 10
243.1067300319
 20
638.7299040931
 30
0.0
 11
241.9968151777
 21
638.3205691951
 31
0.0
  0
LINE
  5
20D
330
1F
100
AcDbEntity
  8
SLD-0_0
  6
Continuous
 62
   179
370
    25
100
AcDbLine
 10
241.9968151777
 20
638.3205691951
 30
0.0
 11
241.0646078467
 21
637.6219878571
 31
0.0
  0
LINE
  5
20E
330
1F
100
AcDbEntity
  8
SLD-0_0
  6
Continuous
 62
   179
370
    25
100
AcDbLine
 10
241.0646078467
 20
637.6219878571
 30
0.0
 11
240.3929398685
 21
636.6962457674
 31
0.0
  0
LINE
  5
20F
330
1F
100
AcDbEntity
  8
SLD-0_0
  6
Continuous
 62
   179
370
    25
100
AcDbLine
 10
240.3929398685
 20
636.6962457674
 30
0.0
 11
240.0414903938
 21
635.625589885
 31
0.0
  0
LINE
  5
210
330
1F
100
AcDbEntity
  8
SLD-0_0
  6
Continuous
 62
   179
370
    25
100
AcDbLine
 10
240.0414903938
 20
635.625589885
 30
0.0
 11
240.0414903938
 21
634.5051566737
 31
0.0
  0
LINE
  5
211
330
1F
100
AcDbEntity
  8
SLD-0_0
  6
Continuous
 62
   179
370
    25
100
AcDbLine
 10
240.0414903938
 20
634.5051566737
 30
0.0
 11
240.3929398685
 21
633.4345082419
 31
0.0
  0
LINE
  5
212
330
1F
100
AcDbEntity
  8
SLD-0_0
  6
Continuous
 62
   179
370
    25
100
AcDbLine
 10
240.3929398685
 20
633.4345082419
 30
0.0
 11
241.0646078467
 21
632.5087661522
 31
0.0
  0
LINE
  5
213
330
1F
100
AcDbEntity
  8
SLD-0_0
  6
Continuous
 62
   179
370
    25
100
AcDbLine
 10
241.0646078467
 20
632.5087661522
 30
0.0
 11
241.9968151777
 21
631.8101848142
 31
0.0
  0
LINE
  5
214
330
1F
100
AcDbEntity
  8
SLD-0_0
  6
Continuous
 62
   179
370
    25
100
AcDbLine
 10
241.9968151777
 20
631.8101848142
 30
0.0
 11
243.1067300319
 21
631.4008424657
 31
0.0
  0
LINE
  5
215
330
1F
100
AcDbEntity
  8
SLD-0_0
  6
Continuous
 62
   179
370
    25
100
AcDbLine
 10
243.1067300319
 20
631.4008424657
 30
0.0
 11
244.2957346617
 21
631.3171128409
 31
0.0
  0
LINE
  5
216
330
1F
100
AcDbEntity
  8
SLD-0_0
  6
Continuous
 62
   179
370
    25
100
AcDbLine
 10
244.2957346617
 20
631.3171128409
 30
0.0
 11
245.4581779718
 21
631.5664316194
 31
0.0
  0
LINE
  5
217
330
1F
100
AcDbEntity
  8
SLD-0_0
  6
Continuous
 62
   179
370
    25
100
AcDbLine
 10
245.4581779718
 20
631.5664316194
 30
0.0
 11
246.4907725631
 21
632.1266482251
 31
0.0
  0
LINE
  5
218
330
1F
100
AcDbEntity
  8
SLD-0_0
  6
Continuous
 62
   179
370
    25
100
AcDbLine
 10
246.4907725631
 20
632.1266482251
 30
0.0
 11
247.3017682611
 21
632.9479853289
 31
0.0
  0
LINE
  5
219
330
1F
100
AcDbEntity
  8
SLD-0_0
  6
Continuous
 62
   179
370
    25
100
AcDbLine
 10
247.3017682611
 20
632.9479853289
 30
0.0
 11
247.8191067754
 21
633.9574570434
 31
0.0
  0
LINE
  5
21A
330
1F
100
AcDbEntity
  8
SLD-0_0
  6
Continuous
 62
   179
370
    25
100
AcDbLine
 10
247.8191067754
 20
633.9574570434
 30
0.0
 11
247.9968142985
 21
635.0653732794
 31
0.0
  0
LINE
  5
21B
330
1F
100
AcDbEntity
  8
SLD-0_0
  6
Continuous
 62
   179
370
    25
100
AcDbLine
 10
244.9801338196
 20
635.0807214754
 30
0.0
 11
244.9801338196
 21
635.2809334772
 31
0.0
  0
LINE
  5
21C
330
1F
100
AcDbEntity
  8
SLD-0_0
  6
Continuous
 62
   179
370
    25
100
AcDbLine
 10
245.9813707798
 20
635.9677727002
 30
0.0
 11
244.9801338196
 21
635.2809334772
 31
0.0
  0
LINE
  5
21D
330
1F
100
AcDbEntity
  8
SLD-0_0
  6
Continuous
 62
   179
370
    25
100
AcDbLine
 10
242.0122583687
 20
635.9677727001
 30
0.0
 11
243.0134953289
 21
635.2809334772
 31
0.0
  0
LINE
  5
21E
330
1F
100
AcDbEntity
  8
SLD-0_0
  6
Continuous
 62
   179
370
    25
100
AcDbLine
 10
243.0134953289
 20
635.2809334772
 30
0.0
 11
243.0134953289
 21
635.0807214754
 31
0.0
  0
LINE
  5
21F
330
1F
100
AcDbEntity
  8
SLD-0_0
  6
Continuous
 62
   179
370
    25
100
AcDbLine
 10
244.674293074
 20
635.2809334772
 30
0.0
 11
244.9801338196
 21
635.2809334772
 31
0.0
  0
LINE
  5
220
330
1F
100
AcDbEntity
  8
SLD-0_0
  6
Continuous
 62
   179
370
    25
100
AcDbLine
 10
243.0134953289
 20
635.2809334772
 30
0.0
 11
243.3193360745
 21
635.2809334772
 31
0.0
  0
LINE
  5
221
330
1F
100
AcDbEntity
  8
SLD-0_0
  6
Continuous
 62
   179
370
    25
100
AcDbLine
 10
244.5118145376
 20
635.7210094707
 30
0.0
 11
243.4818146109
 21
635.7210094707
 31
0.0
  0
LINE
  5
222
330
1F
100
AcDbEntity
  8
SLD-0_0
  6
Continuous
 62
   179
370
    25
100
AcDbLine
 10
241.1968170333
 20
712.077596709
 30
0.0
 11
241.1968170333
 21
644.3195059149
 31
0.0
  0
LINE
  5
223
330
1F
100
AcDbEntity
  8
SLD-0_0
  6
Continuous
 62
   179
370
    25
100
AcDbLine
 10
194.7968177216
 20
717.0776069402
 30
0.0
 11
236.1968169349
 21
717.0776019923
 31
0.0
  0
LINE
  5
224
330
1F
100
AcDbEntity
  8
SLD-0_0
  6
Continuous
 62
   179
370
    25
100
AcDbLine
 10
189.7968144446
 20
644.3195084708
 30
0.0
 11
189.7968144446
 21
712.0775992649
 31
0.0
  0
LINE
  5
225
330
1F
100
AcDbEntity
  8
SLD-0_0
  6
Continuous
 62
   179
370
    25
100
AcDbLine
 10
241.1402410495
 20
642.4435689299
 30
0.0
 11
241.1968170333
 21
643.1483715026
 31
0.0
  0
LINE
  5
226
330
1F
100
AcDbEntity
  8
SLD-0_0
  6
Continuous
 62
   179
370
    25
100
AcDbLine
 10
241.1968170333
 20
644.3195059149
 30
0.0
 11
241.1968170333
 21
643.1483715026
 31
0.0
  0
LINE
  5
227
330
1F
100
AcDbEntity
  8
SLD-0_0
  6
Continuous
 62
   179
370
    25
100
AcDbLine
 10
189.7968144446
 20
643.1483740585
 30
0.0
 11
189.8928878187
 21
642.2317514794
 31
0.0
  0
LINE
  5
228
330
1F
100
AcDbEntity
  8
SLD-0_0
  6
Continuous
 62
   179
370
    25
100
AcDbLine
 10
189.8928878187
 20
642.2317514794
 30
0.0
 11
189.9953761428
 21
641.8374444025
 31
0.0
  0
LINE
  5
229
330
1F
100
AcDbEntity
  8
SLD-0_0
  6
Continuous
 62
   179
370
    25
100
AcDbLine
 10
189.7968144446
 20
643.1483740585
 30
0.0
 11
189.7968144446
 21
644.3195084708
 31
0.0
  0
LINE
  5
22A
330
1F
100
AcDbEntity
  8
SLD-0_0
  6
Continuous
 62
   179
370
    25
100
AcDbLine
 10
250.6968153
 20
633.9556242006
 30
0.0
 11
250.5872917652
 21
632.9106728213
 31
0.0
  0
LINE
  5
22B
330
1F
100
AcDbEntity
  8
SLD-0_0
  6
Continuous
 62
   179
370
    25
100
AcDbLine
 10
250.5872917652
 20
632.9106728213
 30
0.0
 11
250.5272549868
 21
632.6589102524
 31
0.0
  0
LINE
  5
22C
330
1F
100
AcDbEntity
  8
SLD-0_0
  6
Continuous
 62
   179
370
    25
100
AcDbLine
 10
250.6968153
 20
633.9556242006
 30
0.0
 11
250.6968153
 21
632.4849391954
 31
0.0
  0
LINE
  5
22D
330
1F
100
AcDbEntity
  8
SLD-0_0
  6
Continuous
 62
   179
370
    25
100
AcDbLine
 10
244.9968138069
 20
627.128687002
 30
0.0
 11
185.9968153118
 21
627.128687002
 31
0.0
  0
LINE
  5
22E
330
1F
100
AcDbEntity
  8
SLD-0_0
  6
Continuous
 62
   179
370
    25
100
AcDbLine
 10
180.2968156814
 20
632.4849391955
 30
0.0
 11
180.2968156814
 21
633.9556242006
 31
0.0
  0
LINE
  5
22F
330
1F
100
AcDbEntity
  8
SLD-0_0
  6
Continuous
 62
   179
370
    25
100
AcDbLine
 10
250.6968153
 20
720.4073483722
 30
0.0
 11
250.6968153
 21
633.9556242006
 31
0.0
  0
LINE
  5
230
330
1F
100
AcDbEntity
  8
SLD-0_0
  6
Continuous
 62
   179
370
    25
100
AcDbLine
 10
180.2968156814
 20
633.9556242006
 30
0.0
 11
180.2968156814
 21
720.4073483722
 31
0.0
  0
LINE
  5
231
330
1F
100
AcDbEntity
  8
SLD-0_0
  6
Continuous
 62
   179
370
    25
100
AcDbLine
 10
180.2968156814
 20
720.4073483722
 30
0.0
 11
180.4063392161
 21
721.452292301
 31
0.0
  0
LINE
  5
232
330
1F
100
AcDbEntity
  8
SLD-0_0
  6
Continuous
 62
   179
370
    25
100
AcDbLine
 10
180.4063392161
 20
721.452292301
 30
0.0
 11
180.4663722693
 21
721.7040623205
 31
0.0
  0
LINE
  5
233
330
1F
100
AcDbEntity
  8
SLD-0_0
  6
Continuous
 62
   179
370
    25
100
AcDbLine
 10
229.0361418679
 20
728.8445050495
 30
0.0
 11
199.4968147307
 21
728.8445050495
 31
0.0
  0
LINE
  5
234
330
1F
100
AcDbEntity
  8
SLD-0_0
  6
Continuous
 62
   179
370
    25
100
AcDbLine
 10
230.496814224
 20
728.8445050495
 30
0.0
 11
229.0361418679
 21
728.8445050495
 31
0.0
  0
LINE
  5
235
330
1F
100
AcDbEntity
  8
SLD-0_0
  6
Continuous
 62
   179
370
    25
100
AcDbLine
 10
200.9968140452
 20
550.1445105897
 30
0.0
 11
228.9968149095
 21
550.1445105897
 31
0.0
  0
LINE
  5
236
330
1F
100
AcDbEntity
  8
SLD-0_0
  6
Continuous
 62
   179
370
    25
100
AcDbLine
 10
200.9968140452
 20
551.6445108356
 30
0.0
 11
228.9968149095
 21
551.6445108356
 31
0.0
  0
LINE
  5
237
330
1F
100
AcDbEntity
  8
SLD-0_0
  6
Continuous
 62
   179
370
    25
100
AcDbLine
 10
205.9968148232
 20
547.6445110589
 30
0.0
 11
223.9968140483
 21
547.6445110589
 31
0.0
  0
LINE
  5
238
330
1F
100
AcDbEntity
  8
SLD-0_0
  6
Continuous
 62
   179
370
    25
100
AcDbLine
 10
183.996814984
 20
240.7954755162
 30
0.0
 11
183.996814984
 21
239.4167455767
 31
0.0
  0
LINE
  5
239
330
1F
100
AcDbEntity
  8
SLD-0_0
  6
Continuous
 62
   179
370
    25
100
AcDbLine
 10
187.996813777
 20
239.4167455767
 30
0.0
 11
187.996813777
 21
240.9558418129
 31
0.0
  0
LINE
  5
23A
330
1F
100
AcDbEntity
  8
SLD-0_0
  6
Continuous
 62
   179
370
    25
100
AcDbLine
 10
181.9968146562
 20
246.5064424013
 30
0.0
 11
181.9968146562
 21
245.7663538788
 31
0.0
  0
LINE
  5
23B
330
1F
100
AcDbEntity
  8
SLD-0_0
  6
Continuous
 62
   179
370
    25
100
AcDbLine
 10
182.0466776668
 20
246.6535243128
 30
0.0
 11
182.0224074005
 21
246.5359243487
 31
0.0
  0
LINE
  5
23C
330
1F
100
AcDbEntity
  8
SLD-0_0
  6
Continuous
 62
   179
370
    25
100
AcDbLine
 10
189.9968141048
 20
246.5064424013
 30
0.0
 11
189.9497841775
 21
246.719871733
 31
0.0
  0
LINE
  5
23D
330
1F
100
AcDbEntity
  8
SLD-0_0
  6
Continuous
 62
   179
370
    25
100
AcDbLine
 10
241.9968151777
 20
240.9558418129
 30
0.0
 11
241.9968151777
 21
239.4167455767
 31
0.0
  0
LINE
  5
23E
330
1F
100
AcDbEntity
  8
SLD-0_0
  6
Continuous
 62
   179
370
    25
100
AcDbLine
 10
245.9968139707
 20
239.4167455767
 30
0.0
 11
245.9968139707
 21
240.9173521136
 31
0.0
  0
LINE
  5
23F
330
1F
100
AcDbEntity
  8
SLD-0_0
  6
Continuous
 62
   179
370
    25
100
AcDbLine
 10
247.9968142985
 20
246.1504536603
 30
0.0
 11
247.9968142985
 21
246.5064424013
 31
0.0
  0
LINE
  5
240
330
1F
100
AcDbEntity
  8
SLD-0_0
  6
Continuous
 62
   179
370
    25
100
AcDbLine
 10
240.0466778605
 20
246.6535243128
 30
0.0
 11
240.0224057316
 21
246.5359243487
 31
0.0
  0
LINE
  5
241
330
1F
100
AcDbEntity
  8
SLD-0_0
  6
Continuous
 62
   179
370
    25
100
AcDbLine
 10
247.9968142985
 20
246.5064424013
 30
0.0
 11
247.9497825085
 21
246.719871733
 31
0.0
  0
LINE
  5
242
330
1F
100
AcDbEntity
  8
SLD-0_0
  6
Continuous
 62
   179
370
    25
100
AcDbLine
 10
204.2288656636
 20
248.2524859642
 30
0.0
 11
204.2288656636
 21
248.2024851178
 31
0.0
  0
LINE
  5
243
330
1F
100
AcDbEntity
  8
SLD-0_0
  6
Continuous
 62
   179
370
    25
100
AcDbLine
 10
225.7647632911
 20
248.2024851178
 30
0.0
 11
225.7647632911
 21
248.2524859642
 31
0.0
  0
LINE
  5
244
330
1F
100
AcDbEntity
  8
SLD-0_0
  6
Continuous
 62
   179
370
    25
100
AcDbLine
 10
204.4968146189
 20
223.6476736997
 30
0.0
 11
204.4968146189
 21
224.147674713
 31
0.0
  0
LINE
  5
245
330
1F
100
AcDbEntity
  8
SLD-0_0
  6
Continuous
 62
   179
370
    25
100
AcDbLine
 10
218.4968145854
 20
223.6476736997
 30
0.0
 11
218.4968145854
 21
224.147674713
 31
0.0
  0
LINE
  5
246
330
1F
100
AcDbEntity
  8
SLD-0_0
  6
Continuous
 62
   179
370
    25
100
AcDbLine
 10
211.4968143693
 20
224.147674713
 30
0.0
 11
211.4968143693
 21
223.6476736997
 31
0.0
  0
LINE
  5
247
330
1F
100
AcDbEntity
  8
SLD-0_0
  6
Continuous
 62
   179
370
    25
100
AcDbLine
 10
225.4968143358
 20
224.147674713
 30
0.0
 11
225.4968143358
 21
223.6476736997
 31
0.0
  0
LINE
  5
248
330
1F
100
AcDbEntity
  8
SLD-0_0
  6
Continuous
 62
   179
370
    25
100
AcDbLine
 10
217.9968145034
 20
224.147674713
 30
0.0
 11
217.9968145034
 21
225.1476759101
 31
0.0
  0
LINE
  5
249
330
1F
100
AcDbEntity
  8
SLD-0_0
  6
Continuous
 62
   179
370
    25
100
AcDbLine
 10
211.9968144774
 20
225.1476759101
 30
0.0
 11
211.9968144774
 21
224.147674713
 31
0.0
  0
LINE
  5
24A
330
1F
100
AcDbEntity
  8
SLD-0_0
  6
Continuous
 62
   179
370
    25
100
AcDbLine
 10
244.9968138068
 20
246.525508437
 30
0.0
 11
185.9968153119
 21
246.525508437
 31
0.0
  0
LINE
  5
24B
330
1F
100
AcDbEntity
  8
SLD-0_0
  6
Continuous
 62
   179
370
    25
100
AcDbLine
 10
175.7599630035
 20
131.4803473179
 30
0.0
 11
175.5493239142
 21
131.9482782384
 31
0.0
  0
LINE
  5
24C
330
1F
100
AcDbEntity
  8
SLD-0_0
  6
Continuous
 62
   179
370
    25
100
AcDbLine
 10
179.6377414584
 20
122.2313971309
 30
0.0
 11
178.0913053119
 21
125.5143352013
 31
0.0
  0
LINE
  5
24D
330
1F
100
AcDbEntity
  8
SLD-0_0
  6
Continuous
 62
   179
370
    25
100
AcDbLine
 10
158.4282738446
 20
73.3744400476
 30
0.0
 11
271.5653551101
 21
73.3744400476
 31
0.0
  0
LINE
  5
24E
330
1F
100
AcDbEntity
  8
SLD-0_0
  6
Continuous
 62
   179
370
    25
100
AcDbLine
 10
144.9968141793
 20
199.9429809783
 30
0.0
 11
144.9968141793
 21
86.8058997129
 31
0.0
  0
LINE
  5
24F
330
1F
100
AcDbEntity
  8
SLD-0_0
  6
Continuous
 62
   179
370
    25
100
AcDbLine
 10
271.5653557001
 20
213.3744396155
 30
0.0
 11
158.4282725724
 21
213.3744396155
 31
0.0
  0
LINE
  5
250
330
1F
100
AcDbEntity
  8
SLD-0_0
  6
Continuous
 62
   179
370
    25
100
AcDbLine
 10
284.9968147754
 20
86.8058997129
 30
0.0
 11
284.9968134138
 21
199.942981981
 31
0.0
  0
LINE
  5
251
330
1F
100
AcDbEntity
  8
SLD-0_0
  6
Continuous
 62
   179
370
    25
100
AcDbLine
 10
134.9968144774
 20
125.3744403456
 30
0.0
 11
134.9968162655
 21
126.3744394217
 31
0.0
  0
LINE
  5
252
330
1F
100
AcDbEntity
  8
SLD-0_0
  6
Continuous
 62
   179
370
    25
100
AcDbLine
 10
144.9968141793
 20
123.3744407927
 30
0.0
 11
136.9968144774
 21
123.3744403456
 31
0.0
  0
LINE
  5
253
330
1F
100
AcDbEntity
  8
SLD-0_0
  6
Continuous
 62
   179
370
    25
100
AcDbLine
 10
134.9968162655
 20
126.3744394217
 30
0.0
 11
134.9968162655
 21
160.3744412695
 31
0.0
  0
LINE
  5
254
330
1F
100
AcDbEntity
  8
SLD-0_0
  6
Continuous
 62
   179
370
    25
100
AcDbLine
 10
134.9968162655
 20
160.3744412695
 30
0.0
 11
134.9968162655
 21
161.3744395708
 31
0.0
  0
LINE
  5
255
330
1F
100
AcDbEntity
  8
SLD-0_0
  6
Continuous
 62
   179
370
    25
100
AcDbLine
 10
136.9968153715
 20
163.3744394516
 30
0.0
 11
144.9968150733
 21
163.3744390046
 31
0.0
  0
LINE
  5
256
330
1F
100
AcDbEntity
  8
SLD-0_0
  6
Continuous
 62
   179
370
    25
100
AcDbLine
 10
201.5911345119
 20
201.4285866847
 30
0.0
 11
202.0568750722
 21
197.0583329258
 31
0.0
  0
LINE
  5
257
330
1F
100
AcDbEntity
  8
SLD-0_0
  6
Continuous
 62
   179
370
    25
100
AcDbLine
 10
202.0568750722
 20
197.0583329258
 30
0.0
 11
198.5049963627
 21
194.4698638192
 31
0.0
  0
LINE
  5
258
330
1F
100
AcDbEntity
  8
SLD-0_0
  6
Continuous
 62
   179
370
    25
100
AcDbLine
 10
198.5049963627
 20
194.4698638192
 30
0.0
 11
194.487374969
 21
196.2516471199
 31
0.0
  0
LINE
  5
259
330
1F
100
AcDbEntity
  8
SLD-0_0
  6
Continuous
 62
   179
370
    25
100
AcDbLine
 10
194.487374969
 20
196.2516471199
 30
0.0
 11
194.0216345071
 21
200.6219002341
 31
0.0
  0
LINE
  5
25A
330
1F
100
AcDbEntity
  8
SLD-0_0
  6
Continuous
 62
   179
370
    25
100
AcDbLine
 10
194.0216345071
 20
200.6219002341
 30
0.0
 11
197.5735144048
 21
203.2103697692
 31
0.0
  0
LINE
  5
25B
330
1F
100
AcDbEntity
  8
SLD-0_0
  6
Continuous
 62
   179
370
    25
100
AcDbLine
 10
197.5735144048
 20
203.2103697692
 30
0.0
 11
201.5911345119
 21
201.4285866847
 31
0.0
  0
LINE
  5
25C
330
1F
100
AcDbEntity
  8
SLD-0_0
  6
Continuous
 62
   179
370
    25
100
AcDbLine
 10
270.462490457
 20
164.7269991234
 30
0.0
 11
274.2686715863
 21
162.5294995679
 31
0.0
  0
LINE
  5
25D
330
1F
100
AcDbEntity
  8
SLD-0_0
  6
Continuous
 62
   179
370
    25
100
AcDbLine
 10
274.2686715863
 20
162.5294995679
 30
0.0
 11
274.2686718317
 21
158.1344998627
 31
0.0
  0
LINE
  5
25E
330
1F
100
AcDbEntity
  8
SLD-0_0
  6
Continuous
 62
   179
370
    25
100
AcDbLine
 10
274.2686718317
 20
158.1344998627
 30
0.0
 11
270.462490457
 21
155.9369998822
 31
0.0
  0
LINE
  5
25F
330
1F
100
AcDbEntity
  8
SLD-0_0
  6
Continuous
 62
   179
370
    25
100
AcDbLine
 10
266.6563091158
 20
162.5294993554
 30
0.0
 11
270.462490457
 21
164.7269991234
 31
0.0
  0
LINE
  5
260
330
1F
100
AcDbEntity
  8
SLD-0_0
  6
Continuous
 62
   179
370
    25
100
AcDbLine
 10
266.6563091158
 20
158.1344996502
 30
0.0
 11
266.6563091158
 21
162.5294993554
 31
0.0
  0
LINE
  5
261
330
1F
100
AcDbEntity
  8
SLD-0_0
  6
Continuous
 62
   179
370
    25
100
AcDbLine
 10
270.462490457
 20
155.9369998822
 30
0.0
 11
266.6563091158
 21
158.1344996502
 31
0.0
  0
LINE
  5
262
330
1F
100
AcDbEntity
  8
SLD-0_0
  6
Continuous
 62
   179
370
    25
100
AcDbLine
 10
231.9543735135
 20
92.3037647264
 30
0.0
 11
235.7605553169
 21
90.1062650472
 31
0.0
  0
LINE
  5
263
330
1F
100
AcDbEntity
  8
SLD-0_0
  6
Continuous
 62
   179
370
    25
100
AcDbLine
 10
235.7605553169
 20
90.1062650472
 30
0.0
 11
235.7605552783
 21
85.7112637963
 31
0.0
  0
LINE
  5
264
330
1F
100
AcDbEntity
  8
SLD-0_0
  6
Continuous
 62
   179
370
    25
100
AcDbLine
 10
235.7605552783
 20
85.7112637963
 30
0.0
 11
231.9543735135
 21
83.513764184
 31
0.0
  0
LINE
  5
265
330
1F
100
AcDbEntity
  8
SLD-0_0
  6
Continuous
 62
   179
370
    25
100
AcDbLine
 10
228.1481919169
 20
90.1062647735
 30
0.0
 11
231.9543735135
 21
92.3037647264
 31
0.0
  0
LINE
  5
266
330
1F
100
AcDbEntity
  8
SLD-0_0
  6
Continuous
 62
   179
370
    25
100
AcDbLine
 10
231.9543735135
 20
83.513764184
 30
0.0
 11
228.1481919169
 21
85.7112641369
 31
0.0
  0
LINE
  5
267
330
1F
100
AcDbEntity
  8
SLD-0_0
  6
Continuous
 62
   179
370
    25
100
AcDbLine
 10
228.1481919169
 20
85.7112641369
 30
0.0
 11
228.1481919169
 21
90.1062647735
 31
0.0
  0
LINE
  5
268
330
1F
100
AcDbEntity
  8
SLD-0_0
  6
Continuous
 62
   179
370
    25
100
AcDbLine
 10
159.5311386593
 20
130.8118808718
 30
0.0
 11
163.3373201552
 21
128.6143808987
 31
0.0
  0
LINE
  5
269
330
1F
100
AcDbEntity
  8
SLD-0_0
  6
Continuous
 62
   179
370
    25
100
AcDbLine
 10
163.3373201552
 20
128.6143808987
 30
0.0
 11
163.3373199099
 21
124.2193810534
 31
0.0
  0
LINE
  5
26A
330
1F
100
AcDbEntity
  8
SLD-0_0
  6
Continuous
 62
   179
370
    25
100
AcDbLine
 10
155.7249573349
 20
128.6143810411
 30
0.0
 11
159.5311386593
 21
130.8118808718
 31
0.0
  0
LINE
  5
26B
330
1F
100
AcDbEntity
  8
SLD-0_0
  6
Continuous
 62
   179
370
    25
100
AcDbLine
 10
163.3373199099
 20
124.2193810534
 30
0.0
 11
159.5311386593
 21
122.0218815051
 31
0.0
  0
LINE
  5
26C
330
1F
100
AcDbEntity
  8
SLD-0_0
  6
Continuous
 62
   179
370
    25
100
AcDbLine
 10
159.5311386593
 20
122.0218815051
 30
0.0
 11
155.7249573349
 21
124.2193813358
 31
0.0
  0
LINE
  5
26D
330
1F
100
AcDbEntity
  8
SLD-0_0
  6
Continuous
 62
   179
370
    25
100
AcDbLine
 10
155.7249573349
 20
124.2193813358
 30
0.0
 11
155.7249573349
 21
128.6143810411
 31
0.0
  0
LINE
  5
26E
330
1F
100
AcDbEntity
  8
SLD-0_0
  6
Continuous
 62
   179
370
    25
100
AcDbLine
 10
195.9564016496
 20
83.8453493115
 30
0.0
 11
176.2922246179
 21
94.3009778245
 31
0.0
  0
LINE
  5
26F
330
1F
100
AcDbEntity
  8
SLD-0_0
  6
Continuous
 62
   179
370
    25
100
AcDbLine
 10
155.4677234433
 20
162.4148531734
 30
0.0
 11
165.9233515898
 21
182.0790297404
 31
0.0
  0
LINE
  5
270
330
1F
100
AcDbEntity
  8
SLD-0_0
  6
Continuous
 62
   179
370
    25
100
AcDbLine
 10
234.0372273052
 20
202.9035313797
 30
0.0
 11
253.7014038722
 21
192.4479032332
 31
0.0
  0
LINE
  5
271
330
1F
100
AcDbEntity
  8
SLD-0_0
  6
Continuous
 62
   179
370
    25
100
AcDbLine
 10
274.5259055115
 20
124.3340275178
 30
0.0
 11
264.070277365
 21
104.6698509508
 31
0.0
  0
LINE
  5
272
330
1F
100
AcDbEntity
  8
SLD-0_0
  6
Continuous
 62
   179
370
    25
100
AcDbLine
 10
187.996813777
 20
239.4167455767
 30
0.0
 11
187.844574201
 21
239.154976878
 31
0.0
  0
LINE
  5
273
330
1F
100
AcDbEntity
  8
SLD-0_0
  6
Continuous
 62
   179
370
    25
100
AcDbLine
 10
187.844574201
 20
239.154976878
 30
0.0
 11
187.4110286414
 21
238.9330613349
 31
0.0
  0
LINE
  5
274
330
1F
100
AcDbEntity
  8
SLD-0_0
  6
Continuous
 62
   179
370
    25
100
AcDbLine
 10
187.4110286414
 20
238.9330613349
 30
0.0
 11
186.7621817916
 21
238.7847798799
 31
0.0
  0
LINE
  5
275
330
1F
100
AcDbEntity
  8
SLD-0_0
  6
Continuous
 62
   179
370
    25
100
AcDbLine
 10
186.7621817916
 20
238.7847798799
 30
0.0
 11
185.9968153118
 21
238.7327077721
 31
0.0
  0
LINE
  5
276
330
1F
100
AcDbEntity
  8
SLD-0_0
  6
Continuous
 62
   179
370
    25
100
AcDbLine
 10
185.9968153118
 20
238.7327077721
 30
0.0
 11
185.2314469694
 21
238.7847798799
 31
0.0
  0
LINE
  5
277
330
1F
100
AcDbEntity
  8
SLD-0_0
  6
Continuous
 62
   179
370
    25
100
AcDbLine
 10
185.2314469694
 20
238.7847798799
 30
0.0
 11
184.5826001196
 21
238.9330613349
 31
0.0
  0
LINE
  5
278
330
1F
100
AcDbEntity
  8
SLD-0_0
  6
Continuous
 62
   179
370
    25
100
AcDbLine
 10
184.5826001196
 20
238.9330613349
 30
0.0
 11
184.14905456
 21
239.154976878
 31
0.0
  0
LINE
  5
279
330
1F
100
AcDbEntity
  8
SLD-0_0
  6
Continuous
 62
   179
370
    25
100
AcDbLine
 10
184.14905456
 20
239.154976878
 30
0.0
 11
183.996814984
 21
239.4167455767
 31
0.0
  0
LINE
  5
27A
330
1F
100
AcDbEntity
  8
SLD-0_0
  6
Continuous
 62
   179
370
    25
100
AcDbLine
 10
183.996814984
 20
239.4167455767
 30
0.0
 11
184.14905456
 21
239.678521726
 31
0.0
  0
LINE
  5
27B
330
1F
100
AcDbEntity
  8
SLD-0_0
  6
Continuous
 62
   179
370
    25
100
AcDbLine
 10
184.14905456
 20
239.678521726
 30
0.0
 11
184.5826001196
 21
239.9004372691
 31
0.0
  0
LINE
  5
27C
330
1F
100
AcDbEntity
  8
SLD-0_0
  6
Continuous
 62
   179
370
    25
100
AcDbLine
 10
184.5826001196
 20
239.9004372691
 30
0.0
 11
185.2314469694
 21
240.0487187241
 31
0.0
  0
LINE
  5
27D
330
1F
100
AcDbEntity
  8
SLD-0_0
  6
Continuous
 62
   179
370
    25
100
AcDbLine
 10
185.2314469694
 20
240.0487187241
 30
0.0
 11
185.9968153118
 21
240.1007908319
 31
0.0
  0
LINE
  5
27E
330
1F
100
AcDbEntity
  8
SLD-0_0
  6
Continuous
 62
   179
370
    25
100
AcDbLine
 10
185.9968153118
 20
240.1007908319
 30
0.0
 11
186.7621817916
 21
240.0487187241
 31
0.0
  0
LINE
  5
27F
330
1F
100
AcDbEntity
  8
SLD-0_0
  6
Continuous
 62
   179
370
    25
100
AcDbLine
 10
186.7621817916
 20
240.0487187241
 30
0.0
 11
187.4110286414
 21
239.9004372691
 31
0.0
  0
LINE
  5
280
330
1F
100
AcDbEntity
  8
SLD-0_0
  6
Continuous
 62
   179
370
    25
100
AcDbLine
 10
187.4110286414
 20
239.9004372691
 30
0.0
 11
187.844574201
 21
239.678521726
 31
0.0
  0
LINE
  5
281
330
1F
100
AcDbEntity
  8
SLD-0_0
  6
Continuous
 62
   179
370
    25
100
AcDbLine
 10
187.844574201
 20
239.678521726
 30
0.0
 11
187.996813777
 21
239.4167455767
 31
0.0
  0
LINE
  5
282
330
1F
100
AcDbEntity
  8
SLD-0_0
  6
Continuous
 62
   179
370
    25
100
AcDbLine
 10
182.1512242138
 20
246.8628558253
 30
0.0
 11
182.3319939255
 21
247.186143968
 31
0.0
  0
LINE
  5
283
330
1F
100
AcDbEntity
  8
SLD-0_0
  6
Continuous
 62
   179
370
    25
100
AcDbLine
 10
182.3319939255
 20
247.186143968
 30
0.0
 11
182.8793322026
 21
247.5535469984
 31
0.0
  0
LINE
  5
284
330
1F
100
AcDbEntity
  8
SLD-0_0
  6
Continuous
 62
   179
370
    25
100
AcDbLine
 10
182.8793322026
 20
247.5535469984
 30
0.0
 11
183.7318313598
 21
247.8451180194
 31
0.0
  0
LINE
  5
285
330
1F
100
AcDbEntity
  8
SLD-0_0
  6
Continuous
 62
   179
370
    25
100
AcDbLine
 10
183.7318313598
 20
247.8451180194
 30
0.0
 11
184.8060430317
 21
248.0323138569
 31
0.0
  0
LINE
  5
286
330
1F
100
AcDbEntity
  8
SLD-0_0
  6
Continuous
 62
   179
370
    25
100
AcDbLine
 10
184.8060430317
 20
248.0323138569
 30
0.0
 11
185.9968153118
 21
248.0968209837
 31
0.0
  0
LINE
  5
287
330
1F
100
AcDbEntity
  8
SLD-0_0
  6
Continuous
 62
   179
370
    25
100
AcDbLine
 10
185.9968153118
 20
248.0968209837
 30
0.0
 11
187.1875875919
 21
248.0323138569
 31
0.0
  0
LINE
  5
288
330
1F
100
AcDbEntity
  8
SLD-0_0
  6
Continuous
 62
   179
370
    25
100
AcDbLine
 10
187.1875875919
 20
248.0323138569
 30
0.0
 11
188.2617974012
 21
247.8451180194
 31
0.0
  0
LINE
  5
289
330
1F
100
AcDbEntity
  8
SLD-0_0
  6
Continuous
 62
   179
370
    25
100
AcDbLine
 10
188.2617974012
 20
247.8451180194
 30
0.0
 11
189.1142965584
 21
247.5535469984
 31
0.0
  0
LINE
  5
28A
330
1F
100
AcDbEntity
  8
SLD-0_0
  6
Continuous
 62
   179
370
    25
100
AcDbLine
 10
189.1142965584
 20
247.5535469984
 30
0.0
 11
189.6616348355
 21
247.186143968
 31
0.0
  0
LINE
  5
28B
330
1F
100
AcDbEntity
  8
SLD-0_0
  6
Continuous
 62
   179
370
    25
100
AcDbLine
 10
189.6616348355
 20
247.186143968
 30
0.0
 11
189.8328063368
 21
246.9040798877
 31
0.0
  0
LINE
  5
28C
330
1F
100
AcDbEntity
  8
SLD-0_0
  6
Continuous
 62
   179
370
    25
100
AcDbLine
 10
245.9968139707
 20
239.4167455767
 30
0.0
 11
245.8445743947
 21
239.154976878
 31
0.0
  0
LINE
  5
28D
330
1F
100
AcDbEntity
  8
SLD-0_0
  6
Continuous
 62
   179
370
    25
100
AcDbLine
 10
245.8445743947
 20
239.154976878
 30
0.0
 11
245.4110288351
 21
238.9330613349
 31
0.0
  0
LINE
  5
28E
330
1F
100
AcDbEntity
  8
SLD-0_0
  6
Continuous
 62
   179
370
    25
100
AcDbLine
 10
245.4110288351
 20
238.9330613349
 30
0.0
 11
244.7621819853
 21
238.7847798799
 31
0.0
  0
LINE
  5
28F
330
1F
100
AcDbEntity
  8
SLD-0_0
  6
Continuous
 62
   179
370
    25
100
AcDbLine
 10
244.7621819853
 20
238.7847798799
 30
0.0
 11
243.9968136429
 21
238.7327077721
 31
0.0
  0
LINE
  5
290
330
1F
100
AcDbEntity
  8
SLD-0_0
  6
Continuous
 62
   179
370
    25
100
AcDbLine
 10
243.9968136429
 20
238.7327077721
 30
0.0
 11
243.2314471631
 21
238.7847798799
 31
0.0
  0
LINE
  5
291
330
1F
100
AcDbEntity
  8
SLD-0_0
  6
Continuous
 62
   179
370
    25
100
AcDbLine
 10
243.2314471631
 20
238.7847798799
 30
0.0
 11
242.5826003133
 21
238.9330613349
 31
0.0
  0
LINE
  5
292
330
1F
100
AcDbEntity
  8
SLD-0_0
  6
Continuous
 62
   179
370
    25
100
AcDbLine
 10
242.5826003133
 20
238.9330613349
 30
0.0
 11
242.1490547537
 21
239.154976878
 31
0.0
  0
LINE
  5
293
330
1F
100
AcDbEntity
  8
SLD-0_0
  6
Continuous
 62
   179
370
    25
100
AcDbLine
 10
242.1490547537
 20
239.154976878
 30
0.0
 11
241.9968151777
 21
239.4167455767
 31
0.0
  0
LINE
  5
294
330
1F
100
AcDbEntity
  8
SLD-0_0
  6
Continuous
 62
   179
370
    25
100
AcDbLine
 10
241.9968151777
 20
239.4167455767
 30
0.0
 11
242.1490547537
 21
239.678521726
 31
0.0
  0
LINE
  5
295
330
1F
100
AcDbEntity
  8
SLD-0_0
  6
Continuous
 62
   179
370
    25
100
AcDbLine
 10
242.1490547537
 20
239.678521726
 30
0.0
 11
242.5826003133
 21
239.9004372691
 31
0.0
  0
LINE
  5
296
330
1F
100
AcDbEntity
  8
SLD-0_0
  6
Continuous
 62
   179
370
    25
100
AcDbLine
 10
242.5826003133
 20
239.9004372691
 30
0.0
 11
243.2314471631
 21
240.0487187241
 31
0.0
  0
LINE
  5
297
330
1F
100
AcDbEntity
  8
SLD-0_0
  6
Continuous
 62
   179
370
    25
100
AcDbLine
 10
243.2314471631
 20
240.0487187241
 30
0.0
 11
243.9968136429
 21
240.1007908319
 31
0.0
  0
LINE
  5
298
330
1F
100
AcDbEntity
  8
SLD-0_0
  6
Continuous
 62
   179
370
    25
100
AcDbLine
 10
243.9968136429
 20
240.1007908319
 30
0.0
 11
244.7621819853
 21
240.0487187241
 31
0.0
  0
LINE
  5
299
330
1F
100
AcDbEntity
  8
SLD-0_0
  6
Continuous
 62
   179
370
    25
100
AcDbLine
 10
244.7621819853
 20
240.0487187241
 30
0.0
 11
245.4110288351
 21
239.9004372691
 31
0.0
  0
LINE
  5
29A
330
1F
100
AcDbEntity
  8
SLD-0_0
  6
Continuous
 62
   179
370
    25
100
AcDbLine
 10
245.4110288351
 20
239.9004372691
 30
0.0
 11
245.8445743947
 21
239.678521726
 31
0.0
  0
LINE
  5
29B
330
1F
100
AcDbEntity
  8
SLD-0_0
  6
Continuous
 62
   179
370
    25
100
AcDbLine
 10
245.8445743947
 20
239.678521726
 30
0.0
 11
245.9968139707
 21
239.4167455767
 31
0.0
  0
LINE
  5
29C
330
1F
100
AcDbEntity
  8
SLD-0_0
  6
Continuous
 62
   179
370
    25
100
AcDbLine
 10
240.1512262701
 20
246.8628558253
 30
0.0
 11
240.3319941192
 21
247.186143968
 31
0.0
  0
LINE
  5
29D
330
1F
100
AcDbEntity
  8
SLD-0_0
  6
Continuous
 62
   179
370
    25
100
AcDbLine
 10
240.3319941192
 20
247.186143968
 30
0.0
 11
240.8793323963
 21
247.5535469984
 31
0.0
  0
LINE
  5
29E
330
1F
100
AcDbEntity
  8
SLD-0_0
  6
Continuous
 62
   179
370
    25
100
AcDbLine
 10
240.8793323963
 20
247.5535469984
 30
0.0
 11
241.7318315535
 21
247.8451180194
 31
0.0
  0
LINE
  5
29F
330
1F
100
AcDbEntity
  8
SLD-0_0
  6
Continuous
 62
   179
370
    25
100
AcDbLine
 10
241.7318315535
 20
247.8451180194
 30
0.0
 11
242.8060413628
 21
248.0323138569
 31
0.0
  0
LINE
  5
2A0
330
1F
100
AcDbEntity
  8
SLD-0_0
  6
Continuous
 62
   179
370
    25
100
AcDbLine
 10
242.8060413628
 20
248.0323138569
 30
0.0
 11
243.9968136429
 21
248.0968209837
 31
0.0
  0
LINE
  5
2A1
330
1F
100
AcDbEntity
  8
SLD-0_0
  6
Continuous
 62
   179
370
    25
100
AcDbLine
 10
243.9968136429
 20
248.0968209837
 30
0.0
 11
245.187585923
 21
248.0323138569
 31
0.0
  0
LINE
  5
2A2
330
1F
100
AcDbEntity
  8
SLD-0_0
  6
Continuous
 62
   179
370
    25
100
AcDbLine
 10
245.187585923
 20
248.0323138569
 30
0.0
 11
246.2617975949
 21
247.8451180194
 31
0.0
  0
LINE
  5
2A3
330
1F
100
AcDbEntity
  8
SLD-0_0
  6
Continuous
 62
   179
370
    25
100
AcDbLine
 10
246.2617975949
 20
247.8451180194
 30
0.0
 11
247.1142967521
 21
247.5535469984
 31
0.0
  0
LINE
  5
2A4
330
1F
100
AcDbEntity
  8
SLD-0_0
  6
Continuous
 62
   179
370
    25
100
AcDbLine
 10
247.1142967521
 20
247.5535469984
 30
0.0
 11
247.6616350292
 21
247.186143968
 31
0.0
  0
LINE
  5
2A5
330
1F
100
AcDbEntity
  8
SLD-0_0
  6
Continuous
 62
   179
370
    25
100
AcDbLine
 10
247.6616350292
 20
247.186143968
 30
0.0
 11
247.8328083932
 21
246.9040798877
 31
0.0
  0
LINE
  5
2A6
330
1F
100
AcDbEntity
  8
SLD-0_0
  6
Continuous
 62
   179
370
    25
100
AcDbLine
 10
204.2288656636
 20
248.2524859642
 30
0.0
 11
205.2288648962
 21
248.2524859642
 31
0.0
  0
LINE
  5
2A7
330
1F
100
AcDbEntity
  8
SLD-0_0
  6
Continuous
 62
   179
370
    25
100
AcDbLine
 10
205.2288648962
 20
248.2524859642
 30
0.0
 11
224.7647640585
 21
248.2524859642
 31
0.0
  0
LINE
  5
2A8
330
1F
100
AcDbEntity
  8
SLD-0_0
  6
Continuous
 62
   179
370
    25
100
AcDbLine
 10
224.7647640585
 20
248.2524859642
 30
0.0
 11
225.7647632911
 21
248.2524859642
 31
0.0
  0
LINE
  5
2A9
330
1F
100
AcDbEntity
  8
SLD-0_0
  6
Continuous
 62
   179
370
    25
100
AcDbLine
 10
206.0948905825
 20
248.3024868105
 30
0.0
 11
206.0948905825
 21
248.2524859642
 31
0.0
  0
LINE
  5
2AA
330
1F
100
AcDbEntity
  8
SLD-0_0
  6
Continuous
 62
   179
370
    25
100
AcDbLine
 10
223.8987383722
 20
248.3024868105
 30
0.0
 11
223.8987383722
 21
248.2524859642
 31
0.0
  0
LINE
  5
2AB
330
1F
100
AcDbEntity
  8
SLD-0_0
  6
Continuous
 62
   179
370
    25
100
AcDbLine
 10
206.0948905825
 20
248.3024868105
 30
0.0
 11
223.8987383722
 21
248.3024868105
 31
0.0
  0
LINE
  5
2AC
330
1F
100
AcDbEntity
  8
SLD-0_0
  6
Continuous
 62
   179
370
    25
100
AcDbLine
 10
204.000905837
 20
223.6476736997
 30
0.0
 11
206.4968140154
 21
223.6476736997
 31
0.0
  0
LINE
  5
2AD
330
1F
100
AcDbEntity
  8
SLD-0_0
  6
Continuous
 62
   179
370
    25
100
AcDbLine
 10
206.4968140154
 20
223.6476736997
 30
0.0
 11
206.4968140154
 21
228.1476753686
 31
0.0
  0
LINE
  5
2AE
330
1F
100
AcDbEntity
  8
SLD-0_0
  6
Continuous
 62
   179
370
    25
100
AcDbLine
 10
209.4968145072
 20
228.1476753686
 30
0.0
 11
206.4968140154
 21
228.1476753686
 31
0.0
  0
LINE
  5
2AF
330
1F
100
AcDbEntity
  8
SLD-0_0
  6
Continuous
 62
   179
370
    25
100
AcDbLine
 10
209.4968145072
 20
223.6476736997
 30
0.0
 11
209.4968145072
 21
228.1476753686
 31
0.0
  0
LINE
  5
2B0
330
1F
100
AcDbEntity
  8
SLD-0_0
  6
Continuous
 62
   179
370
    25
100
AcDbLine
 10
209.4968145072
 20
223.6476736997
 30
0.0
 11
220.4968144476
 21
223.6476736997
 31
0.0
  0
LINE
  5
2B1
330
1F
100
AcDbEntity
  8
SLD-0_0
  6
Continuous
 62
   179
370
    25
100
AcDbLine
 10
220.4968144476
 20
223.6476736997
 30
0.0
 11
220.4968144476
 21
228.1476753686
 31
0.0
  0
LINE
  5
2B2
330
1F
100
AcDbEntity
  8
SLD-0_0
  6
Continuous
 62
   179
370
    25
100
AcDbLine
 10
223.4968149393
 20
228.1476753686
 30
0.0
 11
220.4968144476
 21
228.1476753686
 31
0.0
  0
LINE
  5
2B3
330
1F
100
AcDbEntity
  8
SLD-0_0
  6
Continuous
 62
   179
370
    25
100
AcDbLine
 10
223.4968149393
 20
223.6476736997
 30
0.0
 11
223.4968149393
 21
228.1476753686
 31
0.0
  0
LINE
  5
2B4
330
1F
100
AcDbEntity
  8
SLD-0_0
  6
Continuous
 62
   179
370
    25
100
AcDbLine
 10
223.4968149393
 20
223.6476736997
 30
0.0
 11
225.9927231177
 21
223.6476736997
 31
0.0
  0
LINE
  5
2B5
330
1F
100
AcDbEntity
  8
SLD-0_0
  6
Continuous
 62
   179
370
    25
100
AcDbLine
 10
217.9968144643
 20
217.147675897
 30
0.0
 11
217.9968144643
 21
221.6476770972
 31
0.0
  0
LINE
  5
2B6
330
1F
100
AcDbEntity
  8
SLD-0_0
  6
Continuous
 62
   179
370
    25
100
AcDbLine
 10
217.9968144643
 20
221.6476770972
 30
0.0
 11
211.9968144513
 21
221.6476770972
 31
0.0
  0
LINE
  5
2B7
330
1F
100
AcDbEntity
  8
SLD-0_0
  6
Continuous
 62
   179
370
    25
100
AcDbLine
 10
211.9968144513
 20
221.6476770972
 30
0.0
 11
211.9968144513
 21
217.1476754282
 31
0.0
  0
LINE
  5
2B8
330
1F
100
AcDbEntity
  8
SLD-0_0
  6
Continuous
 62
   179
370
    25
100
AcDbLine
 10
213.4968144643
 20
215.647675897
 30
0.0
 11
216.4968144643
 21
215.647675897
 31
0.0
  0
LINE
  5
2B9
330
1F
100
AcDbEntity
  8
SLD-0_0
  6
Continuous
 62
   179
370
    25
100
AcDbLine
 10
203.9986324786
 20
224.147674713
 30
0.0
 11
204.4968146189
 21
224.147674713
 31
0.0
  0
LINE
  5
2BA
330
1F
100
AcDbEntity
  8
SLD-0_0
  6
Continuous
 62
   179
370
    25
100
AcDbLine
 10
211.4968143693
 20
224.147674713
 30
0.0
 11
218.4968145854
 21
224.147674713
 31
0.0
  0
LINE
  5
2BB
330
1F
100
AcDbEntity
  8
SLD-0_0
  6
Continuous
 62
   179
370
    25
100
AcDbLine
 10
225.4968143358
 20
224.147674713
 30
0.0
 11
225.9949964761
 21
224.147674713
 31
0.0
  0
LINE
  5
2BC
330
1F
100
AcDbEntity
  8
SLD-0_0
  6
Continuous
 62
   179
370
    25
100
AcDbLine
 10
214.1307890821
 20
227.1476733421
 30
0.0
 11
214.4968144536
 21
227.1476733421
 31
0.0
  0
LINE
  5
2BD
330
1F
100
AcDbEntity
  8
SLD-0_0
  6
Continuous
 62
   179
370
    25
100
AcDbLine
 10
215.4968145011
 20
227.1476733421
 30
0.0
 11
215.8628398726
 21
227.1476733421
 31
0.0
  0
LINE
  5
2BE
330
1F
100
AcDbEntity
  8
SLD-0_0
  6
Continuous
 62
   179
370
    25
100
AcDbLine
 10
180.2968156814
 20
239.4167455767
 30
0.0
 11
180.2968156814
 21
213.3744406436
 31
0.0
  0
LINE
  5
2BF
330
1F
100
AcDbEntity
  8
SLD-0_0
  6
Continuous
 62
   179
370
    25
100
AcDbLine
 10
185.9968153118
 20
241.3662644957
 30
0.0
 11
184.8847993939
 21
241.3288029765
 31
0.0
  0
LINE
  5
2C0
330
1F
100
AcDbEntity
  8
SLD-0_0
  6
Continuous
 62
   179
370
    25
100
AcDbLine
 10
184.8847993939
 20
241.3288029765
 30
0.0
 11
183.8155181437
 21
241.2178638314
 31
0.0
  0
LINE
  5
2C1
330
1F
100
AcDbEntity
  8
SLD-0_0
  6
Continuous
 62
   179
370
    25
100
AcDbLine
 10
183.8155181437
 20
241.2178638314
 30
0.0
 11
182.8300652384
 21
241.0377087925
 31
0.0
  0
LINE
  5
2C2
330
1F
100
AcDbEntity
  8
SLD-0_0
  6
Continuous
 62
   179
370
    25
100
AcDbLine
 10
182.8300652384
 20
241.0377087925
 30
0.0
 11
181.9663045286
 21
240.7952668999
 31
0.0
  0
LINE
  5
2C3
330
1F
100
AcDbEntity
  8
SLD-0_0
  6
Continuous
 62
   179
370
    25
100
AcDbLine
 10
181.9663045286
 20
240.7952668999
 30
0.0
 11
181.2574376642
 21
240.4998439287
 31
0.0
  0
LINE
  5
2C4
330
1F
100
AcDbEntity
  8
SLD-0_0
  6
Continuous
 62
   179
370
    25
100
AcDbLine
 10
181.2574376642
 20
240.4998439287
 30
0.0
 11
180.7307002424
 21
240.1627945636
 31
0.0
  0
LINE
  5
2C5
330
1F
100
AcDbEntity
  8
SLD-0_0
  6
Continuous
 62
   179
370
    25
100
AcDbLine
 10
180.7307002424
 20
240.1627945636
 30
0.0
 11
180.4063392161
 21
239.797082815
 31
0.0
  0
LINE
  5
2C6
330
1F
100
AcDbEntity
  8
SLD-0_0
  6
Continuous
 62
   179
370
    25
100
AcDbLine
 10
180.4063392161
 20
239.797082815
 30
0.0
 11
180.2968156814
 21
239.4167455767
 31
0.0
  0
LINE
  5
2C7
330
1F
100
AcDbEntity
  8
SLD-0_0
  6
Continuous
 62
   179
370
    25
100
AcDbLine
 10
244.9968138068
 20
241.3662644957
 30
0.0
 11
185.9968153118
 21
241.3662644957
 31
0.0
  0
LINE
  5
2C8
330
1F
100
AcDbEntity
  8
SLD-0_0
  6
Continuous
 62
   179
370
    25
100
AcDbLine
 10
250.6968152999
 20
239.4167455767
 30
0.0
 11
250.5872917651
 21
239.797082815
 31
0.0
  0
LINE
  5
2C9
330
1F
100
AcDbEntity
  8
SLD-0_0
  6
Continuous
 62
   179
370
    25
100
AcDbLine
 10
250.5872917651
 20
239.797082815
 30
0.0
 11
250.2629270136
 21
240.1627945636
 31
0.0
  0
LINE
  5
2CA
330
1F
100
AcDbEntity
  8
SLD-0_0
  6
Continuous
 62
   179
370
    25
100
AcDbLine
 10
250.2629270136
 20
240.1627945636
 30
0.0
 11
249.7361895918
 21
240.4998439287
 31
0.0
  0
LINE
  5
2CB
330
1F
100
AcDbEntity
  8
SLD-0_0
  6
Continuous
 62
   179
370
    25
100
AcDbLine
 10
249.7361895918
 20
240.4998439287
 30
0.0
 11
249.0273227274
 21
240.7952668999
 31
0.0
  0
LINE
  5
2CC
330
1F
100
AcDbEntity
  8
SLD-0_0
  6
Continuous
 62
   179
370
    25
100
AcDbLine
 10
249.0273227274
 20
240.7952668999
 30
0.0
 11
248.1635657429
 21
241.0377087925
 31
0.0
  0
LINE
  5
2CD
330
1F
100
AcDbEntity
  8
SLD-0_0
  6
Continuous
 62
   179
370
    25
100
AcDbLine
 10
248.1635657429
 20
241.0377087925
 30
0.0
 11
247.1781109749
 21
241.2178638314
 31
0.0
  0
LINE
  5
2CE
330
1F
100
AcDbEntity
  8
SLD-0_0
  6
Continuous
 62
   179
370
    25
100
AcDbLine
 10
247.1781109749
 20
241.2178638314
 30
0.0
 11
246.1088297247
 21
241.3288029765
 31
0.0
  0
LINE
  5
2CF
330
1F
100
AcDbEntity
  8
SLD-0_0
  6
Continuous
 62
   179
370
    25
100
AcDbLine
 10
246.1088297247
 20
241.3288029765
 30
0.0
 11
244.9968138068
 21
241.3662644957
 31
0.0
  0
LINE
  5
2D0
330
1F
100
AcDbEntity
  8
SLD-0_0
  6
Continuous
 62
   179
370
    25
100
AcDbLine
 10
250.6968152999
 20
213.3744406436
 30
0.0
 11
250.6968152999
 21
239.4167455767
 31
0.0
  0
LINE
  5
2D1
330
1F
100
AcDbEntity
  8
SLD-0_0
  6
Continuous
 62
   179
370
    25
100
AcDbLine
 10
249.4968136131
 20
213.3744406436
 30
0.0
 11
249.4968136131
 21
239.4167455767
 31
0.0
  0
LINE
  5
2D2
330
1F
100
AcDbEntity
  8
SLD-0_0
  6
Continuous
 62
   179
370
    25
100
AcDbLine
 10
244.9968138068
 20
240.9558418129
 30
0.0
 11
245.8747213065
 21
240.926263008
 31
0.0
  0
LINE
  5
2D3
330
1F
100
AcDbEntity
  8
SLD-0_0
  6
Continuous
 62
   179
370
    25
100
AcDbLine
 10
245.8747213065
 20
240.926263008
 30
0.0
 11
246.7188907146
 21
240.8386814331
 31
0.0
  0
LINE
  5
2D4
330
1F
100
AcDbEntity
  8
SLD-0_0
  6
Continuous
 62
   179
370
    25
100
AcDbLine
 10
246.7188907146
 20
240.8386814331
 30
0.0
 11
247.4968803405
 21
240.6964573
 31
0.0
  0
LINE
  5
2D5
330
1F
100
AcDbEntity
  8
SLD-0_0
  6
Continuous
 62
   179
370
    25
100
AcDbLine
 10
247.4968803405
 20
240.6964573
 30
0.0
 11
248.1787947296
 21
240.5050518845
 31
0.0
  0
LINE
  5
2D6
330
1F
100
AcDbEntity
  8
SLD-0_0
  6
Continuous
 62
   179
370
    25
100
AcDbLine
 10
248.1787947296
 20
240.5050518845
 30
0.0
 11
248.7384264647
 21
240.2718189095
 31
0.0
  0
LINE
  5
2D7
330
1F
100
AcDbEntity
  8
SLD-0_0
  6
Continuous
 62
   179
370
    25
100
AcDbLine
 10
248.7384264647
 20
240.2718189095
 30
0.0
 11
249.1542731701
 21
240.0057363246
 31
0.0
  0
LINE
  5
2D8
330
1F
100
AcDbEntity
  8
SLD-0_0
  6
Continuous
 62
   179
370
    25
100
AcDbLine
 10
249.1542731701
 20
240.0057363246
 30
0.0
 11
249.4103496253
 21
239.7170114254
 31
0.0
  0
LINE
  5
2D9
330
1F
100
AcDbEntity
  8
SLD-0_0
  6
Continuous
 62
   179
370
    25
100
AcDbLine
 10
249.4103496253
 20
239.7170114254
 30
0.0
 11
249.4968136131
 21
239.4167455767
 31
0.0
  0
LINE
  5
2DA
330
1F
100
AcDbEntity
  8
SLD-0_0
  6
Continuous
 62
   179
370
    25
100
AcDbLine
 10
244.9968138068
 20
240.9558418129
 30
0.0
 11
185.9968153118
 21
240.9558418129
 31
0.0
  0
LINE
  5
2DB
330
1F
100
AcDbEntity
  8
SLD-0_0
  6
Continuous
 62
   179
370
    25
100
AcDbLine
 10
181.4968136429
 20
239.4167455767
 30
0.0
 11
181.583281356
 21
239.7170114254
 31
0.0
  0
LINE
  5
2DC
330
1F
100
AcDbEntity
  8
SLD-0_0
  6
Continuous
 62
   179
370
    25
100
AcDbLine
 10
181.583281356
 20
239.7170114254
 30
0.0
 11
181.8393578111
 21
240.0057363246
 31
0.0
  0
LINE
  5
2DD
330
1F
100
AcDbEntity
  8
SLD-0_0
  6
Continuous
 62
   179
370
    25
100
AcDbLine
 10
181.8393578111
 20
240.0057363246
 30
0.0
 11
182.2552007913
 21
240.2718189095
 31
0.0
  0
LINE
  5
2DE
330
1F
100
AcDbEntity
  8
SLD-0_0
  6
Continuous
 62
   179
370
    25
100
AcDbLine
 10
182.2552007913
 20
240.2718189095
 30
0.0
 11
182.8148325264
 21
240.5050518845
 31
0.0
  0
LINE
  5
2DF
330
1F
100
AcDbEntity
  8
SLD-0_0
  6
Continuous
 62
   179
370
    25
100
AcDbLine
 10
182.8148325264
 20
240.5050518845
 30
0.0
 11
183.4967469155
 21
240.6964573
 31
0.0
  0
LINE
  5
2E0
330
1F
100
AcDbEntity
  8
SLD-0_0
  6
Continuous
 62
   179
370
    25
100
AcDbLine
 10
183.4967469155
 20
240.6964573
 30
0.0
 11
184.2747384041
 21
240.8386814331
 31
0.0
  0
LINE
  5
2E1
330
1F
100
AcDbEntity
  8
SLD-0_0
  6
Continuous
 62
   179
370
    25
100
AcDbLine
 10
184.2747384041
 20
240.8386814331
 30
0.0
 11
185.1189078122
 21
240.926263008
 31
0.0
  0
LINE
  5
2E2
330
1F
100
AcDbEntity
  8
SLD-0_0
  6
Continuous
 62
   179
370
    25
100
AcDbLine
 10
185.1189078122
 20
240.926263008
 30
0.0
 11
185.9968153118
 21
240.9558418129
 31
0.0
  0
LINE
  5
2E3
330
1F
100
AcDbEntity
  8
SLD-0_0
  6
Continuous
 62
   179
370
    25
100
AcDbLine
 10
181.4968136429
 20
239.4167455767
 30
0.0
 11
181.4968136429
 21
213.3744406436
 31
0.0
  0
LINE
  5
2E4
330
1F
100
AcDbEntity
  8
SLD-0_0
  6
Continuous
 62
   179
370
    25
100
AcDbLine
 10
180.2968156814
 20
239.4167455767
 30
0.0
 11
180.2968156814
 21
243.4574264024
 31
0.0
  0
LINE
  5
2E5
330
1F
100
AcDbEntity
  8
SLD-0_0
  6
Continuous
 62
   179
370
    25
100
AcDbLine
 10
250.6968152999
 20
243.4574264024
 30
0.0
 11
250.6968152999
 21
239.4167455767
 31
0.0
  0
LINE
  5
2E6
330
1F
100
AcDbEntity
  8
SLD-0_0
  6
Continuous
 62
   179
370
    25
100
AcDbLine
 10
191.7968144774
 20
248.2024879383
 30
0.0
 11
194.7968152641
 21
248.2024851178
 31
0.0
  0
LINE
  5
2E7
330
1F
100
AcDbEntity
  8
SLD-0_0
  6
Continuous
 62
   179
370
    25
100
AcDbLine
 10
194.7968152641
 20
248.2024851178
 30
0.0
 11
236.1968138545
 21
248.2024851178
 31
0.0
  0
LINE
  5
2E8
330
1F
100
AcDbEntity
  8
SLD-0_0
  6
Continuous
 62
   179
370
    25
100
AcDbLine
 10
236.1968138545
 20
248.2024851178
 30
0.0
 11
239.1968143462
 21
248.2024851178
 31
0.0
  0
LINE
  5
2E9
330
1F
100
AcDbEntity
  8
SLD-0_0
  6
Continuous
 62
   179
370
    25
100
AcDbLine
 10
243.4968144923
 20
238.7544262146
 30
0.0
 11
243.4968144923
 21
213.3744406436
 31
0.0
  0
LINE
  5
2EA
330
1F
100
AcDbEntity
  8
SLD-0_0
  6
Continuous
 62
   179
370
    25
100
AcDbLine
 10
240.7056276976
 20
240.9558418129
 30
0.0
 11
240.8461270212
 21
240.8687966798
 31
0.0
  0
LINE
  5
2EB
330
1F
100
AcDbEntity
  8
SLD-0_0
  6
Continuous
 62
   179
370
    25
100
AcDbLine
 10
189.1475019335
 20
240.8687966798
 30
0.0
 11
189.2880012571
 21
240.9558418129
 31
0.0
  0
LINE
  5
2EC
330
1F
100
AcDbEntity
  8
SLD-0_0
  6
Continuous
 62
   179
370
    25
100
AcDbLine
 10
186.4968144625
 20
213.3744406436
 30
0.0
 11
186.4968144625
 21
238.7544262146
 31
0.0
  0
LINE
  5
2ED
330
1F
100
AcDbEntity
  8
SLD-0_0
  6
Continuous
 62
   179
370
    25
100
AcDbLine
 10
182.4968156695
 20
213.3744406436
 30
0.0
 11
182.4968156695
 21
240.3841289614
 31
0.0
  0
LINE
  5
2EE
330
1F
100
AcDbEntity
  8
SLD-0_0
  6
Continuous
 62
   179
370
    25
100
AcDbLine
 10
247.4968132853
 20
240.6964722012
 30
0.0
 11
247.4968132853
 21
213.3744406436
 31
0.0
  0
LINE
  5
2EF
330
1F
100
AcDbEntity
  8
SLD-0_0
  6
Continuous
 62
   179
370
    25
100
AcDbLine
 10
187.996813777
 20
239.9856942628
 30
0.0
 11
188.1399599194
 21
240.0292727087
 31
0.0
  0
LINE
  5
2F0
330
1F
100
AcDbEntity
  8
SLD-0_0
  6
Continuous
 62
   179
370
    25
100
AcDbLine
 10
188.1399599194
 20
240.0292727087
 30
0.0
 11
188.3193959772
 21
240.0718527769
 31
0.0
  0
LINE
  5
2F1
330
1F
100
AcDbEntity
  8
SLD-0_0
  6
Continuous
 62
   179
370
    25
100
AcDbLine
 10
241.6742329775
 20
240.0718527768
 30
0.0
 11
241.8536690354
 21
240.0292727087
 31
0.0
  0
LINE
  5
2F2
330
1F
100
AcDbEntity
  8
SLD-0_0
  6
Continuous
 62
   179
370
    25
100
AcDbLine
 10
241.8536690354
 20
240.0292727087
 30
0.0
 11
241.9968151777
 21
239.9856942628
 31
0.0
  0
LINE
  5
2F3
330
1F
100
AcDbEntity
  8
SLD-0_0
  6
Continuous
 62
   179
370
    25
100
AcDbLine
 10
242.4968143283
 20
238.9643016194
 30
0.0
 11
242.4968143283
 21
213.3744406436
 31
0.0
  0
LINE
  5
2F4
330
1F
100
AcDbEntity
  8
SLD-0_0
  6
Continuous
 62
   179
370
    25
100
AcDbLine
 10
187.4968146264
 20
213.3744406436
 30
0.0
 11
187.4968146264
 21
238.9643016194
 31
0.0
  0
LINE
  5
2F5
330
1F
100
AcDbEntity
  8
SLD-0_0
  6
Continuous
 62
   179
370
    25
100
AcDbLine
 10
189.2968152939
 20
213.3744406436
 30
0.0
 11
189.2968152939
 21
237.253529105
 31
0.0
  0
LINE
  5
2F6
330
1F
100
AcDbEntity
  8
SLD-0_0
  6
Continuous
 62
   179
370
    25
100
AcDbLine
 10
240.6968136608
 20
237.253529105
 30
0.0
 11
240.6968136608
 21
213.3744406436
 31
0.0
  0
ARC
  5
2F7
330
1F
100
AcDbEntity
  8
SLD-0_0
  6
Continuous
 62
   179
370
    25
100
AcDbCircle
 10
278.9968144774
 20
567.6445107239
 30
0.0
 40
3.0
100
AcDbArc
 50
180.0
 51
270.0
  0
ARC
  5
2F8
330
1F
100
AcDbEntity
  8
SLD-0_0
  6
Continuous
 62
   179
370
    25
100
AcDbCircle
 10
189.9968144774
 20
344.7445107239
 30
0.0
 40
1.0
100
AcDbArc
 50
270.0
 51
0.0
  0
ARC
  5
2F9
330
1F
100
AcDbEntity
  8
SLD-0_0
  6
Continuous
 62
   179
370
    25
100
AcDbCircle
 10
239.9968144774
 20
344.7445107239
 30
0.0
 40
1.0
100
AcDbArc
 50
180.0
 51
270.0
  0
ARC
  5
2FA
330
1F
100
AcDbEntity
  8
SLD-0_0
  6
Continuous
 62
   179
370
    25
100
AcDbCircle
 10
191.9968144774
 20
345.7445107239
 30
0.0
 40
1.0
100
AcDbArc
 50
90.0
 51
180.0
  0
ARC
  5
2FB
330
1F
100
AcDbEntity
  8
SLD-0_0
  6
Continuous
 62
   179
370
    25
100
AcDbCircle
 10
237.9968144774
 20
345.7445107239
 30
0.0
 40
1.0
100
AcDbArc
 50
0.0
 51
90.0
  0
ARC
  5
2FC
330
1F
100
AcDbEntity
  8
SLD-0_0
  6
Continuous
 62
   179
370
    25
100
AcDbCircle
 10
150.2588257913
 20
619.7445107239
 30
0.0
 40
1.199999774051662
100
AcDbArc
 50
90.0
 51
179.999870798
  0
ARC
  5
2FD
330
1F
100
AcDbEntity
  8
SLD-0_0
  6
Continuous
 62
   179
370
    25
100
AcDbCircle
 10
229.2779327956
 20
318.3445107239
 30
0.0
 40
1.999999999999976
100
AcDbArc
 50
90.0
 51
135.0
  0
ARC
  5
2FE
330
1F
100
AcDbEntity
  8
SLD-0_0
  6
Continuous
 62
   179
370
    25
100
AcDbCircle
 10
179.264621821
 20
702.6445107053
 30
0.0
 40
0.999999153114515
100
AcDbArc
 50
90.0
 51
178.7424112628
  0
ARC
  5
2FF
330
1F
100
AcDbEntity
  8
SLD-0_0
  6
Continuous
 62
   179
370
    25
100
AcDbCircle
 10
280.4968153414
 20
614.6445107631
 30
0.0
 40
1.000000327800763
100
AcDbArc
 50
270.0
 51
359.9999043734
  0
ARC
  5
300
330
1F
100
AcDbEntity
  8
SLD-0_0
  6
Continuous
 62
   179
370
    25
100
AcDbCircle
 10
262.3657777652
 20
705.1445107239
 30
0.0
 40
0.5000000000000423
100
AcDbArc
 50
1.9985287228
 51
90.0
  0
ARC
  5
301
330
1F
100
AcDbEntity
  8
SLD-0_0
  6
Continuous
 62
   179
370
    25
100
AcDbCircle
 10
167.6278511895
 20
705.1445107239
 30
0.0
 40
0.500000000000036
100
AcDbArc
 50
90.0
 51
179.287378315
  0
ARC
  5
302
330
1F
100
AcDbEntity
  8
SLD-0_0
  6
Continuous
 62
   179
370
    25
100
AcDbCircle
 10
260.5775706839
 20
724.6445107239
 30
0.0
 40
1.0
100
AcDbArc
 50
1.398147763
 51
90.0
  0
ARC
  5
303
330
1F
100
AcDbEntity
  8
SLD-0_0
  6
Continuous
 62
   179
370
    25
100
AcDbCircle
 10
169.4160582708
 20
724.6445107239
 30
0.0
 40
1.00000000000001
100
AcDbArc
 50
90.0
 51
178.601852237
  0
ARC
  5
304
330
1F
100
AcDbEntity
  8
SLD-0_0
  6
Continuous
 62
   179
370
    25
100
AcDbCircle
 10
266.1468498923
 20
718.0614007642
 30
0.0
 40
5.999997723602182
100
AcDbArc
 50
1.5622249168
 51
85.7635949779
  0
ARC
  5
305
330
1F
100
AcDbEntity
  8
SLD-0_0
  6
Continuous
 62
   179
370
    25
100
AcDbCircle
 10
163.8467766186
 20
718.0614030965
 30
0.0
 40
5.999997723602201
100
AcDbArc
 50
94.2364050221
 51
178.4377750832
  0
ARC
  5
306
330
1F
100
AcDbEntity
  8
SLD-0_0
  6
Continuous
 62
   179
370
    25
100
AcDbCircle
 10
267.3345200943
 20
702.6445101465
 30
0.0
 40
1.000000577424771
100
AcDbArc
 50
1.5214787403
 51
90.0
  0
ARC
  5
307
330
1F
100
AcDbEntity
  8
SLD-0_0
  6
Continuous
 62
   179
370
    25
100
AcDbCircle
 10
245.9968167798
 20
726.5731748655
 30
0.0
 40
1.000000000000179
100
AcDbArc
 50
180.0
 51
229.6359328214
  0
ARC
  5
308
330
1F
100
AcDbEntity
  8
SLD-0_0
  6
Continuous
 62
   179
370
    25
100
AcDbCircle
 10
183.9968145897
 20
726.5731748655
 30
0.0
 40
1.000001519596822
100
AcDbArc
 50
274.2363511681
 51
0.0
  0
ARC
  5
309
330
1F
100
AcDbEntity
  8
SLD-0_0
  6
Continuous
 62
   179
370
    25
100
AcDbCircle
 10
243.9968164445
 20
726.6445092085
 30
0.0
 40
0.9999996647008871
100
AcDbArc
 50
0.0001024507
 51
90.0
  0
ARC
  5
30A
330
1F
100
AcDbEntity
  8
SLD-0_0
  6
Continuous
 62
   179
370
    25
100
AcDbCircle
 10
185.9968164445
 20
726.6445092085
 30
0.0
 40
0.9999996647508523
100
AcDbArc
 50
90.0
 51
179.9998975493
  0
ARC
  5
30B
330
1F
100
AcDbEntity
  8
SLD-0_0
  6
Continuous
 62
   179
370
    25
100
AcDbCircle
 10
273.2295185876
 20
702.6445114253
 30
0.0
 40
0.9999992985788357
100
AcDbArc
 50
1.5761441996
 51
90.0
  0
ARC
  5
30C
330
1F
100
AcDbEntity
  8
SLD-0_0
  6
Continuous
 62
   179
370
    25
100
AcDbCircle
 10
145.7927459946
 20
606.1445085364
 30
0.0
 40
0.5000017311001557
100
AcDbArc
 50
180.0000307447
 51
270.0
  0
ARC
  5
30D
330
1F
100
AcDbEntity
  8
SLD-0_0
  6
Continuous
 62
   179
370
    25
100
AcDbCircle
 10
276.8866669193
 20
702.6445096547
 30
0.0
 40
1.000001069172534
100
AcDbArc
 50
1.5701599565
 51
90.0
  0
ARC
  5
30E
330
1F
100
AcDbEntity
  8
SLD-0_0
  6
Continuous
 62
   179
370
    25
100
AcDbCircle
 10
152.8956098868
 20
702.6445112346
 30
0.0
 40
0.9999994892822315
100
AcDbArc
 50
90.0
 51
178.4332514564
  0
ARC
  5
30F
330
1F
100
AcDbEntity
  8
SLD-0_0
  6
Continuous
 62
   179
370
    25
100
AcDbCircle
 10
273.028816866
 20
704.1445084117
 30
0.0
 40
0.4999992649739802
100
AcDbArc
 50
181.5616474902
 51
235.4544397604
  0
ARC
  5
310
330
1F
100
AcDbEntity
  8
SLD-0_0
  6
Continuous
 62
   179
370
    25
100
AcDbCircle
 10
156.9648096449
 20
704.1445107439
 30
0.0
 40
0.4999992649740086
100
AcDbArc
 50
337.2820162845
 51
358.4383525098
  0
ARC
  5
311
330
1F
100
AcDbEntity
  8
SLD-0_0
  6
Continuous
 62
   179
370
    25
100
AcDbCircle
 10
284.2008822387
 20
606.1445107631
 30
0.0
 40
0.5
100
AcDbArc
 50
270.0
 51
0.0
  0
ARC
  5
312
330
1F
100
AcDbEntity
  8
SLD-0_0
  6
Continuous
 62
   179
370
    25
100
AcDbCircle
 10
204.1872571972
 20
548.3596533576
 30
0.0
 40
1.499999959888141
100
AcDbArc
 50
18.0
 51
85.0000141037
  0
ARC
  5
313
330
1F
100
AcDbEntity
  8
SLD-0_0
  6
Continuous
 62
   179
370
    25
100
AcDbCircle
 10
225.8063716718
 20
548.3596533501
 30
0.0
 40
1.499999959888223
100
AcDbArc
 50
94.9999826093
 51
161.9999996988
  0
ARC
  5
314
330
1F
100
AcDbEntity
  8
SLD-0_0
  6
Continuous
 62
   179
370
    25
100
AcDbCircle
 10
247.6776515532
 20
346.7436792806
 30
0.0
 40
2.999166501784785
100
AcDbArc
 50
270.0158416951
 51
0.0157567327
  0
ARC
  5
315
330
1F
100
AcDbEntity
  8
SLD-0_0
  6
Continuous
 62
   179
370
    25
100
AcDbCircle
 10
146.9968153416
 20
602.6445107239
 30
0.0
 40
0.9999991357500448
100
AcDbArc
 50
90.0
 51
179.9999948777
  0
ARC
  5
316
330
1F
100
AcDbEntity
  8
SLD-0_0
  6
Continuous
 62
   179
370
    25
100
AcDbCircle
 10
136.9968153715
 20
563.6445107239
 30
0.0
 40
1.999999105962729
100
AcDbArc
 50
179.9999938121
 51
270.0
  0
ARC
  5
317
330
1F
100
AcDbEntity
  8
SLD-0_0
  6
Continuous
 62
   179
370
    25
100
AcDbCircle
 10
136.9968153714
 20
599.6445107239
 30
0.0
 40
1.999999105950337
100
AcDbArc
 50
89.9999999993
 51
179.9999581654
  0
ARC
  5
318
330
1F
100
AcDbEntity
  8
SLD-0_0
  6
Continuous
 62
   179
370
    25
100
AcDbCircle
 10
143.1683882466
 20
604.6445107239
 30
0.0
 40
2.999999105950417
100
AcDbArc
 50
270.0000419062
 51
330.0
  0
ARC
  5
319
330
1F
100
AcDbEntity
  8
SLD-0_0
  6
Continuous
 62
   179
370
    25
100
AcDbCircle
 10
146.6324890876
 20
602.6445111709
 30
0.0
 40
1.000000000026883
100
AcDbArc
 50
90.0
 51
150.0000000018
  0
ARC
  5
31A
330
1F
100
AcDbEntity
  8
SLD-0_0
  6
Continuous
 62
   179
370
    25
100
AcDbCircle
 10
182.4968138962
 20
346.7445107239
 30
0.0
 40
3.000000581153699
100
AcDbArc
 50
180.0001270419
 51
270.0
  0
ARC
  5
31B
330
1F
100
AcDbEntity
  8
SLD-0_0
  6
Continuous
 62
   179
370
    25
100
AcDbCircle
 10
196.9968111514
 20
344.744507398
 30
0.0
 40
1.0
100
AcDbArc
 50
180.0
 51
270.0
  0
ARC
  5
31C
330
1F
100
AcDbEntity
  8
SLD-0_0
  6
Continuous
 62
   179
370
    25
100
AcDbCircle
 10
232.9968144774
 20
344.7445107239
 30
0.0
 40
1.0
100
AcDbArc
 50
270.0
 51
0.0
  0
ARC
  5
31D
330
1F
100
AcDbEntity
  8
SLD-0_0
  6
Continuous
 62
   179
370
    25
100
AcDbCircle
 10
194.9968144774
 20
345.744507398
 30
0.0
 40
0.9999966740500668
100
AcDbArc
 50
0.0
 51
89.9999743886
  0
ARC
  5
31E
330
1F
100
AcDbEntity
  8
SLD-0_0
  6
Continuous
 62
   179
370
    25
100
AcDbCircle
 10
234.9968144774
 20
345.7445107239
 30
0.0
 40
1.0
100
AcDbArc
 50
90.0
 51
180.0
  0
ARC
  5
31F
330
1F
100
AcDbEntity
  8
SLD-0_0
  6
Continuous
 62
   179
370
    25
100
AcDbCircle
 10
277.4968144774
 20
548.6445107239
 30
0.0
 40
5.000000000000114
100
AcDbArc
 50
90.0
 51
179.9999999998
  0
ARC
  5
320
330
1F
100
AcDbEntity
  8
SLD-0_0
  6
Continuous
 62
   179
370
    25
100
AcDbCircle
 10
184.4968144774
 20
548.6445107239
 30
0.0
 40
5.0
100
AcDbArc
 50
90.0
 51
180.0
  0
ARC
  5
321
330
1F
100
AcDbEntity
  8
SLD-0_0
  6
Continuous
 62
   179
370
    25
100
AcDbCircle
 10
187.9968195145
 20
346.7445104781
 30
0.0
 40
3.0
100
AcDbArc
 50
180.0
 51
270.0
  0
ARC
  5
322
330
1F
100
AcDbEntity
  8
SLD-0_0
  6
Continuous
 62
   179
370
    25
100
AcDbCircle
 10
241.9968178868
 20
346.7445141333
 30
0.0
 40
3.0
100
AcDbArc
 50
270.0
 51
0.0
  0
ARC
  5
323
330
1F
100
AcDbEntity
  8
SLD-0_0
  6
Continuous
 62
   179
370
    25
100
AcDbCircle
 10
275.4968144774
 20
334.7445107239
 30
0.0
 40
3.000000000000106
100
AcDbArc
 50
180.0000000001
 51
269.9052897198
  0
ARC
  5
324
330
1F
100
AcDbEntity
  8
SLD-0_0
  6
Continuous
 62
   179
370
    25
100
AcDbCircle
 10
182.4968144774
 20
375.7445107239
 30
0.0
 40
3.0
100
AcDbArc
 50
180.0
 51
270.0
  0
ARC
  5
325
330
1F
100
AcDbEntity
  8
SLD-0_0
  6
Continuous
 62
   179
370
    25
100
AcDbCircle
 10
278.9656724968
 20
588.6467825568
 30
0.0
 40
2.997728303523012
100
AcDbArc
 50
90.0022454347
 51
129.11008222
  0
ARC
  5
326
330
1F
100
AcDbEntity
  8
SLD-0_0
  6
Continuous
 62
   179
370
    25
100
AcDbCircle
 10
276.9947889011
 20
604.6444828936
 30
0.0
 40
0.9999737791539398
100
AcDbArc
 50
222.6503807529
 51
269.999245349
  0
ARC
  5
327
330
1F
100
AcDbEntity
  8
SLD-0_0
  6
Continuous
 62
   179
370
    25
100
AcDbCircle
 10
189.9968195145
 20
355.7445104781
 30
0.0
 40
5.0
100
AcDbArc
 50
90.0
 51
180.0
  0
ARC
  5
328
330
1F
100
AcDbEntity
  8
SLD-0_0
  6
Continuous
 62
   179
370
    25
100
AcDbCircle
 10
187.582600915
 20
371.7445124841
 30
0.0
 40
0.9999995748680074
100
AcDbArc
 50
44.9999088266
 51
90.000017395
  0
ARC
  5
329
330
1F
100
AcDbEntity
  8
SLD-0_0
  6
Continuous
 62
   179
370
    25
100
AcDbCircle
 10
196.9968158808
 20
362.3303003251
 30
0.0
 40
1.000000224409897
100
AcDbArc
 50
0.0
 51
44.9999723652
  0
ARC
  5
32A
330
1F
100
AcDbEntity
  8
SLD-0_0
  6
Continuous
 62
   179
370
    25
100
AcDbCircle
 10
196.9968195145
 20
361.7445138875
 30
0.0
 40
0.9999965906501576
100
AcDbArc
 50
270.0000443931
 51
0.0
  0
ARC
  5
32B
330
1F
100
AcDbEntity
  8
SLD-0_0
  6
Continuous
 62
   179
370
    25
100
AcDbCircle
 10
232.9968144774
 20
362.3302971615
 30
0.0
 40
1.0
100
AcDbArc
 50
135.0
 51
180.0
  0
ARC
  5
32C
330
1F
100
AcDbEntity
  8
SLD-0_0
  6
Continuous
 62
   179
370
    25
100
AcDbCircle
 10
239.9968144774
 20
355.7445141333
 30
0.0
 40
5.000003409350001
100
AcDbArc
 50
0.0
 51
89.9999957315
  0
ARC
  5
32D
330
1F
100
AcDbEntity
  8
SLD-0_0
  6
Continuous
 62
   179
370
    25
100
AcDbCircle
 10
242.4110288123
 20
371.7445099513
 30
0.0
 40
0.9999989073180018
100
AcDbArc
 50
90.0
 51
135.0000911734
  0
ARC
  5
32E
330
1F
100
AcDbEntity
  8
SLD-0_0
  6
Continuous
 62
   179
370
    25
100
AcDbCircle
 10
275.4968144774
 20
329.7445107239
 30
0.0
 40
1.999999999977831
100
AcDbArc
 50
0.0001031353
 51
90.0000000011
  0
ARC
  5
32F
330
1F
100
AcDbEntity
  8
SLD-0_0
  6
Continuous
 62
   179
370
    25
100
AcDbCircle
 10
281.9968146115
 20
593.6445107835
 30
0.0
 40
1.999999925500333
100
AcDbArc
 50
270.0000478105
 51
0.0
  0
ARC
  5
330
330
1F
100
AcDbEntity
  8
SLD-0_0
  6
Continuous
 62
   179
370
    25
100
AcDbCircle
 10
282.9968144774
 20
602.6445107835
 30
0.0
 40
0.9999983310034463
100
AcDbArc
 50
0.0000051223
 51
89.9997882688
  0
ARC
  5
331
330
1F
100
AcDbEntity
  8
SLD-0_0
  6
Continuous
 62
   179
370
    25
100
AcDbCircle
 10
232.8520103065
 20
614.6445104056
 30
0.0
 40
1.000000000000005
100
AcDbArc
 50
270.0
 51
0.5
  0
ARC
  5
332
330
1F
100
AcDbEntity
  8
SLD-0_0
  6
Continuous
 62
   179
370
    25
100
AcDbCircle
 10
197.1416203763
 20
614.6445103907
 30
0.0
 40
0.9999999851000417
100
AcDbArc
 50
179.5
 51
269.999979173
  0
ARC
  5
333
330
1F
100
AcDbEntity
  8
SLD-0_0
  6
Continuous
 62
   179
370
    25
100
AcDbCircle
 10
278.1653902194
 20
702.6445139988
 30
0.0
 40
0.9999966063285621
100
AcDbArc
 50
1.4999461249
 51
89.9981716797
  0
ARC
  5
334
330
1F
100
AcDbEntity
  8
SLD-0_0
  6
Continuous
 62
   179
370
    25
100
AcDbCircle
 10
151.8282387353
 20
702.6445139988
 30
0.0
 40
0.9999966063285621
100
AcDbArc
 50
90.0018283203
 51
178.5000538751
  0
ARC
  5
335
330
1F
100
AcDbEntity
  8
SLD-0_0
  6
Continuous
 62
   179
370
    25
100
AcDbCircle
 10
244.056253651
 20
702.9193837875
 30
0.0
 40
17.6975435632951
100
AcDbArc
 50
83.755077843
 51
87.3819917371
  0
ARC
  5
336
330
1F
100
AcDbEntity
  8
SLD-0_0
  6
Continuous
 62
   179
370
    25
100
AcDbCircle
 10
233.2928666135
 20
720.9958548324
 30
0.0
 40
12.69772974796727
100
AcDbArc
 50
357.8157730156
 51
2.1842269844
  0
ARC
  5
337
330
1F
100
AcDbEntity
  8
SLD-0_0
  6
Continuous
 62
   179
370
    25
100
AcDbCircle
 10
244.0568572859
 20
703.8920197288
 30
0.0
 40
17.69276014604468
100
AcDbArc
 50
83.755349212
 51
87.3832402768
  0
ARC
  5
338
330
1F
100
AcDbEntity
  8
SLD-0_0
  6
Continuous
 62
   179
370
    25
100
AcDbCircle
 10
244.0373764967
 20
721.0394943694
 30
0.0
 40
0.9807623175869602
100
AcDbArc
 50
32.4912248575
 51
61.0697742628
  0
ARC
  5
339
330
1F
100
AcDbEntity
  8
SLD-0_0
  6
Continuous
 62
   179
370
    25
100
AcDbCircle
 10
243.9968145742
 20
714.0198406507
 30
0.0
 40
8.855881695985863
100
AcDbArc
 50
86.6661725903
 51
93.3338274093
  0
ARC
  5
33A
330
1F
100
AcDbEntity
  8
SLD-0_0
  6
Continuous
 62
   179
370
    25
100
AcDbCircle
 10
243.9562526517
 20
721.0394943694
 30
0.0
 40
0.9807623176077219
100
AcDbArc
 50
118.9302257311
 51
147.5087751396
  0
ARC
  5
33B
330
1F
100
AcDbEntity
  8
SLD-0_0
  6
Continuous
 62
   179
370
    25
100
AcDbCircle
 10
243.9367718626
 20
703.8920197288
 30
0.0
 40
17.69276014606611
100
AcDbArc
 50
92.6167597236
 51
96.2446507882
  0
ARC
  5
33C
330
1F
100
AcDbEntity
  8
SLD-0_0
  6
Continuous
 62
   179
370
    25
100
AcDbCircle
 10
254.7007625351
 20
720.9958548349
 30
0.0
 40
12.69772974800107
100
AcDbArc
 50
177.8157730268
 51
182.1842269959
  0
ARC
  5
33D
330
1F
100
AcDbEntity
  8
SLD-0_0
  6
Continuous
 62
   179
370
    25
100
AcDbCircle
 10
243.9373754977
 20
702.9193837874
 30
0.0
 40
17.69754356329425
100
AcDbArc
 50
92.6180082629
 51
96.2449221569
  0
ARC
  5
33E
330
1F
100
AcDbEntity
  8
SLD-0_0
  6
Continuous
 62
   179
370
    25
100
AcDbCircle
 10
243.9563326468
 20
721.1253774105
 30
0.0
 40
0.980875519840247
100
AcDbArc
 50
212.4929090341
 51
241.0680900966
  0
ARC
  5
33F
330
1F
100
AcDbEntity
  8
SLD-0_0
  6
Continuous
 62
   179
370
    25
100
AcDbCircle
 10
243.9968145744
 20
775.7142526385
 30
0.0
 40
56.5856068495126
100
AcDbArc
 50
269.4785293758
 51
270.5214706242
  0
ARC
  5
340
330
1F
100
AcDbEntity
  8
SLD-0_0
  6
Continuous
 62
   179
370
    25
100
AcDbCircle
 10
244.0372965019
 20
721.1253774106
 30
0.0
 40
0.9808755198222366
100
AcDbArc
 50
298.9319099095
 51
327.5070909659
  0
ARC
  5
341
330
1F
100
AcDbEntity
  8
SLD-0_0
  6
Continuous
 62
   179
370
    25
100
AcDbCircle
 10
243.9968145742
 20
720.2334824608
 30
0.0
 40
4.004247327201663
100
AcDbArc
 50
182.6392925729
 51
357.3607074271
  0
ARC
  5
342
330
1F
100
AcDbEntity
  8
SLD-0_0
  6
Continuous
 62
   179
370
    25
100
AcDbCircle
 10
244.0318823011
 20
720.2721029212
 30
0.0
 40
0.8270334606808778
100
AcDbArc
 50
39.0346573231
 51
54.5279527425
  0
ARC
  5
343
330
1F
100
AcDbEntity
  8
SLD-0_0
  6
Continuous
 62
   179
370
    25
100
AcDbCircle
 10
243.9617468473
 20
720.2721029212
 30
0.0
 40
0.8270334606904121
100
AcDbArc
 50
125.472047259
 51
140.9653426793
  0
ARC
  5
344
330
1F
100
AcDbEntity
  8
SLD-0_0
  6
Continuous
 62
   179
370
    25
100
AcDbCircle
 10
243.9968145742
 20
720.4022669739
 30
0.0
 40
0.8932630018879294
100
AcDbArc
 50
234.7925973724
 51
305.2074026276
  0
ARC
  5
345
330
1F
100
AcDbEntity
  8
SLD-0_0
  6
Continuous
 62
   179
370
    25
100
AcDbCircle
 10
243.9968145742
 20
720.2157791464
 30
0.0
 40
0.8932630018490074
100
AcDbArc
 50
54.7925973692
 51
125.2074026278
  0
ARC
  5
346
330
1F
100
AcDbEntity
  8
SLD-0_0
  6
Continuous
 62
   179
370
    25
100
AcDbCircle
 10
244.0694526662
 20
720.3011176502
 30
0.0
 40
0.7795777237157178
100
AcDbArc
 50
16.9039830803
 51
39.1172537769
  0
ARC
  5
347
330
1F
100
AcDbEntity
  8
SLD-0_0
  6
Continuous
 62
   179
370
    25
100
AcDbCircle
 10
243.9241764822
 20
720.3011176502
 30
0.0
 40
0.7795777237204127
100
AcDbArc
 50
140.8827462214
 51
163.0960169197
  0
ARC
  5
348
330
1F
100
AcDbEntity
  8
SLD-0_0
  6
Continuous
 62
   179
370
    25
100
AcDbCircle
 10
185.9968143805
 20
690.3626009194
 30
0.0
 40
56.74598310156015
100
AcDbArc
 50
269.4800032035
 51
270.5199967965
  0
ARC
  5
349
330
1F
100
AcDbEntity
  8
SLD-0_0
  6
Continuous
 62
   179
370
    25
100
AcDbCircle
 10
186.0372766326
 20
635.6133712043
 30
0.0
 40
0.9809033632031394
100
AcDbArc
 50
298.932324077
 51
327.5066767867
  0
ARC
  5
34A
330
1F
100
AcDbEntity
  8
SLD-0_0
  6
Continuous
 62
   179
370
    25
100
AcDbCircle
 10
186.0560509305
 20
617.4032284718
 30
0.0
 40
17.70167667672902
100
AcDbArc
 50
83.7558823126
 51
87.381947222
  0
ARC
  5
34B
330
1F
100
AcDbEntity
  8
SLD-0_0
  6
Continuous
 62
   179
370
    25
100
AcDbCircle
 10
175.2931011079
 20
635.4838314133
 30
0.0
 40
12.69749508849595
100
AcDbArc
 50
357.8157494521
 51
2.1842505481
  0
ARC
  5
34C
330
1F
100
AcDbEntity
  8
SLD-0_0
  6
Continuous
 62
   179
370
    25
100
AcDbCircle
 10
186.0560509305
 20
618.3711110454
 30
0.0
 40
17.70167667671222
100
AcDbArc
 50
83.7558823126
 51
87.381947222
  0
ARC
  5
34D
330
1F
100
AcDbEntity
  8
SLD-0_0
  6
Continuous
 62
   179
370
    25
100
AcDbCircle
 10
186.0372878782
 20
635.5273612841
 30
0.0
 40
0.9808978134549795
100
AcDbArc
 50
32.494036994
 51
61.0682472717
  0
ARC
  5
34E
330
1F
100
AcDbEntity
  8
SLD-0_0
  6
Continuous
 62
   179
370
    25
100
AcDbCircle
 10
185.9968143806
 20
628.5117173131
 30
0.0
 40
8.851977060655196
100
AcDbArc
 50
86.6647003662
 51
93.3352996341
  0
ARC
  5
34F
330
1F
100
AcDbEntity
  8
SLD-0_0
  6
Continuous
 62
   179
370
    25
100
AcDbCircle
 10
185.9563408829
 20
635.5273612841
 30
0.0
 40
0.980897813438971
100
AcDbArc
 50
118.9317527273
 51
147.5059630079
  0
ARC
  5
350
330
1F
100
AcDbEntity
  8
SLD-0_0
  6
Continuous
 62
   179
370
    25
100
AcDbCircle
 10
185.9375778301
 20
618.3711110454
 30
0.0
 40
17.70167667668876
100
AcDbArc
 50
92.6180527764
 51
96.2441176861
  0
ARC
  5
351
330
1F
100
AcDbEntity
  8
SLD-0_0
  6
Continuous
 62
   179
370
    25
100
AcDbCircle
 10
196.7005276532
 20
635.4838314137
 30
0.0
 40
12.69749508849714
100
AcDbArc
 50
177.8157494538
 51
182.1842505498
  0
ARC
  5
352
330
1F
100
AcDbEntity
  8
SLD-0_0
  6
Continuous
 62
   179
370
    25
100
AcDbCircle
 10
185.9375778305
 20
617.4032284718
 30
0.0
 40
17.70167667670214
100
AcDbArc
 50
92.618052778
 51
96.2441176872
  0
ARC
  5
353
330
1F
100
AcDbEntity
  8
SLD-0_0
  6
Continuous
 62
   179
370
    25
100
AcDbCircle
 10
185.9563521284
 20
635.6133712043
 30
0.0
 40
0.9809033632111338
100
AcDbArc
 50
212.4933232132
 51
241.067675923
  0
ARC
  5
354
330
1F
100
AcDbEntity
  8
SLD-0_0
  6
Continuous
 62
   179
370
    25
100
AcDbCircle
 10
185.9968143805
 20
634.7230150758
 30
0.0
 40
4.004319800212707
100
AcDbArc
 50
182.6616931986
 51
357.3383068014
  0
ARC
  5
355
330
1F
100
AcDbEntity
  8
SLD-0_0
  6
Continuous
 62
   179
370
    25
100
AcDbCircle
 10
186.0316204961
 20
634.7598302515
 30
0.0
 40
0.8273913011658787
100
AcDbArc
 50
39.0364546834
 51
54.5233648333
  0
ARC
  5
356
330
1F
100
AcDbEntity
  8
SLD-0_0
  6
Continuous
 62
   179
370
    25
100
AcDbCircle
 10
185.962008265
 20
634.7598302515
 30
0.0
 40
0.8273913011552506
100
AcDbArc
 50
125.4766351566
 51
140.9635453119
  0
ARC
  5
357
330
1F
100
AcDbEntity
  8
SLD-0_0
  6
Continuous
 62
   179
370
    25
100
AcDbCircle
 10
185.9968143805
 20
634.890280848
 30
0.0
 40
0.8933026050567016
100
AcDbArc
 50
234.7943897006
 51
305.2056102994
  0
ARC
  5
358
330
1F
100
AcDbEntity
  8
SLD-0_0
  6
Continuous
 62
   179
370
    25
100
AcDbCircle
 10
186.0692444821
 20
634.7889734934
 30
0.0
 40
0.7798129197657936
100
AcDbArc
 50
16.9082892504
 51
39.1142826185
  0
ARC
  5
359
330
1F
100
AcDbEntity
  8
SLD-0_0
  6
Continuous
 62
   179
370
    25
100
AcDbCircle
 10
185.924384279
 20
634.7889734934
 30
0.0
 40
0.7798129197568244
100
AcDbArc
 50
140.8857173778
 51
163.0917107496
  0
ARC
  5
35A
330
1F
100
AcDbEntity
  8
SLD-0_0
  6
Continuous
 62
   179
370
    25
100
AcDbCircle
 10
185.9968143806
 20
634.7037109833
 30
0.0
 40
0.8933026050904602
100
AcDbArc
 50
54.794389702
 51
125.2056102977
  0
ARC
  5
35B
330
1F
100
AcDbEntity
  8
SLD-0_0
  6
Continuous
 62
   179
370
    25
100
AcDbCircle
 10
185.9968143807
 20
775.7142526384
 30
0.0
 40
56.5856068495126
100
AcDbArc
 50
269.4785293758
 51
270.5214706242
  0
ARC
  5
35C
330
1F
100
AcDbEntity
  8
SLD-0_0
  6
Continuous
 62
   179
370
    25
100
AcDbCircle
 10
186.0372963083
 20
721.1253774106
 30
0.0
 40
0.9808755198039214
100
AcDbArc
 50
298.9319099044
 51
327.5070909663
  0
ARC
  5
35D
330
1F
100
AcDbEntity
  8
SLD-0_0
  6
Continuous
 62
   179
370
    25
100
AcDbCircle
 10
186.0562534573
 20
702.9193837875
 30
0.0
 40
17.69754356329524
100
AcDbArc
 50
83.755077843
 51
87.3819917371
  0
ARC
  5
35E
330
1F
100
AcDbEntity
  8
SLD-0_0
  6
Continuous
 62
   179
370
    25
100
AcDbCircle
 10
175.2928664199
 20
720.9958548324
 30
0.0
 40
12.69772974796728
100
AcDbArc
 50
357.8157730156
 51
2.1842269844
  0
ARC
  5
35F
330
1F
100
AcDbEntity
  8
SLD-0_0
  6
Continuous
 62
   179
370
    25
100
AcDbCircle
 10
186.0568570923
 20
703.8920197288
 30
0.0
 40
17.6927601460448
100
AcDbArc
 50
83.755349212
 51
87.3832402768
  0
ARC
  5
360
330
1F
100
AcDbEntity
  8
SLD-0_0
  6
Continuous
 62
   179
370
    25
100
AcDbCircle
 10
186.0373763032
 20
721.0394943694
 30
0.0
 40
0.9807623175871462
100
AcDbArc
 50
32.4912248631
 51
61.0697742748
  0
ARC
  5
361
330
1F
100
AcDbEntity
  8
SLD-0_0
  6
Continuous
 62
   179
370
    25
100
AcDbCircle
 10
185.9968143805
 20
714.0198406507
 30
0.0
 40
8.855881695982976
100
AcDbArc
 50
86.666172591
 51
93.3338274093
  0
ARC
  5
362
330
1F
100
AcDbEntity
  8
SLD-0_0
  6
Continuous
 62
   179
370
    25
100
AcDbCircle
 10
185.9562524579
 20
721.0394943694
 30
0.0
 40
0.9807623175895073
100
AcDbArc
 50
118.9302257257
 51
147.5087751396
  0
ARC
  5
363
330
1F
100
AcDbEntity
  8
SLD-0_0
  6
Continuous
 62
   179
370
    25
100
AcDbCircle
 10
185.9367716688
 20
703.8920197288
 30
0.0
 40
17.69276014606611
100
AcDbArc
 50
92.6167597233
 51
96.244650788
  0
ARC
  5
364
330
1F
100
AcDbEntity
  8
SLD-0_0
  6
Continuous
 62
   179
370
    25
100
AcDbCircle
 10
196.7007623413
 20
720.9958548354
 30
0.0
 40
12.69772974800106
100
AcDbArc
 50
177.815773029
 51
182.1842269979
  0
ARC
  5
365
330
1F
100
AcDbEntity
  8
SLD-0_0
  6
Continuous
 62
   179
370
    25
100
AcDbCircle
 10
185.937375304
 20
702.9193837875
 30
0.0
 40
17.69754356329972
100
AcDbArc
 50
92.6180082629
 51
96.2449221572
  0
ARC
  5
366
330
1F
100
AcDbEntity
  8
SLD-0_0
  6
Continuous
 62
   179
370
    25
100
AcDbCircle
 10
185.9563324531
 20
721.1253774106
 30
0.0
 40
0.9808755197980096
100
AcDbArc
 50
212.4929090341
 51
241.0680900956
  0
ARC
  5
367
330
1F
100
AcDbEntity
  8
SLD-0_0
  6
Continuous
 62
   179
370
    25
100
AcDbCircle
 10
185.9968143805
 20
720.2350417267
 30
0.0
 40
4.004319431307665
100
AcDbArc
 50
182.6615796532
 51
357.3384203468
  0
ARC
  5
368
330
1F
100
AcDbEntity
  8
SLD-0_0
  6
Continuous
 62
   179
370
    25
100
AcDbCircle
 10
185.9617466536
 20
720.2721029212
 30
0.0
 40
0.827033460696429
100
AcDbArc
 50
125.4720472509
 51
140.9653426763
  0
ARC
  5
369
330
1F
100
AcDbEntity
  8
SLD-0_0
  6
Continuous
 62
   179
370
    25
100
AcDbCircle
 10
186.0318821074
 20
720.2721029212
 30
0.0
 40
0.8270334606918032
100
AcDbArc
 50
39.0346573231
 51
54.5279527447
  0
ARC
  5
36A
330
1F
100
AcDbEntity
  8
SLD-0_0
  6
Continuous
 62
   179
370
    25
100
AcDbCircle
 10
185.9968143805
 20
720.4022669739
 30
0.0
 40
0.8932630018879294
100
AcDbArc
 50
234.7925973724
 51
305.2074026276
  0
ARC
  5
36B
330
1F
100
AcDbEntity
  8
SLD-0_0
  6
Continuous
 62
   179
370
    25
100
AcDbCircle
 10
186.0694524726
 20
720.3011176502
 30
0.0
 40
0.779577723715778
100
AcDbArc
 50
16.9039830803
 51
39.1172537769
  0
ARC
  5
36C
330
1F
100
AcDbEntity
  8
SLD-0_0
  6
Continuous
 62
   179
370
    25
100
AcDbCircle
 10
185.9241762885
 20
720.3011176502
 30
0.0
 40
0.7795777237220416
100
AcDbArc
 50
140.882746225
 51
163.0960169197
  0
ARC
  5
36D
330
1F
100
AcDbEntity
  8
SLD-0_0
  6
Continuous
 62
   179
370
    25
100
AcDbCircle
 10
185.9968143805
 20
720.2157791464
 30
0.0
 40
0.8932630018643621
100
AcDbArc
 50
54.7925973712
 51
125.2074026285
  0
ARC
  5
36E
330
1F
100
AcDbEntity
  8
SLD-0_0
  6
Continuous
 62
   179
370
    25
100
AcDbCircle
 10
243.9968145743
 20
690.3626009195
 30
0.0
 40
56.74598310156015
100
AcDbArc
 50
269.4800032035
 51
270.5199967965
  0
ARC
  5
36F
330
1F
100
AcDbEntity
  8
SLD-0_0
  6
Continuous
 62
   179
370
    25
100
AcDbCircle
 10
244.0372768263
 20
635.6133712044
 30
0.0
 40
0.9809033632273378
100
AcDbArc
 50
298.9323240821
 51
327.5066767867
  0
ARC
  5
370
330
1F
100
AcDbEntity
  8
SLD-0_0
  6
Continuous
 62
   179
370
    25
100
AcDbCircle
 10
244.0560511242
 20
617.4032284718
 30
0.0
 40
17.70167667672905
100
AcDbArc
 50
83.7558823126
 51
87.381947222
  0
ARC
  5
371
330
1F
100
AcDbEntity
  8
SLD-0_0
  6
Continuous
 62
   179
370
    25
100
AcDbCircle
 10
233.2931013016
 20
635.4838314133
 30
0.0
 40
12.69749508849598
100
AcDbArc
 50
357.8157494521
 51
2.1842505481
  0
ARC
  5
372
330
1F
100
AcDbEntity
  8
SLD-0_0
  6
Continuous
 62
   179
370
    25
100
AcDbCircle
 10
244.0560511243
 20
618.3711110454
 30
0.0
 40
17.70167667671219
100
AcDbArc
 50
83.7558823126
 51
87.3819472221
  0
ARC
  5
373
330
1F
100
AcDbEntity
  8
SLD-0_0
  6
Continuous
 62
   179
370
    25
100
AcDbCircle
 10
244.0372880719
 20
635.5273612842
 30
0.0
 40
0.9808978134549736
100
AcDbArc
 50
32.4940369912
 51
61.0682472629
  0
ARC
  5
374
330
1F
100
AcDbEntity
  8
SLD-0_0
  6
Continuous
 62
   179
370
    25
100
AcDbCircle
 10
243.9968145743
 20
628.5117173131
 30
0.0
 40
8.851977060658168
100
AcDbArc
 50
86.6647003655
 51
93.3352996341
  0
ARC
  5
375
330
1F
100
AcDbEntity
  8
SLD-0_0
  6
Continuous
 62
   179
370
    25
100
AcDbCircle
 10
243.9563410766
 20
635.5273612841
 30
0.0
 40
0.9808978134389985
100
AcDbArc
 50
118.9317527273
 51
147.5059630079
  0
ARC
  5
376
330
1F
100
AcDbEntity
  8
SLD-0_0
  6
Continuous
 62
   179
370
    25
100
AcDbCircle
 10
243.937578024
 20
618.3711110454
 30
0.0
 40
17.70167667669105
100
AcDbArc
 50
92.6180527769
 51
96.2441176863
  0
ARC
  5
377
330
1F
100
AcDbEntity
  8
SLD-0_0
  6
Continuous
 62
   179
370
    25
100
AcDbCircle
 10
254.7005278469
 20
635.483831413
 30
0.0
 40
12.6974950884472
100
AcDbArc
 50
177.8157494505
 51
182.1842505465
  0
ARC
  5
378
330
1F
100
AcDbEntity
  8
SLD-0_0
  6
Continuous
 62
   179
370
    25
100
AcDbCircle
 10
243.9375780243
 20
617.4032284718
 30
0.0
 40
17.70167667670752
100
AcDbArc
 50
92.618052778
 51
96.2441176876
  0
ARC
  5
379
330
1F
100
AcDbEntity
  8
SLD-0_0
  6
Continuous
 62
   179
370
    25
100
AcDbCircle
 10
243.9563523222
 20
635.6133712043
 30
0.0
 40
0.9809033632354028
100
AcDbArc
 50
212.4933232132
 51
241.0676759179
  0
ARC
  5
37A
330
1F
100
AcDbEntity
  8
SLD-0_0
  6
Continuous
 62
   179
370
    25
100
AcDbCircle
 10
243.9968145742
 20
634.723016757
 30
0.0
 40
4.004319878285668
100
AcDbArc
 50
182.6617172281
 51
357.3382827719
  0
ARC
  5
37B
330
1F
100
AcDbEntity
  8
SLD-0_0
  6
Continuous
 62
   179
370
    25
100
AcDbCircle
 10
244.0316206899
 20
634.7598302515
 30
0.0
 40
0.8273913010998566
100
AcDbArc
 50
39.0364546888
 51
54.5233648381
  0
ARC
  5
37C
330
1F
100
AcDbEntity
  8
SLD-0_0
  6
Continuous
 62
   179
370
    25
100
AcDbCircle
 10
243.9620084587
 20
634.7598302515
 30
0.0
 40
0.8273913011507577
100
AcDbArc
 50
125.4766351565
 51
140.963545312
  0
ARC
  5
37D
330
1F
100
AcDbEntity
  8
SLD-0_0
  6
Continuous
 62
   179
370
    25
100
AcDbCircle
 10
243.9968145742
 20
634.890280848
 30
0.0
 40
0.893302605056718
100
AcDbArc
 50
234.7943897006
 51
305.2056102994
  0
ARC
  5
37E
330
1F
100
AcDbEntity
  8
SLD-0_0
  6
Continuous
 62
   179
370
    25
100
AcDbCircle
 10
244.0692446758
 20
634.7889734934
 30
0.0
 40
0.779812919763344
100
AcDbArc
 50
16.9082892504
 51
39.1142826196
  0
ARC
  5
37F
330
1F
100
AcDbEntity
  8
SLD-0_0
  6
Continuous
 62
   179
370
    25
100
AcDbCircle
 10
243.9243844727
 20
634.7889734934
 30
0.0
 40
0.7798129197568244
100
AcDbArc
 50
140.8857173778
 51
163.0917107496
  0
ARC
  5
380
330
1F
100
AcDbEntity
  8
SLD-0_0
  6
Continuous
 62
   179
370
    25
100
AcDbCircle
 10
243.9968145743
 20
634.7037109833
 30
0.0
 40
0.8933026050904956
100
AcDbArc
 50
54.7943897012
 51
125.2056102969
  0
ARC
  5
381
330
1F
100
AcDbEntity
  8
SLD-0_0
  6
Continuous
 62
   179
370
    25
100
AcDbCircle
 10
236.1968169349
 20
712.0776018939
 30
0.0
 40
5.000000098351296
100
AcDbArc
 50
359.9999405854
 51
90.0
  0
ARC
  5
382
330
1F
100
AcDbEntity
  8
SLD-0_0
  6
Continuous
 62
   179
370
    25
100
AcDbCircle
 10
194.7968169349
 20
712.0776044498
 30
0.0
 40
5.000002490351352
100
AcDbArc
 50
89.9999909851
 51
180.0000594146
  0
ARC
  5
383
330
1F
100
AcDbEntity
  8
SLD-0_0
  6
Continuous
 62
   179
370
    25
100
AcDbCircle
 10
245.1635007606
 20
632.6623344732
 30
0.0
 40
5.536157410693542
100
AcDbArc
 50
268.2746331423
 51
358.1637550931
  0
ARC
  5
384
330
1F
100
AcDbEntity
  8
SLD-0_0
  6
Continuous
 62
   179
370
    25
100
AcDbCircle
 10
185.83012379
 20
632.6623276877
 30
0.0
 40
5.536150765818638
100
AcDbArc
 50
181.8361768498
 51
271.7254162272
  0
ARC
  5
385
330
1F
100
AcDbEntity
  8
SLD-0_0
  6
Continuous
 62
   179
370
    25
100
AcDbCircle
 10
185.9968144774
 20
241.8599491812
 30
0.0
 40
6.499999999999996
100
AcDbArc
 50
58.9823638146
 51
121.0176361854
  0
ARC
  5
386
330
1F
100
AcDbEntity
  8
SLD-0_0
  6
Continuous
 62
   179
370
    25
100
AcDbCircle
 10
243.9968144774
 20
241.8599491812
 30
0.0
 40
6.50000000000001
100
AcDbArc
 50
58.9823638146
 51
121.0176361854
  0
ARC
  5
387
330
1F
100
AcDbEntity
  8
SLD-0_0
  6
Continuous
 62
   179
370
    25
100
AcDbCircle
 10
213.9968144774
 20
225.1476759101
 30
0.0
 40
2.000000000000028
100
AcDbArc
 50
119.9771513514
 51
180.0
  0
ARC
  5
388
330
1F
100
AcDbEntity
  8
SLD-0_0
  6
Continuous
 62
   179
370
    25
100
AcDbCircle
 10
215.9968145034
 20
225.1476759101
 30
0.0
 40
2.000000000000007
100
AcDbArc
 50
0.0
 51
60.0024706426
  0
ARC
  5
389
330
1F
100
AcDbEntity
  8
SLD-0_0
  6
Continuous
 62
   179
370
    25
100
AcDbCircle
 10
214.9968144774
 20
143.3744403456
 30
0.0
 40
62.50000000000003
100
AcDbArc
 50
180.0
 51
252.2630958986
  0
ARC
  5
38A
330
1F
100
AcDbEntity
  8
SLD-0_0
  6
Continuous
 62
   179
370
    25
100
AcDbCircle
 10
214.9968144774
 20
143.3744403456
 30
0.0
 40
62.50000000000002
100
AcDbArc
 50
321.7369041014
 51
342.2630958986
  0
ARC
  5
38B
330
1F
100
AcDbEntity
  8
SLD-0_0
  6
Continuous
 62
   179
370
    25
100
AcDbCircle
 10
214.9968144774
 20
143.3744403456
 30
0.0
 40
62.50000000000001
100
AcDbArc
 50
51.7369041014
 51
72.2630958986
  0
ARC
  5
38C
330
1F
100
AcDbEntity
  8
SLD-0_0
  6
Continuous
 62
   179
370
    25
100
AcDbCircle
 10
214.9968144774
 20
143.3744403456
 30
0.0
 40
62.49999999999999
100
AcDbArc
 50
141.7369041014
 51
162.2630958986
  0
ARC
  5
38D
330
1F
100
AcDbEntity
  8
SLD-0_0
  6
Continuous
 62
   179
370
    25
100
AcDbCircle
 10
214.9968144774
 20
143.3744403456
 30
0.0
 40
40.99999954308299
100
AcDbArc
 50
196.8639329826
 51
205.824263497
  0
ARC
  5
38E
330
1F
100
AcDbEntity
  8
SLD-0_0
  6
Continuous
 62
   179
370
    25
100
AcDbCircle
 10
214.9968144774
 20
143.3744403456
 30
0.0
 40
64.00000000004242
100
AcDbArc
 50
179.9985149408
 51
187.7779752605
  0
ARC
  5
38F
330
1F
100
AcDbEntity
  8
SLD-0_0
  6
Continuous
 62
   179
370
    25
100
AcDbCircle
 10
214.9968144774
 20
143.3744403456
 30
0.0
 40
64.00000000003797
100
AcDbArc
 50
196.6071923598
 51
163.3928076402
  0
ARC
  5
390
330
1F
100
AcDbEntity
  8
SLD-0_0
  6
Continuous
 62
   179
370
    25
100
AcDbCircle
 10
214.9968144774
 20
143.3744403456
 30
0.0
 40
89.99999906137305
100
AcDbArc
 50
128.942441269
 51
141.0575597724
  0
ARC
  5
391
330
1F
100
AcDbEntity
  8
SLD-0_0
  6
Continuous
 62
   179
370
    25
100
AcDbCircle
 10
214.9968144774
 20
143.3744403456
 30
0.0
 40
89.99999863250899
100
AcDbArc
 50
38.942441269
 51
51.0575590688
  0
ARC
  5
392
330
1F
100
AcDbEntity
  8
SLD-0_0
  6
Continuous
 62
   179
370
    25
100
AcDbCircle
 10
214.9968144774
 20
143.3744403456
 30
0.0
 40
89.99999906129837
100
AcDbArc
 50
308.9424402277
 51
321.0575597723
  0
CIRCLE
  5
393
330
1F
100
AcDbEntity
  8
SLD-0_0
  6
Continuous
 62
   179
370
    25
100
AcDbCircle
 10
158.4282719824
 20
199.9429828405
 30
0.0
 40
5.0
  0
CIRCLE
  5
394
330
1F
100
AcDbEntity
  8
SLD-0_0
  6
Continuous
 62
   179
370
    25
100
AcDbCircle
 10
271.5653569723
 20
86.8058978507
 30
0.0
 40
5.0
  0
ARC
  5
395
330
1F
100
AcDbEntity
  8
SLD-0_0
  6
Continuous
 62
   179
370
    25
100
AcDbCircle
 10
214.9968144774
 20
143.3744403456
 30
0.0
 40
89.99999906136716
100
AcDbArc
 50
218.9424402276
 51
231.0575597723
  0
ARC
  5
396
330
1F
100
AcDbEntity
  8
SLD-0_0
  6
Continuous
 62
   179
370
    25
100
AcDbCircle
 10
136.9968144774
 20
125.3744403456
 30
0.0
 40
2.000000000025466
100
AcDbArc
 50
180.0
 51
270.0
  0
ARC
  5
397
330
1F
100
AcDbEntity
  8
SLD-0_0
  6
Continuous
 62
   179
370
    25
100
AcDbCircle
 10
136.9968153714
 20
161.3744403456
 30
0.0
 40
1.999999105950081
100
AcDbArc
 50
89.9999999993
 51
180.0000221964
  0
ARC
  5
398
330
1F
100
AcDbEntity
  8
SLD-0_0
  6
Continuous
 62
   179
370
    25
100
AcDbCircle
 10
143.1110285068
 20
166.3744403456
 30
0.0
 40
3.000000000000007
100
AcDbArc
 50
270.0
 51
308.9465639199
  0
ARC
  5
399
330
1F
100
AcDbEntity
  8
SLD-0_0
  6
Continuous
 62
   179
370
    25
100
AcDbCircle
 10
198.0392548599
 20
198.8401167384
 30
0.0
 40
4.395000082490631
100
AcDbArc
 50
276.0830991198
 51
336.0830802096
  0
ARC
  5
39A
330
1F
100
AcDbEntity
  8
SLD-0_0
  6
Continuous
 62
   179
370
    25
100
AcDbCircle
 10
198.0392548599
 20
198.8401167384
 30
0.0
 40
4.395000082490616
100
AcDbArc
 50
156.0830847277
 51
216.0830859865
  0
ARC
  5
39B
330
1F
100
AcDbEntity
  8
SLD-0_0
  6
Continuous
 62
   179
370
    25
100
AcDbCircle
 10
198.0392548599
 20
198.8401167384
 30
0.0
 40
4.395000082490616
100
AcDbArc
 50
216.0830859865
 51
276.0830991198
  0
ARC
  5
39C
330
1F
100
AcDbEntity
  8
SLD-0_0
  6
Continuous
 62
   179
370
    25
100
AcDbCircle
 10
198.0392548599
 20
198.8401167384
 30
0.0
 40
4.395000082490608
100
AcDbArc
 50
96.0830853841
 51
156.0830847277
  0
ARC
  5
39D
330
1F
100
AcDbEntity
  8
SLD-0_0
  6
Continuous
 62
   179
370
    25
100
AcDbCircle
 10
198.0392548599
 20
198.8401167384
 30
0.0
 40
4.395000082490608
100
AcDbArc
 50
36.0830912758
 51
96.0830853841
  0
ARC
  5
39E
330
1F
100
AcDbEntity
  8
SLD-0_0
  6
Continuous
 62
   179
370
    25
100
AcDbCircle
 10
198.0392548599
 20
198.8401167384
 30
0.0
 40
4.395000082490631
100
AcDbArc
 50
336.0830802096
 51
36.0830912758
  0
ARC
  5
39F
330
1F
100
AcDbEntity
  8
SLD-0_0
  6
Continuous
 62
   179
370
    25
100
AcDbCircle
 10
270.4624904124
 20
160.3319995028
 30
0.0
 40
4.394999620564844
100
AcDbArc
 50
210.000000637
 51
270.0000005814
  0
ARC
  5
3A0
330
1F
100
AcDbEntity
  8
SLD-0_0
  6
Continuous
 62
   179
370
    25
100
AcDbCircle
 10
270.4624904124
 20
160.3319995028
 30
0.0
 40
4.394999620564858
100
AcDbArc
 50
149.999999363
 51
210.000000637
  0
ARC
  5
3A1
330
1F
100
AcDbEntity
  8
SLD-0_0
  6
Continuous
 62
   179
370
    25
100
AcDbCircle
 10
270.4624904124
 20
160.3319995028
 30
0.0
 40
4.394999620564847
100
AcDbArc
 50
30.0000038355
 51
89.9999994186
  0
ARC
  5
3A2
330
1F
100
AcDbEntity
  8
SLD-0_0
  6
Continuous
 62
   179
370
    25
100
AcDbCircle
 10
270.4624904124
 20
160.3319995028
 30
0.0
 40
4.394999620564818
100
AcDbArc
 50
270.0000005814
 51
330.0000025614
  0
ARC
  5
3A3
330
1F
100
AcDbEntity
  8
SLD-0_0
  6
Continuous
 62
   179
370
    25
100
AcDbCircle
 10
270.4624904124
 20
160.3319995028
 30
0.0
 40
4.394999620564858
100
AcDbArc
 50
89.9999994186
 51
149.999999363
  0
ARC
  5
3A4
330
1F
100
AcDbEntity
  8
SLD-0_0
  6
Continuous
 62
   179
370
    25
100
AcDbCircle
 10
270.4624904124
 20
160.3319995028
 30
0.0
 40
4.394999620564819
100
AcDbArc
 50
330.0000025614
 51
30.0000038355
  0
ARC
  5
3A5
330
1F
100
AcDbEntity
  8
SLD-0_0
  6
Continuous
 62
   179
370
    25
100
AcDbCircle
 10
231.9543736959
 20
87.9087644552
 30
0.0
 40
4.395000271226546
100
AcDbArc
 50
149.99999725
 51
210.00000275
  0
ARC
  5
3A6
330
1F
100
AcDbEntity
  8
SLD-0_0
  6
Continuous
 62
   179
370
    25
100
AcDbCircle
 10
231.9543736959
 20
87.9087644552
 30
0.0
 40
4.395000271226554
100
AcDbArc
 50
210.00000275
 51
269.9999976221
  0
ARC
  5
3A7
330
1F
100
AcDbEntity
  8
SLD-0_0
  6
Continuous
 62
   179
370
    25
100
AcDbCircle
 10
231.9543736959
 20
87.9087644552
 30
0.0
 40
4.395000271226554
100
AcDbArc
 50
30.0000068709
 51
90.0000023779
  0
ARC
  5
3A8
330
1F
100
AcDbEntity
  8
SLD-0_0
  6
Continuous
 62
   179
370
    25
100
AcDbCircle
 10
231.9543736959
 20
87.9087644552
 30
0.0
 40
4.395000271226563
100
AcDbArc
 50
269.9999976221
 51
329.999992122
  0
ARC
  5
3A9
330
1F
100
AcDbEntity
  8
SLD-0_0
  6
Continuous
 62
   179
370
    25
100
AcDbCircle
 10
231.9543736959
 20
87.9087644552
 30
0.0
 40
4.395000271226563
100
AcDbArc
 50
329.999992122
 51
30.0000068709
  0
ARC
  5
3AA
330
1F
100
AcDbEntity
  8
SLD-0_0
  6
Continuous
 62
   179
370
    25
100
AcDbCircle
 10
231.9543736959
 20
87.9087644552
 30
0.0
 40
4.395000271226554
100
AcDbArc
 50
90.0000023779
 51
149.99999725
  0
ARC
  5
3AB
330
1F
100
AcDbEntity
  8
SLD-0_0
  6
Continuous
 62
   179
370
    25
100
AcDbCircle
 10
159.5311387039
 20
126.4168811884
 30
0.0
 40
4.394999683332417
100
AcDbArc
 50
149.9999998347
 51
210.0000001653
  0
ARC
  5
3AC
330
1F
100
AcDbEntity
  8
SLD-0_0
  6
Continuous
 62
   179
370
    25
100
AcDbCircle
 10
159.5311387039
 20
126.4168811884
 30
0.0
 40
4.39499968333241
100
AcDbArc
 50
210.0000001653
 51
269.9999994186
  0
ARC
  5
3AD
330
1F
100
AcDbEntity
  8
SLD-0_0
  6
Continuous
 62
   179
370
    25
100
AcDbCircle
 10
159.5311387039
 20
126.4168811884
 30
0.0
 40
4.394999683332401
100
AcDbArc
 50
269.9999994186
 51
329.9999955831
  0
ARC
  5
3AE
330
1F
100
AcDbEntity
  8
SLD-0_0
  6
Continuous
 62
   179
370
    25
100
AcDbCircle
 10
159.5311387039
 20
126.4168811884
 30
0.0
 40
4.394999683332387
100
AcDbArc
 50
329.9999955831
 51
29.9999980211
  0
ARC
  5
3AF
330
1F
100
AcDbEntity
  8
SLD-0_0
  6
Continuous
 62
   179
370
    25
100
AcDbCircle
 10
159.5311387039
 20
126.4168811884
 30
0.0
 40
4.394999683332417
100
AcDbArc
 50
90.0000005814
 51
149.9999998347
  0
ARC
  5
3B0
330
1F
100
AcDbEntity
  8
SLD-0_0
  6
Continuous
 62
   179
370
    25
100
AcDbCircle
 10
159.5311387039
 20
126.4168811884
 30
0.0
 40
4.394999683332401
100
AcDbArc
 50
29.9999980211
 51
90.0000005814
  0
CIRCLE
  5
3B1
330
1F
100
AcDbEntity
  8
SLD-0_0
  6
Continuous
 62
   179
370
    25
100
AcDbCircle
 10
214.9968144774
 20
143.3744403456
 30
0.0
 40
10.55269119345812
  0
CIRCLE
  5
3B2
330
1F
100
AcDbEntity
  8
SLD-0_0
  6
Continuous
 62
   179
370
    25
100
AcDbCircle
 10
214.9968144774
 20
143.3744403456
 30
0.0
 40
26.95269119345812
  0
CIRCLE
  5
3B3
330
1F
100
AcDbEntity
  8
SLD-0_0
  6
Continuous
 62
   179
370
    25
100
AcDbCircle
 10
214.9968144774
 20
143.3744403456
 30
0.0
 40
43.44730880654191
  0
ARC
  5
3B4
330
1F
100
AcDbEntity
  8
SLD-0_0
  6
Continuous
 62
   179
370
    25
100
AcDbCircle
 10
214.9968144774
 20
143.3744403456
 30
0.0
 40
62.50000000000001
100
AcDbArc
 50
162.2630958986
 51
231.7369035589
  0
ARC
  5
3B5
330
1F
100
AcDbEntity
  8
SLD-0_0
  6
Continuous
 62
   179
370
    25
100
AcDbCircle
 10
214.9968144774
 20
143.3744403456
 30
0.0
 40
62.50000000000001
100
AcDbArc
 50
72.2630958986
 51
141.7369041014
  0
ARC
  5
3B6
330
1F
100
AcDbEntity
  8
SLD-0_0
  6
Continuous
 62
   179
370
    25
100
AcDbCircle
 10
214.9968144774
 20
143.3744403456
 30
0.0
 40
62.50000000000002
100
AcDbArc
 50
342.2630958986
 51
51.7369041014
  0
ARC
  5
3B7
330
1F
100
AcDbEntity
  8
SLD-0_0
  6
Continuous
 62
   179
370
    25
100
AcDbCircle
 10
214.9968144774
 20
143.3744403456
 30
0.0
 40
62.50000000000003
100
AcDbArc
 50
252.2630958986
 51
321.7369041014
  0
ARC
  5
3B8
330
1F
100
AcDbEntity
  8
SLD-0_0
  6
Continuous
 62
   179
370
    25
100
AcDbCircle
 10
216.4968144643
 20
217.147675897
 30
0.0
 40
1.5
100
AcDbArc
 50
270.0
 51
0.0
  0
ARC
  5
3B9
330
1F
100
AcDbEntity
  8
SLD-0_0
  6
Continuous
 62
   179
370
    25
100
AcDbCircle
 10
213.4968144643
 20
217.1476759101
 30
0.0
 40
1.500000013050055
100
AcDbArc
 50
180.0000184072
 51
270.0
  0
ARC
  5
3BA
330
1F
100
AcDbEntity
  8
SLD-0_0
  6
Continuous
 62
   179
370
    25
100
AcDbCircle
 10
191.7968144774
 20
246.2024879383
 30
0.0
 40
2.0
100
AcDbArc
 50
90.0
 51
167.6654072805
  0
ARC
  5
3BB
330
1F
100
AcDbEntity
  8
SLD-0_0
  6
Continuous
 62
   179
370
    25
100
AcDbCircle
 10
239.1968144774
 20
246.2024865281
 30
0.0
 40
1.999998589749968
100
AcDbArc
 50
39.7655702532
 51
90.0000037586
  0
ARC
  5
3BC
330
1F
100
AcDbEntity
  8
SLD-0_0
  6
Continuous
 62
   179
370
    25
100
AcDbCircle
 10
242.7145916486
 20
243.8654777642
 30
0.0
 40
3.531466775328389
100
AcDbArc
 50
238.0559929506
 51
258.2728282234
  0
ARC
  5
3BD
330
1F
100
AcDbEntity
  8
SLD-0_0
  6
Continuous
 62
   179
370
    25
100
AcDbCircle
 10
187.2790373061
 20
243.8654777642
 30
0.0
 40
3.531466775342352
100
AcDbArc
 50
281.7271717766
 51
301.94400705
  0
ARC
  5
3BE
330
1F
100
AcDbEntity
  8
SLD-0_0
  6
Continuous
 62
   179
370
    25
100
AcDbCircle
 10
187.5372834602
 20
244.7866668692
 30
0.0
 40
4.779243864302053
100
AcDbArc
 50
279.4186886698
 51
301.6867428406
  0
ARC
  5
3BF
330
1F
100
AcDbEntity
  8
SLD-0_0
  6
Continuous
 62
   179
370
    25
100
AcDbCircle
 10
190.9733830299
 20
239.2314629437
 30
0.0
 40
1.752766944701697
100
AcDbArc
 50
100.3259834566
 51
121.8789822015
  0
ARC
  5
3C0
330
1F
100
AcDbEntity
  8
SLD-0_0
  6
Continuous
 62
   179
370
    25
100
AcDbCircle
 10
239.0202459249
 20
239.2314629436
 30
0.0
 40
1.752766944718567
100
AcDbArc
 50
58.1210177999
 51
79.6740165434
  0
ARC
  5
3C1
330
1F
100
AcDbEntity
  8
SLD-0_0
  6
Continuous
 62
   179
370
    25
100
AcDbCircle
 10
242.4563454945
 20
244.7866668692
 30
0.0
 40
4.779243864287073
100
AcDbArc
 50
238.3132571599
 51
260.5813113304
  0
ARC
  5
3C2
330
1F
100
AcDbEntity
  8
SLD-0_0
  6
Continuous
 62
   179
370
    25
100
AcDbCircle
 10
214.9968144774
 20
223.9476759101
 30
0.0
 40
10.99999999999997
100
AcDbArc
 50
286.0121479694
 51
253.9878520306
  0
SPLINE
  5
3C3
330
1F
100
AcDbEntity
  8
SLD-0_0
  6
Continuous
 62
   179
370
    25
100
AcDbSpline
210
0.0
220
0.0
230
1.0
 70
     8
 71
     3
 72
    10
 73
     6
 74
     0
 42
0.000000001
 43
0.00000001
 40
0.0
 40
0.0
 40
0.0
 40
0.0
 40
0.2150240828241528
 40
0.795293418400323
 40
1.0
 40
1.0
 40
1.0
 40
1.0
 10
152.4965313552977
 20
334.6993590371893
 30
0.0
 10
152.4965438947395
 20
334.6796974643942
 30
0.0
 10
152.4965902734307
 20
334.6069766824526
 30
0.0
 10
152.4967704615449
 20
334.5235853714132
 30
0.0
 10
152.49714812396
 20
334.4771245590105
 30
0.0
 10
152.497246611035
 20
334.4650084750936
 30
0.0
  0
SPLINE
  5
3C4
330
1F
100
AcDbEntity
  8
SLD-0_0
  6
Continuous
 62
   179
370
    25
100
AcDbSpline
210
0.0
220
0.0
230
1.0
 70
     8
 71
     3
 72
    14
 73
    10
 74
     0
 42
0.000000001
 43
0.00000001
 40
0.0
 40
0.0
 40
0.0
 40
0.0
 40
0.0065145468180115
 40
0.1395564536854564
 40
0.2293583483648898
 40
0.3354909044052385
 40
0.5525617282060092
 40
0.7977205876091644
 40
0.9999999999999999
 40
0.9999999999999999
 40
0.9999999999999999
 40
0.9999999999999999
 10
275.9955485641125
 20
588.9430458324239
 30
0.0
 10
275.9955341958005
 20
588.9421781089154
 30
0.0
 10
275.9952263937838
 20
588.9235894919339
 30
0.0
 10
275.996324551324
 20
588.9767207757496
 30
0.0
 10
276.0134852458784
 20
589.131659213207
 30
0.0
 10
276.0734509793821
 20
589.4608614605653
 30
0.0
 10
276.2579807058962
 20
589.9808505679473
 30
0.0
 10
276.5982014593779
 20
590.5441826995324
 30
0.0
 10
276.9358175340378
 20
590.8285458310165
 30
0.0
 10
277.088448154843
 20
590.9571016805455
 30
0.0
  0
SPLINE
  5
3C5
330
1F
100
AcDbEntity
  8
SLD-0_0
  6
Continuous
 62
   179
370
    25
100
AcDbSpline
210
0.0
220
0.0
230
1.0
 70
     8
 71
     3
 72
    14
 73
    10
 74
     0
 42
0.000000001
 43
0.00000001
 40
0.0
 40
0.0
 40
0.0
 40
0.0
 40
0.1369178399009471
 40
0.3969565593275441
 40
0.6091690218825413
 40
0.7621822969931796
 40
0.848320574101625
 40
0.9178434077472414
 40
1.0
 40
1.0
 40
1.0
 40
1.0
 10
276.2657066165568
 20
603.971313931255
 30
0.0
 10
276.2394625910083
 20
603.9970960419076
 30
0.0
 10
276.1633750768306
 20
604.071844357717
 30
0.0
 10
276.085269025994
 20
604.2182441053849
 30
0.0
 10
276.0282305958513
 20
604.3741374070875
 30
0.0
 10
276.0059646935769
 20
604.4904621560623
 30
0.0
 10
275.999411837532
 20
604.5524153064341
 30
0.0
 10
275.997460518273
 20
604.5823710881837
 30
0.0
 10
275.9971723913548
 20
604.5904434201627
 30
0.0
 10
275.9970163284901
 20
604.5948157685086
 30
0.0
  0
SPLINE
  5
3C6
330
1F
100
AcDbEntity
  8
SLD-0_0
  6
Continuous
 62
   179
370
    25
100
AcDbSpline
210
0.0
220
0.0
230
1.0
 70
     8
 71
     3
 72
    10
 73
     6
 74
     0
 42
0.000000001
 43
0.00000001
 40
0.0
 40
0.0
 40
0.0
 40
0.0
 40
0.6891357731746615
 40
0.9752749342960659
 40
1.0
 40
1.0
 40
1.0
 40
1.0
 10
276.0730495034817
 20
331.6204662101553
 30
0.0
 10
275.9443480666807
 20
331.6707633200178
 30
0.0
 10
275.7622079279652
 20
331.7419445188845
 30
0.0
 10
275.5005469177197
 20
331.7451552408475
 30
0.0
 10
275.4631330617344
 20
331.7443582496038
 30
0.0
 10
275.460157292998
 20
331.7442948596761
 30
0.0
  0
SPLINE
  5
3C7
330
1F
100
AcDbEntity
  8
SLD-0_0
  6
Continuous
 62
   179
370
    25
100
AcDbSpline
210
0.0
220
0.0
230
1.0
 70
     8
 71
     3
 72
    12
 73
     8
 74
     0
 42
0.000000001
 43
0.00000001
 40
0.0
 40
0.0
 40
0.0
 40
0.0
 40
0.0766815268876902
 40
0.2569686186225958
 40
0.526393930561163
 40
0.865641348449492
 40
0.9999999999999999
 40
0.9999999999999999
 40
0.9999999999999999
 40
0.9999999999999999
 10
262.3449300705554
 20
705.6450063960835
 30
0.0
 10
262.3426608370223
 20
705.6450637126543
 30
0.0
 10
262.3350563743831
 20
705.6452557870772
 30
0.0
 10
262.2764952292682
 20
705.655405305168
 30
0.0
 10
262.1666984122584
 20
705.7089206759648
 30
0.0
 10
262.0759040923912
 20
705.8121109607418
 30
0.0
 10
262.0583907805963
 20
705.8697890318138
 30
0.0
 10
262.0534223794104
 20
705.8861518876836
 30
0.0
  0
SPLINE
  5
3C8
330
1F
100
AcDbEntity
  8
SLD-0_0
  6
Continuous
 62
   179
370
    25
100
AcDbSpline
210
0.0
220
0.0
230
1.0
 70
     8
 71
     3
 72
    13
 73
     9
 74
     0
 42
0.000000001
 43
0.00000001
 40
0.0
 40
0.0
 40
0.0
 40
0.0
 40
0.009569626244438
 40
0.2482812888787728
 40
0.5929970301014766
 40
0.8179330327794956
 40
0.9713853781163675
 40
0.9999999999999999
 40
0.9999999999999999
 40
0.9999999999999999
 40
0.9999999999999999
 10
167.9460701822402
 20
705.8928276078984
 30
0.0
 10
167.945843205554
 20
705.891806747435
 30
0.0
 10
167.939954358617
 20
705.8653208069042
 30
0.0
 10
167.8886713107384
 20
705.7667580002909
 30
0.0
 10
167.7702654287484
 20
705.6742065189617
 30
0.0
 10
167.6752327931687
 20
705.6455884762121
 30
0.0
 10
167.6395818465363
 20
705.6446203108383
 30
0.0
 10
167.6442155360305
 20
705.6444774983039
 30
0.0
 10
167.6449437915446
 20
705.6444550531194
 30
0.0
  0
SPLINE
  5
3C9
330
1F
100
AcDbEntity
  8
SLD-0_0
  6
Continuous
 62
   179
370
    25
100
AcDbSpline
210
0.0
220
0.0
230
1.0
 70
     8
 71
     3
 72
     9
 73
     5
 74
     0
 42
0.000000001
 43
0.00000001
 40
0.0
 40
0.0
 40
0.0
 40
0.0
 40
0.452552780046142
 40
0.9999999999999999
 40
0.9999999999999999
 40
0.9999999999999999
 40
0.9999999999999999
 10
262.056499469197
 20
705.884035922794
 30
0.0
 10
262.048814273476
 20
705.9014719735021
 30
0.0
 10
262.031832396312
 20
705.9400001882796
 30
0.0
 10
262.033966577679
 20
705.9521651670289
 30
0.0
 10
262.0351349293353
 20
705.958824850826
 30
0.0
  0
SPLINE
  5
3CA
330
1F
100
AcDbEntity
  8
SLD-0_0
  6
Continuous
 62
   179
370
    25
100
AcDbSpline
210
0.0
220
0.0
230
1.0
 70
     8
 71
     3
 72
     9
 73
     5
 74
     0
 42
0.000000001
 43
0.00000001
 40
0.0
 40
0.0
 40
0.0
 40
0.0
 40
0.9960055356832955
 40
1.0
 40
1.0
 40
1.0
 40
1.0
 10
167.9598127781512
 20
705.9643978851125
 30
0.0
 10
167.9632150099168
 20
705.9455657823391
 30
0.0
 10
167.9666308862787
 20
705.9266581537179
 30
0.0
 10
167.9460814855723
 20
705.891819380722
 30
0.0
 10
167.9459994017245
 20
705.8916802184865
 30
0.0
  0
SPLINE
  5
3CB
330
1F
100
AcDbEntity
  8
SLD-0_0
  6
Continuous
 62
   179
370
    25
100
AcDbSpline
210
0.0
220
0.0
230
1.0
 70
     8
 71
     3
 72
    11
 73
     7
 74
     0
 42
0.000000001
 43
0.00000001
 40
0.0
 40
0.0
 40
0.0
 40
0.0
 40
0.2596615625381776
 40
0.5451960331305071
 40
0.8642745539404956
 40
1.0
 40
1.0
 40
1.0
 40
1.0
 10
268.5789165376784
 20
703.653093673496
 30
0.0
 10
268.5594097593544
 20
703.6501277357348
 30
0.0
 10
268.5184525300386
 20
703.6439003315475
 30
0.0
 10
268.4880709202856
 20
703.6441424146986
 30
0.0
 10
268.4700155041312
 20
703.6477317892875
 30
0.0
 10
268.4753947403548
 20
703.64582476795
 30
0.0
 10
268.4770000456931
 20
703.645255662708
 30
0.0
  0
SPLINE
  5
3CC
330
1F
100
AcDbEntity
  8
SLD-0_0
  6
Continuous
 62
   179
370
    25
100
AcDbSpline
210
0.0
220
0.0
230
1.0
 70
     8
 71
     3
 72
    14
 73
    10
 74
     0
 42
0.000000001
 43
0.00000001
 40
0.0
 40
0.0
 40
0.0
 40
0.0
 40
0.0943756747076994
 40
0.2430649516939565
 40
0.3918025137052235
 40
0.5408572225311244
 40
0.6905730855618377
 40
0.8410957225527457
 40
1.0
 40
1.0
 40
1.0
 40
1.0
 10
250.6968152999526
 20
720.4073483722411
 30
0.0
 10
250.6842330097582
 20
720.6787000713172
 30
0.0
 10
250.651827267836
 20
721.3775675266465
 30
0.0
 10
250.3270865426524
 20
722.4732896080051
 30
0.0
 10
249.683244381384
 20
723.6037010266622
 30
0.0
 10
248.7789717062869
 20
724.559726695512
 30
0.0
 10
247.6681509350829
 20
725.283267751519
 30
0.0
 10
246.3860397032761
 20
725.7708157321655
 30
0.0
 10
245.4681766823309
 20
725.833783729345
 30
0.0
 10
244.9968138068562
 20
725.8661205547057
 30
0.0
  0
SPLINE
  5
3CD
330
1F
100
AcDbEntity
  8
SLD-0_0
  6
Continuous
 62
   179
370
    25
100
AcDbSpline
210
0.0
220
0.0
230
1.0
 70
     8
 71
     3
 72
    13
 73
     9
 74
     0
 42
0.000000001
 43
0.00000001
 40
0.0
 40
0.0
 40
0.0
 40
0.0
 40
0.1094075175861003
 40
0.2898196825864873
 40
0.4706860829316634
 40
0.6513337921101515
 40
0.8313280329874685
 40
1.0
 40
1.0
 40
1.0
 40
1.0
 10
185.9968153118735
 20
725.8661205547057
 30
0.0
 10
185.7239149086452
 20
725.854914393236
 30
0.0
 10
185.001003814541
 20
725.8252293566691
 30
0.0
 10
183.8560487916702
 20
725.5195907558144
 30
0.0
 10
182.6549409676628
 20
724.8960513527525
 30
0.0
 10
181.6472995537991
 20
724.0102997898531
 30
0.0
 10
180.875810503892
 20
722.9486996818596
 30
0.0
 10
180.609716743547
 20
722.1412553868138
 30
0.0
 10
180.4809903084881
 20
721.7506433503829
 30
0.0
  0
SPLINE
  5
3CE
330
1F
100
AcDbEntity
  8
SLD-0_0
  6
Continuous
 62
   179
370
    25
100
AcDbSpline
210
0.0
220
0.0
230
1.0
 70
     8
 71
     3
 72
    11
 73
     7
 74
     0
 42
0.000000001
 43
0.00000001
 40
0.0
 40
0.0
 40
0.0
 40
0.0
 40
0.2762176579799104
 40
0.650092977123115
 40
0.8496777325632443
 40
1.0
 40
1.0
 40
1.0
 40
1.0
 10
152.4976890864173
 20
334.4650088550523
 30
0.0
 10
152.49739931912
 20
334.478495792632
 30
0.0
 10
152.4967173363446
 20
334.5102380189172
 30
0.0
 10
152.4968333608798
 20
334.5915035644605
 30
0.0
 10
152.4968140389603
 20
334.6756127582324
 30
0.0
 10
152.4968189737577
 20
334.7238058702153
 30
0.0
 10
152.4968210937778
 20
334.7445099355653
 30
0.0
  0
SPLINE
  5
3CF
330
1F
100
AcDbEntity
  8
SLD-0_0
  6
Continuous
 62
   179
370
    25
100
AcDbSpline
210
0.0
220
0.0
230
1.0
 70
     8
 71
     3
 72
    22
 73
    18
 74
     0
 42
0.000000001
 43
0.00000001
 40
0.0
 40
0.0
 40
0.0
 40
0.0
 40
0.125
 40
0.125
 40
0.25
 40
0.25
 40
0.375
 40
0.375
 40
0.5
 40
0.5
 40
0.625
 40
0.625
 40
0.75
 40
0.75
 40
0.875
 40
0.875
 40
1.0
 40
1.0
 40
1.0
 40
1.0
 10
214.996817230978
 20
334.7445087012801
 30
0.0
 10
214.996817230978
 20
334.5589944060821
 30
0.0
 10
214.9970870283474
 20
334.3763865020133
 30
0.0
 10
214.9981438161197
 20
334.0167410810588
 30
0.0
 10
214.9989394403311
 20
333.8383557503143
 30
0.0
 10
215.0010394936708
 20
333.4937717776785
 30
0.0
 10
215.0023257451204
 20
333.3297532846152
 30
0.0
 10
215.0053590649738
 20
333.017841047738
 30
0.0
 10
215.0071282372659
 20
332.8685592767094
 30
0.0
 10
215.0110345472959
 20
332.5957448786355
 30
0.0
 10
215.0131657115301
 20
332.4719398120541
 30
0.0
 10
215.0177813041102
 20
332.2493035522181
 30
0.0
 10
215.0202893342808
 20
332.1499928698787
 30
0.0
 10
215.0254764971147
 20
331.9845020327162
 30
0.0
 10
215.0281716093993
 20
331.917225654878
 30
0.0
 10
215.0337667200316
 20
331.8138427301096
 30
0.0
 10
215.0366701936388
 20
331.7780692361074
 30
0.0
 10
215.0395829437524
 20
331.7595909526929
 30
0.0
  0
SPLINE
  5
3D0
330
1F
100
AcDbEntity
  8
SLD-0_0
  6
Continuous
 62
   179
370
    25
100
AcDbSpline
210
0.0
220
0.0
230
1.0
 70
     8
 71
     3
 72
    13
 73
     9
 74
     0
 42
0.000000001
 43
0.00000001
 40
0.0
 40
0.0
 40
0.0
 40
0.0
 40
0.0663327075528785
 40
0.3754081077247414
 40
0.6227588479469921
 40
0.7410203885271927
 40
0.9400136384688852
 40
1.0
 40
1.0
 40
1.0
 40
1.0
 10
199.7456445648433
 20
334.7445095556066
 30
0.0
 10
199.7447668383306
 20
334.678954378961
 30
0.0
 10
199.7397993696204
 20
334.3079466857131
 30
0.0
 10
199.6531437169299
 20
333.696446609423
 30
0.0
 10
199.3970335141192
 20
333.1218960422589
 30
0.0
 10
199.0577646615127
 20
332.7419432696835
 30
0.0
 10
198.7700010456775
 20
332.5285021614342
 30
0.0
 10
198.5241148455517
 20
332.460310316465
 30
0.0
 10
198.4671612559916
 20
332.4445153253362
 30
0.0
  0
SPLINE
  5
3D1
330
1F
100
AcDbEntity
  8
SLD-0_0
  6
Continuous
 62
   179
370
    25
100
AcDbSpline
210
0.0
220
0.0
230
1.0
 70
     8
 71
     3
 72
    13
 73
     9
 74
     0
 42
0.000000001
 43
0.00000001
 40
0.0
 40
0.0
 40
0.0
 40
0.0
 40
0.0776695358878117
 40
0.2722157793556839
 40
0.4723274589890924
 40
0.6976896867795197
 40
0.9655802597130924
 40
1.0
 40
1.0
 40
1.0
 40
1.0
 10
196.7034337400557
 20
332.4445153253362
 30
0.0
 10
196.6437922200286
 20
332.4661184423626
 30
0.0
 10
196.4347609354899
 20
332.5418329328722
 30
0.0
 10
196.2134120776939
 20
332.8115891429171
 30
0.0
 10
196.0384574857962
 20
333.264867009041
 30
0.0
 10
195.9688325625698
 20
333.8885619138749
 30
0.0
 10
195.9575053307432
 20
334.4110124562055
 30
0.0
 10
195.9570074440431
 20
334.7104202801521
 30
0.0
 10
195.9569507568242
 20
334.7445095556066
 30
0.0
  0
SPLINE
  5
3D2
330
1F
100
AcDbEntity
  8
SLD-0_0
  6
Continuous
 62
   179
370
    25
100
AcDbSpline
210
0.0
220
0.0
230
1.0
 70
     8
 71
     3
 72
    22
 73
    18
 74
     0
 42
0.000000001
 43
0.00000001
 40
0.0
 40
0.0
 40
0.0
 40
0.0
 40
0.2499999999999994
 40
0.2499999999999994
 40
0.3124999999999994
 40
0.3124999999999994
 40
0.3749999999999994
 40
0.3749999999999994
 40
0.4999999999999991
 40
0.4999999999999991
 40
0.749999999999999
 40
0.749999999999999
 40
0.8124999999999992
 40
0.8124999999999992
 40
0.8749999999999993
 40
0.8749999999999993
 40
1.0
 40
1.0
 40
1.0
 40
1.0
 10
215.0395829437524
 20
331.7595909526929
 30
0.0
 10
219.0623267489646
 20
331.7620316513049
 30
0.0
 10
223.0267349155641
 20
331.7634107384262
 30
0.0
 10
227.9113277256101
 20
331.7632959883977
 30
0.0
 10
228.8846662200899
 20
331.7631849871092
 30
0.0
 10
230.8240959591124
 20
331.7627895001241
 30
0.0
 10
231.7922291764859
 20
331.7625041803909
 30
0.0
 10
234.6710487116915
 20
331.7614072787586
 30
0.0
 10
236.5444391888018
 20
331.7603585056755
 30
0.0
 10
242.0317639221867
 20
331.7565631401511
 30
0.0
 10
245.5141627487336
 20
331.7531196130317
 30
0.0
 10
249.6423162591641
 20
331.749339989834
 30
0.0
 10
250.4581448796849
 20
331.7486129143113
 30
0.0
 10
252.0571895612672
 20
331.7472851825353
 30
0.0
 10
252.8404874853399
 20
331.746684324079
 30
0.0
 10
255.1418175843969
 20
331.7451616320355
 30
0.0
 10
256.6124380903937
 20
331.7445179718406
 30
0.0
 10
258.0097920756204
 20
331.7445179718407
 30
0.0
  0
SPLINE
  5
3D3
330
1F
100
AcDbEntity
  8
SLD-0_0
  6
Continuous
 62
   179
370
    25
100
AcDbSpline
210
0.0
220
0.0
230
1.0
 70
     8
 71
     3
 72
    12
 73
     8
 74
     0
 42
0.000000001
 43
0.00000001
 40
0.0
 40
0.0
 40
0.0
 40
0.0
 40
0.0082410887418955
 40
0.3645799766112466
 40
0.7310482126321287
 40
0.9885492766676205
 40
1.0
 40
1.0
 40
1.0
 40
1.0
 10
269.3958056449057
 20
332.4445153253362
 30
0.0
 10
269.3901596232338
 20
332.4486746321049
 30
0.0
 10
269.1403835907709
 20
332.6326794416566
 30
0.0
 10
268.8409524612791
 20
333.1549086172172
 30
0.0
 10
268.5915044731065
 20
333.9160590089787
 30
0.0
 10
268.5469118159572
 20
334.4914045463791
 30
0.0
 10
268.5463551247739
 20
334.7341735731382
 30
0.0
 10
268.5463314234378
 20
334.7445095556066
 30
0.0
  0
SPLINE
  5
3D4
330
1F
100
AcDbEntity
  8
SLD-0_0
  6
Continuous
 62
   179
370
    25
100
AcDbSpline
210
0.0
220
0.0
230
1.0
 70
     8
 71
     3
 72
    10
 73
     6
 74
     0
 42
0.000000001
 43
0.00000001
 40
0.0
 40
0.0
 40
0.0
 40
0.0
 40
0.5
 40
0.5
 40
1.0
 40
1.0
 40
1.0
 40
1.0
 10
151.651809371656
 20
552.4983825199371
 30
0.0
 10
151.743839975016
 20
552.5181129669694
 30
0.0
 10
151.8445384015161
 20
552.5831094533536
 30
0.0
 10
152.0631368480194
 20
552.7673553450851
 30
0.0
 10
152.1810563810169
 20
552.8855015212964
 30
0.0
 10
152.3080535482991
 20
553.0057527994271
 30
0.0
  0
SPLINE
  5
3D5
330
1F
100
AcDbEntity
  8
SLD-0_0
  6
Continuous
 62
   179
370
    25
100
AcDbSpline
210
0.0
220
0.0
230
1.0
 70
     8
 71
     3
 72
     8
 73
     4
 74
     0
 42
0.000000001
 43
0.00000001
 40
0.0
 40
0.0
 40
0.0
 40
0.0
 40
1.0
 40
1.0
 40
1.0
 40
1.0
 10
150.9968317434807
 20
552.2159289059674
 30
0.0
 10
150.9990681796015
 20
552.3104385910489
 30
0.0
 10
151.2174493335968
 20
552.4052600431633
 30
0.0
 10
151.651809371656
 20
552.4983825199371
 30
0.0
  0
SPLINE
  5
3D6
330
1F
100
AcDbEntity
  8
SLD-0_0
  6
Continuous
 62
   179
370
    25
100
AcDbSpline
210
0.0
220
0.0
230
1.0
 70
     8
 71
     3
 72
     8
 73
     4
 74
     0
 42
0.000000001
 43
0.00000001
 40
0.0
 40
0.0
 40
0.0
 40
0.0
 40
0.0000453579584797
 40
0.0000453579584797
 40
0.0000453579584797
 40
0.0000453579584797
 10
150.9968317434807
 20
552.2159289059674
 30
0.0
 10
150.9968206429033
 20
552.2154598060154
 30
0.0
 10
150.9968148907384
 20
552.2152249381293
 30
0.0
 10
150.9968144988581
 20
552.2152249381293
 30
0.0
  0
SPLINE
  5
3D7
330
1F
100
AcDbEntity
  8
SLD-0_0
  6
Continuous
 62
   179
370
    25
100
AcDbSpline
210
0.0
220
0.0
230
1.0
 70
     8
 71
     3
 72
     8
 73
     4
 74
     0
 42
0.000000001
 43
0.00000001
 40
0.0
 40
0.0
 40
0.0
 40
0.0
 40
1.0
 40
1.0
 40
1.0
 40
1.0
 10
152.3080535482991
 20
553.0057527994271
 30
0.0
 10
152.6790108087962
 20
553.3570053955385
 30
0.0
 10
153.1278736506192
 20
553.6445107238645
 30
0.0
 10
153.6664653988728
 20
553.6445107238645
 30
0.0
  0
SPLINE
  5
3D8
330
1F
100
AcDbEntity
  8
SLD-0_0
  6
Continuous
 62
   179
370
    25
100
AcDbSpline
210
0.0
220
0.0
230
1.0
 70
     8
 71
     3
 72
    27
 73
    23
 74
     0
 42
0.000000001
 43
0.00000001
 40
0.0
 40
0.0
 40
0.0
 40
0.0
 40
0.1249999999999975
 40
0.1249999999999975
 40
0.249999999999995
 40
0.249999999999995
 40
0.3124999999999951
 40
0.3124999999999951
 40
0.3749999999999952
 40
0.3749999999999952
 40
0.4999999999999961
 40
0.4999999999999961
 40
0.624999999999997
 40
0.624999999999997
 40
0.749999999999998
 40
0.749999999999998
 40
0.8749999999999989
 40
0.8749999999999989
 40
0.9374999999999992
 40
0.9687499999999997
 40
0.9687499999999997
 40
1.0
 40
1.0
 40
1.0
 40
1.0
 10
170.8485386649465
 20
343.6786986802687
 30
0.0
 10
170.4360901785043
 20
343.6152599829192
 30
0.0
 10
170.0214720416891
 20
343.5069233864021
 30
0.0
 10
169.1873926218105
 20
343.198928241151
 30
0.0
 10
168.7785172726331
 20
343.0028826523701
 30
0.0
 10
168.1826740880088
 20
342.6524476792354
 30
0.0
 10
167.9866284485183
 20
342.526041193534
 30
0.0
 10
167.5996273348868
 20
342.2539818374214
 30
0.0
 10
167.4077786429737
 20
342.1075337286049
 30
0.0
 10
166.8495289667706
 20
341.6467198182835
 30
0.0
 10
166.4985975541917
 20
341.3103644962687
 30
0.0
 10
165.8367174636082
 20
340.5822591834246
 30
0.0
 10
165.5234212181524
 20
340.1865118453042
 30
0.0
 10
164.9563301644889
 20
339.3655217547344
 30
0.0
 10
164.700600299236
 20
338.9390545378451
 30
0.0
 10
164.2426549223838
 20
338.0554380095124
 30
0.0
 10
164.0400762393138
 20
337.5959248209758
 30
0.0
 10
163.7854305142204
 20
336.9057435591953
 30
0.0
 10
163.6697247506632
 20
336.559200602913
 30
0.0
 10
163.5711732344238
 20
336.2105931446921
 30
0.0
 10
163.5092872521087
 20
335.9777388738638
 30
0.0
 10
163.4799493771208
 20
335.8598184830074
 30
0.0
 10
163.453197474349
 20
335.7445065316377
 30
0.0
  0
SPLINE
  5
3D9
330
1F
100
AcDbEntity
  8
SLD-0_0
  6
Continuous
 62
   179
370
    25
100
AcDbSpline
210
0.0
220
0.0
230
1.0
 70
     8
 71
     3
 72
    14
 73
    10
 74
     0
 42
0.000000001
 43
0.00000001
 40
0.0
 40
0.0
 40
0.0
 40
0.0
 40
0.25
 40
0.25
 40
0.5
 40
0.5
 40
0.75
 40
0.75
 40
1.0
 40
1.0
 40
1.0
 40
1.0
 10
173.9366625191145
 20
343.7445065316377
 30
0.0
 10
173.6296559357407
 20
343.7445065316377
 30
0.0
 10
173.3349300408038
 20
343.7390204643109
 30
0.0
 10
172.7660866389935
 20
343.7247880340288
 30
0.0
 10
172.4902064648964
 20
343.7159017922449
 30
0.0
 10
171.9698647173576
 20
343.6997688391054
 30
0.0
 10
171.7248471246119
 20
343.6924926577399
 30
0.0
 10
171.2634318593652
 20
343.6821442202187
 30
0.0
 10
171.0469373102241
 20
343.6790837961179
 30
0.0
 10
170.8485386649465
 20
343.6786986802687
 30
0.0
  0
SPLINE
  5
3DA
330
1F
100
AcDbEntity
  8
SLD-0_0
  6
Continuous
 62
   179
370
    25
100
AcDbSpline
210
0.0
220
0.0
230
1.0
 70
     8
 71
     3
 72
    29
 73
    25
 74
     0
 42
0.000000001
 43
0.00000001
 40
0.0
 40
0.0
 40
0.0
 40
0.0
 40
0.1250000000000121
 40
0.1250000000000121
 40
0.1875000000000149
 40
0.1875000000000149
 40
0.2500000000000177
 40
0.2500000000000177
 40
0.3750000000000165
 40
0.3750000000000165
 40
0.5000000000000154
 40
0.5000000000000154
 40
0.6250000000000142
 40
0.6250000000000142
 40
0.6875000000000119
 40
0.6875000000000119
 40
0.7500000000000094
 40
0.8125000000000071
 40
0.8125000000000071
 40
0.8750000000000048
 40
0.8750000000000048
 40
0.9375000000000023
 40
0.9375000000000023
 40
1.0
 40
1.0
 40
1.0
 40
1.0
 10
214.996817230978
 20
335.7445087012801
 30
0.0
 10
214.996817230978
 20
336.27284351543
 30
0.0
 10
214.9959974916014
 20
336.7923488819606
 30
0.0
 10
214.9935893036038
 20
337.5589049229884
 30
0.0
 10
214.992588697478
 20
337.8122908675324
 30
0.0
 10
214.9901830144435
 20
338.3147001728221
 30
0.0
 10
214.9887711444687
 20
338.5644066979635
 30
0.0
 10
214.9840151606076
 20
339.2907775317536
 30
0.0
 10
214.9801358685309
 20
339.750125535808
 30
0.0
 10
214.9709772831263
 20
340.6194780246123
 30
0.0
 10
214.9656493343846
 20
341.0311017308171
 30
0.0
 10
214.9540212680185
 20
341.7689528555213
 30
0.0
 10
214.9476812367915
 20
342.1000709330079
 30
0.0
 10
214.9373683754072
 20
342.5387012843156
 30
0.0
 10
214.9337968778541
 20
342.6749066292981
 30
0.0
 10
214.9265420222357
 20
342.9217917308868
 30
0.0
 10
214.9191372548816
 20
343.1448642049
 30
0.0
 10
214.9114387554922
 20
343.3210383216824
 30
0.0
 10
214.9035921368926
 20
343.4734485523151
 30
0.0
 10
214.8995773255124
 20
343.5379750631807
 30
0.0
 10
214.8914842945368
 20
343.6411677195075
 30
0.0
 10
214.8874171752065
 20
343.679825505012
 30
0.0
 10
214.8792426589158
 20
343.731513418053
 30
0.0
 10
214.875089711661
 20
343.7445087012801
 30
0.0
 10
214.8710243278028
 20
343.7445087012801
 30
0.0
  0
SPLINE
  5
3DB
330
1F
100
AcDbEntity
  8
SLD-0_0
  6
Continuous
 62
   179
370
    25
100
AcDbSpline
210
0.0
220
0.0
230
1.0
 70
     8
 71
     3
 72
     8
 73
     4
 74
     0
 42
0.000000001
 43
0.00000001
 40
0.0
 40
0.0
 40
0.0
 40
0.0
 40
1.0
 40
1.0
 40
1.0
 40
1.0
 10
199.745644145299
 20
335.7445107238574
 30
0.0
 10
199.7456441452979
 20
336.2481163846564
 30
0.0
 10
199.7774333068139
 20
336.7480311298756
 30
0.0
 10
199.8298948706196
 20
337.2445107238598
 30
0.0
  0
SPLINE
  5
3DC
330
1F
100
AcDbEntity
  8
SLD-0_0
  6
Continuous
 62
   179
370
    25
100
AcDbSpline
210
0.0
220
0.0
230
1.0
 70
     8
 71
     3
 72
    22
 73
    18
 74
     0
 42
0.000000001
 43
0.00000001
 40
0.0
 40
0.0
 40
0.0
 40
0.0
 40
0.2500000000000084
 40
0.2500000000000084
 40
0.3750000000000125
 40
0.3750000000000125
 40
0.4375000000000105
 40
0.4375000000000105
 40
0.5000000000000084
 40
0.5000000000000084
 40
0.5625000000000064
 40
0.5625000000000064
 40
0.6250000000000044
 40
0.6250000000000044
 40
0.7500000000000022
 40
0.7500000000000022
 40
1.0
 40
1.0
 40
1.0
 40
1.0
 10
199.8298948706196
 20
337.2445107238598
 30
0.0
 10
199.5192358593676
 20
337.4365039867006
 30
0.0
 10
199.2119334374509
 20
337.6283741096329
 30
0.0
 10
198.7520203394085
 20
337.9095450893548
 30
0.0
 10
198.5992104431841
 20
338.0027590868496
 30
0.0
 10
198.3650409870141
 20
338.1322274343293
 30
0.0
 10
198.2863607875204
 20
338.1738297903074
 30
0.0
 10
198.1214881770263
 20
338.2427716397971
 30
0.0
 10
198.033831253662
 20
338.2698731799326
 30
0.0
 10
197.8482666149291
 20
338.2690710691404
 30
0.0
 10
197.7560176440176
 20
338.2412599944271
 30
0.0
 10
197.5805850932111
 20
338.171633937189
 30
0.0
 10
197.4960175076984
 20
338.1300169243776
 30
0.0
 10
197.2445159648873
 20
338.0007646444192
 30
0.0
 10
197.0801512049546
 20
337.907831449736
 30
0.0
 10
196.5889113243127
 20
337.627343009228
 30
0.0
 10
196.2650770297824
 20
337.4360129948353
 30
0.0
 10
195.9427075294265
 20
337.2445107238577
 30
0.0
  0
SPLINE
  5
3DD
330
1F
100
AcDbEntity
  8
SLD-0_0
  6
Continuous
 62
   179
370
    25
100
AcDbSpline
210
0.0
220
0.0
230
1.0
 70
     8
 71
     3
 72
     8
 73
     4
 74
     0
 42
0.000000001
 43
0.00000001
 40
0.0
 40
0.0
 40
0.0
 40
0.0
 40
1.0
 40
1.0
 40
1.0
 40
1.0
 10
195.9427075294265
 20
337.2445107238577
 30
0.0
 10
195.9484629225589
 20
336.7480311298744
 30
0.0
 10
195.9569506222907
 20
336.2481163846559
 30
0.0
 10
195.9569506222907
 20
335.7445107238576
 30
0.0
  0
SPLINE
  5
3DE
330
1F
100
AcDbEntity
  8
SLD-0_0
  6
Continuous
 62
   179
370
    25
100
AcDbSpline
210
0.0
220
0.0
230
1.0
 70
     8
 71
     3
 72
     8
 73
     4
 74
     0
 42
0.000000001
 43
0.00000001
 40
0.0
 40
0.0
 40
0.0
 40
0.0
 40
1.0
 40
1.0
 40
1.0
 40
1.0
 10
253.15398863486
 20
343.6886869159268
 30
0.0
 10
252.7520678347114
 20
343.7214788471528
 30
0.0
 10
252.3499660663236
 20
343.7445087012801
 30
0.0
 10
251.9471558558029
 20
343.7445087012801
 30
0.0
  0
SPLINE
  5
3DF
330
1F
100
AcDbEntity
  8
SLD-0_0
  6
Continuous
 62
   179
370
    25
100
AcDbSpline
210
0.0
220
0.0
230
1.0
 70
     8
 71
     3
 72
     8
 73
     4
 74
     0
 42
0.000000001
 43
0.00000001
 40
0.0
 40
0.0
 40
0.0
 40
0.0
 40
1.0
 40
1.0
 40
1.0
 40
1.0
 10
170.8485386649465
 20
343.6786986802687
 30
0.0
 10
170.9347928183384
 20
343.6919654306921
 30
0.0
 10
171.0133363735445
 20
343.7104717727811
 30
0.0
 10
171.0844125818624
 20
343.7342009135402
 30
0.0
  0
SPLINE
  5
3E0
330
1F
100
AcDbEntity
  8
SLD-0_0
  6
Continuous
 62
   179
370
    25
100
AcDbSpline
210
0.0
220
0.0
230
1.0
 70
     8
 71
     3
 72
    20
 73
    16
 74
     0
 42
0.000000001
 43
0.00000001
 40
0.0
 40
0.0
 40
0.0
 40
0.0
 40
0.2499999999999903
 40
0.2499999999999903
 40
0.3749999999999919
 40
0.3749999999999919
 40
0.4999999999999936
 40
0.4999999999999936
 40
0.6249999999999952
 40
0.6249999999999952
 40
0.7499999999999968
 40
0.7499999999999968
 40
0.8749999999999984
 40
0.8749999999999984
 40
1.0
 40
1.0
 40
1.0
 40
1.0
 10
171.0844125818624
 20
343.7342009135402
 30
0.0
 10
171.3185996578368
 20
343.812385417487
 30
0.0
 10
171.5506031819778
 20
343.9447204019129
 30
0.0
 10
171.8875351198168
 20
344.2215709765918
 30
0.0
 10
171.9952823380115
 20
344.3248301569897
 30
0.0
 10
172.2017332891611
 20
344.5524941448092
 30
0.0
 10
172.3012122156728
 20
344.6780778605475
 30
0.0
 10
172.4865663871808
 20
344.9453809282583
 30
0.0
 10
172.5718821084641
 20
345.0859509768559
 30
0.0
 10
172.7285078869548
 20
345.3800859170285
 30
0.0
 10
172.8002830981234
 20
345.53495384967
 30
0.0
 10
172.9268906288761
 20
345.8499984902446
 30
0.0
 10
172.9818960105821
 20
346.0100802895642
 30
0.0
 10
173.0766728019118
 20
346.3349362706797
 30
0.0
 10
173.1169182887812
 20
346.5022677025224
 30
0.0
 10
173.1486113268056
 20
346.6660928080354
 30
0.0
  0
SPLINE
  5
3E1
330
1F
100
AcDbEntity
  8
SLD-0_0
  6
Continuous
 62
   179
370
    25
100
AcDbSpline
210
0.0
220
0.0
230
1.0
 70
     8
 71
     3
 72
    22
 73
    18
 74
     0
 42
0.000000001
 43
0.00000001
 40
0.0
 40
0.0
 40
0.0
 40
0.0
 40
0.125000000000001
 40
0.125000000000001
 40
0.250000000000002
 40
0.250000000000002
 40
0.375000000000003
 40
0.375000000000003
 40
0.500000000000004
 40
0.500000000000004
 40
0.7500000000000042
 40
0.7500000000000042
 40
0.8750000000000033
 40
0.8750000000000033
 40
0.9375000000000017
 40
0.9375000000000017
 40
1.0
 40
1.0
 40
1.0
 40
1.0
 10
172.183119543914
 20
548.6445107238576
 30
0.0
 10
172.1831195439139
 20
548.9897358979985
 30
0.0
 10
172.148321011367
 20
549.3294686517312
 30
0.0
 10
172.0112880515254
 20
549.9983094521889
 30
0.0
 10
171.9088404219595
 20
550.3249077519883
 30
0.0
 10
171.644937482941
 20
550.9432713678458
 30
0.0
 10
171.4817725376471
 20
551.2384565288294
 30
0.0
 10
171.1102161695321
 20
551.7786986410696
 30
0.0
 10
170.9004081660489
 20
552.027298210015
 30
0.0
 10
170.2017507433462
 20
552.7075871157145
 30
0.0
 10
169.67592984468
 20
553.0477602234909
 30
0.0
 10
168.8034799548465
 20
553.4032332585018
 30
0.0
 10
168.5008804613649
 20
553.4935927399683
 30
0.0
 10
168.0395908274408
 20
553.5839778582739
 30
0.0
 10
167.8844625019721
 20
553.606651626888
 30
0.0
 10
167.5726483810155
 20
553.6369209244369
 30
0.0
 10
167.4149172707354
 20
553.6445107238576
 30
0.0
 10
167.2592666192065
 20
553.6445107238576
 30
0.0
  0
SPLINE
  5
3E2
330
1F
100
AcDbEntity
  8
SLD-0_0
  6
Continuous
 62
   179
370
    25
100
AcDbSpline
210
0.0
220
0.0
230
1.0
 70
     8
 71
     3
 72
    26
 73
    22
 74
     0
 42
0.000000001
 43
0.00000001
 40
0.0
 40
0.0
 40
0.0
 40
0.0
 40
0.1249999999999989
 40
0.1249999999999989
 40
0.1874999999999988
 40
0.1874999999999988
 40
0.2499999999999986
 40
0.2499999999999986
 40
0.3749999999999993
 40
0.3749999999999993
 40
0.5
 40
0.5
 40
0.6250000000000007
 40
0.6250000000000007
 40
0.7500000000000013
 40
0.7500000000000013
 40
0.875000000000002
 40
0.875000000000002
 40
0.937500000000001
 40
0.937500000000001
 40
1.0
 40
1.0
 40
1.0
 40
1.0
 10
179.2635171506081
 20
548.6445107238576
 30
0.0
 10
179.2635171506081
 20
548.9750566939429
 30
0.0
 10
179.2958716997275
 20
549.3000553821362
 30
0.0
 10
179.3909359098687
 20
549.7795760168766
 30
0.0
 10
179.4304371838237
 20
549.9380767655177
 30
0.0
 10
179.5254213769313
 20
550.252338727159
 30
0.0
 10
179.5811615652212
 20
550.4084920417628
 30
0.0
 10
179.768926026283
 20
550.8626494526815
 30
0.0
 10
179.9221049494795
 20
551.1498148251296
 30
0.0
 10
180.2839484520154
 20
551.6932345029355
 30
0.0
 10
180.4944464602602
 20
551.95037437391
 30
0.0
 10
180.9541218578474
 20
552.4112255551053
 30
0.0
 10
181.2049207152897
 20
552.61803039443
 30
0.0
 10
181.7494516404649
 20
552.9832813047888
 30
0.0
 10
182.0390641845929
 20
553.1383383658443
 30
0.0
 10
182.6380962577832
 20
553.3875336815626
 30
0.0
 10
182.9514915264116
 20
553.4834514924162
 30
0.0
 10
183.434061012431
 20
553.5800213261094
 30
0.0
 10
183.595856687565
 20
553.6041419745636
 30
0.0
 10
183.9213088246258
 20
553.6363960050439
 30
0.0
 10
184.0868599700266
 20
553.6445107238576
 30
0.0
 10
184.248993486262
 20
553.6445107238576
 30
0.0
  0
SPLINE
  5
3E3
330
1F
100
AcDbEntity
  8
SLD-0_0
  6
Continuous
 62
   179
370
    25
100
AcDbSpline
210
0.0
220
0.0
230
1.0
 70
     8
 71
     3
 72
    20
 73
    16
 74
     0
 42
0.000000001
 43
0.00000001
 40
0.0
 40
0.0
 40
0.0
 40
0.0
 40
0.2499999999999855
 40
0.2499999999999855
 40
0.3749999999999879
 40
0.3749999999999879
 40
0.4999999999999903
 40
0.4999999999999903
 40
0.6249999999999928
 40
0.6249999999999928
 40
0.7499999999999951
 40
0.7499999999999951
 40
0.8749999999999976
 40
0.8749999999999976
 40
1.0
 40
1.0
 40
1.0
 40
1.0
 10
179.0818934740361
 20
346.3183336712773
 30
0.0
 10
179.1330007318798
 20
345.9610027952838
 30
0.0
 10
179.2459620054055
 20
345.6213310286172
 30
0.0
 10
179.5036891342282
 20
345.1481209845073
 30
0.0
 10
179.602451265793
 20
345.000203310273
 30
0.0
 10
179.8248500850697
 20
344.7233669298063
 30
0.0
 10
179.9497776610346
 20
344.593388593463
 30
0.0
 10
180.2195899969472
 20
344.3590596486629
 30
0.0
 10
180.3633066616122
 20
344.2552702586991
 30
0.0
 10
180.6679861559452
 20
344.0738657483914
 30
0.0
 10
180.8307035975128
 20
343.9957071489607
 30
0.0
 10
181.1639936302937
 20
343.8710822946611
 30
0.0
 10
181.3345360656774
 20
343.8241677232757
 30
0.0
 10
181.6833374461082
 20
343.7608171571347
 30
0.0
 10
181.8648088361539
 20
343.7445107238605
 30
0.0
 10
182.0416027739603
 20
343.7445107238603
 30
0.0
  0
SPLINE
  5
3E4
330
1F
100
AcDbEntity
  8
SLD-0_0
  6
Continuous
 62
   179
370
    25
100
AcDbSpline
210
0.0
220
0.0
230
1.0
 70
     8
 71
     3
 72
    10
 73
     6
 74
     0
 42
0.000000001
 43
0.00000001
 40
0.0
 40
0.0
 40
0.0
 40
0.0
 40
0.5
 40
0.5
 40
1.0
 40
1.0
 40
1.0
 40
1.0
 10
179.0574932715413
 20
346.7445107238636
 30
0.0
 10
179.0558343202655
 20
346.683072330185
 30
0.0
 10
179.0561972576687
 20
346.6176788587462
 30
0.0
 10
179.0635818499037
 20
346.4735723916485
 30
0.0
 10
179.0706305501054
 20
346.3970815956278
 30
0.0
 10
179.0818934740361
 20
346.3183336712773
 30
0.0
  0
SPLINE
  5
3E5
330
1F
100
AcDbEntity
  8
SLD-0_0
  6
Continuous
 62
   179
370
    25
100
AcDbSpline
210
0.0
220
0.0
230
1.0
 70
     8
 71
     3
 72
    18
 73
    14
 74
     0
 42
0.000000001
 43
0.00000001
 40
0.0
 40
0.0
 40
0.0
 40
0.0
 40
0.2500000000000009
 40
0.2500000000000009
 40
0.3750000000000014
 40
0.3750000000000014
 40
0.5000000000000019
 40
0.5000000000000019
 40
0.7500000000000029
 40
0.7500000000000029
 40
0.8750000000000014
 40
0.8750000000000014
 40
1.0
 40
1.0
 40
1.0
 40
1.0
 10
179.2635171506081
 20
363.7445107238576
 30
0.0
 10
179.2635171506081
 20
362.196124077478
 30
0.0
 10
179.2588439312407
 20
360.670365485641
 30
0.0
 10
179.2452171938423
 20
358.4137671302119
 30
0.0
 10
179.2395676291911
 20
357.6669293936151
 30
0.0
 10
179.2260614192294
 20
356.18394075911
 30
0.0
 10
179.2181605342961
 20
355.4444400604526
 30
0.0
 10
179.1914727270315
 20
353.2716580799641
 30
0.0
 10
179.1697886887408
 20
351.8842079361539
 30
0.0
 10
179.1317755164925
 20
349.8891298935877
 30
0.0
 10
179.1181840538206
 20
349.2385457661436
 30
0.0
 10
179.0891522428321
 20
347.9663879899763
 30
0.0
 10
179.0736820757363
 20
347.3440546283754
 30
0.0
 10
179.0574932715413
 20
346.7445107238636
 30
0.0
  0
SPLINE
  5
3E6
330
1F
100
AcDbEntity
  8
SLD-0_0
  6
Continuous
 62
   179
370
    25
100
AcDbSpline
210
0.0
220
0.0
230
1.0
 70
     8
 71
     3
 72
    18
 73
    14
 74
     0
 42
0.000000001
 43
0.00000001
 40
0.0
 40
0.0
 40
0.0
 40
0.0
 40
0.2499999999999979
 40
0.2499999999999979
 40
0.3749999999999992
 40
0.3749999999999992
 40
0.5000000000000006
 40
0.5000000000000006
 40
0.7500000000000002
 40
0.7500000000000002
 40
0.8750000000000001
 40
0.8750000000000001
 40
1.0
 40
1.0
 40
1.0
 40
1.0
 10
268.3183294057822
 20
341.2355604883685
 30
0.0
 10
267.9412188130023
 20
341.6341481468172
 30
0.0
 10
267.5301043594746
 20
341.9874491233992
 30
0.0
 10
266.8645691286771
 20
342.4523184830443
 30
0.0
 10
266.6345153205871
 20
342.5963416054175
 30
0.0
 10
266.1575725139593
 20
342.8619638671299
 30
0.0
 10
265.9107088022016
 20
342.9833093539763
 30
0.0
 10
265.1617017506967
 20
343.3053558952064
 30
0.0
 10
264.645783000739
 20
343.467732763121
 30
0.0
 10
263.8470522023212
 20
343.6328606783857
 30
0.0
 10
263.575514496949
 20
343.6748035720365
 30
0.0
 10
263.0308122279284
 20
343.730543863483
 30
0.0
 10
262.7574980994463
 20
343.7445128934999
 30
0.0
 10
262.4832165717
 20
343.7445128935
 30
0.0
  0
SPLINE
  5
3E7
330
1F
100
AcDbEntity
  8
SLD-0_0
  6
Continuous
 62
   179
370
    25
100
AcDbSpline
210
0.0
220
0.0
230
1.0
 70
     8
 71
     3
 72
    10
 73
     6
 74
     0
 42
0.000000001
 43
0.00000001
 40
0.0
 40
0.0
 40
0.0
 40
0.0
 40
0.5
 40
0.5
 40
1.0
 40
1.0
 40
1.0
 40
1.0
 10
269.1894485175616
 20
335.7445107238579
 30
0.0
 10
269.1894485175616
 20
336.000858013081
 30
0.0
 10
269.1742641292478
 20
336.2542032436372
 30
0.0
 10
269.1141152718007
 20
336.7545905570977
 30
0.0
 10
269.0692162236183
 20
337.0016832483559
 30
0.0
 10
269.0079186534775
 20
337.2445107238575
 30
0.0
  0
SPLINE
  5
3E8
330
1F
100
AcDbEntity
  8
SLD-0_0
  6
Continuous
 62
   179
370
    25
100
AcDbSpline
210
0.0
220
0.0
230
1.0
 70
     8
 71
     3
 72
     8
 73
     4
 74
     0
 42
0.000000001
 43
0.00000001
 40
0.0
 40
0.0
 40
0.0
 40
0.0
 40
1.0
 40
1.0
 40
1.0
 40
1.0
 10
269.0079186534775
 20
337.2445107238575
 30
0.0
 10
268.9042445822468
 20
337.3542906980595
 30
0.0
 10
268.8012302139285
 20
337.4223454850588
 30
0.0
 10
268.7065939773553
 20
337.4203070950561
 30
0.0
  0
SPLINE
  5
3E9
330
1F
100
AcDbEntity
  8
SLD-0_0
  6
Continuous
 62
   179
370
    25
100
AcDbSpline
210
0.0
220
0.0
230
1.0
 70
     8
 71
     3
 72
    10
 73
     6
 74
     0
 42
0.000000001
 43
0.00000001
 40
0.0
 40
0.0
 40
0.0
 40
0.0
 40
0.5
 40
0.5
 40
1.0
 40
1.0
 40
1.0
 40
1.0
 10
268.4611047843401
 20
337.2445115821979
 30
0.0
 10
268.4868421180736
 20
337.0016841066966
 30
0.0
 10
268.5086817724007
 20
336.7545914154385
 30
0.0
 10
268.5383568014339
 20
336.2542041019786
 30
0.0
 10
268.5463314234378
 20
336.0008588714228
 30
0.0
 10
268.5463314234378
 20
335.7445115822001
 30
0.0
  0
SPLINE
  5
3EA
330
1F
100
AcDbEntity
  8
SLD-0_0
  6
Continuous
 62
   179
370
    25
100
AcDbSpline
210
0.0
220
0.0
230
1.0
 70
     8
 71
     3
 72
    11
 73
     7
 74
     0
 42
0.000000001
 43
0.00000001
 40
0.0
 40
0.0
 40
0.0
 40
0.0
 40
0.0688187873337771
 40
0.3207766435589484
 40
0.7168171889327701
 40
1.0
 40
1.0
 40
1.0
 40
1.0
 10
269.1894469141
 20
334.7445095556
 30
0.0
 10
269.1909404528571
 20
334.6820244360126
 30
0.0
 10
269.19790210342
 20
334.3907701476104
 30
0.0
 10
269.3480672992877
 20
333.7572270117928
 30
0.0
 10
269.7484771300025
 20
333.0233793234904
 30
0.0
 10
270.2134687305673
 20
332.6148429268757
 30
0.0
 10
270.4073337196343
 20
332.4445153253296
 30
0.0
  0
SPLINE
  5
3EB
330
1F
100
AcDbEntity
  8
SLD-0_0
  6
Continuous
 62
   179
370
    25
100
AcDbSpline
210
0.0
220
0.0
230
1.0
 70
     8
 71
     3
 72
    14
 73
    10
 74
     0
 42
0.000000001
 43
0.00000001
 40
0.0
 40
0.0
 40
0.0
 40
0.0
 40
0.25
 40
0.25
 40
0.5
 40
0.5
 40
0.75
 40
0.75
 40
1.0
 40
1.0
 40
1.0
 40
1.0
 10
152.4979126038368
 20
548.6445107238653
 30
0.0
 10
152.4979126038368
 20
548.9789774120071
 30
0.0
 10
152.46468405119
 20
549.3073060701745
 30
0.0
 10
152.3350111632045
 20
549.9522860581038
 30
0.0
 10
152.2374468768818
 20
550.2714861883622
 30
0.0
 10
151.9798009714367
 20
550.8855753542755
 30
0.0
 10
151.8221787423064
 20
551.1761267794046
 30
0.0
 10
151.4501478270213
 20
551.7247082598782
 30
0.0
 10
151.2345069126672
 20
551.9831071562251
 30
0.0
 10
150.9968317434807
 20
552.2159289059674
 30
0.0
  0
SPLINE
  5
3EC
330
1F
100
AcDbEntity
  8
SLD-0_0
  6
Continuous
 62
   179
370
    25
100
AcDbSpline
210
0.0
220
0.0
230
1.0
 70
     8
 71
     3
 72
    12
 73
     8
 74
     0
 42
0.000000001
 43
0.00000001
 40
0.0
 40
0.0
 40
0.0
 40
0.0
 40
0.5
 40
0.5
 40
0.75
 40
0.75
 40
1.0
 40
1.0
 40
1.0
 40
1.0
 10
179.471998279946
 20
371.7445045948355
 30
0.0
 10
179.471998279946
 20
372.2164393662588
 30
0.0
 10
179.4765854907597
 20
372.6816580941857
 30
0.0
 10
179.4859060169672
 20
373.3571251778421
 30
0.0
 10
179.4893141670231
 20
373.5770411158442
 30
0.0
 10
179.4947489037342
 20
373.9970877661104
 30
0.0
 10
179.4968144774
 20
374.1985632485306
 30
0.0
 10
179.4968144774
 20
374.3902559059
 30
0.0
  0
SPLINE
  5
3ED
330
1F
100
AcDbEntity
  8
SLD-0_0
  6
Continuous
 62
   179
370
    25
100
AcDbSpline
210
0.0
220
0.0
230
1.0
 70
     8
 71
     3
 72
     8
 73
     4
 74
     0
 42
0.000000001
 43
0.00000001
 40
0.0
 40
0.0
 40
0.0
 40
0.0
 40
0.000403204976085
 40
0.000403204976085
 40
0.000403204976085
 40
0.000403204976085
 10
275.480543373564
 20
331.7445107238831
 30
0.0
 10
275.4867465105186
 20
331.7445107238831
 30
0.0
 10
275.4905233175996
 20
331.7445170245646
 30
0.0
 10
275.4918554609693
 20
331.7445148225213
 30
0.0
  0
SPLINE
  5
3EE
330
1F
100
AcDbEntity
  8
SLD-0_0
  6
Continuous
 62
   179
370
    25
100
AcDbSpline
210
0.0
220
0.0
230
1.0
 70
     8
 71
     2
 72
     6
 73
     3
 74
     0
 42
0.000000001
 43
0.00000001
 40
0.0
 40
0.0
 40
0.0
 40
0.0010000122958547
 40
0.0010000122958547
 40
0.0010000122958547
 10
275.4918554609693
 20
331.7445148225213
 30
0.0
 10
275.4951615757924
 20
331.7445093574881
 30
0.0
 10
275.496814477386
 20
331.7445107238779
 30
0.0
  0
SPLINE
  5
3EF
330
1F
100
AcDbEntity
  8
SLD-0_0
  6
Continuous
 62
   179
370
    25
100
AcDbSpline
210
0.0
220
0.0
230
1.0
 70
     8
 71
     3
 72
    14
 73
    10
 74
     0
 42
0.000000001
 43
0.00000001
 40
0.0
 40
0.0
 40
0.0
 40
0.0
 40
0.25
 40
0.25
 40
0.5
 40
0.5
 40
0.75
 40
0.75
 40
1.0
 40
1.0
 40
1.0
 40
1.0
 10
152.496823474565
 20
548.6445107238653
 30
0.0
 10
152.496823474565
 20
548.9788931025091
 30
0.0
 10
152.463619632528
 20
549.3071405248355
 30
0.0
 10
152.3340430931579
 20
549.9519639129941
 30
0.0
 10
152.236553984332
 20
550.2710824685581
 30
0.0
 10
151.9790933100492
 20
550.8850504870309
 30
0.0
 10
151.8215836110937
 20
551.1755489708504
 30
0.0
 10
151.4498201797693
 20
551.7240419266934
 30
0.0
 10
151.2343281824692
 20
551.9824148215481
 30
0.0
 10
150.9968144988581
 20
552.2152249381293
 30
0.0
  0
SPLINE
  5
3F0
330
1F
100
AcDbEntity
  8
SLD-0_0
  6
Continuous
 62
   179
370
    25
100
AcDbSpline
210
0.0
220
0.0
230
1.0
 70
     8
 71
     3
 72
    16
 73
    12
 74
     0
 42
0.000000001
 43
0.00000001
 40
0.0
 40
0.0
 40
0.0
 40
0.0
 40
0.7378250629578857
 40
0.790716473108237
 40
0.8205012981178335
 40
0.8403244026460881
 40
0.8552210306304492
 40
0.8701746392434584
 40
0.8882888038463296
 40
0.9196029913642654
 40
0.9999999999999999
 40
0.9999999999999999
 40
0.9999999999999999
 40
0.9999999999999999
 10
165.1183410312912
 20
617.6445110759428
 30
0.0
 10
165.1321948786586
 20
617.808628283693
 30
0.0
 10
165.1470418469703
 20
617.9845103270169
 30
0.0
 10
165.2057502556912
 20
618.1424276686838
 30
0.0
 10
165.2157526138335
 20
618.1593988190245
 30
0.0
 10
165.2236910283601
 20
618.167339427535
 30
0.0
 10
165.2308273167871
 20
618.1701604055141
 30
0.0
 10
165.2379317682632
 20
618.1688932851165
 30
0.0
 10
165.2463780841756
 20
618.1621846938135
 30
0.0
 10
165.2596339315883
 20
618.1412132676725
 30
0.0
 10
165.2666439020117
 20
618.1188629079448
 30
0.0
 10
165.2716888811371
 20
618.1027776620081
 30
0.0
  0
SPLINE
  5
3F1
330
1F
100
AcDbEntity
  8
SLD-0_0
  6
Continuous
 62
   179
370
    25
100
AcDbSpline
210
0.0
220
0.0
230
1.0
 70
     8
 71
     3
 72
    16
 73
    12
 74
     0
 42
0.000000001
 43
0.00000001
 40
0.0
 40
0.0
 40
0.0
 40
0.0
 40
0.0956446225888204
 40
0.1148885092518258
 40
0.134340995585804
 40
0.1484569558210425
 40
0.1625319478738766
 40
0.1864034215802695
 40
0.2489337997266713
 40
0.4978743239698096
 40
1.0
 40
1.0
 40
1.0
 40
1.0
 10
170.8418405649015
 20
618.1027779503203
 30
0.0
 10
170.8486124779901
 20
618.1222857106114
 30
0.0
 10
170.8567469133452
 20
618.1457184707396
 30
0.0
 10
170.8737289093253
 20
618.164999941175
 30
0.0
 10
170.8819285733106
 20
618.1697110034747
 30
0.0
 10
170.8899326006549
 20
618.1697414585818
 30
0.0
 10
170.8981451771055
 20
618.1659226165776
 30
0.0
 10
170.9113901840817
 20
618.1520882682412
 30
0.0
 10
170.9410831997922
 20
618.0885897180301
 30
0.0
 10
170.9784742806575
 20
617.9153380562765
 30
0.0
 10
171.0004495155417
 20
617.7530255019459
 30
0.0
 10
171.0151410695858
 20
617.644511364255
 30
0.0
  0
SPLINE
  5
3F2
330
1F
100
AcDbEntity
  8
SLD-0_0
  6
Continuous
 62
   179
370
    25
100
AcDbSpline
210
0.0
220
0.0
230
1.0
 70
     8
 71
     3
 72
    12
 73
     8
 74
     0
 42
0.000000001
 43
0.00000001
 40
0.0
 40
0.0
 40
0.0
 40
0.0
 40
0.2172470157338524
 40
0.4345302332775672
 40
0.6508321730927276
 40
0.8651891531191294
 40
1.0
 40
1.0
 40
1.0
 40
1.0
 10
158.5008322027082
 20
613.6445104202752
 30
0.0
 10
158.3952389075944
 20
613.6557118373812
 30
0.0
 10
158.1840347214133
 20
613.6781165381852
 30
0.0
 10
157.9028533754769
 20
613.8530514269438
 30
0.0
 10
157.6920507020404
 20
614.1100586193654
 30
0.0
 10
157.5832068608383
 20
614.3907254876412
 30
0.0
 10
157.5724111609623
 20
614.5738181425168
 30
0.0
 10
157.5682430293912
 20
614.6445087215428
 30
0.0
  0
SPLINE
  5
3F3
330
1F
100
AcDbEntity
  8
SLD-0_0
  6
Continuous
 62
   179
370
    25
100
AcDbSpline
210
0.0
220
0.0
230
1.0
 70
     8
 71
     3
 72
    26
 73
    22
 74
     0
 42
0.000000001
 43
0.00000001
 40
0.0
 40
0.0
 40
0.0
 40
0.0
 40
0.2491815316655783
 40
0.4972973081772273
 40
0.6633060325404322
 40
0.7743875032120254
 40
0.8487268806557796
 40
0.8984860454378738
 40
0.9318042734382341
 40
0.9541248205272462
 40
0.9690880611883311
 40
0.9791318675097445
 40
0.9858848847056713
 40
0.9904382221589182
 40
0.9935200388580142
 40
0.9956199463417862
 40
0.9970645563401581
 40
0.9985357645100664
 40
0.9991380106720266
 40
0.9996498302393538
 40
1.0
 40
1.0
 40
1.0
 40
1.0
 10
193.3049387332747
 20
617.6445113642545
 30
0.0
 10
193.3003437765279
 20
617.3113850786707
 30
0.0
 10
193.2911735157703
 20
616.6465572963041
 30
0.0
 10
193.2771083832626
 20
615.7599680076389
 30
0.0
 10
193.2642080867264
 20
615.0581635976466
 30
0.0
 10
193.2540848683459
 20
614.5887596397982
 30
0.0
 10
193.2461068446124
 20
614.2748136049892
 30
0.0
 10
193.2397843558218
 20
614.0648517328133
 30
0.0
 10
193.2347475442509
 20
613.9244442752483
 30
0.0
 10
193.2307129286036
 20
613.8305578837497
 30
0.0
 10
193.2274700078671
 20
613.7677885552296
 30
0.0
 10
193.2248489531858
 20
613.7258281189727
 30
0.0
 10
193.2227206592936
 20
613.6977877733765
 30
0.0
 10
193.2209821533082
 20
613.6790510774509
 30
0.0
 10
193.2195474664927
 20
613.6665545180242
 30
0.0
 10
193.2183606665404
 20
613.6582102368872
 30
0.0
 10
193.2172539847825
 20
613.6521355102841
 30
0.0
 10
193.2162693676547
 20
613.6480868029595
 30
0.0
 10
193.2152947317145
 20
613.6456881440769
 30
0.0
 10
193.2146133682285
 20
613.6446723364004
 30
0.0
 10
193.2141617734242
 20
613.6445573998071
 30
0.0
 10
193.2139783200571
 20
613.6445107086034
 30
0.0
  0
SPLINE
  5
3F4
330
1F
100
AcDbEntity
  8
SLD-0_0
  6
Continuous
 62
   179
370
    25
100
AcDbSpline
210
0.0
220
0.0
230
1.0
 70
     8
 71
     3
 72
    12
 73
     8
 74
     0
 42
0.000000001
 43
0.00000001
 40
0.0
 40
0.0
 40
0.0
 40
0.0
 40
0.2145882914254053
 40
0.4291751634884255
 40
0.6438282211104542
 40
0.8585684572758179
 40
1.0
 40
1.0
 40
1.0
 40
1.0
 10
193.011245387449
 20
614.6445087215428
 30
0.0
 10
193.0009332658175
 20
614.5321243024789
 30
0.0
 10
192.9803090907624
 20
614.3073562077011
 30
0.0
 10
192.8196036316029
 20
614.007766483092
 30
0.0
 10
192.583419462484
 20
613.7815886007489
 30
0.0
 10
192.3220266114094
 20
613.6616245682283
 30
0.0
 10
192.1496228148938
 20
613.6493746971847
 30
0.0
 10
192.0811633345029
 20
613.6445104202752
 30
0.0
  0
SPLINE
  5
3F5
330
1F
100
AcDbEntity
  8
SLD-0_0
  6
Continuous
 62
   179
370
    25
100
AcDbSpline
210
0.0
220
0.0
230
1.0
 70
     8
 71
     3
 72
    12
 73
     8
 74
     0
 42
0.000000001
 43
0.00000001
 40
0.0
 40
0.0
 40
0.0
 40
0.0
 40
0.2153448700116976
 40
0.4306909446782473
 40
0.6459290693009238
 40
0.8606524553579065
 40
1.0
 40
1.0
 40
1.0
 40
1.0
 10
255.226087438741
 20
613.6445104353053
 30
0.0
 10
255.1410878133063
 20
613.6556114576673
 30
0.0
 10
254.9710880869432
 20
613.6778135644912
 30
0.0
 10
254.7431439671667
 20
613.8509050545861
 30
0.0
 10
254.5707386890845
 20
614.1055377929813
 30
0.0
 10
254.4797694933498
 20
614.3866220402756
 30
0.0
 10
254.4705607736771
 20
614.5716783102295
 30
0.0
 10
254.4669366058496
 20
614.6445087365729
 30
0.0
  0
SPLINE
  5
3F6
330
1F
100
AcDbEntity
  8
SLD-0_0
  6
Continuous
 62
   179
370
    25
100
AcDbSpline
210
0.0
220
0.0
230
1.0
 70
     8
 71
     3
 72
    11
 73
     7
 74
     0
 42
0.000000001
 43
0.00000001
 40
0.0
 40
0.0
 40
0.0
 40
0.0
 40
0.0043759900235513
 40
0.4131428723754046
 40
0.7514582152315462
 40
1.0
 40
1.0
 40
1.0
 40
1.0
 10
162.9225335834823
 20
606.144506537088
 30
0.0
 10
162.921985966946
 20
606.1434497505834
 30
0.0
 10
162.8702847821789
 20
606.0436771712107
 30
0.0
 10
162.7761910861149
 20
605.864431340406
 30
0.0
 10
162.6240545273306
 20
605.677476151861
 30
0.0
 10
162.5218445102105
 20
605.6543147043327
 30
0.0
 10
162.4785572110018
 20
605.644505523809
 30
0.0
  0
SPLINE
  5
3F7
330
1F
100
AcDbEntity
  8
SLD-0_0
  6
Continuous
 62
   179
370
    25
100
AcDbSpline
210
0.0
220
0.0
230
1.0
 70
     8
 71
     3
 72
    15
 73
    11
 74
     0
 42
0.000000001
 43
0.00000001
 40
0.0
 40
0.0
 40
0.0
 40
0.0
 40
0.0477622363565126
 40
0.1832828651364314
 40
0.2734777744291191
 40
0.3412572692050899
 40
0.4092960252196342
 40
0.4917152764998781
 40
0.6341944880042484
 40
1.0
 40
1.0
 40
1.0
 40
1.0
 10
259.0772508611012
 20
618.14035877483
 30
0.0
 10
259.0782473817598
 20
618.142240344969
 30
0.0
 10
259.0820714313738
 20
618.1494606845583
 30
0.0
 10
259.0887182722013
 20
618.159395999965
 30
0.0
 10
259.0976793992045
 20
618.1673403240343
 30
0.0
 10
259.1057334542164
 20
618.1701606697877
 30
0.0
 10
259.1137445777185
 20
618.1688937085837
 30
0.0
 10
259.1232739788168
 20
618.1621850578484
 30
0.0
 10
259.1382080386076
 20
618.1412136697137
 30
0.0
 10
259.1461060818132
 20
618.1188632996649
 30
0.0
 10
259.1517901946836
 20
618.1027780462998
 30
0.0
  0
SPLINE
  5
3F8
330
1F
100
AcDbEntity
  8
SLD-0_0
  6
Continuous
 62
   179
370
    25
100
AcDbSpline
210
0.0
220
0.0
230
1.0
 70
     8
 71
     3
 72
    16
 73
    12
 74
     0
 42
0.000000001
 43
0.00000001
 40
0.0
 40
0.0
 40
0.0
 40
0.0
 40
0.0956446225888204
 40
0.1148885092518258
 40
0.134340995585804
 40
0.1484569558210425
 40
0.1625319478738766
 40
0.1864034215802695
 40
0.2489337997266713
 40
0.4978743239698096
 40
1.0
 40
1.0
 40
1.0
 40
1.0
 10
264.7219414886869
 20
618.1027780345718
 30
0.0
 10
264.7279522909241
 20
618.1222857948629
 30
0.0
 10
264.735172478424
 20
618.145718554991
 30
0.0
 10
264.7502427467427
 20
618.1650000254265
 30
0.0
 10
264.7575079925035
 20
618.1697110877262
 30
0.0
 10
264.7646073014548
 20
618.1697415428333
 30
0.0
 10
264.7718806221066
 20
618.1659227008291
 30
0.0
 10
264.7836196143127
 20
618.1520883524927
 30
0.0
 10
264.8098857410312
 20
618.0885898022816
 30
0.0
 10
264.8429543544588
 20
617.915338140528
 30
0.0
 10
264.8623334408409
 20
617.7530255861974
 30
0.0
 10
264.8752893385329
 20
617.6445114485065
 30
0.0
  0
SPLINE
  5
3F9
330
1F
100
AcDbEntity
  8
SLD-0_0
  6
Continuous
 62
   179
370
    25
100
AcDbSpline
210
0.0
220
0.0
230
1.0
 70
     8
 71
     3
 72
    15
 73
    11
 74
     0
 42
0.000000001
 43
0.00000001
 40
0.0
 40
0.0
 40
0.0
 40
0.0
 40
0.0004701847320052
 40
0.0010634923116519
 40
0.0024843213039978
 40
0.0077510573683238
 40
0.0286323587384287
 40
0.1118824895644471
 40
0.444601844515126
 40
1.0
 40
1.0
 40
1.0
 40
1.0
 10
254.0815173615407
 20
613.6445108045787
 30
0.0
 10
254.081069971942
 20
613.6445959090199
 30
0.0
 10
254.0800580390439
 20
613.6447884034006
 30
0.0
 10
254.0781075692877
 20
613.6468170025554
 30
0.0
 10
254.0740840397179
 20
613.6548298065654
 30
0.0
 10
254.0659454769883
 20
613.6903328825136
 30
0.0
 10
254.0488937029892
 20
613.8344925365888
 30
0.0
 10
254.0129780691302
 20
614.4175292732084
 30
0.0
 10
253.9671598812168
 20
615.7146410107954
 30
0.0
 10
253.9369232930049
 20
616.9019864476887
 30
0.0
 10
253.9180143703412
 20
617.6445114602298
 30
0.0
  0
SPLINE
  5
3FA
330
1F
100
AcDbEntity
  8
SLD-0_0
  6
Continuous
 62
   179
370
    25
100
AcDbSpline
210
0.0
220
0.0
230
1.0
 70
     8
 71
     3
 72
    17
 73
    13
 74
     0
 42
0.000000001
 43
0.00000001
 40
0.4829279767813811
 40
0.4829279767813811
 40
0.4829279767813811
 40
0.4829279767813811
 40
0.5366498804268484
 40
0.5904066336147114
 40
0.644115360850852
 40
0.6977676496346626
 40
0.7514126267809239
 40
0.8050788117412316
 40
0.8587534435794618
 40
0.912423285327531
 40
0.9660955799739827
 40
1.0
 40
1.0
 40
1.0
 40
1.0
 10
260.6502247332694
 20
718.5270900504872
 30
0.0
 10
260.7709625895816
 20
718.7414686887479
 30
0.0
 10
260.9601554103725
 20
719.2323035294419
 30
0.0
 10
261.0584669749035
 20
720.0716036944655
 30
0.0
 10
260.9616636826618
 20
720.9190823195108
 30
0.0
 10
260.679863675178
 20
721.6787507186415
 30
0.0
 10
260.2415526225413
 20
722.2654278359453
 30
0.0
 10
259.6920932459307
 20
722.613041689211
 30
0.0
 10
259.0893822067151
 20
722.6830266880014
 30
0.0
 10
258.5041769554124
 20
722.4647627272251
 30
0.0
 10
258.0547087008983
 20
722.050625094365
 30
0.0
 10
257.8566450752044
 20
721.6886027164501
 30
0.0
 10
257.7799667894009
 20
721.5484494941518
 30
0.0
  0
SPLINE
  5
3FB
330
1F
100
AcDbEntity
  8
SLD-0_0
  6
Continuous
 62
   179
370
    25
100
AcDbSpline
210
0.0
220
0.0
230
1.0
 70
     8
 71
     3
 72
    16
 73
    12
 74
     0
 42
0.000000001
 43
0.00000001
 40
0.0
 40
0.0
 40
0.0
 40
0.0
 40
0.0536452874627784
 40
0.1072898765738979
 40
0.1609450300474416
 40
0.2146608298468657
 40
0.268418787855856
 40
0.322133062054661
 40
0.3757450147184089
 40
0.4293067653278935
 40
0.4829279767813811
 40
0.4829279767813811
 40
0.4829279767813811
 40
0.4829279767813811
 10
257.7799667894009
 20
721.5484494941518
 30
0.0
 10
257.6857589801674
 20
721.3004643976395
 30
0.0
 10
257.4973445880932
 20
720.8044974328725
 30
0.0
 10
257.4660664026597
 20
719.943996102654
 30
0.0
 10
257.6322923830094
 20
719.1174041337473
 30
0.0
 10
257.9911162554329
 20
718.4030430863636
 30
0.0
 10
258.4945615621533
 20
717.8855200882094
 30
0.0
 10
259.0827034922808
 20
717.6227768581781
 30
0.0
 10
259.6859138655331
 20
717.6444500035748
 30
0.0
 10
260.2367044183388
 20
717.9470491780146
 30
0.0
 10
260.529713178681
 20
718.3131132270087
 30
0.0
 10
260.6502247332694
 20
718.5270900504872
 30
0.0
  0
SPLINE
  5
3FC
330
1F
100
AcDbEntity
  8
SLD-0_0
  6
Continuous
 62
   179
370
    25
100
AcDbSpline
210
0.0
220
0.0
230
1.0
 70
     8
 71
     3
 72
    17
 73
    13
 74
     0
 42
0.000000001
 43
0.00000001
 40
0.4829279767813811
 40
0.4829279767813811
 40
0.4829279767813811
 40
0.4829279767813811
 40
0.5366498804268484
 40
0.5904066336147114
 40
0.644115360850852
 40
0.6977676496346626
 40
0.7514126267809239
 40
0.8050788117412316
 40
0.8587534435794618
 40
0.912423285327531
 40
0.9660955799739827
 40
1.0
 40
1.0
 40
1.0
 40
1.0
 10
172.0392999529006
 20
718.5270900504872
 30
0.0
 10
172.1757991250374
 20
718.7414686887479
 30
0.0
 10
172.3979234358879
 20
719.2323035294419
 30
0.0
 10
172.5370356456969
 20
720.0716036944655
 30
0.0
 10
172.464665991482
 20
720.9190823195108
 30
0.0
 10
172.1904203466427
 20
721.6787507186415
 30
0.0
 10
171.7486867846811
 20
722.2654278359453
 30
0.0
 10
171.1933595167657
 20
722.613041689211
 30
0.0
 10
170.5891805514132
 20
722.6830266880014
 30
0.0
 10
170.0081617874508
 20
722.4647627272251
 30
0.0
 10
169.5641151367909
 20
722.050625094365
 30
0.0
 10
169.3652588187703
 20
721.6886027164501
 30
0.0
 10
169.2882736503245
 20
721.5484494941518
 30
0.0
  0
SPLINE
  5
3FD
330
1F
100
AcDbEntity
  8
SLD-0_0
  6
Continuous
 62
   179
370
    25
100
AcDbSpline
210
0.0
220
0.0
230
1.0
 70
     8
 71
     3
 72
    16
 73
    12
 74
     0
 42
0.000000001
 43
0.00000001
 40
0.0
 40
0.0
 40
0.0
 40
0.0
 40
0.0536452874627784
 40
0.1072898765738979
 40
0.1609450300474416
 40
0.2146608298468657
 40
0.268418787855856
 40
0.322133062054661
 40
0.3757450147184089
 40
0.4293067653278935
 40
0.4829279767813811
 40
0.4829279767813811
 40
0.4829279767813811
 40
0.4829279767813811
 10
169.2882736503245
 20
721.5484494941518
 30
0.0
 10
169.1916527522883
 20
721.3004643976395
 30
0.0
 10
168.9984122140221
 20
720.8044974328725
 30
0.0
 10
168.9394252857469
 20
719.943996102654
 30
0.0
 10
169.0631869117266
 20
719.1174041337473
 30
0.0
 10
169.3723509025584
 20
718.4030430863636
 30
0.0
 10
169.8323627323941
 20
717.8855200882094
 30
0.0
 10
170.3960665872847
 20
717.6227768581781
 30
0.0
 10
171.0013549556839
 20
717.6444500035748
 30
0.0
 10
171.5799939327351
 20
717.9470491780146
 30
0.0
 10
171.9030566242822
 20
718.3131132270087
 30
0.0
 10
172.0392999529006
 20
718.5270900504872
 30
0.0
  0
SPLINE
  5
3FE
330
1F
100
AcDbEntity
  8
SLD-0_0
  6
Continuous
 62
   179
370
    25
100
AcDbSpline
210
0.0
220
0.0
230
1.0
 70
    24
 71
     3
 72
     9
 73
     5
 74
     0
 42
0.000000001
 43
0.00000001
 40
0.0
 40
0.0
 40
0.0
 40
0.0
 40
0.8971002319833269
 40
0.9999999999999999
 40
0.9999999999999999
 40
0.9999999999999999
 40
0.9999999999999999
 10
254.0724872578573
 20
617.6445114602298
 30
0.0
 10
254.0291839097153
 20
617.6445114602298
 30
0.0
 10
253.9809135530728
 20
617.6445114602299
 30
0.0
 10
253.9238828195868
 20
617.6445114602299
 30
0.0
 10
253.9180143703412
 20
617.6445114602299
 30
0.0
  0
SPLINE
  5
3FF
330
1F
100
AcDbEntity
  8
SLD-0_0
  6
Continuous
 62
   179
370
    25
100
AcDbSpline
210
0.0
220
0.0
230
1.0
 70
     8
 71
     3
 72
    11
 73
     7
 74
     0
 42
0.000000001
 43
0.00000001
 40
0.0
 40
0.0
 40
0.0
 40
0.0
 40
0.2282132468751547
 40
0.4548218317711415
 40
0.8026658871051678
 40
1.0
 40
1.0
 40
1.0
 40
1.0
 10
151.0072725260643
 20
618.4832322554764
 30
0.0
 10
150.9620387986009
 20
618.4621609885279
 30
0.0
 10
150.8718894007705
 20
618.4201666154471
 30
0.0
 10
150.7420149987506
 20
618.2076264282576
 30
0.0
 10
150.6490041820606
 20
617.9391610937547
 30
0.0
 10
150.6085498276795
 20
617.7228175100917
 30
0.0
 10
150.5939068639665
 20
617.6445092218098
 30
0.0
  0
SPLINE
  5
400
330
1F
100
AcDbEntity
  8
SLD-0_0
  6
Continuous
 62
   179
370
    25
100
AcDbSpline
210
0.0
220
0.0
230
1.0
 70
     8
 71
     3
 72
    14
 73
    10
 74
     0
 42
0.000000001
 43
0.00000001
 40
0.0
 40
0.0
 40
0.0
 40
0.0
 40
0.0359075157321386
 40
0.0866567387028302
 40
0.1999937327793789
 40
0.4062454019944641
 40
0.740124407930789
 40
0.9953631818321664
 40
1.0
 40
1.0
 40
1.0
 40
1.0
 10
271.856821823037
 20
703.6445106046483
 30
0.0
 10
271.8374121265618
 20
703.6452962614152
 30
0.0
 10
271.7905700947077
 20
703.6471923116366
 30
0.0
 10
271.7110436723499
 20
703.6683581083939
 30
0.0
 10
271.6283220442531
 20
703.723421471625
 30
0.0
 10
271.5732860423453
 20
703.8345086513405
 30
0.0
 10
271.5803620538094
 20
703.9758063167361
 30
0.0
 10
271.6196698132821
 20
704.0829973767497
 30
0.0
 10
271.6429510203703
 20
704.1300450599161
 30
0.0
 10
271.6433664142253
 20
704.1308845060155
 30
0.0
  0
SPLINE
  5
401
330
1F
100
AcDbEntity
  8
SLD-0_0
  6
Continuous
 62
   179
370
    25
100
AcDbSpline
210
0.0
220
0.0
230
1.0
 70
     8
 71
     3
 72
    14
 73
    10
 74
     0
 42
0.000000001
 43
0.00000001
 40
0.0
 40
0.0
 40
0.0
 40
0.0
 40
0.0046362210135007
 40
0.2598753840422727
 40
0.5937546642081399
 40
0.8000061735335202
 40
0.9133441830620986
 40
0.9640922242083685
 40
1.0
 40
1.0
 40
1.0
 40
1.0
 10
158.1833918868662
 20
704.1308845060155
 30
0.0
 10
158.1837638196062
 20
704.1300450588174
 30
0.0
 10
158.2046118687703
 20
704.0829912918899
 30
0.0
 10
158.2383438788345
 20
703.9758099762637
 30
0.0
 10
158.2378518966277
 20
703.8345084083907
 30
0.0
 10
158.1766339737481
 20
703.7234208474031
 30
0.0
 10
158.0906101262151
 20
703.6683587145054
 30
0.0
 10
158.0096234934801
 20
703.6471921597245
 30
0.0
 10
157.9624838434099
 20
703.6452962268409
 30
0.0
 10
157.9429504751326
 20
703.6445106046483
 30
0.0
  0
SPLINE
  5
402
330
1F
100
AcDbEntity
  8
SLD-0_0
  6
Continuous
 62
   179
370
    25
100
AcDbSpline
210
0.0
220
0.0
230
1.0
 70
     8
 71
     3
 72
     9
 73
     5
 74
     0
 42
0.000000001
 43
0.00000001
 40
0.0
 40
0.0
 40
0.0
 40
0.0
 40
0.0288292751943321
 40
1.0
 40
1.0
 40
1.0
 40
1.0
 10
271.6433664142253
 20
704.1308845060155
 30
0.0
 10
271.6432927214645
 20
704.1283810233061
 30
0.0
 10
271.6407365434048
 20
704.0415428113673
 30
0.0
 10
271.644210062645
 20
703.9550209005113
 30
0.0
 10
271.6475834428431
 20
703.8709933536336
 30
0.0
  0
SPLINE
  5
403
330
1F
100
AcDbEntity
  8
SLD-0_0
  6
Continuous
 62
   179
370
    25
100
AcDbSpline
210
0.0
220
0.0
230
1.0
 70
     8
 71
     3
 72
     9
 73
     5
 74
     0
 42
0.000000001
 43
0.00000001
 40
0.0
 40
0.0
 40
0.0
 40
0.0
 40
0.9679251399493282
 40
1.0
 40
1.0
 40
1.0
 40
1.0
 10
158.178284513867
 20
703.8972939031407
 30
0.0
 10
158.1817498704372
 20
703.9725645203509
 30
0.0
 10
158.1853300611226
 20
704.050329436359
 30
0.0
 10
158.1834521215163
 20
704.1283810126301
 30
0.0
 10
158.1833918868662
 20
704.1308845060155
 30
0.0
  0
SPLINE
  5
404
330
1F
100
AcDbEntity
  8
SLD-0_0
  6
Continuous
 62
   179
370
    25
100
AcDbSpline
210
0.0
220
0.0
230
1.0
 70
     8
 71
     3
 72
    14
 73
    10
 74
     0
 42
0.000000001
 43
0.00000001
 40
0.0
 40
0.0
 40
0.0
 40
0.0
 40
0.0046364326381224
 40
0.2598754517225524
 40
0.5937546954162896
 40
0.8000062616304704
 40
0.9133441372352372
 40
0.9640924140441386
 40
1.0
 40
1.0
 40
1.0
 40
1.0
 10
272.4872228979232
 20
704.1308845060155
 30
0.0
 10
272.4873426952465
 20
704.1300450592081
 30
0.0
 10
272.4940574231347
 20
704.0829934496434
 30
0.0
 10
272.5234764511754
 20
703.9758086412353
 30
0.0
 10
272.6084669172739
 20
703.8345085666434
 30
0.0
 10
272.7375760498307
 20
703.7234209339507
 30
0.0
 10
272.8586464764585
 20
703.6683586050895
 30
0.0
 10
272.9543120447484
 20
703.6471922056743
 30
0.0
 10
273.0037914825472
 20
703.6452962370727
 30
0.0
 10
273.0242942749621
 20
703.6445106046483
 30
0.0
  0
SPLINE
  5
405
330
1F
100
AcDbEntity
  8
SLD-0_0
  6
Continuous
 62
   179
370
    25
100
AcDbSpline
210
0.0
220
0.0
230
1.0
 70
     8
 71
     3
 72
    11
 73
     7
 74
     0
 42
0.000000001
 43
0.00000001
 40
0.0
 40
0.0
 40
0.0
 40
0.0
 40
0.1420803179113157
 40
0.3428842556972649
 40
0.7913351487642968
 40
1.0
 40
1.0
 40
1.0
 40
1.0
 10
273.0281015216473
 20
703.6445106046483
 30
0.0
 10
273.0076281915457
 20
703.6452925703737
 30
0.0
 10
272.95821964111
 20
703.6471796983001
 30
0.0
 10
272.8645854494307
 20
703.6684734254608
 30
0.0
 10
272.7892991922741
 20
703.6998100308393
 30
0.0
 10
272.7580418236233
 20
703.7278799798654
 30
0.0
 10
272.7481161533955
 20
703.7367934959218
 30
0.0
  0
SPLINE
  5
406
330
1F
100
AcDbEntity
  8
SLD-0_0
  6
Continuous
 62
   179
370
    25
100
AcDbSpline
210
0.0
220
0.0
230
1.0
 70
     8
 71
     3
 72
    14
 73
    10
 74
     0
 42
0.000000001
 43
0.00000001
 40
0.0
 40
0.0
 40
0.0
 40
0.0
 40
0.0359078901013073
 40
0.0866569722819106
 40
0.1999937498230144
 40
0.4062452753091534
 40
0.7401245779933199
 40
0.9953635703890129
 40
1.0
 40
1.0
 40
1.0
 40
1.0
 10
156.9655274330737
 20
703.6445106046483
 30
0.0
 10
156.9859757441616
 20
703.6452962493496
 30
0.0
 10
157.0353239158908
 20
703.6471922557956
 30
0.0
 10
157.1298276224699
 20
703.6683581232239
 30
0.0
 10
157.2479482472899
 20
703.7234215624328
 30
0.0
 10
157.3711856113617
 20
703.8345083478144
 30
0.0
 10
157.4487639098086
 20
703.9758086875855
 30
0.0
 10
157.4725465650749
 20
704.0829934239109
 30
0.0
 10
157.476825418734
 20
704.1300450592012
 30
0.0
 10
157.4769017576338
 20
704.1308845060155
 30
0.0
  0
SPLINE
  5
407
330
1F
100
AcDbEntity
  8
SLD-0_0
  6
Continuous
 62
   179
370
    25
100
AcDbSpline
210
0.0
220
0.0
230
1.0
 70
     8
 71
     3
 72
    10
 73
     6
 74
     0
 42
0.000000001
 43
0.00000001
 40
0.0
 40
0.0
 40
0.0
 40
0.0
 40
0.1133763887804045
 40
0.9300163769143686
 40
1.0
 40
1.0
 40
1.0
 40
1.0
 10
244.8646237431816
 20
721.5663308875496
 30
0.0
 10
244.8576588623464
 20
721.5370998410791
 30
0.0
 10
244.800526567786
 20
721.2973201812727
 30
0.0
 10
244.7374409454525
 20
721.0394830786018
 30
0.0
 10
244.6789128558553
 20
720.8109957504224
 30
0.0
 10
244.6742930738977
 20
720.7929606215889
 30
0.0
  0
SPLINE
  5
408
330
1F
100
AcDbEntity
  8
SLD-0_0
  6
Continuous
 62
   179
370
    25
100
AcDbSpline
210
0.0
220
0.0
230
1.0
 70
    24
 71
     3
 72
    10
 73
     6
 74
     0
 42
0.000000001
 43
0.00000001
 40
0.0
 40
0.0
 40
0.0
 40
0.0
 40
0.0699789603276333
 40
0.8866236773051216
 40
0.9999999999999999
 40
0.9999999999999999
 40
0.9999999999999999
 40
0.9999999999999999
 10
244.5118145375478
 20
720.9456379191599
 30
0.0
 10
244.5118145375494
 20
720.9680144176314
 30
0.0
 10
244.5118145375693
 20
721.2515215355866
 30
0.0
 10
244.5118145375914
 20
721.5686267030035
 30
0.0
 10
244.5118145376119
 20
721.8620913500116
 30
0.0
 10
244.5118145376144
 20
721.8978668229304
 30
0.0
  0
SPLINE
  5
409
330
1F
100
AcDbEntity
  8
SLD-0_0
  6
Continuous
 62
   179
370
    25
100
AcDbSpline
210
0.0
220
0.0
230
1.0
 70
     8
 71
     3
 72
    10
 73
     6
 74
     0
 42
0.000000001
 43
0.00000001
 40
0.0
 40
0.0
 40
0.0
 40
0.0
 40
0.0699836230856314
 40
0.8866236112195955
 40
1.0
 40
1.0
 40
1.0
 40
1.0
 10
243.3193360745074
 20
720.7929606216
 30
0.0
 10
243.3147162925498
 20
720.8109957504334
 30
0.0
 10
243.2561882029526
 20
721.0394830786129
 30
0.0
 10
243.1931025806191
 20
721.2973201812838
 30
0.0
 10
243.1359702860587
 20
721.5370998410901
 30
0.0
 10
243.1290054052235
 20
721.5663308875606
 30
0.0
  0
SPLINE
  5
40A
330
1F
100
AcDbEntity
  8
SLD-0_0
  6
Continuous
 62
   179
370
    25
100
AcDbSpline
210
0.0
220
0.0
230
1.0
 70
    24
 71
     3
 72
    10
 73
     6
 74
     0
 42
0.000000001
 43
0.00000001
 40
0.0
 40
0.0
 40
0.0
 40
0.0
 40
0.1133763226948784
 40
0.9300210396723666
 40
0.9999999999999999
 40
0.9999999999999999
 40
0.9999999999999999
 40
0.9999999999999999
 10
243.481814610864
 20
721.8978668229581
 30
0.0
 10
243.481814610864
 20
721.8620913500393
 30
0.0
 10
243.481814610864
 20
721.5686267030312
 30
0.0
 10
243.481814610864
 20
721.2515215356144
 30
0.0
 10
243.481814610864
 20
720.9680144176591
 30
0.0
 10
243.481814610864
 20
720.9456379191877
 30
0.0
  0
SPLINE
  5
40B
330
1F
100
AcDbEntity
  8
SLD-0_0
  6
Continuous
 62
   179
370
    25
100
AcDbSpline
210
0.0
220
0.0
230
1.0
 70
    24
 71
     3
 72
    10
 73
     6
 74
     0
 42
0.000000001
 43
0.00000001
 40
0.0
 40
0.0
 40
0.0
 40
0.0
 40
0.0699820333442674
 40
0.8866221496150902
 40
1.0
 40
1.0
 40
1.0
 40
1.0
 10
186.5118143439502
 20
635.4336182254103
 30
0.0
 10
186.5118143439491
 20
635.4559947239412
 30
0.0
 10
186.511814343935
 20
635.7394889049499
 30
0.0
 10
186.5118143439193
 20
636.05658023758
 30
0.0
 10
186.5118143439047
 20
636.3500615711628
 30
0.0
 10
186.511814343903
 20
636.3858396786002
 30
0.0
  0
SPLINE
  5
40C
330
1F
100
AcDbEntity
  8
SLD-0_0
  6
Continuous
 62
   179
370
    25
100
AcDbSpline
210
0.0
220
0.0
230
1.0
 70
     8
 71
     3
 72
    10
 73
     6
 74
     0
 42
0.000000001
 43
0.00000001
 40
0.0
 40
0.0
 40
0.0
 40
0.0
 40
0.1133743060308143
 40
0.930016455192713
 40
1.0
 40
1.0
 40
1.0
 40
1.0
 10
186.864623549592
 20
636.0543111937686
 30
0.0
 10
186.8576586562729
 20
636.0250774232198
 30
0.0
 10
186.800525204945
 20
635.7852709925596
 30
0.0
 10
186.7374409928301
 20
635.5274573401848
 30
0.0
 10
186.6789126650468
 20
635.2989686509535
 30
0.0
 10
186.6742928803081
 20
635.2809334772273
 30
0.0
  0
SPLINE
  5
40D
330
1F
100
AcDbEntity
  8
SLD-0_0
  6
Continuous
 62
   179
370
    25
100
AcDbSpline
210
0.0
220
0.0
230
1.0
 70
    24
 71
     3
 72
    10
 73
     6
 74
     0
 42
0.000000001
 43
0.00000001
 40
0.0
 40
0.0
 40
0.0
 40
0.0
 40
0.1133778503849098
 40
0.9300179666557326
 40
1.0
 40
1.0
 40
1.0
 40
1.0
 10
185.481814417264
 20
636.3858396786029
 30
0.0
 10
185.481814417264
 20
636.3500615711655
 30
0.0
 10
185.481814417264
 20
636.0565802375826
 30
0.0
 10
185.481814417264
 20
635.7394889049525
 30
0.0
 10
185.481814417264
 20
635.4559947239438
 30
0.0
 10
185.481814417264
 20
635.433618225413
 30
0.0
  0
SPLINE
  5
40E
330
1F
100
AcDbEntity
  8
SLD-0_0
  6
Continuous
 62
   179
370
    25
100
AcDbSpline
210
0.0
220
0.0
230
1.0
 70
     8
 71
     3
 72
    10
 73
     6
 74
     0
 42
0.000000001
 43
0.00000001
 40
0.0
 40
0.0
 40
0.0
 40
0.0
 40
0.0699835448072868
 40
0.8866256939691856
 40
1.0
 40
1.0
 40
1.0
 40
1.0
 10
185.319335880832
 20
635.2809334772
 30
0.0
 10
185.3147160960933
 20
635.2989686509262
 30
0.0
 10
185.25618776831
 20
635.5274573401574
 30
0.0
 10
185.1931035561951
 20
635.7852709925324
 30
0.0
 10
185.1359701048671
 20
636.0250774231924
 30
0.0
 10
185.1290052115481
 20
636.0543111937413
 30
0.0
  0
SPLINE
  5
40F
330
1F
100
AcDbEntity
  8
SLD-0_0
  6
Continuous
 62
   179
370
    25
100
AcDbSpline
210
0.0
220
0.0
230
1.0
 70
    24
 71
     3
 72
    10
 73
     6
 74
     0
 42
0.000000001
 43
0.00000001
 40
0.0
 40
0.0
 40
0.0
 40
0.0
 40
0.1133763226948784
 40
0.9300210396723666
 40
0.9999999999999999
 40
0.9999999999999999
 40
0.9999999999999999
 40
0.9999999999999999
 10
185.4818144172028
 20
721.897866822995
 30
0.0
 10
185.4818144172026
 20
721.8620913500762
 30
0.0
 10
185.4818144172013
 20
721.568626703068
 30
0.0
 10
185.4818144171998
 20
721.2515215356514
 30
0.0
 10
185.4818144171985
 20
720.9680144176959
 30
0.0
 10
185.4818144171985
 20
720.9456379192245
 30
0.0
  0
SPLINE
  5
410
330
1F
100
AcDbEntity
  8
SLD-0_0
  6
Continuous
 62
   179
370
    25
100
AcDbSpline
210
0.0
220
0.0
230
1.0
 70
     8
 71
     3
 72
    10
 73
     6
 74
     0
 42
0.000000001
 43
0.00000001
 40
0.0
 40
0.0
 40
0.0
 40
0.0
 40
0.0699836230856314
 40
0.8866236112195955
 40
1.0
 40
1.0
 40
1.0
 40
1.0
 10
185.319335880774
 20
720.7929606216
 30
0.0
 10
185.3147160988164
 20
720.8109957504334
 30
0.0
 10
185.2561880092191
 20
721.0394830786129
 30
0.0
 10
185.1931023868857
 20
721.2973201812838
 30
0.0
 10
185.1359700923252
 20
721.5370998410901
 30
0.0
 10
185.1290052114901
 20
721.5663308875606
 30
0.0
  0
SPLINE
  5
411
330
1F
100
AcDbEntity
  8
SLD-0_0
  6
Continuous
 62
   179
370
    25
100
AcDbSpline
210
0.0
220
0.0
230
1.0
 70
     8
 71
     3
 72
    10
 73
     6
 74
     0
 42
0.000000001
 43
0.00000001
 40
0.0
 40
0.0
 40
0.0
 40
0.0
 40
0.1133763887804045
 40
0.9300163769143686
 40
1.0
 40
1.0
 40
1.0
 40
1.0
 10
186.8646235495461
 20
721.5663308875892
 30
0.0
 10
186.8576586687109
 20
721.5370998411187
 30
0.0
 10
186.8005263741507
 20
721.2973201813122
 30
0.0
 10
186.7374407518173
 20
721.0394830786414
 30
0.0
 10
186.6789126622202
 20
720.8109957504619
 30
0.0
 10
186.6742928802626
 20
720.7929606216285
 30
0.0
  0
SPLINE
  5
412
330
1F
100
AcDbEntity
  8
SLD-0_0
  6
Continuous
 62
   179
370
    25
100
AcDbSpline
210
0.0
220
0.0
230
1.0
 70
    24
 71
     3
 72
    10
 73
     6
 74
     0
 42
0.000000001
 43
0.00000001
 40
0.0
 40
0.0
 40
0.0
 40
0.0
 40
0.0699789603276333
 40
0.8866236773051216
 40
0.9999999999999999
 40
0.9999999999999999
 40
0.9999999999999999
 40
0.9999999999999999
 10
186.5118143438852
 20
720.9456379192197
 30
0.0
 10
186.5118143438843
 20
720.9680144176912
 30
0.0
 10
186.5118143438735
 20
721.2515215356465
 30
0.0
 10
186.5118143438614
 20
721.5686267030633
 30
0.0
 10
186.5118143438503
 20
721.8620913500714
 30
0.0
 10
186.511814343849
 20
721.8978668229902
 30
0.0
  0
SPLINE
  5
413
330
1F
100
AcDbEntity
  8
SLD-0_0
  6
Continuous
 62
   179
370
    25
100
AcDbSpline
210
0.0
220
0.0
230
1.0
 70
     8
 71
     3
 72
    10
 73
     6
 74
     0
 42
0.000000001
 43
0.00000001
 40
0.0
 40
0.0
 40
0.0
 40
0.0
 40
0.1133743060308143
 40
0.930016455192713
 40
1.0
 40
1.0
 40
1.0
 40
1.0
 10
244.8646237432862
 20
636.054311193787
 30
0.0
 10
244.8576588499671
 20
636.0250774232383
 30
0.0
 10
244.8005253986392
 20
635.785270992578
 30
0.0
 10
244.7374411865243
 20
635.5274573402032
 30
0.0
 10
244.678912858741
 20
635.2989686509719
 30
0.0
 10
244.6742930740023
 20
635.2809334772458
 30
0.0
  0
SPLINE
  5
414
330
1F
100
AcDbEntity
  8
SLD-0_0
  6
Continuous
 62
   179
370
    25
100
AcDbSpline
210
0.0
220
0.0
230
1.0
 70
    24
 71
     3
 72
    10
 73
     6
 74
     0
 42
0.000000001
 43
0.00000001
 40
0.0
 40
0.0
 40
0.0
 40
0.0
 40
0.0699820333442674
 40
0.8866221496150902
 40
1.0
 40
1.0
 40
1.0
 40
1.0
 10
244.5118145376503
 20
635.4336182253961
 30
0.0
 10
244.5118145376515
 20
635.455994723927
 30
0.0
 10
244.5118145376672
 20
635.7394889049357
 30
0.0
 10
244.5118145376848
 20
636.0565802375658
 30
0.0
 10
244.511814537701
 20
636.3500615711486
 30
0.0
 10
244.511814537703
 20
636.385839678586
 30
0.0
  0
SPLINE
  5
415
330
1F
100
AcDbEntity
  8
SLD-0_0
  6
Continuous
 62
   179
370
    25
100
AcDbSpline
210
0.0
220
0.0
230
1.0
 70
    24
 71
     3
 72
    10
 73
     6
 74
     0
 42
0.000000001
 43
0.00000001
 40
0.0
 40
0.0
 40
0.0
 40
0.0
 40
0.1133778503849098
 40
0.9300179666557326
 40
1.0
 40
1.0
 40
1.0
 40
1.0
 10
243.481814610964
 20
636.3858396786029
 30
0.0
 10
243.481814610964
 20
636.3500615711655
 30
0.0
 10
243.481814610964
 20
636.0565802375826
 30
0.0
 10
243.4818146109639
 20
635.7394889049525
 30
0.0
 10
243.481814610964
 20
635.4559947239438
 30
0.0
 10
243.481814610964
 20
635.433618225413
 30
0.0
  0
SPLINE
  5
416
330
1F
100
AcDbEntity
  8
SLD-0_0
  6
Continuous
 62
   179
370
    25
100
AcDbSpline
210
0.0
220
0.0
230
1.0
 70
     8
 71
     3
 72
    10
 73
     6
 74
     0
 42
0.000000001
 43
0.00000001
 40
0.0
 40
0.0
 40
0.0
 40
0.0
 40
0.0699835448072868
 40
0.8866256939691856
 40
1.0
 40
1.0
 40
1.0
 40
1.0
 10
243.319336074532
 20
635.2809334772
 30
0.0
 10
243.3147162897933
 20
635.2989686509262
 30
0.0
 10
243.25618796201
 20
635.5274573401574
 30
0.0
 10
243.1931037498951
 20
635.7852709925324
 30
0.0
 10
243.1359702985672
 20
636.0250774231924
 30
0.0
 10
243.1290054052481
 20
636.0543111937413
 30
0.0
  0
SPLINE
  5
417
330
1F
100
AcDbEntity
  8
SLD-0_0
  6
Continuous
 62
   179
370
    25
100
AcDbSpline
210
0.0
220
0.0
230
1.0
 70
     8
 71
     3
 72
    15
 73
    11
 74
     0
 42
0.000000001
 43
0.00000001
 40
0.0
 40
0.0
 40
0.0
 40
0.0
 40
0.0815961104514669
 40
0.237638211313466
 40
0.3974091875701009
 40
0.5672457799199254
 40
0.7066719565859348
 40
0.8222271145093549
 40
0.9331893182097667
 40
1.0
 40
1.0
 40
1.0
 40
1.0
 10
185.9968153118512
 20
246.5255084370138
 30
0.0
 10
185.7733957251841
 20
246.5221357980599
 30
0.0
 10
185.1227148207365
 20
246.5123134194689
 30
0.0
 10
184.0585111269791
 20
246.4016182876234
 30
0.0
 10
182.877748234114
 20
246.1475550660162
 30
0.0
 10
181.9009510597479
 20
245.7732364612315
 30
0.0
 10
181.1464095599951
 20
245.2803950823233
 30
0.0
 10
180.6138301773418
 20
244.6710085356048
 30
0.0
 10
180.3345489753719
 20
244.0339648396779
 30
0.0
 10
180.307122944167
 20
243.614914194837
 30
0.0
 10
180.2968156814
 20
243.457426402426
 30
0.0
  0
SPLINE
  5
418
330
1F
100
AcDbEntity
  8
SLD-0_0
  6
Continuous
 62
   179
370
    25
100
AcDbSpline
210
0.0
220
0.0
230
1.0
 70
     8
 71
     3
 72
    15
 73
    11
 74
     0
 42
0.000000001
 43
0.00000001
 40
0.0
 40
0.0
 40
0.0
 40
0.0
 40
0.1127078154973597
 40
0.2198722285311902
 40
0.3293857297253203
 40
0.4560125270277617
 40
0.6132194020317863
 40
0.7803862503256903
 40
0.9394145971398351
 40
1.0
 40
1.0
 40
1.0
 40
1.0
 10
250.6968152999222
 20
243.457426402426
 30
0.0
 10
250.6676290031388
 20
243.7236457363801
 30
0.0
 10
250.6106919035417
 20
244.2429907168172
 30
0.0
 10
250.2096810393192
 20
244.896293868389
 30
0.0
 10
249.6731606377718
 20
245.408914239492
 30
0.0
 10
248.9525171283922
 20
245.8332725383099
 30
0.0
 10
247.9970351938563
 20
246.1803641709003
 30
0.0
 10
246.8078927864647
 20
246.4222195621402
 30
0.0
 10
245.763707577243
 20
246.5167593013157
 30
0.0
 10
245.1626336089609
 20
246.5236166757213
 30
0.0
 10
244.9968138068258
 20
246.5255084370138
 30
0.0
  0
SPLINE
  5
419
330
1F
100
AcDbEntity
  8
SLD-0_0
  6
Continuous
 62
   179
370
    25
100
AcDbSpline
210
0.0
220
0.0
230
1.0
 70
     8
 71
     2
 72
     6
 73
     3
 74
     0
 42
0.000000001
 43
0.00000001
 40
0.0
 40
0.0
 40
0.0
 40
0.25
 40
0.25
 40
0.25
 10
153.0568318496849
 20
135.0264734024648
 30
0.0
 10
153.0242099863975
 20
135.0194653653095
 30
0.0
 10
152.9603029911226
 20
135.0057582248967
 30
0.0
  0
SPLINE
  5
41A
330
1F
100
AcDbEntity
  8
SLD-0_0
  6
Continuous
 62
   179
370
    25
100
AcDbSpline
210
0.0
220
0.0
230
1.0
 70
     8
 71
     3
 72
     8
 73
     4
 74
     0
 42
0.000000001
 43
0.00000001
 40
0.25
 40
0.25
 40
0.25
 40
0.25
 40
0.3749999999999992
 40
0.3749999999999992
 40
0.3749999999999992
 40
0.3749999999999992
 10
152.9603029911226
 20
135.0057582248967
 30
0.0
 10
152.9283494934852
 20
134.9989046546903
 30
0.0
 10
152.8885150384636
 20
134.9903641437848
 30
0.0
 10
152.8406104100508
 20
134.9801027862606
 30
0.0
  0
SPLINE
  5
41B
330
1F
100
AcDbEntity
  8
SLD-0_0
  6
Continuous
 62
   179
370
    25
100
AcDbSpline
210
0.0
220
0.0
230
1.0
 70
     8
 71
     3
 72
     8
 73
     4
 74
     0
 42
0.000000001
 43
0.00000001
 40
0.3749999999999992
 40
0.3749999999999992
 40
0.3749999999999992
 40
0.3749999999999992
 40
0.4999999999999983
 40
0.4999999999999983
 40
0.4999999999999983
 40
0.4999999999999983
 10
152.8406104100508
 20
134.9801027862606
 30
0.0
 10
152.7927057816379
 20
134.9698414287365
 30
0.0
 10
152.7365270938086
 20
134.9578157767715
 30
0.0
 10
152.6734804170985
 20
134.944335265045
 30
0.0
  0
SPLINE
  5
41C
330
1F
100
AcDbEntity
  8
SLD-0_0
  6
Continuous
 62
   179
370
    25
100
AcDbSpline
210
0.0
220
0.0
230
1.0
 70
     8
 71
     3
 72
     8
 73
     4
 74
     0
 42
0.000000001
 43
0.00000001
 40
0.4999999999999983
 40
0.4999999999999983
 40
0.4999999999999983
 40
0.4999999999999983
 40
0.7499999999999991
 40
0.7499999999999991
 40
0.7499999999999991
 40
0.7499999999999991
 10
152.6734804170985
 20
134.944335265045
 30
0.0
 10
152.5473870636783
 20
134.917374241592
 30
0.0
 10
152.3931029046232
 20
134.8844381750062
 30
0.0
 10
152.210785643412
 20
134.8456421820035
 30
0.0
  0
SPLINE
  5
41D
330
1F
100
AcDbEntity
  8
SLD-0_0
  6
Continuous
 62
   179
370
    25
100
AcDbSpline
210
0.0
220
0.0
230
1.0
 70
     8
 71
     3
 72
     8
 73
     4
 74
     0
 42
0.000000001
 43
0.00000001
 40
0.7499999999999991
 40
0.7499999999999991
 40
0.7499999999999991
 40
0.7499999999999991
 40
1.0
 40
1.0
 40
1.0
 40
1.0
 10
152.210785643412
 20
134.8456421820035
 30
0.0
 10
152.0284683822009
 20
134.8068461890009
 30
0.0
 10
151.8166886767458
 20
134.7618912164384
 30
0.0
 10
151.5856185151525
 20
134.7130186007083
 30
0.0
  0
SPLINE
  5
41E
330
1F
100
AcDbEntity
  8
SLD-0_0
  6
Continuous
 62
   179
370
    25
100
AcDbSpline
210
0.0
220
0.0
230
1.0
 70
     8
 71
     3
 72
     8
 73
     4
 74
     0
 42
0.000000001
 43
0.00000001
 40
0.0
 40
0.0
 40
0.0
 40
0.0
 40
1.0
 40
1.0
 40
1.0
 40
1.0
 10
150.9968317434943
 20
143.4214516646298
 30
0.0
 10
150.9990681796151
 20
146.4660774298662
 30
0.0
 10
151.2174493336105
 20
149.4946905699888
 30
0.0
 10
151.6518093716696
 20
152.5073658440175
 30
0.0
  0
SPLINE
  5
41F
330
1F
100
AcDbEntity
  8
SLD-0_0
  6
Continuous
 62
   179
370
    25
100
AcDbSpline
210
0.0
220
0.0
230
1.0
 70
     8
 71
     3
 72
     8
 73
     4
 74
     0
 42
0.000000001
 43
0.00000001
 40
0.0
 40
0.0
 40
0.0
 40
0.0
 40
0.0000453579584797
 40
0.0000453579584797
 40
0.0000453579584797
 40
0.0000453579584797
 10
150.9968317434943
 20
143.4214516646298
 30
0.0
 10
150.9968206429114
 20
143.4063396282366
 30
0.0
 10
150.9968148907411
 20
143.3912184921319
 30
0.0
 10
150.9968144988553
 20
143.3760991726438
 30
0.0
  0
SPLINE
  5
420
330
1F
100
AcDbEntity
  8
SLD-0_0
  6
Continuous
 62
   179
370
    25
100
AcDbSpline
210
0.0
220
0.0
230
1.0
 70
     8
 71
     3
 72
    14
 73
    10
 74
     0
 42
0.000000001
 43
0.00000001
 40
0.0
 40
0.0
 40
0.0
 40
0.0
 40
0.25
 40
0.25
 40
0.5
 40
0.5
 40
0.75
 40
0.75
 40
1.0
 40
1.0
 40
1.0
 40
1.0
 10
153.6664653988747
 20
125.0826858668438
 30
0.0
 10
153.4294857693346
 20
125.8772539013673
 30
0.0
 10
153.2088877172317
 20
126.6732053984594
 30
0.0
 10
152.7993358708239
 20
128.2697127060785
 30
0.0
 10
152.610134872167
 20
129.0714777836536
 30
0.0
 10
152.2641295627253
 20
130.6747248523035
 30
0.0
 10
152.1072715356195
 20
131.4759720003342
 30
0.0
 10
151.8238999765304
 20
133.0860471836317
 30
0.0
 10
151.6973674310254
 20
133.8948928227854
 30
0.0
 10
151.5856185151525
 20
134.7130186007083
 30
0.0
  0
SPLINE
  5
421
330
1F
100
AcDbEntity
  8
SLD-0_0
  6
Continuous
 62
   179
370
    25
100
AcDbSpline
210
0.0
220
0.0
230
1.0
 70
     8
 71
     3
 72
    10
 73
     6
 74
     0
 42
0.000000001
 43
0.00000001
 40
0.0
 40
0.0
 40
0.0
 40
0.0
 40
0.5
 40
0.5
 40
1.0
 40
1.0
 40
1.0
 40
1.0
 10
151.6518093716696
 20
152.5073658440175
 30
0.0
 10
151.7438399750296
 20
153.1456803732169
 30
0.0
 10
151.8445384015297
 20
153.7760019995537
 30
0.0
 10
152.0631368480331
 20
155.025821312974
 30
0.0
 10
152.1810563810305
 20
155.6454716616655
 30
0.0
 10
152.3080535483127
 20
156.2631661623937
 30
0.0
  0
SPLINE
  5
422
330
1F
100
AcDbEntity
  8
SLD-0_0
  6
Continuous
 62
   179
370
    25
100
AcDbSpline
210
0.0
220
0.0
230
1.0
 70
     8
 71
     3
 72
     8
 73
     4
 74
     0
 42
0.000000001
 43
0.00000001
 40
0.0
 40
0.0
 40
0.0
 40
0.0
 40
1.0
 40
1.0
 40
1.0
 40
1.0
 10
152.3080535483127
 20
156.2631661623937
 30
0.0
 10
152.6790108088098
 20
158.0674446728366
 30
0.0
 10
153.1278736506329
 20
159.8603527456868
 30
0.0
 10
153.6664653988864
 20
161.6661948243954
 30
0.0
  0
SPLINE
  5
423
330
1F
100
AcDbEntity
  8
SLD-0_0
  6
Continuous
 62
   179
370
    25
100
AcDbSpline
210
0.0
220
0.0
230
1.0
 70
    24
 71
     3
 72
     9
 73
     5
 74
     0
 42
0.000000001
 43
0.00000001
 40
0.0
 40
0.0
 40
0.0
 40
0.0
 40
0.0041258773801285
 40
1.0
 40
1.0
 40
1.0
 40
1.0
 10
212.9968143823655
 20
226.8795716498854
 30
0.0
 10
212.9968143823655
 20
226.8796240170331
 30
0.0
 10
212.9968143823655
 20
226.8923163835146
 30
0.0
 10
212.9968143823655
 20
226.8674562701232
 30
0.0
 10
212.9968143823655
 20
226.8426987265112
 30
0.0
  0
SPLINE
  5
424
330
1F
100
AcDbEntity
  8
SLD-0_0
  6
Continuous
 62
   179
370
    25
100
AcDbSpline
210
0.0
220
0.0
230
1.0
 70
     8
 71
     3
 72
    10
 73
     6
 74
     0
 42
0.000000001
 43
0.00000001
 40
0.0
 40
0.0
 40
0.0
 40
0.0
 40
0.1224227166312788
 40
0.6420016844359956
 40
1.0
 40
1.0
 40
1.0
 40
1.0
 10
212.9968143823655
 20
226.8426987265112
 30
0.0
 10
213.0387475465932
 20
226.8668649160498
 30
0.0
 10
213.2586508685316
 20
226.9935957615755
 30
0.0
 10
213.6419136454618
 20
227.1237833597313
 30
0.0
 10
213.9891412679494
 20
227.1407514075236
 30
0.0
 10
214.1307890821347
 20
227.1476733420851
 30
0.0
  0
SPLINE
  5
425
330
1F
100
AcDbEntity
  8
SLD-0_0
  6
Continuous
 62
   179
370
    25
100
AcDbSpline
210
0.0
220
0.0
230
1.0
 70
    24
 71
     3
 72
    10
 73
     6
 74
     0
 42
0.000000001
 43
0.00000001
 40
0.0
 40
0.0
 40
0.0
 40
0.0
 40
0.3583517339429274
 40
0.9554877829335335
 40
1.0
 40
1.0
 40
1.0
 40
1.0
 10
214.4968144536
 20
227.1476733420851
 30
0.0
 10
214.4968144536
 20
227.1408214433224
 30
0.0
 10
214.4968144536
 20
227.1225519473567
 30
0.0
 10
214.4968144536
 20
226.9814121036482
 30
0.0
 10
214.4968144536
 20
226.851697262721
 30
0.0
 10
214.4968144536
 20
226.8426987265112
 30
0.0
  0
SPLINE
  5
426
330
1F
100
AcDbEntity
  8
SLD-0_0
  6
Continuous
 62
   179
370
    25
100
AcDbSpline
210
0.0
220
0.0
230
1.0
 70
     8
 71
     3
 72
     9
 73
     5
 74
     0
 42
0.000000001
 43
0.00000001
 40
0.0
 40
0.0
 40
0.0
 40
0.0
 40
0.4999999999993955
 40
1.0
 40
1.0
 40
1.0
 40
1.0
 10
214.4968144536
 20
226.8426987265112
 30
0.0
 10
214.6634811281827
 20
226.8612134192946
 30
0.0
 10
214.9968144773485
 20
226.8982428048613
 30
0.0
 10
215.3301478265143
 20
226.8612134192945
 30
0.0
 10
215.4968145010974
 20
226.8426987265112
 30
0.0
  0
SPLINE
  5
427
330
1F
100
AcDbEntity
  8
SLD-0_0
  6
Continuous
 62
   179
370
    25
100
AcDbSpline
210
0.0
220
0.0
230
1.0
 70
    24
 71
     3
 72
    10
 73
     6
 74
     0
 42
0.000000001
 43
0.00000001
 40
0.0
 40
0.0
 40
0.0
 40
0.0
 40
0.1224222145569803
 40
0.6419995245575733
 40
0.9999999999999999
 40
0.9999999999999999
 40
0.9999999999999999
 40
0.9999999999999999
 10
215.4968145010974
 20
226.8426987265112
 30
0.0
 10
215.4968145010974
 20
226.8668649173781
 30
0.0
 10
215.4968145010974
 20
226.9935958632532
 30
0.0
 10
215.4968145010974
 20
227.123783785959
 30
0.0
 10
215.4968145010974
 20
227.1407515041716
 30
0.0
 10
215.4968145010974
 20
227.1476733420851
 30
0.0
  0
SPLINE
  5
428
330
1F
100
AcDbEntity
  8
SLD-0_0
  6
Continuous
 62
   179
370
    25
100
AcDbSpline
210
0.0
220
0.0
230
1.0
 70
     8
 71
     3
 72
    10
 73
     6
 74
     0
 42
0.000000001
 43
0.00000001
 40
0.0
 40
0.0
 40
0.0
 40
0.0
 40
0.3583496004024024
 40
0.9554865546589556
 40
1.0
 40
1.0
 40
1.0
 40
1.0
 10
215.8628398725883
 20
227.1476733420851
 30
0.0
 10
216.0044863734532
 20
227.1408215536172
 30
0.0
 10
216.3821659548979
 20
227.1225522664491
 30
0.0
 10
216.7639918382786
 20
226.9814088585871
 30
0.0
 10
216.9817106840893
 20
226.8516972564215
 30
0.0
 10
216.9968145723574
 20
226.8426987265106
 30
0.0
  0
SPLINE
  5
429
330
1F
100
AcDbEntity
  8
SLD-0_0
  6
Continuous
 62
   179
370
    25
100
AcDbSpline
210
0.0
220
0.0
230
1.0
 70
    24
 71
     3
 72
     9
 73
     5
 74
     0
 42
0.000000001
 43
0.00000001
 40
0.0
 40
0.0
 40
0.0
 40
0.0
 40
0.9949740206164909
 40
1.0
 40
1.0
 40
1.0
 40
1.0
 10
216.9968145723553
 20
226.8426987265112
 30
0.0
 10
216.9968145723553
 20
226.8672971926649
 30
0.0
 10
216.9968145723553
 20
226.8920199147099
 30
0.0
 10
216.9968145723553
 20
226.8796042484456
 30
0.0
 10
216.9968145723553
 20
226.879541847563
 30
0.0
  0
ELLIPSE
  5
42A
330
1F
100
AcDbEntity
  8
SLD-0_0
  6
Continuous
 62
   179
370
    25
100
AcDbEllipse
 10
245.4940374708
 20
548.6445107239
 30
0.0
 11
5.002777006601178
 21
0.0
 31
0.0
210
0.0
220
0.0
230
1.0
 40
0.999444907
 41
0.0
 42
1.570796326794897
  0
ELLIPSE
  5
42B
330
1F
100
AcDbEntity
  8
SLD-0_0
  6
Continuous
 62
   179
370
    25
100
AcDbEllipse
 10
263.2329248173
 20
548.6445107239
 30
0.0
 11
0.0
 21
5.0
 31
0.0
210
0.0
220
0.0
230
1.0
 40
0.9865557714
 41
0.0
 42
1.570796326794897
  0
ELLIPSE
  5
42C
330
1F
100
AcDbEntity
  8
SLD-0_0
  6
Continuous
 62
   179
370
    25
100
AcDbEllipse
 10
247.4951482734
 20
375.7445107238
 30
0.0
 11
3.001666203960724
 21
0.0
 31
0.0
210
0.0
220
0.0
230
1.0
 40
0.999444907
 41
4.712388980384713
 42
6.283187778811966
  0
ELLIPSE
  5
42D
330
1F
100
AcDbEntity
  8
SLD-0_0
  6
Continuous
 62
   179
370
    25
100
AcDbEllipse
 10
214.9968144774
 20
3153.1770539768
 30
0.0
 11
47.03871986226522
 21
2539.532389819323
 31
0.0
210
0.0
220
0.0
230
1.0
 40
0.0185098944
 41
3.082672387304895
 42
3.08580164337789
  0
ELLIPSE
  5
42E
330
1F
100
AcDbEntity
  8
SLD-0_0
  6
Continuous
 62
   179
370
    25
100
AcDbEllipse
 10
214.9968144774
 20
3153.1770539768
 30
0.0
 11
47.03871995637093
 21
2539.532394899913
 31
0.0
210
0.0
220
0.0
230
1.0
 40
0.0185098944
 41
3.198069406596331
 42
3.201198657891697
  0
ELLIPSE
  5
42F
330
1F
100
AcDbEntity
  8
SLD-0_0
  6
Continuous
 62
   179
370
    25
100
AcDbEllipse
 10
214.9968144774
 20
3153.1770539768
 30
0.0
 11
-47.03871984755841
 21
2539.532389025394
 31
0.0
210
0.0
220
0.0
230
1.0
 40
0.0185098944
 41
3.081986687638001
 42
3.085115953318802
  0
ELLIPSE
  5
430
330
1F
100
AcDbEntity
  8
SLD-0_0
  6
Continuous
 62
   179
370
    25
100
AcDbEllipse
 10
214.9968144774
 20
3153.1770539768
 30
0.0
 11
-47.0387199396225
 21
2539.532393995763
 31
0.0
210
0.0
220
0.0
230
1.0
 40
0.0185098944
 41
3.197383691121016
 42
3.200512950070185
  0
ELLIPSE
  5
431
330
1F
100
AcDbEntity
  8
SLD-0_0
  6
Continuous
 62
   179
370
    25
100
AcDbEllipse
 10
248.2434479248
 20
724.6445107239
 30
0.0
 11
-1.414213562373106
 21
0.0
 31
0.0
210
0.0
220
0.0
230
1.0
 40
0.7071067812
 41
4.712388980384699
 42
5.453060998720797
  0
ELLIPSE
  5
432
330
1F
100
AcDbEntity
  8
SLD-0_0
  6
Continuous
 62
   179
370
    25
100
AcDbEllipse
 10
181.7501810299
 20
724.6445107239
 30
0.0
 11
1.414213562373135
 21
0.0
 31
0.0
210
0.0
220
0.0
230
1.0
 40
0.7071067812
 41
0.0777279033156702
 42
1.570796326794897
  0
ELLIPSE
  5
433
330
1F
100
AcDbEntity
  8
SLD-0_0
  6
Continuous
 62
   179
370
    25
100
AcDbEllipse
 10
152.4156821701
 20
618.1792591677
 30
0.0
 11
0.9985484211984212
 21
-0.3906656515762278
 31
0.0
210
0.0
220
0.0
230
1.0
 40
0.1378708387
 41
1.231984722634494
 42
2.690658158883027
  0
ELLIPSE
  5
434
330
1F
100
AcDbEntity
  8
SLD-0_0
  6
Continuous
 62
   179
370
    25
100
AcDbEllipse
 10
214.996814713
 20
690.6445096943
 30
0.0
 11
71.10693282923435
 21
71.10693282923341
 31
0.0
210
0.0
220
0.0
230
1.0
 40
0.1989123674
 41
3.434644602451157
 42
3.448512186482081
  0
ENDSEC
  0
SECTION
  2
OBJECTS
  0
DICTIONARY
  5
C
330
0
100
AcDbDictionary
281
     1
  3
ACAD_GROUP
350
D
  3
ACAD_LAYOUT
350
1A
  3
ACAD_MLINESTYLE
350
17
  3
ACAD_PLOTSETTINGS
350
19
  3
ACAD_PLOTSTYLENAME
350
E
  3
ACAD_SCALELIST
350
47
  0
DICTIONARY
  5
D
102
{ACAD_REACTORS
330
C
102
}
330
C
100
AcDbDictionary
281
     1
  0
DICTIONARY
  5
1A
102
{ACAD_REACTORS
330
C
102
}
330
C
100
AcDbDictionary
281
     1
  3
Layout1
350
1E
  3
Layout2
350
26
  3
Model
350
22
  0
DICTIONARY
  5
17
102
{ACAD_REACTORS
330
C
102
}
330
C
100
AcDbDictionary
281
     1
  3
Standard
350
18
  0
DICTIONARY
  5
19
102
{ACAD_REACTORS
330
C
102
}
330
C
100
AcDbDictionary
281
     1
  0
ACDBDICTIONARYWDFLT
  5
E
102
{ACAD_REACTORS
330
C
102
}
330
C
100
AcDbDictionary
281
     1
  3
Normal
350
F
100
AcDbDictionaryWithDefault
340
F
  0
DICTIONARY
  5
47
102
{ACAD_REACTORS
330
C
102
}
330
C
100
AcDbDictionary
281
     1
  3
A0
350
48
  3
A1
350
49
  3
A2
350
4A
  3
A3
350
4B
  3
A4
350
4C
  3
A5
350
4D
  3
A6
350
4E
  3
A7
350
4F
  3
A8
350
50
  3
A9
350
51
  3
B0
350
52
  3
B1
350
53
  3
B2
350
54
  3
B3
350
55
  3
B4
350
56
  3
B5
350
57
  3
B6
350
58
  3
B7
350
59
  3
B8
350
5A
  3
B9
350
5B
  3
C0
350
5C
  3
C1
350
5D
  3
C2
350
5E
  3
C3
350
5F
  3
C4
350
60
  3
C5
350
61
  3
C6
350
62
  3
C7
350
63
  3
C8
350
64
  3
C9
350
65
  3
D0
350
66
  3
D1
350
67
  3
D2
350
68
  0
LAYOUT
  5
1E
102
{ACAD_REACTORS
330
1A
102
}
330
1A
100
AcDbPlotSettings
  1

  2
none_device
  4

  6

 40
0.0
 41
0.0
 42
0.0
 43
0.0
 44
0.0
 45
0.0
 46
0.0
 47
0.0
 48
0.0
 49
0.0
140
0.0
141
0.0
142
1.0
143
1.0
 70
   688
 72
     1
 73
     0
 74
     5
  7

 75
    16
147
1.0
148
0.0
149
0.0
100
AcDbLayout
  1
Layout1
 70
     1
 71
     1
 10
0.0
 20
0.0
 11
420.0
 21
297.0
 12
0.0
 22
0.0
 32
0.0
 14
1.0000000000E+20
 24
1.0000000000E+20
 34
1.0000000000E+20
 15
-1.0000000000E+20
 25
-1.0000000000E+20
 35
-1.0000000000E+20
146
0.0
 13
0.0
 23
0.0
 33
0.0
 16
1.0
 26
0.0
 36
0.0
 17
0.0
 27
1.0
 37
0.0
 76
     0
330
1B
  0
LAYOUT
  5
26
102
{ACAD_REACTORS
330
1A
102
}
330
1A
100
AcDbPlotSettings
  1

  2
none_device
  4

  6

 40
0.0
 41
0.0
 42
0.0
 43
0.0
 44
0.0
 45
0.0
 46
0.0
 47
0.0
 48
0.0
 49
0.0
140
0.0
141
0.0
142
1.0
143
1.0
 70
   688
 72
     1
 73
     0
 74
     5
  7

 75
    16
147
1.0
148
0.0
149
0.0
100
AcDbLayout
  1
Layout2
 70
     1
 71
     2
 10
0.0
 20
0.0
 11
0.0
 21
0.0
 12
0.0
 22
0.0
 32
0.0
 14
0.0
 24
0.0
 34
0.0
 15
0.0
 25
0.0
 35
0.0
146
0.0
 13
0.0
 23
0.0
 33
0.0
 16
1.0
 26
0.0
 36
0.0
 17
0.0
 27
1.0
 37
0.0
 76
     0
330
23
  0
LAYOUT
  5
22
102
{ACAD_REACTORS
330
1A
102
}
330
1A
100
AcDbPlotSettings
  1

  2
none_device
  4
Letter_(8.50_x_11.00_Inches)
  6

 40
6.35
 41
6.35
 42
6.35000508
 43
6.35000508
 44
215.9
 45
279.4
 46
0.0
 47
0.0
 48
0.0
 49
0.0
140
0.0
141
0.0
142
1.0
143
1.0
 70
  1712
 72
     1
 73
     0
 74
     0
  7

 75
     0
147
1.0
148
0.0
149
0.0
100
AcDbLayout
  1
Model
 70
     1
 71
     0
 10
0.0
 20
0.0
 11
420.0
 21
297.0
 12
0.0
 22
0.0
 32
0.0
 14
0.0
 24
0.0
 34
0.0
 15
420.0
 25
297.0
 35
0.0
146
0.0
 13
0.0
 23
0.0
 33
0.0
 16
1.0
 26
0.0
 36
0.0
 17
0.0
 27
1.0
 37
0.0
 76
     0
330
1F
331
29
  0
MLINESTYLE
  5
18
102
{ACAD_REACTORS
330
17
102
}
330
17
100
AcDbMlineStyle
  2
Standard
 70
     0
  3

 62
   256
 51
90.0
 52
90.0
 71
     2
 49
0.5
 62
   256
  6
BYLAYER
 49
-0.5
 62
   256
  6
BYLAYER
  0
ACDBPLACEHOLDER
  5
F
102
{ACAD_REACTORS
330
E
102
}
330
E
  0
SCALE
  5
48
102
{ACAD_REACTORS
330
47
102
}
330
47
100
AcDbScale
 70
     0
300
1:1
140
1.0
141
1.0
290
     1
  0
SCALE
  5
49
102
{ACAD_REACTORS
330
47
102
}
330
47
100
AcDbScale
 70
     0
300
1:2
140
1.0
141
2.0
290
     0
  0
SCALE
  5
4A
102
{ACAD_REACTORS
330
47
102
}
330
47
100
AcDbScale
 70
     0
300
1:4
140
1.0
141
4.0
290
     0
  0
SCALE
  5
4B
102
{ACAD_REACTORS
330
47
102
}
330
47
100
AcDbScale
 70
     0
300
1:5
140
1.0
141
5.0
290
     0
  0
SCALE
  5
4C
102
{ACAD_REACTORS
330
47
102
}
330
47
100
AcDbScale
 70
     0
300
1:8
140
1.0
141
8.0
290
     0
  0
SCALE
  5
4D
102
{ACAD_REACTORS
330
47
102
}
330
47
100
AcDbScale
 70
     0
300
1:10
140
1.0
141
10.0
290
     0
  0
SCALE
  5
4E
102
{ACAD_REACTORS
330
47
102
}
330
47
100
AcDbScale
 70
     0
300
1:16
140
1.0
141
16.0
290
     0
  0
SCALE
  5
4F
102
{ACAD_REACTORS
330
47
102
}
330
47
100
AcDbScale
 70
     0
300
1:20
140
1.0
141
20.0
290
     0
  0
SCALE
  5
50
102
{ACAD_REACTORS
330
47
102
}
330
47
100
AcDbScale
 70
     0
300
1:30
140
1.0
141
30.0
290
     0
  0
SCALE
  5
51
102
{ACAD_REACTORS
330
47
102
}
330
47
100
AcDbScale
 70
     0
300
1:40
140
1.0
141
40.0
290
     0
  0
SCALE
  5
52
102
{ACAD_REACTORS
330
47
102
}
330
47
100
AcDbScale
 70
     0
300
1:50
140
1.0
141
50.0
290
     0
  0
SCALE
  5
53
102
{ACAD_REACTORS
330
47
102
}
330
47
100
AcDbScale
 70
     0
300
1:100
140
1.0
141
100.0
290
     0
  0
SCALE
  5
54
102
{ACAD_REACTORS
330
47
102
}
330
47
100
AcDbScale
 70
     0
300
2:1
140
2.0
141
1.0
290
     0
  0
SCALE
  5
55
102
{ACAD_REACTORS
330
47
102
}
330
47
100
AcDbScale
 70
     0
300
4:1
140
4.0
141
1.0
290
     0
  0
SCALE
  5
56
102
{ACAD_REACTORS
330
47
102
}
330
47
100
AcDbScale
 70
     0
300
8:1
140
8.0
141
1.0
290
     0
  0
SCALE
  5
57
102
{ACAD_REACTORS
330
47
102
}
330
47
100
AcDbScale
 70
     0
300
10:1
140
10.0
141
1.0
290
     0
  0
SCALE
  5
58
102
{ACAD_REACTORS
330
47
102
}
330
47
100
AcDbScale
 70
     0
300
100:1
140
100.0
141
1.0
290
     0
  0
SCALE
  5
59
102
{ACAD_REACTORS
330
47
102
}
330
47
100
AcDbScale
 70
     0
300
1/128" = 1'-0"
140
0.0078125
141
12.0
290
     0
  0
SCALE
  5
5A
102
{ACAD_REACTORS
330
47
102
}
330
47
100
AcDbScale
 70
     0
300
1/64" = 1'-0"
140
0.015625
141
12.0
290
     0
  0
SCALE
  5
5B
102
{ACAD_REACTORS
330
47
102
}
330
47
100
AcDbScale
 70
     0
300
1/32" = 1'-0"
140
0.03125
141
12.0
290
     0
  0
SCALE
  5
5C
102
{ACAD_REACTORS
330
47
102
}
330
47
100
AcDbScale
 70
     0
300
1/16" = 1'-0"
140
0.0625
141
12.0
290
     0
  0
SCALE
  5
5D
102
{ACAD_REACTORS
330
47
102
}
330
47
100
AcDbScale
 70
     0
300
3/32" = 1'-0"
140
0.09375
141
12.0
290
     0
  0
SCALE
  5
5E
102
{ACAD_REACTORS
330
47
102
}
330
47
100
AcDbScale
 70
     0
300
1/8" = 1'-0"
140
0.125
141
12.0
290
     0
  0
SCALE
  5
5F
102
{ACAD_REACTORS
330
47
102
}
330
47
100
AcDbScale
 70
     0
300
3/16" = 1'-0"
140
0.1875
141
12.0
290
     0
  0
SCALE
  5
60
102
{ACAD_REACTORS
330
47
102
}
330
47
100
AcDbScale
 70
     0
300
1/4" = 1'-0"
140
0.25
141
12.0
290
     0
  0
SCALE
  5
61
102
{ACAD_REACTORS
330
47
102
}
330
47
100
AcDbScale
 70
     0
300
3/8" = 1'-0"
140
0.375
141
12.0
290
     0
  0
SCALE
  5
62
102
{ACAD_REACTORS
330
47
102
}
330
47
100
AcDbScale
 70
     0
300
1/2" = 1'-0"
140
0.5
141
12.0
290
     0
  0
SCALE
  5
63
102
{ACAD_REACTORS
330
47
102
}
330
47
100
AcDbScale
 70
     0
300
3/4" = 1'-0"
140
0.75
141
12.0
290
     0
  0
SCALE
  5
64
102
{ACAD_REACTORS
330
47
102
}
330
47
100
AcDbScale
 70
     0
300
1" = 1'-0"
140
1.0
141
12.0
290
     0
  0
SCALE
  5
65
102
{ACAD_REACTORS
330
47
102
}
330
47
100
AcDbScale
 70
     0
300
1-1/2" = 1'-0"
140
1.5
141
12.0
290
     0
  0
SCALE
  5
66
102
{ACAD_REACTORS
330
47
102
}
330
47
100
AcDbScale
 70
     0
300
3" = 1'-0"
140
3.0
141
12.0
290
     0
  0
SCALE
  5
67
102
{ACAD_REACTORS
330
47
102
}
330
47
100
AcDbScale
 70
     0
300
6" = 1'-0"
140
6.0
141
12.0
290
     0
  0
SCALE
  5
68
102
{ACAD_REACTORS
330
47
102
}
330
47
100
AcDbScale
 70
     0
300
1'-0" = 1'-0"
140
12.0
141
12.0
290
     0
  0
ENDSEC
  0
EOF
