  0
SECTION
  2
HEADER
  9
$ACADVER
  1
AC1015
  9
$ACADMAINTVER
 70
     6
  9
$DWGCODEPAGE
  3
DOS932
  9
$INSBASE
 10
0.0
 20
0.0
 30
0.0
  9
$EXTMIN
 10
0.0
 20
0.0
 30
0.0
  9
$EXTMAX
 10
840.0
 20
594.0
 30
0.0
  9
$LIMMIN
 10
0.0
 20
0.0
  9
$LIMMAX
 10
840.0
 20
594.0
  9
$ORTHOMODE
 70
     0
  9
$REGENMODE
 70
     1
  9
$FILLMODE
 70
     1
  9
$QTEXTMODE
 70
     0
  9
$MIRRTEXT
 70
     1
  9
$LTSCALE
 40
2.0
  9
$ATTMODE
 70
     1
  9
$TEXTSIZE
 40
7.0
  9
$TRACEWID
 40
1.0
  9
$TEXTSTYLE
  7
STANDARD
  9
$CLAYER
  8
0
  9
$CELTYPE
  6
ByLayer
  9
$CECOLOR
 62
   256
  9
$CELTSCALE
 40
1.0
  9
$DISPSILH
 70
     0
  9
$DIMSCALE
 40
1.0
  9
$DIMASZ
 40
5.5999999046
  9
$DIMEXO
 40
2.0
  9
$DIMDLI
 40
3.75
  9
$DIMRND
 40
0.0
  9
$DIMDLE
 40
0.0
  9
$DIMEXE
 40
2.0
  9
$DIMTP
 40
0.0
  9
$DIMTM
 40
0.0
  9
$DIMTXT
 40
5.5999999046
  9
$DIMCEN
 40
2.5
  9
$DIMTSZ
 40
0.0
  9
$DIMTOL
 70
     0
  9
$DIMLIM
 70
     0
  9
$DIMTIH
 70
     1
  9
$DIMTOH
 70
     1
  9
$DIMSE1
 70
     0
  9
$DIMSE2
 70
     0
  9
$DIMTAD
 70
     1
  9
$DIMZIN
 70
     0
  9
$DIMBLK
  1

  9
$DIMASO
 70
     1
  9
$DIMSHO
 70
     1
  9
$DIMPOST
  1

  9
$DIMAPOST
  1

  9
$DIMALT
 70
     0
  9
$DIMALTD
 70
     3
  9
$DIMALTF
 40
0.0393700787
  9
$DIMLFAC
 40
1.0
  9
$DIMTOFL
 70
     1
  9
$DIMTVP
 40
0.0
  9
$DIMTIX
 70
     0
  9
$DIMSOXD
 70
     0
  9
$DIMSAH
 70
     0
  9
$DIMBLK1
  1

  9
$DIMBLK2
  1

  9
$DIMSTYLE
  2
ISO-25
  9
$DIMCLRD
 70
     0
  9
$DIMCLRE
 70
     0
  9
$DIMCLRT
 70
     0
  9
$DIMTFAC
 40
1.0
  9
$DIMGAP
 40
3.048
  9
$DIMJUST
 70
     0
  9
$DIMSD1
 70
     0
  9
$DIMSD2
 70
     0
  9
$DIMTOLJ
 70
     0
  9
$DIMTZIN
 70
     0
  9
$DIMALTZ
 70
     0
  9
$DIMALTTZ
 70
     0
  9
$DIMUPT
 70
     0
  9
$DIMDEC
 70
     3
  9
$DIMTDEC
 70
     3
  9
$DIMALTU
 70
     2
  9
$DIMALTTD
 70
     3
  9
$DIMTXSTY
  7
STANDARD
  9
$DIMAUNIT
 70
     0
  9
$DIMADEC
 70
     0
  9
$DIMALTRND
 40
0.0
  9
$DIMAZIN
 70
     0
  9
$DIMDSEP
 70
    44
  9
$DIMATFIT
 70
     3
  9
$DIMFRAC
 70
     0
  9
$DIMLDRBLK
  1

  9
$DIMLUNIT
 70
     2
  9
$DIMLWD
 70
    -2
  9
$DIMLWE
 70
    -2
  9
$DIMTMOVE
 70
     0
  9
$LUNITS
 70
     2
  9
$LUPREC
 70
     3
  9
$SKETCHINC
 40
1.0
  9
$FILLETRAD
 40
10.0
  9
$AUNITS
 70
     0
  9
$AUPREC
 70
     0
  9
$MENU
  1
.
  9
$ELEVATION
 40
0.0
  9
$PELEVATION
 40
0.0
  9
$THICKNESS
 40
0.0
  9
$LIMCHECK
 70
     0
  9
$CHAMFERA
 40
0.0
  9
$CHAMFERB
 40
0.0
  9
$CHAMFERC
 40
0.0
  9
$CHAMFERD
 40
0.0
  9
$SKPOLY
 70
     0
  9
$TDCREATE
 40
2460355.670051585
  9
$TDUCREATE
 40
2460355.295051585
  9
$TDUPDATE
 40
2460355.670052488
  9
$TDUUPDATE
 40
2460355.295052488
  9
$TDINDWG
 40
0.0000000116
  9
$TDUSRTIMER
 40
0.0000000116
  9
$USRTIMER
 70
     1
  9
$ANGBASE
 50
0.0
  9
$ANGDIR
 70
     0
  9
$PDMODE
 70
     0
  9
$PDSIZE
 40
-1.0
  9
$PLINEWID
 40
0.0
  9
$SPLFRAME
 70
     0
  9
$SPLINETYPE
 70
     6
  9
$SPLINESEGS
 70
     8
  9
$HANDSEED
  5
3CF
  9
$SURFTAB1
 70
     6
  9
$SURFTAB2
 70
     6
  9
$SURFTYPE
 70
     6
  9
$SURFU
 70
     6
  9
$SURFV
 70
     6
  9
$UCSBASE
  2

  9
$UCSNAME
  2

  9
$UCSORG
 10
0.0
 20
0.0
 30
0.0
  9
$UCSXDIR
 10
1.0
 20
0.0
 30
0.0
  9
$UCSYDIR
 10
0.0
 20
1.0
 30
0.0
  9
$UCSORTHOREF
  2

  9
$UCSORTHOVIEW
 70
     0
  9
$UCSORGTOP
 10
0.0
 20
0.0
 30
0.0
  9
$UCSORGBOTTOM
 10
0.0
 20
0.0
 30
0.0
  9
$UCSORGLEFT
 10
0.0
 20
0.0
 30
0.0
  9
$UCSORGRIGHT
 10
0.0
 20
0.0
 30
0.0
  9
$UCSORGFRONT
 10
0.0
 20
0.0
 30
0.0
  9
$UCSORGBACK
 10
0.0
 20
0.0
 30
0.0
  9
$PUCSBASE
  2

  9
$PUCSNAME
  2

  9
$PUCSORG
 10
0.0
 20
0.0
 30
0.0
  9
$PUCSXDIR
 10
1.0
 20
0.0
 30
0.0
  9
$PUCSYDIR
 10
0.0
 20
1.0
 30
0.0
  9
$PUCSORTHOREF
  2

  9
$PUCSORTHOVIEW
 70
     0
  9
$PUCSORGTOP
 10
0.0
 20
0.0
 30
0.0
  9
$PUCSORGBOTTOM
 10
0.0
 20
0.0
 30
0.0
  9
$PUCSORGLEFT
 10
0.0
 20
0.0
 30
0.0
  9
$PUCSORGRIGHT
 10
0.0
 20
0.0
 30
0.0
  9
$PUCSORGFRONT
 10
0.0
 20
0.0
 30
0.0
  9
$PUCSORGBACK
 10
0.0
 20
0.0
 30
0.0
  9
$USERI1
 70
     0
  9
$USERI2
 70
     0
  9
$USERI3
 70
     0
  9
$USERI4
 70
     0
  9
$USERI5
 70
     0
  9
$USERR1
 40
0.0
  9
$USERR2
 40
0.0
  9
$USERR3
 40
0.0
  9
$USERR4
 40
0.0
  9
$USERR5
 40
0.0
  9
$WORLDVIEW
 70
     1
  9
$SHADEDGE
 70
     3
  9
$SHADEDIF
 70
    70
  9
$TILEMODE
 70
     1
  9
$MAXACTVP
 70
    64
  9
$PINSBASE
 10
0.0
 20
0.0
 30
0.0
  9
$PLIMCHECK
 70
     0
  9
$PEXTMIN
 10
1.0000000000E+20
 20
1.0000000000E+20
 30
1.0000000000E+20
  9
$PEXTMAX
 10
-1.0000000000E+20
 20
-1.0000000000E+20
 30
-1.0000000000E+20
  9
$PLIMMIN
 10
0.0
 20
0.0
  9
$PLIMMAX
 10
420.0
 20
297.0
  9
$UNITMODE
 70
     0
  9
$VISRETAIN
 70
     1
  9
$PLINEGEN
 70
     0
  9
$PSLTSCALE
 70
     1
  9
$TREEDEPTH
 70
  3020
  9
$CMLSTYLE
  2
Standard
  9
$CMLJUST
 70
     0
  9
$CMLSCALE
 40
20.0
  9
$PROXYGRAPHICS
 70
     1
  9
$MEASUREMENT
 70
     1
  9
$CELWEIGHT
370
    -1
  9
$ENDCAPS
280
     0
  9
$JOINSTYLE
280
     0
  9
$LWDISPLAY
290
     1
  9
$INSUNITS
 70
     4
  9
$HYPERLINKBASE
  1

  9
$STYLESHEET
  1

  9
$XEDIT
290
     1
  9
$CEPSNTYPE
380
     0
  9
$PSTYLEMODE
290
     1
  9
$FINGERPRINTGUID
  2
{f7b7117e-c1c6-4781-b10d-07c1d2f20758}
  9
$VERSIONGUID
  2
{FAEB1C32-E019-11D5-929B-00C0DF256EC4}
  9
$EXTNAMES
290
     1
  9
$PSVPSCALE
 40
0.0
  9
$OLESTARTUP
290
     0
  0
ENDSEC
  0
SECTION
  2
CLASSES
  0
CLASS
  1
ACDBDICTIONARYWDFLT
  2
AcDbDictionaryWithDefault
  3
ObjectDBX Classes
 90
        0
280
     0
281
     0
  0
CLASS
  1
VISUALSTYLE
  2
AcDbVisualStyle
  3
ObjectDBX Classes
 90
     4095
280
     0
281
     0
  0
CLASS
  1
MATERIAL
  2
AcDbMaterial
  3
ObjectDBX Classes
 90
     1153
280
     0
281
     0
  0
CLASS
  1
SCALE
  2
AcDbScale
  3
ObjectDBX Classes
 90
     1153
280
     0
281
     0
  0
CLASS
  1
TABLESTYLE
  2
AcDbTableStyle
  3
ObjectDBX Classes
 90
     4095
280
     0
281
     0
  0
CLASS
  1
MLEADERSTYLE
  2
AcDbMLeaderStyle
  3
ACDB_MLEADERSTYLE_CLASS
 90
     4095
280
     0
281
     0
  0
CLASS
  1
SUN
  2
AcDbSun
  3
SCENEOE
 90
     1153
280
     0
281
     0
  0
CLASS
  1
ACDBPLACEHOLDER
  2
AcDbPlaceHolder
  3
ObjectDBX Classes
 90
        0
280
     0
281
     0
  0
CLASS
  1
LAYOUT
  2
AcDbLayout
  3
ObjectDBX Classes
 90
        0
280
     0
281
     0
  0
ENDSEC
  0
SECTION
  2
TABLES
  0
TABLE
  2
VPORT
  5
8
330
0
100
AcDbSymbolTable
 70
     1
  0
VPORT
  5
29
330
8
100
AcDbSymbolTableRecord
100
AcDbViewportTableRecord
  2
*Active
 70
     0
 10
0.0
 20
0.0
 11
1.0
 21
1.0
 12
420.0
 22
297.0
 13
0.0
 23
0.0
 14
10.0
 24
10.0
 15
10.0
 25
10.0
 16
0.0
 26
0.0
 36
1.0
 17
0.0
 27
0.0
 37
0.0
 40
594.0
 41
1.4141414141
 42
50.0
 43
0.0
 44
0.0
 50
0.0
 51
0.0
 71
     0
 72
  2000
 73
     1
 74
     3
 75
     0
 76
     0
 77
     0
 78
     0
281
     0
 65
     1
110
0.0
120
0.0
130
0.0
111
1.0
121
0.0
131
0.0
112
0.0
122
1.0
132
0.0
 79
     0
146
0.0
  0
ENDTAB
  0
TABLE
  2
LTYPE
  5
5
330
0
100
AcDbSymbolTable
 70
     8
  0
LTYPE
  5
14
330
5
100
AcDbSymbolTableRecord
100
AcDbLinetypeTableRecord
  2
ByBlock
 70
     0
  3

 72
    65
 73
     0
 40
0.0
  0
LTYPE
  5
15
330
5
100
AcDbSymbolTableRecord
100
AcDbLinetypeTableRecord
  2
ByLayer
 70
     0
  3

 72
    65
 73
     0
 40
0.0
  0
LTYPE
  5
16
330
5
100
AcDbSymbolTableRecord
100
AcDbLinetypeTableRecord
  2
Continuous
 70
     0
  3
Solid line
 72
    65
 73
     0
 40
0.0
  0
LTYPE
  5
6E
330
5
100
AcDbSymbolTableRecord
100
AcDbLinetypeTableRecord
  2
SLD-実線
 70
     0
  3
SolidWorks Line Style
 72
    65
 73
     0
 40
0.0
  0
LTYPE
  5
6F
330
5
100
AcDbSymbolTableRecord
100
AcDbLinetypeTableRecord
  2
SLD-破線
 70
     0
  3
SolidWorks Line Style
 72
    65
 73
     2
 40
1.905
 49
1.27
 74
     0
 49
-0.635
 74
     0
  0
LTYPE
  5
70
330
5
100
AcDbSymbolTableRecord
100
AcDbLinetypeTableRecord
  2
SLD-2点鎖線
 70
     0
  3
SolidWorks Line Style
 72
    65
 73
     6
 40
12.7
 49
6.35
 74
     0
 49
-1.27
 74
     0
 49
1.27
 74
     0
 49
-1.27
 74
     0
 49
1.27
 74
     0
 49
-1.27
 74
     0
  0
LTYPE
  5
71
330
5
100
AcDbSymbolTableRecord
100
AcDbLinetypeTableRecord
  2
SLD-鎖線
 70
     0
  3
SolidWorks Line Style
 72
    65
 73
     4
 40
10.16
 49
6.35
 74
     0
 49
-1.27
 74
     0
 49
1.27
 74
     0
 49
-1.27
 74
     0
  0
LTYPE
  5
72
330
5
100
AcDbSymbolTableRecord
100
AcDbLinetypeTableRecord
  2
SLD-1点鎖線(中心線)
 70
     0
  3
SolidWorks Line Style
 72
    65
 73
     4
 40
34.29
 49
30.48
 74
     0
 49
-1.27
 74
     0
 49
1.27
 74
     0
 49
-1.27
 74
     0
  0
LTYPE
  5
73
330
5
100
AcDbSymbolTableRecord
100
AcDbLinetypeTableRecord
  2
SLD-点線
 70
     0
  3
SolidWorks Line Style
 72
    65
 73
     2
 40
0.635
 49
0.0
 74
     0
 49
-0.635
 74
     0
  0
LTYPE
  5
74
330
5
100
AcDbSymbolTableRecord
100
AcDbLinetypeTableRecord
  2
SLD-細-太鎖線(切断面)
 70
     0
  3
SolidWorks Line Style
 72
    65
 73
     4
 40
10.16
 49
6.35
 74
     0
 49
-1.27
 74
     0
 49
1.27
 74
     0
 49
-1.27
 74
     0
  0
ENDTAB
  0
TABLE
  2
LAYER
  5
2
330
0
100
AcDbSymbolTable
 70
     2
  0
LAYER
  5
10
330
2
100
AcDbSymbolTableRecord
100
AcDbLayerTableRecord
  2
0
 70
     0
 62
     7
  6
Continuous
370
    -3
390
F
  0
LAYER
  5
75
330
2
100
AcDbSymbolTableRecord
100
AcDbLayerTableRecord
  2
SLD-0
 70
     0
 62
     3
  6
SLD-実線
370
    -3
390
F
  0
ENDTAB
  0
TABLE
  2
STYLE
  5
3
330
0
100
AcDbSymbolTable
 70
     1
  0
STYLE
  5
11
330
3
100
AcDbSymbolTableRecord
100
AcDbTextStyleTableRecord
  2
STANDARD
 70
     0
 40
0.0
 41
1.0
 50
0.0
 71
     0
 42
7.0
  3
MSGOTHIC.TTC
  4

1001
ACAD
1000
ＭＳ ゴシック
1071
    32817
  0
ENDTAB
  0
TABLE
  2
VIEW
  5
6
330
0
100
AcDbSymbolTable
 70
     0
  0
ENDTAB
  0
TABLE
  2
UCS
  5
7
330
0
100
AcDbSymbolTable
 70
     0
  0
ENDTAB
  0
TABLE
  2
APPID
  5
9
330
0
100
AcDbSymbolTable
 70
     1
  0
APPID
  5
12
330
9
100
AcDbSymbolTableRecord
100
AcDbRegAppTableRecord
  2
ACAD
 70
     0
  0
ENDTAB
  0
TABLE
  2
DIMSTYLE
  5
A
330
0
100
AcDbSymbolTable
 70
     1
100
AcDbDimStyleTable
  0
DIMSTYLE
105
27
330
A
100
AcDbSymbolTableRecord
100
AcDbDimStyleTableRecord
  2
ISO-25
 70
     0
 41
2.5
 42
0.625
 43
3.75
 44
1.25
 73
     0
 74
     0
 77
     1
 78
     8
140
2.5
141
2.5
143
0.0393700787
147
0.625
171
     3
172
     1
178
     0
271
     2
272
     2
274
     3
278
    44
283
     0
284
     8
340
11
  0
ENDTAB
  0
TABLE
  2
BLOCK_RECORD
  5
1
330
0
100
AcDbSymbolTable
 70
     2
  0
BLOCK_RECORD
  5
1F
330
1
100
AcDbSymbolTableRecord
100
AcDbBlockTableRecord
  2
*Model_Space
340
22
  0
BLOCK_RECORD
  5
1B
330
1
100
AcDbSymbolTableRecord
100
AcDbBlockTableRecord
  2
*Paper_Space
340
1E
  0
BLOCK_RECORD
  5
23
330
1
100
AcDbSymbolTableRecord
100
AcDbBlockTableRecord
  2
*Paper_Space0
340
26
  0
BLOCK_RECORD
  5
3BF
330
1
100
AcDbSymbolTableRecord
100
AcDbBlockTableRecord
  2
SW_CENTERMARKSYMBOL_0
340
0
102
{BLKREFS
331
3CA
102
}
  0
ENDTAB
  0
ENDSEC
  0
SECTION
  2
BLOCKS
  0
BLOCK
  5
20
330
1F
100
AcDbEntity
  8
0
100
AcDbBlockBegin
  2
*Model_Space
 70
     0
 10
0.0
 20
0.0
 30
0.0
  3
*Model_Space
  1

  0
ENDBLK
  5
21
330
1F
100
AcDbEntity
  8
0
100
AcDbBlockEnd
  0
BLOCK
  5
1C
330
1B
100
AcDbEntity
 67
     1
  8
0
100
AcDbBlockBegin
  2
*Paper_Space
 70
     0
 10
0.0
 20
0.0
 30
0.0
  3
*Paper_Space
  1

  0
ENDBLK
  5
1D
330
1B
100
AcDbEntity
 67
     1
  8
0
100
AcDbBlockEnd
  0
BLOCK
  5
24
330
23
100
AcDbEntity
  8
0
100
AcDbBlockBegin
  2
*Paper_Space0
 70
     0
 10
0.0
 20
0.0
 30
0.0
  3
*Paper_Space0
  1

  0
ENDBLK
  5
25
330
23
100
AcDbEntity
  8
0
100
AcDbBlockEnd
  0
BLOCK
  5
3C0
330
3BF
100
AcDbEntity
  8
0
100
AcDbBlockBegin
  2
SW_CENTERMARKSYMBOL_0
 70
     0
 10
0.0
 20
0.0
 30
0.0
  3
SW_CENTERMARKSYMBOL_0
  1

  0
LINE
  5
3C2
330
3BF
100
AcDbEntity
  8
SLD-0
 62
     0
100
AcDbLine
 10
0.0
 20
0.0
 30
0.0
 11
0.0
 21
2.5
 31
0.0
  0
LINE
  5
3C3
330
3BF
100
AcDbEntity
  8
SLD-0
 62
     0
100
AcDbLine
 10
0.0
 20
0.0
 30
0.0
 11
-2.5
 21
0.0
 31
0.0
  0
LINE
  5
3C4
330
3BF
100
AcDbEntity
  8
SLD-0
 62
     0
100
AcDbLine
 10
0.0
 20
0.0
 30
0.0
 11
0.0
 21
-2.5
 31
0.0
  0
LINE
  5
3C5
330
3BF
100
AcDbEntity
  8
SLD-0
 62
     0
100
AcDbLine
 10
0.0
 20
0.0
 30
0.0
 11
2.5
 21
0.0
 31
0.0
  0
LINE
  5
3C6
330
3BF
100
AcDbEntity
  8
SLD-0
 62
     0
100
AcDbLine
 10
0.0
 20
5.0
 30
0.0
 11
0.0
 21
46.0539206951
 31
0.0
  0
LINE
  5
3C7
330
3BF
100
AcDbEntity
  8
SLD-0
 62
     0
100
AcDbLine
 10
-5.0
 20
0.0
 30
0.0
 11
-62.0035966552
 21
0.0
 31
0.0
  0
LINE
  5
3C8
330
3BF
100
AcDbEntity
  8
SLD-0
 62
     0
100
AcDbLine
 10
0.0
 20
-5.0
 30
0.0
 11
0.0
 21
-149.9450242647
 31
0.0
  0
LINE
  5
3C9
330
3BF
100
AcDbEntity
  8
SLD-0
 62
     0
100
AcDbLine
 10
5.0
 20
0.0
 30
0.0
 11
58.0276423828
 21
0.0
 31
0.0
  0
ENDBLK
  5
3C1
330
3BF
100
AcDbEntity
  8
0
100
AcDbBlockEnd
  0
ENDSEC
  0
SECTION
  2
ENTITIES
  0
SPLINE
  5
76
330
1F
100
AcDbEntity
  8
0
  6
SLD-実線
 62
     7
370
    25
100
AcDbSpline
210
0.0
220
0.0
230
1.0
 70
     8
 71
     3
 72
    25
 73
    21
 74
     0
 42
0.000000001
 43
0.00000001
 40
0.0
 40
0.0
 40
0.0
 40
0.0
 40
0.0680498113524483
 40
0.1280120673572507
 40
0.1804134791911905
 40
0.2248144064735315
 40
0.2612879196611211
 40
0.2898808029436949
 40
0.310550935910105
 40
0.3235274562678481
 40
0.353145311588181
 40
0.3973109746439122
 40
0.4963693943147312
 40
0.5486279916063764
 40
0.5961575791107356
 40
0.6386279899550884
 40
0.6898499561039018
 40
0.7669829630211423
 40
0.8703621202898704
 40
1.0
 40
1.0
 40
1.0
 40
1.0
 10
160.3391214294184
 20
173.7607708777596
 30
0.0
 10
160.3393247660916
 20
173.694794296398
 30
0.0
 10
160.3397072733666
 20
173.5706822906566
 30
0.0
 10
160.3388761769399
 20
172.8240354551686
 30
0.0
 10
160.3394166751277
 20
171.7756909497685
 30
0.0
 10
160.3393745702198
 20
170.6523309279129
 30
0.0
 10
160.3393854953575
 20
169.5664409830623
 30
0.0
 10
160.3394394207591
 20
168.6186244785254
 30
0.0
 10
160.3395247027655
 20
167.8805724566696
 30
0.0
 10
160.3395912943963
 20
167.0975495445628
 30
0.0
 10
160.3397295147701
 20
165.960231556513
 30
0.0
 10
160.3399501624419
 20
163.5167187309549
 30
0.0
 10
160.3400045122358
 20
160.4301584124599
 30
0.0
 10
160.3400992807378
 20
157.0982494264377
 30
0.0
 10
160.3402233339218
 20
154.6679176870227
 30
0.0
 10
160.340158383823
 20
152.2512244296557
 30
0.0
 10
160.3398340253838
 20
149.3282403310534
 30
0.0
 10
160.3381906822548
 20
145.362766009459
 30
0.0
 10
160.3408248325596
 20
140.0556120832365
 30
0.0
 10
160.3393330031602
 20
136.0682514804913
 30
0.0
 10
160.3385030312289
 20
133.8499030675103
 30
0.0
  0
SPLINE
  5
77
330
1F
100
AcDbEntity
  8
0
  6
SLD-実線
 62
     7
370
    25
100
AcDbSpline
210
0.0
220
0.0
230
1.0
 70
     8
 71
     3
 72
    24
 73
    20
 74
     0
 42
0.000000001
 43
0.00000001
 40
0.0
 40
0.0
 40
0.0
 40
0.0
 40
0.1026279228677086
 40
0.1865253516071365
 40
0.2521481425136556
 40
0.2999234076081221
 40
0.3410552919763187
 40
0.3815494476915667
 40
0.4217637090861853
 40
0.4630812640754092
 40
0.5499714358172605
 40
0.5991550232510371
 40
0.6586595316539688
 40
0.7285602538192264
 40
0.8087345940164332
 40
0.8528063387359164
 40
0.8993909888871258
 40
0.9484462304722098
 40
1.0
 40
1.0
 40
1.0
 40
1.0
 10
170.4396351260889
 20
133.8499030675103
 30
0.0
 10
170.4383374927334
 20
135.6076057534621
 30
0.0
 10
170.4359790554668
 20
138.8022150016742
 30
0.0
 10
170.440026976485
 20
143.1207227164911
 30
0.0
 10
170.4391047122087
 20
146.4997827085704
 30
0.0
 10
170.4384850913791
 20
149.1464375351823
 30
0.0
 10
170.4380762761368
 20
151.3623851892217
 30
0.0
 10
170.4379320486775
 20
153.449408267015
 30
0.0
 10
170.4379499326034
 20
155.5384686100867
 30
0.0
 10
170.4381140842287
 20
158.4058223574493
 30
0.0
 10
170.4380996122885
 20
161.3398411579848
 30
0.0
 10
170.438123209997
 20
164.3255321461995
 30
0.0
 10
170.4383296750409
 20
166.8358921419741
 30
0.0
 10
170.4387333464714
 20
169.3932190952119
 30
0.0
 10
170.4389602649588
 20
171.2509217914866
 30
0.0
 10
170.4394284558121
 20
172.4805722989718
 30
0.0
 10
170.439989334359
 20
173.2335884434206
 30
0.0
 10
170.4385401749791
 20
173.6328081790334
 30
0.0
 10
170.4388552685772
 20
173.7122338178974
 30
0.0
 10
170.4390167278994
 20
173.7529328669717
 30
0.0
  0
LINE
  5
78
330
1F
100
AcDbEntity
  8
0
  6
SLD-実線
 62
     7
370
    25
100
AcDbLine
 10
120.3890710158
 20
157.9499086942
 30
0.0
 11
120.3890710158
 21
157.4499076809
 31
0.0
  0
LINE
  5
79
330
1F
100
AcDbEntity
  8
0
  6
SLD-実線
 62
     7
370
    25
100
AcDbLine
 10
130.3890763802
 20
157.4499076809
 30
0.0
 11
130.3890763802
 21
157.9499086942
 31
0.0
  0
LINE
  5
7A
330
1F
100
AcDbEntity
  8
0
  6
SLD-実線
 62
     7
370
    25
100
AcDbLine
 10
209.3890725655
 20
157.9499086942
 30
0.0
 11
209.3890725655
 21
157.4499076809
 31
0.0
  0
LINE
  5
7B
330
1F
100
AcDbEntity
  8
0
  6
SLD-実線
 62
     7
370
    25
100
AcDbLine
 10
219.3890704794
 20
157.4499076809
 30
0.0
 11
219.3890704794
 21
157.9499086942
 31
0.0
  0
LINE
  5
7C
330
1F
100
AcDbEntity
  8
0
  6
SLD-実線
 62
     7
370
    25
100
AcDbLine
 10
219.139073698
 20
157.9499086942
 30
0.0
 11
219.139073698
 21
159.649907669
 31
0.0
  0
LINE
  5
7D
330
1F
100
AcDbEntity
  8
0
  6
SLD-実線
 62
     7
370
    25
100
AcDbLine
 10
209.6390693469
 20
159.649907669
 30
0.0
 11
209.6390693469
 21
157.9499086942
 31
0.0
  0
ARC
  5
7E
330
1F
100
AcDbEntity
  8
0
  6
SLD-実線
 62
     7
370
    25
100
AcDbCircle
 10
217.1390714926
 20
159.6499071206
 30
0.0
 40
2.0
100
AcDbArc
 50
0.0
 51
58.4383612254
  0
ARC
  5
7F
330
1F
100
AcDbEntity
  8
0
  6
SLD-実線
 62
     7
370
    25
100
AcDbCircle
 10
211.6390714926
 20
159.6499071206
 30
0.0
 40
2.0
100
AcDbArc
 50
121.5668558205
 51
180.0
  0
LINE
  5
80
330
1F
100
AcDbEntity
  8
0
  6
SLD-実線
 62
     7
370
    25
100
AcDbLine
 10
216.8890728636
 20
156.8499049749
 30
0.0
 11
216.8890728636
 21
157.4499076809
 31
0.0
  0
LINE
  5
81
330
1F
100
AcDbEntity
  8
0
  6
SLD-実線
 62
     7
370
    25
100
AcDbLine
 10
211.8890701813
 20
157.4499076809
 30
0.0
 11
211.8890701813
 21
156.8499049749
 31
0.0
  0
LINE
  5
82
330
1F
100
AcDbEntity
  8
0
  6
SLD-実線
 62
     7
370
    25
100
AcDbLine
 10
130.1390646977
 20
157.9499086942
 30
0.0
 11
130.1390646977
 21
159.649907669
 31
0.0
  0
LINE
  5
83
330
1F
100
AcDbEntity
  8
0
  6
SLD-実線
 62
     7
370
    25
100
AcDbLine
 10
120.6390677972
 20
159.649907669
 30
0.0
 11
120.6390677972
 21
157.9499086942
 31
0.0
  0
ARC
  5
84
330
1F
100
AcDbEntity
  8
0
  6
SLD-実線
 62
     7
370
    25
100
AcDbCircle
 10
128.1390714926
 20
159.6499071206
 30
0.0
 40
2.0
100
AcDbArc
 50
0.0
 51
90.0
  0
ARC
  5
85
330
1F
100
AcDbEntity
  8
0
  6
SLD-実線
 62
     7
370
    25
100
AcDbCircle
 10
122.6390714926
 20
159.6499071206
 30
0.0
 40
2.0
100
AcDbArc
 50
90.0
 51
180.0
  0
LINE
  5
86
330
1F
100
AcDbEntity
  8
0
  6
SLD-実線
 62
     7
370
    25
100
AcDbLine
 10
127.8890787644
 20
156.8499049749
 30
0.0
 11
127.8890787644
 21
157.4499076809
 31
0.0
  0
LINE
  5
87
330
1F
100
AcDbEntity
  8
0
  6
SLD-実線
 62
     7
370
    25
100
AcDbLine
 10
122.8890686316
 20
157.4499076809
 30
0.0
 11
122.8890686316
 21
156.8499049749
 31
0.0
  0
LINE
  5
88
330
1F
100
AcDbEntity
  8
0
  6
SLD-実線
 62
     7
370
    25
100
AcDbLine
 10
76.0890661759
 20
171.8499055709
 30
0.0
 11
79.1890739484
 21
171.8499055709
 31
0.0
  0
LINE
  5
89
330
1F
100
AcDbEntity
  8
0
  6
SLD-実線
 62
     7
370
    25
100
AcDbLine
 10
79.1890739484
 20
179.8499068822
 30
0.0
 11
76.0890661759
 21
179.8499068822
 31
0.0
  0
LINE
  5
8A
330
1F
100
AcDbEntity
  8
0
  6
SLD-実線
 62
     7
370
    25
100
AcDbLine
 10
398.8890691681
 20
268.8499075006
 30
0.0
 11
400.0890745802
 21
268.8499075006
 31
0.0
  0
LINE
  5
8B
330
1F
100
AcDbEntity
  8
0
  6
SLD-実線
 62
     7
370
    25
100
AcDbLine
 10
400.0890745802
 20
284.8499073292
 30
0.0
 11
398.8890691681
 21
284.8499073292
 31
0.0
  0
LINE
  5
8C
330
1F
100
AcDbEntity
  8
0
  6
SLD-実線
 62
     7
370
    25
100
AcDbLine
 10
255.3890707923
 20
168.8499069418
 30
0.0
 11
255.3890707923
 21
170.0499049033
 31
0.0
  0
LINE
  5
8D
330
1F
100
AcDbEntity
  8
0
  6
SLD-実線
 62
     7
370
    25
100
AcDbLine
 10
239.3890700323
 20
170.0499049033
 30
0.0
 11
239.3890700323
 21
168.8499069418
 31
0.0
  0
LINE
  5
8E
330
1F
100
AcDbEntity
  8
0
  6
SLD-実線
 62
     7
370
    25
100
AcDbLine
 10
64.3890767379
 20
183.8499075379
 30
0.0
 11
63.1890713258
 21
183.8499075379
 31
0.0
  0
LINE
  5
8F
330
1F
100
AcDbEntity
  8
0
  6
SLD-実線
 62
     7
370
    25
100
AcDbLine
 10
63.1890713258
 20
167.8499049153
 30
0.0
 11
64.3890767379
 21
167.8499049153
 31
0.0
  0
LINE
  5
90
330
1F
100
AcDbEntity
  8
0
  6
SLD-実線
 62
     7
370
    25
100
AcDbLine
 10
280.8890714796
 20
327.9141402449
 30
0.0
 11
283.8890715057
 21
327.9141402449
 31
0.0
  0
LINE
  5
91
330
1F
100
AcDbEntity
  8
0
  6
SLD-実線
 62
     7
370
    25
100
AcDbLine
 10
283.8890715057
 20
335.9141415562
 30
0.0
 11
280.8890714796
 21
335.9141415562
 31
0.0
  0
LINE
  5
92
330
1F
100
AcDbEntity
  8
0
  6
SLD-実線
 62
     7
370
    25
100
AcDbLine
 10
280.8890714796
 20
185.7856726851
 30
0.0
 11
283.8890715057
 21
185.7856726851
 31
0.0
  0
LINE
  5
93
330
1F
100
AcDbEntity
  8
0
  6
SLD-実線
 62
     7
370
    25
100
AcDbLine
 10
283.8890715057
 20
193.7856739964
 30
0.0
 11
280.8890714796
 21
193.7856739964
 31
0.0
  0
LINE
  5
94
330
1F
100
AcDbEntity
  8
0
  6
SLD-実線
 62
     7
370
    25
100
AcDbLine
 10
306.8890708519
 20
433.8499000873
 30
0.0
 11
306.8890708519
 21
432.8499129619
 31
0.0
  0
LINE
  5
95
330
1F
100
AcDbEntity
  8
0
  6
SLD-実線
 62
     7
370
    25
100
AcDbLine
 10
326.8890722675
 20
432.8499129619
 30
0.0
 11
326.8890722675
 21
433.8499000873
 31
0.0
  0
LINE
  5
96
330
1F
100
AcDbEntity
  8
0
  6
SLD-実線
 62
     7
370
    25
100
AcDbLine
 10
405.8890684528
 20
384.8499050941
 30
0.0
 11
404.8890738768
 21
384.8499050941
 31
0.0
  0
LINE
  5
97
330
1F
100
AcDbEntity
  8
0
  6
SLD-実線
 62
     7
370
    25
100
AcDbLine
 10
404.8890738768
 20
364.8499092664
 30
0.0
 11
405.8890684528
 21
364.8499092664
 31
0.0
  0
LINE
  5
98
330
1F
100
AcDbEntity
  8
0
  6
SLD-実線
 62
     7
370
    25
100
AcDbLine
 10
388.2890685482
 20
379.8499098624
 30
0.0
 11
386.8890746517
 21
379.8499098624
 31
0.0
  0
LINE
  5
99
330
1F
100
AcDbEntity
  8
0
  6
SLD-実線
 62
     7
370
    25
100
AcDbLine
 10
386.8890746517
 20
369.849904498
 30
0.0
 11
388.2890685482
 21
369.849904498
 31
0.0
  0
ARC
  5
9A
330
1F
100
AcDbEntity
  8
0
  6
SLD-実線
 62
     7
370
    25
100
AcDbCircle
 10
340.3890714926
 20
197.0758410175
 30
0.0
 40
1.5
100
AcDbArc
 50
90.0
 51
180.0
  0
ARC
  5
9B
330
1F
100
AcDbEntity
  8
0
  6
SLD-実線
 62
     7
370
    25
100
AcDbCircle
 10
340.3890714926
 20
170.0758410175
 30
0.0
 40
1.5
100
AcDbArc
 50
180.0
 51
270.0
  0
ARC
  5
9C
330
1F
100
AcDbEntity
  8
0
  6
SLD-実線
 62
     7
370
    25
100
AcDbCircle
 10
340.6890714926
 20
199.5258410175
 30
0.0
 40
0.3000000000000114
100
AcDbArc
 50
90.0
 51
180.0
  0
ARC
  5
9D
330
1F
100
AcDbEntity
  8
0
  6
SLD-実線
 62
     7
370
    25
100
AcDbCircle
 10
340.6890714926
 20
167.6258410175
 30
0.0
 40
0.3000000000000114
100
AcDbArc
 50
180.0
 51
270.0
  0
LINE
  5
9E
330
1F
100
AcDbEntity
  8
0
  6
SLD-実線
 62
     7
370
    25
100
AcDbLine
 10
341.3890718503
 20
199.8258410598
 30
0.0
 11
340.6890711767
 21
199.8258410598
 31
0.0
  0
LINE
  5
9F
330
1F
100
AcDbEntity
  8
0
  6
SLD-実線
 62
     7
370
    25
100
AcDbLine
 10
340.6890711767
 20
167.3258385266
 30
0.0
 11
341.3890718503
 21
167.3258385266
 31
0.0
  0
ARC
  5
A0
330
1F
100
AcDbEntity
  8
0
  6
SLD-実線
 62
     7
370
    25
100
AcDbCircle
 10
306.3890714926
 20
183.5758410175
 30
0.0
 40
45.00000000000001
100
AcDbArc
 50
338.9605302187
 51
21.0394697813
  0
ARC
  5
A1
330
1F
100
AcDbEntity
  8
0
  6
SLD-実線
 62
     7
370
    25
100
AcDbCircle
 10
347.8890714926
 20
201.5758410175
 30
0.0
 40
0.5
100
AcDbArc
 50
0.0
 51
90.0
  0
ARC
  5
A2
330
1F
100
AcDbEntity
  8
0
  6
SLD-実線
 62
     7
370
    25
100
AcDbCircle
 10
341.8890714926
 20
201.5758410175
 30
0.0
 40
0.5
100
AcDbArc
 50
90.0
 51
180.0
  0
ARC
  5
A3
330
1F
100
AcDbEntity
  8
0
  6
SLD-実線
 62
     7
370
    25
100
AcDbCircle
 10
341.8890714926
 20
165.5758410175
 30
0.0
 40
0.5
100
AcDbArc
 50
180.0
 51
270.0
  0
ARC
  5
A4
330
1F
100
AcDbEntity
  8
0
  6
SLD-実線
 62
     7
370
    25
100
AcDbCircle
 10
347.8890714926
 20
165.5758410175
 30
0.0
 40
0.5
100
AcDbArc
 50
270.0
 51
0.0
  0
LINE
  5
A5
330
1F
100
AcDbEntity
  8
0
  6
SLD-実線
 62
     7
370
    25
100
AcDbLine
 10
347.8890701217
 20
202.0758418943
 30
0.0
 11
341.8890728636
 21
202.0758418943
 31
0.0
  0
LINE
  5
A6
330
1F
100
AcDbEntity
  8
0
  6
SLD-実線
 62
     7
370
    25
100
AcDbLine
 10
341.8890728636
 20
165.0758376922
 30
0.0
 11
347.8890701217
 21
165.0758376922
 31
0.0
  0
LINE
  5
A7
330
1F
100
AcDbEntity
  8
0
  6
SLD-実線
 62
     7
370
    25
100
AcDbLine
 10
337.3890711946
 20
413.8499042596
 30
0.0
 11
337.3890711946
 21
414.8499062862
 31
0.0
  0
LINE
  5
A8
330
1F
100
AcDbEntity
  8
0
  6
SLD-実線
 62
     7
370
    25
100
AcDbLine
 10
296.3890719248
 20
414.8499062862
 30
0.0
 11
296.3890719248
 21
413.8499042596
 31
0.0
  0
LINE
  5
A9
330
1F
100
AcDbEntity
  8
0
  6
SLD-実線
 62
     7
370
    25
100
AcDbLine
 10
293.389071433
 20
423.849909624
 30
0.0
 11
293.389071433
 21
414.8499062862
 31
0.0
  0
LINE
  5
AA
330
1F
100
AcDbEntity
  8
0
  6
SLD-実線
 62
     7
370
    25
100
AcDbLine
 10
340.3890698237
 20
414.8499062862
 30
0.0
 11
340.3890698237
 21
423.849909624
 31
0.0
  0
LINE
  5
AB
330
1F
100
AcDbEntity
  8
0
  6
SLD-実線
 62
     7
370
    25
100
AcDbLine
 10
294.560519701
 20
429.8499068822
 30
0.0
 11
294.560519701
 21
423.849909624
 31
0.0
  0
LINE
  5
AC
330
1F
100
AcDbEntity
  8
0
  6
SLD-実線
 62
     7
370
    25
100
AcDbLine
 10
339.217622487
 20
423.849909624
 30
0.0
 11
339.217622487
 21
429.8499068822
 31
0.0
  0
LINE
  5
AD
330
1F
100
AcDbEntity
  8
0
  6
SLD-実線
 62
     7
370
    25
100
AcDbLine
 10
72.8890716119
 20
190.3499058093
 30
0.0
 11
74.3890672011
 21
190.3499058093
 31
0.0
  0
ARC
  5
AE
330
1F
100
AcDbEntity
  8
0
  6
SLD-実線
 62
     7
370
    25
100
AcDbCircle
 10
70.3357522107
 20
198.3499071206
 30
0.0
 40
7.999999999999999
100
AcDbArc
 50
195.2555633432
 51
221.9837056292
  0
LWPOLYLINE
  5
AF
330
1F
100
AcDbEntity
  8
0
  6
SLD-実線
 62
     7
370
    25
100
AcDbPolyline
 90
        3
 70
   128
 43
0.0
 10
61.2329362912
 20
201.849906763
 10
61.6310804171
 20
200.1148416306
 10
62.6176564975
 20
196.2449094857
  0
LINE
  5
B0
330
1F
100
AcDbEntity
  8
0
  6
SLD-実線
 62
     7
370
    25
100
AcDbLine
 10
187.1604665203
 20
329.8499053921
 30
0.0
 11
123.5292523188
 21
329.8499053921
 31
0.0
  0
LINE
  5
B1
330
1F
100
AcDbEntity
  8
0
  6
SLD-実線
 62
     7
370
    25
100
AcDbLine
 10
205.2488892359
 20
329.8499053921
 30
0.0
 11
190.6390680952
 21
329.8499053921
 31
0.0
  0
LINE
  5
B2
330
1F
100
AcDbEntity
  8
0
  6
SLD-実線
 62
     7
370
    25
100
AcDbLine
 10
74.3890672011
 20
191.8499088492
 30
0.0
 11
109.5312058015
 21
191.8499088492
 31
0.0
  0
LINE
  5
B3
330
1F
100
AcDbEntity
  8
0
  6
SLD-実線
 62
     7
370
    25
100
AcDbLine
 10
282.3890714926
 20
353.849909326
 30
0.0
 11
274.3890711127
 21
353.849909326
 31
0.0
  0
LINE
  5
B4
330
1F
100
AcDbEntity
  8
0
  6
SLD-実線
 62
     7
370
    25
100
AcDbLine
 10
267.8890719099
 20
179.9069932307
 30
0.0
 11
280.8890714796
 21
179.9069932307
 31
0.0
  0
LINE
  5
B5
330
1F
100
AcDbEntity
  8
0
  6
SLD-実線
 62
     7
370
    25
100
AcDbLine
 10
280.8890714796
 20
341.7928210105
 30
0.0
 11
267.8890719099
 21
341.7928210105
 31
0.0
  0
LINE
  5
B6
330
1F
100
AcDbEntity
  8
0
  6
SLD-実線
 62
     7
370
    25
100
AcDbLine
 10
229.8031195087
 20
190.3499058093
 30
0.0
 11
239.3890700323
 21
190.3499058093
 31
0.0
  0
LINE
  5
B7
330
1F
100
AcDbEntity
  8
0
  6
SLD-実線
 62
     7
370
    25
100
AcDbLine
 10
260.8890707625
 20
326.3499057497
 30
0.0
 11
254.3890706284
 21
326.3499057497
 31
0.0
  0
LINE
  5
B8
330
1F
100
AcDbEntity
  8
0
  6
SLD-実線
 62
     7
370
    25
100
AcDbLine
 10
274.3890711127
 20
291.0995735432
 30
0.0
 11
256.3890709562
 21
286.7952259834
 31
0.0
  0
LINE
  5
B9
330
1F
100
AcDbEntity
  8
0
  6
SLD-実線
 62
     7
370
    25
100
AcDbLine
 10
256.3890709562
 20
234.9045882578
 30
0.0
 11
274.3890711127
 21
230.600240698
 31
0.0
  0
LINE
  5
BA
330
1F
100
AcDbEntity
  8
0
  6
SLD-実線
 62
     7
370
    25
100
AcDbLine
 10
254.3890706284
 20
240.8499075677
 30
0.0
 11
256.3890709562
 21
240.8499075677
 31
0.0
  0
LINE
  5
BB
330
1F
100
AcDbEntity
  8
0
  6
SLD-実線
 62
     7
370
    25
100
AcDbLine
 10
256.3890709562
 20
280.8499066736
 30
0.0
 11
254.3890706284
 21
280.8499066736
 31
0.0
  0
LINE
  5
BC
330
1F
100
AcDbEntity
  8
0
  6
SLD-実線
 62
     7
370
    25
100
AcDbLine
 10
283.8890715057
 20
415.8499083127
 30
0.0
 11
283.8890715057
 21
413.8499042596
 31
0.0
  0
LINE
  5
BD
330
1F
100
AcDbEntity
  8
0
  6
SLD-実線
 62
     7
370
    25
100
AcDbLine
 10
349.8890741749
 20
413.8499042596
 30
0.0
 11
349.8890741749
 21
415.8499083127
 31
0.0
  0
LINE
  5
BE
330
1F
100
AcDbEntity
  8
0
  6
SLD-実線
 62
     7
370
    25
100
AcDbLine
 10
349.8890741749
 20
416.2499001826
 30
0.0
 11
349.8890741749
 21
432.8499129619
 31
0.0
  0
LINE
  5
BF
330
1F
100
AcDbEntity
  8
0
  6
SLD-実線
 62
     7
370
    25
100
AcDbLine
 10
283.8890715057
 20
432.8499129619
 30
0.0
 11
283.8890715057
 21
416.2499001826
 31
0.0
  0
LINE
  5
C0
330
1F
100
AcDbEntity
  8
0
  6
SLD-実線
 62
     7
370
    25
100
AcDbLine
 10
349.8890741749
 20
415.8499083127
 30
0.0
 11
349.8890741749
 21
416.2499001826
 31
0.0
  0
LINE
  5
C1
330
1F
100
AcDbEntity
  8
0
  6
SLD-実線
 62
     7
370
    25
100
AcDbLine
 10
283.8890715057
 20
416.2499001826
 30
0.0
 11
283.8890715057
 21
415.8499083127
 31
0.0
  0
ARC
  5
C2
330
1F
100
AcDbEntity
  8
0
  6
SLD-実線
 62
     7
370
    25
100
AcDbCircle
 10
347.8890714926
 20
438.8499071206
 30
0.0
 40
2.0
100
AcDbArc
 50
0.0
 51
90.0
  0
LINE
  5
C3
330
1F
100
AcDbEntity
  8
0
  6
SLD-実線
 62
     7
370
    25
100
AcDbLine
 10
349.8890741749
 20
432.8499129619
 30
0.0
 11
349.8890741749
 21
438.8499102201
 31
0.0
  0
LINE
  5
C4
330
1F
100
AcDbEntity
  8
0
  6
SLD-実線
 62
     7
370
    25
100
AcDbLine
 10
283.8890715057
 20
438.8499102201
 30
0.0
 11
283.8890715057
 21
432.8499129619
 31
0.0
  0
ARC
  5
C5
330
1F
100
AcDbEntity
  8
0
  6
SLD-実線
 62
     7
370
    25
100
AcDbCircle
 10
285.8890714926
 20
438.8499071206
 30
0.0
 40
2.0
100
AcDbArc
 50
90.0
 51
180.0
  0
LINE
  5
C6
330
1F
100
AcDbEntity
  8
0
  6
SLD-実線
 62
     7
370
    25
100
AcDbLine
 10
404.8890738768
 20
407.8499070014
 30
0.0
 11
388.2890685482
 21
407.8499070014
 31
0.0
  0
LINE
  5
C7
330
1F
100
AcDbEntity
  8
0
  6
SLD-実線
 62
     7
370
    25
100
AcDbLine
 10
388.2890685482
 20
341.849907359
 30
0.0
 11
404.8890738768
 21
341.849907359
 31
0.0
  0
LINE
  5
C8
330
1F
100
AcDbEntity
  8
0
  6
SLD-実線
 62
     7
370
    25
100
AcDbLine
 10
387.8890692277
 20
341.849907359
 30
0.0
 11
388.2890685482
 21
341.849907359
 31
0.0
  0
LINE
  5
C9
330
1F
100
AcDbEntity
  8
0
  6
SLD-実線
 62
     7
370
    25
100
AcDbLine
 10
388.2890685482
 20
407.8499070014
 30
0.0
 11
387.8890692277
 21
407.8499070014
 31
0.0
  0
ARC
  5
CA
330
1F
100
AcDbEntity
  8
0
  6
SLD-実線
 62
     7
370
    25
100
AcDbCircle
 10
420.8890714926
 20
405.8499071206
 30
0.0
 40
2.0
100
AcDbArc
 50
0.0
 51
90.0
  0
LINE
  5
CB
330
1F
100
AcDbEntity
  8
0
  6
SLD-実線
 62
     7
370
    25
100
AcDbLine
 10
420.8890764994
 20
407.8499070014
 30
0.0
 11
404.8890738768
 21
407.8499070014
 31
0.0
  0
ARC
  5
CC
330
1F
100
AcDbEntity
  8
0
  6
SLD-実線
 62
     7
370
    25
100
AcDbCircle
 10
420.8890714926
 20
343.8499071206
 30
0.0
 40
2.0
100
AcDbArc
 50
270.0
 51
0.0
  0
LINE
  5
CD
330
1F
100
AcDbEntity
  8
0
  6
SLD-実線
 62
     7
370
    25
100
AcDbLine
 10
404.8890738768
 20
341.849907359
 30
0.0
 11
420.8890764994
 21
341.849907359
 31
0.0
  0
LINE
  5
CE
330
1F
100
AcDbEntity
  8
0
  6
SLD-実線
 62
     7
370
    25
100
AcDbLine
 10
387.8890692277
 20
404.8499009217
 30
0.0
 11
386.8890746517
 21
404.8499009217
 31
0.0
  0
LINE
  5
CF
330
1F
100
AcDbEntity
  8
0
  6
SLD-実線
 62
     7
370
    25
100
AcDbLine
 10
386.8890746517
 20
344.8499059881
 30
0.0
 11
387.8890692277
 21
344.8499059881
 31
0.0
  0
LINE
  5
D0
330
1F
100
AcDbEntity
  8
0
  6
SLD-実線
 62
     7
370
    25
100
AcDbLine
 10
310.8890715075
 20
163.8499042596
 30
0.0
 11
323.8890699131
 21
163.8499042596
 31
0.0
  0
LINE
  5
D1
330
1F
100
AcDbEntity
  8
0
  6
SLD-実線
 62
     7
370
    25
100
AcDbLine
 10
294.8890716789
 20
413.8499042596
 30
0.0
 11
294.8890716789
 21
401.7282268609
 31
0.0
  0
LINE
  5
D2
330
1F
100
AcDbEntity
  8
0
  6
SLD-実線
 62
     7
370
    25
100
AcDbLine
 10
338.8890705092
 20
401.8805912341
 30
0.0
 11
338.8890705092
 21
413.8499042596
 31
0.0
  0
ARC
  5
D3
330
1F
100
AcDbEntity
  8
0
  6
SLD-実線
 62
     7
370
    25
100
AcDbCircle
 10
282.3890714926
 20
355.3499071206
 30
0.0
 40
1.5
100
AcDbArc
 50
270.0
 51
0.0
  0
SPLINE
  5
D4
330
1F
100
AcDbEntity
  8
0
  6
SLD-実線
 62
     7
370
    25
100
AcDbSpline
210
0.0
220
0.0
230
1.0
 70
     8
 71
     3
 72
     9
 73
     5
 74
     0
 42
0.000000001
 43
0.00000001
 40
0.0
 40
0.0
 40
0.0
 40
0.0
 40
0.6975014921582442
 40
1.0
 40
1.0
 40
1.0
 40
1.0
 10
350.7734431905497
 20
409.3767693843056
 30
0.0
 10
350.6813208393189
 20
409.374114380804
 30
0.0
 10
350.5492460663376
 20
409.370307932314
 30
0.0
 10
350.4186775872097
 20
409.3875901038189
 30
0.0
 10
350.3791808171023
 20
409.3928179349114
 30
0.0
  0
ARC
  5
D5
330
1F
100
AcDbEntity
  8
0
  6
SLD-実線
 62
     7
370
    25
100
AcDbCircle
 10
386.8890714926
 20
341.8499071206
 30
0.0
 40
3.0
100
AcDbArc
 50
89.9999999995
 51
180.0
  0
LINE
  5
D6
330
1F
100
AcDbEntity
  8
0
  6
SLD-実線
 62
     7
370
    25
100
AcDbLine
 10
386.8890746517
 20
409.3715390767
 30
0.0
 11
350.7730036063
 21
409.3715390767
 31
0.0
  0
SPLINE
  5
D7
330
1F
100
AcDbEntity
  8
0
  6
SLD-実線
 62
     7
370
    25
100
AcDbSpline
210
0.0
220
0.0
230
1.0
 70
     8
 71
     3
 72
    16
 73
    12
 74
     0
 42
0.000000001
 43
0.00000001
 40
0.0
 40
0.0
 40
0.0
 40
0.0
 40
0.0215115457091952
 40
0.0909211479333148
 40
0.1686871264094554
 40
0.2657219536812914
 40
0.39114194086067
 40
0.5545676793764852
 40
0.7240963035153932
 40
0.8934466718966729
 40
1.0
 40
1.0
 40
1.0
 40
1.0
 10
329.3412669582117
 20
166.1906531657388
 30
0.0
 10
329.3069195814351
 20
166.1703508143279
 30
0.0
 10
329.1617462420922
 20
166.0845404722457
 30
0.0
 10
329.0987437220599
 20
166.0601176389563
 30
0.0
 10
329.176483551652
 20
166.0956745639137
 30
0.0
 10
329.5058179690232
 20
166.2488692892143
 30
0.0
 10
330.1175482433603
 20
166.5337639498675
 30
0.0
 10
331.0183119802222
 20
166.986160094699
 30
0.0
 10
332.1179368023466
 20
167.645221282256
 30
0.0
 10
333.1408117341053
 20
168.3664188800654
 30
0.0
 10
333.7330040489238
 20
168.9477698144985
 30
0.0
 10
333.9617072624911
 20
169.1722861136605
 30
0.0
  0
LINE
  5
D8
330
1F
100
AcDbEntity
  8
0
  6
SLD-実線
 62
     7
370
    25
100
AcDbLine
 10
333.8890715523
 20
169.0758383478
 30
0.0
 11
338.8890705092
 21
169.0758383478
 31
0.0
  0
LINE
  5
D9
330
1F
100
AcDbEntity
  8
0
  6
SLD-実線
 62
     7
370
    25
100
AcDbLine
 10
338.8890705092
 20
198.0758375134
 30
0.0
 11
333.8890715523
 21
198.0758375134
 31
0.0
  0
ARC
  5
DA
330
1F
100
AcDbEntity
  8
0
  6
SLD-実線
 62
     7
370
    25
100
AcDbCircle
 10
323.8890714926
 20
173.8499071206
 30
0.0
 40
10.00000000000002
100
AcDbArc
 50
270.0
 51
315.5868036107
  0
LINE
  5
DB
330
1F
100
AcDbEntity
  8
0
  6
SLD-実線
 62
     7
370
    25
100
AcDbLine
 10
349.8890741749
 20
411.3576999511
 30
0.0
 11
349.8890741749
 21
413.8499042596
 31
0.0
  0
LINE
  5
DC
330
1F
100
AcDbEntity
  8
0
  6
SLD-実線
 62
     7
370
    25
100
AcDbLine
 10
283.8890715057
 20
413.8499042596
 30
0.0
 11
283.8890715057
 21
400.8499077167
 31
0.0
  0
SPLINE
  5
DD
330
1F
100
AcDbEntity
  8
0
  6
SLD-実線
 62
     7
370
    25
100
AcDbSpline
210
0.0
220
0.0
230
1.0
 70
     8
 71
     3
 72
    11
 73
     7
 74
     0
 42
0.000000001
 43
0.00000001
 40
0.0
 40
0.0
 40
0.0
 40
0.0
 40
0.1938272834654395
 40
0.5017658969604271
 40
0.7902977422158288
 40
1.0
 40
1.0
 40
1.0
 40
1.0
 10
351.0061471743334
 20
409.3715390767266
 30
0.0
 10
350.8531909194131
 20
409.4748168018041
 30
0.0
 10
350.4572289522762
 20
409.7421746238454
 30
0.0
 10
350.0501015198938
 20
410.434498494886
 30
0.0
 10
349.8912989838402
 20
411.0555766901621
 30
0.0
 10
349.8913849326586
 20
411.2684683099811
 30
0.0
 10
349.8914211077441
 20
411.3580724801232
 30
0.0
  0
LINE
  5
DE
330
1F
100
AcDbEntity
  8
0
  6
SLD-実線
 62
     7
370
    25
100
AcDbLine
 10
170.439068882
 20
133.8499030675
 30
0.0
 11
160.3390692754
 21
133.8499030675
 31
0.0
  0
SPLINE
  5
DF
330
1F
100
AcDbEntity
  8
0
  6
SLD-実線
 62
     7
370
    25
100
AcDbSpline
210
0.0
220
0.0
230
1.0
 70
     8
 71
     3
 72
    16
 73
    12
 74
     0
 42
0.000000001
 43
0.00000001
 40
0.0
 40
0.0
 40
0.0
 40
0.0
 40
0.1241896618259567
 40
0.2483798026437797
 40
0.3725699434616027
 40
0.4967596052875594
 40
0.6209497276814573
 40
0.7451398684992803
 40
0.8693297484263635
 40
0.9935195018653161
 40
1.0
 40
1.0
 40
1.0
 40
1.0
 10
170.4390688819636
 20
173.8499096240212
 30
0.0
 10
170.3631710183501
 20
174.5108636331187
 30
0.0
 10
170.2113749983897
 20
175.8327742005724
 30
0.0
 10
169.0434066042242
 20
177.5137467825273
 30
0.0
 10
167.3747428491515
 20
178.6370039274958
 30
0.0
 10
165.3873517957495
 20
179.031233846831
 30
0.0
 10
163.4102720958886
 20
178.637494373209
 30
0.0
 10
161.7106710722956
 20
177.5117913791898
 30
0.0
 10
160.6561359620893
 20
175.8401120190577
 30
0.0
 10
160.2111843198059
 20
174.4599445559581
 30
0.0
 10
160.3521429461425
 20
173.7826556756641
 30
0.0
 10
160.3591336889017
 20
173.7490660156419
 30
0.0
  0
ARC
  5
E0
330
1F
100
AcDbEntity
  8
0
  6
SLD-実線
 62
     7
370
    25
100
AcDbCircle
 10
165.3890714926
 20
173.8499071206
 30
0.0
 40
6.250000000000018
100
AcDbArc
 50
325.3387929305
 51
180.0
  0
ARC
  5
E1
330
1F
100
AcDbEntity
  8
0
  6
SLD-実線
 62
     7
370
    25
100
AcDbCircle
 10
165.3890714926
 20
173.8499071206
 30
0.0
 40
6.25
100
AcDbArc
 50
180.0
 51
215.2543415419
  0
ARC
  5
E2
330
1F
100
AcDbEntity
  8
0
  6
SLD-実線
 62
     7
370
    25
100
AcDbCircle
 10
165.3890714926
 20
173.8499071206
 30
0.0
 40
10.00000000000003
100
AcDbArc
 50
0.0
 51
239.4151499645
  0
ARC
  5
E3
330
1F
100
AcDbEntity
  8
0
  6
SLD-実線
 62
     7
370
    25
100
AcDbCircle
 10
165.3890714926
 20
173.8499071206
 30
0.0
 40
10.00000000000003
100
AcDbArc
 50
300.3451037055
 51
0.0
  0
LINE
  5
E4
330
1F
100
AcDbEntity
  8
0
  6
SLD-実線
 62
     7
370
    25
100
AcDbLine
 10
125.6054460091
 20
157.9499086942
 30
0.0
 11
120.3890710158
 21
157.9499086942
 31
0.0
  0
LINE
  5
E5
330
1F
100
AcDbEntity
  8
0
  6
SLD-実線
 62
     7
370
    25
100
AcDbLine
 10
130.3890763802
 20
157.9499086942
 30
0.0
 11
125.6054460091
 21
157.9499086942
 31
0.0
  0
LINE
  5
E6
330
1F
100
AcDbEntity
  8
0
  6
SLD-実線
 62
     7
370
    25
100
AcDbLine
 10
125.6054460091
 20
157.4499076809
 30
0.0
 11
122.3890750689
 21
157.4499076809
 31
0.0
  0
LINE
  5
E7
330
1F
100
AcDbEntity
  8
0
  6
SLD-実線
 62
     7
370
    25
100
AcDbLine
 10
128.3890723271
 20
157.4499076809
 30
0.0
 11
125.6054460091
 21
157.4499076809
 31
0.0
  0
LINE
  5
E8
330
1F
100
AcDbEntity
  8
0
  6
SLD-実線
 62
     7
370
    25
100
AcDbLine
 10
214.6054475589
 20
157.9499086942
 30
0.0
 11
209.3890725655
 21
157.9499086942
 31
0.0
  0
LINE
  5
E9
330
1F
100
AcDbEntity
  8
0
  6
SLD-実線
 62
     7
370
    25
100
AcDbLine
 10
219.3890704794
 20
157.9499086942
 30
0.0
 11
214.6054475589
 21
157.9499086942
 31
0.0
  0
LINE
  5
EA
330
1F
100
AcDbEntity
  8
0
  6
SLD-実線
 62
     7
370
    25
100
AcDbLine
 10
214.6054475589
 20
157.4499076809
 30
0.0
 11
211.3890691681
 21
157.4499076809
 31
0.0
  0
LINE
  5
EB
330
1F
100
AcDbEntity
  8
0
  6
SLD-実線
 62
     7
370
    25
100
AcDbLine
 10
217.3890738768
 20
157.4499076809
 30
0.0
 11
214.6054475589
 21
157.4499076809
 31
0.0
  0
LINE
  5
EC
330
1F
100
AcDbEntity
  8
0
  6
SLD-実線
 62
     7
370
    25
100
AcDbLine
 10
214.0533446355
 20
161.340824386
 30
0.0
 11
215.0524078889
 21
161.340824386
 31
0.0
  0
SPLINE
  5
ED
330
1F
100
AcDbEntity
  8
0
  6
SLD-実線
 62
     7
370
    25
100
AcDbSpline
210
0.0
220
0.0
230
1.0
 70
     8
 71
     3
 72
     9
 73
     5
 74
     0
 42
0.000000001
 43
0.00000001
 40
0.0
 40
0.0
 40
0.0
 40
0.0
 40
0.6022799031458386
 40
1.0
 40
1.0
 40
1.0
 40
1.0
 10
215.0524078888644
 20
161.3408243860413
 30
0.0
 10
215.0434903277882
 20
161.445882246229
 30
0.0
 10
215.0286839876967
 20
161.6203158602995
 30
0.0
 10
215.0121869118857
 20
161.6414849135965
 30
0.0
 10
215.0056256932963
 20
161.6499042715241
 30
0.0
  0
LINE
  5
EE
330
1F
100
AcDbEntity
  8
0
  6
SLD-実線
 62
     7
370
    25
100
AcDbLine
 10
215.0056256933
 20
161.6499042715
 30
0.0
 11
217.1123369617
 21
161.6499042715
 31
0.0
  0
SPLINE
  5
EF
330
1F
100
AcDbEntity
  8
0
  6
SLD-実線
 62
     7
370
    25
100
AcDbSpline
210
0.0
220
0.0
230
1.0
 70
     8
 71
     3
 72
     9
 73
     5
 74
     0
 42
0.000000001
 43
0.00000001
 40
0.0
 40
0.0
 40
0.0
 40
0.0
 40
0.6147269910158689
 40
1.0
 40
1.0
 40
1.0
 40
1.0
 10
217.1123369617213
 20
161.6499042715241
 30
0.0
 10
217.3473896414677
 20
161.6293947718457
 30
0.0
 10
217.7297588609451
 20
161.5960311812141
 30
0.0
 10
218.0637105521323
 20
161.4118026619853
 30
0.0
 10
218.1923731250513
 20
161.3408243860413
 30
0.0
  0
LINE
  5
F0
330
1F
100
AcDbEntity
  8
0
  6
SLD-実線
 62
     7
370
    25
100
AcDbLine
 10
218.1923731251
 20
161.340824386
 30
0.0
 11
218.1490927024
 21
161.340824386
 31
0.0
  0
SPLINE
  5
F1
330
1F
100
AcDbEntity
  8
0
  6
SLD-実線
 62
     7
370
    25
100
AcDbSpline
210
0.0
220
0.0
230
1.0
 70
     8
 71
     3
 72
     9
 73
     5
 74
     0
 42
0.000000001
 43
0.00000001
 40
0.0
 40
0.0
 40
0.0
 40
0.0
 40
0.6147269910158689
 40
1.0
 40
1.0
 40
1.0
 40
1.0
 10
214.7715806050051
 20
161.6499042715241
 30
0.0
 10
214.7614001118884
 20
161.6293947718457
 30
0.0
 10
214.7448391128343
 20
161.5960311812141
 30
0.0
 10
214.7303721425929
 20
161.4118026619853
 30
0.0
 10
214.724798409437
 20
161.3408243860413
 30
0.0
  0
LINE
  5
F2
330
1F
100
AcDbEntity
  8
0
  6
SLD-実線
 62
     7
370
    25
100
AcDbLine
 10
210.6003358049
 20
161.340824386
 30
0.0
 11
210.6290503425
 21
161.340824386
 31
0.0
  0
SPLINE
  5
F3
330
1F
100
AcDbEntity
  8
0
  6
SLD-実線
 62
     7
370
    25
100
AcDbSpline
210
0.0
220
0.0
230
1.0
 70
     8
 71
     3
 72
     9
 73
     5
 74
     0
 42
0.000000001
 43
0.00000001
 40
0.0
 40
0.0
 40
0.0
 40
0.0
 40
0.6022799031458386
 40
1.0
 40
1.0
 40
1.0
 40
1.0
 10
210.6290503425349
 20
161.3408243860413
 30
0.0
 10
210.8349194180455
 20
161.445882246229
 30
0.0
 10
211.176735697213
 20
161.6203158602995
 30
0.0
 10
211.5576011932944
 20
161.6414849135965
 30
0.0
 10
211.7090790552843
 20
161.6499042715241
 30
0.0
  0
LINE
  5
F4
330
1F
100
AcDbEntity
  8
0
  6
SLD-実線
 62
     7
370
    25
100
AcDbLine
 10
211.7090790553
 20
161.6499042715
 30
0.0
 11
214.0065624399
 21
161.6499042715
 31
0.0
  0
SPLINE
  5
F5
330
1F
100
AcDbEntity
  8
0
  6
SLD-実線
 62
     7
370
    25
100
AcDbSpline
210
0.0
220
0.0
230
1.0
 70
     8
 71
     3
 72
     9
 73
     5
 74
     0
 42
0.000000001
 43
0.00000001
 40
0.0
 40
0.0
 40
0.0
 40
0.0
 40
0.6147245007947215
 40
1.0
 40
1.0
 40
1.0
 40
1.0
 10
214.0065624398936
 20
161.6499042715241
 30
0.0
 10
214.0167429612166
 20
161.6293943673605
 30
0.0
 10
214.0333040732429
 20
161.5960299835803
 30
0.0
 10
214.0477709155643
 20
161.4118026600729
 30
0.0
 10
214.0533446354617
 20
161.3408243860413
 30
0.0
  0
LINE
  5
F6
330
1F
100
AcDbEntity
  8
0
  6
SLD-実線
 62
     7
370
    25
100
AcDbLine
 10
214.9102433605
 20
161.6499042715
 30
0.0
 11
214.9102433605
 21
161.340824386
 31
0.0
  0
LINE
  5
F7
330
1F
100
AcDbEntity
  8
0
  6
SLD-実線
 62
     7
370
    25
100
AcDbLine
 10
215.0056256933
 20
161.6499042715
 30
0.0
 11
214.9102433605
 21
161.6499042715
 31
0.0
  0
LINE
  5
F8
330
1F
100
AcDbEntity
  8
0
  6
SLD-実線
 62
     7
370
    25
100
AcDbLine
 10
211.7090790553
 20
161.6499042715
 30
0.0
 11
211.6658060832
 21
161.6499042715
 31
0.0
  0
LINE
  5
F9
330
1F
100
AcDbEntity
  8
0
  6
SLD-実線
 62
     7
370
    25
100
AcDbLine
 10
214.8669629378
 20
161.6499042715
 30
0.0
 11
214.8669629378
 21
161.340824386
 31
0.0
  0
LINE
  5
FA
330
1F
100
AcDbEntity
  8
0
  6
SLD-実線
 62
     7
370
    25
100
AcDbLine
 10
214.8669629378
 20
161.6499042715
 30
0.0
 11
214.771580605
 21
161.6499042715
 31
0.0
  0
LINE
  5
FB
330
1F
100
AcDbEntity
  8
0
  6
SLD-実線
 62
     7
370
    25
100
AcDbLine
 10
214.9102433605
 20
161.6499042715
 30
0.0
 11
214.8669629378
 21
161.6499042715
 31
0.0
  0
LINE
  5
FC
330
1F
100
AcDbEntity
  8
0
  6
SLD-実線
 62
     7
370
    25
100
AcDbLine
 10
122.6390718503
 20
161.6499042715
 30
0.0
 11
122.929868011
 21
161.6499042715
 31
0.0
  0
SPLINE
  5
FD
330
1F
100
AcDbEntity
  8
0
  6
SLD-実線
 62
     7
370
    25
100
AcDbSpline
210
0.0
220
0.0
230
1.0
 70
     8
 71
     3
 72
     9
 73
     5
 74
     0
 42
0.000000001
 43
0.00000001
 40
0.0
 40
0.0
 40
0.0
 40
0.0
 40
0.6147249540751388
 40
1.0
 40
1.0
 40
1.0
 40
1.0
 10
122.9298680109728
 20
161.6499042715241
 30
0.0
 10
122.742124615162
 20
161.6293944409861
 30
0.0
 10
122.4367142124018
 20
161.5960302015777
 30
0.0
 10
122.1699771291415
 20
161.411802660421
 30
0.0
 10
122.0672099871386
 20
161.3408243860413
 30
0.0
  0
LINE
  5
FE
330
1F
100
AcDbEntity
  8
0
  6
SLD-実線
 62
     7
370
    25
100
AcDbLine
 10
122.0672099871
 20
161.340824386
 30
0.0
 11
122.6698874516
 21
161.340824386
 31
0.0
  0
SPLINE
  5
FF
330
1F
100
AcDbEntity
  8
0
  6
SLD-実線
 62
     7
370
    25
100
AcDbSpline
210
0.0
220
0.0
230
1.0
 70
     8
 71
     3
 72
     9
 73
     5
 74
     0
 42
0.000000001
 43
0.00000001
 40
0.0
 40
0.0
 40
0.0
 40
0.0
 40
0.6022845595405585
 40
1.0
 40
1.0
 40
1.0
 40
1.0
 10
122.6698874516238
 20
161.3408243860413
 30
0.0
 10
122.8343265278307
 20
161.4458822432285
 30
0.0
 10
123.1073520829475
 20
161.6203145037323
 30
0.0
 10
123.4115580609331
 20
161.6414845981129
 30
0.0
 10
123.532545475458
 20
161.6499042715241
 30
0.0
  0
LINE
  5
100
330
1F
100
AcDbEntity
  8
0
  6
SLD-実線
 62
     7
370
    25
100
AcDbLine
 10
123.5325454755
 20
161.6499042715
 30
0.0
 11
126.6198425574
 21
161.6499042715
 31
0.0
  0
SPLINE
  5
101
330
1F
100
AcDbEntity
  8
0
  6
SLD-実線
 62
     7
370
    25
100
AcDbSpline
210
0.0
220
0.0
230
1.0
 70
     8
 71
     3
 72
     9
 73
     5
 74
     0
 42
0.000000001
 43
0.00000001
 40
0.0
 40
0.0
 40
0.0
 40
0.0
 40
0.6147229650459153
 40
1.0
 40
1.0
 40
1.0
 40
1.0
 10
126.6198425574053
 20
161.6499042715241
 30
0.0
 10
126.7616355571111
 20
161.6293941179131
 30
0.0
 10
126.9922971848173
 20
161.5960292449912
 30
0.0
 10
127.1937506388377
 20
161.4118026588929
 30
0.0
 10
127.2713660282839
 20
161.3408243860413
 30
0.0
  0
LINE
  5
102
330
1F
100
AcDbEntity
  8
0
  6
SLD-実線
 62
     7
370
    25
100
AcDbLine
 10
127.2713660283
 20
161.340824386
 30
0.0
 11
128.0693381114
 21
161.340824386
 31
0.0
  0
SPLINE
  5
103
330
1F
100
AcDbEntity
  8
0
  6
SLD-実線
 62
     7
370
    25
100
AcDbSpline
210
0.0
220
0.0
230
1.0
 70
     8
 71
     3
 72
     9
 73
     5
 74
     0
 42
0.000000001
 43
0.00000001
 40
0.0
 40
0.0
 40
0.0
 40
0.0
 40
0.6022775688688928
 40
1.0
 40
1.0
 40
1.0
 40
1.0
 10
128.0693381113757
 20
161.3408243860413
 30
0.0
 10
127.945149142195
 20
161.4458822477311
 30
0.0
 10
127.7389502472005
 20
161.6203165403565
 30
0.0
 10
127.5091938953306
 20
161.6414850717535
 30
0.0
 10
127.4178146404971
 20
161.6499042715241
 30
0.0
  0
LINE
  5
104
330
1F
100
AcDbEntity
  8
0
  6
SLD-実線
 62
     7
370
    25
100
AcDbLine
 10
127.4178146405
 20
161.6499042715
 30
0.0
 11
128.1390755458
 21
161.6499042715
 31
0.0
  0
LINE
  5
105
330
1F
100
AcDbEntity
  8
0
  6
SLD-実線
 62
     7
370
    25
100
AcDbLine
 10
127.4178146405
 20
161.6499042715
 30
0.0
 11
126.6198425574
 21
161.6499042715
 31
0.0
  0
LINE
  5
106
330
1F
100
AcDbEntity
  8
0
  6
SLD-実線
 62
     7
370
    25
100
AcDbLine
 10
123.5325454755
 20
161.6499042715
 30
0.0
 11
122.929868011
 21
161.6499042715
 31
0.0
  0
LINE
  5
107
330
1F
100
AcDbEntity
  8
0
  6
SLD-実線
 62
     7
370
    25
100
AcDbLine
 10
56.189072041
 20
168.344355246
 30
0.0
 11
63.1890713258
 21
168.344355246
 31
0.0
  0
LINE
  5
108
330
1F
100
AcDbEntity
  8
0
  6
SLD-実線
 62
     7
370
    25
100
AcDbLine
 10
56.189072041
 20
168.344355246
 30
0.0
 11
56.189072041
 21
172.0971307363
 31
0.0
  0
LINE
  5
109
330
1F
100
AcDbEntity
  8
0
  6
SLD-実線
 62
     7
370
    25
100
AcDbLine
 10
56.189072041
 20
172.0971307363
 30
0.0
 11
63.1890713258
 21
172.0971307363
 31
0.0
  0
LINE
  5
10A
330
1F
100
AcDbEntity
  8
0
  6
SLD-実線
 62
     7
370
    25
100
AcDbLine
 10
56.189072041
 20
172.0971307363
 30
0.0
 11
56.189072041
 21
179.6026817168
 31
0.0
  0
LINE
  5
10B
330
1F
100
AcDbEntity
  8
0
  6
SLD-実線
 62
     7
370
    25
100
AcDbLine
 10
56.189072041
 20
179.6026817168
 30
0.0
 11
63.1890713258
 21
179.6026817168
 31
0.0
  0
LINE
  5
10C
330
1F
100
AcDbEntity
  8
0
  6
SLD-実線
 62
     7
370
    25
100
AcDbLine
 10
56.189072041
 20
183.3554572071
 30
0.0
 11
63.1890713258
 21
183.3554572071
 31
0.0
  0
LINE
  5
10D
330
1F
100
AcDbEntity
  8
0
  6
SLD-実線
 62
     7
370
    25
100
AcDbLine
 10
56.189072041
 20
179.6026817168
 30
0.0
 11
56.189072041
 21
183.3554572071
 31
0.0
  0
LINE
  5
10E
330
1F
100
AcDbEntity
  8
0
  6
SLD-実線
 62
     7
370
    25
100
AcDbLine
 10
79.1890739484
 20
175.8499062266
 30
0.0
 11
79.1890739484
 21
179.8499068822
 31
0.0
  0
LINE
  5
10F
330
1F
100
AcDbEntity
  8
0
  6
SLD-実線
 62
     7
370
    25
100
AcDbLine
 10
79.1890739484
 20
171.8499055709
 30
0.0
 11
79.1890739484
 21
175.8499062266
 31
0.0
  0
LINE
  5
110
330
1F
100
AcDbEntity
  8
0
  6
SLD-実線
 62
     7
370
    25
100
AcDbLine
 10
400.0890745802
 20
280.9722265805
 30
0.0
 11
400.0890745802
 21
268.8499075006
 31
0.0
  0
LINE
  5
111
330
1F
100
AcDbEntity
  8
0
  6
SLD-実線
 62
     7
370
    25
100
AcDbLine
 10
400.0890745802
 20
284.8499073292
 30
0.0
 11
400.0890745802
 21
280.9722265805
 31
0.0
  0
LINE
  5
112
330
1F
100
AcDbEntity
  8
0
  6
SLD-実線
 62
     7
370
    25
100
AcDbLine
 10
246.2298578603
 20
170.0499049033
 30
0.0
 11
255.3890707923
 21
170.0499049033
 31
0.0
  0
LINE
  5
113
330
1F
100
AcDbEntity
  8
0
  6
SLD-実線
 62
     7
370
    25
100
AcDbLine
 10
239.3890700323
 20
170.0499049033
 30
0.0
 11
246.2298578603
 21
170.0499049033
 31
0.0
  0
LINE
  5
114
330
1F
100
AcDbEntity
  8
0
  6
SLD-実線
 62
     7
370
    25
100
AcDbLine
 10
63.1890713258
 20
167.8499049153
 30
0.0
 11
63.1890713258
 21
183.8499075379
 31
0.0
  0
LINE
  5
115
330
1F
100
AcDbEntity
  8
0
  6
SLD-実線
 62
     7
370
    25
100
AcDbLine
 10
260.8890707625
 20
329.9082434382
 30
0.0
 11
267.8890719099
 21
329.9082434382
 31
0.0
  0
LINE
  5
116
330
1F
100
AcDbEntity
  8
0
  6
SLD-実線
 62
     7
370
    25
100
AcDbLine
 10
260.8890707625
 20
337.1747574414
 30
0.0
 11
267.8890719099
 21
337.1747574414
 31
0.0
  0
LINE
  5
117
330
1F
100
AcDbEntity
  8
0
  6
SLD-実線
 62
     7
370
    25
100
AcDbLine
 10
260.8890707625
 20
329.9082434382
 30
0.0
 11
260.8890707625
 21
337.1747574414
 31
0.0
  0
LINE
  5
118
330
1F
100
AcDbEntity
  8
0
  6
SLD-実線
 62
     7
370
    25
100
AcDbLine
 10
260.8890707625
 20
324.6476194467
 30
0.0
 11
267.8890719099
 21
324.6476194467
 31
0.0
  0
LINE
  5
119
330
1F
100
AcDbEntity
  8
0
  6
SLD-実線
 62
     7
370
    25
100
AcDbLine
 10
260.8890707625
 20
324.6476194467
 30
0.0
 11
260.8890707625
 21
329.9082434382
 31
0.0
  0
LINE
  5
11A
330
1F
100
AcDbEntity
  8
0
  6
SLD-実線
 62
     7
370
    25
100
AcDbLine
 10
260.8890707625
 20
339.1806549038
 30
0.0
 11
267.8890719099
 21
339.1806549038
 31
0.0
  0
LINE
  5
11B
330
1F
100
AcDbEntity
  8
0
  6
SLD-実線
 62
     7
370
    25
100
AcDbLine
 10
260.8890707625
 20
337.1747574414
 30
0.0
 11
260.8890707625
 21
339.1806549038
 31
0.0
  0
LINE
  5
11C
330
1F
100
AcDbEntity
  8
0
  6
SLD-実線
 62
     7
370
    25
100
AcDbLine
 10
407.0890738649
 20
273.0971305277
 30
0.0
 11
400.0890745802
 21
273.0971305277
 31
0.0
  0
LINE
  5
11D
330
1F
100
AcDbEntity
  8
0
  6
SLD-実線
 62
     7
370
    25
100
AcDbLine
 10
407.0890738649
 20
273.0971305277
 30
0.0
 11
407.0890738649
 21
269.3443531747
 31
0.0
  0
LINE
  5
11E
330
1F
100
AcDbEntity
  8
0
  6
SLD-実線
 62
     7
370
    25
100
AcDbLine
 10
407.0890738649
 20
269.3443531747
 30
0.0
 11
400.0890745802
 21
269.3443531747
 31
0.0
  0
LINE
  5
11F
330
1F
100
AcDbEntity
  8
0
  6
SLD-実線
 62
     7
370
    25
100
AcDbLine
 10
407.0890738649
 20
284.3554607238
 30
0.0
 11
400.0890745802
 21
284.3554607238
 31
0.0
  0
LINE
  5
120
330
1F
100
AcDbEntity
  8
0
  6
SLD-実線
 62
     7
370
    25
100
AcDbLine
 10
407.0890738649
 20
284.3554607238
 30
0.0
 11
407.0890738649
 21
280.6026833709
 31
0.0
  0
LINE
  5
121
330
1F
100
AcDbEntity
  8
0
  6
SLD-実線
 62
     7
370
    25
100
AcDbLine
 10
407.0890738649
 20
280.6026833709
 30
0.0
 11
400.0890745802
 21
280.6026833709
 31
0.0
  0
LINE
  5
122
330
1F
100
AcDbEntity
  8
0
  6
SLD-実線
 62
     7
370
    25
100
AcDbLine
 10
407.0890738649
 20
280.6026833709
 30
0.0
 11
407.0890738649
 21
273.0971305277
 31
0.0
  0
LINE
  5
123
330
1F
100
AcDbEntity
  8
0
  6
SLD-実線
 62
     7
370
    25
100
AcDbLine
 10
260.8890707625
 20
182.3310545291
 30
0.0
 11
267.8890719099
 21
182.3310545291
 31
0.0
  0
LINE
  5
124
330
1F
100
AcDbEntity
  8
0
  6
SLD-実線
 62
     7
370
    25
100
AcDbLine
 10
260.8890707625
 20
182.3310545291
 30
0.0
 11
260.8890707625
 21
182.4434837903
 31
0.0
  0
LINE
  5
125
330
1F
100
AcDbEntity
  8
0
  6
SLD-実線
 62
     7
370
    25
100
AcDbLine
 10
260.8890707625
 20
184.7658297624
 30
0.0
 11
267.8890719099
 21
184.7658297624
 31
0.0
  0
LINE
  5
126
330
1F
100
AcDbEntity
  8
0
  6
SLD-実線
 62
     7
370
    25
100
AcDbLine
 10
260.8890707625
 20
192.1080193128
 30
0.0
 11
267.8890719099
 21
192.1080193128
 31
0.0
  0
LINE
  5
127
330
1F
100
AcDbEntity
  8
0
  6
SLD-実線
 62
     7
370
    25
100
AcDbLine
 10
260.8890707625
 20
184.7658297624
 30
0.0
 11
260.8890707625
 21
192.1080193128
 31
0.0
  0
LINE
  5
128
330
1F
100
AcDbEntity
  8
0
  6
SLD-実線
 62
     7
370
    25
100
AcDbLine
 10
260.8890707625
 20
197.1278703417
 30
0.0
 11
267.8890719099
 21
197.1278703417
 31
0.0
  0
LINE
  5
129
330
1F
100
AcDbEntity
  8
0
  6
SLD-実線
 62
     7
370
    25
100
AcDbLine
 10
260.8890707625
 20
192.1080193128
 30
0.0
 11
260.8890707625
 21
197.1278703417
 31
0.0
  0
LINE
  5
12A
330
1F
100
AcDbEntity
  8
0
  6
SLD-実線
 62
     7
370
    25
100
AcDbLine
 10
260.8890707625
 20
182.4434837903
 30
0.0
 11
267.8890719099
 21
182.4434837903
 31
0.0
  0
LINE
  5
12B
330
1F
100
AcDbEntity
  8
0
  6
SLD-実線
 62
     7
370
    25
100
AcDbLine
 10
260.8890707625
 20
182.4434837903
 30
0.0
 11
260.8890707625
 21
184.7658297624
 31
0.0
  0
LINE
  5
12C
330
1F
100
AcDbEntity
  8
0
  6
SLD-実線
 62
     7
370
    25
100
AcDbLine
 10
249.9931461198
 20
177.0499041881
 30
0.0
 11
249.9931461198
 21
170.0499049033
 31
0.0
  0
LINE
  5
12D
330
1F
100
AcDbEntity
  8
0
  6
SLD-実線
 62
     7
370
    25
100
AcDbLine
 10
249.9931461198
 20
177.0499041881
 30
0.0
 11
254.7873451395
 21
177.0499041881
 31
0.0
  0
LINE
  5
12E
330
1F
100
AcDbEntity
  8
0
  6
SLD-実線
 62
     7
370
    25
100
AcDbLine
 10
254.7873451395
 20
177.0499041881
 30
0.0
 11
254.7873451395
 21
170.0499049033
 31
0.0
  0
LINE
  5
12F
330
1F
100
AcDbEntity
  8
0
  6
SLD-実線
 62
     7
370
    25
100
AcDbLine
 10
242.594872324
 20
177.0499041881
 30
0.0
 11
242.594872324
 21
170.0499049033
 31
0.0
  0
LINE
  5
130
330
1F
100
AcDbEntity
  8
0
  6
SLD-実線
 62
     7
370
    25
100
AcDbLine
 10
242.594872324
 20
177.0499041881
 30
0.0
 11
249.9931461198
 21
177.0499041881
 31
0.0
  0
LINE
  5
131
330
1F
100
AcDbEntity
  8
0
  6
SLD-実線
 62
     7
370
    25
100
AcDbLine
 10
239.9907975478
 20
177.0499041881
 30
0.0
 11
239.9907975478
 21
170.0499049033
 31
0.0
  0
LINE
  5
132
330
1F
100
AcDbEntity
  8
0
  6
SLD-実線
 62
     7
370
    25
100
AcDbLine
 10
239.9907975478
 20
177.0499041881
 30
0.0
 11
242.594872324
 21
177.0499041881
 31
0.0
  0
LINE
  5
133
330
1F
100
AcDbEntity
  8
0
  6
SLD-実線
 62
     7
370
    25
100
AcDbLine
 10
325.97606322
 20
433.8499000873
 30
0.0
 11
306.8890708519
 21
433.8499000873
 31
0.0
  0
LINE
  5
134
330
1F
100
AcDbEntity
  8
0
  6
SLD-実線
 62
     7
370
    25
100
AcDbLine
 10
326.8890722675
 20
433.8499000873
 30
0.0
 11
325.97606322
 21
433.8499000873
 31
0.0
  0
LINE
  5
135
330
1F
100
AcDbEntity
  8
0
  6
SLD-実線
 62
     7
370
    25
100
AcDbLine
 10
405.8890684528
 20
377.1980396117
 30
0.0
 11
405.8890684528
 21
384.8499050941
 31
0.0
  0
LINE
  5
136
330
1F
100
AcDbEntity
  8
0
  6
SLD-実線
 62
     7
370
    25
100
AcDbLine
 10
405.8890684528
 20
364.8499092664
 30
0.0
 11
405.8890684528
 21
377.1980396117
 31
0.0
  0
LINE
  5
137
330
1F
100
AcDbEntity
  8
0
  6
SLD-実線
 62
     7
370
    25
100
AcDbLine
 10
311.981594844
 20
440.8499142732
 30
0.0
 11
311.981594844
 21
433.8499000873
 31
0.0
  0
LINE
  5
138
330
1F
100
AcDbEntity
  8
0
  6
SLD-実線
 62
     7
370
    25
100
AcDbLine
 10
311.981594844
 20
440.8499142732
 30
0.0
 11
321.7965482754
 21
440.8499142732
 31
0.0
  0
LINE
  5
139
330
1F
100
AcDbEntity
  8
0
  6
SLD-実線
 62
     7
370
    25
100
AcDbLine
 10
321.7965482754
 20
440.8499142732
 30
0.0
 11
321.7965482754
 21
433.8499000873
 31
0.0
  0
LINE
  5
13A
330
1F
100
AcDbEntity
  8
0
  6
SLD-実線
 62
     7
370
    25
100
AcDbLine
 10
307.0741171969
 20
440.8499142732
 30
0.0
 11
307.0741171969
 21
433.8499000873
 31
0.0
  0
LINE
  5
13B
330
1F
100
AcDbEntity
  8
0
  6
SLD-実線
 62
     7
370
    25
100
AcDbLine
 10
307.0741171969
 20
440.8499142732
 30
0.0
 11
311.981594844
 21
440.8499142732
 31
0.0
  0
LINE
  5
13C
330
1F
100
AcDbEntity
  8
0
  6
SLD-実線
 62
     7
370
    25
100
AcDbLine
 10
326.7040259225
 20
440.8499142732
 30
0.0
 11
326.7040259225
 21
433.8499000873
 31
0.0
  0
LINE
  5
13D
330
1F
100
AcDbEntity
  8
0
  6
SLD-実線
 62
     7
370
    25
100
AcDbLine
 10
321.7965482754
 20
440.8499142732
 30
0.0
 11
326.7040259225
 21
440.8499142732
 31
0.0
  0
LINE
  5
13E
330
1F
100
AcDbEntity
  8
0
  6
SLD-実線
 62
     7
370
    25
100
AcDbLine
 10
412.8890751881
 20
384.6648624744
 30
0.0
 11
405.8890684528
 21
384.6648624744
 31
0.0
  0
LINE
  5
13F
330
1F
100
AcDbEntity
  8
0
  6
SLD-実線
 62
     7
370
    25
100
AcDbLine
 10
412.8890751881
 20
384.6648624744
 30
0.0
 11
412.8890751881
 21
379.757381102
 31
0.0
  0
LINE
  5
140
330
1F
100
AcDbEntity
  8
0
  6
SLD-実線
 62
     7
370
    25
100
AcDbLine
 10
412.8890751881
 20
379.757381102
 30
0.0
 11
405.8890684528
 21
379.757381102
 31
0.0
  0
LINE
  5
141
330
1F
100
AcDbEntity
  8
0
  6
SLD-実線
 62
     7
370
    25
100
AcDbLine
 10
412.8890751881
 20
379.757381102
 30
0.0
 11
412.8890751881
 21
369.9424332585
 31
0.0
  0
LINE
  5
142
330
1F
100
AcDbEntity
  8
0
  6
SLD-実線
 62
     7
370
    25
100
AcDbLine
 10
412.8890751881
 20
369.9424332585
 30
0.0
 11
405.8890684528
 21
369.9424332585
 31
0.0
  0
LINE
  5
143
330
1F
100
AcDbEntity
  8
0
  6
SLD-実線
 62
     7
370
    25
100
AcDbLine
 10
412.8890751881
 20
369.9424332585
 30
0.0
 11
412.8890751881
 21
365.0349518861
 31
0.0
  0
LINE
  5
144
330
1F
100
AcDbEntity
  8
0
  6
SLD-実線
 62
     7
370
    25
100
AcDbLine
 10
412.8890751881
 20
365.0349518861
 30
0.0
 11
405.8890684528
 21
365.0349518861
 31
0.0
  0
SPLINE
  5
145
330
1F
100
AcDbEntity
  8
0
  6
SLD-実線
 62
     7
370
    25
100
AcDbSpline
210
0.0
220
0.0
230
1.0
 70
     8
 71
     3
 72
    13
 73
     9
 74
     0
 42
0.000000001
 43
0.00000001
 40
0.0
 40
0.0
 40
0.0
 40
0.0
 40
0.2025548477292658
 40
0.4049660865016053
 40
0.6113559648240853
 40
0.8266901163804202
 40
0.9926077430075241
 40
1.0
 40
1.0
 40
1.0
 40
1.0
 10
341.8890728635538
 20
189.3088212813546
 30
0.0
 10
341.834739805351
 20
189.308756166331
 30
0.0
 10
341.7261122104318
 20
189.3086259824496
 30
0.0
 10
341.5809103134247
 20
189.3075401044059
 30
0.0
 10
341.4671501170919
 20
189.3057359173222
 30
0.0
 10
341.4031151131513
 20
189.3032847407272
 30
0.0
 10
341.3892250431664
 20
189.3012771630939
 30
0.0
 10
341.3890781171692
 20
189.3003450265324
 30
0.0
 10
341.3890718502749
 20
189.3003052677323
 30
0.0
  0
LINE
  5
146
330
1F
100
AcDbEntity
  8
0
  6
SLD-実線
 62
     7
370
    25
100
AcDbLine
 10
341.3890718503
 20
189.3003052677
 30
0.0
 11
341.3890718503
 21
195.4927435722
 31
0.0
  0
SPLINE
  5
147
330
1F
100
AcDbEntity
  8
0
  6
SLD-実線
 62
     7
370
    25
100
AcDbSpline
210
0.0
220
0.0
230
1.0
 70
     8
 71
     3
 72
    13
 73
     9
 74
     0
 42
0.000000001
 43
0.00000001
 40
0.0
 40
0.0
 40
0.0
 40
0.0
 40
0.2025529105893221
 40
0.4049635698426459
 40
0.6113546718487173
 40
0.8266892055738589
 40
0.9926063253174325
 40
0.9999999999999999
 40
0.9999999999999999
 40
0.9999999999999999
 40
0.9999999999999999
 10
341.8890728635538
 20
195.9421178902794
 30
0.0
 10
341.8347397438217
 20
195.9374541124427
 30
0.0
 10
341.7261116620853
 20
195.9281298321042
 30
0.0
 10
341.5809096746009
 20
195.8558255613337
 30
0.0
 10
341.4671504321755
 20
195.7486377969904
 30
0.0
 10
341.4031151903592
 20
195.6230234322143
 30
0.0
 10
341.3892249803139
 20
195.5340169207927
 30
0.0
 10
341.3890781157187
 20
195.49443230578
 30
0.0
 10
341.3890718502749
 20
195.4927435721566
 30
0.0
  0
SPLINE
  5
148
330
1F
100
AcDbEntity
  8
0
  6
SLD-実線
 62
     7
370
    25
100
AcDbSpline
210
0.0
220
0.0
230
1.0
 70
     8
 71
     3
 72
    13
 73
     9
 74
     0
 42
0.000000001
 43
0.00000001
 40
0.0
 40
0.0
 40
0.0
 40
0.0
 40
0.2025548750797866
 40
0.4049660815458259
 40
0.6113560894089302
 40
0.8266902700413463
 40
0.9926077420093644
 40
1.0
 40
1.0
 40
1.0
 40
1.0
 10
341.8890728635538
 20
177.8428620304276
 30
0.0
 10
341.8347398112774
 20
177.842928180396
 30
0.0
 10
341.726112244204
 20
177.8430604334137
 30
0.0
 10
341.5809102450483
 20
177.8441306995693
 30
0.0
 10
341.4671501543161
 20
177.8459498124481
 30
0.0
 10
341.4031151338692
 20
177.848402216281
 30
0.0
 10
341.3892250427394
 20
177.8503986241614
 30
0.0
 10
341.3890781171579
 20
177.8513308316053
 30
0.0
 10
341.3890718502749
 20
177.8513705934693
 30
0.0
  0
LINE
  5
149
330
1F
100
AcDbEntity
  8
0
  6
SLD-実線
 62
     7
370
    25
100
AcDbLine
 10
341.3890718503
 20
177.8513705935
 30
0.0
 11
341.3890718503
 21
183.5758379306
 31
0.0
  0
LINE
  5
14A
330
1F
100
AcDbEntity
  8
0
  6
SLD-実線
 62
     7
370
    25
100
AcDbLine
 10
341.3890718503
 20
183.5758379306
 30
0.0
 11
341.3890718503
 21
189.3003052677
 31
0.0
  0
LINE
  5
14B
330
1F
100
AcDbEntity
  8
0
  6
SLD-実線
 62
     7
370
    25
100
AcDbLine
 10
348.389071135
 20
189.3003052677
 30
0.0
 11
348.389071135
 21
177.8513705935
 31
0.0
  0
SPLINE
  5
14C
330
1F
100
AcDbEntity
  8
0
  6
SLD-実線
 62
     7
370
    25
100
AcDbSpline
210
0.0
220
0.0
230
1.0
 70
     8
 71
     3
 72
    13
 73
     9
 74
     0
 42
0.000000001
 43
0.00000001
 40
0.0
 40
0.0
 40
0.0
 40
0.0
 40
0.0073922711299889
 40
0.1733106517944189
 40
0.3886433396661388
 40
0.5950337143767225
 40
0.7974493487021237
 40
0.9999999999999999
 40
0.9999999999999999
 40
0.9999999999999999
 40
0.9999999999999999
 10
348.3890711350192
 20
177.8513705934693
 30
0.0
 10
348.3890648699771
 20
177.8513308315996
 30
0.0
 10
348.3889179870361
 20
177.8503986207218
 30
0.0
 10
348.3750211823385
 20
177.8484022402631
 30
0.0
 10
348.3109942289042
 20
177.8459497978546
 30
0.0
 10
348.1972317864913
 20
177.8441306844101
 30
0.0
 10
348.0520289800855
 20
177.8430604511021
 30
0.0
 10
347.9434018133962
 20
177.8429281853517
 30
0.0
 10
347.8890701217402
 20
177.8428620304276
 30
0.0
  0
SPLINE
  5
14D
330
1F
100
AcDbEntity
  8
0
  6
SLD-実線
 62
     7
370
    25
100
AcDbSpline
210
0.0
220
0.0
230
1.0
 70
     8
 71
     3
 72
    13
 73
     9
 74
     0
 42
0.000000001
 43
0.00000001
 40
0.0
 40
0.0
 40
0.0
 40
0.0
 40
0.0073922701318393
 40
0.1733108054551599
 40
0.3886434642513477
 40
0.5950337094214099
 40
0.7974493760517476
 40
1.0
 40
1.0
 40
1.0
 40
1.0
 10
348.3890711350192
 20
189.3003052677323
 30
0.0
 10
348.3890648699658
 20
189.300345026538
 30
0.0
 10
348.3889179866088
 20
189.3012771665335
 30
0.0
 10
348.3750212030577
 20
189.3032847166921
 30
0.0
 10
348.3109942661259
 20
189.3057359318653
 30
0.0
 10
348.1972317181152
 20
189.3075401195494
 30
0.0
 10
348.0520290138563
 20
189.3086259646366
 30
0.0
 10
347.9434018193222
 20
189.308756161319
 30
0.0
 10
347.8890701217402
 20
189.3088212813546
 30
0.0
  0
LINE
  5
14E
330
1F
100
AcDbEntity
  8
0
  6
SLD-実線
 62
     7
370
    25
100
AcDbLine
 10
348.389071135
 20
195.4927435722
 30
0.0
 11
348.389071135
 21
189.3003052677
 31
0.0
  0
SPLINE
  5
14F
330
1F
100
AcDbEntity
  8
0
  6
SLD-実線
 62
     7
370
    25
100
AcDbSpline
210
0.0
220
0.0
230
1.0
 70
     8
 71
     3
 72
    13
 73
     9
 74
     0
 42
0.000000001
 43
0.00000001
 40
0.0
 40
0.0
 40
0.0
 40
0.0
 40
0.007393687824572
 40
0.1733117162644099
 40
0.3886447572481015
 40
0.5950362261073183
 40
0.7974513132083859
 40
1.0
 40
1.0
 40
1.0
 40
1.0
 10
348.3890711350192
 20
195.4927435721566
 30
0.0
 10
348.389064871417
 20
195.4944323060507
 30
0.0
 10
348.3889180494701
 20
195.5340170675992
 30
0.0
 10
348.3750211258507
 20
195.6230223044228
 30
0.0
 10
348.3109939510613
 20
195.7486385240725
 30
0.0
 10
348.1972323569454
 20
195.855826546162
 30
0.0
 10
348.0520295622322
 20
195.9281286396053
 30
0.0
 10
347.9434018808531
 20
195.9374537812502
 30
0.0
 10
347.8890701217402
 20
195.9421178902794
 30
0.0
  0
LINE
  5
150
330
1F
100
AcDbEntity
  8
0
  6
SLD-実線
 62
     7
370
    25
100
AcDbLine
 10
348.389071135
 20
177.8513705935
 30
0.0
 11
348.389071135
 21
171.6589397396
 31
0.0
  0
SPLINE
  5
151
330
1F
100
AcDbEntity
  8
0
  6
SLD-実線
 62
     7
370
    25
100
AcDbSpline
210
0.0
220
0.0
230
1.0
 70
     8
 71
     3
 72
    13
 73
     9
 74
     0
 42
0.000000001
 43
0.00000001
 40
0.0
 40
0.0
 40
0.0
 40
0.0
 40
0.2025497679501423
 40
0.4049645806234246
 40
0.6113557696638074
 40
0.8266885187059727
 40
0.9926063221995494
 40
1.0
 40
1.0
 40
1.0
 40
1.0
 10
347.8890701217402
 20
171.2095579709222
 30
0.0
 10
347.9434017954758
 20
171.2142251830377
 30
0.0
 10
348.0520289427275
 20
171.2235564975889
 30
0.0
 10
348.1972324383421
 20
171.2958562223068
 30
0.0
 10
348.3109939277223
 20
171.4030449434952
 30
0.0
 10
348.3750211309529
 20
171.5286609733029
 30
0.0
 10
348.3889180494357
 20
171.6176662444134
 30
0.0
 10
348.3890648714157
 20
171.6572510057409
 30
0.0
 10
348.3890711350192
 20
171.6589397396256
 30
0.0
  0
SPLINE
  5
152
330
1F
100
AcDbEntity
  8
0
  6
SLD-実線
 62
     7
370
    25
100
AcDbSpline
210
0.0
220
0.0
230
1.0
 70
     8
 71
     3
 72
    13
 73
     9
 74
     0
 42
0.000000001
 43
0.00000001
 40
0.0
 40
0.0
 40
0.0
 40
0.0
 40
0.2025539917157356
 40
0.4049643765539753
 40
0.6113551987485396
 40
0.8266894405372567
 40
0.9926063353412915
 40
1.0
 40
1.0
 40
1.0
 40
1.0
 10
341.8890728635538
 20
171.2095579709222
 30
0.0
 10
341.834739829198
 20
171.2142248518567
 30
0.0
 10
341.7261122815607
 20
171.2235553049971
 30
0.0
 10
341.5809095932092
 20
171.2958572071581
 30
0.0
 10
341.4671504555134
 20
171.4030456705734
 30
0.0
 10
341.4031151852574
 20
171.5286598455129
 30
0.0
 10
341.3892249803485
 20
171.6176663912194
 30
0.0
 10
341.3890781157201
 20
171.6572510060117
 30
0.0
 10
341.3890718502749
 20
171.6589397396256
 30
0.0
  0
LINE
  5
153
330
1F
100
AcDbEntity
  8
0
  6
SLD-実線
 62
     7
370
    25
100
AcDbLine
 10
341.3890718503
 20
171.6589397396
 30
0.0
 11
341.3890718503
 21
177.8513705935
 31
0.0
  0
LINE
  5
154
330
1F
100
AcDbEntity
  8
0
  6
SLD-実線
 62
     7
370
    25
100
AcDbLine
 10
341.8890728636
 20
189.3088212814
 30
0.0
 11
347.8890701217
 21
189.3088212814
 31
0.0
  0
LINE
  5
155
330
1F
100
AcDbEntity
  8
0
  6
SLD-実線
 62
     7
370
    25
100
AcDbLine
 10
347.8890701217
 20
195.9421178903
 30
0.0
 11
341.8890728636
 21
195.9421178903
 31
0.0
  0
LINE
  5
156
330
1F
100
AcDbEntity
  8
0
  6
SLD-実線
 62
     7
370
    25
100
AcDbLine
 10
347.8890701217
 20
177.8428620304
 30
0.0
 11
341.8890728636
 21
177.8428620304
 31
0.0
  0
LINE
  5
157
330
1F
100
AcDbEntity
  8
0
  6
SLD-実線
 62
     7
370
    25
100
AcDbLine
 10
341.8890728636
 20
171.2095579709
 30
0.0
 11
347.8890701217
 21
171.2095579709
 31
0.0
  0
LINE
  5
158
330
1F
100
AcDbEntity
  8
0
  6
SLD-実線
 62
     7
370
    25
100
AcDbLine
 10
340.3890698237
 20
167.625843605
 30
0.0
 11
340.3890698237
 21
199.5258397068
 31
0.0
  0
SPLINE
  5
159
330
1F
100
AcDbEntity
  8
0
  6
SLD-実線
 62
     7
370
    25
100
AcDbSpline
210
0.0
220
0.0
230
1.0
 70
     8
 71
     3
 72
    13
 73
     9
 74
     0
 42
0.000000001
 43
0.00000001
 40
0.0
 40
0.0
 40
0.0
 40
0.0
 40
0.2025540474808957
 40
0.4049645159091722
 40
0.6113569007267875
 40
0.8266872511260798
 40
0.9926047886737746
 40
0.9999999999999999
 40
0.9999999999999999
 40
0.9999999999999999
 40
0.9999999999999999
 10
341.8890728635538
 20
201.6750975157429
 30
0.0
 10
341.8347398569279
 20
201.6703662409428
 30
0.0
 10
341.7261123572566
 20
201.6609070450743
 30
0.0
 10
341.5809088876369
 20
201.5875306746317
 30
0.0
 10
341.4671520757098
 20
201.4785345787147
 30
0.0
 10
341.403114420765
 20
201.3504561786346
 30
0.0
 10
341.3892249184287
 20
201.2594789126942
 30
0.0
 10
341.3890781143672
 20
201.2189406660579
 30
0.0
 10
341.3890718502749
 20
201.2172109092881
 30
0.0
  0
LINE
  5
15A
330
1F
100
AcDbEntity
  8
0
  6
SLD-実線
 62
     7
370
    25
100
AcDbLine
 10
341.3890718503
 20
197.6487553324
 30
0.0
 11
341.3890718503
 21
201.2172109093
 31
0.0
  0
LINE
  5
15B
330
1F
100
AcDbEntity
  8
0
  6
SLD-実線
 62
     7
370
    25
100
AcDbLine
 10
341.3890718503
 20
195.4927435722
 30
0.0
 11
341.3890718503
 21
197.6487553324
 31
0.0
  0
SPLINE
  5
15C
330
1F
100
AcDbEntity
  8
0
  6
SLD-実線
 62
     7
370
    25
100
AcDbSpline
210
0.0
220
0.0
230
1.0
 70
     8
 71
     3
 72
    13
 73
     9
 74
     0
 42
0.000000001
 43
0.00000001
 40
0.0
 40
0.0
 40
0.0
 40
0.0
 40
0.0073952244710664
 40
0.1733136707185813
 40
0.3886425283294984
 40
0.5950352800054726
 40
0.7974501763011254
 40
1.0
 40
1.0
 40
1.0
 40
1.0
 10
348.3890711350192
 20
201.2172109092881
 30
0.0
 10
348.3890648727692
 20
201.2189406663344
 30
0.0
 10
348.3889181113656
 20
201.2594790630147
 30
0.0
 10
348.3750218954996
 20
201.3504550269288
 30
0.0
 10
348.3109923075418
 20
201.4785353203844
 30
0.0
 10
348.1972331439096
 20
201.5875316745824
 30
0.0
 10
348.052028867056
 20
201.6609058348275
 30
0.0
 10
347.9434017677502
 20
201.6703659047926
 30
0.0
 10
347.8890701217402
 20
201.6750975157429
 30
0.0
  0
LINE
  5
15D
330
1F
100
AcDbEntity
  8
0
  6
SLD-実線
 62
     7
370
    25
100
AcDbLine
 10
348.389071135
 20
201.2172109093
 30
0.0
 11
348.389071135
 21
195.4927435722
 31
0.0
  0
SPLINE
  5
15E
330
1F
100
AcDbEntity
  8
0
  6
SLD-実線
 62
     7
370
    25
100
AcDbSpline
210
0.0
220
0.0
230
1.0
 70
     8
 71
     3
 72
    13
 73
     9
 74
     0
 42
0.000000001
 43
0.00000001
 40
0.0
 40
0.0
 40
0.0
 40
0.0
 40
0.0073911266571519
 40
0.1733124739351363
 40
0.3886462517816724
 40
0.595035349399597
 40
0.7974455413986332
 40
0.9999999999999999
 40
0.9999999999999999
 40
0.9999999999999999
 40
0.9999999999999999
 10
341.3890718502749
 20
165.9344724024941
 30
0.0
 10
341.38907811858
 20
165.9327438946505
 30
0.0
 10
341.3892251023226
 20
165.8922125948233
 30
0.0
 10
341.4031145086359
 20
165.8012234492342
 30
0.0
 10
341.4671500768757
 20
165.6731462666588
 30
0.0
 10
341.5809101598352
 20
165.5641525321673
 30
0.0
 10
341.7261125226794
 20
165.4907770460086
 30
0.0
 10
341.8347398506175
 20
165.4813148527882
 30
0.0
 10
341.8890728635538
 20
165.4765820707489
 30
0.0
  0
LINE
  5
15F
330
1F
100
AcDbEntity
  8
0
  6
SLD-実線
 62
     7
370
    25
100
AcDbLine
 10
341.3890718503
 20
165.9344724025
 30
0.0
 11
341.3890718503
 21
169.5029279794
 31
0.0
  0
LINE
  5
160
330
1F
100
AcDbEntity
  8
0
  6
SLD-実線
 62
     7
370
    25
100
AcDbLine
 10
341.3890718503
 20
169.5029279794
 30
0.0
 11
341.3890718503
 21
171.6589397396
 31
0.0
  0
SPLINE
  5
161
330
1F
100
AcDbEntity
  8
0
  6
SLD-実線
 62
     7
370
    25
100
AcDbSpline
210
0.0
220
0.0
230
1.0
 70
     8
 71
     3
 72
    13
 73
     9
 74
     0
 42
0.000000001
 43
0.00000001
 40
0.0
 40
0.0
 40
0.0
 40
0.0
 40
0.2025502348347153
 40
0.4049648546879001
 40
0.611354319151019
 40
0.8266866042426091
 40
0.9926088602055296
 40
1.0
 40
1.0
 40
1.0
 40
1.0
 10
347.8890701217402
 20
165.476582070749
 30
0.0
 10
347.9434017740577
 20
165.4813151889346
 30
0.0
 10
348.0520287016131
 20
165.4907782563056
 30
0.0
 10
348.1972318717058
 20
165.564151532222
 30
0.0
 10
348.310994306319
 20
165.6731455250257
 30
0.0
 10
348.3750218075899
 20
165.8012246009689
 30
0.0
 10
348.3889179274449
 20
165.8922124445346
 30
0.0
 10
348.3890648685544
 20
165.9327438943743
 30
0.0
 10
348.3890711350192
 20
165.9344724024941
 30
0.0
  0
LINE
  5
162
330
1F
100
AcDbEntity
  8
0
  6
SLD-実線
 62
     7
370
    25
100
AcDbLine
 10
348.389071135
 20
171.6589397396
 30
0.0
 11
348.389071135
 21
165.9344724025
 31
0.0
  0
LINE
  5
163
330
1F
100
AcDbEntity
  8
0
  6
SLD-実線
 62
     7
370
    25
100
AcDbLine
 10
341.8890728636
 20
201.6750975157
 30
0.0
 11
347.8890701217
 21
201.6750975157
 31
0.0
  0
LINE
  5
164
330
1F
100
AcDbEntity
  8
0
  6
SLD-実線
 62
     7
370
    25
100
AcDbLine
 10
347.8890701217
 20
165.4765820707
 30
0.0
 11
341.8890728636
 21
165.4765820707
 31
0.0
  0
LINE
  5
165
330
1F
100
AcDbEntity
  8
0
  6
SLD-実線
 62
     7
370
    25
100
AcDbLine
 10
348.389071135
 20
201.575840881
 30
0.0
 11
348.389071135
 21
201.2172109093
 31
0.0
  0
LINE
  5
166
330
1F
100
AcDbEntity
  8
0
  6
SLD-実線
 62
     7
370
    25
100
AcDbLine
 10
341.3890718503
 20
201.2172109093
 30
0.0
 11
341.3890718503
 21
201.575840881
 31
0.0
  0
LINE
  5
167
330
1F
100
AcDbEntity
  8
0
  6
SLD-実線
 62
     7
370
    25
100
AcDbLine
 10
341.3890718503
 20
165.5758387055
 30
0.0
 11
341.3890718503
 21
165.9344724025
 31
0.0
  0
LINE
  5
168
330
1F
100
AcDbEntity
  8
0
  6
SLD-実線
 62
     7
370
    25
100
AcDbLine
 10
348.389071135
 20
165.9344724025
 30
0.0
 11
348.389071135
 21
165.5758387055
 31
0.0
  0
LINE
  5
169
330
1F
100
AcDbEntity
  8
0
  6
SLD-実線
 62
     7
370
    25
100
AcDbLine
 10
324.5402357561
 20
423.849909624
 30
0.0
 11
309.2379092259
 21
423.849909624
 31
0.0
  0
LINE
  5
16A
330
1F
100
AcDbEntity
  8
0
  6
SLD-実線
 62
     7
370
    25
100
AcDbLine
 10
324.5402357561
 20
429.8499068822
 30
0.0
 11
339.1086502952
 21
429.8499068822
 31
0.0
  0
LINE
  5
16B
330
1F
100
AcDbEntity
  8
0
  6
SLD-実線
 62
     7
370
    25
100
AcDbLine
 10
340.3890698237
 20
423.849909624
 30
0.0
 11
339.1086502952
 21
423.849909624
 31
0.0
  0
LINE
  5
16C
330
1F
100
AcDbEntity
  8
0
  6
SLD-実線
 62
     7
370
    25
100
AcDbLine
 10
294.6694918928
 20
423.849909624
 30
0.0
 11
293.389071433
 21
423.849909624
 31
0.0
  0
LINE
  5
16D
330
1F
100
AcDbEntity
  8
0
  6
SLD-実線
 62
     7
370
    25
100
AcDbLine
 10
294.6694918928
 20
429.8499068822
 30
0.0
 11
309.2379092259
 21
429.8499068822
 31
0.0
  0
LINE
  5
16E
330
1F
100
AcDbEntity
  8
0
  6
SLD-実線
 62
     7
370
    25
100
AcDbLine
 10
293.389071433
 20
414.8499062862
 30
0.0
 11
340.3890698237
 21
414.8499062862
 31
0.0
  0
LINE
  5
16F
330
1F
100
AcDbEntity
  8
0
  6
SLD-実線
 62
     7
370
    25
100
AcDbLine
 10
311.8890716715
 20
429.8499068822
 30
0.0
 11
311.8890716715
 21
423.849909624
 31
0.0
  0
LINE
  5
170
330
1F
100
AcDbEntity
  8
0
  6
SLD-実線
 62
     7
370
    25
100
AcDbLine
 10
309.2379092259
 20
429.8499068822
 30
0.0
 11
311.8890716715
 21
429.8499068822
 31
0.0
  0
LINE
  5
171
330
1F
100
AcDbEntity
  8
0
  6
SLD-実線
 62
     7
370
    25
100
AcDbLine
 10
321.8890733106
 20
423.849909624
 30
0.0
 11
321.8890733106
 21
429.8499068822
 31
0.0
  0
LINE
  5
172
330
1F
100
AcDbEntity
  8
0
  6
SLD-実線
 62
     7
370
    25
100
AcDbLine
 10
321.8890733106
 20
429.8499068822
 30
0.0
 11
324.5402357561
 21
429.8499068822
 31
0.0
  0
LINE
  5
173
330
1F
100
AcDbEntity
  8
0
  6
SLD-実線
 62
     7
370
    25
100
AcDbLine
 10
294.560519701
 20
429.8499068822
 30
0.0
 11
294.6694918928
 21
429.8499068822
 31
0.0
  0
LINE
  5
174
330
1F
100
AcDbEntity
  8
0
  6
SLD-実線
 62
     7
370
    25
100
AcDbLine
 10
339.1086502952
 20
429.8499068822
 30
0.0
 11
339.217622487
 21
429.8499068822
 31
0.0
  0
LINE
  5
175
330
1F
100
AcDbEntity
  8
0
  6
SLD-実線
 62
     7
370
    25
100
AcDbLine
 10
70.3357576413
 20
195.8616963233
 30
0.0
 11
72.8890716119
 21
195.8616963233
 31
0.0
  0
LINE
  5
176
330
1F
100
AcDbEntity
  8
0
  6
SLD-実線
 62
     7
370
    25
100
AcDbLine
 10
74.3890672011
 20
201.849906763
 30
0.0
 11
74.3890672011
 21
190.3499058093
 31
0.0
  0
SPLINE
  5
177
330
1F
100
AcDbEntity
  8
0
  6
SLD-実線
 62
     7
370
    25
100
AcDbSpline
210
0.0
220
0.0
230
1.0
 70
     8
 71
     3
 72
    11
 73
     7
 74
     0
 42
0.000000001
 43
0.00000001
 40
0.0
 40
0.0
 40
0.0
 40
0.0
 40
0.2032341701603264
 40
0.440847241952775
 40
0.7809261287158716
 40
1.0
 40
1.0
 40
1.0
 40
1.0
 10
70.33575764129051
 20
195.8616963233163
 30
0.0
 10
69.80166435718829
 20
195.9075553089122
 30
0.0
 10
68.64313106991565
 20
196.007030743101
 30
0.0
 10
66.82328302484238
 20
196.9082498225182
 30
0.0
 10
65.37587500038647
 20
198.2482623234824
 30
0.0
 10
64.66686434804686
 20
199.3591745904011
 30
0.0
 10
64.38907673785576
 20
199.7944256867577
 30
0.0
  0
LINE
  5
178
330
1F
100
AcDbEntity
  8
0
  6
SLD-実線
 62
     7
370
    25
100
AcDbLine
 10
64.3890767379
 20
199.7944256868
 30
0.0
 11
64.3890767379
 21
165.8499083127
 31
0.0
  0
LINE
  5
179
330
1F
100
AcDbEntity
  8
0
  6
SLD-実線
 62
     7
370
    25
100
AcDbLine
 10
72.8890716119
 20
195.8616963233
 30
0.0
 11
72.8890716119
 21
170.180036744
 31
0.0
  0
LINE
  5
17A
330
1F
100
AcDbEntity
  8
0
  6
SLD-実線
 62
     7
370
    25
100
AcDbLine
 10
64.3890767379
 20
165.8499083127
 30
0.0
 11
72.8890716119
 21
165.8499083127
 31
0.0
  0
ARC
  5
17B
330
1F
100
AcDbEntity
  8
0
  6
SLD-実線
 62
     7
370
    25
100
AcDbCircle
 10
188.8891308293
 20
398.8227680403
 30
0.0
 40
68.99505824565176
100
AcDbArc
 50
268.5643097185
 51
271.4533616649
  0
SPLINE
  5
17C
330
1F
100
AcDbEntity
  8
0
  6
SLD-実線
 62
     7
370
    25
100
AcDbSpline
210
0.0
220
0.0
230
1.0
 70
     8
 71
     3
 72
    12
 73
     8
 74
     0
 42
0.000000001
 43
0.00000001
 40
0.0
 40
0.0
 40
0.0
 40
0.0
 40
0.2146165781839064
 40
0.4292403197795149
 40
0.6437209497451505
 40
0.8582643558585366
 40
0.9999999999999999
 40
0.9999999999999999
 40
0.9999999999999999
 40
0.9999999999999999
 10
84.3890725655306
 20
199.8658208753278
 30
0.0
 10
84.42765959088713
 20
200.0516615528607
 30
0.0
 10
84.50483492954719
 20
200.4233491108643
 30
0.0
 10
85.10743018976864
 20
200.9387531834659
 30
0.0
 10
85.9946892940783
 20
201.3361878546409
 30
0.0
 10
86.97895389335348
 20
201.5508935427962
 30
0.0
 10
87.63005132556923
 20
201.5729143314614
 30
0.0
 10
87.88907220790276
 20
201.5816746856381
 30
0.0
  0
LINE
  5
17D
330
1F
100
AcDbEntity
  8
0
  6
SLD-実線
 62
     7
370
    25
100
AcDbLine
 10
84.3890725655
 20
199.8180626537
 30
0.0
 11
84.3890725655
 21
199.8658208753
 31
0.0
  0
SPLINE
  5
17E
330
1F
100
AcDbEntity
  8
0
  6
SLD-実線
 62
     7
370
    25
100
AcDbSpline
210
0.0
220
0.0
230
1.0
 70
     8
 71
     3
 72
    12
 73
     8
 74
     0
 42
0.000000001
 43
0.00000001
 40
0.0
 40
0.0
 40
0.0
 40
0.0
 40
0.2146336374661055
 40
0.4292675371931422
 40
0.643878228699238
 40
0.8583914580759047
 40
1.0
 40
1.0
 40
1.0
 40
1.0
 10
87.88907220790276
 20
198.2638678158929
 30
0.0
 10
87.49559855618588
 20
198.2801120745616
 30
0.0
 10
86.70865077196655
 20
198.3126006117479
 30
0.0
 10
85.65984791512612
 20
198.568891589827
 30
0.0
 10
84.86850509900309
 20
198.9555057643919
 30
0.0
 10
84.44892611395119
 20
199.3964424188964
 30
0.0
 10
84.40610141327332
 20
199.6981080816972
 30
0.0
 10
84.38907256553063
 20
199.8180626537015
 30
0.0
  0
LINE
  5
17F
330
1F
100
AcDbEntity
  8
0
  6
SLD-実線
 62
     7
370
    25
100
AcDbLine
 10
93.8890694661
 20
198.2638678159
 30
0.0
 11
87.8890722079
 21
198.2638678159
 31
0.0
  0
SPLINE
  5
180
330
1F
100
AcDbEntity
  8
0
  6
SLD-実線
 62
     7
370
    25
100
AcDbSpline
210
0.0
220
0.0
230
1.0
 70
     8
 71
     3
 72
    12
 73
     8
 74
     0
 42
0.000000001
 43
0.00000001
 40
0.0
 40
0.0
 40
0.0
 40
0.0
 40
0.2146161260621194
 40
0.4292404189049025
 40
0.6437207360937842
 40
0.858264272473545
 40
1.0
 40
1.0
 40
1.0
 40
1.0
 10
97.38906910846123
 20
199.8180626537015
 30
0.0
 10
97.35048171289914
 20
199.6363002550495
 30
0.0
 10
97.27330545341
 20
199.2727685411467
 30
0.0
 10
96.67071353776763
 20
198.8084752246226
 30
0.0
 10
95.78345090634375
 20
198.4667706099318
 30
0.0
 10
94.79918790045011
 20
198.2891594970126
 30
0.0
 10
94.14809038041597
 20
198.2710658619066
 30
0.0
 10
93.8890694660891
 20
198.2638678158929
 30
0.0
  0
LINE
  5
181
330
1F
100
AcDbEntity
  8
0
  6
SLD-実線
 62
     7
370
    25
100
AcDbLine
 10
97.3890691085
 20
199.8180626537
 30
0.0
 11
97.3890691085
 21
199.8658208753
 31
0.0
  0
SPLINE
  5
182
330
1F
100
AcDbEntity
  8
0
  6
SLD-実線
 62
     7
370
    25
100
AcDbSpline
210
0.0
220
0.0
230
1.0
 70
     8
 71
     3
 72
    12
 73
     8
 74
     0
 42
0.000000001
 43
0.00000001
 40
0.0
 40
0.0
 40
0.0
 40
0.0
 40
0.2146331343400562
 40
0.4292691234131865
 40
0.6438774375223147
 40
0.8583913696602439
 40
1.0
 40
1.0
 40
1.0
 40
1.0
 10
93.8890694660891
 20
201.5816746856381
 30
0.0
 10
94.28254235428543
 20
201.5618179461206
 30
0.0
 10
95.06949336407358
 20
201.5221042029804
 30
0.0
 10
96.11830804857304
 20
201.2152824477747
 30
0.0
 10
96.90962969205114
 20
200.7727979727955
 30
0.0
 10
97.32923989295803
 20
200.2940508498652
 30
0.0
 10
97.3720472030955
 20
199.9876558357236
 30
0.0
 10
97.38906910846123
 20
199.8658208753278
 30
0.0
  0
LINE
  5
183
330
1F
100
AcDbEntity
  8
0
  6
SLD-実線
 62
     7
370
    25
100
AcDbLine
 10
93.8890694661
 20
201.5816746856
 30
0.0
 11
87.8890722079
 21
201.5816746856
 31
0.0
  0
SPLINE
  5
184
330
1F
100
AcDbEntity
  8
0
  6
SLD-実線
 62
     7
370
    25
100
AcDbSpline
210
0.0
220
0.0
230
1.0
 70
     8
 71
     3
 72
    12
 73
     8
 74
     0
 42
0.000000001
 43
0.00000001
 40
0.0
 40
0.0
 40
0.0
 40
0.0
 40
0.2146165365100222
 40
0.4292405078514118
 40
0.6437208367390626
 40
0.8582643737009268
 40
0.9999999999999999
 40
0.9999999999999999
 40
0.9999999999999999
 40
0.9999999999999999
 10
84.38907256553063
 20
193.7966338004281
 30
0.0
 10
84.42765973348915
 20
193.8913933116226
 30
0.0
 10
84.50483540615816
 20
194.0809156167084
 30
0.0
 10
85.1074288468123
 20
194.3555627118524
 30
0.0
 10
85.99469073775948
 20
194.5722202043623
 30
0.0
 10
86.97895337310327
 20
194.6913455620964
 30
0.0
 10
87.63005125960754
 20
194.7035985863387
 30
0.0
 10
87.88907220790276
 20
194.7084731067826
 30
0.0
  0
LINE
  5
185
330
1F
100
AcDbEntity
  8
0
  6
SLD-実線
 62
     7
370
    25
100
AcDbLine
 10
84.3890725655
 20
193.7725982274
 30
0.0
 11
84.3890725655
 21
193.7966338004
 31
0.0
  0
SPLINE
  5
186
330
1F
100
AcDbEntity
  8
0
  6
SLD-実線
 62
     7
370
    25
100
AcDbSpline
210
0.0
220
0.0
230
1.0
 70
     8
 71
     3
 72
    12
 73
     8
 74
     0
 42
0.000000001
 43
0.00000001
 40
0.0
 40
0.0
 40
0.0
 40
0.0
 40
0.2146334598679893
 40
0.4292674120861932
 40
0.6438780574960168
 40
0.8583912018921751
 40
1.0
 40
1.0
 40
1.0
 40
1.0
 10
87.88907220790276
 20
193.0384701694657
 30
0.0
 10
87.49559844887756
 20
193.0455694168519
 30
0.0
 10
86.70865002823308
 20
193.0597679279093
 30
0.0
 10
85.65984826253006
 20
193.17370825081
 30
0.0
 10
84.86850511235986
 20
193.3516739583359
 30
0.0
 10
84.44892587203404
 20
193.5623385741394
 30
0.0
 10
84.4061013606304
 20
193.7127774963271
 30
0.0
 10
84.38907256553063
 20
193.7725982274224
 30
0.0
  0
LINE
  5
187
330
1F
100
AcDbEntity
  8
0
  6
SLD-実線
 62
     7
370
    25
100
AcDbLine
 10
93.8890694661
 20
193.0384701695
 30
0.0
 11
87.8890722079
 21
193.0384701695
 31
0.0
  0
SPLINE
  5
188
330
1F
100
AcDbEntity
  8
0
  6
SLD-実線
 62
     7
370
    25
100
AcDbSpline
210
0.0
220
0.0
230
1.0
 70
     8
 71
     3
 72
    12
 73
     8
 74
     0
 42
0.000000001
 43
0.00000001
 40
0.0
 40
0.0
 40
0.0
 40
0.0
 40
0.2146162830744553
 40
0.4292403989330724
 40
0.6437208659869493
 40
0.858264368737519
 40
1.0
 40
1.0
 40
1.0
 40
1.0
 10
97.3890691084612
 20
193.7725982274224
 30
0.0
 10
97.35048184011819
 20
193.6823239501724
 30
0.0
 10
97.27330589512457
 20
193.5017721009599
 30
0.0
 10
96.67071276962427
 20
193.2833068002376
 30
0.0
 10
95.78345145481768
 20
193.1279054167229
 30
0.0
 10
94.79918815774161
 20
193.0495584120638
 30
0.0
 10
94.14809039534563
 20
193.0416258973152
 30
0.0
 10
93.8890694660891
 20
193.0384701694657
 30
0.0
  0
LINE
  5
189
330
1F
100
AcDbEntity
  8
0
  6
SLD-実線
 62
     7
370
    25
100
AcDbLine
 10
97.3890691085
 20
193.7725982274
 30
0.0
 11
97.3890691085
 21
193.7966338004
 31
0.0
  0
SPLINE
  5
18A
330
1F
100
AcDbEntity
  8
0
  6
SLD-実線
 62
     7
370
    25
100
AcDbSpline
210
0.0
220
0.0
230
1.0
 70
     8
 71
     3
 72
    12
 73
     8
 74
     0
 42
0.000000001
 43
0.00000001
 40
0.0
 40
0.0
 40
0.0
 40
0.0
 40
0.2146332592340891
 40
0.4292694021871238
 40
0.6438776351685781
 40
0.8583915228831205
 40
1.0
 40
1.0
 40
1.0
 40
1.0
 10
93.88906946608907
 20
194.7084731067826
 30
0.0
 10
94.28254238759742
 20
194.6974006483599
 30
0.0
 10
95.06949351714499
 20
194.6752555827497
 30
0.0
 10
96.11830740474022
 20
194.505758321213
 30
0.0
 10
96.9096298557113
 20
194.2663927978383
 30
0.0
 10
97.32923977503476
 20
194.0141540898121
 30
0.0
 10
97.37204717596393
 20
193.8585200938334
 30
0.0
 10
97.38906910846123
 20
193.7966338004281
 30
0.0
  0
LINE
  5
18B
330
1F
100
AcDbEntity
  8
0
  6
SLD-実線
 62
     7
370
    25
100
AcDbLine
 10
93.8890694661
 20
194.7084731068
 30
0.0
 11
87.8890722079
 21
194.7084731068
 31
0.0
  0
SPLINE
  5
18C
330
1F
100
AcDbEntity
  8
0
  6
SLD-実線
 62
     7
370
    25
100
AcDbSpline
210
0.0
220
0.0
230
1.0
 70
     8
 71
     3
 72
    12
 73
     8
 74
     0
 42
0.000000001
 43
0.00000001
 40
0.0
 40
0.0
 40
0.0
 40
0.0
 40
0.2146334926186178
 40
0.4292686667819684
 40
0.6438782427410163
 40
0.8583910069933277
 40
1.0
 40
1.0
 40
1.0
 40
1.0
 10
192.8890689296473
 20
207.3027035798241
 30
0.0
 10
192.4955955206423
 20
207.3270647045621
 30
0.0
 10
191.7086456199673
 20
207.3757871448952
 30
0.0
 10
190.6598388269219
 20
207.7582475585522
 30
0.0
 10
189.8685030260364
 20
208.3291356681727
 30
0.0
 10
189.4489219839012
 20
208.9725476739432
 30
0.0
 10
189.4060979319659
 20
209.4064596012107
 30
0.0
 10
189.3890692872752
 20
209.579001238506
 30
0.0
  0
LINE
  5
18D
330
1F
100
AcDbEntity
  8
0
  6
SLD-実線
 62
     7
370
    25
100
AcDbLine
 10
192.8890689296
 20
207.3027035798
 30
0.0
 11
208.7699069662
 21
207.3027035798
 31
0.0
  0
SPLINE
  5
18E
330
1F
100
AcDbEntity
  8
0
  6
SLD-実線
 62
     7
370
    25
100
AcDbSpline
210
0.0
220
0.0
230
1.0
 70
     8
 71
     3
 72
     9
 73
     5
 74
     0
 42
0.000000001
 43
0.00000001
 40
0.0
 40
0.0
 40
0.0
 40
0.0
 40
0.7862943926674946
 40
0.9999999999999999
 40
0.9999999999999999
 40
0.9999999999999999
 40
0.9999999999999999
 10
189.3890692872752
 20
209.647475799482
 30
0.0
 10
189.4059424138922
 20
209.9187189086892
 30
0.0
 10
189.4274014587161
 20
210.263682718347
 30
0.0
 10
189.685491908224
 20
210.560136785369
 30
0.0
 10
189.7406472844828
 20
210.6234906818082
 30
0.0
  0
LINE
  5
18F
330
1F
100
AcDbEntity
  8
0
  6
SLD-実線
 62
     7
370
    25
100
AcDbLine
 10
189.3890692873
 20
209.6474757995
 30
0.0
 11
189.3890692873
 21
209.5790012385
 31
0.0
  0
SPLINE
  5
190
330
1F
100
AcDbEntity
  8
0
  6
SLD-実線
 62
     7
370
    25
100
AcDbSpline
210
0.0
220
0.0
230
1.0
 70
     8
 71
     3
 72
     9
 73
     5
 74
     0
 42
0.000000001
 43
0.00000001
 40
0.0
 40
0.0
 40
0.0
 40
0.0
 40
0.1704971222259458
 40
1.0
 40
1.0
 40
1.0
 40
1.0
 10
189.5353837890376
 20
236.8499069120099
 30
0.0
 10
189.5139612897922
 20
236.895558105705
 30
0.0
 10
189.3883140121978
 20
237.1633115615943
 30
0.0
 10
189.3887268429654
 20
237.4633981995575
 30
0.0
 10
189.3890692872752
 20
237.7123209293296
 30
0.0
  0
SPLINE
  5
191
330
1F
100
AcDbEntity
  8
0
  6
SLD-実線
 62
     7
370
    25
100
AcDbSpline
210
0.0
220
0.0
230
1.0
 70
     8
 71
     3
 72
    10
 73
     6
 74
     0
 42
0.000000001
 43
0.00000001
 40
0.0
 40
0.0
 40
0.0
 40
0.0
 40
0.3338851778090551
 40
0.6677815397186235
 40
1.0
 40
1.0
 40
1.0
 40
1.0
 10
189.3890692872752
 20
237.8086569364478
 30
0.0
 10
189.4284927250353
 20
238.1790636339406
 30
0.0
 10
189.5073409211163
 20
238.9198894363824
 30
0.0
 10
190.0965348988829
 20
239.9331419947068
 30
0.0
 10
190.7179511649686
 20
240.3937620051809
 30
0.0
 10
191.0278766436327
 20
240.6234918739011
 30
0.0
  0
LINE
  5
192
330
1F
100
AcDbEntity
  8
0
  6
SLD-実線
 62
     7
370
    25
100
AcDbLine
 10
189.3890692873
 20
237.8086569364
 30
0.0
 11
189.3890692873
 21
237.7123209293
 31
0.0
  0
SPLINE
  5
193
330
1F
100
AcDbEntity
  8
0
  6
SLD-実線
 62
     7
370
    25
100
AcDbSpline
210
0.0
220
0.0
230
1.0
 70
     8
 71
     3
 72
    11
 73
     7
 74
     0
 42
0.000000001
 43
0.00000001
 40
0.0
 40
0.0
 40
0.0
 40
0.0
 40
0.1400224277236653
 40
0.4760094396725562
 40
0.8121213251412254
 40
1.0
 40
1.0
 40
1.0
 40
1.0
 10
84.98006751963982
 20
200.7892197574784
 30
0.0
 10
85.05821887918427
 20
200.7249506142865
 30
0.0
 10
85.32389621010314
 20
200.5064661947806
 30
0.0
 10
86.11359324846197
 20
200.258015057185
 30
0.0
 10
87.05736466133528
 20
200.0971188227232
 30
0.0
 10
87.6695654445879
 20
200.0830146371586
 30
0.0
 10
87.88907220790273
 20
200.0779575313737
 30
0.0
  0
SPLINE
  5
194
330
1F
100
AcDbEntity
  8
0
  6
SLD-実線
 62
     7
370
    25
100
AcDbSpline
210
0.0
220
0.0
230
1.0
 70
     8
 71
     3
 72
    10
 73
     6
 74
     0
 42
0.000000001
 43
0.00000001
 40
0.0
 40
0.0
 40
0.0
 40
0.0
 40
0.3413835764932818
 40
0.6827677586159332
 40
1.0
 40
1.0
 40
1.0
 40
1.0
 10
93.8890694660891
 20
200.0779575313737
 30
0.0
 10
94.28117845403806
 20
200.0946980951788
 30
0.0
 10
95.06539712555431
 20
200.1281792524874
 30
0.0
 10
96.10949123900278
 20
200.3711882394361
 30
0.0
 10
96.57656048454835
 20
200.6346336236902
 30
0.0
 10
96.80153122374901
 20
200.7615259493996
 30
0.0
  0
LINE
  5
195
330
1F
100
AcDbEntity
  8
0
  6
SLD-実線
 62
     7
370
    25
100
AcDbLine
 10
93.8890694661
 20
200.0779575314
 30
0.0
 11
87.8890722079
 21
200.0779575314
 31
0.0
  0
LINE
  5
196
330
1F
100
AcDbEntity
  8
0
  6
SLD-実線
 62
     7
370
    25
100
AcDbLine
 10
192.8890689296
 20
208.8547973539
 30
0.0
 11
207.5222103877
 21
208.8547973539
 31
0.0
  0
SPLINE
  5
197
330
1F
100
AcDbEntity
  8
0
  6
SLD-実線
 62
     7
370
    25
100
AcDbSpline
210
0.0
220
0.0
230
1.0
 70
     8
 71
     3
 72
    12
 73
     8
 74
     0
 42
0.000000001
 43
0.00000001
 40
0.0
 40
0.0
 40
0.0
 40
0.0
 40
0.0309603861611367
 40
0.3033651415571723
 40
0.5755345740876615
 40
0.8478064110505497
 40
1.0
 40
1.0
 40
1.0
 40
1.0
 10
189.6007328314532
 20
210.3768429364373
 30
0.0
 10
189.6090104839836
 20
210.3477801080653
 30
0.0
 10
189.6901190082299
 20
210.0630081741098
 30
0.0
 10
190.2049548545884
 20
209.609250626752
 30
0.0
 10
191.0940505605498
 20
209.1167810819104
 30
0.0
 10
192.0598350666017
 20
208.8844475246506
 30
0.0
 10
192.6702150238854
 20
208.8626227165234
 30
0.0
 10
192.8890689296473
 20
208.8547973539044
 30
0.0
  0
SPLINE
  5
198
330
1F
100
AcDbEntity
  8
0
  6
SLD-実線
 62
     7
370
    25
100
AcDbSpline
210
0.0
220
0.0
230
1.0
 70
     8
 71
     3
 72
    10
 73
     6
 74
     0
 42
0.000000001
 43
0.00000001
 40
0.0
 40
0.0
 40
0.0
 40
0.0
 40
0.0362852301050673
 40
0.6959556684828718
 40
1.0
 40
1.0
 40
1.0
 40
1.0
 10
189.3894567174662
 20
238.4297410602977
 30
0.0
 10
189.3899290373404
 20
238.4094056000515
 30
0.0
 10
189.3989881970253
 20
238.0193686955439
 30
0.0
 10
189.4861200643755
 20
237.4388016888799
 30
0.0
 10
189.805797870089
 20
236.9911404622703
 30
0.0
 10
189.9066536707629
 20
236.8499069120099
 30
0.0
  0
LINE
  5
199
330
1F
100
AcDbEntity
  8
0
  6
SLD-実線
 62
     7
370
    25
100
AcDbLine
 10
274.3890711127
 20
175.7781124319
 30
0.0
 11
274.3890711127
 21
179.9069932307
 31
0.0
  0
LINE
  5
19A
330
1F
100
AcDbEntity
  8
0
  6
SLD-実線
 62
     7
370
    25
100
AcDbLine
 10
274.3890711127
 20
210.47377499
 30
0.0
 11
274.3890711127
 21
311.2260392512
 31
0.0
  0
LINE
  5
19B
330
1F
100
AcDbEntity
  8
0
  6
SLD-実線
 62
     7
370
    25
100
AcDbLine
 10
274.3890711127
 20
341.7928210105
 30
0.0
 11
274.3890711127
 21
353.849909326
 31
0.0
  0
LINE
  5
19C
330
1F
100
AcDbEntity
  8
0
  6
SLD-実線
 62
     7
370
    25
100
AcDbLine
 10
282.3890714926
 20
260.8499071206
 30
0.0
 11
282.3890714926
 21
327.9141402449
 31
0.0
  0
LINE
  5
19D
330
1F
100
AcDbEntity
  8
0
  6
SLD-実線
 62
     7
370
    25
100
AcDbLine
 10
282.3890714926
 20
335.9141415562
 30
0.0
 11
282.3890714926
 21
353.849909326
 31
0.0
  0
LINE
  5
19E
330
1F
100
AcDbEntity
  8
0
  6
SLD-実線
 62
     7
370
    25
100
AcDbLine
 10
282.3890714926
 20
180.3969136085
 30
0.0
 11
282.3890714926
 21
185.7856726851
 31
0.0
  0
LINE
  5
19F
330
1F
100
AcDbEntity
  8
0
  6
SLD-実線
 62
     7
370
    25
100
AcDbLine
 10
282.3890714926
 20
193.7856739964
 30
0.0
 11
282.3890714926
 21
260.8499071206
 31
0.0
  0
LINE
  5
1A0
330
1F
100
AcDbEntity
  8
0
  6
SLD-実線
 62
     7
370
    25
100
AcDbLine
 10
267.8890719099
 20
200.392275175
 30
0.0
 11
267.8890719099
 21
179.9069932307
 31
0.0
  0
LINE
  5
1A1
330
1F
100
AcDbEntity
  8
0
  6
SLD-実線
 62
     7
370
    25
100
AcDbLine
 10
280.8890714796
 20
179.9069932307
 30
0.0
 11
280.8890714796
 21
199.0797175671
 31
0.0
  0
LINE
  5
1A2
330
1F
100
AcDbEntity
  8
0
  6
SLD-実線
 62
     7
370
    25
100
AcDbLine
 10
267.8890719099
 20
341.7928210105
 30
0.0
 11
267.8890719099
 21
321.3075390662
 31
0.0
  0
LINE
  5
1A3
330
1F
100
AcDbEntity
  8
0
  6
SLD-実線
 62
     7
370
    25
100
AcDbLine
 10
280.8890714796
 20
322.6200966741
 30
0.0
 11
280.8890714796
 21
341.7928210105
 31
0.0
  0
LINE
  5
1A4
330
1F
100
AcDbEntity
  8
0
  6
SLD-実線
 62
     7
370
    25
100
AcDbLine
 10
280.8890714796
 20
210.47377499
 30
0.0
 11
280.8890714796
 21
199.0797175671
 31
0.0
  0
LINE
  5
1A5
330
1F
100
AcDbEntity
  8
0
  6
SLD-実線
 62
     7
370
    25
100
AcDbLine
 10
274.3890711127
 20
199.0797175671
 30
0.0
 11
274.3890711127
 21
210.47377499
 31
0.0
  0
LINE
  5
1A6
330
1F
100
AcDbEntity
  8
0
  6
SLD-実線
 62
     7
370
    25
100
AcDbLine
 10
280.8890714796
 20
322.6200966741
 30
0.0
 11
280.8890714796
 21
311.2260392512
 31
0.0
  0
LINE
  5
1A7
330
1F
100
AcDbEntity
  8
0
  6
SLD-実線
 62
     7
370
    25
100
AcDbLine
 10
274.3890711127
 20
311.2260392512
 30
0.0
 11
274.3890711127
 21
322.6200966741
 31
0.0
  0
LINE
  5
1A8
330
1F
100
AcDbEntity
  8
0
  6
SLD-実線
 62
     7
370
    25
100
AcDbLine
 10
267.8890719099
 20
209.8330883886
 30
0.0
 11
274.3890711127
 21
209.8330883886
 31
0.0
  0
LINE
  5
1A9
330
1F
100
AcDbEntity
  8
0
  6
SLD-実線
 62
     7
370
    25
100
AcDbLine
 10
267.8890719099
 20
209.8330883886
 30
0.0
 11
267.8890719099
 21
200.392275175
 31
0.0
  0
LINE
  5
1AA
330
1F
100
AcDbEntity
  8
0
  6
SLD-実線
 62
     7
370
    25
100
AcDbLine
 10
267.8890719099
 20
311.8667258526
 30
0.0
 11
274.3890711127
 21
311.8667258526
 31
0.0
  0
LINE
  5
1AB
330
1F
100
AcDbEntity
  8
0
  6
SLD-実線
 62
     7
370
    25
100
AcDbLine
 10
267.8890719099
 20
321.3075390662
 30
0.0
 11
267.8890719099
 21
311.8667258526
 31
0.0
  0
LINE
  5
1AC
330
1F
100
AcDbEntity
  8
0
  6
SLD-実線
 62
     7
370
    25
100
AcDbLine
 10
244.3890727145
 20
191.9641337003
 30
0.0
 11
244.3890727145
 21
201.849906763
 31
0.0
  0
LINE
  5
1AD
330
1F
100
AcDbEntity
  8
0
  6
SLD-実線
 62
     7
370
    25
100
AcDbLine
 10
244.3890727145
 20
191.9641337003
 30
0.0
 11
239.3890700323
 21
191.9641337003
 31
0.0
  0
LINE
  5
1AE
330
1F
100
AcDbEntity
  8
0
  6
SLD-実線
 62
     7
370
    25
100
AcDbLine
 10
239.3890700323
 20
191.9641337003
 30
0.0
 11
239.3890700323
 21
190.3499058093
 31
0.0
  0
LINE
  5
1AF
330
1F
100
AcDbEntity
  8
0
  6
SLD-実線
 62
     7
370
    25
100
AcDbLine
 10
254.3890706284
 20
303.9080082084
 30
0.0
 11
274.3890711127
 21
303.9080082084
 31
0.0
  0
LINE
  5
1B0
330
1F
100
AcDbEntity
  8
0
  6
SLD-実線
 62
     7
370
    25
100
AcDbLine
 10
274.3890711127
 20
310.6896496023
 30
0.0
 11
254.3890706284
 21
310.6896496023
 31
0.0
  0
LINE
  5
1B1
330
1F
100
AcDbEntity
  8
0
  6
SLD-実線
 62
     7
370
    25
100
AcDbLine
 10
274.3890711127
 20
217.7918060328
 30
0.0
 11
254.3890706284
 21
217.7918060328
 31
0.0
  0
LINE
  5
1B2
330
1F
100
AcDbEntity
  8
0
  6
SLD-実線
 62
     7
370
    25
100
AcDbLine
 10
254.3890706284
 20
211.0101646389
 30
0.0
 11
274.3890711127
 21
211.0101646389
 31
0.0
  0
LINE
  5
1B3
330
1F
100
AcDbEntity
  8
0
  6
SLD-実線
 62
     7
370
    25
100
AcDbLine
 10
249.3890716715
 20
197.090595087
 30
0.0
 11
249.3890716715
 21
201.849906763
 31
0.0
  0
SPLINE
  5
1B4
330
1F
100
AcDbEntity
  8
0
  6
SLD-実線
 62
     7
370
    25
100
AcDbSpline
210
0.0
220
0.0
230
1.0
 70
     8
 71
     3
 72
     9
 73
     5
 74
     0
 42
0.000000001
 43
0.00000001
 40
0.0
 40
0.0
 40
0.0
 40
0.0
 40
0.7497270440460124
 40
0.9999999999999999
 40
0.9999999999999999
 40
0.9999999999999999
 40
0.9999999999999999
 10
249.389071671461
 20
197.0905950869729
 30
0.0
 10
248.1402662878586
 20
195.8087246517325
 30
0.0
 10
246.4745862333377
 20
194.0989418108701
 30
0.0
 10
244.8065396608961
 20
192.3914681744841
 30
0.0
 10
244.3890727145422
 20
191.9641337002923
 30
0.0
  0
LINE
  5
1B5
330
1F
100
AcDbEntity
  8
0
  6
SLD-実線
 62
     7
370
    25
100
AcDbLine
 10
260.8890707625
 20
197.090595087
 30
0.0
 11
249.3890716715
 21
197.090595087
 31
0.0
  0
LINE
  5
1B6
330
1F
100
AcDbEntity
  8
0
  6
SLD-実線
 62
     7
370
    25
100
AcDbLine
 10
256.3890709562
 20
260.8499071206
 30
0.0
 11
256.3890709562
 21
286.7952259834
 31
0.0
  0
LINE
  5
1B7
330
1F
100
AcDbEntity
  8
0
  6
SLD-実線
 62
     7
370
    25
100
AcDbLine
 10
256.3890709562
 20
234.9045882578
 30
0.0
 11
256.3890709562
 21
260.8499071206
 31
0.0
  0
LINE
  5
1B8
330
1F
100
AcDbEntity
  8
0
  6
SLD-実線
 62
     7
370
    25
100
AcDbLine
 10
217.3890738768
 20
157.4499076809
 30
0.0
 11
217.3890738768
 21
156.8499049749
 31
0.0
  0
LINE
  5
1B9
330
1F
100
AcDbEntity
  8
0
  6
SLD-実線
 62
     7
370
    25
100
AcDbLine
 10
217.3890738768
 20
156.8499049749
 30
0.0
 11
229.3890721185
 21
156.8499049749
 31
0.0
  0
LINE
  5
1BA
330
1F
100
AcDbEntity
  8
0
  6
SLD-実線
 62
     7
370
    25
100
AcDbLine
 10
217.3890738768
 20
157.4499076809
 30
0.0
 11
229.3890721185
 21
157.4499076809
 31
0.0
  0
LINE
  5
1BB
330
1F
100
AcDbEntity
  8
0
  6
SLD-実線
 62
     7
370
    25
100
AcDbLine
 10
229.3890721185
 20
157.4499076809
 30
0.0
 11
229.3890721185
 21
156.8499049749
 31
0.0
  0
LINE
  5
1BC
330
1F
100
AcDbEntity
  8
0
  6
SLD-実線
 62
     7
370
    25
100
AcDbLine
 10
177.8890683336
 20
156.8499049749
 30
0.0
 11
211.3890691681
 21
156.8499049749
 31
0.0
  0
LINE
  5
1BD
330
1F
100
AcDbEntity
  8
0
  6
SLD-実線
 62
     7
370
    25
100
AcDbLine
 10
177.8890683336
 20
156.8499049749
 30
0.0
 11
177.8890683336
 21
157.4499076809
 31
0.0
  0
LINE
  5
1BE
330
1F
100
AcDbEntity
  8
0
  6
SLD-実線
 62
     7
370
    25
100
AcDbLine
 10
177.8890683336
 20
157.4499076809
 30
0.0
 11
211.3890691681
 21
157.4499076809
 31
0.0
  0
LINE
  5
1BF
330
1F
100
AcDbEntity
  8
0
  6
SLD-実線
 62
     7
370
    25
100
AcDbLine
 10
211.3890691681
 20
157.4499076809
 30
0.0
 11
211.3890691681
 21
156.8499049749
 31
0.0
  0
LINE
  5
1C0
330
1F
100
AcDbEntity
  8
0
  6
SLD-実線
 62
     7
370
    25
100
AcDbLine
 10
128.3890723271
 20
157.4499076809
 30
0.0
 11
128.3890723271
 21
156.8499049749
 31
0.0
  0
LINE
  5
1C1
330
1F
100
AcDbEntity
  8
0
  6
SLD-実線
 62
     7
370
    25
100
AcDbLine
 10
152.8890698237
 20
156.8499049749
 30
0.0
 11
152.8890698237
 21
157.4499076809
 31
0.0
  0
LINE
  5
1C2
330
1F
100
AcDbEntity
  8
0
  6
SLD-実線
 62
     7
370
    25
100
AcDbLine
 10
128.3890723271
 20
156.8499049749
 30
0.0
 11
152.8890698237
 21
156.8499049749
 31
0.0
  0
LINE
  5
1C3
330
1F
100
AcDbEntity
  8
0
  6
SLD-実線
 62
     7
370
    25
100
AcDbLine
 10
128.3890723271
 20
157.4499076809
 30
0.0
 11
152.8890698237
 21
157.4499076809
 31
0.0
  0
LINE
  5
1C4
330
1F
100
AcDbEntity
  8
0
  6
SLD-実線
 62
     7
370
    25
100
AcDbLine
 10
110.3890656514
 20
156.8499049749
 30
0.0
 11
122.3890750689
 21
156.8499049749
 31
0.0
  0
LINE
  5
1C5
330
1F
100
AcDbEntity
  8
0
  6
SLD-実線
 62
     7
370
    25
100
AcDbLine
 10
110.3890656514
 20
157.4499076809
 30
0.0
 11
110.3890656514
 21
156.8499049749
 31
0.0
  0
LINE
  5
1C6
330
1F
100
AcDbEntity
  8
0
  6
SLD-実線
 62
     7
370
    25
100
AcDbLine
 10
122.3890750689
 20
157.4499076809
 30
0.0
 11
122.3890750689
 21
156.8499049749
 31
0.0
  0
LINE
  5
1C7
330
1F
100
AcDbEntity
  8
0
  6
SLD-実線
 62
     7
370
    25
100
AcDbLine
 10
110.3890656514
 20
157.4499076809
 30
0.0
 11
122.3890750689
 21
157.4499076809
 31
0.0
  0
LINE
  5
1C8
330
1F
100
AcDbEntity
  8
0
  6
SLD-実線
 62
     7
370
    25
100
AcDbLine
 10
199.3890746517
 20
210.6234906818
 30
0.0
 11
129.3890743537
 21
210.6234906818
 31
0.0
  0
ELLIPSE
  5
1C9
330
1F
100
AcDbEntity
  8
0
  6
SLD-実線
 62
     7
370
    25
100
AcDbEllipse
 10
129.3890714926
 20
207.0763146678
 30
0.0
 11
9.400000000000006
 21
0.0
 31
0.0
210
0.0
220
0.0
230
1.0
 40
0.3773592453
 41
1.570796326794897
 42
3.141592653589793
  0
LINE
  5
1CA
330
1F
100
AcDbEntity
  8
0
  6
SLD-実線
 62
     7
370
    25
100
AcDbLine
 10
119.9890642447
 20
207.0763139631
 30
0.0
 11
119.9890642447
 21
206.8499057199
 31
0.0
  0
LINE
  5
1CB
330
1F
100
AcDbEntity
  8
0
  6
SLD-実線
 62
     7
370
    25
100
AcDbLine
 10
119.9890642447
 20
206.8499057199
 30
0.0
 11
119.3890689893
 21
206.8499057199
 31
0.0
  0
LINE
  5
1CC
330
1F
100
AcDbEntity
  8
0
  6
SLD-実線
 62
     7
370
    25
100
AcDbLine
 10
119.3890689893
 20
207.0763139631
 30
0.0
 11
119.3890689893
 21
206.8499057199
 31
0.0
  0
ELLIPSE
  5
1CD
330
1F
100
AcDbEntity
  8
0
  6
SLD-実線
 62
     7
370
    25
100
AcDbEllipse
 10
129.3890714926
 20
207.0763146678
 30
0.0
 11
10.00000000000003
 21
0.0
 31
0.0
210
0.0
220
0.0
230
1.0
 40
0.3773592453
 41
1.570796326794897
 42
3.141592653589793
  0
LINE
  5
1CE
330
1F
100
AcDbEntity
  8
0
  6
SLD-実線
 62
     7
370
    25
100
AcDbLine
 10
199.3890746517
 20
210.8499063756
 30
0.0
 11
129.3890743537
 21
210.8499063756
 31
0.0
  0
ELLIPSE
  5
1CF
330
1F
100
AcDbEntity
  8
0
  6
SLD-実線
 62
     7
370
    25
100
AcDbEllipse
 10
199.3890714926
 20
207.0763146678
 30
0.0
 11
10.0
 21
0.0
 31
0.0
210
0.0
220
0.0
230
1.0
 40
0.3773592453
 41
0.0
 42
1.570796326794897
  0
LINE
  5
1D0
330
1F
100
AcDbEntity
  8
0
  6
SLD-実線
 62
     7
370
    25
100
AcDbLine
 10
209.3890725655
 20
207.0763139631
 30
0.0
 11
209.3890725655
 21
206.8499057199
 31
0.0
  0
LINE
  5
1D1
330
1F
100
AcDbEntity
  8
0
  6
SLD-実線
 62
     7
370
    25
100
AcDbLine
 10
209.3890725655
 20
206.8499057199
 30
0.0
 11
208.7890698595
 21
206.8499057199
 31
0.0
  0
LINE
  5
1D2
330
1F
100
AcDbEntity
  8
0
  6
SLD-実線
 62
     7
370
    25
100
AcDbLine
 10
208.7890698595
 20
207.0763139631
 30
0.0
 11
208.7890698595
 21
206.8499057199
 31
0.0
  0
ELLIPSE
  5
1D3
330
1F
100
AcDbEntity
  8
0
  6
SLD-実線
 62
     7
370
    25
100
AcDbEllipse
 10
199.3890714926
 20
207.0763146678
 30
0.0
 11
9.399999999999975
 21
0.0
 31
0.0
210
0.0
220
0.0
230
1.0
 40
0.3773592453
 41
0.0
 42
1.570796326794897
  0
LINE
  5
1D4
330
1F
100
AcDbEntity
  8
0
  6
SLD-実線
 62
     7
370
    25
100
AcDbLine
 10
199.3890746517
 20
330.6234917249
 30
0.0
 11
129.3890743537
 21
330.6234917249
 31
0.0
  0
ELLIPSE
  5
1D5
330
1F
100
AcDbEntity
  8
0
  6
SLD-実線
 62
     7
370
    25
100
AcDbEllipse
 10
129.3890714926
 20
327.0763146678
 30
0.0
 11
9.400000000000006
 21
-5.684341886080801E-14
 31
0.0
210
0.0
220
0.0
230
1.0
 40
0.3773592453
 41
1.570796326794896
 42
3.141592653589862
  0
LINE
  5
1D6
330
1F
100
AcDbEntity
  8
0
  6
SLD-実線
 62
     7
370
    25
100
AcDbLine
 10
119.9890642447
 20
327.0763150062
 30
0.0
 11
119.9890642447
 21
326.849906763
 31
0.0
  0
LINE
  5
1D7
330
1F
100
AcDbEntity
  8
0
  6
SLD-実線
 62
     7
370
    25
100
AcDbLine
 10
119.9890642447
 20
326.849906763
 30
0.0
 11
119.3890689893
 21
326.849906763
 31
0.0
  0
LINE
  5
1D8
330
1F
100
AcDbEntity
  8
0
  6
SLD-実線
 62
     7
370
    25
100
AcDbLine
 10
119.3890689893
 20
327.0763150062
 30
0.0
 11
119.3890689893
 21
326.849906763
 31
0.0
  0
ELLIPSE
  5
1D9
330
1F
100
AcDbEntity
  8
0
  6
SLD-実線
 62
     7
370
    25
100
AcDbEllipse
 10
129.3890714926
 20
327.0763146678
 30
0.0
 11
10.00000000000003
 21
-5.684341886080801E-14
 31
0.0
210
0.0
220
0.0
230
1.0
 40
0.3773592453
 41
1.570796326794896
 42
3.14159265358986
  0
LINE
  5
1DA
330
1F
100
AcDbEntity
  8
0
  6
SLD-実線
 62
     7
370
    25
100
AcDbLine
 10
199.3890746517
 20
330.8499074186
 30
0.0
 11
129.3890743537
 21
330.8499074186
 31
0.0
  0
ELLIPSE
  5
1DB
330
1F
100
AcDbEntity
  8
0
  6
SLD-実線
 62
     7
370
    25
100
AcDbEllipse
 10
199.3890714926
 20
327.0763146678
 30
0.0
 11
10.0
 21
-5.684341886080801E-14
 31
0.0
210
0.0
220
0.0
230
1.0
 40
0.3773592453
 41
0.0
 42
1.570796326794899
  0
LINE
  5
1DC
330
1F
100
AcDbEntity
  8
0
  6
SLD-実線
 62
     7
370
    25
100
AcDbLine
 10
209.3890725655
 20
327.0763150062
 30
0.0
 11
209.3890725655
 21
326.849906763
 31
0.0
  0
LINE
  5
1DD
330
1F
100
AcDbEntity
  8
0
  6
SLD-実線
 62
     7
370
    25
100
AcDbLine
 10
209.3890725655
 20
326.849906763
 30
0.0
 11
208.7890698595
 21
326.849906763
 31
0.0
  0
LINE
  5
1DE
330
1F
100
AcDbEntity
  8
0
  6
SLD-実線
 62
     7
370
    25
100
AcDbLine
 10
208.7890698595
 20
327.0763150062
 30
0.0
 11
208.7890698595
 21
326.849906763
 31
0.0
  0
ELLIPSE
  5
1DF
330
1F
100
AcDbEntity
  8
0
  6
SLD-実線
 62
     7
370
    25
100
AcDbEllipse
 10
199.3890714926
 20
327.0763146678
 30
0.0
 11
9.399999999999975
 21
-5.684341886080801E-14
 31
0.0
210
0.0
220
0.0
230
1.0
 40
0.3773592453
 41
0.0
 42
1.570796326794899
  0
LINE
  5
1E0
330
1F
100
AcDbEntity
  8
0
  6
SLD-実線
 62
     7
370
    25
100
AcDbLine
 10
209.3890725655
 20
207.9819432105
 30
0.0
 11
209.3890725655
 21
207.0763139631
 31
0.0
  0
ELLIPSE
  5
1E1
330
1F
100
AcDbEntity
  8
0
  6
SLD-実線
 62
     7
370
    25
100
AcDbEllipse
 10
199.3890714926
 20
207.9819448565
 30
0.0
 11
0.0
 21
-18.86796226411317
 31
0.0
210
0.0
220
0.0
230
1.0
 40
0.52999894
 41
1.570796326794897
 42
3.141592653589787
  0
LINE
  5
1E2
330
1F
100
AcDbEntity
  8
0
  6
SLD-実線
 62
     7
370
    25
100
AcDbLine
 10
199.3890746517
 20
300.6234905328
 30
0.0
 11
129.3890743537
 21
300.6234905328
 31
0.0
  0
ELLIPSE
  5
1E3
330
1F
100
AcDbEntity
  8
0
  6
SLD-実線
 62
     7
370
    25
100
AcDbEllipse
 10
129.3890714926
 20
297.0763146678
 30
0.0
 11
9.400000000000006
 21
0.0
 31
0.0
210
0.0
220
0.0
230
1.0
 40
0.3773592453
 41
1.570796326794894
 42
3.141592653589793
  0
LINE
  5
1E4
330
1F
100
AcDbEntity
  8
0
  6
SLD-実線
 62
     7
370
    25
100
AcDbLine
 10
119.9890642447
 20
297.0763138141
 30
0.0
 11
119.9890642447
 21
296.8499055709
 31
0.0
  0
LINE
  5
1E5
330
1F
100
AcDbEntity
  8
0
  6
SLD-実線
 62
     7
370
    25
100
AcDbLine
 10
119.9890642447
 20
296.8499055709
 30
0.0
 11
119.3890689893
 21
296.8499055709
 31
0.0
  0
LINE
  5
1E6
330
1F
100
AcDbEntity
  8
0
  6
SLD-実線
 62
     7
370
    25
100
AcDbLine
 10
119.3890689893
 20
297.0763138141
 30
0.0
 11
119.3890689893
 21
296.8499055709
 31
0.0
  0
ELLIPSE
  5
1E7
330
1F
100
AcDbEntity
  8
0
  6
SLD-実線
 62
     7
370
    25
100
AcDbEllipse
 10
129.3890714926
 20
297.0763146678
 30
0.0
 11
10.00000000000003
 21
0.0
 31
0.0
210
0.0
220
0.0
230
1.0
 40
0.3773592453
 41
1.570796326794894
 42
3.141592653589793
  0
LINE
  5
1E8
330
1F
100
AcDbEntity
  8
0
  6
SLD-実線
 62
     7
370
    25
100
AcDbLine
 10
199.3890746517
 20
300.8499062266
 30
0.0
 11
129.3890743537
 21
300.8499062266
 31
0.0
  0
ELLIPSE
  5
1E9
330
1F
100
AcDbEntity
  8
0
  6
SLD-実線
 62
     7
370
    25
100
AcDbEllipse
 10
199.3890714926
 20
297.0763146678
 30
0.0
 11
10.0
 21
0.0
 31
0.0
210
0.0
220
0.0
230
1.0
 40
0.3773592453
 41
0.0
 42
1.570796326794897
  0
LINE
  5
1EA
330
1F
100
AcDbEntity
  8
0
  6
SLD-実線
 62
     7
370
    25
100
AcDbLine
 10
209.3890725655
 20
297.0763138141
 30
0.0
 11
209.3890725655
 21
296.8499055709
 31
0.0
  0
LINE
  5
1EB
330
1F
100
AcDbEntity
  8
0
  6
SLD-実線
 62
     7
370
    25
100
AcDbLine
 10
209.3890725655
 20
296.8499055709
 30
0.0
 11
208.7890698595
 21
296.8499055709
 31
0.0
  0
LINE
  5
1EC
330
1F
100
AcDbEntity
  8
0
  6
SLD-実線
 62
     7
370
    25
100
AcDbLine
 10
208.7890698595
 20
297.0763138141
 30
0.0
 11
208.7890698595
 21
296.8499055709
 31
0.0
  0
ELLIPSE
  5
1ED
330
1F
100
AcDbEntity
  8
0
  6
SLD-実線
 62
     7
370
    25
100
AcDbEllipse
 10
199.3890714926
 20
297.0763146678
 30
0.0
 11
9.399999999999975
 21
0.0
 31
0.0
210
0.0
220
0.0
230
1.0
 40
0.3773592453
 41
0.0
 42
1.570796326794897
  0
LINE
  5
1EE
330
1F
100
AcDbEntity
  8
0
  6
SLD-実線
 62
     7
370
    25
100
AcDbLine
 10
119.3890689893
 20
207.0763139631
 30
0.0
 11
119.3890689893
 21
207.9819432105
 31
0.0
  0
ELLIPSE
  5
1EF
330
1F
100
AcDbEntity
  8
0
  6
SLD-実線
 62
     7
370
    25
100
AcDbEllipse
 10
129.3890714926
 20
207.9819448565
 30
0.0
 11
0.0
 21
18.8679622641132
 31
0.0
210
0.0
220
0.0
230
1.0
 40
0.52999894
 41
0.0
 42
1.570796326794897
  0
LINE
  5
1F0
330
1F
100
AcDbEntity
  8
0
  6
SLD-実線
 62
     7
370
    25
100
AcDbLine
 10
199.3890746517
 20
270.6234912033
 30
0.0
 11
129.3890743537
 21
270.6234912033
 31
0.0
  0
ELLIPSE
  5
1F1
330
1F
100
AcDbEntity
  8
0
  6
SLD-実線
 62
     7
370
    25
100
AcDbEllipse
 10
129.3890714926
 20
267.0763146678
 30
0.0
 11
9.400000000000006
 21
0.0
 31
0.0
210
0.0
220
0.0
230
1.0
 40
0.3773592453
 41
1.570796326794894
 42
3.141592653589793
  0
LINE
  5
1F2
330
1F
100
AcDbEntity
  8
0
  6
SLD-実線
 62
     7
370
    25
100
AcDbLine
 10
119.9890642447
 20
267.0763144846
 30
0.0
 11
119.9890642447
 21
266.8499071728
 31
0.0
  0
LINE
  5
1F3
330
1F
100
AcDbEntity
  8
0
  6
SLD-実線
 62
     7
370
    25
100
AcDbLine
 10
119.9890642447
 20
266.8499071728
 30
0.0
 11
119.3890689893
 21
266.8499071728
 31
0.0
  0
LINE
  5
1F4
330
1F
100
AcDbEntity
  8
0
  6
SLD-実線
 62
     7
370
    25
100
AcDbLine
 10
119.3890689893
 20
267.0763144846
 30
0.0
 11
119.3890689893
 21
266.8499071728
 31
0.0
  0
ELLIPSE
  5
1F5
330
1F
100
AcDbEntity
  8
0
  6
SLD-実線
 62
     7
370
    25
100
AcDbEllipse
 10
129.3890714926
 20
267.0763146678
 30
0.0
 11
10.00000000000003
 21
0.0
 31
0.0
210
0.0
220
0.0
230
1.0
 40
0.3773592453
 41
1.570796326794894
 42
3.141592653589793
  0
LINE
  5
1F6
330
1F
100
AcDbEntity
  8
0
  6
SLD-実線
 62
     7
370
    25
100
AcDbLine
 10
199.3890746517
 20
270.8499068971
 30
0.0
 11
129.3890743537
 21
270.8499068971
 31
0.0
  0
ELLIPSE
  5
1F7
330
1F
100
AcDbEntity
  8
0
  6
SLD-実線
 62
     7
370
    25
100
AcDbEllipse
 10
199.3890714926
 20
267.0763146678
 30
0.0
 11
10.0
 21
0.0
 31
0.0
210
0.0
220
0.0
230
1.0
 40
0.3773592453
 41
0.0
 42
1.570796326794897
  0
LINE
  5
1F8
330
1F
100
AcDbEntity
  8
0
  6
SLD-実線
 62
     7
370
    25
100
AcDbLine
 10
209.3890725655
 20
267.0763144846
 30
0.0
 11
209.3890725655
 21
266.8499071728
 31
0.0
  0
LINE
  5
1F9
330
1F
100
AcDbEntity
  8
0
  6
SLD-実線
 62
     7
370
    25
100
AcDbLine
 10
209.3890725655
 20
266.8499071728
 30
0.0
 11
208.7890698595
 21
266.8499071728
 31
0.0
  0
LINE
  5
1FA
330
1F
100
AcDbEntity
  8
0
  6
SLD-実線
 62
     7
370
    25
100
AcDbLine
 10
208.7890698595
 20
267.0763144846
 30
0.0
 11
208.7890698595
 21
266.8499071728
 31
0.0
  0
ELLIPSE
  5
1FB
330
1F
100
AcDbEntity
  8
0
  6
SLD-実線
 62
     7
370
    25
100
AcDbEllipse
 10
199.3890714926
 20
267.0763146678
 30
0.0
 11
9.399999999999975
 21
0.0
 31
0.0
210
0.0
220
0.0
230
1.0
 40
0.3773592453
 41
0.0
 42
1.570796326794897
  0
LINE
  5
1FC
330
1F
100
AcDbEntity
  8
0
  6
SLD-実線
 62
     7
370
    25
100
AcDbLine
 10
209.3890725655
 20
297.9819430615
 30
0.0
 11
209.3890725655
 21
297.0763138141
 31
0.0
  0
ELLIPSE
  5
1FD
330
1F
100
AcDbEntity
  8
0
  6
SLD-実線
 62
     7
370
    25
100
AcDbEllipse
 10
199.3890714926
 20
297.9819448565
 30
0.0
 11
0.0
 21
-18.86796226411326
 31
0.0
210
0.0
220
0.0
230
1.0
 40
0.52999894
 41
1.570796326794897
 42
3.14159265358979
  0
LINE
  5
1FE
330
1F
100
AcDbEntity
  8
0
  6
SLD-実線
 62
     7
370
    25
100
AcDbLine
 10
209.3890725655
 20
327.9819479789
 30
0.0
 11
209.3890725655
 21
327.0763150062
 31
0.0
  0
ELLIPSE
  5
1FF
330
1F
100
AcDbEntity
  8
0
  6
SLD-実線
 62
     7
370
    25
100
AcDbEllipse
 10
199.3890714926
 20
327.9819448565
 30
0.0
 11
0.0
 21
-18.8679622641132
 31
0.0
210
0.0
220
0.0
230
1.0
 40
0.52999894
 41
1.570796326794897
 42
3.14159265358979
  0
LINE
  5
200
330
1F
100
AcDbEntity
  8
0
  6
SLD-実線
 62
     7
370
    25
100
AcDbLine
 10
199.3890746517
 20
226.8499052729
 30
0.0
 11
129.3890743537
 21
226.8499052729
 31
0.0
  0
LINE
  5
201
330
1F
100
AcDbEntity
  8
0
  6
SLD-実線
 62
     7
370
    25
100
AcDbLine
 10
199.3890746517
 20
240.6234918739
 30
0.0
 11
129.3890743537
 21
240.6234918739
 31
0.0
  0
ELLIPSE
  5
202
330
1F
100
AcDbEntity
  8
0
  6
SLD-実線
 62
     7
370
    25
100
AcDbEllipse
 10
129.3890714926
 20
237.0763146678
 30
0.0
 11
9.400000000000006
 21
0.0
 31
0.0
210
0.0
220
0.0
230
1.0
 40
0.3773592453
 41
1.570796326794897
 42
3.141592653589793
  0
LINE
  5
203
330
1F
100
AcDbEntity
  8
0
  6
SLD-実線
 62
     7
370
    25
100
AcDbLine
 10
119.9890642447
 20
237.0763151552
 30
0.0
 11
119.9890642447
 21
236.849906912
 31
0.0
  0
LINE
  5
204
330
1F
100
AcDbEntity
  8
0
  6
SLD-実線
 62
     7
370
    25
100
AcDbLine
 10
119.9890642447
 20
236.849906912
 30
0.0
 11
119.3890689893
 21
236.849906912
 31
0.0
  0
LINE
  5
205
330
1F
100
AcDbEntity
  8
0
  6
SLD-実線
 62
     7
370
    25
100
AcDbLine
 10
119.3890689893
 20
237.0763151552
 30
0.0
 11
119.3890689893
 21
236.849906912
 31
0.0
  0
ELLIPSE
  5
206
330
1F
100
AcDbEntity
  8
0
  6
SLD-実線
 62
     7
370
    25
100
AcDbEllipse
 10
129.3890714926
 20
237.0763146678
 30
0.0
 11
10.00000000000003
 21
0.0
 31
0.0
210
0.0
220
0.0
230
1.0
 40
0.3773592453
 41
1.570796326794897
 42
3.141592653589793
  0
LINE
  5
207
330
1F
100
AcDbEntity
  8
0
  6
SLD-実線
 62
     7
370
    25
100
AcDbLine
 10
199.3890746517
 20
240.8499075677
 30
0.0
 11
129.3890743537
 21
240.8499075677
 31
0.0
  0
ELLIPSE
  5
208
330
1F
100
AcDbEntity
  8
0
  6
SLD-実線
 62
     7
370
    25
100
AcDbEllipse
 10
199.3890714926
 20
237.0763146678
 30
0.0
 11
10.0
 21
0.0
 31
0.0
210
0.0
220
0.0
230
1.0
 40
0.3773592453
 41
0.0
 42
1.570796326794897
  0
LINE
  5
209
330
1F
100
AcDbEntity
  8
0
  6
SLD-実線
 62
     7
370
    25
100
AcDbLine
 10
209.3890725655
 20
237.0763151552
 30
0.0
 11
209.3890725655
 21
236.849906912
 31
0.0
  0
LINE
  5
20A
330
1F
100
AcDbEntity
  8
0
  6
SLD-実線
 62
     7
370
    25
100
AcDbLine
 10
209.3890725655
 20
236.849906912
 30
0.0
 11
208.7890698595
 21
236.849906912
 31
0.0
  0
LINE
  5
20B
330
1F
100
AcDbEntity
  8
0
  6
SLD-実線
 62
     7
370
    25
100
AcDbLine
 10
208.7890698595
 20
237.0763151552
 30
0.0
 11
208.7890698595
 21
236.849906912
 31
0.0
  0
ELLIPSE
  5
20C
330
1F
100
AcDbEntity
  8
0
  6
SLD-実線
 62
     7
370
    25
100
AcDbEllipse
 10
199.3890714926
 20
237.0763146678
 30
0.0
 11
9.399999999999975
 21
0.0
 31
0.0
210
0.0
220
0.0
230
1.0
 40
0.3773592453
 41
0.0
 42
1.570796326794897
  0
LINE
  5
20D
330
1F
100
AcDbEntity
  8
0
  6
SLD-実線
 62
     7
370
    25
100
AcDbLine
 10
209.3890725655
 20
237.9819444026
 30
0.0
 11
209.3890725655
 21
237.0763151552
 31
0.0
  0
ELLIPSE
  5
20E
330
1F
100
AcDbEntity
  8
0
  6
SLD-実線
 62
     7
370
    25
100
AcDbEllipse
 10
199.3890714926
 20
237.9819448565
 30
0.0
 11
0.0
 21
-18.86796226411317
 31
0.0
210
0.0
220
0.0
230
1.0
 40
0.52999894
 41
1.570796326794897
 42
3.14159265358979
  0
LINE
  5
20F
330
1F
100
AcDbEntity
  8
0
  6
SLD-実線
 62
     7
370
    25
100
AcDbLine
 10
119.3890689893
 20
237.0763151552
 30
0.0
 11
119.3890689893
 21
237.9819444026
 31
0.0
  0
ELLIPSE
  5
210
330
1F
100
AcDbEntity
  8
0
  6
SLD-実線
 62
     7
370
    25
100
AcDbEllipse
 10
129.3890714926
 20
237.9819448565
 30
0.0
 11
0.0
 21
18.86796226411317
 31
0.0
210
0.0
220
0.0
230
1.0
 40
0.52999894
 41
0.0
 42
1.570796326794897
  0
LINE
  5
211
330
1F
100
AcDbEntity
  8
0
  6
SLD-実線
 62
     7
370
    25
100
AcDbLine
 10
209.3890725655
 20
267.9819446634
 30
0.0
 11
209.3890725655
 21
267.0763144846
 31
0.0
  0
ELLIPSE
  5
212
330
1F
100
AcDbEntity
  8
0
  6
SLD-実線
 62
     7
370
    25
100
AcDbEllipse
 10
199.3890714926
 20
267.9819448565
 30
0.0
 11
0.0
 21
-18.86796226411317
 31
0.0
210
0.0
220
0.0
230
1.0
 40
0.52999894
 41
1.5707963267949
 42
3.14159265358979
  0
LINE
  5
213
330
1F
100
AcDbEntity
  8
0
  6
SLD-実線
 62
     7
370
    25
100
AcDbLine
 10
199.3890746517
 20
256.8499069306
 30
0.0
 11
129.3890743537
 21
256.8499069306
 31
0.0
  0
LINE
  5
214
330
1F
100
AcDbEntity
  8
0
  6
SLD-実線
 62
     7
370
    25
100
AcDbLine
 10
199.3890746517
 20
286.8499076571
 30
0.0
 11
129.3890743537
 21
286.8499076571
 31
0.0
  0
LINE
  5
215
330
1F
100
AcDbEntity
  8
0
  6
SLD-実線
 62
     7
370
    25
100
AcDbLine
 10
119.3890689893
 20
267.0763144846
 30
0.0
 11
119.3890689893
 21
267.9819446634
 31
0.0
  0
ELLIPSE
  5
216
330
1F
100
AcDbEntity
  8
0
  6
SLD-実線
 62
     7
370
    25
100
AcDbEllipse
 10
129.3890714926
 20
267.9819448565
 30
0.0
 11
0.0
 21
18.8679622641132
 31
0.0
210
0.0
220
0.0
230
1.0
 40
0.52999894
 41
0.0
 42
1.570796326794897
  0
LINE
  5
217
330
1F
100
AcDbEntity
  8
0
  6
SLD-実線
 62
     7
370
    25
100
AcDbLine
 10
119.3890689893
 20
297.0763138141
 30
0.0
 11
119.3890689893
 21
297.9819430615
 31
0.0
  0
ELLIPSE
  5
218
330
1F
100
AcDbEntity
  8
0
  6
SLD-実線
 62
     7
370
    25
100
AcDbEllipse
 10
129.3890714926
 20
297.9819448565
 30
0.0
 11
0.0
 21
18.86796226411315
 31
0.0
210
0.0
220
0.0
230
1.0
 40
0.52999894
 41
0.0
 42
1.570796326794897
  0
LINE
  5
219
330
1F
100
AcDbEntity
  8
0
  6
SLD-実線
 62
     7
370
    25
100
AcDbLine
 10
119.3890689893
 20
327.0763150062
 30
0.0
 11
119.3890689893
 21
327.9819479789
 31
0.0
  0
ELLIPSE
  5
21A
330
1F
100
AcDbEntity
  8
0
  6
SLD-実線
 62
     7
370
    25
100
AcDbEllipse
 10
129.3890714926
 20
327.9819448565
 30
0.0
 11
0.0
 21
18.86796226411326
 31
0.0
210
0.0
220
0.0
230
1.0
 40
0.52999894
 41
0.0
 42
1.570796326794897
  0
LINE
  5
21B
330
1F
100
AcDbEntity
  8
0
  6
SLD-実線
 62
     7
370
    25
100
AcDbLine
 10
199.3890746517
 20
316.8499088492
 30
0.0
 11
129.3890743537
 21
316.8499088492
 31
0.0
  0
LINE
  5
21C
330
1F
100
AcDbEntity
  8
0
  6
SLD-実線
 62
     7
370
    25
100
AcDbLine
 10
199.3890746517
 20
346.8499100413
 30
0.0
 11
129.3890743537
 21
346.8499100413
 31
0.0
  0
LINE
  5
21D
330
1F
100
AcDbEntity
  8
0
  6
SLD-実線
 62
     7
370
    25
100
AcDbLine
 10
244.3890727145
 20
201.849906763
 30
0.0
 11
248.7890726907
 21
201.849906763
 31
0.0
  0
ARC
  5
21E
330
1F
100
AcDbEntity
  8
0
  6
SLD-実線
 62
     7
370
    25
100
AcDbCircle
 10
244.3890714926
 20
186.8499071206
 30
0.0
 40
15.0
100
AcDbArc
 50
90.0
 51
180.0
  0
ARC
  5
21F
330
1F
100
AcDbEntity
  8
0
  6
SLD-実線
 62
     7
370
    25
100
AcDbCircle
 10
165.3890714926
 20
174.3499071206
 30
0.0
 40
12.50000000000003
100
AcDbArc
 50
0.0
 51
180.0
  0
ARC
  5
220
330
1F
100
AcDbEntity
  8
0
  6
SLD-実線
 62
     7
370
    25
100
AcDbCircle
 10
95.3890714926
 20
186.8499071206
 30
0.0
 40
15.0
100
AcDbArc
 50
0.0
 51
90.0
  0
LINE
  5
221
330
1F
100
AcDbEntity
  8
0
  6
SLD-実線
 62
     7
370
    25
100
AcDbLine
 10
41.989070086
 20
201.849906763
 30
0.0
 11
95.3890650553
 21
201.849906763
 31
0.0
  0
LINE
  5
222
330
1F
100
AcDbEntity
  8
0
  6
SLD-実線
 62
     7
370
    25
100
AcDbLine
 10
208.7890698595
 20
326.849906763
 30
0.0
 11
119.9890642447
 21
326.849906763
 31
0.0
  0
LINE
  5
223
330
1F
100
AcDbEntity
  8
0
  6
SLD-実線
 62
     7
370
    25
100
AcDbLine
 10
208.7890698595
 20
296.8499055709
 30
0.0
 11
119.9890642447
 21
296.8499055709
 31
0.0
  0
LINE
  5
224
330
1F
100
AcDbEntity
  8
0
  6
SLD-実線
 62
     7
370
    25
100
AcDbLine
 10
208.7890698595
 20
266.8499071728
 30
0.0
 11
119.9890642447
 21
266.8499071728
 31
0.0
  0
LINE
  5
225
330
1F
100
AcDbEntity
  8
0
  6
SLD-実線
 62
     7
370
    25
100
AcDbLine
 10
208.7890698595
 20
236.849906912
 30
0.0
 11
119.9890642447
 21
236.849906912
 31
0.0
  0
LINE
  5
226
330
1F
100
AcDbEntity
  8
0
  6
SLD-実線
 62
     7
370
    25
100
AcDbLine
 10
208.7890698595
 20
206.8499057199
 30
0.0
 11
119.9890642447
 21
206.8499057199
 31
0.0
  0
LINE
  5
227
330
1F
100
AcDbEntity
  8
0
  6
SLD-実線
 62
     7
370
    25
100
AcDbLine
 10
110.3890656514
 20
186.849906167
 30
0.0
 11
110.3890656514
 21
157.4499076809
 31
0.0
  0
LINE
  5
228
330
1F
100
AcDbEntity
  8
0
  6
SLD-実線
 62
     7
370
    25
100
AcDbLine
 10
152.8890698237
 20
174.3499106373
 30
0.0
 11
152.8890698237
 21
157.4499076809
 31
0.0
  0
LINE
  5
229
330
1F
100
AcDbEntity
  8
0
  6
SLD-実線
 62
     7
370
    25
100
AcDbLine
 10
177.8890683336
 20
157.4499076809
 30
0.0
 11
177.8890683336
 21
174.3499106373
 31
0.0
  0
LINE
  5
22A
330
1F
100
AcDbEntity
  8
0
  6
SLD-実線
 62
     7
370
    25
100
AcDbLine
 10
229.3890721185
 20
157.4499076809
 30
0.0
 11
229.3890721185
 21
186.849906167
 31
0.0
  0
LINE
  5
22B
330
1F
100
AcDbEntity
  8
0
  6
SLD-実線
 62
     7
370
    25
100
AcDbLine
 10
254.3890706284
 20
396.249904355
 30
0.0
 11
254.3890706284
 21
201.849906763
 31
0.0
  0
LINE
  5
22C
330
1F
100
AcDbEntity
  8
0
  6
SLD-実線
 62
     7
370
    25
100
AcDbLine
 10
254.3890706284
 20
201.849906763
 30
0.0
 11
248.7890726907
 21
201.849906763
 31
0.0
  0
LINE
  5
22D
330
1F
100
AcDbEntity
  8
0
  6
SLD-実線
 62
     7
370
    25
100
AcDbLine
 10
254.3890706284
 20
411.249904951
 30
0.0
 11
254.3890706284
 21
396.249904355
 31
0.0
  0
ARC
  5
22E
330
1F
100
AcDbEntity
  8
0
  6
SLD-実線
 62
     7
370
    25
100
AcDbCircle
 10
248.7890714926
 20
411.2499071206
 30
0.0
 40
5.600000000000023
100
AcDbArc
 50
0.0
 51
90.0
  0
LINE
  5
22F
330
1F
100
AcDbEntity
  8
0
  6
SLD-実線
 62
     7
370
    25
100
AcDbLine
 10
41.989070086
 20
201.849906763
 30
0.0
 11
36.3890646977
 21
201.849906763
 31
0.0
  0
LINE
  5
230
330
1F
100
AcDbEntity
  8
0
  6
SLD-実線
 62
     7
370
    25
100
AcDbLine
 10
36.3890646977
 20
201.849906763
 30
0.0
 11
36.3890646977
 21
396.249904355
 31
0.0
  0
LINE
  5
231
330
1F
100
AcDbEntity
  8
0
  6
SLD-実線
 62
     7
370
    25
100
AcDbLine
 10
41.989070086
 20
416.8499103393
 30
0.0
 11
248.7890726907
 21
416.8499103393
 31
0.0
  0
LINE
  5
232
330
1F
100
AcDbEntity
  8
0
  6
SLD-実線
 62
     7
370
    25
100
AcDbLine
 10
36.3890646977
 20
396.249904355
 30
0.0
 11
36.3890646977
 21
411.249904951
 31
0.0
  0
ARC
  5
233
330
1F
100
AcDbEntity
  8
0
  6
SLD-実線
 62
     7
370
    25
100
AcDbCircle
 10
41.9890714926
 20
411.2499071206
 30
0.0
 40
5.600000000000023
100
AcDbArc
 50
90.0
 51
180.0
  0
LINE
  5
234
330
1F
100
AcDbEntity
  8
0
  6
SLD-実線
 62
     7
370
    25
100
AcDbLine
 10
340.3890698237
 20
138.8499057497
 30
0.0
 11
340.3890698237
 21
136.8499091472
 31
0.0
  0
LINE
  5
235
330
1F
100
AcDbEntity
  8
0
  6
SLD-実線
 62
     7
370
    25
100
AcDbLine
 10
317.3890716417
 20
138.8499057497
 30
0.0
 11
340.3890698237
 21
138.8499057497
 31
0.0
  0
LINE
  5
236
330
1F
100
AcDbEntity
  8
0
  6
SLD-実線
 62
     7
370
    25
100
AcDbLine
 10
340.3890698237
 20
136.8499091472
 30
0.0
 11
317.3890716417
 21
136.8499091472
 31
0.0
  0
LINE
  5
237
330
1F
100
AcDbEntity
  8
0
  6
SLD-実線
 62
     7
370
    25
100
AcDbLine
 10
93.3890759034
 20
138.8499057497
 30
0.0
 11
160.3395684643
 21
138.8499057497
 31
0.0
  0
LINE
  5
238
330
1F
100
AcDbEntity
  8
0
  6
SLD-実線
 62
     7
370
    25
100
AcDbLine
 10
170.4374819083
 20
138.8499057497
 30
0.0
 11
317.3890716417
 21
138.8499057497
 31
0.0
  0
LINE
  5
239
330
1F
100
AcDbEntity
  8
0
  6
SLD-実線
 62
     7
370
    25
100
AcDbLine
 10
93.3890759034
 20
136.8499091472
 30
0.0
 11
160.3391437812
 21
136.8499091472
 31
0.0
  0
LINE
  5
23A
330
1F
100
AcDbEntity
  8
0
  6
SLD-実線
 62
     7
370
    25
100
AcDbLine
 10
170.4383461756
 20
136.8499091472
 30
0.0
 11
317.3890716417
 21
136.8499091472
 31
0.0
  0
LINE
  5
23B
330
1F
100
AcDbEntity
  8
0
  6
SLD-実線
 62
     7
370
    25
100
AcDbLine
 10
70.389073996
 20
136.8499091472
 30
0.0
 11
70.389073996
 21
138.8499057497
 31
0.0
  0
LINE
  5
23C
330
1F
100
AcDbEntity
  8
0
  6
SLD-実線
 62
     7
370
    25
100
AcDbLine
 10
70.389073996
 20
138.8499057497
 30
0.0
 11
93.3890759034
 21
138.8499057497
 31
0.0
  0
LINE
  5
23D
330
1F
100
AcDbEntity
  8
0
  6
SLD-実線
 62
     7
370
    25
100
AcDbLine
 10
93.3890759034
 20
136.8499091472
 30
0.0
 11
70.389073996
 21
136.8499091472
 31
0.0
  0
ARC
  5
23E
330
1F
100
AcDbEntity
  8
0
  6
SLD-実線
 62
     7
370
    25
100
AcDbCircle
 10
339.3890714926
 20
140.8499071206
 30
0.0
 40
2.0
100
AcDbArc
 50
180.0
 51
270.0
  0
ARC
  5
23F
330
1F
100
AcDbEntity
  8
0
  6
SLD-実線
 62
     7
370
    25
100
AcDbCircle
 10
71.3890714926
 20
140.8499071206
 30
0.0
 40
2.0
100
AcDbArc
 50
270.0
 51
0.0
  0
LINE
  5
240
330
1F
100
AcDbEntity
  8
0
  6
SLD-実線
 62
     7
370
    25
100
AcDbLine
 10
317.3890716417
 20
156.8499049749
 30
0.0
 11
332.3890722377
 21
156.8499049749
 31
0.0
  0
ARC
  5
241
330
1F
100
AcDbEntity
  8
0
  6
SLD-実線
 62
     7
370
    25
100
AcDbCircle
 10
332.3890714926
 20
151.8499071206
 30
0.0
 40
5.000000000000028
100
AcDbArc
 50
0.0
 51
90.0
  0
LINE
  5
242
330
1F
100
AcDbEntity
  8
0
  6
SLD-実線
 62
     7
370
    25
100
AcDbLine
 10
337.3890711946
 20
151.8499097432
 30
0.0
 11
337.3890711946
 21
140.8499098028
 31
0.0
  0
LINE
  5
243
330
1F
100
AcDbEntity
  8
0
  6
SLD-実線
 62
     7
370
    25
100
AcDbLine
 10
93.3890759034
 20
156.8499049749
 30
0.0
 11
160.3401198072
 21
156.8499049749
 31
0.0
  0
LINE
  5
244
330
1F
100
AcDbEntity
  8
0
  6
SLD-実線
 62
     7
370
    25
100
AcDbLine
 10
170.4380258007
 20
156.8499049749
 30
0.0
 11
317.3890716417
 21
156.8499049749
 31
0.0
  0
LINE
  5
245
330
1F
100
AcDbEntity
  8
0
  6
SLD-実線
 62
     7
370
    25
100
AcDbLine
 10
73.3890651746
 20
140.8499098028
 30
0.0
 11
73.3890651746
 21
151.8499097432
 31
0.0
  0
LINE
  5
246
330
1F
100
AcDbEntity
  8
0
  6
SLD-実線
 62
     7
370
    25
100
AcDbLine
 10
78.3890753073
 20
156.8499049749
 30
0.0
 11
93.3890759034
 21
156.8499049749
 31
0.0
  0
ARC
  5
247
330
1F
100
AcDbEntity
  8
0
  6
SLD-実線
 62
     7
370
    25
100
AcDbCircle
 10
78.3890714926
 20
151.8499071206
 30
0.0
 40
5.0
100
AcDbArc
 50
90.0
 51
180.0
  0
LINE
  5
248
330
1F
100
AcDbEntity
  8
0
  6
SLD-実線
 62
     7
370
    25
100
AcDbLine
 10
153.3890782876
 20
172.3499065842
 30
0.0
 11
153.3890782876
 21
156.8499049749
 31
0.0
  0
ARC
  5
249
330
1F
100
AcDbEntity
  8
0
  6
SLD-実線
 62
     7
370
    25
100
AcDbCircle
 10
165.3890714926
 20
172.3499071206
 30
0.0
 40
12.0
100
AcDbArc
 50
0.0
 51
180.0
  0
LINE
  5
24A
330
1F
100
AcDbEntity
  8
0
  6
SLD-実線
 62
     7
370
    25
100
AcDbLine
 10
177.3890747709
 20
172.3499065842
 30
0.0
 11
177.3890747709
 21
156.8499049749
 31
0.0
  0
LINE
  5
24B
330
1F
100
AcDbEntity
  8
0
  6
SLD-実線
 62
     7
370
    25
100
AcDbLine
 10
78.3890753073
 20
156.8499049749
 30
0.0
 11
72.8890716119
 21
156.8499049749
 31
0.0
  0
LINE
  5
24C
330
1F
100
AcDbEntity
  8
0
  6
SLD-実線
 62
     7
370
    25
100
AcDbLine
 10
72.8890716119
 20
156.8499049749
 30
0.0
 11
72.8890716119
 21
170.180036744
 31
0.0
  0
LINE
  5
24D
330
1F
100
AcDbEntity
  8
0
  6
SLD-実線
 62
     7
370
    25
100
AcDbLine
 10
72.8890716119
 20
185.8499041404
 30
0.0
 11
76.0890661759
 21
185.8499041404
 31
0.0
  0
LINE
  5
24E
330
1F
100
AcDbEntity
  8
0
  6
SLD-実線
 62
     7
370
    25
100
AcDbLine
 10
76.0890661759
 20
185.8499041404
 30
0.0
 11
76.0890661759
 21
160.0499069895
 31
0.0
  0
LINE
  5
24F
330
1F
100
AcDbEntity
  8
0
  6
SLD-実線
 62
     7
370
    25
100
AcDbLine
 10
76.0890661759
 20
160.0499069895
 30
0.0
 11
92.8890674395
 21
160.0499069895
 31
0.0
  0
LINE
  5
250
330
1F
100
AcDbEntity
  8
0
  6
SLD-実線
 62
     7
370
    25
100
AcDbLine
 10
92.8890674395
 20
160.0499069895
 30
0.0
 11
92.8890674395
 21
156.8499049749
 31
0.0
  0
LINE
  5
251
330
1F
100
AcDbEntity
  8
0
  6
SLD-実線
 62
     7
370
    25
100
AcDbLine
 10
283.8890715057
 20
415.8499083127
 30
0.0
 11
293.389071433
 21
415.8499083127
 31
0.0
  0
LINE
  5
252
330
1F
100
AcDbEntity
  8
0
  6
SLD-実線
 62
     7
370
    25
100
AcDbLine
 10
283.8890715057
 20
413.8499042596
 30
0.0
 11
294.8890716789
 21
413.8499042596
 31
0.0
  0
LINE
  5
253
330
1F
100
AcDbEntity
  8
0
  6
SLD-実線
 62
     7
370
    25
100
AcDbLine
 10
340.3890698237
 20
415.8499083127
 30
0.0
 11
349.8890741749
 21
415.8499083127
 31
0.0
  0
LINE
  5
254
330
1F
100
AcDbEntity
  8
0
  6
SLD-実線
 62
     7
370
    25
100
AcDbLine
 10
338.8890705092
 20
413.8499042596
 30
0.0
 11
349.8890741749
 21
413.8499042596
 31
0.0
  0
LINE
  5
255
330
1F
100
AcDbEntity
  8
0
  6
SLD-実線
 62
     7
370
    25
100
AcDbLine
 10
310.3528029306
 20
432.8499129619
 30
0.0
 11
323.4253383262
 21
432.8499129619
 31
0.0
  0
LINE
  5
256
330
1F
100
AcDbEntity
  8
0
  6
SLD-実線
 62
     7
370
    25
100
AcDbLine
 10
349.8890741749
 20
416.2499001826
 30
0.0
 11
340.3890698237
 21
416.2499001826
 31
0.0
  0
LINE
  5
257
330
1F
100
AcDbEntity
  8
0
  6
SLD-実線
 62
     7
370
    25
100
AcDbLine
 10
323.4253383262
 20
432.8499129619
 30
0.0
 11
343.9843102379
 21
432.8499129619
 31
0.0
  0
LINE
  5
258
330
1F
100
AcDbEntity
  8
0
  6
SLD-実線
 62
     7
370
    25
100
AcDbLine
 10
289.7938333472
 20
432.8499129619
 30
0.0
 11
310.3528029306
 21
432.8499129619
 31
0.0
  0
LINE
  5
259
330
1F
100
AcDbEntity
  8
0
  6
SLD-実線
 62
     7
370
    25
100
AcDbLine
 10
293.389071433
 20
416.2499001826
 30
0.0
 11
283.8890715057
 21
416.2499001826
 31
0.0
  0
LINE
  5
25A
330
1F
100
AcDbEntity
  8
0
  6
SLD-実線
 62
     7
370
    25
100
AcDbLine
 10
289.4339190816
 20
432.8654995765
 30
0.0
 11
289.7938333472
 21
432.8499129619
 31
0.0
  0
LINE
  5
25B
330
1F
100
AcDbEntity
  8
0
  6
SLD-実線
 62
     7
370
    25
100
AcDbLine
 10
343.9843102379
 20
432.8499129619
 30
0.0
 11
344.3499363048
 21
432.8705063667
 31
0.0
  0
LINE
  5
25C
330
1F
100
AcDbEntity
  8
0
  6
SLD-実線
 62
     7
370
    25
100
AcDbLine
 10
326.7040259225
 20
440.8499142732
 30
0.0
 11
347.8890701217
 21
440.8499142732
 31
0.0
  0
LINE
  5
25D
330
1F
100
AcDbEntity
  8
0
  6
SLD-実線
 62
     7
370
    25
100
AcDbLine
 10
285.8890716007
 20
440.8499142732
 30
0.0
 11
307.0741171969
 21
440.8499142732
 31
0.0
  0
LINE
  5
25E
330
1F
100
AcDbEntity
  8
0
  6
SLD-実線
 62
     7
370
    25
100
AcDbLine
 10
404.8890738768
 20
381.386174878
 30
0.0
 11
404.8890738768
 21
368.3136394824
 31
0.0
  0
LINE
  5
25F
330
1F
100
AcDbEntity
  8
0
  6
SLD-実線
 62
     7
370
    25
100
AcDbLine
 10
388.2890685482
 20
367.0686325635
 30
0.0
 11
388.2890685482
 21
382.6311817969
 31
0.0
  0
LINE
  5
260
330
1F
100
AcDbEntity
  8
0
  6
SLD-実線
 62
     7
370
    25
100
AcDbLine
 10
404.8890738768
 20
401.9451430644
 30
0.0
 11
404.8890738768
 21
381.386174878
 31
0.0
  0
LINE
  5
261
330
1F
100
AcDbEntity
  8
0
  6
SLD-実線
 62
     7
370
    25
100
AcDbLine
 10
388.2890685482
 20
382.6311817969
 30
0.0
 11
388.2890685482
 21
407.8499070014
 31
0.0
  0
LINE
  5
262
330
1F
100
AcDbEntity
  8
0
  6
SLD-実線
 62
     7
370
    25
100
AcDbLine
 10
404.8890738768
 20
368.3136394824
 30
0.0
 11
404.8890738768
 21
347.754671296
 31
0.0
  0
LINE
  5
263
330
1F
100
AcDbEntity
  8
0
  6
SLD-実線
 62
     7
370
    25
100
AcDbLine
 10
388.2890685482
 20
341.849907359
 30
0.0
 11
388.2890685482
 21
367.0686325635
 31
0.0
  0
LINE
  5
264
330
1F
100
AcDbEntity
  8
0
  6
SLD-実線
 62
     7
370
    25
100
AcDbLine
 10
404.9046604914
 20
402.3050657119
 30
0.0
 11
404.8890738768
 21
401.9451430644
 31
0.0
  0
LINE
  5
265
330
1F
100
AcDbEntity
  8
0
  6
SLD-実線
 62
     7
370
    25
100
AcDbLine
 10
404.8890738768
 20
347.754671296
 30
0.0
 11
404.9096672816
 21
347.3890415038
 31
0.0
  0
LINE
  5
266
330
1F
100
AcDbEntity
  8
0
  6
SLD-実線
 62
     7
370
    25
100
AcDbLine
 10
387.8890692277
 20
379.8499098624
 30
0.0
 11
387.8890692277
 21
407.8499070014
 31
0.0
  0
LINE
  5
267
330
1F
100
AcDbEntity
  8
0
  6
SLD-実線
 62
     7
370
    25
100
AcDbLine
 10
387.8890692277
 20
341.849907359
 30
0.0
 11
387.8890692277
 21
369.849904498
 31
0.0
  0
LINE
  5
268
330
1F
100
AcDbEntity
  8
0
  6
SLD-実線
 62
     7
370
    25
100
AcDbLine
 10
422.8890656514
 20
366.958766302
 30
0.0
 11
422.8890656514
 21
367.7059999313
 31
0.0
  0
LINE
  5
269
330
1F
100
AcDbEntity
  8
0
  6
SLD-実線
 62
     7
370
    25
100
AcDbLine
 10
422.8890656514
 20
381.9938144292
 30
0.0
 11
422.8890656514
 21
382.7410480584
 31
0.0
  0
LINE
  5
26A
330
1F
100
AcDbEntity
  8
0
  6
SLD-実線
 62
     7
370
    25
100
AcDbLine
 10
422.8890656514
 20
405.8499029483
 30
0.0
 11
422.8890656514
 21
382.7410480584
 31
0.0
  0
LINE
  5
26B
330
1F
100
AcDbEntity
  8
0
  6
SLD-実線
 62
     7
370
    25
100
AcDbLine
 10
422.8890656514
 20
366.958766302
 30
0.0
 11
422.8890656514
 21
343.8499039616
 31
0.0
  0
LINE
  5
26C
330
1F
100
AcDbEntity
  8
0
  6
SLD-実線
 62
     7
370
    25
100
AcDbLine
 10
422.8890656514
 20
381.9938144292
 30
0.0
 11
422.8890656514
 21
367.7059999313
 31
0.0
  0
LINE
  5
26D
330
1F
100
AcDbEntity
  8
0
  6
SLD-実線
 62
     7
370
    25
100
AcDbLine
 10
388.8890712542
 20
265.017747471
 30
0.0
 11
388.8890712542
 21
288.6820668931
 31
0.0
  0
LINE
  5
26E
330
1F
100
AcDbEntity
  8
0
  6
SLD-実線
 62
     7
370
    25
100
AcDbLine
 10
398.8890691681
 20
286.7100397702
 30
0.0
 11
398.8890691681
 21
266.9897741284
 31
0.0
  0
LINE
  5
26F
330
1F
100
AcDbEntity
  8
0
  6
SLD-実線
 62
     7
370
    25
100
AcDbLine
 10
388.8890712542
 20
259.6261395951
 30
0.0
 11
388.8890712542
 21
265.017747471
 31
0.0
  0
LINE
  5
270
330
1F
100
AcDbEntity
  8
0
  6
SLD-実線
 62
     7
370
    25
100
AcDbLine
 10
398.8890691681
 20
293.8988498058
 30
0.0
 11
398.8890691681
 21
286.7100397702
 31
0.0
  0
LINE
  5
271
330
1F
100
AcDbEntity
  8
0
  6
SLD-実線
 62
     7
370
    25
100
AcDbLine
 10
398.8890691681
 20
266.9897741284
 30
0.0
 11
398.8890691681
 21
259.8009635107
 31
0.0
  0
LINE
  5
272
330
1F
100
AcDbEntity
  8
0
  6
SLD-実線
 62
     7
370
    25
100
AcDbLine
 10
388.8890712542
 20
288.6820668931
 30
0.0
 11
388.8890712542
 21
294.0736739542
 31
0.0
  0
ARC
  5
273
330
1F
100
AcDbEntity
  8
0
  6
SLD-実線
 62
     7
370
    25
100
AcDbCircle
 10
396.8890714926
 20
248.8499071206
 30
0.0
 40
2.0
100
AcDbArc
 50
270.0
 51
0.0
  0
LINE
  5
274
330
1F
100
AcDbEntity
  8
0
  6
SLD-実線
 62
     7
370
    25
100
AcDbLine
 10
398.8890691681
 20
259.8009635107
 30
0.0
 11
398.8890691681
 21
248.8499070163
 31
0.0
  0
LINE
  5
275
330
1F
100
AcDbEntity
  8
0
  6
SLD-実線
 62
     7
370
    25
100
AcDbLine
 10
396.8890725655
 20
246.8499066885
 30
0.0
 11
388.8890712542
 21
246.8499066885
 31
0.0
  0
LINE
  5
276
330
1F
100
AcDbEntity
  8
0
  6
SLD-実線
 62
     7
370
    25
100
AcDbLine
 10
388.8890712542
 20
246.8499066885
 30
0.0
 11
388.8890712542
 21
259.6261395951
 31
0.0
  0
ARC
  5
277
330
1F
100
AcDbEntity
  8
0
  6
SLD-実線
 62
     7
370
    25
100
AcDbCircle
 10
396.8890714926
 20
304.8499071206
 30
0.0
 40
2.0
100
AcDbArc
 50
0.0
 51
90.0
  0
LINE
  5
278
330
1F
100
AcDbEntity
  8
0
  6
SLD-実線
 62
     7
370
    25
100
AcDbLine
 10
398.8890691681
 20
304.8499068822
 30
0.0
 11
398.8890691681
 21
293.8988498058
 31
0.0
  0
LINE
  5
279
330
1F
100
AcDbEntity
  8
0
  6
SLD-実線
 62
     7
370
    25
100
AcDbLine
 10
388.8890712542
 20
306.84990721
 30
0.0
 11
396.8890725655
 21
306.84990721
 31
0.0
  0
LINE
  5
27A
330
1F
100
AcDbEntity
  8
0
  6
SLD-実線
 62
     7
370
    25
100
AcDbLine
 10
388.8890712542
 20
294.0736739542
 30
0.0
 11
388.8890712542
 21
306.84990721
 31
0.0
  0
LINE
  5
27B
330
1F
100
AcDbEntity
  8
0
  6
SLD-実線
 62
     7
370
    25
100
AcDbLine
 10
386.8890746517
 20
265.017747471
 30
0.0
 11
386.8890746517
 21
288.6820668931
 31
0.0
  0
LINE
  5
27C
330
1F
100
AcDbEntity
  8
0
  6
SLD-実線
 62
     7
370
    25
100
AcDbLine
 10
386.8890746517
 20
259.6261395951
 30
0.0
 11
386.8890746517
 21
265.017747471
 31
0.0
  0
LINE
  5
27D
330
1F
100
AcDbEntity
  8
0
  6
SLD-実線
 62
     7
370
    25
100
AcDbLine
 10
386.8890746517
 20
288.6820668931
 30
0.0
 11
386.8890746517
 21
294.0736739542
 31
0.0
  0
LINE
  5
27E
330
1F
100
AcDbEntity
  8
0
  6
SLD-実線
 62
     7
370
    25
100
AcDbLine
 10
388.8890712542
 20
246.8499066885
 30
0.0
 11
386.8890746517
 21
246.8499066885
 31
0.0
  0
LINE
  5
27F
330
1F
100
AcDbEntity
  8
0
  6
SLD-実線
 62
     7
370
    25
100
AcDbLine
 10
386.8890746517
 20
246.8499066885
 30
0.0
 11
386.8890746517
 21
259.6261395951
 31
0.0
  0
LINE
  5
280
330
1F
100
AcDbEntity
  8
0
  6
SLD-実線
 62
     7
370
    25
100
AcDbLine
 10
386.8890746517
 20
306.84990721
 30
0.0
 11
388.8890712542
 21
306.84990721
 31
0.0
  0
LINE
  5
281
330
1F
100
AcDbEntity
  8
0
  6
SLD-実線
 62
     7
370
    25
100
AcDbLine
 10
386.8890746517
 20
294.0736739542
 30
0.0
 11
386.8890746517
 21
306.84990721
 31
0.0
  0
ARC
  5
282
330
1F
100
AcDbEntity
  8
0
  6
SLD-実線
 62
     7
370
    25
100
AcDbCircle
 10
343.8890714926
 20
226.3499071206
 30
0.0
 40
10.0
100
AcDbArc
 50
90.0
 51
180.0
  0
LINE
  5
283
330
1F
100
AcDbEntity
  8
0
  6
SLD-実線
 62
     7
370
    25
100
AcDbLine
 10
383.889068572
 20
340.8499053325
 30
0.0
 11
383.889068572
 21
257.6896530222
 31
0.0
  0
SPLINE
  5
284
330
1F
100
AcDbEntity
  8
0
  6
SLD-実線
 62
     7
370
    25
100
AcDbSpline
210
0.0
220
0.0
230
1.0
 70
     8
 71
     3
 72
     8
 73
     4
 74
     0
 42
0.000000001
 43
0.00000001
 40
0.0
 40
0.0
 40
0.0
 40
0.0
 40
1.0
 40
1.0
 40
1.0
 40
1.0
 10
283.889071492647
 20
297.7450287493726
 30
0.0
 10
283.889071492647
 20
296.4100158103254
 30
0.0
 10
283.9251623896198
 20
295.0661233682449
 30
0.0
 10
283.9865308952367
 20
293.7132605709361
 30
0.0
  0
LINE
  5
285
330
1F
100
AcDbEntity
  8
0
  6
SLD-実線
 62
     7
370
    25
100
AcDbLine
 10
283.8890715057
 20
297.7450294997
 30
0.0
 11
283.8890715057
 21
340.8499053325
 31
0.0
  0
LINE
  5
286
330
1F
100
AcDbEntity
  8
0
  6
SLD-実線
 62
     7
370
    25
100
AcDbLine
 10
310.8890715075
 20
222.2753046657
 30
0.0
 11
291.8890711872
 21
222.2753046657
 31
0.0
  0
SPLINE
  5
287
330
1F
100
AcDbEntity
  8
0
  6
SLD-実線
 62
     7
370
    25
100
AcDbSpline
210
0.0
220
0.0
230
1.0
 70
     8
 71
     3
 72
    20
 73
    16
 74
     0
 42
0.000000001
 43
0.00000001
 40
0.0
 40
0.0
 40
0.0
 40
0.0
 40
0.0624999999999999
 40
0.0624999999999999
 40
0.1249999999999997
 40
0.1249999999999997
 40
0.2499999999999993
 40
0.2499999999999993
 40
0.3749999999999988
 40
0.3749999999999988
 40
0.4999999999999984
 40
0.4999999999999984
 40
0.7499999999999988
 40
0.7499999999999988
 40
1.0
 40
1.0
 40
1.0
 40
1.0
 10
291.889071492647
 20
222.2753040766543
 30
0.0
 10
291.6085806863629
 20
222.2753040766543
 30
0.0
 10
291.333456296216
 20
222.3048646043527
 30
0.0
 10
290.7929601318563
 20
222.4177072620413
 30
0.0
 10
290.5251281584906
 20
222.5021413211099
 30
0.0
 10
289.7544952050119
 20
222.8227792170648
 30
0.0
 10
289.2874365294244
 20
223.1211170148356
 30
0.0
 10
288.4265728879646
 20
223.8285599521454
 30
0.0
 10
288.0458116618518
 20
224.2263903225709
 30
0.0
 10
287.3493563738348
 20
225.0798325572154
 30
0.0
 10
287.032632680009
 20
225.5389361786009
 30
0.0
 10
286.1724233097219
 20
226.9541797308601
 30
0.0
 10
285.7120154018166
 20
227.9492340982368
 30
0.0
 10
284.9199562505755
 20
229.9980570373614
 30
0.0
 10
284.5902250094912
 20
231.0550961956374
 30
0.0
 10
284.3083776777937
 20
232.121598956359
 30
0.0
  0
LINE
  5
288
330
1F
100
AcDbEntity
  8
0
  6
SLD-実線
 62
     7
370
    25
100
AcDbLine
 10
363.8890727443
 20
236.3499077614
 30
0.0
 11
343.8890731914
 21
236.3499077614
 31
0.0
  0
LINE
  5
289
330
1F
100
AcDbEntity
  8
0
  6
SLD-実線
 62
     7
370
    25
100
AcDbLine
 10
383.889068572
 20
365.8499038424
 30
0.0
 11
383.889068572
 21
340.8499053325
 31
0.0
  0
LINE
  5
28A
330
1F
100
AcDbEntity
  8
0
  6
SLD-実線
 62
     7
370
    25
100
AcDbLine
 10
283.8890715057
 20
340.8499053325
 30
0.0
 11
283.8890715057
 21
400.8499077167
 31
0.0
  0
ARC
  5
28B
330
1F
100
AcDbEntity
  8
0
  6
SLD-実線
 62
     7
370
    25
100
AcDbCircle
 10
293.8890714926
 20
400.8499071206
 30
0.0
 40
10.0
100
AcDbArc
 50
90.0
 51
180.0
  0
LINE
  5
28C
330
1F
100
AcDbEntity
  8
0
  6
SLD-実線
 62
     7
370
    25
100
AcDbLine
 10
294.8890716789
 20
410.8499130811
 30
0.0
 11
293.889071515
 21
410.8499130811
 31
0.0
  0
SPLINE
  5
28D
330
1F
100
AcDbEntity
  8
0
  6
SLD-実線
 62
     7
370
    25
100
AcDbSpline
210
0.0
220
0.0
230
1.0
 70
     8
 71
     3
 72
    16
 73
    12
 74
     0
 42
0.000000001
 43
0.00000001
 40
0.0
 40
0.0
 40
0.0
 40
0.0
 40
0.5000000000000046
 40
0.5000000000000046
 40
0.6250000000000034
 40
0.6250000000000034
 40
0.7500000000000023
 40
0.7500000000000023
 40
0.8750000000000013
 40
0.8750000000000013
 40
1.0
 40
1.0
 40
1.0
 40
1.0
 10
284.3083776777937
 20
232.121598956359
 30
0.0
 10
284.2150047429752
 20
232.4749196429904
 30
0.0
 10
284.1023619779289
 20
232.8200668986966
 30
0.0
 10
283.9007234946397
 20
233.2256973735393
 30
0.0
 10
283.8570820410313
 20
233.305417915723
 30
0.0
 10
283.759579693885
 20
233.4605243544102
 30
0.0
 10
283.7052007210605
 20
233.5367296898151
 30
0.0
 10
283.5824326863382
 20
233.6759514684818
 30
0.0
 10
283.5131405876432
 20
233.7400942072437
 30
0.0
 10
283.3561915710532
 20
233.8363237121666
 30
0.0
 10
283.2654960881105
 20
233.868431994162
 30
0.0
 10
283.1712736055657
 20
233.868431994162
 30
0.0
  0
LINE
  5
28E
330
1F
100
AcDbEntity
  8
0
  6
SLD-実線
 62
     7
370
    25
100
AcDbLine
 10
282.3890714926
 20
233.8684322889
 30
0.0
 11
283.171273607
 21
233.8684322889
 31
0.0
  0
LINE
  5
28F
330
1F
100
AcDbEntity
  8
0
  6
SLD-実線
 62
     7
370
    25
100
AcDbLine
 10
282.3890714926
 20
233.8684322889
 30
0.0
 11
282.3890714926
 21
297.159391513
 31
0.0
  0
LINE
  5
290
330
1F
100
AcDbEntity
  8
0
  6
SLD-実線
 62
     7
370
    25
100
AcDbLine
 10
333.8890715523
 20
228.8419819082
 30
0.0
 11
333.8890715523
 21
181.2052568998
 31
0.0
  0
LINE
  5
291
330
1F
100
AcDbEntity
  8
0
  6
SLD-実線
 62
     7
370
    25
100
AcDbLine
 10
234.3890710754
 20
168.8499069418
 30
0.0
 11
244.3890727145
 21
168.8499069418
 31
0.0
  0
LINE
  5
292
330
1F
100
AcDbEntity
  8
0
  6
SLD-実線
 62
     7
370
    25
100
AcDbLine
 10
244.3890727145
 20
158.849909028
 30
0.0
 11
234.3890710754
 21
158.849909028
 31
0.0
  0
LINE
  5
293
330
1F
100
AcDbEntity
  8
0
  6
SLD-実線
 62
     7
370
    25
100
AcDbLine
 10
234.3890710754
 20
158.849909028
 30
0.0
 11
234.3890710754
 21
168.8499069418
 31
0.0
  0
SPLINE
  5
294
330
1F
100
AcDbEntity
  8
0
  6
SLD-実線
 62
     7
370
    25
100
AcDbSpline
210
0.0
220
0.0
230
1.0
 70
     8
 71
     3
 72
    22
 73
    18
 74
     0
 42
0.000000001
 43
0.00000001
 40
0.0
 40
0.0
 40
0.0
 40
0.0
 40
0.0625000000000009
 40
0.0625000000000009
 40
0.1250000000000018
 40
0.1250000000000018
 40
0.1875000000000027
 40
0.1875000000000027
 40
0.2500000000000037
 40
0.2500000000000037
 40
0.3750000000000037
 40
0.3750000000000037
 40
0.5000000000000038
 40
0.5000000000000038
 40
0.7500000000000019
 40
0.7500000000000019
 40
1.0
 40
1.0
 40
1.0
 40
1.0
 10
282.389071492647
 20
233.868431994162
 30
0.0
 10
282.5018811209345
 20
233.8684319941621
 30
0.0
 10
282.6080859645994
 20
233.8228232487558
 30
0.0
 10
282.7882811161991
 20
233.6925128058485
 30
0.0
 10
282.8640579189312
 20
233.6096060579384
 30
0.0
 10
282.9978446536784
 20
233.4330309582448
 30
0.0
 10
283.0563828221887
 20
233.3378129165885
 30
0.0
 10
283.1611928772443
 20
233.1443567723667
 30
0.0
 10
283.2079165258892
 20
233.0451735805352
 30
0.0
 10
283.3368118775223
 20
232.742751431938
 30
0.0
 10
283.4079592092751
 20
232.5345133656766
 30
0.0
 10
283.5322436214454
 20
232.1112253636474
 30
0.0
 10
283.5844925149577
 20
231.8982897120063
 30
0.0
 10
283.7202468170788
 20
231.256742035153
 30
0.0
 10
283.7831028709418
 20
230.8254340724782
 30
0.0
 10
283.867705651139
 20
229.9574509975251
 30
0.0
 10
283.889071492647
 20
229.5207261577038
 30
0.0
 10
283.889071492647
 20
229.081211837376
 30
0.0
  0
LINE
  5
295
330
1F
100
AcDbEntity
  8
0
  6
SLD-実線
 62
     7
370
    25
100
AcDbLine
 10
282.3890714926
 20
193.7856739964
 30
0.0
 11
282.3890714926
 21
233.8684322889
 31
0.0
  0
LINE
  5
296
330
1F
100
AcDbEntity
  8
0
  6
SLD-実線
 62
     7
370
    25
100
AcDbLine
 10
310.8890715075
 20
158.849909028
 30
0.0
 11
244.3890727145
 21
158.849909028
 31
0.0
  0
LINE
  5
297
330
1F
100
AcDbEntity
  8
0
  6
SLD-実線
 62
     7
370
    25
100
AcDbLine
 10
244.3890727145
 20
168.8499069418
 30
0.0
 11
262.3890719397
 21
168.8499069418
 31
0.0
  0
LINE
  5
298
330
1F
100
AcDbEntity
  8
0
  6
SLD-実線
 62
     7
370
    25
100
AcDbLine
 10
283.8890715057
 20
181.2629392947
 30
0.0
 11
283.8890715057
 21
229.0812126006
 31
0.0
  0
LINE
  5
299
330
1F
100
AcDbEntity
  8
0
  6
SLD-実線
 62
     7
370
    25
100
AcDbLine
 10
310.8890715075
 20
158.849909028
 30
0.0
 11
310.8890715075
 21
222.2753046657
 31
0.0
  0
LINE
  5
29A
330
1F
100
AcDbEntity
  8
0
  6
SLD-実線
 62
     7
370
    25
100
AcDbLine
 10
283.8890715057
 20
181.2629392947
 30
0.0
 11
262.3890719397
 21
168.8499069418
 31
0.0
  0
LINE
  5
29B
330
1F
100
AcDbEntity
  8
0
  6
SLD-実線
 62
     7
370
    25
100
AcDbLine
 10
294.9060906676
 20
401.8407455291
 30
0.0
 11
294.8932076825
 21
401.7282268609
 31
0.0
  0
LINE
  5
29C
330
1F
100
AcDbEntity
  8
0
  6
SLD-実線
 62
     7
370
    25
100
AcDbLine
 10
294.8890716789
 20
413.8499042596
 30
0.0
 11
338.8890705092
 21
413.8499042596
 31
0.0
  0
LINE
  5
29D
330
1F
100
AcDbEntity
  8
0
  6
SLD-実線
 62
     7
370
    25
100
AcDbLine
 10
282.3890714926
 20
297.159391513
 30
0.0
 11
282.3890714926
 21
327.9141402449
 31
0.0
  0
SPLINE
  5
29E
330
1F
100
AcDbEntity
  8
0
  6
SLD-実線
 62
     7
370
    25
100
AcDbSpline
210
0.0
220
0.0
230
1.0
 70
     8
 71
     3
 72
    46
 73
    42
 74
     0
 42
0.000000001
 43
0.00000001
 40
0.0
 40
0.0
 40
0.0
 40
0.0
 40
0.1249999999999983
 40
0.1249999999999983
 40
0.1874999999999977
 40
0.1874999999999977
 40
0.2187499999999976
 40
0.2187499999999976
 40
0.2499999999999976
 40
0.2499999999999976
 40
0.3749999999999982
 40
0.3749999999999982
 40
0.4374999999999986
 40
0.4374999999999986
 40
0.4687499999999987
 40
0.4687499999999987
 40
0.4999999999999988
 40
0.4999999999999988
 40
0.5312499999999989
 40
0.5312499999999989
 40
0.562499999999999
 40
0.562499999999999
 40
0.6249999999999992
 40
0.6249999999999992
 40
0.6874999999999993
 40
0.6874999999999993
 40
0.7499999999999994
 40
0.7499999999999994
 40
0.8124999999999997
 40
0.8124999999999997
 40
0.8749999999999998
 40
0.8749999999999998
 40
0.9375
 40
0.9375
 40
0.9687500000000001
 40
0.9687500000000001
 40
0.9843750000000001
 40
0.9843750000000001
 40
0.9921875000000001
 40
0.9921875000000001
 40
1.0
 40
1.0
 40
1.0
 40
1.0
 10
383.8890714926471
 20
365.8499071206261
 30
0.0
 10
383.8890714926471
 20
369.0900741798607
 30
0.0
 10
383.5431231471139
 20
372.2276872449359
 30
0.0
 10
382.5674760015898
 20
376.786637969999
 30
0.0
 10
382.1654219763354
 20
378.2815323183793
 30
0.0
 10
381.4493863385515
 20
380.4860457602604
 30
0.0
 10
381.1918488731552
 20
381.2145690455195
 30
0.0
 10
380.6390495713646
 20
382.658748264432
 30
0.0
 10
380.3428281027277
 20
383.3763923787453
 30
0.0
 10
378.7848557945405
 20
386.8925389995238
 30
0.0
 10
377.2891494980498
 20
389.4971590541783
 30
0.0
 10
374.7183523950324
 20
393.1162280812075
 30
0.0
 10
373.8064083334511
 20
394.2742532269803
 30
0.0
 10
372.3582404136596
 20
395.9390363477028
 30
0.0
 10
371.8621209492129
 20
396.4819037015899
 30
0.0
 10
370.8432159687673
 20
397.5433426523028
 30
0.0
 10
370.319655554924
 20
398.0626097784151
 30
0.0
 10
369.2512888136043
 20
399.0715203621583
 30
0.0
 10
368.7058141448059
 20
399.56181088312
 30
0.0
 10
367.5990800574031
 20
400.5091916759708
 30
0.0
 10
367.0372274542815
 20
400.9668781166581
 30
0.0
 10
365.3272091800745
 20
402.2930987965376
 30
0.0
 10
364.154635062613
 20
403.1148855790778
 30
0.0
 10
361.7482600693015
 20
404.6375961421934
 30
0.0
 10
360.514449276401
 20
405.3385098481759
 30
0.0
 10
357.9879188860845
 20
406.6204937966419
 30
0.0
 10
356.6936344177402
 20
407.2021716153071
 30
0.0
 10
354.0537791669358
 20
408.2414614793073
 30
0.0
 10
352.7164798781701
 20
408.6959965947304
 30
0.0
 10
350.0093687366173
 20
409.4770041486056
 30
0.0
 10
348.6381740830987
 20
409.8036538812266
 30
0.0
 10
345.8752023064433
 20
410.3265395456049
 30
0.0
 10
344.4844944382149
 20
410.5226975151057
 30
0.0
 10
342.3899482106348
 20
410.7190011843319
 30
0.0
 10
341.6904242521689
 20
410.7680963148518
 30
0.0
 10
340.6401814727693
 20
410.8171889851151
 30
0.0
 10
340.289934370488
 20
410.8294622258388
 30
0.0
 10
339.7644474345224
 20
410.8417332174488
 30
0.0
 10
339.5892651530618
 20
410.8448004467766
 30
0.0
 10
339.238880132974
 20
410.8488885591975
 30
0.0
 10
339.0614158347279
 20
410.8499071206261
 30
0.0
 10
338.889071492647
 20
410.8499071206261
 30
0.0
  0
LINE
  5
29F
330
1F
100
AcDbEntity
  8
0
  6
SLD-実線
 62
     7
370
    25
100
AcDbLine
 10
234.3890710754
 20
156.8499049749
 30
0.0
 11
234.3890710754
 21
158.849909028
 31
0.0
  0
LINE
  5
2A0
330
1F
100
AcDbEntity
  8
0
  6
SLD-実線
 62
     7
370
    25
100
AcDbLine
 10
310.8890715075
 20
156.8499049749
 30
0.0
 11
310.8890715075
 21
158.849909028
 31
0.0
  0
LINE
  5
2A1
330
1F
100
AcDbEntity
  8
0
  6
SLD-実線
 62
     7
370
    25
100
AcDbLine
 10
383.889068572
 20
257.6896530222
 30
0.0
 11
383.889068572
 21
256.3499073143
 31
0.0
  0
ARC
  5
2A2
330
1F
100
AcDbEntity
  8
0
  6
SLD-実線
 62
     7
370
    25
100
AcDbCircle
 10
363.8890714926
 20
256.3499071206
 30
0.0
 40
20.00000000000006
100
AcDbArc
 50
270.0
 51
0.0
  0
LINE
  5
2A3
330
1F
100
AcDbEntity
  8
0
  6
SLD-実線
 62
     7
370
    25
100
AcDbLine
 10
386.8890746517
 20
367.5918421354
 30
0.0
 11
386.8890746517
 21
365.9741646256
 31
0.0
  0
LINE
  5
2A4
330
1F
100
AcDbEntity
  8
0
  6
SLD-実線
 62
     7
370
    25
100
AcDbLine
 10
386.8890746517
 20
382.0584482159
 30
0.0
 11
386.8890746517
 21
367.5918421354
 31
0.0
  0
LINE
  5
2A5
330
1F
100
AcDbEntity
  8
0
  6
SLD-実線
 62
     7
370
    25
100
AcDbLine
 10
386.8890746517
 20
365.9741646256
 30
0.0
 11
386.8890746517
 21
344.8499059881
 31
0.0
  0
LINE
  5
2A6
330
1F
100
AcDbEntity
  8
0
  6
SLD-実線
 62
     7
370
    25
100
AcDbLine
 10
386.8890746517
 20
409.3715390767
 30
0.0
 11
386.8890746517
 21
382.0584482159
 31
0.0
  0
LINE
  5
2A7
330
1F
100
AcDbEntity
  8
0
  6
SLD-実線
 62
     7
370
    25
100
AcDbLine
 10
333.8890715523
 20
181.2052568998
 30
0.0
 11
333.8890715523
 21
169.0764269437
 31
0.0
  0
ARC
  5
2A8
330
1F
100
AcDbEntity
  8
0
  6
SLD-実線
 62
     7
370
    25
100
AcDbCircle
 10
385.8890714926
 20
308.8499071206
 30
0.0
 40
2.0
100
AcDbArc
 50
180.0
 51
270.0
  0
LINE
  5
2A9
330
1F
100
AcDbEntity
  8
0
  6
SLD-実線
 62
     7
370
    25
100
AcDbLine
 10
338.8890705092
 20
198.0758375134
 30
0.0
 11
338.8890705092
 21
169.0758383478
 31
0.0
  0
LINE
  5
2AA
330
1F
100
AcDbEntity
  8
0
  6
SLD-実線
 62
     7
370
    25
100
AcDbLine
 10
386.8890746517
 20
246.8499066885
 30
0.0
 11
385.0443555994
 21
246.8499066885
 31
0.0
  0
LINE
  5
2AB
330
1F
100
AcDbEntity
  8
0
  6
SLD-実線
 62
     7
370
    25
100
AcDbLine
 10
385.8890726251
 20
306.84990721
 30
0.0
 11
386.8890746517
 21
306.84990721
 31
0.0
  0
ARC
  5
2AC
330
1F
100
AcDbEntity
  8
0
  6
SLD-実線
 62
     7
370
    25
100
AcDbCircle
 10
366.2893555858
 20
256.3499071206
 30
0.0
 40
20.00000000000002
100
AcDbArc
 50
270.0
 51
328.4846299979
  0
ARC
  5
2AD
330
1F
100
AcDbEntity
  8
0
  6
SLD-実線
 62
     7
370
    25
100
AcDbCircle
 10
385.0443549194
 20
244.8499071206
 30
0.0
 40
2.0
100
AcDbArc
 50
90.0
 51
148.4846299979
  0
LINE
  5
2AE
330
1F
100
AcDbEntity
  8
SLD-0
  6
SLD-1点鎖線(中心線)
370
    18
100
AcDbLine
 10
371.0890714926
 20
276.8499071206
 30
0.0
 11
409.2176479609
 21
276.8499071206
 31
0.0
  0
LINE
  5
2AF
330
1F
100
AcDbEntity
  8
SLD-0
  6
SLD-1点鎖線(中心線)
370
    18
100
AcDbLine
 10
316.8890714926
 20
358.3245379977
 30
0.0
 11
316.8890714926
 21
444.8499071206
 31
0.0
  0
LINE
  5
2B0
330
1F
100
AcDbEntity
  8
SLD-0
  6
SLD-1点鎖線(中心線)
370
    18
100
AcDbLine
 10
90.3890714926
 20
131.3902082197
 30
0.0
 11
90.3890714926
 21
160.8499071206
 31
0.0
  0
LINE
  5
2B1
330
1F
100
AcDbEntity
  8
SLD-0
  6
SLD-1点鎖線(中心線)
370
    18
100
AcDbLine
 10
320.3890714926
 20
131.5258453845
 30
0.0
 11
320.3890714926
 21
160.8499071206
 31
0.0
  0
LINE
  5
2B2
330
1F
100
AcDbEntity
  8
SLD-0
  6
SLD-1点鎖線(中心線)
370
    18
100
AcDbLine
 10
371.8890714926
 20
374.8499071206
 30
0.0
 11
437.7008254702
 21
374.8499071206
 31
0.0
  0
SPLINE
  5
2B3
330
1F
100
AcDbEntity
  8
0
  6
SLD-実線
 62
     7
370
    25
100
AcDbSpline
210
0.0
220
0.0
230
1.0
 70
     8
 71
     3
 72
    27
 73
    23
 74
     0
 42
0.000000001
 43
0.00000001
 40
0.0
 40
0.0
 40
0.0
 40
0.0
 40
0.053997014275448
 40
0.1163472813546289
 40
0.1702772511576842
 40
0.2154440242054186
 40
0.2522666328792147
 40
0.2840012616510219
 40
0.3233452541364742
 40
0.3609605053980856
 40
0.4102425943074339
 40
0.4675677478254517
 40
0.5239147762919615
 40
0.5772251117265346
 40
0.6256087242766567
 40
0.6691221116815836
 40
0.697012042439744
 40
0.73479361458927
 40
0.7834544567254471
 40
0.8427933889550506
 40
0.9146538225754667
 40
1.0
 40
1.0
 40
1.0
 40
1.0
 10
567.1671569168731
 20
178.8120708073785
 30
0.0
 10
566.1183916138351
 20
178.7468292535311
 30
0.0
 10
563.8586186722227
 20
178.6062533805252
 30
0.0
 10
560.6171284829086
 20
177.8410478648365
 30
0.0
 10
557.6994579615733
 20
176.6653284110275
 30
0.0
 10
555.3642637978409
 20
175.4201209092961
 30
0.0
 10
553.5168803409994
 20
174.2009347258254
 30
0.0
 10
551.8638512490566
 20
172.9068323296
 30
0.0
 10
550.313083520006
 20
171.4671159405264
 30
0.0
 10
548.6681398200357
 20
169.642223934096
 30
0.0
 10
547.005567457716
 20
167.3770478219429
 30
0.0
 10
545.4615306520031
 20
164.6000065727945
 30
0.0
 10
544.2662457243368
 20
161.5727185435481
 30
0.0
 10
543.5075182790363
 20
158.5861738896184
 30
0.0
 10
543.1735068863098
 20
155.7774935355855
 30
0.0
 10
543.0920560280954
 20
153.4491321553477
 30
0.0
 10
543.0978586051671
 20
151.3266462688529
 30
0.0
 10
543.131414152257
 20
149.1043752901995
 30
0.0
 10
543.1366645801147
 20
146.2704868178101
 30
0.0
 10
543.1180035078753
 20
142.7742674025487
 30
0.0
 10
543.1120298489867
 20
138.5648511681527
 30
0.0
 10
543.1149876027956
 20
135.5089349000613
 30
0.0
 10
543.1165933430358
 20
133.8499030675103
 30
0.0
  0
SPLINE
  5
2B4
330
1F
100
AcDbEntity
  8
0
  6
SLD-実線
 62
     7
370
    25
100
AcDbSpline
210
0.0
220
0.0
230
1.0
 70
     8
 71
     3
 72
    24
 73
    20
 74
     0
 42
0.000000001
 43
0.00000001
 40
0.0
 40
0.0
 40
0.0
 40
0.0
 40
0.1461079870615056
 40
0.2626376312021106
 40
0.3463926331069421
 40
0.4093133097744298
 40
0.4767734494760273
 40
0.5444128299684448
 40
0.5931733127579131
 40
0.6432000086022776
 40
0.6972076038358315
 40
0.7497259410681373
 40
0.7857596756036204
 40
0.8019867487966735
 40
0.8274477338322512
 40
0.8623759725301133
 40
0.9068037206456716
 40
0.9604718464050707
 40
1.0
 40
1.0
 40
1.0
 40
1.0
 10
553.2177254378959
 20
133.8499030675103
 30
0.0
 10
553.2143178948024
 20
135.9176554134987
 30
0.0
 10
553.208192637284
 20
139.634560895431
 30
0.0
 10
553.2252315244805
 20
144.5368152342039
 30
0.0
 10
553.2315018773281
 20
148.2616852351509
 30
0.0
 10
553.2014873286056
 20
151.2923833752848
 30
0.0
 10
553.198659199061
 20
154.093687951563
 30
0.0
 10
553.4158228327921
 20
156.6986807426126
 30
0.0
 10
554.05380754573
 20
158.9778972563344
 30
0.0
 10
554.9586440651498
 20
160.9492976199604
 30
0.0
 10
556.1430039216103
 20
162.8307828192212
 30
0.0
 10
557.4735135756379
 20
164.3586720380912
 30
0.0
 10
558.584336225862
 20
165.344963245593
 30
0.0
 10
559.4594317839093
 20
166.0118820060318
 30
0.0
 10
560.3599163175677
 20
166.6175278535611
 30
0.0
 10
561.6579637609428
 20
167.3406416017469
 30
0.0
 10
563.3935807173472
 20
168.0779161460033
 30
0.0
 10
565.2901394137932
 20
168.5831696297167
 30
0.0
 10
566.6081412592927
 20
168.6693550107031
 30
0.0
 10
567.1671569168731
 20
168.7059095706155
 30
0.0
  0
LINE
  5
2B5
330
1F
100
AcDbEntity
  8
0
  6
SLD-実線
 62
     7
370
    25
100
AcDbLine
 10
748.1671586454
 20
157.4499076809
 30
0.0
 11
748.1671586454
 21
157.9499086942
 31
0.0
  0
LINE
  5
2B6
330
1F
100
AcDbEntity
  8
0
  6
SLD-実線
 62
     7
370
    25
100
AcDbLine
 10
564.1671582878
 20
157.9499086942
 30
0.0
 11
564.1671582878
 21
157.4499076809
 31
0.0
  0
LINE
  5
2B7
330
1F
100
AcDbEntity
  8
0
  6
SLD-実線
 62
     7
370
    25
100
AcDbLine
 10
747.9171618641
 20
157.9499086942
 30
0.0
 11
747.9171618641
 21
159.649907669
 31
0.0
  0
ARC
  5
2B8
330
1F
100
AcDbEntity
  8
0
  6
SLD-実線
 62
     7
370
    25
100
AcDbCircle
 10
745.9171584666
 20
159.6499071206
 30
0.0
 40
2.0
100
AcDbArc
 50
0.0
 51
90.0
  0
ARC
  5
2B9
330
1F
100
AcDbEntity
  8
0
  6
SLD-実線
 62
     7
370
    25
100
AcDbCircle
 10
566.4171584666
 20
159.6499071206
 30
0.0
 40
2.000000000000058
100
AcDbArc
 50
121.5668558205
 51
180.0
  0
LINE
  5
2BA
330
1F
100
AcDbEntity
  8
0
  6
SLD-実線
 62
     7
370
    25
100
AcDbLine
 10
564.4171550691
 20
159.649907669
 30
0.0
 11
564.4171550691
 21
157.9499086942
 31
0.0
  0
LINE
  5
2BB
330
1F
100
AcDbEntity
  8
0
  6
SLD-実線
 62
     7
370
    25
100
AcDbLine
 10
645.6671586082
 20
433.8499000873
 30
0.0
 11
645.6671586082
 21
432.8499129619
 31
0.0
  0
LINE
  5
2BC
330
1F
100
AcDbEntity
  8
0
  6
SLD-実線
 62
     7
370
    25
100
AcDbLine
 10
730.6671604335
 20
433.8499000873
 30
0.0
 11
730.6671604335
 21
433.6491218414
 31
0.0
  0
LINE
  5
2BD
330
1F
100
AcDbEntity
  8
0
  6
SLD-実線
 62
     7
370
    25
100
AcDbLine
 10
750.6671562612
 20
432.8499129619
 30
0.0
 11
750.6671562612
 21
433.8499000873
 31
0.0
  0
LINE
  5
2BE
330
1F
100
AcDbEntity
  8
0
  6
SLD-実線
 62
     7
370
    25
100
AcDbLine
 10
735.6671556652
 20
416.2499001826
 30
0.0
 11
735.6671556652
 21
415.8499083127
 31
0.0
  0
LINE
  5
2BF
330
1F
100
AcDbEntity
  8
0
  6
SLD-実線
 62
     7
370
    25
100
AcDbLine
 10
745.6671610296
 20
415.8499083127
 30
0.0
 11
745.6671610296
 21
416.2499001826
 31
0.0
  0
LINE
  5
2C0
330
1F
100
AcDbEntity
  8
0
  6
SLD-実線
 62
     7
370
    25
100
AcDbLine
 10
650.6671584964
 20
416.2499001826
 30
0.0
 11
650.6671584964
 21
415.8499083127
 31
0.0
  0
LINE
  5
2C1
330
1F
100
AcDbEntity
  8
0
  6
SLD-実線
 62
     7
370
    25
100
AcDbLine
 10
660.6671582729
 20
415.8499083127
 30
0.0
 11
660.6671582729
 21
416.2499001826
 31
0.0
  0
LINE
  5
2C2
330
1F
100
AcDbEntity
  8
0
  6
SLD-実線
 62
     7
370
    25
100
AcDbLine
 10
609.6671573639
 20
413.8499042596
 30
0.0
 11
609.6671573639
 21
414.8499062862
 31
0.0
  0
LINE
  5
2C3
330
1F
100
AcDbEntity
  8
0
  6
SLD-実線
 62
     7
370
    25
100
AcDbLine
 10
568.6671599567
 20
414.8499062862
 30
0.0
 11
568.6671599567
 21
413.8499042596
 31
0.0
  0
LINE
  5
2C4
330
1F
100
AcDbEntity
  8
0
  6
SLD-実線
 62
     7
370
    25
100
AcDbLine
 10
565.6671613276
 20
423.849909624
 30
0.0
 11
565.6671613276
 21
414.8499062862
 31
0.0
  0
LINE
  5
2C5
330
1F
100
AcDbEntity
  8
0
  6
SLD-実線
 62
     7
370
    25
100
AcDbLine
 10
612.6671597183
 20
414.8499062862
 30
0.0
 11
612.6671597183
 21
423.849909624
 31
0.0
  0
LINE
  5
2C6
330
1F
100
AcDbEntity
  8
0
  6
SLD-実線
 62
     7
370
    25
100
AcDbLine
 10
566.8386086643
 20
429.8499068822
 30
0.0
 11
566.8386086643
 21
423.849909624
 31
0.0
  0
LINE
  5
2C7
330
1F
100
AcDbEntity
  8
0
  6
SLD-実線
 62
     7
370
    25
100
AcDbLine
 10
611.4957086563
 20
423.849909624
 30
0.0
 11
611.4957086563
 21
429.8499068822
 31
0.0
  0
LINE
  5
2C8
330
1F
100
AcDbEntity
  8
0
  6
SLD-実線
 62
     7
370
    25
100
AcDbLine
 10
753.1671613276
 20
413.8499042596
 30
0.0
 11
753.1671613276
 21
415.8499083127
 31
0.0
  0
LINE
  5
2C9
330
1F
100
AcDbEntity
  8
0
  6
SLD-実線
 62
     7
370
    25
100
AcDbLine
 10
643.1671581984
 20
415.8499083127
 30
0.0
 11
643.1671581984
 21
413.8499042596
 31
0.0
  0
LINE
  5
2CA
330
1F
100
AcDbEntity
  8
0
  6
SLD-実線
 62
     7
370
    25
100
AcDbLine
 10
731.1671614468
 20
415.8499083127
 30
0.0
 11
731.1671614468
 21
416.2499001826
 31
0.0
  0
LINE
  5
2CB
330
1F
100
AcDbEntity
  8
0
  6
SLD-実線
 62
     7
370
    25
100
AcDbLine
 10
665.1671580792
 20
416.2499001826
 30
0.0
 11
665.1671580792
 21
415.8499083127
 31
0.0
  0
SPLINE
  5
2CC
330
1F
100
AcDbEntity
  8
0
  6
SLD-実線
 62
     7
370
    25
100
AcDbSpline
210
0.0
220
0.0
230
1.0
 70
     8
 71
     3
 72
    12
 73
     8
 74
     0
 42
0.000000001
 43
0.00000001
 40
0.0
 40
0.0
 40
0.0
 40
0.0
 40
0.0901106622619695
 40
0.2654670433579805
 40
0.4690737957007369
 40
0.7129619836137224
 40
1.0
 40
1.0
 40
1.0
 40
1.0
 10
666.1300422445103
 20
434.851213416021
 30
0.0
 10
666.1335083916425
 20
434.7429135888118
 30
0.0
 10
666.1437197008036
 20
434.4238610571385
 30
0.0
 10
665.9057483336516
 20
433.896582435452
 30
0.0
 10
665.4258158377478
 20
433.3505296021364
 30
0.0
 10
664.6810222983162
 20
432.9324997097924
 30
0.0
 10
664.1107580528823
 20
432.8788941027438
 30
0.0
 10
663.8024524606927
 20
432.8499129618813
 30
0.0
  0
SPLINE
  5
2CD
330
1F
100
AcDbEntity
  8
0
  6
SLD-実線
 62
     7
370
    25
100
AcDbSpline
210
0.0
220
0.0
230
1.0
 70
     8
 71
     3
 72
    13
 73
     9
 74
     0
 42
0.000000001
 43
0.00000001
 40
0.0
 40
0.0
 40
0.0
 40
0.0
 40
0.1045438970933732
 40
0.3719466719212581
 40
0.613962759727854
 40
0.8249901630312245
 40
0.9874328053504687
 40
1.0
 40
1.0
 40
1.0
 40
1.0
 10
732.5318619430228
 20
432.8499129618813
 30
0.0
 10
732.4212995459673
 20
432.854132096227
 30
0.0
 10
732.0279402321501
 20
432.8691429483368
 30
0.0
 10
731.36980566241
 20
433.0622280047208
 30
0.0
 10
730.6807416188045
 20
433.5437182063028
 30
0.0
 10
730.2959189992474
 20
434.158421807609
 30
0.0
 10
730.1545445674617
 20
434.6209211128426
 30
0.0
 10
730.1834355798853
 20
434.8273175867477
 30
0.0
 10
730.1855102002784
 20
434.842138608854
 30
0.0
  0
LINE
  5
2CE
330
1F
100
AcDbEntity
  8
0
  6
SLD-実線
 62
     7
370
    25
100
AcDbLine
 10
730.178923887
 20
434.8499021138
 30
0.0
 11
730.178923887
 21
438.8499102201
 31
0.0
  0
ARC
  5
2CF
330
1F
100
AcDbEntity
  8
0
  6
SLD-実線
 62
     7
370
    25
100
AcDbCircle
 10
728.1789231725
 20
438.8499071206
 30
0.0
 40
2.0
100
AcDbArc
 50
0.0
 51
90.0
  0
ARC
  5
2D0
330
1F
100
AcDbEntity
  8
0
  6
SLD-実線
 62
     7
370
    25
100
AcDbCircle
 10
668.1553937607
 20
438.8499071206
 30
0.0
 40
2.0
100
AcDbArc
 50
90.0
 51
180.0
  0
LINE
  5
2D1
330
1F
100
AcDbEntity
  8
0
  6
SLD-実線
 62
     7
370
    25
100
AcDbLine
 10
666.1553937763
 20
438.8499102201
 30
0.0
 11
666.1553937763
 21
434.8499021138
 31
0.0
  0
ARC
  5
2D2
330
1F
100
AcDbEntity
  8
0
  6
SLD-実線
 62
     7
370
    25
100
AcDbCircle
 10
751.1671584666
 20
430.8499071206
 30
0.0
 40
2.0
100
AcDbArc
 50
0.0
 51
90.0
  0
LINE
  5
2D3
330
1F
100
AcDbEntity
  8
0
  6
SLD-実線
 62
     7
370
    25
100
AcDbLine
 10
753.1671613276
 20
416.2499001826
 30
0.0
 11
753.1671613276
 21
430.8499089088
 31
0.0
  0
ARC
  5
2D4
330
1F
100
AcDbEntity
  8
0
  6
SLD-実線
 62
     7
370
    25
100
AcDbCircle
 10
645.1671584666
 20
430.8499071206
 30
0.0
 40
2.0
100
AcDbArc
 50
90.0
 51
180.0
  0
LINE
  5
2D5
330
1F
100
AcDbEntity
  8
0
  6
SLD-実線
 62
     7
370
    25
100
AcDbLine
 10
643.1671581984
 20
430.8499089088
 30
0.0
 11
643.1671581984
 21
416.2499001826
 31
0.0
  0
SPLINE
  5
2D6
330
1F
100
AcDbEntity
  8
0
  6
SLD-実線
 62
     7
370
    25
100
AcDbSpline
210
0.0
220
0.0
230
1.0
 70
     8
 71
     3
 72
    15
 73
    11
 74
     0
 42
0.000000001
 43
0.00000001
 40
0.0
 40
0.0
 40
0.0
 40
0.0
 40
0.0386947085056368
 40
0.0927622256758134
 40
0.2144841160890315
 40
0.3767647385356891
 40
0.5692309445327287
 40
0.7412966606099124
 40
0.9234402490975162
 40
1.0
 40
1.0
 40
1.0
 40
1.0
 10
614.3603078842326
 20
409.30430503742
 30
0.0
 10
614.3307233752938
 20
409.3021198286845
 30
0.0
 10
614.2598008900068
 20
409.2968812616118
 30
0.0
 10
613.9574855796866
 20
409.293667300752
 30
0.0
 10
613.3906337416167
 20
409.3655019653755
 30
0.0
 10
612.6371699567823
 20
409.6592486323681
 30
0.0
 10
611.923133204291
 20
410.2214321861843
 30
0.0
 10
611.4152997982779
 20
410.9977388585338
 30
0.0
 10
611.1615010049949
 20
411.7055990498865
 30
0.0
 10
611.1879909093228
 20
412.1433523164654
 30
0.0
 10
611.1958302378818
 20
412.2728994692971
 30
0.0
  0
SPLINE
  5
2D7
330
1F
100
AcDbEntity
  8
0
  6
SLD-実線
 62
     7
370
    25
100
AcDbSpline
210
0.0
220
0.0
230
1.0
 70
     8
 71
     3
 72
    11
 73
     7
 74
     0
 42
0.000000001
 43
0.00000001
 40
0.0
 40
0.0
 40
0.0
 40
0.0
 40
0.0021022706938997
 40
0.4761089405051209
 40
0.8592379688245578
 40
1.0
 40
1.0
 40
1.0
 40
1.0
 10
567.1753004014655
 20
374.1933471168687
 30
0.0
 10
567.1753950587765
 20
374.1926144872751
 30
0.0
 10
567.1968324465586
 20
374.0266931810702
 30
0.0
 10
567.1568531955165
 20
373.7242456176985
 30
0.0
 10
567.0952612775877
 20
373.3742713623755
 30
0.0
 10
567.03828850145
 20
373.2092755034062
 30
0.0
 10
567.022980731742
 20
373.1649434770753
 30
0.0
  0
LINE
  5
2D8
330
1F
100
AcDbEntity
  8
0
  6
SLD-実線
 62
     7
370
    25
100
AcDbLine
 10
567.1671569169
 20
413.8499042596
 30
0.0
 11
567.1671569169
 21
374.2080471124
 31
0.0
  0
LINE
  5
2D9
330
1F
100
AcDbEntity
  8
0
  6
SLD-実線
 62
     7
370
    25
100
AcDbLine
 10
611.1671566785
 20
412.2753134574
 30
0.0
 11
611.1671566785
 21
413.8499042596
 31
0.0
  0
ARC
  5
2DA
330
1F
100
AcDbEntity
  8
0
  6
SLD-実線
 62
     7
370
    25
100
AcDbCircle
 10
640.1671584666
 20
413.8499071206
 30
0.0
 40
3.000000000000114
100
AcDbArc
 50
270.0
 51
359.9999999996
  0
LINE
  5
2DB
330
1F
100
AcDbEntity
  8
0
  6
SLD-実線
 62
     7
370
    25
100
AcDbLine
 10
753.1671613276
 20
340.8499053325
 30
0.0
 11
753.1671613276
 21
413.8499042596
 31
0.0
  0
LINE
  5
2DC
330
1F
100
AcDbEntity
  8
0
  6
SLD-実線
 62
     7
370
    25
100
AcDbLine
 10
548.1671556652
 20
133.8499030675
 30
0.0
 11
553.2164215863
 21
133.8499030675
 31
0.0
  0
LINE
  5
2DD
330
1F
100
AcDbEntity
  8
0
  6
SLD-実線
 62
     7
370
    25
100
AcDbLine
 10
548.1671556652
 20
133.8499030675
 30
0.0
 11
543.1171595872
 21
133.8499030675
 31
0.0
  0
LINE
  5
2DE
330
1F
100
AcDbEntity
  8
0
  6
SLD-実線
 62
     7
370
    25
100
AcDbLine
 10
748.1671586454
 20
157.9499086942
 30
0.0
 11
740.1671573341
 21
157.9499086942
 31
0.0
  0
LINE
  5
2DF
330
1F
100
AcDbEntity
  8
0
  6
SLD-実線
 62
     7
370
    25
100
AcDbLine
 10
564.171844703
 20
157.9499086942
 30
0.0
 11
564.1671582878
 21
157.9499086942
 31
0.0
  0
LINE
  5
2E0
330
1F
100
AcDbEntity
  8
0
  6
SLD-実線
 62
     7
370
    25
100
AcDbLine
 10
572.1671595991
 20
157.9499086942
 30
0.0
 11
564.171844703
 21
157.9499086942
 31
0.0
  0
LINE
  5
2E1
330
1F
100
AcDbEntity
  8
0
  6
SLD-実線
 62
     7
370
    25
100
AcDbLine
 10
745.1671600163
 20
161.6499042715
 30
0.0
 11
745.70810197
 21
161.6499042715
 31
0.0
  0
SPLINE
  5
2E2
330
1F
100
AcDbEntity
  8
0
  6
SLD-実線
 62
     7
370
    25
100
AcDbSpline
210
0.0
220
0.0
230
1.0
 70
     8
 71
     3
 72
     9
 73
     5
 74
     0
 42
0.000000001
 43
0.00000001
 40
0.0
 40
0.0
 40
0.0
 40
0.0
 40
0.61472609864879
 40
1.0
 40
1.0
 40
1.0
 40
1.0
 10
745.7081019699737
 20
161.6499042715241
 30
0.0
 10
745.9382237143635
 20
161.6293946268982
 30
0.0
 10
746.3125721353849
 20
161.5960307520424
 30
0.0
 10
746.6395174289343
 20
161.4118026613001
 30
0.0
 10
746.7654809177085
 20
161.3408243860413
 30
0.0
  0
LINE
  5
2E3
330
1F
100
AcDbEntity
  8
0
  6
SLD-実線
 62
     7
370
    25
100
AcDbLine
 10
746.7654809177
 20
161.340824386
 30
0.0
 11
746.973553282
 21
161.340824386
 31
0.0
  0
SPLINE
  5
2E4
330
1F
100
AcDbEntity
  8
0
  6
SLD-実線
 62
     7
370
    25
100
AcDbSpline
210
0.0
220
0.0
230
1.0
 70
     8
 71
     3
 72
     9
 73
     5
 74
     0
 42
0.000000001
 43
0.00000001
 40
0.0
 40
0.0
 40
0.0
 40
0.0
 40
0.6022823027968972
 40
1.0
 40
1.0
 40
1.0
 40
1.0
 10
746.9735532820388
 20
161.3408243860413
 30
0.0
 10
746.7720010705575
 20
161.4458822446834
 30
0.0
 10
746.437353662614
 20
161.6203151611982
 30
0.0
 10
746.0644748406938
 20
161.6414847510125
 30
0.0
 10
745.916174334304
 20
161.6499042715241
 30
0.0
  0
LINE
  5
2E5
330
1F
100
AcDbEntity
  8
0
  6
SLD-実線
 62
     7
370
    25
100
AcDbLine
 10
745.9161743343
 20
161.6499042715
 30
0.0
 11
745.70810197
 21
161.6499042715
 31
0.0
  0
LINE
  5
2E6
330
1F
100
AcDbEntity
  8
0
  6
SLD-実線
 62
     7
370
    25
100
AcDbLine
 10
565.3784289777
 20
161.340824386
 30
0.0
 11
565.4071360648
 21
161.340824386
 31
0.0
  0
SPLINE
  5
2E7
330
1F
100
AcDbEntity
  8
0
  6
SLD-実線
 62
     7
370
    25
100
AcDbSpline
210
0.0
220
0.0
230
1.0
 70
     8
 71
     3
 72
     9
 73
     5
 74
     0
 42
0.000000001
 43
0.00000001
 40
0.0
 40
0.0
 40
0.0
 40
0.0
 40
0.6022799031458386
 40
1.0
 40
1.0
 40
1.0
 40
1.0
 10
565.4071360647841
 20
161.3408243860413
 30
0.0
 10
565.6130051402948
 20
161.445882246229
 30
0.0
 10
565.9548214194622
 20
161.6203158602995
 30
0.0
 10
566.3356869155436
 20
161.6414849135965
 30
0.0
 10
566.4871647775336
 20
161.6499042715241
 30
0.0
  0
LINE
  5
2E8
330
1F
100
AcDbEntity
  8
0
  6
SLD-実線
 62
     7
370
    25
100
AcDbLine
 10
566.4871647775
 20
161.6499042715
 30
0.0
 11
567.1671569169
 21
161.6499042715
 31
0.0
  0
SPLINE
  5
2E9
330
1F
100
AcDbEntity
  8
0
  6
SLD-実線
 62
     7
370
    25
100
AcDbSpline
210
0.0
220
0.0
230
1.0
 70
     8
 71
     3
 72
     9
 73
     5
 74
     0
 42
0.000000001
 43
0.00000001
 40
0.0
 40
0.0
 40
0.0
 40
0.0
 40
0.3132030763176195
 40
1.0
 40
1.0
 40
1.0
 40
1.0
 10
565.9533530295058
 20
161.5652433242013
 30
0.0
 10
565.8870264312042
 20
161.55671816607
 30
0.0
 10
565.6752577631516
 20
161.5294988991603
 30
0.0
 10
565.4906506737608
 20
161.4176451777846
 30
0.0
 10
565.3638630926772
 20
161.3408243860413
 30
0.0
  0
LINE
  5
2EA
330
1F
100
AcDbEntity
  8
0
  6
SLD-実線
 62
     7
370
    25
100
AcDbLine
 10
566.4871647775
 20
161.6499042715
 30
0.0
 11
566.4438918054
 21
161.6499042715
 31
0.0
  0
LINE
  5
2EB
330
1F
100
AcDbEntity
  8
0
  6
SLD-実線
 62
     7
370
    25
100
AcDbLine
 10
566.4171591222
 20
161.6499042715
 30
0.0
 11
566.4438918054
 21
161.6499042715
 31
0.0
  0
CIRCLE
  5
2EC
330
1F
100
AcDbEntity
  8
0
  6
SLD-実線
 62
     7
370
    25
100
AcDbCircle
 10
696.1671584666
 20
276.8499071206
 30
0.0
 40
8.000000000000433
  0
CIRCLE
  5
2ED
330
1F
100
AcDbEntity
  8
0
  6
SLD-実線
 62
     7
370
    25
100
AcDbCircle
 10
616.1671584666
 20
276.8499071206
 30
0.0
 40
8.000000000000389
  0
LINE
  5
2EE
330
1F
100
AcDbEntity
  8
0
  6
SLD-実線
 62
     7
370
    25
100
AcDbLine
 10
609.6671573639
 20
280.6026833709
 30
0.0
 11
609.6671573639
 21
273.0971305277
 31
0.0
  0
LINE
  5
2EF
330
1F
100
AcDbEntity
  8
0
  6
SLD-実線
 62
     7
370
    25
100
AcDbLine
 10
616.1671593607
 20
284.3554607238
 30
0.0
 11
609.6671573639
 21
280.6026833709
 31
0.0
  0
LINE
  5
2F0
330
1F
100
AcDbEntity
  8
0
  6
SLD-実線
 62
     7
370
    25
100
AcDbLine
 10
622.6671576321
 20
280.6026833709
 30
0.0
 11
616.1671593607
 21
284.3554607238
 31
0.0
  0
LINE
  5
2F1
330
1F
100
AcDbEntity
  8
0
  6
SLD-実線
 62
     7
370
    25
100
AcDbLine
 10
622.6671576321
 20
273.0971305277
 30
0.0
 11
622.6671576321
 21
280.6026833709
 31
0.0
  0
LINE
  5
2F2
330
1F
100
AcDbEntity
  8
0
  6
SLD-実線
 62
     7
370
    25
100
AcDbLine
 10
616.1671593607
 20
269.3443531747
 30
0.0
 11
622.6671576321
 21
273.0971305277
 31
0.0
  0
LINE
  5
2F3
330
1F
100
AcDbEntity
  8
0
  6
SLD-実線
 62
     7
370
    25
100
AcDbLine
 10
609.6671573639
 20
273.0971305277
 30
0.0
 11
616.1671593607
 21
269.3443531747
 31
0.0
  0
LINE
  5
2F4
330
1F
100
AcDbEntity
  8
0
  6
SLD-実線
 62
     7
370
    25
100
AcDbLine
 10
702.6671595693
 20
273.0971305277
 30
0.0
 11
702.6671595693
 21
280.6026833709
 31
0.0
  0
LINE
  5
2F5
330
1F
100
AcDbEntity
  8
0
  6
SLD-実線
 62
     7
370
    25
100
AcDbLine
 10
696.1671575725
 20
269.3443531747
 30
0.0
 11
702.6671595693
 21
273.0971305277
 31
0.0
  0
LINE
  5
2F6
330
1F
100
AcDbEntity
  8
0
  6
SLD-実線
 62
     7
370
    25
100
AcDbLine
 10
689.6671593011
 20
273.0971305277
 30
0.0
 11
696.1671575725
 21
269.3443531747
 31
0.0
  0
LINE
  5
2F7
330
1F
100
AcDbEntity
  8
0
  6
SLD-実線
 62
     7
370
    25
100
AcDbLine
 10
689.6671593011
 20
280.6026833709
 30
0.0
 11
689.6671593011
 21
273.0971305277
 31
0.0
  0
LINE
  5
2F8
330
1F
100
AcDbEntity
  8
0
  6
SLD-実線
 62
     7
370
    25
100
AcDbLine
 10
696.1671575725
 20
284.3554607238
 30
0.0
 11
689.6671593011
 21
280.6026833709
 31
0.0
  0
LINE
  5
2F9
330
1F
100
AcDbEntity
  8
0
  6
SLD-実線
 62
     7
370
    25
100
AcDbLine
 10
702.6671595693
 20
280.6026833709
 30
0.0
 11
696.1671575725
 21
284.3554607238
 31
0.0
  0
LINE
  5
2FA
330
1F
100
AcDbEntity
  8
0
  6
SLD-実線
 62
     7
370
    25
100
AcDbLine
 10
651.4926404514
 20
433.8499000873
 30
0.0
 11
645.6671586082
 21
433.8499000873
 31
0.0
  0
LINE
  5
2FB
330
1F
100
AcDbEntity
  8
0
  6
SLD-実線
 62
     7
370
    25
100
AcDbLine
 10
665.6671581611
 20
433.8499000873
 30
0.0
 11
651.4926404514
 21
433.8499000873
 31
0.0
  0
CIRCLE
  5
2FC
330
1F
100
AcDbEntity
  8
0
  6
SLD-実線
 62
     7
370
    25
100
AcDbCircle
 10
698.6671584666
 20
374.8499071206
 30
0.0
 40
9.999999999999998
  0
CIRCLE
  5
2FD
330
1F
100
AcDbEntity
  8
0
  6
SLD-実線
 62
     7
370
    25
100
AcDbCircle
 10
613.6671584666
 20
374.8499071206
 30
0.0
 40
9.999999999999945
  0
LINE
  5
2FE
330
1F
100
AcDbEntity
  8
0
  6
SLD-実線
 62
     7
370
    25
100
AcDbLine
 10
738.8634994447
 20
433.8499000873
 30
0.0
 11
730.6671604335
 21
433.8499000873
 31
0.0
  0
LINE
  5
2FF
330
1F
100
AcDbEntity
  8
0
  6
SLD-実線
 62
     7
370
    25
100
AcDbLine
 10
750.6671562612
 20
433.8499000873
 30
0.0
 11
738.8634994447
 21
433.8499000873
 31
0.0
  0
LINE
  5
300
330
1F
100
AcDbEntity
  8
0
  6
SLD-実線
 62
     7
370
    25
100
AcDbLine
 10
740.6671583474
 20
440.8499142732
 30
0.0
 11
740.6671583474
 21
433.8499000873
 31
0.0
  0
LINE
  5
301
330
1F
100
AcDbEntity
  8
0
  6
SLD-実線
 62
     7
370
    25
100
AcDbLine
 10
740.6671583474
 20
440.8499142732
 30
0.0
 11
749.167160672
 21
440.8499142732
 31
0.0
  0
LINE
  5
302
330
1F
100
AcDbEntity
  8
0
  6
SLD-実線
 62
     7
370
    25
100
AcDbLine
 10
749.167160672
 20
440.8499142732
 30
0.0
 11
749.167160672
 21
433.8499000873
 31
0.0
  0
LINE
  5
303
330
1F
100
AcDbEntity
  8
0
  6
SLD-実線
 62
     7
370
    25
100
AcDbLine
 10
732.1671560228
 20
440.8499142732
 30
0.0
 11
732.1671560228
 21
433.8499000873
 31
0.0
  0
LINE
  5
304
330
1F
100
AcDbEntity
  8
0
  6
SLD-実線
 62
     7
370
    25
100
AcDbLine
 10
732.1671560228
 20
440.8499142732
 30
0.0
 11
740.6671583474
 21
440.8499142732
 31
0.0
  0
LINE
  5
305
330
1F
100
AcDbEntity
  8
0
  6
SLD-実線
 62
     7
370
    25
100
AcDbLine
 10
655.6671584428
 20
440.8499142732
 30
0.0
 11
655.6671584428
 21
433.8499000873
 31
0.0
  0
LINE
  5
306
330
1F
100
AcDbEntity
  8
0
  6
SLD-実線
 62
     7
370
    25
100
AcDbLine
 10
655.6671584428
 20
440.8499142732
 30
0.0
 11
664.1671588466
 21
440.8499142732
 31
0.0
  0
LINE
  5
307
330
1F
100
AcDbEntity
  8
0
  6
SLD-実線
 62
     7
370
    25
100
AcDbLine
 10
664.1671588466
 20
440.8499142732
 30
0.0
 11
664.1671588466
 21
433.8499000873
 31
0.0
  0
LINE
  5
308
330
1F
100
AcDbEntity
  8
0
  6
SLD-実線
 62
     7
370
    25
100
AcDbLine
 10
647.167158854
 20
440.8499142732
 30
0.0
 11
647.167158854
 21
433.8499000873
 31
0.0
  0
LINE
  5
309
330
1F
100
AcDbEntity
  8
0
  6
SLD-実線
 62
     7
370
    25
100
AcDbLine
 10
647.167158854
 20
440.8499142732
 30
0.0
 11
655.6671584428
 21
440.8499142732
 31
0.0
  0
LINE
  5
30A
330
1F
100
AcDbEntity
  8
0
  6
SLD-実線
 62
     7
370
    25
100
AcDbLine
 10
605.1671594203
 20
379.757381102
 30
0.0
 11
605.1671594203
 21
369.9424332585
 31
0.0
  0
LINE
  5
30B
330
1F
100
AcDbEntity
  8
0
  6
SLD-実線
 62
     7
370
    25
100
AcDbLine
 10
613.6671580196
 20
384.6648624744
 30
0.0
 11
605.1671594203
 21
379.757381102
 31
0.0
  0
LINE
  5
30C
330
1F
100
AcDbEntity
  8
0
  6
SLD-実線
 62
     7
370
    25
100
AcDbLine
 10
622.1671566188
 20
379.757381102
 30
0.0
 11
613.6671580196
 21
384.6648624744
 31
0.0
  0
LINE
  5
30D
330
1F
100
AcDbEntity
  8
0
  6
SLD-実線
 62
     7
370
    25
100
AcDbLine
 10
622.1671566188
 20
369.9424332585
 30
0.0
 11
622.1671566188
 21
379.757381102
 31
0.0
  0
LINE
  5
30E
330
1F
100
AcDbEntity
  8
0
  6
SLD-実線
 62
     7
370
    25
100
AcDbLine
 10
613.6671580196
 20
365.0349518861
 30
0.0
 11
622.1671566188
 21
369.9424332585
 31
0.0
  0
LINE
  5
30F
330
1F
100
AcDbEntity
  8
0
  6
SLD-実線
 62
     7
370
    25
100
AcDbLine
 10
605.1671594203
 20
369.9424332585
 30
0.0
 11
613.6671580196
 21
365.0349518861
 31
0.0
  0
LINE
  5
310
330
1F
100
AcDbEntity
  8
0
  6
SLD-実線
 62
     7
370
    25
100
AcDbLine
 10
690.1671603143
 20
369.9424332585
 30
0.0
 11
698.6671589136
 21
365.0349518861
 31
0.0
  0
LINE
  5
311
330
1F
100
AcDbEntity
  8
0
  6
SLD-実線
 62
     7
370
    25
100
AcDbLine
 10
690.1671603143
 20
379.757381102
 30
0.0
 11
690.1671603143
 21
369.9424332585
 31
0.0
  0
LINE
  5
312
330
1F
100
AcDbEntity
  8
0
  6
SLD-実線
 62
     7
370
    25
100
AcDbLine
 10
698.6671589136
 20
384.6648624744
 30
0.0
 11
690.1671603143
 21
379.757381102
 31
0.0
  0
LINE
  5
313
330
1F
100
AcDbEntity
  8
0
  6
SLD-実線
 62
     7
370
    25
100
AcDbLine
 10
707.1671575129
 20
379.757381102
 30
0.0
 11
698.6671589136
 21
384.6648624744
 31
0.0
  0
LINE
  5
314
330
1F
100
AcDbEntity
  8
0
  6
SLD-実線
 62
     7
370
    25
100
AcDbLine
 10
698.6671589136
 20
365.0349518861
 30
0.0
 11
707.1671575129
 21
369.9424332585
 31
0.0
  0
LINE
  5
315
330
1F
100
AcDbEntity
  8
0
  6
SLD-実線
 62
     7
370
    25
100
AcDbLine
 10
707.1671575129
 20
369.9424332585
 30
0.0
 11
707.1671575129
 21
379.757381102
 31
0.0
  0
CIRCLE
  5
316
330
1F
100
AcDbEntity
  8
0
  6
SLD-実線
 62
     7
370
    25
100
AcDbCircle
 10
635.4616348584
 20
183.5758410175
 30
0.0
 40
16.15549442140355
  0
SPLINE
  5
317
330
1F
100
AcDbEntity
  8
0
  6
SLD-実線
 62
     7
370
    25
100
AcDbSpline
210
0.0
220
0.0
230
1.0
 70
     8
 71
     3
 72
    13
 73
     9
 74
     0
 42
0.000000001
 43
0.00000001
 40
0.0
 40
0.0
 40
0.0
 40
0.0
 40
0.0073930869841221
 40
0.1733114376420094
 40
0.3886436891091328
 40
0.5950354090464011
 40
0.7974515349615069
 40
1.0
 40
1.0
 40
1.0
 40
1.0
 10
648.9519067861303
 20
195.4927435721566
 30
0.0
 10
648.9529284571202
 20
195.4944323094975
 30
0.0
 10
648.976878840558
 20
195.5340203052809
 30
0.0
 10
649.0305491449719
 20
195.6230199882334
 30
0.0
 10
649.1059173576036
 20
195.7486394638309
 30
0.0
 10
649.1698904166321
 20
195.8558265631019
 30
0.0
 10
649.2128754765328
 20
195.9281285032114
 30
0.0
 10
649.2184122084665
 20
195.9374537454524
 30
0.0
 10
649.2211814791127
 20
195.9421178902795
 30
0.0
  0
ARC
  5
318
330
1F
100
AcDbEntity
  8
0
  6
SLD-実線
 62
     7
370
    25
100
AcDbCircle
 10
635.4616348584
 20
183.5758410175
 30
0.0
 40
18.49999999999997
100
AcDbArc
 50
18.0526413859
 51
41.9473586141
  0
SPLINE
  5
319
330
1F
100
AcDbEntity
  8
0
  6
SLD-実線
 62
     7
370
    25
100
AcDbSpline
210
0.0
220
0.0
230
1.0
 70
     8
 71
     3
 72
    13
 73
     9
 74
     0
 42
0.000000001
 43
0.00000001
 40
0.0
 40
0.0
 40
0.0
 40
0.0
 40
0.2025497267836205
 40
0.4049646090221128
 40
0.6113547718626138
 40
0.8266855661211222
 40
0.9926048418864799
 40
1.0
 40
1.0
 40
1.0
 40
1.0
 10
653.0509205356403
 20
189.3088212813546
 30
0.0
 10
653.0454941297112
 20
189.3087561604266
 30
0.0
 10
653.0346449304038
 20
189.3086259619239
 30
0.0
 10
652.9505419279794
 20
189.3075401283758
 30
0.0
 10
652.825729470305
 20
189.3057358908609
 30
0.0
 10
652.679256395679
 20
189.3032848929595
 30
0.0
 10
652.5753453572452
 20
189.3012768134744
 30
0.0
 10
652.529084850026
 20
189.3003450261884
 30
0.0
 10
652.5271109592333
 20
189.3003052677323
 30
0.0
  0
ARC
  5
31A
330
1F
100
AcDbEntity
  8
0
  6
SLD-実線
 62
     7
370
    25
100
AcDbCircle
 10
672.2116348584
 20
183.5758410175
 30
0.0
 40
20.00000000000005
100
AcDbArc
 50
163.3425657624
 51
196.6574342376
  0
SPLINE
  5
31B
330
1F
100
AcDbEntity
  8
0
  6
SLD-実線
 62
     7
370
    25
100
AcDbSpline
210
0.0
220
0.0
230
1.0
 70
     8
 71
     3
 72
    13
 73
     9
 74
     0
 42
0.000000001
 43
0.00000001
 40
0.0
 40
0.0
 40
0.0
 40
0.0
 40
0.2025497541328657
 40
0.4049646040661238
 40
0.6113548964464086
 40
0.8266857197799239
 40
0.9926048408879499
 40
1.0
 40
1.0
 40
1.0
 40
1.0
 10
653.0509205356403
 20
177.8428620304276
 30
0.0
 10
653.0454941343378
 20
177.8429281862425
 30
0.0
 10
653.0346449458784
 20
177.8430604538106
 30
0.0
 10
652.9505418778493
 20
177.8441306755743
 30
0.0
 10
652.825729495307
 20
177.8459498388511
 30
0.0
 10
652.679256519468
 20
177.8484020639006
 30
0.0
 10
652.5753453085084
 20
177.850398973751
 30
0.0
 10
652.5290848499657
 20
177.8513308319469
 30
0.0
 10
652.5271109592333
 20
177.8513705934693
 30
0.0
  0
ARC
  5
31C
330
1F
100
AcDbEntity
  8
0
  6
SLD-実線
 62
     7
370
    25
100
AcDbCircle
 10
635.4616348584
 20
183.5758410175
 30
0.0
 40
18.5
100
AcDbArc
 50
318.0526413859
 51
341.9473586141
  0
SPLINE
  5
31D
330
1F
100
AcDbEntity
  8
0
  6
SLD-実線
 62
     7
370
    25
100
AcDbSpline
210
0.0
220
0.0
230
1.0
 70
     8
 71
     3
 72
    13
 73
     9
 74
     0
 42
0.000000001
 43
0.00000001
 40
0.0
 40
0.0
 40
0.0
 40
0.0
 40
0.2025495461988251
 40
0.404965397684356
 40
0.6113568378020607
 40
0.8266887973283221
 40
0.9926069230391985
 40
1.0
 40
1.0
 40
1.0
 40
1.0
 10
649.2211814791127
 20
171.2095579709222
 30
0.0
 10
649.218412235607
 20
171.2142252188339
 30
0.0
 10
649.2128755764608
 20
171.223556633997
 30
0.0
 10
649.1698904153728
 20
171.295856205364
 30
0.0
 10
649.1059173579646
 20
171.4030440037365
 30
0.0
 10
649.030549144893
 20
171.5286632894924
 30
0.0
 10
648.9768788405586
 20
171.6176630067314
 30
0.0
 10
648.9529284571202
 20
171.6572510022941
 30
0.0
 10
648.9519067861303
 20
171.6589397396256
 30
0.0
  0
ARC
  5
31E
330
1F
100
AcDbEntity
  8
0
  6
SLD-実線
 62
     7
370
    25
100
AcDbCircle
 10
653.8366348584
 20
151.7494074284
 30
0.0
 40
19.99999999999999
100
AcDbArc
 50
103.3425657624
 51
136.6574342376
  0
SPLINE
  5
31F
330
1F
100
AcDbEntity
  8
0
  6
SLD-実線
 62
     7
370
    25
100
AcDbSpline
210
0.0
220
0.0
230
1.0
 70
     8
 71
     3
 72
    13
 73
     9
 74
     0
 42
0.000000001
 43
0.00000001
 40
0.0
 40
0.0
 40
0.0
 40
0.0
 40
0.2025501773554131
 40
0.4049647397677802
 40
0.6113533074276125
 40
0.8266855314126357
 40
0.9926077402904689
 40
0.9999999999999999
 40
0.9999999999999999
 40
0.9999999999999999
 40
0.9999999999999999
 10
639.2913736224338
 20
165.4765820707489
 30
0.0
 10
639.2887166995465
 20
165.4813152233554
 30
0.0
 10
639.2834046326819
 20
165.4907783595449
 30
0.0
 10
639.2422859589212
 20
165.5641510156089
 30
0.0
 10
639.1814495770342
 20
165.6731468316898
 30
0.0
 10
639.1103317052996
 20
165.8012211494111
 30
0.0
 10
639.0601211138131
 20
165.8922184887493
 30
0.0
 10
639.0377918325745
 20
165.9327439006996
 30
0.0
 10
639.036839437501
 20
165.9344724024941
 30
0.0
  0
SPLINE
  5
320
330
1F
100
AcDbEntity
  8
0
  6
SLD-実線
 62
     7
370
    25
100
AcDbSpline
210
0.0
220
0.0
230
1.0
 70
     8
 71
     3
 72
    13
 73
     9
 74
     0
 42
0.000000001
 43
0.00000001
 40
0.0
 40
0.0
 40
0.0
 40
0.0
 40
0.0073963437728712
 40
0.1733147430368458
 40
0.3886435396725533
 40
0.5950353946803424
 40
0.7974502336576641
 40
0.9999999999999999
 40
0.9999999999999999
 40
0.9999999999999999
 40
0.9999999999999999
 10
639.036839437501
 20
201.2172109092881
 30
0.0
 10
639.0377918193519
 20
201.2189406600102
 30
0.0
 10
639.0601084964599
 20
201.2594730245313
 30
0.0
 10
639.1103390265017
 20
201.3504584751634
 30
0.0
 10
639.1814489258811
 20
201.4785340146278
 30
0.0
 10
639.2422858547776
 20
201.587532190962
 30
0.0
 10
639.2834045600011
 20
201.660905731647
 30
0.0
 10
639.2887166783202
 20
201.6703658703915
 30
0.0
 10
639.2913736224338
 20
201.6750975157429
 30
0.0
  0
ARC
  5
321
330
1F
100
AcDbEntity
  8
0
  6
SLD-実線
 62
     7
370
    25
100
AcDbCircle
 10
653.8366348584
 20
215.4022746066
 30
0.0
 40
19.99999999999999
100
AcDbArc
 50
223.3425657624
 51
256.6574342376
  0
SPLINE
  5
322
330
1F
100
AcDbEntity
  8
0
  6
SLD-実線
 62
     7
370
    25
100
AcDbSpline
210
0.0
220
0.0
230
1.0
 70
     8
 71
     3
 72
    13
 73
     9
 74
     0
 42
0.000000001
 43
0.00000001
 40
0.0
 40
0.0
 40
0.0
 40
0.0
 40
0.0073952244710664
 40
0.1733136707185813
 40
0.3886425283294984
 40
0.5950352800054726
 40
0.7974501763011254
 40
1.0
 40
1.0
 40
1.0
 40
1.0
 10
631.8864296943112
 20
201.2172109092881
 30
0.0
 10
631.8854779448244
 20
201.2189406663344
 30
0.0
 10
631.8631728480964
 20
201.2594790630147
 30
0.0
 10
631.8129256254456
 20
201.3504550269288
 30
0.0
 10
631.7418243612872
 20
201.4785353203844
 30
0.0
 10
631.6809823139549
 20
201.5875316745824
 30
0.0
 10
631.6398648248022
 20
201.6609058348275
 30
0.0
 10
631.6345525378412
 20
201.6703659047926
 30
0.0
 10
631.6318955093785
 20
201.6750975157429
 30
0.0
  0
ARC
  5
323
330
1F
100
AcDbEntity
  8
0
  6
SLD-実線
 62
     7
370
    25
100
AcDbCircle
 10
635.4616348584
 20
183.5758410175
 30
0.0
 40
18.50000000000004
100
AcDbArc
 50
78.0526413859
 51
101.9473586141
  0
ARC
  5
324
330
1F
100
AcDbEntity
  8
0
  6
SLD-実線
 62
     7
370
    25
100
AcDbCircle
 10
635.4616348584
 20
183.5758410175
 30
0.0
 40
18.50000000000002
100
AcDbArc
 50
258.0526413859
 51
281.9473586141
  0
SPLINE
  5
325
330
1F
100
AcDbEntity
  8
0
  6
SLD-実線
 62
     7
370
    25
100
AcDbSpline
210
0.0
220
0.0
230
1.0
 70
     8
 71
     3
 72
    13
 73
     9
 74
     0
 42
0.000000001
 43
0.00000001
 40
0.0
 40
0.0
 40
0.0
 40
0.0
 40
0.2025502348347153
 40
0.4049648546879001
 40
0.611354319151019
 40
0.8266866042426091
 40
0.9926088602055296
 40
1.0
 40
1.0
 40
1.0
 40
1.0
 10
631.6318955093785
 20
165.476582070749
 30
0.0
 10
631.634552516624
 20
165.4813151889346
 30
0.0
 10
631.6398647521492
 20
165.4907782563056
 30
0.0
 10
631.6809822097107
 20
165.564151532222
 30
0.0
 10
631.7418237105222
 20
165.6731455250257
 30
0.0
 10
631.8129329450627
 20
165.8012246009689
 30
0.0
 10
631.8631602332732
 20
165.8922124445346
 30
0.0
 10
631.8854779315957
 20
165.9327438943743
 30
0.0
 10
631.8864296943112
 20
165.9344724024941
 30
0.0
  0
ARC
  5
326
330
1F
100
AcDbEntity
  8
0
  6
SLD-実線
 62
     7
370
    25
100
AcDbCircle
 10
617.0866348584
 20
151.7494074284
 30
0.0
 40
19.99999999999996
100
AcDbArc
 50
43.3425657624
 51
76.6574342376
  0
SPLINE
  5
327
330
1F
100
AcDbEntity
  8
0
  6
SLD-実線
 62
     7
370
    25
100
AcDbSpline
210
0.0
220
0.0
230
1.0
 70
     8
 71
     3
 72
    13
 73
     9
 74
     0
 42
0.000000001
 43
0.00000001
 40
0.0
 40
0.0
 40
0.0
 40
0.0
 40
0.2025497679501423
 40
0.4049645806234246
 40
0.6113557696638074
 40
0.8266885187059727
 40
0.9926063221995494
 40
1.0
 40
1.0
 40
1.0
 40
1.0
 10
621.7020876526996
 20
171.2095579709222
 30
0.0
 10
621.7048581769869
 20
171.2142251830377
 30
0.0
 10
621.7103973796111
 20
171.2235564975889
 30
0.0
 10
621.7533770399483
 20
171.2958562223068
 30
0.0
 10
621.8173494154792
 20
171.4030449434952
 30
0.0
 10
621.8927232798205
 20
171.5286609733029
 30
0.0
 10
621.9463849381909
 20
171.6176662444134
 30
0.0
 10
621.9703408242171
 20
171.6572510057409
 30
0.0
 10
621.9713628113433
 20
171.6589397396256
 30
0.0
  0
SPLINE
  5
328
330
1F
100
AcDbEntity
  8
0
  6
SLD-実線
 62
     7
370
    25
100
AcDbSpline
210
0.0
220
0.0
230
1.0
 70
     8
 71
     3
 72
    13
 73
     9
 74
     0
 42
0.000000001
 43
0.00000001
 40
0.0
 40
0.0
 40
0.0
 40
0.0
 40
0.007393687824572
 40
0.1733117162644099
 40
0.3886447572481015
 40
0.5950362261073183
 40
0.7974513132083859
 40
1.0
 40
1.0
 40
1.0
 40
1.0
 10
621.9713628113433
 20
195.4927435721566
 30
0.0
 10
621.9703408242171
 20
195.4944323060507
 30
0.0
 10
621.9463849381915
 20
195.5340170675992
 30
0.0
 10
621.8927232797414
 20
195.6230223044228
 30
0.0
 10
621.817349415841
 20
195.7486385240725
 30
0.0
 10
621.7533770386864
 20
195.855826546162
 30
0.0
 10
621.7103974795365
 20
195.9281286396053
 30
0.0
 10
621.7048582041239
 20
195.9374537812502
 30
0.0
 10
621.7020876526996
 20
195.9421178902794
 30
0.0
  0
ARC
  5
329
330
1F
100
AcDbEntity
  8
0
  6
SLD-実線
 62
     7
370
    25
100
AcDbCircle
 10
617.0866348584
 20
215.4022746066
 30
0.0
 40
20.00000000000002
100
AcDbArc
 50
283.3425657624
 51
316.6574342376
  0
ARC
  5
32A
330
1F
100
AcDbEntity
  8
0
  6
SLD-実線
 62
     7
370
    25
100
AcDbCircle
 10
635.4616348584
 20
183.5758410175
 30
0.0
 40
18.50000000000002
100
AcDbArc
 50
198.0526413859
 51
221.9473586141
  0
SPLINE
  5
32B
330
1F
100
AcDbEntity
  8
0
  6
SLD-実線
 62
     7
370
    25
100
AcDbSpline
210
0.0
220
0.0
230
1.0
 70
     8
 71
     3
 72
    13
 73
     9
 74
     0
 42
0.000000001
 43
0.00000001
 40
0.0
 40
0.0
 40
0.0
 40
0.0
 40
0.0073922711299889
 40
0.1733106517944189
 40
0.3886433396661388
 40
0.5950337143767225
 40
0.7974493487021237
 40
0.9999999999999999
 40
0.9999999999999999
 40
0.9999999999999999
 40
0.9999999999999999
 10
618.3961570084258
 20
177.8513705934693
 30
0.0
 10
618.3941838937349
 20
177.8513308315996
 30
0.0
 10
618.3479245253841
 20
177.8503986207218
 30
0.0
 10
618.2440141498985
 20
177.8484022402631
 30
0.0
 10
618.0975407987166
 20
177.8459497978546
 30
0.0
 10
617.9727286175387
 20
177.8441306844101
 30
0.0
 10
617.8886254338953
 20
177.8430604511021
 30
0.0
 10
617.8777747937434
 20
177.8429281853517
 30
0.0
 10
617.8723476648494
 20
177.8428620304276
 30
0.0
  0
ARC
  5
32C
330
1F
100
AcDbEntity
  8
0
  6
SLD-実線
 62
     7
370
    25
100
AcDbCircle
 10
598.7116348584
 20
183.5758410175
 30
0.0
 40
20.00000000000012
100
AcDbArc
 50
343.3425657624
 51
16.6574342376
  0
SPLINE
  5
32D
330
1F
100
AcDbEntity
  8
0
  6
SLD-実線
 62
     7
370
    25
100
AcDbSpline
210
0.0
220
0.0
230
1.0
 70
     8
 71
     3
 72
    13
 73
     9
 74
     0
 42
0.000000001
 43
0.00000001
 40
0.0
 40
0.0
 40
0.0
 40
0.0
 40
0.0073922701318393
 40
0.1733108054551599
 40
0.3886434642513477
 40
0.5950337094214099
 40
0.7974493760517476
 40
1.0
 40
1.0
 40
1.0
 40
1.0
 10
618.3961570084258
 20
189.3003052677323
 30
0.0
 10
618.3941838936745
 20
189.300345026538
 30
0.0
 10
618.3479244766478
 20
189.3012771665335
 30
0.0
 10
618.2440142736904
 20
189.3032847166921
 30
0.0
 10
618.0975408237184
 20
189.3057359318653
 30
0.0
 10
617.9727285674086
 20
189.3075401195494
 30
0.0
 10
617.8886254493701
 20
189.3086259646366
 30
0.0
 10
617.8777747983701
 20
189.308756161319
 30
0.0
 10
617.8723476648494
 20
189.3088212813546
 30
0.0
  0
ARC
  5
32E
330
1F
100
AcDbEntity
  8
0
  6
SLD-実線
 62
     7
370
    25
100
AcDbCircle
 10
635.4616348584
 20
183.5758410175
 30
0.0
 40
18.50000000000003
100
AcDbArc
 50
138.0526413859
 51
161.9473586141
  0
LINE
  5
32F
330
1F
100
AcDbEntity
  8
0
  6
SLD-実線
 62
     7
370
    25
100
AcDbLine
 10
566.9475808561
 20
423.849909624
 30
0.0
 11
565.6671613276
 21
423.849909624
 31
0.0
  0
LINE
  5
330
330
1F
100
AcDbEntity
  8
0
  6
SLD-実線
 62
     7
370
    25
100
AcDbLine
 10
566.9475808561
 20
429.8499068822
 30
0.0
 11
581.5159991205
 21
429.8499068822
 31
0.0
  0
LINE
  5
331
330
1F
100
AcDbEntity
  8
0
  6
SLD-実線
 62
     7
370
    25
100
AcDbLine
 10
596.8183219254
 20
423.849909624
 30
0.0
 11
581.5159991205
 21
423.849909624
 31
0.0
  0
LINE
  5
332
330
1F
100
AcDbEntity
  8
0
  6
SLD-実線
 62
     7
370
    25
100
AcDbLine
 10
596.8183219254
 20
429.8499068822
 30
0.0
 11
611.3867364645
 21
429.8499068822
 31
0.0
  0
LINE
  5
333
330
1F
100
AcDbEntity
  8
0
  6
SLD-実線
 62
     7
370
    25
100
AcDbLine
 10
612.6671597183
 20
423.849909624
 30
0.0
 11
611.3867364645
 21
423.849909624
 31
0.0
  0
LINE
  5
334
330
1F
100
AcDbEntity
  8
0
  6
SLD-実線
 62
     7
370
    25
100
AcDbLine
 10
589.1671567977
 20
414.8499062862
 30
0.0
 11
612.6671597183
 21
414.8499062862
 31
0.0
  0
LINE
  5
335
330
1F
100
AcDbEntity
  8
0
  6
SLD-実線
 62
     7
370
    25
100
AcDbLine
 10
565.6671613276
 20
414.8499062862
 30
0.0
 11
589.1671567977
 21
414.8499062862
 31
0.0
  0
LINE
  5
336
330
1F
100
AcDbEntity
  8
0
  6
SLD-実線
 62
     7
370
    25
100
AcDbLine
 10
584.167161566
 20
429.8499068822
 30
0.0
 11
584.167161566
 21
423.849909624
 31
0.0
  0
LINE
  5
337
330
1F
100
AcDbEntity
  8
0
  6
SLD-実線
 62
     7
370
    25
100
AcDbLine
 10
581.5159991205
 20
429.8499068822
 30
0.0
 11
584.167161566
 21
429.8499068822
 31
0.0
  0
LINE
  5
338
330
1F
100
AcDbEntity
  8
0
  6
SLD-実線
 62
     7
370
    25
100
AcDbLine
 10
594.1671594799
 20
423.849909624
 30
0.0
 11
594.1671594799
 21
429.8499068822
 31
0.0
  0
LINE
  5
339
330
1F
100
AcDbEntity
  8
0
  6
SLD-実線
 62
     7
370
    25
100
AcDbLine
 10
594.1671594799
 20
429.8499068822
 30
0.0
 11
596.8183219254
 21
429.8499068822
 31
0.0
  0
LINE
  5
33A
330
1F
100
AcDbEntity
  8
0
  6
SLD-実線
 62
     7
370
    25
100
AcDbLine
 10
566.8386086643
 20
429.8499068822
 30
0.0
 11
566.9475808561
 21
429.8499068822
 31
0.0
  0
LINE
  5
33B
330
1F
100
AcDbEntity
  8
0
  6
SLD-実線
 62
     7
370
    25
100
AcDbLine
 10
611.3867364645
 20
429.8499068822
 30
0.0
 11
611.4957086563
 21
429.8499068822
 31
0.0
  0
LINE
  5
33C
330
1F
100
AcDbEntity
  8
0
  6
SLD-実線
 62
     7
370
    25
100
AcDbLine
 10
612.6671597183
 20
416.8499103393
 30
0.0
 11
643.1671581984
 21
416.8499103393
 31
0.0
  0
LINE
  5
33D
330
1F
100
AcDbEntity
  8
0
  6
SLD-実線
 62
     7
370
    25
100
AcDbLine
 10
748.1671586454
 20
157.4499076809
 30
0.0
 11
740.1671573341
 21
157.4499076809
 31
0.0
  0
LINE
  5
33E
330
1F
100
AcDbEntity
  8
0
  6
SLD-実線
 62
     7
370
    25
100
AcDbLine
 10
748.1671586454
 20
157.4499076809
 30
0.0
 11
748.1671586454
 21
156.8499049749
 31
0.0
  0
LINE
  5
33F
330
1F
100
AcDbEntity
  8
0
  6
SLD-実線
 62
     7
370
    25
100
AcDbLine
 10
564.1671582878
 20
157.4499076809
 30
0.0
 11
564.1671582878
 21
156.8499049749
 31
0.0
  0
LINE
  5
340
330
1F
100
AcDbEntity
  8
0
  6
SLD-実線
 62
     7
370
    25
100
AcDbLine
 10
564.1671582878
 20
157.4499076809
 30
0.0
 11
572.1671595991
 21
157.4499076809
 31
0.0
  0
LINE
  5
341
330
1F
100
AcDbEntity
  8
0
  6
SLD-実線
 62
     7
370
    25
100
AcDbLine
 10
745.1671600163
 20
212.4499073829
 30
0.0
 11
746.1671620429
 21
210.8499063756
 31
0.0
  0
LWPOLYLINE
  5
342
330
1F
100
AcDbEntity
  8
0
  6
SLD-実線
 62
     7
370
    25
100
AcDbPolyline
 90
        4
 70
   128
 43
0.0
 10
746.1671620429
 20
210.8499063756
 10
746.0238352239
 20
210.7925778832
 10
745.5982208073
 20
210.6223321165
 10
745.1671600163
 20
210.4499070551
  0
LINE
  5
343
330
1F
100
AcDbEntity
  8
0
  6
SLD-実線
 62
     7
370
    25
100
AcDbLine
 10
566.1671548903
 20
210.8499063756
 30
0.0
 11
567.1671569169
 21
212.4499073829
 31
0.0
  0
LWPOLYLINE
  5
344
330
1F
100
AcDbEntity
  8
0
  6
SLD-実線
 62
     7
370
    25
100
AcDbPolyline
 90
        4
 70
   128
 43
0.0
 10
567.1671569169
 20
210.4499070551
 10
566.8852791011
 20
210.5626604165
 10
566.3484275162
 20
210.7773973252
 10
566.1671548903
 20
210.8499063756
  0
LINE
  5
345
330
1F
100
AcDbEntity
  8
0
  6
SLD-実線
 62
     7
370
    25
100
AcDbLine
 10
756.1671599567
 20
138.8499057497
 30
0.0
 11
756.1671599567
 21
136.8499091472
 31
0.0
  0
LINE
  5
346
330
1F
100
AcDbEntity
  8
0
  6
SLD-実線
 62
     7
370
    25
100
AcDbLine
 10
756.1671599567
 20
136.8499091472
 30
0.0
 11
733.1671580494
 21
136.8499091472
 31
0.0
  0
LINE
  5
347
330
1F
100
AcDbEntity
  8
0
  6
SLD-実線
 62
     7
370
    25
100
AcDbLine
 10
733.1671580494
 20
138.8499057497
 30
0.0
 11
756.1671599567
 21
138.8499057497
 31
0.0
  0
LINE
  5
348
330
1F
100
AcDbEntity
  8
0
  6
SLD-実線
 62
     7
370
    25
100
AcDbLine
 10
579.1671588838
 20
138.8499057497
 30
0.0
 11
733.1671580494
 21
138.8499057497
 31
0.0
  0
LINE
  5
349
330
1F
100
AcDbEntity
  8
0
  6
SLD-実線
 62
     7
370
    25
100
AcDbLine
 10
579.1671588838
 20
136.8499091472
 30
0.0
 11
733.1671580494
 21
136.8499091472
 31
0.0
  0
LINE
  5
34A
330
1F
100
AcDbEntity
  8
0
  6
SLD-実線
 62
     7
370
    25
100
AcDbLine
 10
556.1671569765
 20
136.8499091472
 30
0.0
 11
556.1671569765
 21
138.8499057497
 31
0.0
  0
LINE
  5
34B
330
1F
100
AcDbEntity
  8
0
  6
SLD-実線
 62
     7
370
    25
100
AcDbLine
 10
556.1671569765
 20
138.8499057497
 30
0.0
 11
579.1671588838
 21
138.8499057497
 31
0.0
  0
LINE
  5
34C
330
1F
100
AcDbEntity
  8
0
  6
SLD-実線
 62
     7
370
    25
100
AcDbLine
 10
579.1671588838
 20
136.8499091472
 30
0.0
 11
556.1671569765
 21
136.8499091472
 31
0.0
  0
ARC
  5
34D
330
1F
100
AcDbEntity
  8
0
  6
SLD-実線
 62
     7
370
    25
100
AcDbCircle
 10
755.1671584666
 20
140.8499071206
 30
0.0
 40
2.0
100
AcDbArc
 50
180.0
 51
270.0
  0
ARC
  5
34E
330
1F
100
AcDbEntity
  8
0
  6
SLD-実線
 62
     7
370
    25
100
AcDbCircle
 10
557.1671584666
 20
140.8499071206
 30
0.0
 40
2.0
100
AcDbArc
 50
270.0
 51
0.0
  0
LINE
  5
34F
330
1F
100
AcDbEntity
  8
0
  6
SLD-実線
 62
     7
370
    25
100
AcDbLine
 10
733.1671580494
 20
156.8499049749
 30
0.0
 11
748.1671586454
 21
156.8499049749
 31
0.0
  0
ARC
  5
350
330
1F
100
AcDbEntity
  8
0
  6
SLD-実線
 62
     7
370
    25
100
AcDbCircle
 10
748.1671584666
 20
151.8499071206
 30
0.0
 40
5.000000000000028
100
AcDbArc
 50
0.0
 51
90.0
  0
LINE
  5
351
330
1F
100
AcDbEntity
  8
0
  6
SLD-実線
 62
     7
370
    25
100
AcDbLine
 10
753.1671613276
 20
151.8499097432
 30
0.0
 11
753.1671613276
 21
140.8499098028
 31
0.0
  0
LINE
  5
352
330
1F
100
AcDbEntity
  8
0
  6
SLD-実線
 62
     7
370
    25
100
AcDbLine
 10
579.1671588838
 20
156.8499049749
 30
0.0
 11
733.1671580494
 21
156.8499049749
 31
0.0
  0
ARC
  5
353
330
1F
100
AcDbEntity
  8
0
  6
SLD-実線
 62
     7
370
    25
100
AcDbCircle
 10
564.1671584666
 20
151.8499071206
 30
0.0
 40
5.000000000000028
100
AcDbArc
 50
90.0
 51
180.0
  0
LINE
  5
354
330
1F
100
AcDbEntity
  8
0
  6
SLD-実線
 62
     7
370
    25
100
AcDbLine
 10
564.1671582878
 20
156.8499049749
 30
0.0
 11
579.1671588838
 21
156.8499049749
 31
0.0
  0
LINE
  5
355
330
1F
100
AcDbEntity
  8
0
  6
SLD-実線
 62
     7
370
    25
100
AcDbLine
 10
559.1671556056
 20
140.8499098028
 30
0.0
 11
559.1671556056
 21
151.8499097432
 31
0.0
  0
LINE
  5
356
330
1F
100
AcDbEntity
  8
0
  6
SLD-実線
 62
     7
370
    25
100
AcDbLine
 10
643.6671582803
 20
160.0499069895
 30
0.0
 11
643.6671582803
 21
156.8499049749
 31
0.0
  0
LINE
  5
357
330
1F
100
AcDbEntity
  8
0
  6
SLD-実線
 62
     7
370
    25
100
AcDbLine
 10
668.6671586529
 20
160.0499069895
 30
0.0
 11
643.6671582803
 21
160.0499069895
 31
0.0
  0
LINE
  5
358
330
1F
100
AcDbEntity
  8
0
  6
SLD-実線
 62
     7
370
    25
100
AcDbLine
 10
668.6671586529
 20
160.0499069895
 30
0.0
 11
668.6671586529
 21
156.8499049749
 31
0.0
  0
LINE
  5
359
330
1F
100
AcDbEntity
  8
0
  6
SLD-実線
 62
     7
370
    25
100
AcDbLine
 10
643.6671582803
 20
164.6601623501
 30
0.0
 11
643.6671582803
 21
160.0499069895
 31
0.0
  0
LINE
  5
35A
330
1F
100
AcDbEntity
  8
0
  6
SLD-実線
 62
     7
370
    25
100
AcDbLine
 10
668.6671586529
 20
164.6586945857
 30
0.0
 11
668.6671586529
 21
160.0499069895
 31
0.0
  0
LINE
  5
35B
330
1F
100
AcDbEntity
  8
0
  6
SLD-実線
 62
     7
370
    25
100
AcDbLine
 10
645.8844277829
 20
415.8499083127
 30
0.0
 11
750.4498898804
 21
415.8499083127
 31
0.0
  0
LINE
  5
35C
330
1F
100
AcDbEntity
  8
0
  6
SLD-実線
 62
     7
370
    25
100
AcDbLine
 10
645.8844277829
 20
413.8499042596
 30
0.0
 11
750.4498898804
 21
413.8499042596
 31
0.0
  0
LINE
  5
35D
330
1F
100
AcDbEntity
  8
0
  6
SLD-実線
 62
     7
370
    25
100
AcDbLine
 10
750.4498898804
 20
415.8499083127
 30
0.0
 11
753.1671613276
 21
415.8499083127
 31
0.0
  0
LINE
  5
35E
330
1F
100
AcDbEntity
  8
0
  6
SLD-実線
 62
     7
370
    25
100
AcDbLine
 10
750.4498898804
 20
413.8499042596
 30
0.0
 11
753.1671613276
 21
413.8499042596
 31
0.0
  0
LINE
  5
35F
330
1F
100
AcDbEntity
  8
0
  6
SLD-実線
 62
     7
370
    25
100
AcDbLine
 10
643.1671581984
 20
415.8499083127
 30
0.0
 11
645.8844277829
 21
415.8499083127
 31
0.0
  0
LINE
  5
360
330
1F
100
AcDbEntity
  8
0
  6
SLD-実線
 62
     7
370
    25
100
AcDbLine
 10
643.1671581984
 20
413.8499042596
 30
0.0
 11
645.8844277829
 21
413.8499042596
 31
0.0
  0
LINE
  5
361
330
1F
100
AcDbEntity
  8
0
  6
SLD-実線
 62
     7
370
    25
100
AcDbLine
 10
750.4498898804
 20
416.2499001826
 30
0.0
 11
698.1671579003
 21
416.2499001826
 31
0.0
  0
LINE
  5
362
330
1F
100
AcDbEntity
  8
0
  6
SLD-実線
 62
     7
370
    25
100
AcDbLine
 10
698.1671579003
 20
416.2499001826
 30
0.0
 11
645.8844277829
 21
416.2499001826
 31
0.0
  0
LINE
  5
363
330
1F
100
AcDbEntity
  8
0
  6
SLD-実線
 62
     7
370
    25
100
AcDbLine
 10
668.1883349836
 20
440.8499142732
 30
0.0
 11
728.1459808171
 21
440.8499142732
 31
0.0
  0
LINE
  5
364
330
1F
100
AcDbEntity
  8
0
  6
SLD-実線
 62
     7
370
    25
100
AcDbLine
 10
719.8230266392
 20
432.8611782397
 30
0.0
 11
720.3222527921
 21
432.8499129619
 31
0.0
  0
LINE
  5
365
330
1F
100
AcDbEntity
  8
0
  6
SLD-実線
 62
     7
370
    25
100
AcDbLine
 10
676.0120667339
 20
432.8499129619
 30
0.0
 11
676.7668459386
 21
432.8715196456
 31
0.0
  0
LINE
  5
366
330
1F
100
AcDbEntity
  8
0
  6
SLD-実線
 62
     7
370
    25
100
AcDbLine
 10
720.3222527921
 20
432.8499129619
 30
0.0
 11
748.8846495569
 21
432.8499129619
 31
0.0
  0
LINE
  5
367
330
1F
100
AcDbEntity
  8
0
  6
SLD-実線
 62
     7
370
    25
100
AcDbLine
 10
647.4496643812
 20
432.8499129619
 30
0.0
 11
676.0120667339
 21
432.8499129619
 31
0.0
  0
LINE
  5
368
330
1F
100
AcDbEntity
  8
0
  6
SLD-実線
 62
     7
370
    25
100
AcDbLine
 10
728.1789198339
 20
440.8499142732
 30
0.0
 11
728.1459808171
 21
440.8499142732
 31
0.0
  0
LINE
  5
369
330
1F
100
AcDbEntity
  8
0
  6
SLD-実線
 62
     7
370
    25
100
AcDbLine
 10
668.1883349836
 20
440.8499142732
 30
0.0
 11
668.1553941041
 21
440.8499142732
 31
0.0
  0
LINE
  5
36A
330
1F
100
AcDbEntity
  8
0
  6
SLD-実線
 62
     7
370
    25
100
AcDbLine
 10
748.8846495569
 20
432.8499129619
 30
0.0
 11
751.1671572745
 21
432.8499129619
 31
0.0
  0
LINE
  5
36B
330
1F
100
AcDbEntity
  8
0
  6
SLD-実線
 62
     7
370
    25
100
AcDbLine
 10
753.1671613276
 20
416.2499001826
 30
0.0
 11
750.4498898804
 21
416.2499001826
 31
0.0
  0
LINE
  5
36C
330
1F
100
AcDbEntity
  8
0
  6
SLD-実線
 62
     7
370
    25
100
AcDbLine
 10
645.1671585262
 20
432.8499129619
 30
0.0
 11
647.4496643812
 21
432.8499129619
 31
0.0
  0
LINE
  5
36D
330
1F
100
AcDbEntity
  8
0
  6
SLD-実線
 62
     7
370
    25
100
AcDbLine
 10
645.8844277829
 20
416.2499001826
 30
0.0
 11
643.1671581984
 21
416.2499001826
 31
0.0
  0
ARC
  5
36E
330
1F
100
AcDbEntity
  8
0
  6
SLD-実線
 62
     7
370
    25
100
AcDbCircle
 10
698.6671584666
 20
374.8499071206
 30
0.0
 40
12.49999999999992
100
AcDbArc
 50
150.482904178
 51
209.517095822
  0
ARC
  5
36F
330
1F
100
AcDbEntity
  8
0
  6
SLD-実線
 62
     7
370
    25
100
AcDbCircle
 10
685.1789231725
 20
382.4864972399
 30
0.0
 40
3.000000000000016
100
AcDbArc
 50
330.482904178
 51
14.7471001595
  0
ARC
  5
370
330
1F
100
AcDbEntity
  8
0
  6
SLD-実線
 62
     7
370
    25
100
AcDbCircle
 10
685.1789231725
 20
367.2133170013
 30
0.0
 40
3.000000000000016
100
AcDbArc
 50
345.2528998405
 51
29.517095822
  0
ARC
  5
371
330
1F
100
AcDbEntity
  8
0
  6
SLD-実線
 62
     7
370
    25
100
AcDbCircle
 10
656.1671584666
 20
374.8499071206
 30
0.0
 40
33.00000000000009
100
AcDbArc
 50
14.7471001595
 51
165.2528998405
  0
ARC
  5
372
330
1F
100
AcDbEntity
  8
0
  6
SLD-実線
 62
     7
370
    25
100
AcDbCircle
 10
656.1671584666
 20
374.8499071206
 30
0.0
 40
33.00000000000007
100
AcDbArc
 50
194.7471001595
 51
345.2528998405
  0
CIRCLE
  5
373
330
1F
100
AcDbEntity
  8
0
  6
SLD-実線
 62
     7
370
    25
100
AcDbCircle
 10
656.1671584666
 20
374.8499071206
 30
0.0
 40
23.15000000000009
  0
ARC
  5
374
330
1F
100
AcDbEntity
  8
0
  6
SLD-実線
 62
     7
370
    25
100
AcDbCircle
 10
627.1553937607
 20
382.4864972399
 30
0.0
 40
2.999999999999987
100
AcDbArc
 50
165.2528998405
 51
209.517095822
  0
ARC
  5
375
330
1F
100
AcDbEntity
  8
0
  6
SLD-実線
 62
     7
370
    25
100
AcDbCircle
 10
613.6671584666
 20
374.8499071206
 30
0.0
 40
12.50000000000002
100
AcDbArc
 50
330.482904178
 51
29.517095822
  0
ARC
  5
376
330
1F
100
AcDbEntity
  8
0
  6
SLD-実線
 62
     7
370
    25
100
AcDbCircle
 10
627.1553937607
 20
367.2133170013
 30
0.0
 40
2.999999999999987
100
AcDbArc
 50
150.482904178
 51
194.7471001595
  0
SPLINE
  5
377
330
1F
100
AcDbEntity
  8
0
  6
SLD-実線
 62
     7
370
    25
100
AcDbSpline
210
0.0
220
0.0
230
1.0
 70
     8
 71
     3
 72
    11
 73
     7
 74
     0
 42
0.000000001
 43
0.00000001
 40
0.0
 40
0.0
 40
0.0
 40
0.0
 40
0.0210519766141512
 40
0.050084732730638
 40
0.5503689947605521
 40
1.0
 40
1.0
 40
1.0
 40
1.0
 10
656.167158466594
 20
407.8499070014169
 30
0.0
 10
656.1505800492068
 20
407.8499021062078
 30
0.0
 10
656.1111383559565
 20
407.8498904600216
 30
0.0
 10
655.6777380812601
 20
407.8488222608871
 30
0.0
 10
654.9060296955948
 20
407.8507251042814
 30
0.0
 10
654.1606793557999
 20
407.7805560090424
 30
0.0
 10
653.8078767068847
 20
407.7473423089196
 30
0.0
  0
SPLINE
  5
378
330
1F
100
AcDbEntity
  8
0
  6
SLD-実線
 62
     7
370
    25
100
AcDbSpline
210
0.0
220
0.0
230
1.0
 70
     8
 71
     3
 72
    10
 73
     6
 74
     0
 42
0.000000001
 43
0.00000001
 40
0.0
 40
0.0
 40
0.0
 40
0.0
 40
0.2197985247257723
 40
0.7014326857052521
 40
0.9999999999999999
 40
0.9999999999999999
 40
0.9999999999999999
 40
0.9999999999999999
 10
653.4442753352388
 20
407.7186873759438
 30
0.0
 10
652.463951112181
 20
407.6562578099168
 30
0.0
 10
649.3354885644947
 20
407.4570292745096
 30
0.0
 10
644.9248323610566
 20
406.529732317481
 30
0.0
 10
641.6348127744585
 20
405.370291668976
 30
0.0
 10
640.3757888645097
 20
404.9265971984078
 30
0.0
  0
SPLINE
  5
379
330
1F
100
AcDbEntity
  8
0
  6
SLD-実線
 62
     7
370
    25
100
AcDbSpline
210
0.0
220
0.0
230
1.0
 70
     8
 71
     3
 72
    11
 73
     7
 74
     0
 42
0.000000001
 43
0.00000001
 40
0.0
 40
0.0
 40
0.0
 40
0.0
 40
0.0210519808864858
 40
0.0500847369157157
 40
0.5503691507708017
 40
1.0
 40
1.0
 40
1.0
 40
1.0
 10
656.167158466594
 20
341.8499073590447
 30
0.0
 10
656.1837368832042
 20
341.8499126492307
 30
0.0
 10
656.223178569898
 20
341.8499252351043
 30
0.0
 10
656.6565790041129
 20
341.8509300604027
 30
0.0
 10
657.4282867360288
 20
341.8491142865138
 30
0.0
 10
658.1736374982816
 20
341.9192613436737
 30
0.0
 10
658.526440226303
 20
341.9524646009614
 30
0.0
  0
SPLINE
  5
37A
330
1F
100
AcDbEntity
  8
0
  6
SLD-実線
 62
     7
370
    25
100
AcDbSpline
210
0.0
220
0.0
230
1.0
 70
     8
 71
     3
 72
    10
 73
     6
 74
     0
 42
0.000000001
 43
0.00000001
 40
0.0
 40
0.0
 40
0.0
 40
0.0
 40
0.2197984379571217
 40
0.7014323932382442
 40
1.0
 40
1.0
 40
1.0
 40
1.0
 10
658.8900415979489
 20
341.9811344350983
 30
0.0
 10
659.8703657454099
 20
342.0435615128197
 30
0.0
 10
662.9988279824208
 20
342.2427821029929
 30
0.0
 10
667.4094888769549
 20
343.1700682991096
 30
0.0
 10
670.6995045594659
 20
344.3295239974931
 30
0.0
 10
671.958528068678
 20
344.7732246126344
 30
0.0
  0
SPLINE
  5
37B
330
1F
100
AcDbEntity
  8
0
  6
SLD-実線
 62
     7
370
    25
100
AcDbSpline
210
0.0
220
0.0
230
1.0
 70
     8
 71
     3
 72
    13
 73
     9
 74
     0
 42
0.000000001
 43
0.00000001
 40
0.0
 40
0.0
 40
0.0
 40
0.0
 40
0.248089642569165
 40
0.6482956970354584
 40
0.9193929073773139
 40
0.9926645855260418
 40
0.9969167319043426
 40
1.0
 40
1.0
 40
1.0
 40
1.0
 10
671.958528068678
 20
404.9265971984078
 30
0.0
 10
670.6996453679669
 20
405.372929765342
 30
0.0
 10
667.4099947824297
 20
406.5392641579981
 30
0.0
 10
662.5262115678017
 20
407.4984130496568
 30
0.0
 10
658.5311679386783
 20
407.8195190880422
 30
0.0
 10
656.6565888327757
 20
407.8490087671671
 30
0.0
 10
656.223178327559
 20
407.8498864475585
 30
0.0
 10
656.1837367862502
 20
407.8499009187807
 30
0.0
 10
656.167158466594
 20
407.8499070014169
 30
0.0
  0
SPLINE
  5
37C
330
1F
100
AcDbEntity
  8
0
  6
SLD-実線
 62
     7
370
    25
100
AcDbSpline
210
0.0
220
0.0
230
1.0
 70
     8
 71
     3
 72
    13
 73
     9
 74
     0
 42
0.000000001
 43
0.00000001
 40
0.0
 40
0.0
 40
0.0
 40
0.0
 40
0.2480898832363245
 40
0.6482957629843228
 40
0.919392917489249
 40
0.9926645879126123
 40
0.9969167325393812
 40
1.0
 40
1.0
 40
1.0
 40
1.0
 10
640.3757888645097
 20
344.7732246126344
 30
0.0
 10
641.6346711589429
 20
344.3268885736171
 30
0.0
 10
644.9243178262343
 20
343.1605461206823
 30
0.0
 10
649.8081064647786
 20
342.2013412463233
 30
0.0
 10
653.8031493719611
 20
341.8804018117332
 30
0.0
 10
655.6777279517255
 20
341.850743791309
 30
0.0
 10
656.1111386128866
 20
341.8499292424606
 30
0.0
 10
656.1505801476919
 20
341.849913835146
 30
0.0
 10
656.167158466594
 20
341.8499073590447
 30
0.0
  0
SPLINE
  5
37D
330
1F
100
AcDbEntity
  8
0
  6
SLD-実線
 62
     7
370
    25
100
AcDbSpline
210
0.0
220
0.0
230
1.0
 70
     8
 71
     3
 72
    11
 73
     7
 74
     0
 42
0.000000001
 43
0.00000001
 40
0.0
 40
0.0
 40
0.0
 40
0.0
 40
0.0032378290353229
 40
0.2436336534547964
 40
0.4832382088377213
 40
1.0
 40
1.0
 40
1.0
 40
1.0
 10
656.167158466594
 20
407.8499070014169
 30
0.0
 10
656.1843770363139
 20
407.8499043914459
 30
0.0
 10
657.4800053731967
 20
407.8497080015929
 30
0.0
 10
660.0493364829323
 20
407.7699063483328
 30
0.0
 10
665.3375886625886
 20
407.3327247547321
 30
0.0
 10
669.2674484113423
 20
406.5161124776047
 30
0.0
 10
671.9523925155564
 20
405.9581896866967
 30
0.0
  0
SPLINE
  5
37E
330
1F
100
AcDbEntity
  8
0
  6
SLD-実線
 62
     7
370
    25
100
AcDbSpline
210
0.0
220
0.0
230
1.0
 70
     8
 71
     3
 72
    11
 73
     7
 74
     0
 42
0.000000001
 43
0.00000001
 40
0.0
 40
0.0
 40
0.0
 40
0.0
 40
0.4801158818559505
 40
0.7379448193210537
 40
0.9967623446615124
 40
1.0
 40
1.0
 40
1.0
 40
1.0
 10
671.9523925155564
 20
343.7416246737649
 30
0.0
 10
669.4596842943714
 20
343.2181699979009
 30
0.0
 10
665.6283569265041
 20
342.413612846594
 30
0.0
 10
660.3424084738067
 20
341.9421075440731
 30
0.0
 10
657.5780476785366
 20
341.8503267049455
 30
0.0
 10
656.1843770732387
 20
341.8499124767762
 30
0.0
 10
656.167158466594
 20
341.8499073590447
 30
0.0
  0
SPLINE
  5
37F
330
1F
100
AcDbEntity
  8
0
  6
SLD-実線
 62
     7
370
    25
100
AcDbSpline
210
0.0
220
0.0
230
1.0
 70
     8
 71
     3
 72
    11
 73
     7
 74
     0
 42
0.000000001
 43
0.00000001
 40
0.0
 40
0.0
 40
0.0
 40
0.0
 40
0.0032378291988961
 40
0.2436336533239646
 40
0.4832381279025262
 40
1.0
 40
1.0
 40
1.0
 40
1.0
 10
656.167158466594
 20
341.8499073590447
 30
0.0
 10
656.1499398968665
 20
341.8499124713233
 30
0.0
 10
654.8543116255812
 20
341.8502971497666
 30
0.0
 10
652.2849813202758
 20
341.929839508634
 30
0.0
 10
646.9967262471969
 20
342.367118475746
 30
0.0
 10
643.0668679501006
 20
343.1837135493205
 30
0.0
 10
640.3819244176312
 20
343.7416246737649
 30
0.0
  0
SPLINE
  5
380
330
1F
100
AcDbEntity
  8
0
  6
SLD-実線
 62
     7
370
    25
100
AcDbSpline
210
0.0
220
0.0
230
1.0
 70
     8
 71
     3
 72
    11
 73
     7
 74
     0
 42
0.000000001
 43
0.00000001
 40
0.0
 40
0.0
 40
0.0
 40
0.0
 40
0.4801159390908149
 40
0.7379448191343289
 40
0.996762345006448
 40
1.0
 40
1.0
 40
1.0
 40
1.0
 10
640.3819244176312
 20
405.9581896866967
 30
0.0
 10
642.8746322711945
 20
406.4816681023461
 30
0.0
 10
646.7059586163185
 20
407.2862616459154
 30
0.0
 10
651.9919091834583
 20
407.7576127672389
 30
0.0
 10
654.756269103347
 20
407.8496926277086
 30
0.0
 10
656.1499398599268
 20
407.849904385183
 30
0.0
 10
656.167158466594
 20
407.8499070014169
 30
0.0
  0
SPLINE
  5
381
330
1F
100
AcDbEntity
  8
0
  6
SLD-実線
 62
     7
370
    25
100
AcDbSpline
210
0.0
220
0.0
230
1.0
 70
     8
 71
     3
 72
     9
 73
     5
 74
     0
 42
0.000000001
 43
0.00000001
 40
0.0
 40
0.0
 40
0.0
 40
0.0
 40
0.4981493330703869
 40
1.0
 40
1.0
 40
1.0
 40
1.0
 10
671.9523925155564
 20
405.9581896866967
 30
0.0
 10
673.1335758616051
 20
405.6538966055168
 30
0.0
 10
675.5047189458851
 20
405.0430494940607
 30
0.0
 10
677.8360279077297
 20
404.2317783777453
 30
0.0
 10
679.0059968650504
 20
403.8246414269616
 30
0.0
  0
SPLINE
  5
382
330
1F
100
AcDbEntity
  8
0
  6
SLD-実線
 62
     7
370
    25
100
AcDbSpline
210
0.0
220
0.0
230
1.0
 70
     8
 71
     3
 72
     9
 73
     5
 74
     0
 42
0.000000001
 43
0.00000001
 40
0.0
 40
0.0
 40
0.0
 40
0.0
 40
0.4981491748678438
 40
1.0
 40
1.0
 40
1.0
 40
1.0
 10
640.3819244176312
 20
343.7416246737649
 30
0.0
 10
639.2007408890565
 20
344.0459172072557
 30
0.0
 10
636.8295966853387
 20
344.6567634132574
 30
0.0
 10
634.4982888359767
 20
345.4680403726158
 30
0.0
 10
633.3283200681373
 20
345.8751803840806
 30
0.0
  0
SPLINE
  5
383
330
1F
100
AcDbEntity
  8
0
  6
SLD-実線
 62
     7
370
    25
100
AcDbSpline
210
0.0
220
0.0
230
1.0
 70
     8
 71
     3
 72
     9
 73
     5
 74
     0
 42
0.000000001
 43
0.00000001
 40
0.0
 40
0.0
 40
0.0
 40
0.0
 40
0.4978943776756757
 40
0.9999999999999999
 40
0.9999999999999999
 40
0.9999999999999999
 40
0.9999999999999999
 10
679.0059968650504
 20
345.8751803840806
 30
0.0
 10
677.8453016075513
 20
345.4711258695866
 30
0.0
 10
675.5140938061745
 20
344.6595993036906
 30
0.0
 10
673.1429547613005
 20
344.0484740830119
 30
0.0
 10
671.9523925155564
 20
343.7416246737649
 30
0.0
  0
SPLINE
  5
384
330
1F
100
AcDbEntity
  8
0
  6
SLD-実線
 62
     7
370
    25
100
AcDbSpline
210
0.0
220
0.0
230
1.0
 70
     8
 71
     3
 72
     9
 73
     5
 74
     0
 42
0.000000001
 43
0.00000001
 40
0.0
 40
0.0
 40
0.0
 40
0.0
 40
0.4978945087404441
 40
1.0
 40
1.0
 40
1.0
 40
1.0
 10
633.3283200681373
 20
403.8246414269616
 30
0.0
 10
634.4890151711189
 20
404.2286965170046
 30
0.0
 10
636.8202220484912
 20
405.0402240252416
 30
0.0
 10
639.1913620182636
 20
405.6513433286437
 30
0.0
 10
640.3819244176312
 20
405.9581896866967
 30
0.0
  0
ARC
  5
385
330
1F
100
AcDbEntity
  8
0
  6
SLD-実線
 62
     7
370
    25
100
AcDbCircle
 10
698.6671584666
 20
374.8499071206
 30
0.0
 40
12.50000000000014
100
AcDbArc
 50
321.5009482546
 51
38.4990517454
  0
ARC
  5
386
330
1F
100
AcDbEntity
  8
0
  6
SLD-実線
 62
     7
370
    25
100
AcDbCircle
 10
656.1671584666
 20
408.6547851694
 30
0.0
 40
66.80487804878051
100
AcDbArc
 50
289.9910786212
 51
321.5009482546
  0
ARC
  5
387
330
1F
100
AcDbEntity
  8
0
  6
SLD-実線
 62
     7
370
    25
100
AcDbCircle
 10
656.1671584666
 20
341.0450290718
 30
0.0
 40
66.80487804878052
100
AcDbArc
 50
38.4990517454
 51
70.0089213788
  0
ARC
  5
388
330
1F
100
AcDbEntity
  8
0
  6
SLD-実線
 62
     7
370
    25
100
AcDbCircle
 10
656.1671584666
 20
408.6547851694
 30
0.0
 40
66.80487804878052
100
AcDbArc
 50
218.4990517454
 51
250.0089213788
  0
ARC
  5
389
330
1F
100
AcDbEntity
  8
0
  6
SLD-実線
 62
     7
370
    25
100
AcDbCircle
 10
656.1671584666
 20
341.0450290718
 30
0.0
 40
66.80487804878051
100
AcDbArc
 50
109.9910786212
 51
141.5009482546
  0
ARC
  5
38A
330
1F
100
AcDbEntity
  8
0
  6
SLD-実線
 62
     7
370
    25
100
AcDbCircle
 10
613.6671584666
 20
374.8499071206
 30
0.0
 40
12.50000000000005
100
AcDbArc
 50
141.5009482546
 51
218.4990517454
  0
CIRCLE
  5
38B
330
1F
100
AcDbEntity
  8
0
  6
SLD-実線
 62
     7
370
    25
100
AcDbCircle
 10
656.1671584666
 20
371.3499071206
 30
0.0
 40
15.5
  0
ARC
  5
38C
330
1F
100
AcDbEntity
  8
0
  6
SLD-実線
 62
     7
370
    25
100
AcDbCircle
 10
694.1671584666
 20
276.8499071206
 30
0.0
 40
11.99999999999998
100
AcDbArc
 50
279.5940682269
 51
80.4059317731
  0
ARC
  5
38D
330
1F
100
AcDbEntity
  8
0
  6
SLD-実線
 62
     7
370
    25
100
AcDbCircle
 10
697.1671584666
 20
294.5981464699
 30
0.0
 40
5.999999999999961
100
AcDbArc
 50
185.0147368384
 51
260.4059317731
  0
ARC
  5
38E
330
1F
100
AcDbEntity
  8
0
  6
SLD-実線
 62
     7
370
    25
100
AcDbCircle
 10
697.1671584666
 20
259.1016677713
 30
0.0
 40
6.000000000000073
100
AcDbArc
 50
99.5940682269
 51
174.9852631616
  0
ARC
  5
38F
330
1F
100
AcDbEntity
  8
0
  6
SLD-実線
 62
     7
370
    25
100
AcDbCircle
 10
677.243713504
 20
260.8499071206
 30
0.0
 40
14.00000000000005
100
AcDbArc
 50
270.0
 51
354.9852631616
  0
ARC
  5
390
330
1F
100
AcDbEntity
  8
0
  6
SLD-実線
 62
     7
370
    25
100
AcDbCircle
 10
677.243713504
 20
292.8499071206
 30
0.0
 40
14.00000000000004
100
AcDbArc
 50
5.0147368384
 51
90.0
  0
LINE
  5
391
330
1F
100
AcDbEntity
  8
0
  6
SLD-実線
 62
     7
370
    25
100
AcDbLine
 10
635.0906040341
 20
306.84990721
 30
0.0
 11
677.2437128991
 21
306.84990721
 31
0.0
  0
LINE
  5
392
330
1F
100
AcDbEntity
  8
0
  6
SLD-実線
 62
     7
370
    25
100
AcDbLine
 10
677.2437128991
 20
246.8499066885
 30
0.0
 11
635.0906040341
 21
246.8499066885
 31
0.0
  0
ARC
  5
393
330
1F
100
AcDbEntity
  8
0
  6
SLD-実線
 62
     7
370
    25
100
AcDbCircle
 10
635.0906034292
 20
292.8499071206
 30
0.0
 40
13.99999999999994
100
AcDbArc
 50
90.0
 51
174.9852631616
  0
ARC
  5
394
330
1F
100
AcDbEntity
  8
0
  6
SLD-実線
 62
     7
370
    25
100
AcDbCircle
 10
635.0906034292
 20
260.8499071206
 30
0.0
 40
14.0
100
AcDbArc
 50
185.0147368384
 51
270.0
  0
ARC
  5
395
330
1F
100
AcDbEntity
  8
0
  6
SLD-実線
 62
     7
370
    25
100
AcDbCircle
 10
615.1671584666
 20
259.1016677713
 30
0.0
 40
6.000000000000073
100
AcDbArc
 50
5.0147368384
 51
80.4059317731
  0
ARC
  5
396
330
1F
100
AcDbEntity
  8
0
  6
SLD-実線
 62
     7
370
    25
100
AcDbCircle
 10
615.1671584666
 20
294.5981464699
 30
0.0
 40
6.000000000000018
100
AcDbArc
 50
279.5940682269
 51
354.9852631616
  0
ARC
  5
397
330
1F
100
AcDbEntity
  8
0
  6
SLD-実線
 62
     7
370
    25
100
AcDbCircle
 10
618.1671584666
 20
276.8499071206
 30
0.0
 40
11.99999999999998
100
AcDbArc
 50
99.5940682269
 51
260.4059317731
  0
ARC
  5
398
330
1F
100
AcDbEntity
  8
0
  6
SLD-実線
 62
     7
370
    25
100
AcDbCircle
 10
656.1671584666
 20
344.8499071206
 30
0.0
 40
64.52163011671206
100
AcDbArc
 50
35.2175929682
 51
144.7824070318
  0
SPLINE
  5
399
330
1F
100
AcDbEntity
  8
0
  6
SLD-実線
 62
     7
370
    25
100
AcDbSpline
210
0.0
220
0.0
230
1.0
 70
    24
 71
     3
 72
    20
 73
    16
 74
     0
 42
0.000000001
 43
0.00000001
 40
0.0
 40
0.0
 40
0.0
 40
0.0
 40
0.2500000000000003
 40
0.2500000000000003
 40
0.5000000000000007
 40
0.5000000000000007
 40
0.6250000000000004
 40
0.6250000000000004
 40
0.7500000000000003
 40
0.7500000000000003
 40
0.8750000000000001
 40
0.8750000000000001
 40
0.9375000000000001
 40
0.9375000000000001
 40
1.0
 40
1.0
 40
1.0
 40
1.0
 10
690.5007870875613
 20
236.3499071206261
 30
0.0
 10
689.366905500959
 20
236.3499071206261
 30
0.0
 10
688.2465103236304
 20
236.3499071206261
 30
0.0
 10
686.0285900224126
 20
236.3499071206261
 30
0.0
 10
684.9313291865107
 20
236.3499071206261
 30
0.0
 10
683.2968183394263
 20
236.3499071206261
 30
0.0
 10
682.7537325612249
 20
236.3499071206261
 30
0.0
 10
681.66958983581
 20
236.3499071206261
 30
0.0
 10
681.1284468832471
 20
236.3499071206261
 30
0.0
 10
680.0407577622346
 20
236.3499071206261
 30
0.0
 10
679.4942102357761
 20
236.3499071206261
 30
0.0
 10
678.6611978111499
 20
236.3499071206261
 30
0.0
 10
678.381281209647
 20
236.3499071206261
 30
0.0
 10
677.8153196365803
 20
236.3499071206261
 30
0.0
 10
677.5293404342706
 20
236.3499071206261
 30
0.0
 10
677.2437135039986
 20
236.3499071206261
 30
0.0
  0
SPLINE
  5
39A
330
1F
100
AcDbEntity
  8
0
  6
SLD-実線
 62
     7
370
    25
100
AcDbSpline
210
0.0
220
0.0
230
1.0
 70
    24
 71
     3
 72
    18
 73
    14
 74
     0
 42
0.000000001
 43
0.00000001
 40
0.0
 40
0.0
 40
0.0
 40
0.0
 40
0.1249999999999998
 40
0.1249999999999998
 40
0.2499999999999997
 40
0.2499999999999997
 40
0.3749999999999995
 40
0.3749999999999995
 40
0.4999999999999993
 40
0.4999999999999993
 40
0.7499999999999997
 40
0.7499999999999997
 40
1.0
 40
1.0
 40
1.0
 40
1.0
 10
635.0906034291891
 20
236.3499071206261
 30
0.0
 10
634.5159776653733
 20
236.3499071206261
 30
0.0
 10
633.9543754430129
 20
236.3499071206261
 30
0.0
 10
632.8477718041869
 20
236.3499071206261
 30
0.0
 10
632.3023571021397
 20
236.3499071206261
 30
0.0
 10
631.2164579549304
 20
236.3499071206261
 30
0.0
 10
630.6759636651504
 20
236.3499071206261
 30
0.0
 10
629.5933402618894
 20
236.3499071206261
 30
0.0
 10
629.0512721269587
 20
236.3499071206261
 30
0.0
 10
627.418169758506
 20
236.3499071206261
 30
0.0
 10
626.3199570671594
 20
236.3499071206261
 30
0.0
 10
624.093782825302
 20
236.3499071206261
 30
0.0
 10
622.9637383332483
 20
236.3499071206261
 30
0.0
 10
621.8335298456262
 20
236.3499071206261
 30
0.0
  0
SPLINE
  5
39B
330
1F
100
AcDbEntity
  8
0
  6
SLD-実線
 62
     7
370
    25
100
AcDbSpline
210
0.0
220
0.0
230
1.0
 70
     8
 71
     3
 72
    30
 73
    26
 74
     0
 42
0.000000001
 43
0.00000001
 40
0.0
 40
0.0
 40
0.0
 40
0.0
 40
0.1250000000000008
 40
0.1250000000000008
 40
0.1875000000000006
 40
0.1875000000000006
 40
0.2500000000000004
 40
0.2500000000000004
 40
0.3750000000000003
 40
0.3750000000000003
 40
0.5000000000000002
 40
0.5000000000000002
 40
0.6250000000000001
 40
0.6250000000000001
 40
0.75
 40
0.75
 40
0.8749999999999999
 40
0.8749999999999999
 40
0.9374999999999999
 40
0.9374999999999999
 40
0.96875
 40
0.96875
 40
0.984375
 40
0.984375
 40
1.0
 40
1.0
 40
1.0
 40
1.0
 10
738.1671584665937
 20
240.369145007093
 30
0.0
 10
739.3231264003355
 20
241.0365434048133
 30
0.0
 10
740.4228789521358
 20
241.7738615839086
 30
0.0
 10
741.9915345435724
 20
242.9815879419396
 30
0.0
 10
742.5008716920552
 20
243.4011810962212
 30
0.0
 10
743.4924160790144
 20
244.2745725542755
 30
0.0
 10
743.9758216835537
 20
244.7295952749132
 30
0.0
 10
745.3761711609045
 20
246.1381988337226
 30
0.0
 10
746.237149152391
 20
247.1280034627868
 30
0.0
 10
747.8204747055421
 20
249.2058105011937
 30
0.0
 10
748.5427947215845
 20
250.2938209744417
 30
0.0
 10
749.8474204386243
 20
252.5700508520317
 30
0.0
 10
750.4206488220459
 20
253.7428078677127
 30
0.0
 10
751.409496729655
 20
256.1488278854488
 30
0.0
 10
751.826560132382
 20
257.3872668940436
 30
0.0
 10
752.4944731076215
 20
259.9001908773872
 30
0.0
 10
752.7466097245537
 20
261.1785862847551
 30
0.0
 10
752.9987816746097
 20
263.1101724474858
 30
0.0
 10
753.0619145552705
 20
263.7566619185195
 30
0.0
 10
753.1250577047194
 20
264.7282987189973
 30
0.0
 10
753.1408468826719
 20
265.0524796514226
 30
0.0
 10
753.1566361534818
 20
265.5390083025598
 30
0.0
 10
753.1605833567102
 20
265.701223481776
 30
0.0
 10
753.1658453138406
 20
266.0256933898957
 30
0.0
 10
753.1671584665937
 20
266.1890502282154
 30
0.0
 10
753.1671584665937
 20
266.3499071206261
 30
0.0
  0
ARC
  5
39C
330
1F
100
AcDbEntity
  8
0
  6
SLD-実線
 62
     7
370
    25
100
AcDbCircle
 10
683.1671584666
 20
340.8499071206
 30
0.0
 40
70.00000000000001
100
AcDbArc
 50
0.0
 51
33.7489885959
  0
LINE
  5
39D
330
1F
100
AcDbEntity
  8
0
  6
SLD-実線
 62
     7
370
    25
100
AcDbLine
 10
753.1671613276
 20
340.8499053325
 30
0.0
 11
753.1671613276
 21
266.3499070908
 31
0.0
  0
ARC
  5
39E
330
1F
100
AcDbEntity
  8
0
  6
SLD-実線
 62
     7
370
    25
100
AcDbCircle
 10
723.1671584666
 20
266.3499071206
 30
0.0
 40
30.0
100
AcDbArc
 50
270.0
 51
300.0
  0
SPLINE
  5
39F
330
1F
100
AcDbEntity
  8
0
  6
SLD-実線
 62
     7
370
    25
100
AcDbSpline
210
0.0
220
0.0
230
1.0
 70
     8
 71
     3
 72
    22
 73
    18
 74
     0
 42
0.000000001
 43
0.00000001
 40
0.0
 40
0.0
 40
0.0
 40
0.0
 40
0.2500000000000023
 40
0.2500000000000023
 40
0.3750000000000022
 40
0.3750000000000022
 40
0.4375000000000026
 40
0.4375000000000026
 40
0.5000000000000029
 40
0.5000000000000029
 40
0.7500000000000011
 40
0.7500000000000011
 40
0.8750000000000004
 40
0.8750000000000004
 40
0.9375000000000002
 40
0.9375000000000002
 40
1.0
 40
1.0
 40
1.0
 40
1.0
 10
741.3707178164107
 20
379.7387960095151
 30
0.0
 10
739.5343310796326
 20
382.4872480089708
 30
0.0
 10
737.531652530419
 20
385.0657764586856
 30
0.0
 10
734.2869721458801
 20
388.6975818648501
 30
0.0
 10
733.1651377120469
 20
389.8686189861363
 30
0.0
 10
731.4216643457286
 20
391.5663805070537
 30
0.0
 10
730.8298344531568
 20
392.1229053931725
 30
0.0
 10
729.6353141085768
 20
393.2079203114363
 30
0.0
 10
729.0315270051624
 20
393.7375186190309
 30
0.0
 10
725.9804224272877
 20
396.3229677194182
 30
0.0
 10
723.437064808855
 20
398.1924242247002
 30
0.0
 10
719.4713825636991
 20
400.7202730696375
 30
0.0
 10
718.1242887148061
 20
401.5165895759635
 30
0.0
 10
716.0654206824386
 20
402.6424323320894
 30
0.0
 10
715.371884916288
 20
403.0066637521408
 30
0.0
 10
713.9806951155595
 20
403.7079436778701
 30
0.0
 10
713.2821710006407
 20
404.0455047715009
 30
0.0
 10
712.58071632457
 20
404.370318124771
 30
0.0
  0
LINE
  5
3A0
330
1F
100
AcDbEntity
  8
0
  6
SLD-実線
 62
     7
370
    25
100
AcDbLine
 10
723.1671601355
 20
236.3499077614
 30
0.0
 11
690.5007861376
 21
236.3499077614
 31
0.0
  0
LINE
  5
3A1
330
1F
100
AcDbEntity
  8
0
  6
SLD-実線
 62
     7
370
    25
100
AcDbLine
 10
629.1671577662
 20
410.8499130811
 30
0.0
 11
656.2322495545
 21
410.8499130811
 31
0.0
  0
SPLINE
  5
3A2
330
1F
100
AcDbEntity
  8
0
  6
SLD-実線
 62
     7
370
    25
100
AcDbSpline
210
0.0
220
0.0
230
1.0
 70
     8
 71
     3
 72
    32
 73
    28
 74
     0
 42
0.000000001
 43
0.00000001
 40
0.0
 40
0.0
 40
0.0
 40
0.0
 40
0.1250000000000004
 40
0.1250000000000004
 40
0.1875000000000004
 40
0.1875000000000004
 40
0.2500000000000003
 40
0.2500000000000003
 40
0.3750000000000002
 40
0.3750000000000002
 40
0.4375000000000002
 40
0.4375000000000002
 40
0.4999999999999999
 40
0.4999999999999999
 40
0.625
 40
0.625
 40
0.75
 40
0.75
 40
0.875
 40
0.875
 40
0.9375
 40
0.9375
 40
0.9687500000000001
 40
0.9687500000000001
 40
0.9843750000000001
 40
0.9843750000000001
 40
1.0
 40
1.0
 40
1.0
 40
1.0
 10
570.963599116777
 20
379.738796009515
 30
0.0
 10
572.6454503124232
 20
382.2559603893727
 30
0.0
 10
574.4668999191172
 20
384.6304363691065
 30
0.0
 10
577.4012294291389
 20
387.9933249803723
 30
0.0
 10
578.4131483359419
 20
389.0809824680711
 30
0.0
 10
580.5047252175046
 20
391.1904848267984
 30
0.0
 10
581.587561346478
 20
392.2148078062642
 30
0.0
 10
584.8929468516045
 20
395.1498014492818
 30
0.0
 10
587.1833452361114
 20
396.9360401124097
 30
0.0
 10
590.7453401395265
 20
399.3805623217926
 30
0.0
 10
591.95380572154
 20
400.156074922008
 30
0.0
 10
594.4131431013509
 20
401.6299497152634
 30
0.0
 10
595.6657551708649
 20
402.3292053557257
 30
0.0
 10
599.4769527057449
 20
404.3060669392914
 30
0.0
 10
602.0569638542379
 20
405.4475651219591
 30
0.0
 10
607.2963745306356
 20
407.4043125435853
 30
0.0
 10
609.955761299206
 20
408.2193982765437
 30
0.0
 10
615.358099569594
 20
409.5305886264874
 30
0.0
 10
618.1070705710126
 20
410.0264357110879
 30
0.0
 10
622.2447616798236
 20
410.5206315014429
 30
0.0
 10
623.6263030680456
 20
410.6440451449369
 30
0.0
 10
625.7025985043991
 20
410.7675552471499
 30
0.0
 10
626.3953948498092
 20
410.798444289569
 30
0.0
 10
627.4347355394974
 20
410.8293243960454
 30
0.0
 10
627.7812590808124
 20
410.8370445639329
 30
0.0
 10
628.4743626326982
 20
410.8473367773525
 30
0.0
 10
628.823174799873
 20
410.8499071206261
 30
0.0
 10
629.1671584665937
 20
410.8499071206261
 30
0.0
  0
LINE
  5
3A3
330
1F
100
AcDbEntity
  8
0
  6
SLD-実線
 62
     7
370
    25
100
AcDbLine
 10
621.8335307956
 20
236.3499077614
 30
0.0
 11
589.1671567977
 21
236.3499077614
 31
0.0
  0
ARC
  5
3A4
330
1F
100
AcDbEntity
  8
0
  6
SLD-実線
 62
     7
370
    25
100
AcDbCircle
 10
629.1671584666
 20
340.8499071206
 30
0.0
 40
70.0
100
AcDbArc
 50
146.2510114041
 51
180.0
  0
ARC
  5
3A5
330
1F
100
AcDbEntity
  8
0
  6
SLD-実線
 62
     7
370
    25
100
AcDbCircle
 10
589.1671584666
 20
266.3499071206
 30
0.0
 40
30.0
100
AcDbArc
 50
240.0
 51
270.0
  0
LINE
  5
3A6
330
1F
100
AcDbEntity
  8
0
  6
SLD-実線
 62
     7
370
    25
100
AcDbLine
 10
559.1671556056
 20
266.3499070908
 30
0.0
 11
559.1671556056
 21
340.8499053325
 31
0.0
  0
SPLINE
  5
3A7
330
1F
100
AcDbEntity
  8
0
  6
SLD-実線
 62
     7
370
    25
100
AcDbSpline
210
0.0
220
0.0
230
1.0
 70
     8
 71
     3
 72
    30
 73
    26
 74
     0
 42
0.000000001
 43
0.00000001
 40
0.0
 40
0.0
 40
0.0
 40
0.0
 40
0.124999999999999
 40
0.124999999999999
 40
0.1874999999999989
 40
0.1874999999999989
 40
0.2499999999999989
 40
0.2499999999999989
 40
0.374999999999999
 40
0.374999999999999
 40
0.4999999999999992
 40
0.4999999999999992
 40
0.6249999999999994
 40
0.6249999999999994
 40
0.7499999999999996
 40
0.7499999999999996
 40
0.8749999999999998
 40
0.8749999999999998
 40
0.9375
 40
0.9375
 40
0.96875
 40
0.96875
 40
0.984375
 40
0.984375
 40
1.0
 40
1.0
 40
1.0
 40
1.0
 10
574.1671584665938
 20
240.369145007093
 30
0.0
 10
573.011190532852
 20
241.0365434048134
 30
0.0
 10
571.9114379810518
 20
241.7738615839086
 30
0.0
 10
570.3427823896152
 20
242.9815879419396
 30
0.0
 10
569.8334452411325
 20
243.4011810962213
 30
0.0
 10
568.8419008541732
 20
244.2745725542756
 30
0.0
 10
568.3584952496338
 20
244.7295952749133
 30
0.0
 10
566.958145772283
 20
246.1381988337227
 30
0.0
 10
566.0971677807966
 20
247.1280034627869
 30
0.0
 10
564.5138422276455
 20
249.2058105011937
 30
0.0
 10
563.791522211603
 20
250.2938209744418
 30
0.0
 10
562.4868964945633
 20
252.5700508520317
 30
0.0
 10
561.9136681111416
 20
253.7428078677127
 30
0.0
 10
560.9248202035327
 20
256.1488278854488
 30
0.0
 10
560.5077568008056
 20
257.3872668940436
 30
0.0
 10
559.839843825566
 20
259.9001908773872
 30
0.0
 10
559.587707208634
 20
261.1785862847551
 30
0.0
 10
559.3355352585779
 20
263.1101724474859
 30
0.0
 10
559.2724023779172
 20
263.7566619185195
 30
0.0
 10
559.2092592284681
 20
264.7282987189974
 30
0.0
 10
559.1934700505157
 20
265.0524796514226
 30
0.0
 10
559.1776807797058
 20
265.53900830256
 30
0.0
 10
559.1737335764774
 20
265.7012234817761
 30
0.0
 10
559.1684716193471
 20
266.025693389896
 30
0.0
 10
559.1671584665938
 20
266.1890502282404
 30
0.0
 10
559.1671584665938
 20
266.3499071206261
 30
0.0
  0
LINE
  5
3A8
330
1F
100
AcDbEntity
  8
0
  6
SLD-実線
 62
     7
370
    25
100
AcDbLine
 10
677.2437128991
 20
236.3499077614
 30
0.0
 11
635.0906040341
 21
236.3499077614
 31
0.0
  0
LINE
  5
3A9
330
1F
100
AcDbEntity
  8
0
  6
SLD-実線
 62
     7
370
    25
100
AcDbLine
 10
658.0344836282
 20
413.8499042596
 30
0.0
 11
750.4498898804
 21
413.8499042596
 31
0.0
  0
LINE
  5
3AA
330
1F
100
AcDbEntity
  8
0
  6
SLD-実線
 62
     7
370
    25
100
AcDbLine
 10
614.7083803833
 20
409.3409171905
 30
0.0
 11
614.6954759777
 21
409.3379220571
 31
0.0
  0
SPLINE
  5
3AB
330
1F
100
AcDbEntity
  8
0
  6
SLD-実線
 62
     7
370
    25
100
AcDbSpline
210
0.0
220
0.0
230
1.0
 70
     8
 71
     3
 72
    12
 73
     8
 74
     0
 42
0.000000001
 43
0.00000001
 40
0.0
 40
0.0
 40
0.0
 40
0.0
 40
0.0495602023764912
 40
0.2890610693834763
 40
0.4779352135066695
 40
0.6672163966927859
 40
1.0
 40
1.0
 40
1.0
 40
1.0
 10
566.8909415424033
 20
372.8133878316094
 30
0.0
 10
566.8805855926162
 20
372.7932231864114
 30
0.0
 10
566.8201842670284
 20
372.6756124095144
 30
0.0
 10
567.2470222756823
 20
373.51094995315
 30
0.0
 10
567.9899021294841
 20
374.8783696479423
 30
0.0
 10
569.1471025114514
 20
376.9233904529472
 30
0.0
 10
570.2914198739188
 20
378.689292399286
 30
0.0
 10
571.0208505213424
 20
379.8149442876984
 30
0.0
  0
SPLINE
  5
3AC
330
1F
100
AcDbEntity
  8
0
  6
SLD-実線
 62
     7
370
    25
100
AcDbSpline
210
0.0
220
0.0
230
1.0
 70
     8
 71
     3
 72
    26
 73
    22
 74
     0
 42
0.000000001
 43
0.00000001
 40
0.0
 40
0.0
 40
0.0
 40
0.0
 40
0.1250000000000001
 40
0.1250000000000001
 40
0.1875000000000002
 40
0.1875000000000002
 40
0.2500000000000002
 40
0.2500000000000002
 40
0.5000000000000011
 40
0.5000000000000011
 40
0.562500000000001
 40
0.562500000000001
 40
0.625000000000001
 40
0.625000000000001
 40
0.7500000000000007
 40
0.7500000000000007
 40
0.8750000000000002
 40
0.8750000000000002
 40
0.9375000000000002
 40
0.9375000000000002
 40
1.0
 40
1.0
 40
1.0
 40
1.0
 10
565.9704946182007
 20
225.1629090594278
 30
0.0
 10
565.3501153791059
 20
226.7308789287679
 30
0.0
 10
564.7742541172262
 20
228.3057360376233
 30
0.0
 10
563.9750700669407
 20
230.6784745107277
 30
0.0
 10
563.7194532617859
 20
231.4711248867365
 30
0.0
 10
563.2295165021699
 20
233.0598774467684
 30
0.0
 10
562.9959679985534
 20
233.8536103871726
 30
0.0
 10
561.8895607540007
 20
237.796341271004
 30
0.0
 10
561.1926121375546
 20
240.890787201085
 30
0.0
 10
560.5195019381262
 20
244.6906533318412
 30
0.0
 10
560.3946776132817
 20
245.448273788132
 30
0.0
 10
560.1649546854015
 20
246.9518760636365
 30
0.0
 10
560.0604451209646
 20
247.695094815839
 30
0.0
 10
559.7757247190015
 20
249.9005122708614
 30
0.0
 10
559.6242484522043
 20
251.338552921191
 30
0.0
 10
559.3880320326039
 20
254.1566254570914
 30
0.0
 10
559.303320502683
 20
255.5369199539397
 30
0.0
 10
559.2204384435668
 20
257.5649092195863
 30
0.0
 10
559.200190891222
 20
258.2337950557813
 30
0.0
 10
559.1735446732422
 20
259.5554086056773
 30
0.0
 10
559.1671584665938
 20
260.2083258194748
 30
0.0
 10
559.1671584665938
 20
260.8499071206261
 30
0.0
  0
SPLINE
  5
3AD
330
1F
100
AcDbEntity
  8
0
  6
SLD-実線
 62
     7
370
    25
100
AcDbSpline
210
0.0
220
0.0
230
1.0
 70
    24
 71
     3
 72
     8
 73
     4
 74
     0
 42
0.000000001
 43
0.00000001
 40
0.0
 40
0.0
 40
0.0
 40
0.0
 40
1.0
 40
1.0
 40
1.0
 40
1.0
 10
753.1671584665937
 20
260.8499071206261
 30
0.0
 10
753.1671584665937
 20
262.7166492326359
 30
0.0
 10
753.1671584665937
 20
264.5333549117224
 30
0.0
 10
753.1671584665937
 20
266.3499071206261
 30
0.0
  0
SPLINE
  5
3AE
330
1F
100
AcDbEntity
  8
0
  6
SLD-実線
 62
     7
370
    25
100
AcDbSpline
210
0.0
220
0.0
230
1.0
 70
    24
 71
     3
 72
     8
 73
     4
 74
     0
 42
0.000000001
 43
0.00000001
 40
0.0
 40
0.0
 40
0.0
 40
0.0
 40
1.0
 40
1.0
 40
1.0
 40
1.0
 10
559.1671584665938
 20
260.8499071206261
 30
0.0
 10
559.1671584665938
 20
262.7166492326359
 30
0.0
 10
559.1671584665938
 20
264.5333549121128
 30
0.0
 10
559.1671584665938
 20
266.3499071206261
 30
0.0
  0
SPLINE
  5
3AF
330
1F
100
AcDbEntity
  8
0
  6
SLD-実線
 62
     7
370
    25
100
AcDbSpline
210
0.0
220
0.0
230
1.0
 70
     8
 71
     3
 72
    28
 73
    24
 74
     0
 42
0.000000001
 43
0.00000001
 40
0.0
 40
0.0
 40
0.0
 40
0.0
 40
0.0625
 40
0.0625
 40
0.125
 40
0.125
 40
0.2500000000000004
 40
0.2500000000000004
 40
0.3750000000000008
 40
0.3750000000000008
 40
0.4375000000000008
 40
0.4375000000000008
 40
0.5000000000000009
 40
0.5000000000000009
 40
0.6250000000000006
 40
0.6250000000000006
 40
0.6875000000000006
 40
0.6875000000000006
 40
0.7500000000000006
 40
0.7500000000000006
 40
0.8750000000000004
 40
0.8750000000000004
 40
1.0
 40
1.0
 40
1.0
 40
1.0
 10
753.1671584665937
 20
260.8499071206261
 30
0.0
 10
753.1671584665937
 20
260.2086436287931
 30
0.0
 10
753.1607783440005
 20
259.555760588594
 30
0.0
 10
753.1341259451331
 20
258.2337400416475
 30
0.0
 10
753.1138663487669
 20
257.564410592747
 30
0.0
 10
753.0308761478279
 20
255.5343804793075
 30
0.0
 10
752.9460002960885
 20
254.1517862281479
 30
0.0
 10
752.7089695031433
 20
251.3268944076352
 30
0.0
 10
752.5568455852481
 20
249.884330156992
 30
0.0
 10
752.27045806461
 20
247.6700087288214
 30
0.0
 10
752.1652763086367
 20
246.923826947293
 30
0.0
 10
751.9359645229092
 20
245.4255716484997
 30
0.0
 10
751.8116634036261
 20
244.6721089260118
 30
0.0
 10
751.408492451168
 20
242.3983972327768
 30
0.0
 10
751.0994082457773
 20
240.8648479147039
 30
0.0
 10
750.5691707986063
 20
238.5363747340464
 30
0.0
 10
750.3813109038659
 20
237.7555208715061
 30
0.0
 10
749.9821555392909
 20
236.1840700185346
 30
0.0
 10
749.770392397379
 20
235.3919436958721
 30
0.0
 10
749.1042766126219
 20
233.0221280705311
 30
0.0
 10
748.6179041438301
 20
231.4455616853743
 30
0.0
 10
747.5575840695661
 20
228.2992386964572
 30
0.0
 10
746.9836541051611
 20
226.729495285734
 30
0.0
 10
746.3638223149869
 20
225.1629090594278
 30
0.0
  0
LINE
  5
3B0
330
1F
100
AcDbEntity
  8
0
  6
SLD-実線
 62
     7
370
    25
100
AcDbLine
 10
645.8844277829
 20
413.8499042596
 30
0.0
 11
658.0344836282
 21
413.8499042596
 31
0.0
  0
LINE
  5
3B1
330
1F
100
AcDbEntity
  8
0
  6
SLD-実線
 62
     7
370
    25
100
AcDbLine
 10
567.1671569169
 20
413.8499042596
 30
0.0
 11
611.1671566785
 21
413.8499042596
 31
0.0
  0
ARC
  5
3B2
330
1F
100
AcDbEntity
  8
0
  6
SLD-実線
 62
     7
370
    25
100
AcDbCircle
 10
656.1671584666
 20
260.8499071206
 30
0.0
 40
97.00000000000001
100
AcDbArc
 50
263.7294726428
 51
338.4133935582
  0
SPLINE
  5
3B3
330
1F
100
AcDbEntity
  8
0
  6
SLD-実線
 62
     7
370
    25
100
AcDbSpline
210
0.0
220
0.0
230
1.0
 70
     8
 71
     3
 72
    10
 73
     6
 74
     0
 42
0.000000001
 43
0.00000001
 40
0.0
 40
0.0
 40
0.0
 40
0.0
 40
0.2599355563119972
 40
0.7405322824539575
 40
1.0
 40
1.0
 40
1.0
 40
1.0
 10
645.5725269213482
 20
164.4302299822976
 30
0.0
 10
644.9658917690892
 20
164.5008362751776
 30
0.0
 10
643.2376445054489
 20
164.7019870525621
 30
0.0
 10
640.9409025501632
 20
165.0299739418772
 30
0.0
 10
639.3207380811295
 20
165.3323368103738
 30
0.0
 10
638.7527059585019
 20
165.4383456911256
 30
0.0
  0
SPLINE
  5
3B4
330
1F
100
AcDbEntity
  8
0
  6
SLD-実線
 62
     7
370
    25
100
AcDbSpline
210
0.0
220
0.0
230
1.0
 70
     8
 71
     3
 72
    12
 73
     8
 74
     0
 42
0.000000001
 43
0.00000001
 40
0.0
 40
0.0
 40
0.0
 40
0.0
 40
0.0169390014921931
 40
0.2679490150463829
 40
0.5191211694838554
 40
0.7597616747572661
 40
1.0
 40
1.0
 40
1.0
 40
1.0
 10
628.765370306389
 20
167.8038528765847
 30
0.0
 10
628.6961271477015
 20
167.8232381008826
 30
0.0
 10
627.6008066131624
 20
168.1298826076134
 30
0.0
 10
625.6475237876067
 20
168.7654282783245
 30
0.0
 10
622.8197346853544
 20
169.7452556986565
 30
0.0
 10
619.9677485362558
 20
170.8366808279599
 30
0.0
 10
618.0770839398632
 20
171.6462567496375
 30
0.0
 10
617.1325422644778
 20
172.0507061685731
 30
0.0
  0
ARC
  5
3B5
330
1F
100
AcDbEntity
  8
0
  6
SLD-実線
 62
     7
370
    25
100
AcDbCircle
 10
656.1671584666
 20
260.8499071206
 30
0.0
 40
97.00000000000004
100
AcDbArc
 50
201.5866064418
 51
246.2705273572
  0
LINE
  5
3B6
330
1F
100
AcDbEntity
  8
0
  6
SLD-実線
 62
     7
370
    25
100
AcDbLine
 10
740.1671573341
 20
156.8499049749
 30
0.0
 11
740.1671573341
 21
158.849909028
 31
0.0
  0
LINE
  5
3B7
330
1F
100
AcDbEntity
  8
0
  6
SLD-実線
 62
     7
370
    25
100
AcDbLine
 10
705.1671571851
 20
177.1361074056
 30
0.0
 11
705.1671571851
 21
156.8499049749
 31
0.0
  0
LINE
  5
3B8
330
1F
100
AcDbEntity
  8
0
  6
SLD-実線
 62
     7
370
    25
100
AcDbLine
 10
740.1671573341
 20
158.849909028
 30
0.0
 11
745.1671600163
 21
158.849909028
 31
0.0
  0
LINE
  5
3B9
330
1F
100
AcDbEntity
  8
0
  6
SLD-実線
 62
     7
370
    25
100
AcDbLine
 10
745.1671600163
 20
158.849909028
 30
0.0
 11
745.1671600163
 21
222.2753046657
 31
0.0
  0
LINE
  5
3BA
330
1F
100
AcDbEntity
  8
0
  6
SLD-実線
 62
     7
370
    25
100
AcDbLine
 10
572.1671595991
 20
156.8499049749
 30
0.0
 11
572.1671595991
 21
158.849909028
 31
0.0
  0
LINE
  5
3BB
330
1F
100
AcDbEntity
  8
0
  6
SLD-実線
 62
     7
370
    25
100
AcDbLine
 10
572.1671595991
 20
158.849909028
 30
0.0
 11
567.1671569169
 21
158.849909028
 31
0.0
  0
LINE
  5
3BC
330
1F
100
AcDbEntity
  8
0
  6
SLD-実線
 62
     7
370
    25
100
AcDbLine
 10
567.1671569169
 20
158.849909028
 30
0.0
 11
567.1671569169
 21
222.2753046657
 31
0.0
  0
LINE
  5
3BD
330
1F
100
AcDbEntity
  8
0
  6
SLD-実線
 62
     7
370
    25
100
AcDbLine
 10
607.1671597481
 20
177.1361074056
 30
0.0
 11
607.1671597481
 21
156.8499049749
 31
0.0
  0
LINE
  5
3BE
330
1F
100
AcDbEntity
  8
0
  6
SLD-実線
 62
     7
370
    25
100
AcDbLine
 10
581.4156919539
 20
392.0338592138
 30
0.0
 11
581.8726584137
 21
392.4175790157
 31
0.0
  0
INSERT
  5
3CA
330
1F
100
AcDbEntity
  8
SLD-0
 62
     7
100
AcDbBlockReference
  2
SW_CENTERMARKSYMBOL_0
 10
656.1671584666
 20
374.8499071206
 30
0.0
  0
LINE
  5
3CB
330
1F
100
AcDbEntity
  8
SLD-0
  6
SLD-1点鎖線(中心線)
370
    18
100
AcDbLine
 10
576.1671584666
 20
132.8202897635
 30
0.0
 11
576.1671584666
 21
160.8499071206
 31
0.0
  0
LINE
  5
3CC
330
1F
100
AcDbEntity
  8
SLD-0
  6
SLD-1点鎖線(中心線)
370
    18
100
AcDbLine
 10
736.1671584666
 20
133.0700163025
 30
0.0
 11
736.1671584666
 21
160.8499071206
 31
0.0
  0
LINE
  5
3CD
330
1F
100
AcDbEntity
  8
SLD-0
  6
SLD-1点鎖線(中心線)
370
    18
100
AcDbLine
 10
698.1671584666
 20
421.1498877272
 30
0.0
 11
698.1671584666
 21
451.9926467046
 31
0.0
  0
LINE
  5
3CE
330
1F
100
AcDbEntity
  8
SLD-0
  6
SLD-1点鎖線(中心線)
 62
     7
370
    18
100
AcDbLine
 10
600.3709490474
 20
276.8499071206
 30
0.0
 11
712.8862039373
 21
276.8499071206
 31
0.0
  0
ENDSEC
  0
SECTION
  2
OBJECTS
  0
DICTIONARY
  5
C
330
0
100
AcDbDictionary
281
     1
  3
ACAD_GROUP
350
D
  3
ACAD_LAYOUT
350
1A
  3
ACAD_MLINESTYLE
350
17
  3
ACAD_PLOTSETTINGS
350
19
  3
ACAD_PLOTSTYLENAME
350
E
  3
ACAD_SCALELIST
350
47
  0
DICTIONARY
  5
D
102
{ACAD_REACTORS
330
C
102
}
330
C
100
AcDbDictionary
281
     1
  0
DICTIONARY
  5
1A
102
{ACAD_REACTORS
330
C
102
}
330
C
100
AcDbDictionary
281
     1
  3
Layout1
350
1E
  3
Layout2
350
26
  3
Model
350
22
  0
DICTIONARY
  5
17
102
{ACAD_REACTORS
330
C
102
}
330
C
100
AcDbDictionary
281
     1
  3
Standard
350
18
  0
DICTIONARY
  5
19
102
{ACAD_REACTORS
330
C
102
}
330
C
100
AcDbDictionary
281
     1
  0
ACDBDICTIONARYWDFLT
  5
E
102
{ACAD_REACTORS
330
C
102
}
330
C
100
AcDbDictionary
281
     1
  3
Normal
350
F
100
AcDbDictionaryWithDefault
340
F
  0
DICTIONARY
  5
47
102
{ACAD_REACTORS
330
C
102
}
330
C
100
AcDbDictionary
281
     1
  3
A0
350
48
  3
A1
350
49
  3
A2
350
4A
  3
A3
350
4B
  3
A4
350
4C
  3
A5
350
4D
  3
A6
350
4E
  3
A7
350
4F
  3
A8
350
50
  3
A9
350
51
  3
B0
350
52
  3
B1
350
53
  3
B2
350
54
  3
B3
350
55
  3
B4
350
56
  3
B5
350
57
  3
B6
350
58
  3
B7
350
59
  3
B8
350
5A
  3
B9
350
5B
  3
C0
350
5C
  3
C1
350
5D
  3
C2
350
5E
  3
C3
350
5F
  3
C4
350
60
  3
C5
350
61
  3
C6
350
62
  3
C7
350
63
  3
C8
350
64
  3
C9
350
65
  3
D0
350
66
  3
D1
350
67
  3
D2
350
68
  0
LAYOUT
  5
1E
102
{ACAD_REACTORS
330
1A
102
}
330
1A
100
AcDbPlotSettings
  1

  2
none_device
  4

  6

 40
0.0
 41
0.0
 42
0.0
 43
0.0
 44
0.0
 45
0.0
 46
0.0
 47
0.0
 48
0.0
 49
0.0
140
0.0
141
0.0
142
1.0
143
1.0
 70
   688
 72
     1
 73
     0
 74
     5
  7

 75
    16
147
1.0
148
0.0
149
0.0
100
AcDbLayout
  1
Layout1
 70
     1
 71
     1
 10
0.0
 20
0.0
 11
420.0
 21
297.0
 12
0.0
 22
0.0
 32
0.0
 14
1.0000000000E+20
 24
1.0000000000E+20
 34
1.0000000000E+20
 15
-1.0000000000E+20
 25
-1.0000000000E+20
 35
-1.0000000000E+20
146
0.0
 13
0.0
 23
0.0
 33
0.0
 16
1.0
 26
0.0
 36
0.0
 17
0.0
 27
1.0
 37
0.0
 76
     0
330
1B
  0
LAYOUT
  5
26
102
{ACAD_REACTORS
330
1A
102
}
330
1A
100
AcDbPlotSettings
  1

  2
none_device
  4

  6

 40
0.0
 41
0.0
 42
0.0
 43
0.0
 44
0.0
 45
0.0
 46
0.0
 47
0.0
 48
0.0
 49
0.0
140
0.0
141
0.0
142
1.0
143
1.0
 70
   688
 72
     1
 73
     0
 74
     5
  7

 75
    16
147
1.0
148
0.0
149
0.0
100
AcDbLayout
  1
Layout2
 70
     1
 71
     2
 10
0.0
 20
0.0
 11
0.0
 21
0.0
 12
0.0
 22
0.0
 32
0.0
 14
0.0
 24
0.0
 34
0.0
 15
0.0
 25
0.0
 35
0.0
146
0.0
 13
0.0
 23
0.0
 33
0.0
 16
1.0
 26
0.0
 36
0.0
 17
0.0
 27
1.0
 37
0.0
 76
     0
330
23
  0
LAYOUT
  5
22
102
{ACAD_REACTORS
330
1A
102
}
330
1A
100
AcDbPlotSettings
  1

  2
none_device
  4
Letter_(8.50_x_11.00_Inches)
  6

 40
6.35
 41
6.35
 42
6.35000508
 43
6.35000508
 44
215.9
 45
279.4
 46
0.0
 47
0.0
 48
0.0
 49
0.0
140
0.0
141
0.0
142
1.0
143
1.0
 70
  1712
 72
     1
 73
     0
 74
     0
  7

 75
     0
147
1.0
148
0.0
149
0.0
100
AcDbLayout
  1
Model
 70
     1
 71
     0
 10
0.0
 20
0.0
 11
840.0
 21
594.0
 12
0.0
 22
0.0
 32
0.0
 14
0.0
 24
0.0
 34
0.0
 15
840.0
 25
594.0
 35
0.0
146
0.0
 13
0.0
 23
0.0
 33
0.0
 16
1.0
 26
0.0
 36
0.0
 17
0.0
 27
1.0
 37
0.0
 76
     0
330
1F
331
29
  0
MLINESTYLE
  5
18
102
{ACAD_REACTORS
330
17
102
}
330
17
100
AcDbMlineStyle
  2
Standard
 70
     0
  3

 62
   256
 51
90.0
 52
90.0
 71
     2
 49
0.5
 62
   256
  6
BYLAYER
 49
-0.5
 62
   256
  6
BYLAYER
  0
ACDBPLACEHOLDER
  5
F
102
{ACAD_REACTORS
330
E
102
}
330
E
  0
SCALE
  5
48
102
{ACAD_REACTORS
330
47
102
}
330
47
100
AcDbScale
 70
     0
300
1:1
140
1.0
141
1.0
290
     1
  0
SCALE
  5
49
102
{ACAD_REACTORS
330
47
102
}
330
47
100
AcDbScale
 70
     0
300
1:2
140
1.0
141
2.0
290
     0
  0
SCALE
  5
4A
102
{ACAD_REACTORS
330
47
102
}
330
47
100
AcDbScale
 70
     0
300
1:4
140
1.0
141
4.0
290
     0
  0
SCALE
  5
4B
102
{ACAD_REACTORS
330
47
102
}
330
47
100
AcDbScale
 70
     0
300
1:5
140
1.0
141
5.0
290
     0
  0
SCALE
  5
4C
102
{ACAD_REACTORS
330
47
102
}
330
47
100
AcDbScale
 70
     0
300
1:8
140
1.0
141
8.0
290
     0
  0
SCALE
  5
4D
102
{ACAD_REACTORS
330
47
102
}
330
47
100
AcDbScale
 70
     0
300
1:10
140
1.0
141
10.0
290
     0
  0
SCALE
  5
4E
102
{ACAD_REACTORS
330
47
102
}
330
47
100
AcDbScale
 70
     0
300
1:16
140
1.0
141
16.0
290
     0
  0
SCALE
  5
4F
102
{ACAD_REACTORS
330
47
102
}
330
47
100
AcDbScale
 70
     0
300
1:20
140
1.0
141
20.0
290
     0
  0
SCALE
  5
50
102
{ACAD_REACTORS
330
47
102
}
330
47
100
AcDbScale
 70
     0
300
1:30
140
1.0
141
30.0
290
     0
  0
SCALE
  5
51
102
{ACAD_REACTORS
330
47
102
}
330
47
100
AcDbScale
 70
     0
300
1:40
140
1.0
141
40.0
290
     0
  0
SCALE
  5
52
102
{ACAD_REACTORS
330
47
102
}
330
47
100
AcDbScale
 70
     0
300
1:50
140
1.0
141
50.0
290
     0
  0
SCALE
  5
53
102
{ACAD_REACTORS
330
47
102
}
330
47
100
AcDbScale
 70
     0
300
1:100
140
1.0
141
100.0
290
     0
  0
SCALE
  5
54
102
{ACAD_REACTORS
330
47
102
}
330
47
100
AcDbScale
 70
     0
300
2:1
140
2.0
141
1.0
290
     0
  0
SCALE
  5
55
102
{ACAD_REACTORS
330
47
102
}
330
47
100
AcDbScale
 70
     0
300
4:1
140
4.0
141
1.0
290
     0
  0
SCALE
  5
56
102
{ACAD_REACTORS
330
47
102
}
330
47
100
AcDbScale
 70
     0
300
8:1
140
8.0
141
1.0
290
     0
  0
SCALE
  5
57
102
{ACAD_REACTORS
330
47
102
}
330
47
100
AcDbScale
 70
     0
300
10:1
140
10.0
141
1.0
290
     0
  0
SCALE
  5
58
102
{ACAD_REACTORS
330
47
102
}
330
47
100
AcDbScale
 70
     0
300
100:1
140
100.0
141
1.0
290
     0
  0
SCALE
  5
59
102
{ACAD_REACTORS
330
47
102
}
330
47
100
AcDbScale
 70
     0
300
1/128" = 1'-0"
140
0.0078125
141
12.0
290
     0
  0
SCALE
  5
5A
102
{ACAD_REACTORS
330
47
102
}
330
47
100
AcDbScale
 70
     0
300
1/64" = 1'-0"
140
0.015625
141
12.0
290
     0
  0
SCALE
  5
5B
102
{ACAD_REACTORS
330
47
102
}
330
47
100
AcDbScale
 70
     0
300
1/32" = 1'-0"
140
0.03125
141
12.0
290
     0
  0
SCALE
  5
5C
102
{ACAD_REACTORS
330
47
102
}
330
47
100
AcDbScale
 70
     0
300
1/16" = 1'-0"
140
0.0625
141
12.0
290
     0
  0
SCALE
  5
5D
102
{ACAD_REACTORS
330
47
102
}
330
47
100
AcDbScale
 70
     0
300
3/32" = 1'-0"
140
0.09375
141
12.0
290
     0
  0
SCALE
  5
5E
102
{ACAD_REACTORS
330
47
102
}
330
47
100
AcDbScale
 70
     0
300
1/8" = 1'-0"
140
0.125
141
12.0
290
     0
  0
SCALE
  5
5F
102
{ACAD_REACTORS
330
47
102
}
330
47
100
AcDbScale
 70
     0
300
3/16" = 1'-0"
140
0.1875
141
12.0
290
     0
  0
SCALE
  5
60
102
{ACAD_REACTORS
330
47
102
}
330
47
100
AcDbScale
 70
     0
300
1/4" = 1'-0"
140
0.25
141
12.0
290
     0
  0
SCALE
  5
61
102
{ACAD_REACTORS
330
47
102
}
330
47
100
AcDbScale
 70
     0
300
3/8" = 1'-0"
140
0.375
141
12.0
290
     0
  0
SCALE
  5
62
102
{ACAD_REACTORS
330
47
102
}
330
47
100
AcDbScale
 70
     0
300
1/2" = 1'-0"
140
0.5
141
12.0
290
     0
  0
SCALE
  5
63
102
{ACAD_REACTORS
330
47
102
}
330
47
100
AcDbScale
 70
     0
300
3/4" = 1'-0"
140
0.75
141
12.0
290
     0
  0
SCALE
  5
64
102
{ACAD_REACTORS
330
47
102
}
330
47
100
AcDbScale
 70
     0
300
1" = 1'-0"
140
1.0
141
12.0
290
     0
  0
SCALE
  5
65
102
{ACAD_REACTORS
330
47
102
}
330
47
100
AcDbScale
 70
     0
300
1-1/2" = 1'-0"
140
1.5
141
12.0
290
     0
  0
SCALE
  5
66
102
{ACAD_REACTORS
330
47
102
}
330
47
100
AcDbScale
 70
     0
300
3" = 1'-0"
140
3.0
141
12.0
290
     0
  0
SCALE
  5
67
102
{ACAD_REACTORS
330
47
102
}
330
47
100
AcDbScale
 70
     0
300
6" = 1'-0"
140
6.0
141
12.0
290
     0
  0
SCALE
  5
68
102
{ACAD_REACTORS
330
47
102
}
330
47
100
AcDbScale
 70
     0
300
1'-0" = 1'-0"
140
12.0
141
12.0
290
     0
  0
ENDSEC
  0
EOF
