  0
SECTION
  2
HEADER
  9
$ACADVER
  1
AC1015
  9
$ACADMAINTVER
 70
     6
  9
$DWGCODEPAGE
  3
DOS932
  9
$INSBASE
 10
0.0
 20
0.0
 30
0.0
  9
$EXTMIN
 10
0.0
 20
0.0
 30
0.0
  9
$EXTMAX
 10
420.0
 20
297.0
 30
0.0
  9
$LIMMIN
 10
0.0
 20
0.0
  9
$LIMMAX
 10
420.0
 20
297.0
  9
$ORTHOMODE
 70
     0
  9
$REGENMODE
 70
     1
  9
$FILLMODE
 70
     1
  9
$QTEXTMODE
 70
     0
  9
$MIRRTEXT
 70
     1
  9
$LTSCALE
 40
1.0
  9
$ATTMODE
 70
     1
  9
$TEXTSIZE
 40
3.5
  9
$TRACEWID
 40
1.0
  9
$TEXTSTYLE
  7
Standard
  9
$CLAYER
  8
0
  9
$CELTYPE
  6
ByLayer
  9
$CECOLOR
 62
   256
  9
$CELTSCALE
 40
1.0
  9
$DISPSILH
 70
     0
  9
$DIMSCALE
 40
1.0
  9
$DIMASZ
 40
2.0
  9
$DIMEXO
 40
1.0
  9
$DIMDLI
 40
3.75
  9
$DIMRND
 40
0.0
  9
$DIMDLE
 40
0.0
  9
$DIMEXE
 40
1.0
  9
$DIMTP
 40
0.0
  9
$DIMTM
 40
0.0
  9
$DIMTXT
 40
2.7999999523
  9
$DIMCEN
 40
2.5
  9
$DIMTSZ
 40
0.0
  9
$DIMTOL
 70
     0
  9
$DIMLIM
 70
     0
  9
$DIMTIH
 70
     1
  9
$DIMTOH
 70
     1
  9
$DIMSE1
 70
     0
  9
$DIMSE2
 70
     0
  9
$DIMTAD
 70
     1
  9
$DIMZIN
 70
     1
  9
$DIMBLK
  1

  9
$DIMASO
 70
     1
  9
$DIMSHO
 70
     1
  9
$DIMPOST
  1

  9
$DIMAPOST
  1

  9
$DIMALT
 70
     0
  9
$DIMALTD
 70
     3
  9
$DIMALTF
 40
0.0393700787
  9
$DIMLFAC
 40
1.0
  9
$DIMTOFL
 70
     1
  9
$DIMTVP
 40
0.0
  9
$DIMTIX
 70
     0
  9
$DIMSOXD
 70
     0
  9
$DIMSAH
 70
     0
  9
$DIMBLK1
  1

  9
$DIMBLK2
  1

  9
$DIMSTYLE
  2
ISO-25
  9
$DIMCLRD
 70
     0
  9
$DIMCLRE
 70
     0
  9
$DIMCLRT
 70
     0
  9
$DIMTFAC
 40
1.0
  9
$DIMGAP
 40
1.524
  9
$DIMJUST
 70
     0
  9
$DIMSD1
 70
     0
  9
$DIMSD2
 70
     0
  9
$DIMTOLJ
 70
     0
  9
$DIMTZIN
 70
     1
  9
$DIMALTZ
 70
     0
  9
$DIMALTTZ
 70
     0
  9
$DIMUPT
 70
     0
  9
$DIMDEC
 70
     3
  9
$DIMTDEC
 70
     3
  9
$DIMALTU
 70
     2
  9
$DIMALTTD
 70
     3
  9
$DIMTXSTY
  7
Standard
  9
$DIMAUNIT
 70
     0
  9
$DIMADEC
 70
     0
  9
$DIMALTRND
 40
0.0
  9
$DIMAZIN
 70
     0
  9
$DIMDSEP
 70
    44
  9
$DIMATFIT
 70
     3
  9
$DIMFRAC
 70
     0
  9
$DIMLDRBLK
  1

  9
$DIMLUNIT
 70
     2
  9
$DIMLWD
 70
    -2
  9
$DIMLWE
 70
    -2
  9
$DIMTMOVE
 70
     0
  9
$LUNITS
 70
     2
  9
$LUPREC
 70
     3
  9
$SKETCHINC
 40
1.0
  9
$FILLETRAD
 40
10.0
  9
$AUNITS
 70
     0
  9
$AUPREC
 70
     0
  9
$MENU
  1
.
  9
$ELEVATION
 40
0.0
  9
$PELEVATION
 40
0.0
  9
$THICKNESS
 40
0.0
  9
$LIMCHECK
 70
     0
  9
$CHAMFERA
 40
10.0
  9
$CHAMFERB
 40
10.0
  9
$CHAMFERC
 40
20.0
  9
$CHAMFERD
 40
0.0
  9
$SKPOLY
 70
     0
  9
$TDCREATE
 40
2456338.572387511
  9
$TDUCREATE
 40
2456338.197387511
  9
$TDUPDATE
 40
2456338.572387523
  9
$TDUUPDATE
 40
2456338.197387523
  9
$TDINDWG
 40
0.0000000116
  9
$TDUSRTIMER
 40
0.0000000116
  9
$USRTIMER
 70
     1
  9
$ANGBASE
 50
0.0
  9
$ANGDIR
 70
     0
  9
$PDMODE
 70
     0
  9
$PDSIZE
 40
-1.0
  9
$PLINEWID
 40
0.0
  9
$SPLFRAME
 70
     0
  9
$SPLINETYPE
 70
     6
  9
$SPLINESEGS
 70
     8
  9
$HANDSEED
  5
285
  9
$SURFTAB1
 70
     6
  9
$SURFTAB2
 70
     6
  9
$SURFTYPE
 70
     6
  9
$SURFU
 70
     6
  9
$SURFV
 70
     6
  9
$UCSBASE
  2

  9
$UCSNAME
  2

  9
$UCSORG
 10
0.0
 20
0.0
 30
0.0
  9
$UCSXDIR
 10
1.0
 20
0.0
 30
0.0
  9
$UCSYDIR
 10
0.0
 20
1.0
 30
0.0
  9
$UCSORTHOREF
  2

  9
$UCSORTHOVIEW
 70
     0
  9
$UCSORGTOP
 10
0.0
 20
0.0
 30
0.0
  9
$UCSORGBOTTOM
 10
0.0
 20
0.0
 30
0.0
  9
$UCSORGLEFT
 10
0.0
 20
0.0
 30
0.0
  9
$UCSORGRIGHT
 10
0.0
 20
0.0
 30
0.0
  9
$UCSORGFRONT
 10
0.0
 20
0.0
 30
0.0
  9
$UCSORGBACK
 10
0.0
 20
0.0
 30
0.0
  9
$PUCSBASE
  2

  9
$PUCSNAME
  2

  9
$PUCSORG
 10
0.0
 20
0.0
 30
0.0
  9
$PUCSXDIR
 10
1.0
 20
0.0
 30
0.0
  9
$PUCSYDIR
 10
0.0
 20
1.0
 30
0.0
  9
$PUCSORTHOREF
  2

  9
$PUCSORTHOVIEW
 70
     0
  9
$PUCSORGTOP
 10
0.0
 20
0.0
 30
0.0
  9
$PUCSORGBOTTOM
 10
0.0
 20
0.0
 30
0.0
  9
$PUCSORGLEFT
 10
0.0
 20
0.0
 30
0.0
  9
$PUCSORGRIGHT
 10
0.0
 20
0.0
 30
0.0
  9
$PUCSORGFRONT
 10
0.0
 20
0.0
 30
0.0
  9
$PUCSORGBACK
 10
0.0
 20
0.0
 30
0.0
  9
$USERI1
 70
     0
  9
$USERI2
 70
     0
  9
$USERI3
 70
     0
  9
$USERI4
 70
     0
  9
$USERI5
 70
     0
  9
$USERR1
 40
0.0
  9
$USERR2
 40
0.0
  9
$USERR3
 40
0.0
  9
$USERR4
 40
0.0
  9
$USERR5
 40
0.0
  9
$WORLDVIEW
 70
     1
  9
$SHADEDGE
 70
     3
  9
$SHADEDIF
 70
    70
  9
$TILEMODE
 70
     1
  9
$MAXACTVP
 70
    64
  9
$PINSBASE
 10
0.0
 20
0.0
 30
0.0
  9
$PLIMCHECK
 70
     0
  9
$PEXTMIN
 10
1.0000000000E+20
 20
1.0000000000E+20
 30
1.0000000000E+20
  9
$PEXTMAX
 10
-1.0000000000E+20
 20
-1.0000000000E+20
 30
-1.0000000000E+20
  9
$PLIMMIN
 10
0.0
 20
0.0
  9
$PLIMMAX
 10
420.0
 20
297.0
  9
$UNITMODE
 70
     0
  9
$VISRETAIN
 70
     1
  9
$PLINEGEN
 70
     0
  9
$PSLTSCALE
 70
     1
  9
$TREEDEPTH
 70
  3020
  9
$CMLSTYLE
  2
Standard
  9
$CMLJUST
 70
     0
  9
$CMLSCALE
 40
20.0
  9
$PROXYGRAPHICS
 70
     1
  9
$MEASUREMENT
 70
     1
  9
$CELWEIGHT
370
    -1
  9
$ENDCAPS
280
     0
  9
$JOINSTYLE
280
     0
  9
$LWDISPLAY
290
     1
  9
$INSUNITS
 70
     4
  9
$HYPERLINKBASE
  1

  9
$STYLESHEET
  1

  9
$XEDIT
290
     1
  9
$CEPSNTYPE
380
     0
  9
$PSTYLEMODE
290
     1
  9
$FINGERPRINTGUID
  2
{A7D04E44-4948-4D76-9313-3D77DD8F9E96}
  9
$VERSIONGUID
  2
{FAEB1C32-E019-11D5-929B-00C0DF256EC4}
  9
$EXTNAMES
290
     1
  9
$PSVPSCALE
 40
0.0
  9
$OLESTARTUP
290
     0
  0
ENDSEC
  0
SECTION
  2
CLASSES
  0
CLASS
  1
ACDBDICTIONARYWDFLT
  2
AcDbDictionaryWithDefault
  3
ObjectDBX Classes
 90
        0
280
     0
281
     0
  0
CLASS
  1
VISUALSTYLE
  2
AcDbVisualStyle
  3
ObjectDBX Classes
 90
     4095
280
     0
281
     0
  0
CLASS
  1
MATERIAL
  2
AcDbMaterial
  3
ObjectDBX Classes
 90
     1153
280
     0
281
     0
  0
CLASS
  1
ACDBPLACEHOLDER
  2
AcDbPlaceHolder
  3
ObjectDBX Classes
 90
        0
280
     0
281
     0
  0
CLASS
  1
LAYOUT
  2
AcDbLayout
  3
ObjectDBX Classes
 90
        0
280
     0
281
     0
  0
ENDSEC
  0
SECTION
  2
TABLES
  0
TABLE
  2
VPORT
  5
8
330
0
100
AcDbSymbolTable
 70
     1
  0
VPORT
  5
29
330
8
100
AcDbSymbolTableRecord
100
AcDbViewportTableRecord
  2
*Active
 70
     0
 10
0.0
 20
0.0
 11
1.0
 21
1.0
 12
210.0
 22
148.5
 13
0.0
 23
0.0
 14
10.0
 24
10.0
 15
10.0
 25
10.0
 16
0.0
 26
0.0
 36
1.0
 17
0.0
 27
0.0
 37
0.0
 40
297.0
 41
1.4141414141
 42
50.0
 43
0.0
 44
0.0
 50
0.0
 51
0.0
 71
     0
 72
  2000
 73
     1
 74
     3
 75
     0
 76
     0
 77
     0
 78
     0
281
     0
 65
     1
110
0.0
120
0.0
130
0.0
111
1.0
121
0.0
131
0.0
112
0.0
122
1.0
132
0.0
 79
     0
146
0.0
  0
ENDTAB
  0
TABLE
  2
LTYPE
  5
5
330
0
100
AcDbSymbolTable
 70
     6
  0
LTYPE
  5
14
330
5
100
AcDbSymbolTableRecord
100
AcDbLinetypeTableRecord
  2
ByBlock
 70
     0
  3

 72
    65
 73
     0
 40
0.0
  0
LTYPE
  5
15
330
5
100
AcDbSymbolTableRecord
100
AcDbLinetypeTableRecord
  2
ByLayer
 70
     0
  3

 72
    65
 73
     0
 40
0.0
  0
LTYPE
  5
16
330
5
100
AcDbSymbolTableRecord
100
AcDbLinetypeTableRecord
  2
Continuous
 70
     0
  3
Solid line
 72
    65
 73
     0
 40
0.0
  0
LTYPE
  5
3F
330
5
100
AcDbSymbolTableRecord
100
AcDbLinetypeTableRecord
  2
HIDDEN
 70
     0
  3
Hidden __ __ __ __ __ __ __ __ __ __ __ __ __ __
 72
    65
 73
     2
 40
1.905
 49
1.27
 74
     0
 49
-0.635
 74
     0
  0
LTYPE
  5
40
330
5
100
AcDbSymbolTableRecord
100
AcDbLinetypeTableRecord
  2
PHANTOM
 70
     0
  3
Phantom ______  __  __  ______  __  __  ______
 72
    65
 73
     6
 40
12.7
 49
6.35
 74
     0
 49
-1.27
 74
     0
 49
1.27
 74
     0
 49
-1.27
 74
     0
 49
1.27
 74
     0
 49
-1.27
 74
     0
  0
LTYPE
  5
41
330
5
100
AcDbSymbolTableRecord
100
AcDbLinetypeTableRecord
  2
CENTER
 70
     0
  3
Center ____ _ ____ _ ____ _ ____ _ ____ _ ____
 72
    65
 73
     4
 40
10.16
 49
6.35
 74
     0
 49
-1.27
 74
     0
 49
1.27
 74
     0
 49
-1.27
 74
     0
  0
LTYPE
  5
42
330
5
100
AcDbSymbolTableRecord
100
AcDbLinetypeTableRecord
  2
CENTERX2
 70
     0
  3
Center (2x) ________  __  ________  __  _____
 72
    65
 73
     4
 40
20.32
 49
12.7
 74
     0
 49
-2.54
 74
     0
 49
2.54
 74
     0
 49
-2.54
 74
     0
  0
LTYPE
  5
43
330
5
100
AcDbSymbolTableRecord
100
AcDbLinetypeTableRecord
  2
DOT2
 70
     0
  3
Dot (.5x) ........................................
 72
    65
 73
     2
 40
0.635
 49
0.0
 74
     0
 49
-0.635
 74
     0
  0
ENDTAB
  0
TABLE
  2
LAYER
  5
2
330
0
100
AcDbSymbolTable
 70
     2
  0
LAYER
  5
10
330
2
100
AcDbSymbolTableRecord
100
AcDbLayerTableRecord
  2
0
 70
     0
 62
     7
  6
Continuous
370
    -3
390
F
  0
LAYER
  5
44
330
2
100
AcDbSymbolTableRecord
100
AcDbLayerTableRecord
  2
SLD-0
 70
     0
 62
     3
  6
Continuous
370
    -3
390
F
  0
ENDTAB
  0
TABLE
  2
STYLE
  5
3
330
0
100
AcDbSymbolTable
 70
     1
  0
STYLE
  5
11
330
3
100
AcDbSymbolTableRecord
100
AcDbTextStyleTableRecord
  2
Standard
 70
     0
 40
0.0
 41
1.0
 50
0.0
 71
     0
 42
2.5
  3
txt
  4
bigfont
  0
ENDTAB
  0
TABLE
  2
VIEW
  5
6
330
0
100
AcDbSymbolTable
 70
     0
  0
ENDTAB
  0
TABLE
  2
UCS
  5
7
330
0
100
AcDbSymbolTable
 70
     0
  0
ENDTAB
  0
TABLE
  2
APPID
  5
9
330
0
100
AcDbSymbolTable
 70
     1
  0
APPID
  5
12
330
9
100
AcDbSymbolTableRecord
100
AcDbRegAppTableRecord
  2
ACAD
 70
     0
  0
ENDTAB
  0
TABLE
  2
DIMSTYLE
  5
A
330
0
100
AcDbSymbolTable
 70
     1
100
AcDbDimStyleTable
  0
DIMSTYLE
105
27
330
A
100
AcDbSymbolTableRecord
100
AcDbDimStyleTableRecord
  2
ISO-25
 70
     0
 41
2.5
 42
0.625
 43
3.75
 44
1.25
 73
     0
 74
     0
 77
     1
 78
     8
140
2.5
141
2.5
143
0.0393700787
147
0.625
171
     3
172
     1
178
     0
271
     2
272
     2
274
     3
278
    44
283
     0
284
     8
340
11
  0
ENDTAB
  0
TABLE
  2
BLOCK_RECORD
  5
1
330
0
100
AcDbSymbolTable
 70
     1
  0
BLOCK_RECORD
  5
1F
330
1
100
AcDbSymbolTableRecord
100
AcDbBlockTableRecord
  2
*Model_Space
340
22
  0
BLOCK_RECORD
  5
1B
330
1
100
AcDbSymbolTableRecord
100
AcDbBlockTableRecord
  2
*Paper_Space
340
1E
  0
BLOCK_RECORD
  5
23
330
1
100
AcDbSymbolTableRecord
100
AcDbBlockTableRecord
  2
*Paper_Space0
340
26
  0
ENDTAB
  0
ENDSEC
  0
SECTION
  2
BLOCKS
  0
BLOCK
  5
20
330
1F
100
AcDbEntity
  8
0
100
AcDbBlockBegin
  2
*Model_Space
 70
     0
 10
0.0
 20
0.0
 30
0.0
  3
*Model_Space
  1

  0
ENDBLK
  5
21
330
1F
100
AcDbEntity
  8
0
100
AcDbBlockEnd
  0
BLOCK
  5
1C
330
1B
100
AcDbEntity
 67
     1
  8
0
100
AcDbBlockBegin
  2
*Paper_Space
 70
     0
 10
0.0
 20
0.0
 30
0.0
  3
*Paper_Space
  1

  0
ENDBLK
  5
1D
330
1B
100
AcDbEntity
 67
     1
  8
0
100
AcDbBlockEnd
  0
BLOCK
  5
24
330
23
100
AcDbEntity
  8
0
100
AcDbBlockBegin
  2
*Paper_Space0
 70
     0
 10
0.0
 20
0.0
 30
0.0
  3
*Paper_Space0
  1

  0
ENDBLK
  5
25
330
23
100
AcDbEntity
  8
0
100
AcDbBlockEnd
  0
ENDSEC
  0
SECTION
  2
ENTITIES
  0
SPLINE
  5
45
330
1F
100
AcDbEntity
  8
0
  6
Continuous
 62
     7
370
    15
100
AcDbSpline
210
0.0
220
0.0
230
1.0
 70
     8
 71
     3
 72
     9
 73
     5
 74
     0
 42
0.00000001
 43
0.00000001
 40
0.0
 40
0.0
 40
0.0
 40
0.0
 40
0.4974210726074932
 40
0.9999999999999999
 40
0.9999999999999999
 40
0.9999999999999999
 40
0.9999999999999999
 10
55.44349527292719
 20
89.70497874110156
 30
0.0
 10
55.36967166894632
 20
89.60343333976287
 30
0.0
 10
55.22125896983432
 20
89.39928959328591
 30
0.0
 10
55.3404622538233
 20
89.13957625889368
 30
0.0
 10
55.40037131243219
 20
89.00904980986529
 30
0.0
  0
SPLINE
  5
46
330
1F
100
AcDbEntity
  8
0
  6
Continuous
 62
     7
370
    15
100
AcDbSpline
210
0.0
220
0.0
230
1.0
 70
     8
 71
     3
 72
     9
 73
     5
 74
     0
 42
0.00000001
 43
0.00000001
 40
0.0
 40
0.0
 40
0.0
 40
0.0
 40
0.496214472976451
 40
1.0
 40
1.0
 40
1.0
 40
1.0
 10
60.03345525198448
 20
357.6264637479109
 30
0.0
 10
60.02468972894501
 20
357.3215938914378
 30
0.0
 10
60.00702494180798
 20
356.7072025887327
 30
0.0
 10
60.12024342606656
 20
356.0521077465136
 30
0.0
 10
60.17728125982752
 20
355.7220804461759
 30
0.0
  0
SPLINE
  5
47
330
1F
100
AcDbEntity
  8
0
  6
Continuous
 62
     7
370
    15
100
AcDbSpline
210
0.0
220
0.0
230
1.0
 70
     8
 71
     3
 72
    13
 73
     9
 74
     0
 42
0.00000001
 43
0.00000001
 40
0.0
 40
0.0
 40
0.0
 40
0.0
 40
0.1246285364294256
 40
0.2874789146346232
 40
0.4814569906760265
 40
0.6354795413780232
 40
0.808613832518175
 40
1.0
 40
1.0
 40
1.0
 40
1.0
 10
87.50771707230082
 20
392.9965752133649
 30
0.0
 10
86.73949507792446
 20
392.7300339823861
 30
0.0
 10
84.96744806951864
 20
392.1152070255556
 30
0.0
 10
82.14682976857144
 20
390.839184486553
 30
0.0
 10
79.13756405410119
 20
389.1805132153019
 30
0.0
 10
76.09972077694391
 20
387.1280350856369
 30
0.0
 10
73.1352451094622
 20
384.7793744529279
 30
0.0
 10
71.20939313803434
 20
382.7791868800233
 30
0.0
 10
70.1982525580453
 20
381.7290174731534
 30
0.0
  0
LINE
  5
48
330
1F
100
AcDbEntity
  8
0
  6
Continuous
 62
     7
370
    15
100
AcDbLine
 10
56.047707557
 20
131.9885286459
 30
0.0
 11
51.720291137
 21
131.9885286459
 31
0.0
  0
LINE
  5
49
330
1F
100
AcDbEntity
  8
0
  6
Continuous
 62
     7
370
    15
100
AcDbLine
 10
51.720291137
 20
81.9885316262
 30
0.0
 11
55.0184843534
 21
81.9885316262
 31
0.0
  0
ARC
  5
4A
330
1F
100
AcDbEntity
  8
0
  6
Continuous
 62
     7
370
    15
100
AcDbCircle
 10
51.7202869885
 20
130.9885296592
 30
0.0
 40
1.0
100
AcDbArc
 50
90.0
 51
180.0
  0
ARC
  5
4B
330
1F
100
AcDbEntity
  8
0
  6
Continuous
 62
     7
370
    15
100
AcDbCircle
 10
51.7202869885
 20
82.9885296592
 30
0.0
 40
1.0
100
AcDbArc
 50
180.0
 51
270.0
  0
ARC
  5
4C
330
1F
100
AcDbEntity
  8
0
  6
Continuous
 62
     7
370
    15
100
AcDbCircle
 10
49.7202869885
 20
129.4885296592
 30
0.0
 40
1.000000000000028
100
AcDbArc
 50
270.0
 51
360.0
  0
ARC
  5
4D
330
1F
100
AcDbEntity
  8
0
  6
Continuous
 62
     7
370
    15
100
AcDbCircle
 10
49.7202869885
 20
84.4885296592
 30
0.0
 40
1.000000000000028
100
AcDbArc
 50
0.0
 51
90.0
  0
ARC
  5
4E
330
1F
100
AcDbEntity
  8
0
  6
Continuous
 62
     7
370
    15
100
AcDbCircle
 10
46.3202869885
 20
124.9885296592
 30
0.0
 40
1.000000000000014
100
AcDbArc
 50
270.0
 51
360.0
  0
ARC
  5
4F
330
1F
100
AcDbEntity
  8
0
  6
Continuous
 62
     7
370
    15
100
AcDbCircle
 10
46.3202869885
 20
88.9885296592
 30
0.0
 40
1.0
100
AcDbArc
 50
360.0
 51
90.0
  0
LINE
  5
50
330
1F
100
AcDbEntity
  8
0
  6
Continuous
 62
     7
370
    15
100
AcDbLine
 10
49.7202870839
 20
128.4885290036
 30
0.0
 11
48.3202931874
 21
128.4885290036
 31
0.0
  0
LINE
  5
51
330
1F
100
AcDbEntity
  8
0
  6
Continuous
 62
     7
370
    15
100
AcDbLine
 10
48.3202931874
 20
85.4885312685
 30
0.0
 11
49.7202870839
 21
85.4885312685
 31
0.0
  0
ARC
  5
52
330
1F
100
AcDbEntity
  8
0
  6
Continuous
 62
     7
370
    15
100
AcDbCircle
 10
48.3202869885
 20
127.4885296592
 30
0.0
 40
1.0
100
AcDbArc
 50
90.0
 51
180.0
  0
ARC
  5
53
330
1F
100
AcDbEntity
  8
0
  6
Continuous
 62
     7
370
    15
100
AcDbCircle
 10
48.3202869885
 20
86.4885296592
 30
0.0
 40
1.0
100
AcDbArc
 50
180.0
 51
270.0
  0
LINE
  5
54
330
1F
100
AcDbEntity
  8
0
  6
Continuous
 62
     7
370
    15
100
AcDbLine
 10
44.8202935451
 20
89.9885329375
 30
0.0
 11
46.3202891343
 21
89.9885329375
 31
0.0
  0
LINE
  5
55
330
1F
100
AcDbEntity
  8
0
  6
Continuous
 62
     7
370
    15
100
AcDbLine
 10
46.3202891343
 20
123.9885273346
 30
0.0
 11
44.8202935451
 21
123.9885273346
 31
0.0
  0
LINE
  5
56
330
1F
100
AcDbEntity
  8
0
  6
Continuous
 62
     7
370
    15
100
AcDbLine
 10
44.8202935451
 20
123.9885273346
 30
0.0
 11
44.3202850812
 21
123.4885263213
 31
0.0
  0
LINE
  5
57
330
1F
100
AcDbEntity
  8
0
  6
Continuous
 62
     7
370
    15
100
AcDbLine
 10
44.3202850812
 20
90.4885265002
 30
0.0
 11
44.8202935451
 21
89.9885329375
 31
0.0
  0
LINE
  5
58
330
1F
100
AcDbEntity
  8
0
  6
Continuous
 62
     7
370
    15
100
AcDbLine
 10
45.3202871078
 20
97.036998249
 30
0.0
 11
47.3202911609
 21
97.036998249
 31
0.0
  0
LINE
  5
59
330
1F
100
AcDbEntity
  8
0
  6
Continuous
 62
     7
370
    15
100
AcDbLine
 10
47.3202911609
 20
117.0370015272
 30
0.0
 11
45.3202871078
 21
117.0370015272
 31
0.0
  0
LINE
  5
5A
330
1F
100
AcDbEntity
  8
0
  6
Continuous
 62
     7
370
    15
100
AcDbLine
 10
309.5049483173
 20
118.988532103
 30
0.0
 11
297.1356285208
 21
118.988532103
 31
0.0
  0
LINE
  5
5B
330
1F
100
AcDbEntity
  8
0
  6
Continuous
 62
     7
370
    15
100
AcDbLine
 10
383.3202866309
 20
41.9885325202
 30
0.0
 11
383.3202866309
 21
39.9885284671
 31
0.0
  0
SPLINE
  5
5C
330
1F
100
AcDbEntity
  8
0
  6
Continuous
 62
     7
370
    15
100
AcDbSpline
210
0.0
220
0.0
230
1.0
 70
    24
 71
     3
 72
    15
 73
    11
 74
     0
 42
0.00000001
 43
0.00000001
 40
0.0
 40
0.0
 40
0.0
 40
0.0
 40
0.1250005806761472
 40
0.2500007587496233
 40
0.3750004991509592
 40
0.500000210588454
 40
0.6250008442761465
 40
0.7500005846774824
 40
0.8750001356826923
 40
1.0
 40
1.0
 40
1.0
 40
1.0
 10
368.8202795975732
 20
39.98852846711093
 30
0.0
 10
369.7693013023479
 20
39.98852846711093
 30
0.0
 10
371.6673416552819
 20
39.9885284671109
 30
0.0
 10
374.4049364259048
 20
39.98852846711095
 30
0.0
 10
376.9281108487618
 20
39.98852846711085
 30
0.0
 10
379.1389571229907
 20
39.98852846711095
 30
0.0
 10
380.9561097198712
 20
39.98852846711093
 30
0.0
 10
382.2961844863784
 20
39.9885284671109
 30
0.0
 10
383.1584022906113
 20
39.9885284671109
 30
0.0
 10
383.2663251390665
 20
39.9885284671109
 30
0.0
 10
383.3202866309213
 20
39.9885284671109
 30
0.0
  0
SPLINE
  5
5D
330
1F
100
AcDbEntity
  8
0
  6
Continuous
 62
     7
370
    15
100
AcDbSpline
210
0.0
220
0.0
230
1.0
 70
    24
 71
     3
 72
    15
 73
    11
 74
     0
 42
0.00000001
 43
0.00000001
 40
0.0
 40
0.0
 40
0.0
 40
0.0
 40
0.1249998643173077
 40
0.2499994153225177
 40
0.3749991557238535
 40
0.4999997894115459
 40
0.6249995008490408
 40
0.7499992412503768
 40
0.8749994193238528
 40
1.0
 40
1.0
 40
1.0
 40
1.0
 10
383.3202866309213
 20
41.98853252022678
 30
0.0
 10
383.2663251390665
 20
41.98853252022678
 30
0.0
 10
383.1584022906113
 20
41.98853252022675
 30
0.0
 10
382.2961844863783
 20
41.98853252022685
 30
0.0
 10
380.9561097198713
 20
41.98853252022669
 30
0.0
 10
379.1389571229906
 20
41.98853252022685
 30
0.0
 10
376.9281108487618
 20
41.98853252022675
 30
0.0
 10
374.4049364259049
 20
41.98853252022672
 30
0.0
 10
371.6673416552819
 20
41.9885325202268
 30
0.0
 10
369.7693013023478
 20
41.98853252022678
 30
0.0
 10
368.8202795975732
 20
41.98853252022678
 30
0.0
  0
LINE
  5
5E
330
1F
100
AcDbEntity
  8
0
  6
Continuous
 62
     7
370
    15
100
AcDbLine
 10
67.8202880018
 20
39.9885284671
 30
0.0
 11
368.8202795976
 21
39.9885284671
 31
0.0
  0
LINE
  5
5F
330
1F
100
AcDbEntity
  8
0
  6
Continuous
 62
     7
370
    15
100
AcDbLine
 10
368.8202795976
 20
41.9885325202
 30
0.0
 11
67.8202880018
 21
41.9885325202
 31
0.0
  0
LINE
  5
60
330
1F
100
AcDbEntity
  8
0
  6
Continuous
 62
     7
370
    15
100
AcDbLine
 10
53.3202884191
 20
41.9885325202
 30
0.0
 11
53.3202884191
 21
39.9885284671
 31
0.0
  0
SPLINE
  5
61
330
1F
100
AcDbEntity
  8
0
  6
Continuous
 62
     7
370
    15
100
AcDbSpline
210
0.0
220
0.0
230
1.0
 70
    24
 71
     3
 72
    15
 73
    11
 74
     0
 42
0.00000001
 43
0.00000001
 40
0.0
 40
0.0
 40
0.0
 40
0.0
 40
0.1249999050753636
 40
0.2499994968385273
 40
0.3749992779978786
 40
0.4999999524438778
 40
0.6249997046393787
 40
0.7499994857987302
 40
0.8749997046303644
 40
1.0
 40
1.0
 40
1.0
 40
1.0
 10
53.32028841906061
 20
39.98852846711093
 30
0.0
 10
53.37424991091474
 20
39.98852846711095
 30
0.0
 10
53.48217275936851
 20
39.98852846711093
 30
0.0
 10
54.34439056361221
 20
39.98852846711093
 30
0.0
 10
55.68446533007815
 20
39.9885284671109
 30
0.0
 10
57.50161792711278
 20
39.98852846711095
 30
0.0
 10
59.71246420076628
 20
39.9885284671109
 30
0.0
 10
62.23563862577097
 20
39.9885284671109
 30
0.0
 10
64.97323100802687
 20
39.98852846711095
 30
0.0
 10
66.87126881019873
 20
39.9885284671109
 30
0.0
 10
67.8202880018281
 20
39.98852846711093
 30
0.0
  0
SPLINE
  5
62
330
1F
100
AcDbEntity
  8
0
  6
Continuous
 62
     7
370
    15
100
AcDbSpline
210
0.0
220
0.0
230
1.0
 70
    24
 71
     3
 72
    15
 73
    11
 74
     0
 42
0.00000001
 43
0.00000001
 40
0.0
 40
0.0
 40
0.0
 40
0.0
 40
0.1250002953696357
 40
0.25000051420127
 40
0.3750002953606213
 40
0.5000000475561223
 40
0.6250007220021214
 40
0.7500005031614728
 40
0.8750000949246365
 40
1.0
 40
1.0
 40
1.0
 40
1.0
 10
67.8202880018281
 20
41.98853252022678
 30
0.0
 10
66.87126881019873
 20
41.98853252022678
 30
0.0
 10
64.97323100802687
 20
41.9885325202268
 30
0.0
 10
62.23563862577097
 20
41.98853252022672
 30
0.0
 10
59.71246420076634
 20
41.98853252022683
 30
0.0
 10
57.50161792711275
 20
41.98853252022675
 30
0.0
 10
55.68446533007815
 20
41.98853252022678
 30
0.0
 10
54.34439056361221
 20
41.98853252022678
 30
0.0
 10
53.48217275936854
 20
41.98853252022678
 30
0.0
 10
53.37424991091477
 20
41.98853252022678
 30
0.0
 10
53.32028841906061
 20
41.98853252022678
 30
0.0
  0
LINE
  5
63
330
1F
100
AcDbEntity
  8
0
  6
Continuous
 62
     7
370
    15
100
AcDbLine
 10
381.4995882505
 20
89.0059801707
 30
0.0
 11
382.3202846044
 21
41.9885325202
 31
0.0
  0
LINE
  5
64
330
1F
100
AcDbEntity
  8
0
  6
Continuous
 62
     7
370
    15
100
AcDbLine
 10
54.3202904456
 20
41.9885325202
 30
0.0
 11
55.1409867995
 21
89.0059801707
 31
0.0
  0
SPLINE
  5
65
330
1F
100
AcDbEntity
  8
0
  6
Continuous
 62
     7
370
    15
100
AcDbSpline
210
0.0
220
0.0
230
1.0
 70
     8
 71
     3
 72
     9
 73
     5
 74
     0
 42
0.00000001
 43
0.00000001
 40
0.0
 40
0.0
 40
0.0
 40
0.0
 40
0.4999955944800349
 40
0.9999999999999999
 40
0.9999999999999999
 40
0.9999999999999999
 40
0.9999999999999999
 10
264.2851096981095
 20
89.8380833634656
 30
0.0
 10
264.2024525387569
 20
89.8815966189567
 30
0.0
 10
264.0371367634477
 20
89.96862389673971
 30
0.0
 10
263.8507851963645
 20
89.9818965515708
 30
0.0
 10
263.7576085918473
 20
89.98853293745928
 30
0.0
  0
SPLINE
  5
66
330
1F
100
AcDbEntity
  8
0
  6
Continuous
 62
     7
370
    15
100
AcDbSpline
210
0.0
220
0.0
230
1.0
 70
     8
 71
     3
 72
     9
 73
     5
 74
     0
 42
0.00000001
 43
0.00000001
 40
0.0
 40
0.0
 40
0.0
 40
0.0
 40
0.5000013304021699
 40
1.0
 40
1.0
 40
1.0
 40
1.0
 10
138.7576085918473
 20
89.98853293745928
 30
0.0
 10
138.8507851347145
 20
89.98189639885973
 30
0.0
 10
139.0371377246011
 20
89.9686233569777
 30
0.0
 10
139.2024550037592
 20
89.88159661744926
 30
0.0
 10
139.2851134233998
 20
89.8380833634656
 30
0.0
  0
SPLINE
  5
67
330
1F
100
AcDbEntity
  8
0
  6
Continuous
 62
     7
370
    15
100
AcDbSpline
210
0.0
220
0.0
230
1.0
 70
     8
 71
     3
 72
     9
 73
     5
 74
     0
 42
0.00000001
 43
0.00000001
 40
0.0
 40
0.0
 40
0.0
 40
0.0
 40
0.500004405519965
 40
0.9999999999999999
 40
0.9999999999999999
 40
0.9999999999999999
 40
0.9999999999999999
 10
342.8829607956933
 20
89.98853293745928
 30
0.0
 10
342.7897841911761
 20
89.9818965515708
 30
0.0
 10
342.6034326240929
 20
89.96862389673971
 30
0.0
 10
342.4381168487838
 20
89.88159661895668
 30
0.0
 10
342.3554596894311
 20
89.8380833634656
 30
0.0
  0
SPLINE
  5
68
330
1F
100
AcDbEntity
  8
0
  6
Continuous
 62
     7
370
    15
100
AcDbSpline
210
0.0
220
0.0
230
1.0
 70
     8
 71
     3
 72
     9
 73
     5
 74
     0
 42
0.00000001
 43
0.00000001
 40
0.0
 40
0.0
 40
0.0
 40
0.0
 40
0.500001202690465
 40
1.0
 40
1.0
 40
1.0
 40
1.0
 10
217.8829626583384
 20
89.98853293745928
 30
0.0
 10
217.7897867260196
 20
89.98189639251764
 30
0.0
 10
217.603435309628
 20
89.96862333456107
 30
0.0
 10
217.4381193387109
 20
89.88159661738665
 30
0.0
 10
217.3554615520762
 20
89.8380833634656
 30
0.0
  0
SPLINE
  5
69
330
1F
100
AcDbEntity
  8
0
  6
Continuous
 62
     7
370
    15
100
AcDbSpline
210
0.0
220
0.0
230
1.0
 70
     8
 71
     3
 72
    19
 73
    15
 74
     0
 42
0.00000001
 43
0.00000001
 40
0.0
 40
0.0
 40
0.0
 40
0.0
 40
0.0851776864022287
 40
0.1696172715361531
 40
0.2533191517165846
 40
0.3362835219757391
 40
0.4185103426697074
 40
0.4999999577625912
 40
0.581489572855475
 40
0.6637164833387621
 40
0.7466807653153879
 40
0.8303826454958194
 40
0.9148223135977712
 40
1.0
 40
1.0
 40
1.0
 40
1.0
 10
342.3554596894311
 20
89.8380833634656
 30
0.0
 10
340.338167880041
 20
88.6606217547234
 30
0.0
 10
336.3210649619695
 20
86.31590174823816
 30
0.0
 10
329.9372552978417
 20
83.55040633230406
 30
0.0
 10
323.4027603936206
 20
81.37016906417882
 30
0.0
 10
316.7481624272515
 20
79.82831934785028
 30
0.0
 10
310.0420429576496
 20
78.9082646251692
 30
0.0
 10
303.3202883952339
 20
78.60389387641142
 30
0.0
 10
296.5985315148438
 20
78.90826528331912
 30
0.0
 10
289.8924115996551
 20
79.8283175834385
 30
0.0
 10
283.2378141604091
 20
81.3701701712336
 30
0.0
 10
276.7033197998074
 20
83.55040792500718
 30
0.0
 10
270.3195060188669
 20
86.31589976860512
 30
0.0
 10
266.3024013832528
 20
88.66062147634707
 30
0.0
 10
264.2851096981095
 20
89.8380833634656
 30
0.0
  0
SPLINE
  5
6A
330
1F
100
AcDbEntity
  8
0
  6
Continuous
 62
     7
370
    15
100
AcDbSpline
210
0.0
220
0.0
230
1.0
 70
     8
 71
     3
 72
    19
 73
    15
 74
     0
 42
0.00000001
 43
0.00000001
 40
0.0
 40
0.0
 40
0.0
 40
0.0
 40
0.0851776485795726
 40
0.1696173495402964
 40
0.2533192422023388
 40
0.3362835107206589
 40
0.4185103709945038
 40
0.5000000104063026
 40
0.5814896498181014
 40
0.6637165171067368
 40
0.7466807566573531
 40
0.8303826815727187
 40
0.9148223514204274
 40
1.0
 40
1.0
 40
1.0
 40
1.0
 10
217.3554615520762
 20
89.8380833634656
 30
0.0
 10
215.3381712179379
 20
88.66062126182628
 30
0.0
 10
211.3210676064175
 20
86.31589815435945
 30
0.0
 10
204.9372527189358
 20
83.55040847944167
 30
0.0
 10
198.4027577842992
 20
81.37017038990405
 30
0.0
 10
191.7481619011618
 20
79.82831791231307
 30
0.0
 10
185.0420433193011
 20
78.90826492128144
 30
0.0
 10
178.3202865488468
 20
78.6038938463467
 30
0.0
 10
171.5985296316469
 20
78.90826504260292
 30
0.0
 10
164.8924115106909
 20
79.82831740852625
 30
0.0
 10
158.2378157691434
 20
81.37017145314046
 30
0.0
 10
151.7033208094284
 20
83.55040713448125
 30
0.0
 10
145.3195068016409
 20
86.31589899699193
 30
0.0
 10
141.3024038141825
 20
88.66062139973741
 30
0.0
 10
139.2851134233998
 20
89.8380833634656
 30
0.0
  0
LINE
  5
6B
330
1F
100
AcDbEntity
  8
0
  6
Continuous
 62
     7
370
    15
100
AcDbLine
 10
356.3145992749
 20
89.9885329375
 30
0.0
 11
342.8829607957
 21
89.9885329375
 31
0.0
  0
LINE
  5
6C
330
1F
100
AcDbEntity
  8
0
  6
Continuous
 62
     7
370
    15
100
AcDbLine
 10
138.7576085918
 20
89.9885329375
 30
0.0
 11
125.314593076
 21
89.9885329375
 31
0.0
  0
LINE
  5
6D
330
1F
100
AcDbEntity
  8
0
  6
Continuous
 62
     7
370
    15
100
AcDbLine
 10
263.7576085918
 20
89.9885329375
 30
0.0
 11
250.314593076
 21
89.9885329375
 31
0.0
  0
LINE
  5
6E
330
1F
100
AcDbEntity
  8
0
  6
Continuous
 62
     7
370
    15
100
AcDbLine
 10
244.8145931058
 20
89.9885329375
 30
0.0
 11
236.8145917945
 21
89.9885329375
 31
0.0
  0
LINE
  5
6F
330
1F
100
AcDbEntity
  8
0
  6
Continuous
 62
     7
370
    15
100
AcDbLine
 10
231.3145918243
 20
89.9885329375
 30
0.0
 11
217.8829626583
 21
89.9885329375
 31
0.0
  0
SPLINE
  5
70
330
1F
100
AcDbEntity
  8
0
  6
Continuous
 62
     7
370
    15
100
AcDbSpline
210
0.0
220
0.0
230
1.0
 70
    24
 71
     3
 72
    11
 73
     7
 74
     0
 42
0.00000001
 43
0.00000001
 40
0.0
 40
0.0
 40
0.0
 40
0.0
 40
0.248238853457618
 40
0.4999800425164743
 40
0.7517307778287474
 40
1.0
 40
1.0
 40
1.0
 40
1.0
 10
375.7349846356439
 20
89.98853293745928
 30
0.0
 10
375.1724914935392
 20
89.98853293745925
 30
0.0
 10
374.0395691440056
 20
89.98853293745923
 30
0.0
 10
372.1106928175965
 20
89.98853293745934
 30
0.0
 10
370.0820121581464
 20
89.98853293745923
 30
0.0
 10
368.6918806775291
 20
89.98853293745928
 30
0.0
 10
368.0016545050668
 20
89.98853293745928
 30
0.0
  0
SPLINE
  5
71
330
1F
100
AcDbEntity
  8
0
  6
Continuous
 62
     7
370
    15
100
AcDbSpline
210
0.0
220
0.0
230
1.0
 70
    24
 71
     3
 72
    11
 73
     7
 74
     0
 42
0.00000001
 43
0.00000001
 40
0.0
 40
0.0
 40
0.0
 40
0.0
 40
0.2468005414032207
 40
0.5000191191199761
 40
0.7532257034191883
 40
1.0
 40
1.0
 40
1.0
 40
1.0
 10
380.4997501366663
 20
89.98853293745928
 30
0.0
 10
380.4399893645922
 20
89.98853293745925
 30
0.0
 10
380.3189137444152
 20
89.98853293745928
 30
0.0
 10
379.3317390171431
 20
89.98853293745928
 30
0.0
 10
377.8325810929464
 20
89.98853293745934
 30
0.0
 10
376.4281608008515
 20
89.98853293745928
 30
0.0
 10
375.7349846356439
 20
89.98853293745928
 30
0.0
  0
SPLINE
  5
72
330
1F
100
AcDbEntity
  8
0
  6
Continuous
 62
     7
370
    15
100
AcDbSpline
210
0.0
220
0.0
230
1.0
 70
     8
 71
     3
 72
    11
 73
     7
 74
     0
 42
0.00000001
 43
0.00000001
 40
0.0
 40
0.0
 40
0.0
 40
0.0
 40
0.2499980381151767
 40
0.5000023586745012
 40
0.7500060049658193
 40
1.0
 40
1.0
 40
1.0
 40
1.0
 10
381.499588250451
 20
89.00598017065936
 30
0.0
 10
381.4826398260814
 20
89.13528350662675
 30
0.0
 10
381.4487425514288
 20
89.39389342795096
 30
0.0
 10
381.2166784664838
 20
89.71808743266324
 30
0.0
 10
380.8884839593932
 20
89.94444956390952
 30
0.0
 10
380.6293264101031
 20
89.97383866870481
 30
0.0
 10
380.4997501366663
 20
89.98853293745928
 30
0.0
  0
SPLINE
  5
73
330
1F
100
AcDbEntity
  8
0
  6
Continuous
 62
     7
370
    15
100
AcDbSpline
210
0.0
220
0.0
230
1.0
 70
    24
 71
     3
 72
     9
 73
     5
 74
     0
 42
0.00000001
 43
0.00000001
 40
0.0
 40
0.0
 40
0.0
 40
0.0
 40
0.4999931677300959
 40
1.0
 40
1.0
 40
1.0
 40
1.0
 10
60.90557551317682
 20
89.98853293745928
 30
0.0
 10
59.92608114810491
 20
89.98853293745928
 30
0.0
 10
57.96706564891574
 20
89.98853293745928
 30
0.0
 10
57.04861251143365
 20
89.98853293745931
 30
0.0
 10
56.58937966757288
 20
89.98853293745928
 30
0.0
  0
SPLINE
  5
74
330
1F
100
AcDbEntity
  8
0
  6
Continuous
 62
     7
370
    15
100
AcDbSpline
210
0.0
220
0.0
230
1.0
 70
    24
 71
     3
 72
    11
 73
     7
 74
     0
 42
0.00000001
 43
0.00000001
 40
0.0
 40
0.0
 40
0.0
 40
0.0
 40
0.2482692935272905
 40
0.5000189173657035
 40
0.7517598787239324
 40
1.0
 40
1.0
 40
1.0
 40
1.0
 10
68.63892054491508
 20
89.98853293745928
 30
0.0
 10
67.94869539669627
 20
89.98853293745928
 30
0.0
 10
66.55856927015199
 20
89.98853293745931
 30
0.0
 10
64.52987683238251
 20
89.98853293745928
 30
0.0
 10
62.60100411228265
 20
89.98853293745928
 30
0.0
 10
61.46807414173391
 20
89.98853293745928
 30
0.0
 10
60.90557551317682
 20
89.98853293745928
 30
0.0
  0
SPLINE
  5
75
330
1F
100
AcDbEntity
  8
0
  6
Continuous
 62
     7
370
    15
100
AcDbSpline
210
0.0
220
0.0
230
1.0
 70
     8
 71
     3
 72
    11
 73
     7
 74
     0
 42
0.00000001
 43
0.00000001
 40
0.0
 40
0.0
 40
0.0
 40
0.0
 40
0.2499976854772516
 40
0.5000016533897893
 40
0.7499968855101566
 40
1.0
 40
1.0
 40
1.0
 40
1.0
 10
55.14098679953089
 20
89.00598017065936
 30
0.0
 10
55.15793511633901
 20
89.1352836798826
 30
0.0
 10
55.1918321758661
 20
89.39389394772287
 30
0.0
 10
55.42389537989462
 20
89.71808186890381
 30
0.0
 10
55.75208282330352
 20
89.94445587878485
 30
0.0
 10
56.01124285477704
 20
89.973840430154
 30
0.0
 10
56.14082491331568
 20
89.98853293745928
 30
0.0
  0
LINE
  5
76
330
1F
100
AcDbEntity
  8
0
  6
Continuous
 62
     7
370
    15
100
AcDbLine
 10
264.2851096981
 20
89.8380833635
 30
0.0
 11
264.0438524478
 21
89.9885329375
 31
0.0
  0
LINE
  5
77
330
1F
100
AcDbEntity
  8
0
  6
Continuous
 62
     7
370
    15
100
AcDbLine
 10
264.0438524478
 20
89.9885329375
 30
0.0
 11
257.1493459337
 21
94.8756071696
 31
0.0
  0
LINE
  5
78
330
1F
100
AcDbEntity
  8
0
  6
Continuous
 62
     7
370
    15
100
AcDbLine
 10
139.2851134234
 20
89.8380833635
 30
0.0
 11
132.1493459337
 21
94.8756071696
 31
0.0
  0
LINE
  5
79
330
1F
100
AcDbEntity
  8
0
  6
Continuous
 62
     7
370
    15
100
AcDbLine
 10
349.4912234538
 20
94.8756071696
 30
0.0
 11
342.5967243903
 21
89.9885329375
 31
0.0
  0
LINE
  5
7A
330
1F
100
AcDbEntity
  8
0
  6
Continuous
 62
     7
370
    15
100
AcDbLine
 10
224.4912271791
 20
94.8756071696
 30
0.0
 11
217.3554615521
 21
89.8380833635
 31
0.0
  0
SPLINE
  5
7B
330
1F
100
AcDbEntity
  8
0
  6
Continuous
 62
     7
370
    15
100
AcDbSpline
210
0.0
220
0.0
230
1.0
 70
     8
 71
     3
 72
     9
 73
     5
 74
     0
 42
0.00000001
 43
0.00000001
 40
0.0
 40
0.0
 40
0.0
 40
0.0
 40
0.4749343665671436
 40
1.0
 40
1.0
 40
1.0
 40
1.0
 10
257.1493459337281
 20
94.87560716956071
 30
0.0
 10
256.2864378009006
 20
95.64845417633113
 30
0.0
 10
254.4695380489101
 20
97.27572535562405
 30
0.0
 10
253.319790609315
 20
99.42946892677129
 30
0.0
 10
252.7160977416562
 20
100.5603256592076
 30
0.0
  0
SPLINE
  5
7C
330
1F
100
AcDbEntity
  8
0
  6
Continuous
 62
     7
370
    15
100
AcDbSpline
210
0.0
220
0.0
230
1.0
 70
     8
 71
     3
 72
     9
 73
     5
 74
     0
 42
0.00000001
 43
0.00000001
 40
0.0
 40
0.0
 40
0.0
 40
0.0
 40
0.4749342390105868
 40
1.0
 40
1.0
 40
1.0
 40
1.0
 10
132.1493459337281
 20
94.87560716956072
 30
0.0
 10
131.286438008033
 20
95.64845430589406
 30
0.0
 10
129.4695382041932
 20
97.2757261950368
 30
0.0
 10
128.3197883162344
 20
99.42946903563397
 30
0.0
 10
127.7160940163659
 20
100.5603256592076
 30
0.0
  0
SPLINE
  5
7D
330
1F
100
AcDbEntity
  8
0
  6
Continuous
 62
     7
370
    15
100
AcDbSpline
210
0.0
220
0.0
230
1.0
 70
     8
 71
     3
 72
     9
 73
     5
 74
     0
 42
0.00000001
 43
0.00000001
 40
0.0
 40
0.0
 40
0.0
 40
0.0
 40
0.5250653799022885
 40
0.9999999999999999
 40
0.9999999999999999
 40
0.9999999999999999
 40
0.9999999999999999
 10
353.9244828217553
 20
100.5603256592076
 30
0.0
 10
353.3207888377252
 20
99.42946871039688
 30
0.0
 10
352.1710387168117
 20
97.27572368721287
 30
0.0
 10
350.3541342747547
 20
95.64845391881245
 30
0.0
 10
349.4912234538126
 20
94.87560716956071
 30
0.0
  0
SPLINE
  5
7E
330
1F
100
AcDbEntity
  8
0
  6
Continuous
 62
     7
370
    15
100
AcDbSpline
210
0.0
220
0.0
230
1.0
 70
     8
 71
     3
 72
     9
 73
     5
 74
     0
 42
0.00000001
 43
0.00000001
 40
0.0
 40
0.0
 40
0.0
 40
0.0
 40
0.5250656334328564
 40
1.0
 40
1.0
 40
1.0
 40
1.0
 10
228.9244753711747
 20
100.5603256592076
 30
0.0
 10
228.3207825035159
 20
99.4294689267713
 30
0.0
 10
227.1710350639208
 20
97.27572535562409
 30
0.0
 10
225.3541353119304
 20
95.64845417633116
 30
0.0
 10
224.4912271791028
 20
94.87560716956071
 30
0.0
  0
SPLINE
  5
7F
330
1F
100
AcDbEntity
  8
0
  6
Continuous
 62
     7
370
    15
100
AcDbSpline
210
0.0
220
0.0
230
1.0
 70
     8
 71
     3
 72
    11
 73
     7
 74
     0
 42
0.00000001
 43
0.00000001
 40
0.0
 40
0.0
 40
0.0
 40
0.0
 40
0.2466130973322911
 40
0.4942674571090405
 40
0.7449639648740388
 40
1.0
 40
1.0
 40
1.0
 40
1.0
 10
252.7160977416562
 20
100.5603256592076
 30
0.0
 10
252.4415602775582
 20
101.2362915255452
 30
0.0
 10
251.8913261832269
 20
102.5910773559058
 30
0.0
 10
251.4689017820558
 20
104.5986127877631
 30
0.0
 10
251.3030769145846
 20
106.3808512865309
 30
0.0
 10
251.3235271142007
 20
107.2156320928883
 30
0.0
 10
251.3338399522828
 20
107.6366039881032
 30
0.0
  0
SPLINE
  5
80
330
1F
100
AcDbEntity
  8
0
  6
Continuous
 62
     7
370
    15
100
AcDbSpline
210
0.0
220
0.0
230
1.0
 70
     8
 71
     3
 72
    11
 73
     7
 74
     0
 42
0.00000001
 43
0.00000001
 40
0.0
 40
0.0
 40
0.0
 40
0.0
 40
0.2466128557749371
 40
0.4942673526474488
 40
0.7449639121950674
 40
1.0
 40
1.0
 40
1.0
 40
1.0
 10
127.7160940163659
 20
100.5603256592076
 30
0.0
 10
127.4415600632934
 20
101.2362918115939
 30
0.0
 10
126.8913325831785
 20
102.5910792559442
 30
0.0
 10
126.468900054284
 20
104.598612154386
 30
0.0
 10
126.303077362346
 20
106.3808513967791
 30
0.0
 10
126.323527264306
 20
107.2156321298474
 30
0.0
 10
126.3338399522828
 20
107.6366039881032
 30
0.0
  0
SPLINE
  5
81
330
1F
100
AcDbEntity
  8
0
  6
Continuous
 62
     7
370
    15
100
AcDbSpline
210
0.0
220
0.0
230
1.0
 70
     8
 71
     3
 72
    11
 73
     7
 74
     0
 42
0.00000001
 43
0.00000001
 40
0.0
 40
0.0
 40
0.0
 40
0.0
 40
0.2550638024561251
 40
0.5057761820190966
 40
0.7533896655576237
 40
1.0
 40
1.0
 40
1.0
 40
1.0
 10
355.3067294352578
 20
107.6366039881032
 30
0.0
 10
355.317050327844
 20
107.2156984624354
 30
0.0
 10
355.337516037196
 20
106.3810681161728
 30
0.0
 10
355.1716389487639
 20
104.5984082217595
 30
0.0
 10
354.7492051977098
 20
102.5910077329911
 30
0.0
 10
354.1990180335716
 20
101.2363031147876
 30
0.0
 10
353.9244828217553
 20
100.5603256592076
 30
0.0
  0
SPLINE
  5
82
330
1F
100
AcDbEntity
  8
0
  6
Continuous
 62
     7
370
    15
100
AcDbSpline
210
0.0
220
0.0
230
1.0
 70
     8
 71
     3
 72
    11
 73
     7
 74
     0
 42
0.00000001
 43
0.00000001
 40
0.0
 40
0.0
 40
0.0
 40
0.0
 40
0.2550360351259612
 40
0.5057325428909595
 40
0.7533869026677089
 40
1.0
 40
1.0
 40
1.0
 40
1.0
 10
230.3067331605481
 20
107.6366039881032
 30
0.0
 10
230.3170459986301
 20
107.2156320928883
 30
0.0
 10
230.3374961982463
 20
106.3808512865309
 30
0.0
 10
230.1716713307751
 20
104.598612787763
 30
0.0
 10
229.7492469296041
 20
102.5910773559058
 30
0.0
 10
229.1990128352727
 20
101.2362915255452
 30
0.0
 10
228.9244753711747
 20
100.5603256592076
 30
0.0
  0
SPLINE
  5
83
330
1F
100
AcDbEntity
  8
0
  6
Continuous
 62
     7
370
    15
100
AcDbSpline
210
0.0
220
0.0
230
1.0
 70
     8
 71
     3
 72
     9
 73
     5
 74
     0
 42
0.00000001
 43
0.00000001
 40
0.0
 40
0.0
 40
0.0
 40
0.0
 40
0.8891987190111186
 40
1.0
 40
1.0
 40
1.0
 40
1.0
 10
252.4080497615861
 20
108.5814717182439
 30
0.0
 10
252.1991210811122
 20
108.7806837063949
 30
0.0
 10
251.9641582139747
 20
109.0047191035359
 30
0.0
 10
251.6653144494966
 20
109.1119146278978
 30
0.0
 10
251.6322021775769
 20
109.1237920293134
 30
0.0
  0
SPLINE
  5
84
330
1F
100
AcDbEntity
  8
0
  6
Continuous
 62
     7
370
    15
100
AcDbSpline
210
0.0
220
0.0
230
1.0
 70
     8
 71
     3
 72
     9
 73
     5
 74
     0
 42
0.00000001
 43
0.00000001
 40
0.0
 40
0.0
 40
0.0
 40
0.0
 40
0.8892019817032663
 40
1.0
 40
1.0
 40
1.0
 40
1.0
 10
127.4080497615861
 20
108.5814717182439
 30
0.0
 10
127.1991205937841
 20
108.7806823594572
 30
0.0
 10
126.9641580407298
 20
109.0047154197881
 30
0.0
 10
126.6653169081434
 20
109.1119145753176
 30
0.0
 10
126.6322059028672
 20
109.1237920293134
 30
0.0
  0
SPLINE
  5
85
330
1F
100
AcDbEntity
  8
0
  6
Continuous
 62
     7
370
    15
100
AcDbSpline
210
0.0
220
0.0
230
1.0
 70
     8
 71
     3
 72
     9
 73
     5
 74
     0
 42
0.00000001
 43
0.00000001
 40
0.0
 40
0.0
 40
0.0
 40
0.0
 40
0.0998385318471477
 40
0.9999999999999999
 40
0.9999999999999999
 40
0.9999999999999999
 40
0.9999999999999999
 10
354.9975154393243
 20
109.1196867594045
 30
0.0
 10
354.9680646398779
 20
109.1090783934631
 30
0.0
 10
354.6730803397128
 20
109.0028231656959
 30
0.0
 10
354.441225983574
 20
108.7810780905989
 30
0.0
 10
354.2325196259545
 20
108.5814717182439
 30
0.0
  0
SPLINE
  5
86
330
1F
100
AcDbEntity
  8
0
  6
Continuous
 62
     7
370
    15
100
AcDbSpline
210
0.0
220
0.0
230
1.0
 70
     8
 71
     3
 72
     9
 73
     5
 74
     0
 42
0.00000001
 43
0.00000001
 40
0.0
 40
0.0
 40
0.0
 40
0.0
 40
0.0998455373560161
 40
1.0
 40
1.0
 40
1.0
 40
1.0
 10
229.9975228899049
 20
109.1196867594045
 30
0.0
 10
229.9680695587941
 20
109.1090784930787
 30
0.0
 10
229.6730805999405
 20
109.0028317182431
 30
0.0
 10
229.4412272125677
 20
108.7810813246394
 30
0.0
 10
229.2325233512448
 20
108.5814717182439
 30
0.0
  0
SPLINE
  5
87
330
1F
100
AcDbEntity
  8
0
  6
Continuous
 62
     7
370
    15
100
AcDbSpline
210
0.0
220
0.0
230
1.0
 70
     8
 71
     3
 72
    23
 73
    19
 74
     0
 42
0.00000001
 43
0.00000001
 40
0.0
 40
0.0
 40
0.0
 40
0.0
 40
0.0624999765956884
 40
0.1250000789326594
 40
0.1875000118645673
 40
0.2500001097867596
 40
0.3124999689120049
 40
0.3750000514811564
 40
0.4374999914522239
 40
0.4999999680479124
 40
0.5624999446436009
 40
0.6250000469805718
 40
0.6874999799124798
 40
0.7499999701961034
 40
0.8125000681182957
 40
0.8749999210673408
 40
0.9375000234043116
 40
1.0
 40
1.0
 40
1.0
 40
1.0
 10
317.3202869885491
 20
106.988530136041
 30
0.0
 10
317.2681841963474
 20
107.9048200906791
 30
0.0
 10
317.1639785071204
 20
109.7374018434037
 30
0.0
 10
316.3315000708409
 20
112.3806353998905
 30
0.0
 10
315.0376300973898
 20
114.8166509050147
 30
0.0
 10
313.2831304158232
 20
116.9518397150764
 30
0.0
 10
311.1485294913525
 20
118.704139882341
 30
0.0
 10
308.7123564005699
 20
120.0062174362923
 30
0.0
 10
306.0691664954678
 20
120.8080406431439
 30
0.0
 10
303.3202882810456
 20
121.0787730730556
 30
0.0
 10
300.5714085143172
 20
120.8080391691338
 30
0.0
 10
297.9282160827891
 20
120.0062214158512
 30
0.0
 10
295.492045535948
 20
118.7041350470688
 30
0.0
 10
293.3574396095477
 20
116.9518424594707
 30
0.0
 10
291.6029381724027
 20
114.8166525670425
 30
0.0
 10
290.3090783764525
 20
112.3806332867185
 30
0.0
 10
289.4765978399295
 20
109.7374020898121
 30
0.0
 10
289.3723924780834
 20
107.9048201728152
 30
0.0
 10
289.3202898495721
 20
106.988530136041
 30
0.0
  0
SPLINE
  5
88
330
1F
100
AcDbEntity
  8
0
  6
Continuous
 62
     7
370
    15
100
AcDbSpline
210
0.0
220
0.0
230
1.0
 70
     8
 71
     3
 72
    23
 73
    19
 74
     0
 42
0.00000001
 43
0.00000001
 40
0.0
 40
0.0
 40
0.0
 40
0.0
 40
0.0624999731387006
 40
0.1250000720186768
 40
0.1874999215107409
 40
0.2500000159759386
 40
0.3125001104411363
 40
0.3749999599332005
 40
0.4375000588131766
 40
0.5000000319518773
 40
0.562500005090578
 40
0.6249999416046597
 40
0.6874999407341505
 40
0.749999904041203
 40
0.8124999985064008
 40
0.8749999279813233
 40
0.9375000268612994
 40
1.0
 40
1.0
 40
1.0
 40
1.0
 10
289.3202898495721
 20
106.988530136041
 30
0.0
 10
289.3723924678638
 20
106.0722400856493
 30
0.0
 10
289.4765978092704
 20
104.2396581414176
 30
0.0
 10
290.3090784990888
 20
101.5964271487729
 30
0.0
 10
291.6029377125178
 20
99.16040709225571
 30
0.0
 10
293.3574423336703
 20
97.02521887459382
 30
0.0
 10
295.4920407775702
 20
95.2729155323738
 30
0.0
 10
297.9282186487416
 20
93.97084099719761
 30
0.0
 10
300.5714081547094
 20
93.16902039351932
 30
0.0
 10
303.320288281046
 20
92.89828755374032
 30
0.0
 10
306.0691668550742
 20
93.16901891951076
 30
0.0
 10
308.7123538346279
 20
93.97084497674757
 30
0.0
 10
311.1485342497308
 20
95.27291069710458
 30
0.0
 10
313.2831276916978
 20
97.02522161898251
 30
0.0
 10
315.0376305572762
 20
99.16040875428295
 30
0.0
 10
316.3314999482043
 20
101.5964250356009
 30
0.0
 10
317.1639785377794
 20
104.2396583878259
 30
0.0
 10
317.2681842065671
 20
106.0722401677854
 30
0.0
 10
317.3202869885491
 20
106.988530136041
 30
0.0
  0
SPLINE
  5
89
330
1F
100
AcDbEntity
  8
0
  6
Continuous
 62
     7
370
    15
100
AcDbSpline
210
0.0
220
0.0
230
1.0
 70
     8
 71
     3
 72
    23
 73
    19
 74
     0
 42
0.00000001
 43
0.00000001
 40
0.0
 40
0.0
 40
0.0
 40
0.0
 40
0.0624999811018416
 40
0.1250000636329842
 40
0.1874999696571436
 40
0.2500000387565974
 40
0.3124999615479427
 40
0.3749999860900468
 40
0.4375000053309922
 40
0.5000000011204834
 40
0.5624999758031042
 40
0.6249999950440496
 40
0.6875000382908109
 40
0.7499999610821564
 40
0.8125000301816101
 40
0.8749999412047031
 40
0.9375000170020269
 40
1.0
 40
1.0
 40
1.0
 40
1.0
 10
192.3202866920566
 20
106.988530136041
 30
0.0
 10
192.2681824590615
 20
107.9048199995693
 30
0.0
 10
192.1639739085127
 20
109.7374012136447
 30
0.0
 10
191.3315002081214
 20
112.3806353717448
 30
0.0
 10
190.0376317559381
 20
114.8166506063884
 30
0.0
 10
188.2831341127542
 20
116.951841735294
 30
0.0
 10
186.1485300857931
 20
118.7041376525869
 30
0.0
 10
183.7123578720413
 20
120.0062192145605
 30
0.0
 10
181.0691661892122
 20
120.8080400498687
 30
0.0
 10
178.3202868674019
 20
121.0787730217623
 30
0.0
 10
175.5714075363206
 20
120.8080399980589
 30
0.0
 10
172.9282159866991
 20
120.0062189801834
 30
0.0
 10
170.49204319064
 20
118.704137946952
 30
0.0
 10
168.3574389526344
 20
116.9518417287633
 30
0.0
 10
166.6029415492281
 20
114.8166504560252
 30
0.0
 10
165.3090719793222
 20
112.3806357056055
 30
0.0
 10
164.476600312449
 20
109.7374009543727
 30
0.0
 10
164.3723908278827
 20
107.9048199553189
 30
0.0
 10
164.3202861242818
 20
106.988530136041
 30
0.0
  0
SPLINE
  5
8A
330
1F
100
AcDbEntity
  8
0
  6
Continuous
 62
     7
370
    15
100
AcDbSpline
210
0.0
220
0.0
230
1.0
 70
     8
 71
     3
 72
    23
 73
    19
 74
     0
 42
0.00000001
 43
0.00000001
 40
0.0
 40
0.0
 40
0.0
 40
0.0
 40
0.0624999795409806
 40
0.1250000518813067
 40
0.1874999594474112
 40
0.2500000250898677
 40
0.312500052062896
 40
0.3750000118699491
 40
0.4375000276539
 40
0.4999999988795288
 40
0.5624999912120265
 40
0.6250000069959775
 40
0.6874999480983504
 40
0.7499999750713786
 40
0.8125000407138351
 40
0.874999943281006
 40
0.9375000223551507
 40
1.0
 40
1.0
 40
1.0
 40
1.0
 10
164.3202861242818
 20
106.988530136041
 30
0.0
 10
164.372390817663
 20
106.0722403031457
 30
0.0
 10
164.4766002817899
 20
104.239659276857
 30
0.0
 10
165.3090721019586
 20
101.5964247298858
 30
0.0
 10
166.6029410893423
 20
99.16040920327262
 30
0.0
 10
168.3574416767559
 20
97.02521960529614
 30
0.0
 10
170.4920384322622
 20
95.27291263249032
 30
0.0
 10
172.9282185526447
 20
93.97084343286087
 30
0.0
 10
175.5714071767139
 20
93.16901956459515
 30
0.0
 10
178.3202868674019
 20
92.89828760503356
 30
0.0
 10
181.0691665488193
 20
93.16901951278496
 30
0.0
 10
183.7123553060948
 20
93.97084319848386
 30
0.0
 10
186.1485348441711
 20
95.27291292685614
 30
0.0
 10
188.2831313886323
 20
97.02521959876567
 30
0.0
 10
190.0376322158239
 20
99.1604090529094
 30
0.0
 10
191.3315000854849
 20
101.5964250637466
 30
0.0
 10
192.1639739391718
 20
104.2396590175849
 30
0.0
 10
192.2681824692812
 20
106.0722402588952
 30
0.0
 10
192.3202866920567
 20
106.988530136041
 30
0.0
  0
CIRCLE
  5
8B
330
1F
100
AcDbEntity
  8
0
  6
Continuous
 62
     7
370
    15
100
AcDbCircle
 10
303.3202866945
 20
106.9885296592
 30
0.0
 40
13.5
  0
CIRCLE
  5
8C
330
1F
100
AcDbEntity
  8
0
  6
Continuous
 62
     7
370
    15
100
AcDbCircle
 10
178.3202866945
 20
106.9885296592
 30
0.0
 40
13.49999999999999
  0
SPLINE
  5
8D
330
1F
100
AcDbEntity
  8
0
  6
Continuous
 62
     7
370
    15
100
AcDbSpline
210
0.0
220
0.0
230
1.0
 70
     8
 71
     3
 72
     9
 73
     5
 74
     0
 42
0.00000001
 43
0.00000001
 40
0.0
 40
0.0
 40
0.0
 40
0.0
 40
0.4999937175854885
 40
1.0
 40
1.0
 40
1.0
 40
1.0
 10
55.14098679953086
 20
89.00598017065936
 30
0.0
 10
55.15660009071927
 20
89.13664222891713
 30
0.0
 10
55.18782706545763
 20
89.39796962896679
 30
0.0
 10
55.35588764742879
 20
89.60051065604144
 30
0.0
 10
55.43991899424066
 20
89.70178244202548
 30
0.0
  0
LINE
  5
8E
330
1F
100
AcDbEntity
  8
0
  6
Continuous
 62
     7
370
    15
100
AcDbLine
 10
383.0062446588
 20
59.9885242948
 30
0.0
 11
383.3204356425
 21
41.9885325202
 31
0.0
  0
LINE
  5
8F
330
1F
100
AcDbEntity
  8
0
  6
Continuous
 62
     7
370
    15
100
AcDbLine
 10
382.8840700381
 20
66.9885235795
 30
0.0
 11
381.8839040988
 21
66.9885235795
 31
0.0
  0
SPLINE
  5
90
330
1F
100
AcDbEntity
  8
0
  6
Continuous
 62
     7
370
    15
100
AcDbSpline
210
0.0
220
0.0
230
1.0
 70
     8
 71
     3
 72
    13
 73
     9
 74
     0
 42
0.00000001
 43
0.00000001
 40
0.0
 40
0.0
 40
0.0
 40
0.0
 40
0.2394384072265368
 40
0.3683399134594369
 40
0.4999757093167251
 40
0.6316158106497888
 40
0.7605268571633901
 40
1.0
 40
1.0
 40
1.0
 40
1.0
 10
382.8840700381326
 20
66.98852357953005
 30
0.0
 10
382.8856970875052
 20
66.89501484247442
 30
0.0
 10
382.8882000578181
 20
66.75116573942653
 30
0.0
 10
382.9034411775456
 20
65.87830281394444
 30
0.0
 10
382.9192098687565
 20
64.97484145334495
 30
0.0
 10
382.9387808171966
 20
63.85339508173873
 30
0.0
 10
382.9672376016487
 20
62.2236885105904
 30
0.0
 10
382.9908773314872
 20
60.86909572359295
 30
0.0
 10
383.006244658761
 20
59.98852429478577
 30
0.0
  0
SPLINE
  5
91
330
1F
100
AcDbEntity
  8
0
  6
Continuous
 62
     7
370
    15
100
AcDbSpline
210
0.0
220
0.0
230
1.0
 70
     8
 71
     3
 72
    13
 73
     9
 74
     0
 42
0.00000001
 43
0.00000001
 40
0.0
 40
0.0
 40
0.0
 40
0.0
 40
0.2394732884457963
 40
0.3683844133424362
 40
0.5000245947179123
 40
0.6316646933424608
 40
0.7605614471853974
 40
1.0
 40
1.0
 40
1.0
 40
1.0
 10
53.63433039122095
 20
59.9885242947858
 30
0.0
 10
53.64969772898117
 20
60.86909632433427
 30
0.0
 10
53.67333747495112
 20
62.22369003545877
 30
0.0
 10
53.70179418025086
 20
63.8533920721836
 30
0.0
 10
53.72136559771307
 20
64.97486531582439
 30
0.0
 10
53.73713323577547
 20
65.87826634153352
 30
0.0
 10
53.75237545226064
 20
66.75119210010863
 30
0.0
 10
53.75487813080421
 20
66.89502448429197
 30
0.0
 10
53.75650501184931
 20
66.98852357953005
 30
0.0
  0
LINE
  5
92
330
1F
100
AcDbEntity
  8
0
  6
Continuous
 62
     7
370
    15
100
AcDbLine
 10
53.7565050118
 20
66.9885235795
 30
0.0
 11
54.7566709512
 21
66.9885235795
 31
0.0
  0
LINE
  5
93
330
1F
100
AcDbEntity
  8
0
  6
Continuous
 62
     7
370
    15
100
AcDbLine
 10
53.3201394074
 20
41.9885325202
 30
0.0
 11
53.6343303912
 21
59.9885242948
 31
0.0
  0
LINE
  5
94
330
1F
100
AcDbEntity
  8
0
  6
Continuous
 62
     7
370
    15
100
AcDbLine
 10
376.6768125289
 20
355.6866305837
 30
0.0
 11
381.3057092422
 21
90.4972585806
 31
0.0
  0
LINE
  5
95
330
1F
100
AcDbEntity
  8
0
  6
Continuous
 62
     7
370
    15
100
AcDbLine
 10
381.190046429
 20
90.4981153974
 30
0.0
 11
381.3057092422
 21
90.4972585806
 31
0.0
  0
LINE
  5
96
330
1F
100
AcDbEntity
  8
0
  6
Continuous
 62
     7
370
    15
100
AcDbLine
 10
55.3234664195
 20
90.4972585806
 30
0.0
 11
55.4391292327
 21
90.4981153974
 31
0.0
  0
LINE
  5
97
330
1F
100
AcDbEntity
  8
0
  6
Continuous
 62
     7
370
    15
100
AcDbLine
 10
55.3234664195
 20
90.4972585806
 30
0.0
 11
59.9523780339
 21
355.6866305837
 31
0.0
  0
SPLINE
  5
98
330
1F
100
AcDbEntity
  8
0
  6
Continuous
 62
     7
370
    15
100
AcDbSpline
210
0.0
220
0.0
230
1.0
 70
     8
 71
     3
 72
     9
 73
     5
 74
     0
 42
0.00000001
 43
0.00000001
 40
0.0
 40
0.0
 40
0.0
 40
0.0
 40
0.0059626526296281
 40
1.0
 40
1.0
 40
1.0
 40
1.0
 10
60.17783260279169
 20
355.7220655450147
 30
0.0
 10
60.17651871168967
 20
355.7220109547847
 30
0.0
 10
59.95616525767466
 20
355.712855595027
 30
0.0
 10
59.95426598344545
 20
355.6997038798067
 30
0.0
 10
59.95237803392875
 20
355.6866305836958
 30
0.0
  0
LINE
  5
99
330
1F
100
AcDbEntity
  8
0
  6
Continuous
 62
     7
370
    15
100
AcDbLine
 10
356.3145992749
 20
89.9885329375
 30
0.0
 11
369.8074666255
 21
89.9885329375
 31
0.0
  0
LINE
  5
9A
330
1F
100
AcDbEntity
  8
0
  6
Continuous
 62
     7
370
    15
100
AcDbLine
 10
66.8217239373
 20
89.9885329375
 30
0.0
 11
125.314593076
 21
89.9885329375
 31
0.0
  0
SPLINE
  5
9B
330
1F
100
AcDbEntity
  8
0
  6
Continuous
 62
     7
370
    15
100
AcDbSpline
210
0.0
220
0.0
230
1.0
 70
    24
 71
     3
 72
    15
 73
    11
 74
     0
 42
0.00000001
 43
0.00000001
 40
0.0
 40
0.0
 40
0.0
 40
0.0
 40
0.1165271728221005
 40
0.2400252699462588
 40
0.3686509575825466
 40
0.5000001582917297
 40
0.6313505742589238
 40
0.7599747000343845
 40
0.8834719668773553
 40
1.0
 40
1.0
 40
1.0
 40
1.0
 10
369.8074666255044
 20
89.98853293745928
 30
0.0
 10
370.4783470250148
 20
89.98853293745928
 30
0.0
 10
371.8602414372306
 20
89.98853293745925
 30
0.0
 10
373.9101277733646
 20
89.98853293745928
 30
0.0
 10
375.8813285242753
 20
89.98853293745928
 30
0.0
 10
377.6396801559659
 20
89.98853293745928
 30
0.0
 10
379.0701624390814
 20
89.98853293745931
 30
0.0
 10
380.0847514840655
 20
89.98853293745925
 30
0.0
 10
380.6966186270735
 20
89.98853293745928
 30
0.0
 10
380.7701109592746
 20
89.98853293745928
 30
0.0
 10
380.8057901852654
 20
89.98853293745928
 30
0.0
  0
SPLINE
  5
9C
330
1F
100
AcDbEntity
  8
0
  6
Continuous
 62
     7
370
    15
100
AcDbSpline
210
0.0
220
0.0
230
1.0
 70
     8
 71
     3
 72
    11
 73
     7
 74
     0
 42
0.00000001
 43
0.00000001
 40
0.0
 40
0.0
 40
0.0
 40
0.0
 40
0.2499976692174941
 40
0.5000006503595698
 40
0.7499986083742798
 40
0.9999999999999999
 40
0.9999999999999999
 40
0.9999999999999999
 40
0.9999999999999999
 10
381.3057092421579
 20
90.49725858061724
 30
0.0
 10
381.2991830008941
 20
90.43088737414054
 30
0.0
 10
381.2861303796975
 20
90.29814355093868
 30
0.0
 10
381.1709653204089
 20
90.12967670665864
 30
0.0
 10
381.0045314187843
 20
90.01159584941088
 30
0.0
 10
380.8720375663937
 20
89.99622060997159
 30
0.0
 10
380.8057901852654
 20
89.98853293745928
 30
0.0
  0
SPLINE
  5
9D
330
1F
100
AcDbEntity
  8
0
  6
Continuous
 62
     7
370
    15
100
AcDbSpline
210
0.0
220
0.0
230
1.0
 70
    24
 71
     3
 72
    15
 73
    11
 74
     0
 42
0.00000001
 43
0.00000001
 40
0.0
 40
0.0
 40
0.0
 40
0.0
 40
0.1165280259867641
 40
0.2400252852670761
 40
0.368649403165922
 40
0.4999992663886209
 40
0.6313491296113197
 40
0.7599740422804034
 40
0.8834721318418521
 40
0.9999999999999999
 40
0.9999999999999999
 40
0.9999999999999999
 40
0.9999999999999999
 10
55.82340037756433
 20
89.98853293745928
 30
0.0
 10
55.85907967280679
 20
89.98853293745931
 30
0.0
 10
55.93257214765282
 20
89.98853293745934
 30
0.0
 10
56.54443815592678
 20
89.9885329374592
 30
0.0
 10
57.55903032931053
 20
89.98853293745934
 30
0.0
 10
58.98949468289077
 20
89.98853293745928
 30
0.0
 10
60.74785929264609
 20
89.98853293745928
 30
0.0
 10
62.71905036430972
 20
89.98853293745928
 30
0.0
 10
64.76893782116488
 20
89.98853293745925
 30
0.0
 10
66.15083844251419
 20
89.98853293745928
 30
0.0
 10
66.82172393732539
 20
89.98853293745928
 30
0.0
  0
SPLINE
  5
9E
330
1F
100
AcDbEntity
  8
0
  6
Continuous
 62
     7
370
    15
100
AcDbSpline
210
0.0
220
0.0
230
1.0
 70
     8
 71
     3
 72
    11
 73
     7
 74
     0
 42
0.00000001
 43
0.00000001
 40
0.0
 40
0.0
 40
0.0
 40
0.0
 40
0.2500005412917241
 40
0.4999976489841171
 40
0.7499997797867903
 40
1.0
 40
1.0
 40
1.0
 40
1.0
 10
55.82340037756433
 20
89.98853293745928
 30
0.0
 10
55.75715308483822
 20
89.99622062651046
 30
0.0
 10
55.62465940925071
 20
90.01159589902733
 30
0.0
 10
55.45822418160812
 20
90.12967650819454
 30
0.0
 10
55.34306363897171
 20
90.29814505920989
 30
0.0
 10
55.32999880935679
 20
90.43088757589163
 30
0.0
 10
55.32346641951074
 20
90.49725858061724
 30
0.0
  0
SPLINE
  5
9F
330
1F
100
AcDbEntity
  8
0
  6
Continuous
 62
     7
370
    15
100
AcDbSpline
210
0.0
220
0.0
230
1.0
 70
     8
 71
     3
 72
    13
 73
     9
 74
     0
 42
0.00000001
 43
0.00000001
 40
0.0
 40
0.0
 40
0.0
 40
0.0
 40
0.198620578475525
 40
0.4310120313504968
 40
0.5604839657412078
 40
0.6984781181570252
 40
0.8449881208636452
 40
1.0
 40
1.0
 40
1.0
 40
1.0
 10
356.3145992749261
 20
89.98853293745928
 30
0.0
 10
356.2105733362336
 20
89.99801316403865
 30
0.0
 10
355.9848342336031
 20
90.01858551231709
 30
0.0
 10
355.7212317733689
 20
90.16723406294952
 30
0.0
 10
355.5345323739278
 20
90.35084870774662
 30
0.0
 10
355.4156183406539
 20
90.53303322214722
 30
0.0
 10
355.331387827864
 20
90.74966834244225
 30
0.0
 10
355.3202983366598
 20
90.9074250581322
 30
0.0
 10
355.3145972483682
 20
90.98852751343661
 30
0.0
  0
SPLINE
  5
A0
330
1F
100
AcDbEntity
  8
0
  6
Continuous
 62
     7
370
    15
100
AcDbSpline
210
0.0
220
0.0
230
1.0
 70
     8
 71
     3
 72
    13
 73
     9
 74
     0
 42
0.00000001
 43
0.00000001
 40
0.0
 40
0.0
 40
0.0
 40
0.0
 40
0.1550126700882355
 40
0.3015231475014593
 40
0.439515133475666
 40
0.568989179477747
 40
0.8013834789098685
 40
0.9999999999999999
 40
0.9999999999999999
 40
0.9999999999999999
 40
0.9999999999999999
 10
230.3145935230779
 20
90.98852751343661
 30
0.0
 10
230.3202959825752
 20
90.90742496262477
 30
0.0
 10
230.331388130947
 20
90.7496682039206
 30
0.0
 10
230.4156197258798
 20
90.53303593036726
 30
0.0
 10
230.5345240585947
 20
90.35084525034063
 30
0.0
 10
230.721230105568
 20
90.16723541309338
 30
0.0
 10
230.9848306377938
 20
90.01858701062473
 30
0.0
 10
231.2105683562799
 20
89.9980135223421
 30
0.0
 10
231.3145918243455
 20
89.98853293745928
 30
0.0
  0
SPLINE
  5
A1
330
1F
100
AcDbEntity
  8
0
  6
Continuous
 62
     7
370
    15
100
AcDbSpline
210
0.0
220
0.0
230
1.0
 70
     8
 71
     3
 72
    13
 73
     9
 74
     0
 42
0.00000001
 43
0.00000001
 40
0.0
 40
0.0
 40
0.0
 40
0.0
 40
0.1986184844475625
 40
0.4310102373589598
 40
0.5604857231430902
 40
0.6984774401697353
 40
0.8449876320327849
 40
1.0
 40
1.0
 40
1.0
 40
1.0
 10
236.8145917945432
 20
89.98853293745928
 30
0.0
 10
236.9186167393893
 20
89.99801306545314
 30
0.0
 10
237.1443551256933
 20
90.0185853310616
 30
0.0
 10
237.4079536414827
 20
90.1672382256934
 30
0.0
 10
237.5946634425084
 20
90.35084382147967
 30
0.0
 10
237.7135674304537
 20
90.53303613025248
 30
0.0
 10
237.7977992646236
 20
90.74966814923513
 30
0.0
 10
237.8088913790534
 20
90.90742494405674
 30
0.0
 10
237.8145938211011
 20
90.98852751343661
 30
0.0
  0
SPLINE
  5
A2
330
1F
100
AcDbEntity
  8
0
  6
Continuous
 62
     7
370
    15
100
AcDbSpline
210
0.0
220
0.0
230
1.0
 70
     8
 71
     3
 72
    13
 73
     9
 74
     0
 42
0.00000001
 43
0.00000001
 40
0.0
 40
0.0
 40
0.0
 40
0.0
 40
0.1986117410499067
 40
0.4310016325701472
 40
0.5604773411352575
 40
0.6984719091517066
 40
0.8449823531063696
 40
1.0
 40
1.0
 40
1.0
 40
1.0
 10
125.314593076043
 20
89.98853293745928
 30
0.0
 10
125.4186138264476
 20
89.99801413402703
 30
0.0
 10
125.6443462680876
 20
90.01858900627686
 30
0.0
 10
125.9079461550377
 20
90.16722981406753
 30
0.0
 10
126.0946525419633
 20
90.35083878120211
 30
0.0
 10
126.213566689771
 20
90.53302600511881
 30
0.0
 10
126.2977963381973
 20
90.74966366479923
 30
0.0
 10
126.3088911726038
 20
90.90742257983925
 30
0.0
 10
126.314595102601
 20
90.98852751343661
 30
0.0
  0
SPLINE
  5
A3
330
1F
100
AcDbEntity
  8
0
  6
Continuous
 62
     7
370
    15
100
AcDbSpline
210
0.0
220
0.0
230
1.0
 70
     8
 71
     3
 72
    13
 73
     9
 74
     0
 42
0.00000001
 43
0.00000001
 40
0.0
 40
0.0
 40
0.0
 40
0.0
 40
0.198618763187998
 40
0.4310108422371089
 40
0.5604848175962024
 40
0.6984767282799051
 40
0.844987125754808
 40
0.9999999999999999
 40
0.9999999999999999
 40
0.9999999999999999
 40
0.9999999999999999
 10
250.314593076043
 20
89.98853293745928
 30
0.0
 10
250.4186179115705
 20
89.99801317401321
 30
0.0
 10
250.6443560606488
 20
90.01858567520149
 30
0.0
 10
250.9079554804281
 20
90.1672364330344
 30
0.0
 10
251.0946608137095
 20
90.35084520236403
 30
0.0
 10
251.2135653961739
 20
90.53303591809563
 30
0.0
 10
251.2977958897198
 20
90.74966845728066
 30
0.0
 10
251.3088910761032
 20
90.90742500017134
 30
0.0
 10
251.3145951026009
 20
90.98852751343661
 30
0.0
  0
LINE
  5
A4
330
1F
100
AcDbEntity
  8
0
  6
Continuous
 62
     7
370
    15
100
AcDbLine
 10
244.8145931058
 20
89.9885329375
 30
0.0
 11
250.314593076
 21
89.9885329375
 31
0.0
  0
LINE
  5
A5
330
1F
100
AcDbEntity
  8
0
  6
Continuous
 62
     7
370
    15
100
AcDbLine
 10
231.3145918243
 20
89.9885329375
 30
0.0
 11
236.8145917945
 21
89.9885329375
 31
0.0
  0
SPLINE
  5
A6
330
1F
100
AcDbEntity
  8
0
  6
Continuous
 62
     7
370
    15
100
AcDbSpline
210
0.0
220
0.0
230
1.0
 70
     8
 71
     3
 72
    13
 73
     9
 74
     0
 42
0.00000001
 43
0.00000001
 40
0.0
 40
0.0
 40
0.0
 40
0.0
 40
0.1550126302684384
 40
0.3015230700459161
 40
0.4395150205726147
 40
0.5689890333152837
 40
0.8013811794639555
 40
1.0
 40
1.0
 40
1.0
 40
1.0
 10
243.8145948045777
 20
90.98852751343661
 30
0.0
 10
243.8202972633526
 20
90.90742496113982
 30
0.0
 10
243.8313894103192
 20
90.74966819954733
 30
0.0
 10
243.9156210151567
 20
90.53303594635264
 30
0.0
 10
244.0345253134761
 20
90.35084519562709
 30
0.0
 10
244.2212307287903
 20
90.16723643640023
 30
0.0
 10
244.4848301142409
 20
90.01858567433956
 30
0.0
 10
244.7105682681101
 20
89.99801317374128
 30
0.0
 10
244.8145931058453
 20
89.98853293745928
 30
0.0
  0
LINE
  5
A7
330
1F
100
AcDbEntity
  8
0
  6
Continuous
 62
     7
370
    15
100
AcDbLine
 10
251.3145951026
 20
90.9885275134
 30
0.0
 11
251.3145951026
 21
106.7050504455
 31
0.0
  0
LINE
  5
A8
330
1F
100
AcDbEntity
  8
0
  6
Continuous
 62
     7
370
    15
100
AcDbLine
 10
237.8145938211
 20
90.9885275134
 30
0.0
 11
237.8145938211
 21
98.8824698099
 31
0.0
  0
LINE
  5
A9
330
1F
100
AcDbEntity
  8
0
  6
Continuous
 62
     7
370
    15
100
AcDbLine
 10
126.3145951026
 20
90.9885275134
 30
0.0
 11
126.3145951026
 21
106.7050504455
 31
0.0
  0
LINE
  5
AA
330
1F
100
AcDbEntity
  8
0
  6
Continuous
 62
     7
370
    15
100
AcDbLine
 10
355.3145972484
 20
106.7050504455
 30
0.0
 11
355.3145972484
 21
90.9885275134
 31
0.0
  0
LINE
  5
AB
330
1F
100
AcDbEntity
  8
0
  6
Continuous
 62
     7
370
    15
100
AcDbLine
 10
230.3145935231
 20
106.7050504455
 30
0.0
 11
230.3145935231
 21
90.9885275134
 31
0.0
  0
LINE
  5
AC
330
1F
100
AcDbEntity
  8
0
  6
Continuous
 62
     7
370
    15
100
AcDbLine
 10
243.8145948046
 20
98.8750564822
 30
0.0
 11
243.8145948046
 21
90.9885275134
 31
0.0
  0
SPLINE
  5
AD
330
1F
100
AcDbEntity
  8
0
  6
Continuous
 62
     7
370
    15
100
AcDbSpline
210
0.0
220
0.0
230
1.0
 70
     8
 71
     3
 72
    14
 73
    10
 74
     0
 42
0.00000001
 43
0.00000001
 40
0.0
 40
0.0
 40
0.0
 40
0.0
 40
0.0229098946689836
 40
0.150333403387251
 40
0.2744124165202493
 40
0.5114544732137896
 40
0.7484898511910021
 40
0.8725709258749086
 40
1.0
 40
1.0
 40
1.0
 40
1.0
 10
238.6292924576329
 20
108.5090595254224
 30
0.0
 10
238.6500864612503
 20
108.5393728520761
 30
0.0
 10
238.7865355099693
 20
108.7382871478286
 30
0.0
 10
239.1613494621815
 20
108.9920114080622
 30
0.0
 10
239.8447888842623
 20
109.3676793798392
 30
0.0
 10
240.8169298499699
 20
109.5510961964882
 30
0.0
 10
241.7772230333075
 20
109.3619932316994
 30
0.0
 10
242.4804806000297
 20
109.002934960971
 30
0.0
 10
242.7827617905819
 20
108.7345744575405
 30
0.0
 10
242.9359143071698
 20
108.5986080536168
 30
0.0
  0
SPLINE
  5
AE
330
1F
100
AcDbEntity
  8
0
  6
Continuous
 62
     7
370
    15
100
AcDbSpline
210
0.0
220
0.0
230
1.0
 70
     8
 71
     3
 72
    10
 73
     6
 74
     0
 42
0.00000001
 43
0.00000001
 40
0.0
 40
0.0
 40
0.0
 40
0.0
 40
0.0328742519994235
 40
0.4372515941860659
 40
0.9999999999999999
 40
0.9999999999999999
 40
0.9999999999999999
 40
0.9999999999999999
 10
353.6550847285317
 20
113.6253285178464
 30
0.0
 10
353.6976940527604
 20
113.5592553520616
 30
0.0
 10
354.2644292273439
 20
112.6804339244951
 30
0.0
 10
354.9914895633958
 20
110.343701731696
 30
0.0
 10
355.1957454237452
 20
108.0434907384507
 30
0.0
 10
355.3145972483682
 20
106.7050504454892
 30
0.0
  0
SPLINE
  5
AF
330
1F
100
AcDbEntity
  8
0
  6
Continuous
 62
     7
370
    15
100
AcDbSpline
210
0.0
220
0.0
230
1.0
 70
     8
 71
     3
 72
    11
 73
     7
 74
     0
 42
0.00000001
 43
0.00000001
 40
0.0
 40
0.0
 40
0.0
 40
0.0
 40
0.2909215186968425
 40
0.4999743966452753
 40
0.7617077253991956
 40
1.0
 40
1.0
 40
1.0
 40
1.0
 10
251.3145951026009
 20
106.7050504454892
 30
0.0
 10
251.4143651359356
 20
108.0554768523178
 30
0.0
 10
251.5858287748003
 20
110.3763042390039
 30
0.0
 10
252.8646596716905
 20
113.6887400945648
 30
0.0
 10
254.6009795608058
 20
116.517582800367
 30
0.0
 10
256.3230049967622
 20
118.0755217828324
 30
0.0
 10
257.1436536901521
 20
118.8179734119695
 30
0.0
  0
SPLINE
  5
B0
330
1F
100
AcDbEntity
  8
0
  6
Continuous
 62
     7
370
    15
100
AcDbSpline
210
0.0
220
0.0
230
1.0
 70
     8
 71
     3
 72
    11
 73
     7
 74
     0
 42
0.00000001
 43
0.00000001
 40
0.0
 40
0.0
 40
0.0
 40
0.0
 40
0.2382907909127687
 40
0.5000254962631394
 40
0.7090762045591155
 40
1.0
 40
1.0
 40
1.0
 40
1.0
 10
224.4855349355267
 20
118.8179734119695
 30
0.0
 10
225.306178080604
 20
118.0755262859576
 30
0.0
 10
227.0282022272375
 20
116.5175873861319
 30
0.0
 10
228.7645174880207
 20
113.6887545153458
 30
0.0
 10
230.0433537439551
 20
110.3763146324449
 30
0.0
 10
230.2148207632945
 20
108.0554871735056
 30
0.0
 10
230.3145935230779
 20
106.7050504454892
 30
0.0
  0
SPLINE
  5
B1
330
1F
100
AcDbEntity
  8
0
  6
Continuous
 62
     7
370
    15
100
AcDbSpline
210
0.0
220
0.0
230
1.0
 70
     8
 71
     3
 72
    10
 73
     6
 74
     0
 42
0.00000001
 43
0.00000001
 40
0.0
 40
0.0
 40
0.0
 40
0.0
 40
0.562816582708392
 40
0.9672503261790262
 40
1.0
 40
1.0
 40
1.0
 40
1.0
 10
126.314595102601
 20
106.7050504454892
 30
0.0
 10
126.4334547441167
 20
108.0434730820807
 30
0.0
 10
126.6377256035011
 20
110.3436713555193
 30
0.0
 10
127.3645985986164
 20
112.6801595381151
 30
0.0
 10
127.9311664905786
 20
113.5587318261815
 30
0.0
 10
127.9736084335374
 20
113.6245462068837
 30
0.0
  0
SPLINE
  5
B2
330
1F
100
AcDbEntity
  8
0
  6
Continuous
 62
     7
370
    15
100
AcDbSpline
210
0.0
220
0.0
230
1.0
 70
     8
 71
     3
 72
    21
 73
    17
 74
     0
 42
0.00000001
 43
0.00000001
 40
0.0
 40
0.0
 40
0.0
 40
0.0
 40
0.0761466501118357
 40
0.0860849774744128
 40
0.1710690787842868
 40
0.254952344964248
 40
0.3377351223895962
 40
0.4194175996556245
 40
0.5000000379222068
 40
0.5805823268991726
 40
0.6622646505642498
 40
0.7450474898173124
 40
0.8289307559972735
 40
0.9139148573071475
 40
0.9218400543879379
 40
1.0
 40
1.0
 40
1.0
 40
1.0
 10
257.1436536901521
 20
118.8179734119695
 30
0.0
 10
259.212026333633
 20
120.2739532863491
 30
0.0
 10
261.5503539181195
 20
121.9199612788883
 30
0.0
 10
266.1715822015371
 20
125.2296830579122
 30
0.0
 10
271.5111970348266
 20
127.91563381144
 30
0.0
 10
279.2267787904211
 20
131.1394350401952
 30
0.0
 10
287.1965966167303
 20
133.3631404249407
 30
0.0
 10
295.2421509315664
 20
134.6964071474036
 30
0.0
 10
303.3145847476828
 20
135.1335943209548
 30
0.0
 10
311.3870524261924
 20
134.6964410265794
 30
0.0
 10
319.4324795214725
 20
133.3630014053535
 30
0.0
 10
327.4027419084414
 20
131.1399793813688
 30
0.0
 10
335.1166330681802
 20
127.9136060959226
 30
0.0
 10
340.4005950159325
 20
125.2646766259912
 30
0.0
 10
345.0253248007705
 20
121.9602588841666
 30
0.0
 10
347.3630355302728
 20
120.3133049566702
 30
0.0
 10
349.4855312102364
 20
118.8179734119695
 30
0.0
  0
SPLINE
  5
B3
330
1F
100
AcDbEntity
  8
0
  6
Continuous
 62
     7
370
    15
100
AcDbSpline
210
0.0
220
0.0
230
1.0
 70
     8
 71
     3
 72
    19
 73
    15
 74
     0
 42
0.00000001
 43
0.00000001
 40
0.0
 40
0.0
 40
0.0
 40
0.0
 40
0.0860850789234925
 40
0.1710691088585558
 40
0.2549524415943951
 40
0.3377351905286886
 40
0.4194176222214949
 40
0.4999999926023043
 40
0.580582367648414
 40
0.662264797036337
 40
0.7450475527165815
 40
0.8289308594901261
 40
0.9139149058210408
 40
1.0
 40
1.0
 40
1.0
 40
1.0
 10
132.1436536901521
 20
118.8179734119695
 30
0.0
 10
134.4395624517691
 20
120.5283957682912
 30
0.0
 10
139.0020147464278
 20
123.9273637651464
 30
0.0
 10
146.4837794796723
 20
127.9572810111596
 30
0.0
 10
154.2339899666969
 20
131.12848704561
 30
0.0
 10
162.1947208728942
 20
133.366035765437
 30
0.0
 10
170.2426131029359
 20
134.6955939805194
 30
0.0
 10
178.3145935304804
 20
135.1340065193077
 30
0.0
 10
186.3865739182159
 20
134.6955940708997
 30
0.0
 10
194.4344663475221
 20
133.3660355092363
 30
0.0
 10
202.3951968886848
 20
131.1284878674804
 30
0.0
 10
210.1454064327864
 20
127.9572798135866
 30
0.0
 10
217.627172024057
 20
123.9273639426811
 30
0.0
 10
222.1896255647876
 20
120.5283958188399
 30
0.0
 10
224.4855349355267
 20
118.8179734119695
 30
0.0
  0
LINE
  5
B4
330
1F
100
AcDbEntity
  8
0
  6
Continuous
 62
     7
370
    15
100
AcDbLine
 10
336.6829154485
 20
394.9885326394
 30
0.0
 11
99.9462825649
 21
394.9885326394
 31
0.0
  0
SPLINE
  5
B5
330
1F
100
AcDbEntity
  8
0
  6
Continuous
 62
     7
370
    15
100
AcDbSpline
210
0.0
220
0.0
230
1.0
 70
     8
 71
     3
 72
    15
 73
    11
 74
     0
 42
0.00000001
 43
0.00000001
 40
0.0
 40
0.0
 40
0.0
 40
0.0
 40
0.0600931341914867
 40
0.1849335506834195
 40
0.3174278190885241
 40
0.4529559961176724
 40
0.5943498316367596
 40
0.7410185187057927
 40
0.8903386328100975
 40
1.0
 40
1.0
 40
1.0
 40
1.0
 10
60.06902432375421
 20
357.5449692973417
 30
0.0
 10
60.0982822860934
 20
358.1300479190137
 30
0.0
 10
60.18832217058173
 20
359.9305974891192
 30
0.0
 10
60.70393971528107
 20
362.9724767043987
 30
0.0
 10
61.61311628561075
 20
366.6405159323004
 30
0.0
 10
62.92619076824857
 20
370.3022626064529
 30
0.0
 10
64.61287097147267
 20
373.8848672094637
 30
0.0
 10
66.68513666205317
 20
377.3139388695313
 30
0.0
 10
68.84295151457242
 20
380.2657502479273
 30
0.0
 10
70.40708899518597
 20
381.9074065850793
 30
0.0
 10
71.06939679317942
 20
382.602538443498
 30
0.0
  0
SPLINE
  5
B6
330
1F
100
AcDbEntity
  8
0
  6
Continuous
 62
     7
370
    15
100
AcDbSpline
210
0.0
220
0.0
230
1.0
 70
     8
 71
     3
 72
    13
 73
     9
 74
     0
 42
0.00000001
 43
0.00000001
 40
0.0
 40
0.0
 40
0.0
 40
0.0
 40
0.0203379721443135
 40
0.2183714037381705
 40
0.4323908585405732
 40
0.6170462113177287
 40
0.7928698933340298
 40
1.0
 40
1.0
 40
1.0
 40
1.0
 10
87.34417682819834
 20
392.9441827306073
 30
0.0
 10
87.42709212564056
 20
392.9740803384233
 30
0.0
 10
88.31736426119765
 20
393.2950947709765
 30
0.0
 10
90.11399715003752
 20
393.7804336716158
 30
0.0
 10
92.60900089351104
 20
394.3406551596735
 30
0.0
 10
95.03301180988774
 20
394.7056111311273
 30
0.0
 10
97.43844106206875
 20
394.9414551916158
 30
0.0
 10
99.06598489525352
 20
394.9720076048343
 30
0.0
 10
99.94628256493083
 20
394.9885326394361
 30
0.0
  0
SPLINE
  5
B7
330
1F
100
AcDbEntity
  8
0
  6
Continuous
 62
     7
370
    15
100
AcDbSpline
210
0.0
220
0.0
230
1.0
 70
     8
 71
     3
 72
    25
 73
    21
 74
     0
 42
0.00000001
 43
0.00000001
 40
0.0
 40
0.0
 40
0.0
 40
0.0
 40
0.0466814577882489
 40
0.0863076213568136
 40
0.1279251251140958
 40
0.176159613546188
 40
0.2207910400084136
 40
0.2618231868472247
 40
0.3325832931384544
 40
0.397926692648982
 40
0.4671327425822043
 40
0.5322002406846891
 40
0.5982461064584085
 40
0.6611243098068649
 40
0.7228852915575983
 40
0.7824258687101454
 40
0.8394955292072667
 40
0.8952885016841444
 40
0.9478578610312791
 40
1.0
 40
1.0
 40
1.0
 40
1.0
 10
336.6829154484795
 20
394.9885326394361
 30
0.0
 10
337.5631903953259
 20
394.9719451821285
 30
0.0
 10
339.1906981982512
 20
394.9412772455987
 30
0.0
 10
341.5962888308441
 20
394.7062073625896
 30
0.0
 10
344.0196123954554
 20
394.3382072589131
 30
0.0
 10
346.517552174344
 20
393.7908419528184
 30
0.0
 10
348.9759069473094
 20
393.0793150715661
 30
0.0
 10
351.8080939857004
 20
392.0667528472328
 30
0.0
 10
354.947784799165
 20
390.6497262716883
 30
0.0
 10
358.4541470059509
 20
388.6244693319167
 30
0.0
 10
361.7064172442987
 20
386.2835272801664
 30
0.0
 10
364.7717357432813
 20
383.5632939237344
 30
0.0
 10
367.5149801683959
 20
380.5803257394253
 30
0.0
 10
369.9492861702386
 20
377.3213624603482
 30
0.0
 10
372.0148133027058
 20
373.8829690553525
 30
0.0
 10
373.7039271462486
 20
370.3028372601
 30
0.0
 10
375.0138651761595
 20
366.6401208153343
 30
0.0
 10
375.9327722638304
 20
362.973533139444
 30
0.0
 10
376.5181735051793
 20
359.3163304087913
 30
0.0
 10
376.6240768820651
 20
356.8932351353741
 30
0.0
 10
376.676812528901
 20
355.6866305836957
 30
0.0
  0
LINE
  5
B8
330
1F
100
AcDbEntity
  8
0
  6
Continuous
 62
     7
370
    15
100
AcDbLine
 10
50.5958048099
 20
96.4885312089
 30
0.0
 11
55.4280576699
 21
96.4885312089
 31
0.0
  0
SPLINE
  5
B9
330
1F
100
AcDbEntity
  8
0
  6
Continuous
 62
     7
370
    15
100
AcDbSpline
210
0.0
220
0.0
230
1.0
 70
     8
 71
     3
 72
    10
 73
     6
 74
     0
 42
0.00000001
 43
0.00000001
 40
0.0
 40
0.0
 40
0.0
 40
0.0
 40
0.2544107609441335
 40
0.581379899887058
 40
1.0
 40
1.0
 40
1.0
 40
1.0
 10
50.53080594473352
 20
96.47592482655459
 30
0.0
 10
50.53512995550144
 20
96.47824901837078
 30
0.0
 10
50.54501119219934
 20
96.48356026542817
 30
0.0
 10
50.56822613077897
 20
96.4878209229298
 30
0.0
 10
50.58588821753535
 20
96.4882758081266
 30
0.0
 10
50.59580480986109
 20
96.48853120892458
 30
0.0
  0
SPLINE
  5
BA
330
1F
100
AcDbEntity
  8
0
  6
Continuous
 62
     7
370
    15
100
AcDbSpline
210
0.0
220
0.0
230
1.0
 70
     8
 71
     3
 72
    10
 73
     6
 74
     0
 42
0.00000001
 43
0.00000001
 40
0.0
 40
0.0
 40
0.0
 40
0.0
 40
0.3881207071783611
 40
0.7804688308024935
 40
1.0
 40
1.0
 40
1.0
 40
1.0
 10
50.59580480986109
 20
117.4885290631574
 30
0.0
 10
50.58663159612847
 20
117.4887489271335
 30
0.0
 10
50.56818525388446
 20
117.4891910498473
 30
0.0
 10
50.54469018675131
 20
117.4934429266501
 30
0.0
 10
50.53447203269226
 20
117.4991042614849
 30
0.0
 10
50.5308059447335
 20
117.5011354455274
 30
0.0
  0
LINE
  5
BB
330
1F
100
AcDbEntity
  8
0
  6
Continuous
 62
     7
370
    15
100
AcDbLine
 10
50.5958048099
 20
117.4885290632
 30
0.0
 11
55.7946113341
 21
117.4885290632
 31
0.0
  0
LINE
  5
BC
330
1F
100
AcDbEntity
  8
0
  6
Continuous
 62
     7
370
    15
100
AcDbLine
 10
47.3202911609
 20
97.4885332355
 30
0.0
 11
47.3202911609
 21
116.4885270366
 31
0.0
  0
SPLINE
  5
BD
330
1F
100
AcDbEntity
  8
0
  6
Continuous
 62
     7
370
    15
100
AcDbSpline
210
0.0
220
0.0
230
1.0
 70
    24
 71
     3
 72
    12
 73
     8
 74
     0
 42
0.00000001
 43
0.00000001
 40
0.0
 40
0.0
 40
0.0
 40
0.0
 40
0.4090152108283794
 40
0.662212470543112
 40
0.809557351322078
 40
0.9044164355506544
 40
1.0
 40
1.0
 40
1.0
 40
1.0
 10
48.32029318743219
 20
117.4885290631574
 30
0.0
 10
48.33610064022228
 20
117.4885290631574
 30
0.0
 10
48.36169355727773
 20
117.4885290631574
 30
0.0
 10
48.59862431359119
 20
117.4885290631573
 30
0.0
 10
48.85252954004407
 20
117.4885290631574
 30
0.0
 10
49.08652276013853
 20
117.4885290631574
 30
0.0
 10
49.24216376589141
 20
117.4885290631574
 30
0.0
 10
49.3202803128289
 20
117.4885290631574
 30
0.0
  0
ARC
  5
BE
330
1F
100
AcDbEntity
  8
0
  6
Continuous
 62
     7
370
    15
100
AcDbCircle
 10
48.3202867894
 20
116.4885296592
 30
0.0
 40
1.000000000000028
100
AcDbArc
 50
90.0
 51
179.9999997215
  0
SPLINE
  5
BF
330
1F
100
AcDbEntity
  8
0
  6
Continuous
 62
     7
370
    15
100
AcDbSpline
210
0.0
220
0.0
230
1.0
 70
    24
 71
     3
 72
    13
 73
     9
 74
     0
 42
0.00000001
 43
0.00000001
 40
0.0
 40
0.0
 40
0.0
 40
0.0
 40
0.0830581565361271
 40
0.1746665399653139
 40
0.3146453421679015
 40
0.4537373731088296
 40
0.8351890415031273
 40
1.0
 40
1.0
 40
1.0
 40
1.0
 10
49.32028031282892
 20
96.48853120892458
 30
0.0
 10
49.25242011936415
 20
96.48853120892458
 30
0.0
 10
49.10971402416312
 20
96.48853120892457
 30
0.0
 10
48.88493878028122
 20
96.4885312089246
 30
0.0
 10
48.68390210820675
 20
96.48853120892461
 30
0.0
 10
48.43934395870919
 20
96.48853120892453
 30
0.0
 10
48.33334796078828
 20
96.48853120892463
 30
0.0
 10
48.32331899200995
 20
96.4885312089246
 30
0.0
 10
48.32029318743219
 20
96.48853120892458
 30
0.0
  0
ARC
  5
C0
330
1F
100
AcDbEntity
  8
0
  6
Continuous
 62
     7
370
    15
100
AcDbCircle
 10
48.3202867894
 20
97.4885296592
 30
0.0
 40
1.000000000000014
100
AcDbArc
 50
179.9999997215
 51
270.0
  0
SPLINE
  5
C1
330
1F
100
AcDbEntity
  8
0
  6
Continuous
 62
     7
370
    15
100
AcDbSpline
210
0.0
220
0.0
230
1.0
 70
     8
 71
     3
 72
    10
 73
     6
 74
     0
 42
0.00000001
 43
0.00000001
 40
0.0
 40
0.0
 40
0.0
 40
0.0
 40
0.5447951826414291
 40
0.9680388535953371
 40
1.0
 40
1.0
 40
1.0
 40
1.0
 10
50.53080594473352
 20
96.47592482655459
 30
0.0
 10
50.45192627526496
 20
96.43367853043205
 30
0.0
 10
50.31176610638447
 20
96.35861168445007
 30
0.0
 10
50.18722437307707
 20
96.37568322317155
 30
0.0
 10
50.13773128498897
 20
96.39730093093833
 30
0.0
 10
50.13425624304285
 20
96.39881876795702
 30
0.0
  0
SPLINE
  5
C2
330
1F
100
AcDbEntity
  8
0
  6
Continuous
 62
     7
370
    15
100
AcDbSpline
210
0.0
220
0.0
230
1.0
 70
     8
 71
     3
 72
    10
 73
     6
 74
     0
 42
0.00000001
 43
0.00000001
 40
0.0
 40
0.0
 40
0.0
 40
0.0
 40
0.5377344017085477
 40
0.7874406012837502
 40
1.0
 40
1.0
 40
1.0
 40
1.0
 10
50.13425624304285
 20
96.39881876795702
 30
0.0
 10
50.07695584338676
 20
96.42202904091967
 30
0.0
 10
49.99304701959637
 20
96.4560174025339
 30
0.0
 10
49.83779701206467
 20
96.48453771546062
 30
0.0
 10
49.7573008871709
 20
96.48727332047461
 30
0.0
 10
49.72028708391657
 20
96.48853120892458
 30
0.0
  0
SPLINE
  5
C3
330
1F
100
AcDbEntity
  8
0
  6
Continuous
 62
     7
370
    15
100
AcDbSpline
210
0.0
220
0.0
230
1.0
 70
     8
 71
     3
 72
    11
 73
     7
 74
     0
 42
0.00000001
 43
0.00000001
 40
0.0
 40
0.0
 40
0.0
 40
0.0
 40
0.2298862329382802
 40
0.4617291037187086
 40
0.8918834406484712
 40
1.0
 40
1.0
 40
1.0
 40
1.0
 10
49.72028708391657
 20
117.4885290631574
 30
0.0
 10
49.76043006821313
 20
117.4899911438295
 30
0.0
 10
49.8410577070367
 20
117.4929277494264
 30
0.0
 10
49.97742549715608
 20
117.5188209640199
 30
0.0
 10
50.07024069246649
 20
117.5499439886714
 30
0.0
 10
50.12354882443037
 20
117.5735083831735
 30
0.0
 10
50.13425624304285
 20
117.5782415041249
 30
0.0
  0
SPLINE
  5
C4
330
1F
100
AcDbEntity
  8
0
  6
Continuous
 62
     7
370
    15
100
AcDbSpline
210
0.0
220
0.0
230
1.0
 70
     8
 71
     3
 72
    10
 73
     6
 74
     0
 42
0.00000001
 43
0.00000001
 40
0.0
 40
0.0
 40
0.0
 40
0.0
 40
0.4959619751632868
 40
0.9680457469732133
 40
0.9999999999999999
 40
0.9999999999999999
 40
0.9999999999999999
 40
0.9999999999999999
 10
50.53080594473352
 20
117.5011354455274
 30
0.0
 10
50.45907153769644
 20
117.5404158417831
 30
0.0
 10
50.31905639314621
 20
117.6170854705833
 30
0.0
 10
50.19254286118194
 20
117.6037062202485
 30
0.0
 10
50.13773111650841
 20
117.5797596341725
 30
0.0
 10
50.13425624304285
 20
117.5782415041249
 30
0.0
  0
LINE
  5
C5
330
1F
100
AcDbEntity
  8
0
  6
Continuous
 62
     7
370
    15
100
AcDbLine
 10
49.7202870839
 20
96.4885312089
 30
0.0
 11
49.3202803128
 21
96.4885312089
 31
0.0
  0
LINE
  5
C6
330
1F
100
AcDbEntity
  8
0
  6
Continuous
 62
     7
370
    15
100
AcDbLine
 10
49.3202803128
 20
117.4885290632
 30
0.0
 11
49.7202870839
 21
117.4885290632
 31
0.0
  0
SPLINE
  5
C7
330
1F
100
AcDbEntity
  8
0
  6
Continuous
 62
     7
370
    15
100
AcDbSpline
210
0.0
220
0.0
230
1.0
 70
     8
 71
     3
 72
    10
 73
     6
 74
     0
 42
0.00000001
 43
0.00000001
 40
0.0
 40
0.0
 40
0.0
 40
0.0
 40
0.1693549015197199
 40
0.3942980736947128
 40
0.9999999999999999
 40
0.9999999999999999
 40
0.9999999999999999
 40
0.9999999999999999
 10
50.13425624304285
 20
117.5782415041249
 30
0.0
 10
50.21628580009421
 20
117.6255588177188
 30
0.0
 10
50.40726991712377
 20
117.7357246613704
 30
0.0
 10
50.65651483414893
 20
118.0485681944445
 30
0.0
 10
50.69339574741355
 20
118.3030004564005
 30
0.0
 10
50.72028911047449
 20
118.4885310897153
 30
0.0
  0
SPLINE
  5
C8
330
1F
100
AcDbEntity
  8
0
  6
Continuous
 62
     7
370
    15
100
AcDbSpline
210
0.0
220
0.0
230
1.0
 70
     8
 71
     3
 72
    11
 73
     7
 74
     0
 42
0.00000001
 43
0.00000001
 40
0.0
 40
0.0
 40
0.0
 40
0.0
 40
0.3572436502549111
 40
0.7425242863256164
 40
0.9554164081086973
 40
1.0
 40
1.0
 40
1.0
 40
1.0
 10
50.72028911047449
 20
95.48852918236666
 30
0.0
 10
50.71044908269317
 20
95.5973972831256
 30
0.0
 10
50.6899967678639
 20
95.82367760682618
 30
0.0
 10
50.5203872612198
 20
96.12212120506761
 30
0.0
 10
50.29828893529709
 20
96.31861931639705
 30
0.0
 10
50.15846727204789
 20
96.3869814249175
 30
0.0
 10
50.13425624304283
 20
96.39881876795701
 30
0.0
  0
LINE
  5
C9
330
1F
100
AcDbEntity
  8
0
  6
Continuous
 62
     7
370
    15
100
AcDbLine
 10
50.7202891105
 20
118.4885310897
 30
0.0
 11
50.7202891105
 21
130.9885266194
 31
0.0
  0
LINE
  5
CA
330
1F
100
AcDbEntity
  8
0
  6
Continuous
 62
     7
370
    15
100
AcDbLine
 10
50.7202891105
 20
82.9885262021
 30
0.0
 11
50.7202891105
 21
95.4885291824
 31
0.0
  0
LINE
  5
CB
330
1F
100
AcDbEntity
  8
0
  6
Continuous
 62
     7
370
    15
100
AcDbLine
 10
47.3202911609
 20
116.4885270366
 30
0.0
 11
47.3202911609
 21
118.9790922174
 31
0.0
  0
LINE
  5
CC
330
1F
100
AcDbEntity
  8
0
  6
Continuous
 62
     7
370
    15
100
AcDbLine
 10
47.3202911609
 20
94.9979606041
 30
0.0
 11
47.3202911609
 21
97.4885332355
 31
0.0
  0
LINE
  5
CD
330
1F
100
AcDbEntity
  8
0
  6
Continuous
 62
     7
370
    15
100
AcDbLine
 10
47.3202911609
 20
118.9790922174
 30
0.0
 11
47.3202911609
 21
127.488526977
 31
0.0
  0
LINE
  5
CE
330
1F
100
AcDbEntity
  8
0
  6
Continuous
 62
     7
370
    15
100
AcDbLine
 10
47.3202911609
 20
86.4885332951
 30
0.0
 11
47.3202911609
 21
94.9979606041
 31
0.0
  0
LINE
  5
CF
330
1F
100
AcDbEntity
  8
0
  6
Continuous
 62
     7
370
    15
100
AcDbLine
 10
44.8202935451
 20
97.1735748419
 30
0.0
 11
44.8202935451
 21
89.9885329375
 31
0.0
  0
LINE
  5
D0
330
1F
100
AcDbEntity
  8
0
  6
Continuous
 62
     7
370
    15
100
AcDbLine
 10
44.8202935451
 20
123.9885273346
 30
0.0
 11
44.8202935451
 21
116.8034854302
 31
0.0
  0
LINE
  5
D1
330
1F
100
AcDbEntity
  8
0
  6
Continuous
 62
     7
370
    15
100
AcDbLine
 10
44.3202850812
 20
116.8034854302
 30
0.0
 11
44.3202850812
 21
123.4885263213
 31
0.0
  0
LINE
  5
D2
330
1F
100
AcDbEntity
  8
0
  6
Continuous
 62
     7
370
    15
100
AcDbLine
 10
44.3202850812
 20
90.4885265002
 30
0.0
 11
44.3202850812
 21
97.1735748419
 31
0.0
  0
LINE
  5
D3
330
1F
100
AcDbEntity
  8
0
  6
Continuous
 62
     7
370
    15
100
AcDbLine
 10
244.8202853494
 20
101.1791261801
 30
0.0
 11
244.8202853494
 21
105.7979348072
 31
0.0
  0
LINE
  5
D4
330
1F
100
AcDbEntity
  8
0
  6
Continuous
 62
     7
370
    15
100
AcDbLine
 10
240.8202884191
 20
98.8697293171
 30
0.0
 11
244.8202853494
 21
101.1791261801
 31
0.0
  0
LINE
  5
D5
330
1F
100
AcDbEntity
  8
0
  6
Continuous
 62
     7
370
    15
100
AcDbLine
 10
236.8202877634
 20
101.1791261801
 30
0.0
 11
240.8202884191
 21
98.8697293171
 31
0.0
  0
LINE
  5
D6
330
1F
100
AcDbEntity
  8
0
  6
Continuous
 62
     7
370
    15
100
AcDbLine
 10
236.8202877634
 20
105.7979273567
 30
0.0
 11
236.8202877634
 21
101.1791261801
 31
0.0
  0
LINE
  5
D7
330
1F
100
AcDbEntity
  8
0
  6
Continuous
 62
     7
370
    15
100
AcDbLine
 10
240.8202846938
 20
108.1073316702
 30
0.0
 11
236.8202877634
 21
105.7979273567
 31
0.0
  0
LINE
  5
D8
330
1F
100
AcDbEntity
  8
0
  6
Continuous
 62
     7
370
    15
100
AcDbLine
 10
244.8202853494
 20
105.7979348072
 30
0.0
 11
240.8202846938
 21
108.1073316702
 31
0.0
  0
CIRCLE
  5
D9
330
1F
100
AcDbEntity
  8
0
  6
Continuous
 62
     7
370
    15
100
AcDbCircle
 10
240.8202866264
 20
103.4885296592
 30
0.0
 40
3.401733881048907
  0
LINE
  5
DA
330
1F
100
AcDbEntity
  8
0
  6
Continuous
 62
     7
370
    15
100
AcDbLine
 10
240.3202874058
 20
103.9563748011
 30
0.0
 11
238.5702875846
 21
103.9563748011
 31
0.0
  0
LINE
  5
DB
330
1F
100
AcDbEntity
  8
0
  6
Continuous
 62
     7
370
    15
100
AcDbLine
 10
238.5702875846
 20
103.9563748011
 30
0.0
 11
238.5702875846
 21
102.9563727745
 31
0.0
  0
LINE
  5
DC
330
1F
100
AcDbEntity
  8
0
  6
Continuous
 62
     7
370
    15
100
AcDbLine
 10
238.5702875846
 20
102.9563727745
 30
0.0
 11
240.3202874058
 21
102.9563727745
 31
0.0
  0
LINE
  5
DD
330
1F
100
AcDbEntity
  8
0
  6
Continuous
 62
     7
370
    15
100
AcDbLine
 10
240.3202874058
 20
102.9563727745
 30
0.0
 11
240.3202874058
 21
101.2385296592
 31
0.0
  0
LINE
  5
DE
330
1F
100
AcDbEntity
  8
0
  6
Continuous
 62
     7
370
    15
100
AcDbLine
 10
240.3202874058
 20
101.2385296592
 30
0.0
 11
241.320285707
 21
101.2385296592
 31
0.0
  0
LINE
  5
DF
330
1F
100
AcDbEntity
  8
0
  6
Continuous
 62
     7
370
    15
100
AcDbLine
 10
241.320285707
 20
101.2385296592
 30
0.0
 11
241.320285707
 21
102.9563727745
 31
0.0
  0
LINE
  5
E0
330
1F
100
AcDbEntity
  8
0
  6
Continuous
 62
     7
370
    15
100
AcDbLine
 10
241.320285707
 20
102.9563727745
 30
0.0
 11
243.0702855282
 21
102.9563727745
 31
0.0
  0
LINE
  5
E1
330
1F
100
AcDbEntity
  8
0
  6
Continuous
 62
     7
370
    15
100
AcDbLine
 10
243.0702855282
 20
102.9563727745
 30
0.0
 11
243.0702855282
 21
103.9563748011
 31
0.0
  0
LINE
  5
E2
330
1F
100
AcDbEntity
  8
0
  6
Continuous
 62
     7
370
    15
100
AcDbLine
 10
243.0702855282
 20
103.9563748011
 30
0.0
 11
241.320285707
 21
103.9563748011
 31
0.0
  0
LINE
  5
E3
330
1F
100
AcDbEntity
  8
0
  6
Continuous
 62
     7
370
    15
100
AcDbLine
 10
241.320285707
 20
103.9563748011
 30
0.0
 11
241.320285707
 21
105.7385313281
 31
0.0
  0
LINE
  5
E4
330
1F
100
AcDbEntity
  8
0
  6
Continuous
 62
     7
370
    15
100
AcDbLine
 10
241.320285707
 20
105.7385313281
 30
0.0
 11
240.3202874058
 21
105.7385313281
 31
0.0
  0
LINE
  5
E5
330
1F
100
AcDbEntity
  8
0
  6
Continuous
 62
     7
370
    15
100
AcDbLine
 10
240.3202874058
 20
105.7385313281
 30
0.0
 11
240.3202874058
 21
103.9563748011
 31
0.0
  0
CIRCLE
  5
E6
330
1F
100
AcDbEntity
  8
0
  6
Continuous
 62
     7
370
    15
100
AcDbCircle
 10
240.820286641
 20
103.4885296592
 30
0.0
 40
5.500000000000004
  0
LINE
  5
E7
330
1F
100
AcDbEntity
  8
0
  6
Continuous
 62
     7
370
    15
100
AcDbLine
 10
47.3202911609
 20
116.9885280499
 30
0.0
 11
47.3202911609
 21
111.9885328182
 31
0.0
  0
LINE
  5
E8
330
1F
100
AcDbEntity
  8
0
  6
Continuous
 62
     7
370
    15
100
AcDbLine
 10
47.3202911609
 20
101.9885274538
 30
0.0
 11
47.3202911609
 21
96.9885322222
 31
0.0
  0
LINE
  5
E9
330
1F
100
AcDbEntity
  8
0
  6
Continuous
 62
     7
370
    15
100
AcDbLine
 10
38.320287823
 20
97.1251088151
 30
0.0
 11
44.3202850812
 21
97.1251088151
 31
0.0
  0
LINE
  5
EA
330
1F
100
AcDbEntity
  8
0
  6
Continuous
 62
     7
370
    15
100
AcDbLine
 10
38.320287823
 20
97.1251088151
 30
0.0
 11
38.320287823
 21
97.1735748419
 31
0.0
  0
LINE
  5
EB
330
1F
100
AcDbEntity
  8
0
  6
Continuous
 62
     7
370
    15
100
AcDbLine
 10
45.3202871078
 20
117.0370015272
 30
0.0
 11
45.3202871078
 21
97.036998249
 31
0.0
  0
LINE
  5
EC
330
1F
100
AcDbEntity
  8
0
  6
Continuous
 62
     7
370
    15
100
AcDbLine
 10
47.3202911609
 20
117.0370015272
 30
0.0
 11
47.3202911609
 21
97.036998249
 31
0.0
  0
LINE
  5
ED
330
1F
100
AcDbEntity
  8
0
  6
Continuous
 62
     7
370
    15
100
AcDbLine
 10
38.320287823
 20
102.0810487637
 30
0.0
 11
45.3202871078
 21
102.0810487637
 31
0.0
  0
LINE
  5
EE
330
1F
100
AcDbEntity
  8
0
  6
Continuous
 62
     7
370
    15
100
AcDbLine
 10
38.320287823
 20
102.0810487637
 30
0.0
 11
38.320287823
 21
111.8960040578
 31
0.0
  0
LINE
  5
EF
330
1F
100
AcDbEntity
  8
0
  6
Continuous
 62
     7
370
    15
100
AcDbLine
 10
38.320287823
 20
111.8960040578
 30
0.0
 11
45.3202871078
 21
111.8960040578
 31
0.0
  0
LINE
  5
F0
330
1F
100
AcDbEntity
  8
0
  6
Continuous
 62
     7
370
    15
100
AcDbLine
 10
38.320287823
 20
97.1735748419
 30
0.0
 11
45.3202871078
 21
97.1735748419
 31
0.0
  0
LINE
  5
F1
330
1F
100
AcDbEntity
  8
0
  6
Continuous
 62
     7
370
    15
100
AcDbLine
 10
38.320287823
 20
97.1735748419
 30
0.0
 11
38.320287823
 21
102.0810487637
 31
0.0
  0
LINE
  5
F2
330
1F
100
AcDbEntity
  8
0
  6
Continuous
 62
     7
370
    15
100
AcDbLine
 10
38.320287823
 20
111.8960040578
 30
0.0
 11
38.320287823
 21
116.8034854302
 31
0.0
  0
LINE
  5
F3
330
1F
100
AcDbEntity
  8
0
  6
Continuous
 62
     7
370
    15
100
AcDbLine
 10
38.320287823
 20
116.8034854302
 30
0.0
 11
45.3202871078
 21
116.8034854302
 31
0.0
  0
LINE
  5
F4
330
1F
100
AcDbEntity
  8
0
  6
Continuous
 62
     7
370
    15
100
AcDbLine
 10
329.8202899688
 20
111.8960040578
 30
0.0
 11
329.8202899688
 21
102.0810487637
 31
0.0
  0
LINE
  5
F5
330
1F
100
AcDbEntity
  8
0
  6
Continuous
 62
     7
370
    15
100
AcDbLine
 10
338.3202848428
 20
116.8034854302
 30
0.0
 11
329.8202899688
 21
111.8960040578
 31
0.0
  0
LINE
  5
F6
330
1F
100
AcDbEntity
  8
0
  6
Continuous
 62
     7
370
    15
100
AcDbLine
 10
346.8202797168
 20
102.0810562143
 30
0.0
 11
346.8202797168
 21
111.8960115084
 31
0.0
  0
LINE
  5
F7
330
1F
100
AcDbEntity
  8
0
  6
Continuous
 62
     7
370
    15
100
AcDbLine
 10
338.3202848428
 20
97.1735748419
 30
0.0
 11
346.8202797168
 21
102.0810562143
 31
0.0
  0
LINE
  5
F8
330
1F
100
AcDbEntity
  8
0
  6
Continuous
 62
     7
370
    15
100
AcDbLine
 10
329.8202899688
 20
102.0810487637
 30
0.0
 11
338.3202848428
 21
97.1735748419
 31
0.0
  0
LINE
  5
F9
330
1F
100
AcDbEntity
  8
0
  6
Continuous
 62
     7
370
    15
100
AcDbLine
 10
346.8202797168
 20
111.8960115084
 30
0.0
 11
338.3202848428
 21
116.8034854302
 31
0.0
  0
CIRCLE
  5
FA
330
1F
100
AcDbEntity
  8
0
  6
Continuous
 62
     7
370
    15
100
AcDbCircle
 10
338.3081693913
 20
107.0369985695
 30
0.0
 40
9.999999999999993
  0
LINE
  5
FB
330
1F
100
AcDbEntity
  8
0
  6
Continuous
 62
     7
370
    15
100
AcDbLine
 10
259.8202896708
 20
111.8960040578
 30
0.0
 11
259.8202896708
 21
102.0810487637
 31
0.0
  0
LINE
  5
FC
330
1F
100
AcDbEntity
  8
0
  6
Continuous
 62
     7
370
    15
100
AcDbLine
 10
268.3202845448
 20
116.8034854302
 30
0.0
 11
259.8202896708
 21
111.8960040578
 31
0.0
  0
LINE
  5
FD
330
1F
100
AcDbEntity
  8
0
  6
Continuous
 62
     7
370
    15
100
AcDbLine
 10
276.8202868693
 20
102.0810562143
 30
0.0
 11
276.8202868693
 21
111.8960115084
 31
0.0
  0
LINE
  5
FE
330
1F
100
AcDbEntity
  8
0
  6
Continuous
 62
     7
370
    15
100
AcDbLine
 10
259.8202896708
 20
102.0810487637
 30
0.0
 11
268.3202845448
 21
97.1735748419
 31
0.0
  0
LINE
  5
FF
330
1F
100
AcDbEntity
  8
0
  6
Continuous
 62
     7
370
    15
100
AcDbLine
 10
268.3202845448
 20
97.1735748419
 30
0.0
 11
276.8202868693
 21
102.0810562143
 31
0.0
  0
LINE
  5
100
330
1F
100
AcDbEntity
  8
0
  6
Continuous
 62
     7
370
    15
100
AcDbLine
 10
276.8202868693
 20
111.8960115084
 30
0.0
 11
268.3202845448
 21
116.8034854302
 31
0.0
  0
CIRCLE
  5
101
330
1F
100
AcDbEntity
  8
0
  6
Continuous
 62
     7
370
    15
100
AcDbCircle
 10
268.3081693913
 20
107.0369985695
 30
0.0
 40
9.999999999999936
  0
LINE
  5
102
330
1F
100
AcDbEntity
  8
0
  6
Continuous
 62
     7
370
    15
100
AcDbLine
 10
204.8202862435
 20
111.8960040578
 30
0.0
 11
204.8202871748
 21
102.0810487637
 31
0.0
  0
LINE
  5
103
330
1F
100
AcDbEntity
  8
0
  6
Continuous
 62
     7
370
    15
100
AcDbLine
 10
213.3202848428
 20
116.8034854302
 30
0.0
 11
204.8202862435
 21
111.8960040578
 31
0.0
  0
LINE
  5
104
330
1F
100
AcDbEntity
  8
0
  6
Continuous
 62
     7
370
    15
100
AcDbLine
 10
221.8202871674
 20
102.0810562143
 30
0.0
 11
221.8202853047
 21
111.8960115084
 31
0.0
  0
LINE
  5
105
330
1F
100
AcDbEntity
  8
0
  6
Continuous
 62
     7
370
    15
100
AcDbLine
 10
204.8202871748
 20
102.0810487637
 30
0.0
 11
213.3202867054
 21
97.1735748419
 31
0.0
  0
LINE
  5
106
330
1F
100
AcDbEntity
  8
0
  6
Continuous
 62
     7
370
    15
100
AcDbLine
 10
221.8202853047
 20
111.8960115084
 30
0.0
 11
213.3202848428
 21
116.8034854302
 31
0.0
  0
LINE
  5
107
330
1F
100
AcDbEntity
  8
0
  6
Continuous
 62
     7
370
    15
100
AcDbLine
 10
213.3202867054
 20
97.1735748419
 30
0.0
 11
221.8202871674
 21
102.0810562143
 31
0.0
  0
CIRCLE
  5
108
330
1F
100
AcDbEntity
  8
0
  6
Continuous
 62
     7
370
    15
100
AcDbCircle
 10
213.3081693913
 20
107.0369985695
 30
0.0
 40
9.999999999999993
  0
LINE
  5
109
330
1F
100
AcDbEntity
  8
0
  6
Continuous
 62
     7
370
    15
100
AcDbLine
 10
134.8202859455
 20
111.8960040578
 30
0.0
 11
134.8202859455
 21
102.0810487637
 31
0.0
  0
LINE
  5
10A
330
1F
100
AcDbEntity
  8
0
  6
Continuous
 62
     7
370
    15
100
AcDbLine
 10
143.3202845448
 20
116.8034854302
 30
0.0
 11
134.8202859455
 21
111.8960040578
 31
0.0
  0
LINE
  5
10B
330
1F
100
AcDbEntity
  8
0
  6
Continuous
 62
     7
370
    15
100
AcDbLine
 10
151.8202868693
 20
111.8960115084
 30
0.0
 11
143.3202845448
 21
116.8034854302
 31
0.0
  0
LINE
  5
10C
330
1F
100
AcDbEntity
  8
0
  6
Continuous
 62
     7
370
    15
100
AcDbLine
 10
151.8202868693
 20
102.0810562143
 30
0.0
 11
151.8202868693
 21
111.8960115084
 31
0.0
  0
LINE
  5
10D
330
1F
100
AcDbEntity
  8
0
  6
Continuous
 62
     7
370
    15
100
AcDbLine
 10
143.32028827
 20
97.1735748419
 30
0.0
 11
151.8202868693
 21
102.0810562143
 31
0.0
  0
LINE
  5
10E
330
1F
100
AcDbEntity
  8
0
  6
Continuous
 62
     7
370
    15
100
AcDbLine
 10
134.8202859455
 20
102.0810487637
 30
0.0
 11
143.32028827
 21
97.1735748419
 31
0.0
  0
CIRCLE
  5
10F
330
1F
100
AcDbEntity
  8
0
  6
Continuous
 62
     7
370
    15
100
AcDbCircle
 10
143.3081693913
 20
107.0369985695
 30
0.0
 40
9.999999999999993
  0
CIRCLE
  5
110
330
1F
100
AcDbEntity
  8
0
  6
Continuous
 62
     7
370
    15
100
AcDbCircle
 10
303.3202877302
 20
106.9885296592
 30
0.0
 40
9.0
  0
CIRCLE
  5
111
330
1F
100
AcDbEntity
  8
0
  6
Continuous
 62
     7
370
    15
100
AcDbCircle
 10
303.3202865822
 20
106.9885296592
 30
0.0
 40
21.49999999999994
  0
CIRCLE
  5
112
330
1F
100
AcDbEntity
  8
0
  6
Continuous
 62
     7
370
    15
100
AcDbCircle
 10
303.3202865773
 20
106.9885296592
 30
0.0
 40
18.0
  0
CIRCLE
  5
113
330
1F
100
AcDbEntity
  8
0
  6
Continuous
 62
     7
370
    15
100
AcDbCircle
 10
303.3202865919
 20
106.9885296592
 30
0.0
 40
15.0
  0
SPLINE
  5
114
330
1F
100
AcDbEntity
  8
0
  6
Continuous
 62
     7
370
    15
100
AcDbSpline
210
0.0
220
0.0
230
1.0
 70
     8
 71
     3
 72
    11
 73
     7
 74
     0
 42
0.00000001
 43
0.00000001
 40
0.0
 40
0.0
 40
0.0
 40
0.0
 40
0.1964770873992268
 40
0.5093190251702626
 40
0.9971849167551697
 40
1.0
 40
1.0
 40
1.0
 40
1.0
 10
323.855876683526
 20
96.39577893107347
 30
0.0
 10
323.5809351011633
 20
96.32677843279934
 30
0.0
 10
322.868215971613
 20
96.14791143623285
 30
0.0
 10
321.7406096986106
 20
95.5161154253203
 30
0.0
 10
321.0862259665815
 20
94.86595042006437
 30
0.0
 10
320.7608351505511
 20
94.415643677392
 30
0.0
 10
320.7589683526086
 20
94.4130602249425
 30
0.0
  0
SPLINE
  5
115
330
1F
100
AcDbEntity
  8
0
  6
Continuous
 62
     7
370
    15
100
AcDbSpline
210
0.0
220
0.0
230
1.0
 70
     8
 71
     3
 72
    11
 73
     7
 74
     0
 42
0.00000001
 43
0.00000001
 40
0.0
 40
0.0
 40
0.0
 40
0.0
 40
0.0028150832448303
 40
0.4906809748297375
 40
0.8035229126007734
 40
1.0
 40
1.0
 40
1.0
 40
1.0
 10
320.7589683526086
 20
119.5640000471395
 30
0.0
 10
320.7608351505511
 20
119.56141659469
 30
0.0
 10
321.0862259665821
 20
119.1111098520154
 30
0.0
 10
321.7406096986106
 20
118.4609448467623
 30
0.0
 10
322.868215971613
 20
117.829148835849
 30
0.0
 10
323.5809351011632
 20
117.6502818392826
 30
0.0
 10
323.8558766835259
 20
117.5812813410085
 30
0.0
  0
SPLINE
  5
116
330
1F
100
AcDbEntity
  8
0
  6
Continuous
 62
     7
370
    15
100
AcDbSpline
210
0.0
220
0.0
230
1.0
 70
     8
 71
     3
 72
    11
 73
     7
 74
     0
 42
0.00000001
 43
0.00000001
 40
0.0
 40
0.0
 40
0.0
 40
0.0
 40
0.0028150832448303
 40
0.4906809748297375
 40
0.8035229126007734
 40
1.0
 40
1.0
 40
1.0
 40
1.0
 10
285.8816084855126
 20
94.4130602249425
 30
0.0
 10
285.8797416875702
 20
94.41564367739197
 30
0.0
 10
285.5543508715397
 20
94.86595042006452
 30
0.0
 10
284.8999671395105
 20
95.51611542532021
 30
0.0
 10
283.7723608665083
 20
96.14791143623286
 30
0.0
 10
283.059641736958
 20
96.32677843279939
 30
0.0
 10
282.7847001545953
 20
96.39577893107348
 30
0.0
  0
SPLINE
  5
117
330
1F
100
AcDbEntity
  8
0
  6
Continuous
 62
     7
370
    15
100
AcDbSpline
210
0.0
220
0.0
230
1.0
 70
     8
 71
     3
 72
    11
 73
     7
 74
     0
 42
0.00000001
 43
0.00000001
 40
0.0
 40
0.0
 40
0.0
 40
0.0
 40
0.1964770873992268
 40
0.5093190251702626
 40
0.9971849167551697
 40
1.0
 40
1.0
 40
1.0
 40
1.0
 10
282.7847001545953
 20
117.5812813410085
 30
0.0
 10
283.059641736958
 20
117.6502818392826
 30
0.0
 10
283.7723608665083
 20
117.829148835849
 30
0.0
 10
284.8999671395106
 20
118.4609448467623
 30
0.0
 10
285.5543508715392
 20
119.1111098520157
 30
0.0
 10
285.8797416875701
 20
119.56141659469
 30
0.0
 10
285.8816084855126
 20
119.5640000471395
 30
0.0
  0
ARC
  5
118
330
1F
100
AcDbEntity
  8
0
  6
Continuous
 62
     7
370
    15
100
AcDbCircle
 10
339.8202866434
 20
106.9885296592
 30
0.0
 40
12.49999999999997
100
AcDbArc
 50
304.3011527568
 51
55.6988472432
  0
SPLINE
  5
119
330
1F
100
AcDbEntity
  8
0
  6
Continuous
 62
     7
370
    15
100
AcDbSpline
210
0.0
220
0.0
230
1.0
 70
    24
 71
     3
 72
    12
 73
     8
 74
     0
 42
0.00000001
 43
0.00000001
 40
0.0
 40
0.0
 40
0.0
 40
0.0
 40
0.4090177700713594
 40
0.6622076217482227
 40
0.8095514838476439
 40
0.9044183282225216
 40
1.0
 40
1.0
 40
1.0
 40
1.0
 10
344.2924169295358
 20
117.4885290631574
 30
0.0
 10
344.6262878810403
 20
117.4885290631574
 30
0.0
 10
345.1668313609191
 20
117.4885290631574
 30
0.0
 10
345.7952685497222
 20
117.4885290631573
 30
0.0
 10
346.1133856844896
 20
117.4885290631574
 30
0.0
 10
346.2716376054603
 20
117.4885290631574
 30
0.0
 10
346.2912106159924
 20
117.4885290631574
 30
0.0
 10
346.3010338538217
 20
117.4885290631574
 30
0.0
  0
ARC
  5
11A
330
1F
100
AcDbEntity
  8
0
  6
Continuous
 62
     7
370
    15
100
AcDbCircle
 10
346.3010273418
 20
116.4885296592
 30
0.0
 40
0.9999999999999858
100
AcDbArc
 50
55.6988472432
 51
90.0
  0
SPLINE
  5
11B
330
1F
100
AcDbEntity
  8
0
  6
Continuous
 62
     7
370
    15
100
AcDbSpline
210
0.0
220
0.0
230
1.0
 70
    24
 71
     3
 72
    12
 73
     8
 74
     0
 42
0.00000001
 43
0.00000001
 40
0.0
 40
0.0
 40
0.0
 40
0.0
 40
0.4090154806421299
 40
0.6622086226683858
 40
0.8095527533824481
 40
0.9044181539727352
 40
1.0
 40
1.0
 40
1.0
 40
1.0
 10
262.3481524580048
 20
96.48853120892458
 30
0.0
 10
262.014283953557
 20
96.48853120892458
 30
0.0
 10
261.4737405928614
 20
96.48853120892457
 30
0.0
 10
260.8453043250976
 20
96.48853120892456
 30
0.0
 10
260.5271815570555
 20
96.48853120892458
 30
0.0
 10
260.3689406294102
 20
96.4885312089246
 30
0.0
 10
260.3493667444023
 20
96.48853120892457
 30
0.0
 10
260.3395429842996
 20
96.48853120892458
 30
0.0
  0
ARC
  5
11C
330
1F
100
AcDbEntity
  8
0
  6
Continuous
 62
     7
370
    15
100
AcDbCircle
 10
260.339545945
 20
97.4885296592
 30
0.0
 40
1.0
100
AcDbArc
 50
235.6988472432
 51
270.0
  0
ARC
  5
11D
330
1F
100
AcDbEntity
  8
0
  6
Continuous
 62
     7
370
    15
100
AcDbCircle
 10
266.8202866434
 20
106.9885296592
 30
0.0
 40
12.50000000000011
100
AcDbArc
 50
124.3011527568
 51
235.6988472432
  0
ARC
  5
11E
330
1F
100
AcDbEntity
  8
0
  6
Continuous
 62
     7
370
    15
100
AcDbCircle
 10
346.3010273418
 20
97.4885296592
 30
0.0
 40
1.0
100
AcDbArc
 50
270.0
 51
304.3011527568
  0
SPLINE
  5
11F
330
1F
100
AcDbEntity
  8
0
  6
Continuous
 62
     7
370
    15
100
AcDbSpline
210
0.0
220
0.0
230
1.0
 70
    24
 71
     3
 72
    13
 73
     9
 74
     0
 42
0.00000001
 43
0.00000001
 40
0.0
 40
0.0
 40
0.0
 40
0.0
 40
0.0830580355068684
 40
0.1746692709441149
 40
0.3146388474800041
 40
0.4537335251697444
 40
0.8351892816595304
 40
0.9999999999999999
 40
0.9999999999999999
 40
0.9999999999999999
 40
0.9999999999999999
 10
346.3010338538217
 20
96.48853120892458
 30
0.0
 10
346.2936474863642
 20
96.48853120892458
 30
0.0
 10
346.2781141136948
 20
96.48853120892457
 30
0.0
 10
346.1417599706276
 20
96.48853120892458
 30
0.0
 10
345.9118188239831
 20
96.48853120892458
 30
0.0
 10
345.4296239180511
 20
96.48853120892457
 30
0.0
 10
344.8701658814604
 20
96.48853120892463
 30
0.0
 10
344.426325344405
 20
96.48853120892457
 30
0.0
 10
344.2924169295358
 20
96.48853120892457
 30
0.0
  0
ARC
  5
120
330
1F
100
AcDbEntity
  8
0
  6
Continuous
 62
     7
370
    15
100
AcDbCircle
 10
260.339545945
 20
116.4885296592
 30
0.0
 40
1.00000000000001
100
AcDbArc
 50
90.0
 51
124.3011527568
  0
SPLINE
  5
121
330
1F
100
AcDbEntity
  8
0
  6
Continuous
 62
     7
370
    15
100
AcDbSpline
210
0.0
220
0.0
230
1.0
 70
    24
 71
     3
 72
    13
 73
     9
 74
     0
 42
0.00000001
 43
0.00000001
 40
0.0
 40
0.0
 40
0.0
 40
0.0
 40
0.0830575786156663
 40
0.1746689041200618
 40
0.3146408736469256
 40
0.4537329881104655
 40
0.835189119626659
 40
1.0
 40
1.0
 40
1.0
 40
1.0
 10
260.3395429842996
 20
117.4885290631574
 30
0.0
 10
260.3469263506252
 20
117.4885290631574
 30
0.0
 10
260.3624534647826
 20
117.4885290631574
 30
0.0
 10
260.4988106062243
 20
117.4885290631573
 30
0.0
 10
260.7287561845029
 20
117.4885290631574
 30
0.0
 10
261.2109448919128
 20
117.4885290631574
 30
0.0
 10
261.7704038711116
 20
117.4885290631573
 30
0.0
 10
262.2142441277412
 20
117.4885290631574
 30
0.0
 10
262.3481524580048
 20
117.4885290631574
 30
0.0
  0
LINE
  5
122
330
1F
100
AcDbEntity
  8
0
  6
Continuous
 62
     7
370
    15
100
AcDbLine
 10
344.2924169295
 20
96.4885312089
 30
0.0
 11
324.8144683831
 21
96.4885312089
 31
0.0
  0
LINE
  5
123
330
1F
100
AcDbEntity
  8
0
  6
Continuous
 62
     7
370
    15
100
AcDbLine
 10
324.8144683831
 20
117.4885290632
 30
0.0
 11
344.2924169295
 21
117.4885290632
 31
0.0
  0
ARC
  5
124
330
1F
100
AcDbEntity
  8
0
  6
Continuous
 62
     7
370
    15
100
AcDbCircle
 10
324.8144718988
 20
91.4885296592
 30
0.0
 40
5.000000000000027
100
AcDbArc
 50
90.0
 51
101.0531732713
  0
ARC
  5
125
330
1F
100
AcDbEntity
  8
0
  6
Continuous
 62
     7
370
    15
100
AcDbCircle
 10
324.8144718988
 20
122.4885296592
 30
0.0
 40
4.999999999999988
100
AcDbArc
 50
258.9468267287
 51
270.0
  0
ARC
  5
126
330
1F
100
AcDbEntity
  8
0
  6
Continuous
 62
     7
370
    15
100
AcDbCircle
 10
281.8261013784
 20
91.4885296592
 30
0.0
 40
4.999999999999971
100
AcDbArc
 50
78.9468267287
 51
90.0
  0
ARC
  5
127
330
1F
100
AcDbEntity
  8
0
  6
Continuous
 62
     7
370
    15
100
AcDbCircle
 10
281.8261013784
 20
122.4885296592
 30
0.0
 40
5.0
100
AcDbArc
 50
270.0
 51
281.0531732713
  0
LINE
  5
128
330
1F
100
AcDbEntity
  8
0
  6
Continuous
 62
     7
370
    15
100
AcDbLine
 10
281.8261010044
 20
96.4885312089
 30
0.0
 11
262.348152458
 21
96.4885312089
 31
0.0
  0
LINE
  5
129
330
1F
100
AcDbEntity
  8
0
  6
Continuous
 62
     7
370
    15
100
AcDbLine
 10
262.348152458
 20
117.4885290632
 30
0.0
 11
281.8261010044
 21
117.4885290632
 31
0.0
  0
SPLINE
  5
12A
330
1F
100
AcDbEntity
  8
0
  6
Continuous
 62
     7
370
    15
100
AcDbSpline
210
0.0
220
0.0
230
1.0
 70
     8
 71
     3
 72
    10
 73
     6
 74
     0
 42
0.00000001
 43
0.00000001
 40
0.0
 40
0.0
 40
0.0
 40
0.0
 40
0.5447851578899182
 40
0.9680210407561833
 40
1.0
 40
1.0
 40
1.0
 40
1.0
 10
346.5830681317376
 20
96.47592482655459
 30
0.0
 10
346.4917685796287
 20
96.43367633018781
 30
0.0
 10
346.3295396969707
 20
96.35860557462289
 30
0.0
 10
346.1269108030421
 20
96.37569491787198
 30
0.0
 10
346.036232683535
 20
96.39730093941039
 30
0.0
 10
346.029862522416
 20
96.39881876795702
 30
0.0
  0
SPLINE
  5
12B
330
1F
100
AcDbEntity
  8
0
  6
Continuous
 62
     7
370
    15
100
AcDbSpline
210
0.0
220
0.0
230
1.0
 70
     8
 71
     3
 72
    11
 73
     7
 74
     0
 42
0.00000001
 43
0.00000001
 40
0.0
 40
0.0
 40
0.0
 40
0.0
 40
0.4553424578035141
 40
0.5144992690319858
 40
0.9604256929407599
 40
1.0
 40
1.0
 40
1.0
 40
1.0
 10
346.8645659678506
 20
96.66244266121797
 30
0.0
 10
346.8525556212315
 20
96.65419598126172
 30
0.0
 10
346.8389849241652
 20
96.64487791584361
 30
0.0
 10
346.7453245223061
 20
96.58194755872927
 30
0.0
 10
346.6699177889996
 20
96.5318883114969
 30
0.0
 10
346.5896138914017
 20
96.48014273061936
 30
0.0
 10
346.5830681317376
 20
96.47592482655459
 30
0.0
  0
SPLINE
  5
12C
330
1F
100
AcDbEntity
  8
0
  6
Continuous
 62
     7
370
    15
100
AcDbSpline
210
0.0
220
0.0
230
1.0
 70
     8
 71
     3
 72
    10
 73
     6
 74
     0
 42
0.00000001
 43
0.00000001
 40
0.0
 40
0.0
 40
0.0
 40
0.0
 40
0.4959575865341208
 40
0.9680278168399868
 40
1.0
 40
1.0
 40
1.0
 40
1.0
 10
346.5830681317377
 20
117.5011354455274
 30
0.0
 10
346.5006325389729
 20
117.5404177921694
 30
0.0
 10
346.3397317904802
 20
117.617090486151
 30
0.0
 10
346.1366580795337
 20
117.6036929183823
 30
0.0
 10
346.0362326607189
 20
117.5797596293466
 30
0.0
 10
346.029862522416
 20
117.5782415041249
 30
0.0
  0
SPLINE
  5
12D
330
1F
100
AcDbEntity
  8
0
  6
Continuous
 62
     7
370
    15
100
AcDbSpline
210
0.0
220
0.0
230
1.0
 70
     8
 71
     3
 72
    11
 73
     7
 74
     0
 42
0.00000001
 43
0.00000001
 40
0.0
 40
0.0
 40
0.0
 40
0.0
 40
0.0395427217648532
 40
0.4851132400767708
 40
0.8964082220761951
 40
1.0
 40
1.0
 40
1.0
 40
1.0
 10
346.5830681317377
 20
117.5011354455274
 30
0.0
 10
346.5896138598238
 20
117.4969175788915
 30
0.0
 10
346.6699173700232
 20
117.4451724571945
 30
0.0
 10
346.7941480340629
 20
117.3626877634263
 30
0.0
 10
346.8603513466397
 20
117.3175005246013
 30
0.0
 10
346.8638600418114
 20
117.315100483173
 30
0.0
 10
346.8645659678506
 20
117.314617610864
 30
0.0
  0
SPLINE
  5
12E
330
1F
100
AcDbEntity
  8
0
  6
Continuous
 62
     7
370
    15
100
AcDbSpline
210
0.0
220
0.0
230
1.0
 70
     8
 71
     3
 72
    10
 73
     6
 74
     0
 42
0.00000001
 43
0.00000001
 40
0.0
 40
0.0
 40
0.0
 40
0.0
 40
0.5447851578899182
 40
0.9680210407561833
 40
1.0
 40
1.0
 40
1.0
 40
1.0
 10
260.0575087063836
 20
117.5011354455274
 30
0.0
 10
260.1488082584926
 20
117.5433839418941
 30
0.0
 10
260.3110371411505
 20
117.618454697459
 30
0.0
 10
260.5136660350793
 20
117.6013653542101
 30
0.0
 10
260.6043441545862
 20
117.5797593326716
 30
0.0
 10
260.6107143157052
 20
117.5782415041249
 30
0.0
  0
SPLINE
  5
12F
330
1F
100
AcDbEntity
  8
0
  6
Continuous
 62
     7
370
    15
100
AcDbSpline
210
0.0
220
0.0
230
1.0
 70
     8
 71
     3
 72
    10
 73
     6
 74
     0
 42
0.00000001
 43
0.00000001
 40
0.0
 40
0.0
 40
0.0
 40
0.0
 40
0.4959490894591058
 40
0.9680278513368344
 40
1.0
 40
1.0
 40
1.0
 40
1.0
 10
260.0575087063836
 20
96.47592482655459
 30
0.0
 10
260.1399412730238
 20
96.43664261438553
 30
0.0
 10
260.3008388773565
 20
96.35996886651508
 30
0.0
 10
260.5039170050776
 20
96.37336693714565
 30
0.0
 10
260.6043441802538
 20
96.39730064349492
 30
0.0
 10
260.6107143157052
 20
96.39881876795702
 30
0.0
  0
SPLINE
  5
130
330
1F
100
AcDbEntity
  8
0
  6
Continuous
 62
     7
370
    15
100
AcDbSpline
210
0.0
220
0.0
230
1.0
 70
     8
 71
     3
 72
    10
 73
     6
 74
     0
 42
0.00000001
 43
0.00000001
 40
0.0
 40
0.0
 40
0.0
 40
0.0
 40
0.5860425223654869
 40
0.8207074033536321
 40
1.0
 40
1.0
 40
1.0
 40
1.0
 10
344.0741447203683
 20
119.3120959171575
 30
0.0
 10
344.6217616610603
 20
118.9284983722659
 30
0.0
 10
345.38865699762
 20
118.3912995633297
 30
0.0
 10
346.2215753250558
 20
117.7750719404553
 30
0.0
 10
346.4874592412535
 20
117.5751283216295
 30
0.0
 10
346.6026184552239
 20
117.4885290631574
 30
0.0
  0
SPLINE
  5
131
330
1F
100
AcDbEntity
  8
0
  6
Continuous
 62
     7
370
    15
100
AcDbSpline
210
0.0
220
0.0
230
1.0
 70
     8
 71
     3
 72
    10
 73
     6
 74
     0
 42
0.00000001
 43
0.00000001
 40
0.0
 40
0.0
 40
0.0
 40
0.0
 40
0.5860395022487156
 40
0.8207078661186898
 40
1.0
 40
1.0
 40
1.0
 40
1.0
 10
262.5664321177529
 20
94.66496435492449
 30
0.0
 10
262.0188109014179
 20
95.04856507935558
 30
0.0
 10
261.2519051925448
 20
95.58577141234403
 30
0.0
 10
260.4190065091861
 20
96.20198462325517
 30
0.0
 10
260.1531183131378
 20
96.40193142653561
 30
0.0
 10
260.0379583828973
 20
96.48853120892458
 30
0.0
  0
SPLINE
  5
132
330
1F
100
AcDbEntity
  8
0
  6
Continuous
 62
     7
370
    15
100
AcDbSpline
210
0.0
220
0.0
230
1.0
 70
     8
 71
     3
 72
    11
 73
     7
 74
     0
 42
0.00000001
 43
0.00000001
 40
0.0
 40
0.0
 40
0.0
 40
0.0
 40
0.0369895308735631
 40
0.2730346273142106
 40
0.6578723159825798
 40
0.9999999999999999
 40
0.9999999999999999
 40
0.9999999999999999
 40
0.9999999999999999
 10
346.6026184552239
 20
96.48853120892458
 30
0.0
 10
346.5808083170011
 20
96.47208268912665
 30
0.0
 10
346.4198189013286
 20
96.35066953878798
 30
0.0
 10
345.922291584632
 20
95.97894674613586
 30
0.0
 10
345.070933896289
 20
95.35846282079135
 30
0.0
 10
344.3931339515424
 20
94.8868954791695
 30
0.0
 10
344.0741447203683
 20
94.66496435492449
 30
0.0
  0
SPLINE
  5
133
330
1F
100
AcDbEntity
  8
0
  6
Continuous
 62
     7
370
    15
100
AcDbSpline
210
0.0
220
0.0
230
1.0
 70
     8
 71
     3
 72
    11
 73
     7
 74
     0
 42
0.00000001
 43
0.00000001
 40
0.0
 40
0.0
 40
0.0
 40
0.0
 40
0.0369883591529192
 40
0.2730333330174262
 40
0.6578724936464742
 40
0.9999999999999999
 40
0.9999999999999999
 40
0.9999999999999999
 40
0.9999999999999999
 10
260.0379583828973
 20
117.4885290631574
 30
0.0
 10
260.0597659219023
 20
117.5049776311054
 30
0.0
 10
260.2207404878414
 20
117.6263944074388
 30
0.0
 10
260.7182859899877
 20
117.9981131006551
 30
0.0
 10
261.5696404286543
 20
118.6185959173122
 30
0.0
 10
262.2474425811426
 20
119.0901646490608
 30
0.0
 10
262.5664321177529
 20
119.3120959171575
 30
0.0
  0
ARC
  5
134
330
1F
100
AcDbEntity
  8
0
  6
Continuous
 62
     7
370
    15
100
AcDbCircle
 10
303.3202866551
 20
60.1399059086
 30
0.0
 40
71.84862375062596
100
AcDbArc
 50
55.4435251253
 51
124.5564748747
  0
ARC
  5
135
330
1F
100
AcDbEntity
  8
0
  6
Continuous
 62
     7
370
    15
100
AcDbCircle
 10
303.3202866551
 20
153.8371534098
 30
0.0
 40
71.8486237506259
100
AcDbArc
 50
235.4435251253
 51
304.5564748747
  0
CIRCLE
  5
136
330
1F
100
AcDbEntity
  8
0
  6
Continuous
 62
     7
370
    15
100
AcDbCircle
 10
178.3202865822
 20
106.9885296592
 30
0.0
 40
21.50000000000003
  0
CIRCLE
  5
137
330
1F
100
AcDbEntity
  8
0
  6
Continuous
 62
     7
370
    15
100
AcDbCircle
 10
178.3202865773
 20
106.9885296592
 30
0.0
 40
18.00000000000003
  0
CIRCLE
  5
138
330
1F
100
AcDbEntity
  8
0
  6
Continuous
 62
     7
370
    15
100
AcDbCircle
 10
178.3202865919
 20
106.9885296592
 30
0.0
 40
14.99999999999997
  0
SPLINE
  5
139
330
1F
100
AcDbEntity
  8
0
  6
Continuous
 62
     7
370
    15
100
AcDbSpline
210
0.0
220
0.0
230
1.0
 70
     8
 71
     3
 72
    11
 73
     7
 74
     0
 42
0.00000001
 43
0.00000001
 40
0.0
 40
0.0
 40
0.0
 40
0.0
 40
0.1964767098647447
 40
0.5093190402942647
 40
0.9971851646714301
 40
1.0
 40
1.0
 40
1.0
 40
1.0
 10
198.8558724925743
 20
96.39577893107347
 30
0.0
 10
198.5809305868597
 20
96.3267787201456
 30
0.0
 10
197.8682092284266
 20
96.14791211944731
 30
0.0
 10
196.740636658506
 20
95.51610430487568
 30
0.0
 10
196.0861151805993
 20
94.86599018547001
 30
0.0
 10
195.7608313456999
 20
94.4156436780683
 30
0.0
 10
195.7589653258102
 20
94.4130602249425
 30
0.0
  0
SPLINE
  5
13A
330
1F
100
AcDbEntity
  8
0
  6
Continuous
 62
     7
370
    15
100
AcDbSpline
210
0.0
220
0.0
230
1.0
 70
     8
 71
     3
 72
    11
 73
     7
 74
     0
 42
0.00000001
 43
0.00000001
 40
0.0
 40
0.0
 40
0.0
 40
0.0
 40
0.0028148353285698
 40
0.4906809597057353
 40
0.8035232901352553
 40
1.0
 40
1.0
 40
1.0
 40
1.0
 10
195.7589653258102
 20
119.5640000471394
 30
0.0
 10
195.7608313456999
 20
119.5614165940136
 30
0.0
 10
196.0861151805994
 20
119.111070086613
 30
0.0
 10
196.740636658506
 20
118.460955967206
 30
0.0
 10
197.8682092284266
 20
117.8291481526347
 30
0.0
 10
198.5809305868597
 20
117.6502815519364
 30
0.0
 10
198.8558724925743
 20
117.5812813410085
 30
0.0
  0
SPLINE
  5
13B
330
1F
100
AcDbEntity
  8
0
  6
Continuous
 62
     7
370
    15
100
AcDbSpline
210
0.0
220
0.0
230
1.0
 70
     8
 71
     3
 72
    11
 73
     7
 74
     0
 42
0.00000001
 43
0.00000001
 40
0.0
 40
0.0
 40
0.0
 40
0.0
 40
0.0028150832448303
 40
0.4906809748297375
 40
0.8035229126007734
 40
1.0
 40
1.0
 40
1.0
 40
1.0
 10
160.8816084855126
 20
94.4130602249425
 30
0.0
 10
160.8797416875701
 20
94.41564367739197
 30
0.0
 10
160.5543508715392
 20
94.86595042006452
 30
0.0
 10
159.8999671395107
 20
95.51611542532021
 30
0.0
 10
158.7723608665083
 20
96.14791143623286
 30
0.0
 10
158.059641736958
 20
96.32677843279939
 30
0.0
 10
157.7847001545953
 20
96.39577893107348
 30
0.0
  0
SPLINE
  5
13C
330
1F
100
AcDbEntity
  8
0
  6
Continuous
 62
     7
370
    15
100
AcDbSpline
210
0.0
220
0.0
230
1.0
 70
     8
 71
     3
 72
    11
 73
     7
 74
     0
 42
0.00000001
 43
0.00000001
 40
0.0
 40
0.0
 40
0.0
 40
0.0
 40
0.1964770873992268
 40
0.5093190251702626
 40
0.9971849167551697
 40
1.0
 40
1.0
 40
1.0
 40
1.0
 10
157.7847001545953
 20
117.5812813410085
 30
0.0
 10
158.059641736958
 20
117.6502818392826
 30
0.0
 10
158.7723608665083
 20
117.829148835849
 30
0.0
 10
159.8999671395106
 20
118.4609448467623
 30
0.0
 10
160.5543508715396
 20
119.1111098520157
 30
0.0
 10
160.8797416875702
 20
119.56141659469
 30
0.0
 10
160.8816084855126
 20
119.5640000471395
 30
0.0
  0
ARC
  5
13D
330
1F
100
AcDbEntity
  8
0
  6
Continuous
 62
     7
370
    15
100
AcDbCircle
 10
214.8202866434
 20
106.9885296592
 30
0.0
 40
12.5
100
AcDbArc
 50
304.3011527568
 51
55.6988472432
  0
SPLINE
  5
13E
330
1F
100
AcDbEntity
  8
0
  6
Continuous
 62
     7
370
    15
100
AcDbSpline
210
0.0
220
0.0
230
1.0
 70
    24
 71
     3
 72
    12
 73
     8
 74
     0
 42
0.00000001
 43
0.00000001
 40
0.0
 40
0.0
 40
0.0
 40
0.0
 40
0.4090153241541852
 40
0.6622095462083644
 40
0.8095527231556829
 40
0.9044178592651817
 40
1.0
 40
1.0
 40
1.0
 40
1.0
 10
219.2924225174712
 20
117.4885290631574
 30
0.0
 10
219.6262902109793
 20
117.4885290631573
 30
0.0
 10
220.1668332194078
 20
117.4885290631574
 30
0.0
 10
220.7952698686551
 20
117.4885290631574
 30
0.0
 10
221.1133907106851
 20
117.4885290631574
 30
0.0
 10
221.2716280552657
 20
117.4885290631574
 30
0.0
 10
221.2912036293403
 20
117.4885290631574
 30
0.0
 10
221.3010282658862
 20
117.4885290631574
 30
0.0
  0
ARC
  5
13F
330
1F
100
AcDbEntity
  8
0
  6
Continuous
 62
     7
370
    15
100
AcDbCircle
 10
221.3010273418
 20
116.4885296592
 30
0.0
 40
0.9999999999999858
100
AcDbArc
 50
55.6988472432
 51
90.0
  0
ARC
  5
140
330
1F
100
AcDbEntity
  8
0
  6
Continuous
 62
     7
370
    15
100
AcDbCircle
 10
141.8202866434
 20
106.9885296592
 30
0.0
 40
12.5000000000001
100
AcDbArc
 50
124.3011527568
 51
235.6988472432
  0
SPLINE
  5
141
330
1F
100
AcDbEntity
  8
0
  6
Continuous
 62
     7
370
    15
100
AcDbSpline
210
0.0
220
0.0
230
1.0
 70
    24
 71
     3
 72
    12
 73
     8
 74
     0
 42
0.00000001
 43
0.00000001
 40
0.0
 40
0.0
 40
0.0
 40
0.0
 40
0.4090159594905068
 40
0.6622093979386118
 40
0.8095525304193594
 40
0.9044180420718073
 40
1.0
 40
1.0
 40
1.0
 40
1.0
 10
137.3481524580048
 20
96.48853120892457
 30
0.0
 10
137.0142841759452
 20
96.48853120892454
 30
0.0
 10
136.4737411753031
 20
96.48853120892457
 30
0.0
 10
135.8453041185894
 20
96.48853120892454
 30
0.0
 10
135.5271850084665
 20
96.48853120892461
 30
0.0
 10
135.3689442984184
 20
96.48853120892454
 30
0.0
 10
135.3493704508849
 20
96.48853120892457
 30
0.0
 10
135.3395467095899
 20
96.48853120892458
 30
0.0
  0
ARC
  5
142
330
1F
100
AcDbEntity
  8
0
  6
Continuous
 62
     7
370
    15
100
AcDbCircle
 10
135.339545945
 20
97.4885296592
 30
0.0
 40
1.000000000000003
100
AcDbArc
 50
235.6988472432
 51
270.0
  0
ARC
  5
143
330
1F
100
AcDbEntity
  8
0
  6
Continuous
 62
     7
370
    15
100
AcDbCircle
 10
221.3010273418
 20
97.4885296592
 30
0.0
 40
1.000000000000002
100
AcDbArc
 50
270.0
 51
304.3011527568
  0
SPLINE
  5
144
330
1F
100
AcDbEntity
  8
0
  6
Continuous
 62
     7
370
    15
100
AcDbSpline
210
0.0
220
0.0
230
1.0
 70
    24
 71
     3
 72
    13
 73
     9
 74
     0
 42
0.00000001
 43
0.00000001
 40
0.0
 40
0.0
 40
0.0
 40
0.0
 40
0.0830574990227069
 40
0.1746681388172638
 40
0.3146418926350153
 40
0.4537340992501375
 40
0.8351882478166557
 40
1.0
 40
1.0
 40
1.0
 40
1.0
 10
221.3010282658862
 20
96.48853120892458
 30
0.0
 10
221.2936453893906
 20
96.48853120892458
 30
0.0
 10
221.278119358487
 20
96.48853120892456
 30
0.0
 10
221.1417670035028
 20
96.4885312089246
 30
0.0
 10
220.9118148576887
 20
96.4885312089246
 30
0.0
 10
220.4296291640445
 20
96.48853120892456
 30
0.0
 10
219.8701704169862
 20
96.48853120892463
 30
0.0
 10
219.4263314418292
 20
96.48853120892458
 30
0.0
 10
219.2924225174712
 20
96.48853120892458
 30
0.0
  0
ARC
  5
145
330
1F
100
AcDbEntity
  8
0
  6
Continuous
 62
     7
370
    15
100
AcDbCircle
 10
135.339545945
 20
116.4885296592
 30
0.0
 40
1.0
100
AcDbArc
 50
90.0
 51
124.3011527568
  0
SPLINE
  5
146
330
1F
100
AcDbEntity
  8
0
  6
Continuous
 62
     7
370
    15
100
AcDbSpline
210
0.0
220
0.0
230
1.0
 70
    24
 71
     3
 72
    13
 73
     9
 74
     0
 42
0.00000001
 43
0.00000001
 40
0.0
 40
0.0
 40
0.0
 40
0.0
 40
0.0830573088508145
 40
0.1746678873657065
 40
0.3146409836993753
 40
0.4537344472601363
 40
0.8351875954429209
 40
1.0
 40
1.0
 40
1.0
 40
1.0
 10
135.3395467095899
 20
117.4885290631574
 30
0.0
 10
135.3469288123812
 20
117.4885290631574
 30
0.0
 10
135.3624532293977
 20
117.4885290631574
 30
0.0
 10
135.4988063162663
 20
117.4885290631574
 30
0.0
 10
135.728757010353
 20
117.4885290631574
 30
0.0
 10
136.2109454659182
 20
117.4885290631574
 30
0.0
 10
136.7704037367577
 20
117.4885290631574
 30
0.0
 10
137.2142428704535
 20
117.4885290631574
 30
0.0
 10
137.3481524580048
 20
117.4885290631574
 30
0.0
  0
LINE
  5
147
330
1F
100
AcDbEntity
  8
0
  6
Continuous
 62
     7
370
    15
100
AcDbLine
 10
219.2924225175
 20
96.4885312089
 30
0.0
 11
199.8144721084
 21
96.4885312089
 31
0.0
  0
LINE
  5
148
330
1F
100
AcDbEntity
  8
0
  6
Continuous
 62
     7
370
    15
100
AcDbLine
 10
199.8144721084
 20
117.4885290632
 30
0.0
 11
219.2924225175
 21
117.4885290632
 31
0.0
  0
ARC
  5
149
330
1F
100
AcDbEntity
  8
0
  6
Continuous
 62
     7
370
    15
100
AcDbCircle
 10
199.8144718988
 20
91.4885296592
 30
0.0
 40
5.000000000000016
100
AcDbArc
 50
90.0
 51
101.0531732713
  0
ARC
  5
14A
330
1F
100
AcDbEntity
  8
0
  6
Continuous
 62
     7
370
    15
100
AcDbCircle
 10
199.8144718988
 20
122.4885296592
 30
0.0
 40
5.000000000000002
100
AcDbArc
 50
258.9468267287
 51
270.0
  0
ARC
  5
14B
330
1F
100
AcDbEntity
  8
0
  6
Continuous
 62
     7
370
    15
100
AcDbCircle
 10
156.8261013784
 20
91.4885296592
 30
0.0
 40
4.999999999999965
100
AcDbArc
 50
78.9468267287
 51
90.0
  0
ARC
  5
14C
330
1F
100
AcDbEntity
  8
0
  6
Continuous
 62
     7
370
    15
100
AcDbCircle
 10
156.8261013784
 20
122.4885296592
 30
0.0
 40
5.0
100
AcDbArc
 50
270.0
 51
281.0531732713
  0
LINE
  5
14D
330
1F
100
AcDbEntity
  8
0
  6
Continuous
 62
     7
370
    15
100
AcDbLine
 10
156.8261010044
 20
96.4885312089
 30
0.0
 11
137.348152458
 21
96.4885312089
 31
0.0
  0
LINE
  5
14E
330
1F
100
AcDbEntity
  8
0
  6
Continuous
 62
     7
370
    15
100
AcDbLine
 10
137.348152458
 20
117.4885290632
 30
0.0
 11
156.8261010044
 21
117.4885290632
 31
0.0
  0
SPLINE
  5
14F
330
1F
100
AcDbEntity
  8
0
  6
Continuous
 62
     7
370
    15
100
AcDbSpline
210
0.0
220
0.0
230
1.0
 70
     8
 71
     3
 72
    10
 73
     6
 74
     0
 42
0.00000001
 43
0.00000001
 40
0.0
 40
0.0
 40
0.0
 40
0.0
 40
0.5447805185916268
 40
0.9680188947003655
 40
1.0
 40
1.0
 40
1.0
 40
1.0
 10
221.5830644064473
 20
96.47592482655459
 30
0.0
 10
221.4917653309087
 20
96.43367614066089
 30
0.0
 10
221.3295362731983
 20
96.35860457546048
 30
0.0
 10
221.1269077198644
 20
96.37569616700723
 30
0.0
 10
221.0362258584086
 20
96.39730094068841
 30
0.0
 10
221.0298550718354
 20
96.39881876795702
 30
0.0
  0
SPLINE
  5
150
330
1F
100
AcDbEntity
  8
0
  6
Continuous
 62
     7
370
    15
100
AcDbSpline
210
0.0
220
0.0
230
1.0
 70
     8
 71
     3
 72
    11
 73
     7
 74
     0
 42
0.00000001
 43
0.00000001
 40
0.0
 40
0.0
 40
0.0
 40
0.0
 40
0.4553421092940704
 40
0.5144967262158635
 40
0.960424658974376
 40
0.9999999999999999
 40
0.9999999999999999
 40
0.9999999999999999
 40
0.9999999999999999
 10
221.8645696931409
 20
96.66244266121798
 30
0.0
 10
221.8525506252089
 20
96.65419651339582
 30
0.0
 10
221.8389701305063
 20
96.64487908816369
 30
0.0
 10
221.7453406857112
 20
96.5819462585997
 30
0.0
 10
221.6699204469173
 20
96.53188720595583
 30
0.0
 10
221.5896107736479
 20
96.48014272876381
 30
0.0
 10
221.5830644064473
 20
96.47592482655459
 30
0.0
  0
SPLINE
  5
151
330
1F
100
AcDbEntity
  8
0
  6
Continuous
 62
     7
370
    15
100
AcDbSpline
210
0.0
220
0.0
230
1.0
 70
     8
 71
     3
 72
    10
 73
     6
 74
     0
 42
0.00000001
 43
0.00000001
 40
0.0
 40
0.0
 40
0.0
 40
0.0
 40
0.495944703620067
 40
0.9680257058762137
 40
1.0
 40
1.0
 40
1.0
 40
1.0
 10
221.5830644064473
 20
117.5011354455274
 30
0.0
 10
221.5006323275047
 20
117.5404178315854
 30
0.0
 10
221.3397346088221
 20
117.6170924269884
 30
0.0
 10
221.1366569967639
 20
117.6036919216788
 30
0.0
 10
221.0362258323702
 20
117.5797596276593
 30
0.0
 10
221.0298550718354
 20
117.5782415041249
 30
0.0
  0
SPLINE
  5
152
330
1F
100
AcDbEntity
  8
0
  6
Continuous
 62
     7
370
    15
100
AcDbSpline
210
0.0
220
0.0
230
1.0
 70
     8
 71
     3
 72
    11
 73
     7
 74
     0
 42
0.00000001
 43
0.00000001
 40
0.0
 40
0.0
 40
0.0
 40
0.0
 40
0.0395437868671888
 40
0.4851161729575945
 40
0.8964080600161863
 40
1.0
 40
1.0
 40
1.0
 40
1.0
 10
221.5830644064473
 20
117.5011354455274
 30
0.0
 10
221.589610757262
 20
117.4969175824082
 30
0.0
 10
221.669920229512
 20
117.4451735847658
 30
0.0
 10
221.7941606052695
 20
117.3626879990639
 30
0.0
 10
221.8603338680064
 20
117.3175004746828
 30
0.0
 10
221.8638602112719
 20
117.3151004777306
 30
0.0
 10
221.8645696931409
 20
117.314617610864
 30
0.0
  0
SPLINE
  5
153
330
1F
100
AcDbEntity
  8
0
  6
Continuous
 62
     7
370
    15
100
AcDbSpline
210
0.0
220
0.0
230
1.0
 70
     8
 71
     3
 72
    10
 73
     6
 74
     0
 42
0.00000001
 43
0.00000001
 40
0.0
 40
0.0
 40
0.0
 40
0.0
 40
0.5447783501901153
 40
0.9680166035456933
 40
1.0
 40
1.0
 40
1.0
 40
1.0
 10
135.0575087063836
 20
117.5011354455274
 30
0.0
 10
135.1488074981797
 20
117.5433843948854
 30
0.0
 10
135.3110363134609
 20
117.618456549362
 30
0.0
 10
135.5136619100873
 20
117.6013626426771
 30
0.0
 10
135.6043466276923
 20
117.5797593302363
 30
0.0
 10
135.6107180409955
 20
117.5782415041249
 30
0.0
  0
SPLINE
  5
154
330
1F
100
AcDbEntity
  8
0
  6
Continuous
 62
     7
370
    15
100
AcDbSpline
210
0.0
220
0.0
230
1.0
 70
     8
 71
     3
 72
    10
 73
     6
 74
     0
 42
0.00000001
 43
0.00000001
 40
0.0
 40
0.0
 40
0.0
 40
0.0
 40
0.4959425596770907
 40
0.9680234158314878
 40
1.0
 40
1.0
 40
1.0
 40
1.0
 10
135.0575087063836
 20
96.47592482655458
 30
0.0
 10
135.1399404439616
 20
96.43664221592734
 30
0.0
 10
135.30083781126
 20
96.3599670321179
 30
0.0
 10
135.5039123847607
 20
96.37336997532148
 30
0.0
 10
135.604346654292
 20
96.397300645184
 30
0.0
 10
135.6107180409955
 20
96.39881876795702
 30
0.0
  0
SPLINE
  5
155
330
1F
100
AcDbEntity
  8
0
  6
Continuous
 62
     7
370
    15
100
AcDbSpline
210
0.0
220
0.0
230
1.0
 70
     8
 71
     3
 72
    10
 73
     6
 74
     0
 42
0.00000001
 43
0.00000001
 40
0.0
 40
0.0
 40
0.0
 40
0.0
 40
0.5860398669276693
 40
0.8207080240662915
 40
1.0
 40
1.0
 40
1.0
 40
1.0
 10
219.0741391324328
 20
119.3120959171575
 30
0.0
 10
219.6217617809458
 20
118.9284953942101
 30
0.0
 10
220.3886691658499
 20
118.3912895742896
 30
0.0
 10
221.2215684533131
 20
117.775075629728
 30
0.0
 10
221.4874566584164
 20
117.5751288397744
 30
0.0
 10
221.6026165925788
 20
117.4885290631574
 30
0.0
  0
SPLINE
  5
156
330
1F
100
AcDbEntity
  8
0
  6
Continuous
 62
     7
370
    15
100
AcDbSpline
210
0.0
220
0.0
230
1.0
 70
     8
 71
     3
 72
    10
 73
     6
 74
     0
 42
0.00000001
 43
0.00000001
 40
0.0
 40
0.0
 40
0.0
 40
0.0
 40
0.5860403243779404
 40
0.8207078841147838
 40
1.0
 40
1.0
 40
1.0
 40
1.0
 10
137.5664321177529
 20
94.66496435492449
 30
0.0
 10
137.0188087157389
 20
95.04856433667703
 30
0.0
 10
136.2519010050183
 20
95.58576888775426
 30
0.0
 10
135.4190063871699
 20
96.20198534410294
 30
0.0
 10
135.1531184277853
 20
96.40193153044488
 30
0.0
 10
135.0379583828973
 20
96.48853120892458
 30
0.0
  0
SPLINE
  5
157
330
1F
100
AcDbEntity
  8
0
  6
Continuous
 62
     7
370
    15
100
AcDbSpline
210
0.0
220
0.0
230
1.0
 70
     8
 71
     3
 72
    11
 73
     7
 74
     0
 42
0.00000001
 43
0.00000001
 40
0.0
 40
0.0
 40
0.0
 40
0.0
 40
0.0369886175798158
 40
0.2730330524035043
 40
0.6578723220567567
 40
0.9999999999999999
 40
0.9999999999999999
 40
0.9999999999999999
 40
0.9999999999999999
 10
221.6026165925788
 20
96.48853120892457
 30
0.0
 10
221.5808083981665
 20
96.47208265684108
 30
0.0
 10
221.4198302844282
 20
96.35066697069709
 30
0.0
 10
220.9222912085224
 20
95.97894563972753
 30
0.0
 10
220.0709319052679
 20
95.35846456062295
 30
0.0
 10
219.3931290409159
 20
94.88689570633225
 30
0.0
 10
219.0741391324328
 20
94.66496435492449
 30
0.0
  0
SPLINE
  5
158
330
1F
100
AcDbEntity
  8
0
  6
Continuous
 62
     7
370
    15
100
AcDbSpline
210
0.0
220
0.0
230
1.0
 70
     8
 71
     3
 72
    11
 73
     7
 74
     0
 42
0.00000001
 43
0.00000001
 40
0.0
 40
0.0
 40
0.0
 40
0.0
 40
0.0369883591529192
 40
0.2730333330174262
 40
0.6578724936464742
 40
0.9999999999999999
 40
0.9999999999999999
 40
0.9999999999999999
 40
0.9999999999999999
 10
135.0379583828973
 20
117.4885290631574
 30
0.0
 10
135.0597659219023
 20
117.5049776311054
 30
0.0
 10
135.2207404878414
 20
117.6263944074388
 30
0.0
 10
135.7182859899877
 20
117.9981131006551
 30
0.0
 10
136.5696404286543
 20
118.6185959173122
 30
0.0
 10
137.2474425811426
 20
119.0901646490608
 30
0.0
 10
137.5664321177529
 20
119.3120959171575
 30
0.0
  0
ARC
  5
159
330
1F
100
AcDbEntity
  8
0
  6
Continuous
 62
     7
370
    15
100
AcDbCircle
 10
178.3202866551
 20
60.1399059086
 30
0.0
 40
71.84862375062593
100
AcDbArc
 50
55.4435251253
 51
124.5564748747
  0
ARC
  5
15A
330
1F
100
AcDbEntity
  8
0
  6
Continuous
 62
     7
370
    15
100
AcDbCircle
 10
178.3202866551
 20
153.8371534098
 30
0.0
 40
71.8486237506259
100
AcDbArc
 50
235.4435251253
 51
304.5564748747
  0
SPLINE
  5
15B
330
1F
100
AcDbEntity
  8
0
  6
Continuous
 62
     7
370
    15
100
AcDbSpline
210
0.0
220
0.0
230
1.0
 70
     8
 71
     3
 72
    11
 73
     7
 74
     0
 42
0.00000001
 43
0.00000001
 40
0.0
 40
0.0
 40
0.0
 40
0.0
 40
0.2477148832337951
 40
0.5858229757813469
 40
0.8453071616661109
 40
1.0
 40
1.0
 40
1.0
 40
1.0
 10
233.3838341229485
 20
793.9736391736428
 30
0.0
 10
233.1179775631478
 20
793.9848428088774
 30
0.0
 10
232.4892511864349
 20
794.011338378489
 30
0.0
 10
231.8747328614166
 20
794.0529863159493
 30
0.0
 10
231.4902553298955
 20
794.0932822478194
 30
0.0
 10
231.4498633296659
 20
794.100213612371
 30
0.0
 10
231.4347771399545
 20
794.1028024388711
 30
0.0
  0
SPLINE
  5
15C
330
1F
100
AcDbEntity
  8
0
  6
Continuous
 62
     7
370
    15
100
AcDbSpline
210
0.0
220
0.0
230
1.0
 70
     8
 71
     3
 72
    17
 73
    13
 74
     0
 42
0.00000001
 43
0.00000001
 40
0.0
 40
0.0
 40
0.0
 40
0.0
 40
0.0896851351747232
 40
0.2159977571120315
 40
0.3106237073733185
 40
0.3929641520341101
 40
0.5025519635273141
 40
0.6400948311684915
 40
0.7196394751495317
 40
0.8061534899850062
 40
0.8996583927882627
 40
1.0
 40
1.0
 40
1.0
 40
1.0
 10
56.07449984484184
 20
685.8969475461405
 30
0.0
 10
56.02197099490733
 20
685.7634180848896
 30
0.0
 10
55.89546046729968
 20
685.44182561494
 30
0.0
 10
55.81737227489114
 20
684.3020533009856
 30
0.0
 10
55.79276660262389
 20
682.9590685879521
 30
0.0
 10
55.80679247906692
 20
681.5052128826004
 30
0.0
 10
55.80582985031532
 20
679.787901848607
 30
0.0
 10
55.79943182494454
 20
678.1625574971653
 30
0.0
 10
55.78599620915589
 20
676.8932791318284
 30
0.0
 10
55.77090115456473
 20
676.0235744858717
 30
0.0
 10
55.75146963751435
 20
675.3384924108757
 30
0.0
 10
55.73658639123935
 20
675.1814910760324
 30
0.0
 10
55.72888231211174
 20
675.100221796171
 30
0.0
  0
SPLINE
  5
15D
330
1F
100
AcDbEntity
  8
0
  6
Continuous
 62
     7
370
    15
100
AcDbSpline
210
0.0
220
0.0
230
1.0
 70
     8
 71
     3
 72
    11
 73
     7
 74
     0
 42
0.00000001
 43
0.00000001
 40
0.0
 40
0.0
 40
0.0
 40
0.0
 40
0.1542254405687672
 40
0.4494995384759269
 40
0.7318278835554652
 40
1.0
 40
1.0
 40
1.0
 40
1.0
 10
55.51533377104273
 20
509.2840339375894
 30
0.0
 10
55.50534602820792
 20
509.2615790365869
 30
0.0
 10
55.47623613701158
 20
509.1961328456086
 30
0.0
 10
55.43436518427869
 20
509.0835561066149
 30
0.0
 10
55.39118620910191
 20
508.9555786463822
 30
0.0
 10
55.3699879236954
 20
508.8808922146661
 30
0.0
 10
55.3596613400506
 20
508.8445092870156
 30
0.0
  0
LINE
  5
15E
330
1F
100
AcDbEntity
  8
0
  6
Continuous
 62
     7
370
    15
100
AcDbLine
 10
126.2332645648
 20
491.1124850942
 30
0.0
 11
126.2550277107
 21
491.1345090105
 31
0.0
  0
SPLINE
  5
15F
330
1F
100
AcDbEntity
  8
0
  6
Continuous
 62
     7
370
    15
100
AcDbSpline
210
0.0
220
0.0
230
1.0
 70
     8
 71
     3
 72
    15
 73
    11
 74
     0
 42
0.00000001
 43
0.00000001
 40
0.0
 40
0.0
 40
0.0
 40
0.0
 40
0.1080900479103822
 40
0.2217963242102877
 40
0.3409190371743439
 40
0.4648005174423095
 40
0.5929378048983956
 40
0.7250925127310166
 40
0.8608923080357461
 40
1.0
 40
1.0
 40
1.0
 40
1.0
 10
55.35967624121179
 20
614.8510123921792
 30
0.0
 10
55.36553681766479
 20
614.803783532311
 30
0.0
 10
55.37756247904768
 20
614.7068718580363
 30
0.0
 10
55.39972221616981
 20
614.5540941630796
 30
0.0
 10
55.42512786554799
 20
614.4006484554734
 30
0.0
 10
55.45405790401411
 20
614.2536891332728
 30
0.0
 10
55.48620509475721
 20
614.122307563341
 30
0.0
 10
55.52125393825757
 20
614.0177604196268
 30
0.0
 10
55.55870200487506
 20
613.9414032247265
 30
0.0
 10
55.58484907389766
 20
613.9209300624213
 30
0.0
 10
55.59807991915216
 20
613.9105703069131
 30
0.0
  0
SPLINE
  5
160
330
1F
100
AcDbEntity
  8
0
  6
Continuous
 62
     7
370
    15
100
AcDbSpline
210
0.0
220
0.0
230
1.0
 70
     8
 71
     3
 72
    15
 73
    11
 74
     0
 42
0.00000001
 43
0.00000001
 40
0.0
 40
0.0
 40
0.0
 40
0.0
 40
0.1080870993336854
 40
0.2218340610397919
 40
0.3409535244682775
 40
0.4648316253867753
 40
0.592932002098877
 40
0.7251092457346271
 40
0.8609053365714651
 40
1.0
 40
1.0
 40
1.0
 40
1.0
 10
55.35967624121179
 20
687.3510624600808
 30
0.0
 10
55.36553775491792
 20
687.3038337846891
 30
0.0
 10
55.37756771406463
 20
687.206903356134
 30
0.0
 10
55.3997157761743
 20
687.0541022834869
 30
0.0
 10
55.42512966428745
 20
686.9006423247448
 30
0.0
 10
55.45405142683349
 20
686.7536797469712
 30
0.0
 10
55.48621586593425
 20
686.622362179044
 30
0.0
 10
55.52124824975657
 20
686.517743217468
 30
0.0
 10
55.55870136350499
 20
686.4413845389159
 30
0.0
 10
55.58484914649706
 20
686.4209568042357
 30
0.0
 10
55.59807991915216
 20
686.4106203748147
 30
0.0
  0
LINE
  5
161
330
1F
100
AcDbEntity
  8
0
  6
Continuous
 62
     7
370
    15
100
AcDbLine
 10
251.2332608395
 20
491.1124850942
 30
0.0
 11
251.2550239854
 21
491.1345090105
 31
0.0
  0
LINE
  5
162
330
1F
100
AcDbEntity
  8
0
  6
Continuous
 62
     7
370
    15
100
AcDbLine
 10
355.3959277862
 20
743.5895349218
 30
0.0
 11
355.3741571897
 21
743.5675408079
 31
0.0
  0
ARC
  5
163
330
1F
100
AcDbEntity
  8
0
  6
Continuous
 62
     7
370
    15
100
AcDbCircle
 10
46.320287076
 20
580.0131833788
 30
0.0
 40
1.000000000000007
100
AcDbArc
 50
269.9999997215
 51
359.9999997215
  0
ARC
  5
164
330
1F
100
AcDbEntity
  8
0
  6
Continuous
 62
     7
370
    15
100
AcDbCircle
 10
46.320286901
 20
544.0131833788
 30
0.0
 40
1.0
100
AcDbArc
 50
359.9999997215
 51
89.9999997215
  0
LINE
  5
165
330
1F
100
AcDbEntity
  8
0
  6
Continuous
 62
     7
370
    15
100
AcDbLine
 10
44.8202935451
 20
545.0131739808
 30
0.0
 11
46.3202891343
 21
545.0131739808
 31
0.0
  0
LINE
  5
166
330
1F
100
AcDbEntity
  8
0
  6
Continuous
 62
     7
370
    15
100
AcDbLine
 10
46.3202891343
 20
579.0131832792
 30
0.0
 11
44.8202935451
 21
579.0131832792
 31
0.0
  0
LINE
  5
167
330
1F
100
AcDbEntity
  8
0
  6
Continuous
 62
     7
370
    15
100
AcDbLine
 10
44.8202935451
 20
579.0131832792
 30
0.0
 11
44.3202850812
 21
578.5131599142
 31
0.0
  0
LINE
  5
168
330
1F
100
AcDbEntity
  8
0
  6
Continuous
 62
     7
370
    15
100
AcDbLine
 10
44.3202850812
 20
545.5131973459
 30
0.0
 11
44.8202935451
 21
545.0131739808
 31
0.0
  0
LINE
  5
169
330
1F
100
AcDbEntity
  8
0
  6
Continuous
 62
     7
370
    15
100
AcDbLine
 10
55.7762829059
 20
611.0131885244
 30
0.0
 11
49.3202803128
 21
611.0131885244
 31
0.0
  0
LINE
  5
16A
330
1F
100
AcDbEntity
  8
0
  6
Continuous
 62
     7
370
    15
100
AcDbLine
 10
49.3202803128
 20
513.0131687356
 30
0.0
 11
55.7837632888
 21
513.0131687356
 31
0.0
  0
ARC
  5
16B
330
1F
100
AcDbEntity
  8
0
  6
Continuous
 62
     7
370
    15
100
AcDbCircle
 10
49.3202867601
 20
515.0131833643
 30
0.0
 40
2.0
100
AcDbArc
 50
179.9999997215
 51
269.9999997215
  0
ARC
  5
16C
330
1F
100
AcDbEntity
  8
0
  6
Continuous
 62
     7
370
    15
100
AcDbCircle
 10
49.320287217
 20
609.0131833643
 30
0.0
 40
2.000000000000007
100
AcDbArc
 50
89.9999997215
 51
179.9999997215
  0
LINE
  5
16D
330
1F
100
AcDbEntity
  8
0
  6
Continuous
 62
     7
370
    15
100
AcDbLine
 10
246.3202883893
 20
490.5131901933
 30
0.0
 11
246.3202883893
 21
491.086676283
 31
0.0
  0
LINE
  5
16E
330
1F
100
AcDbEntity
  8
0
  6
Continuous
 62
     7
370
    15
100
AcDbLine
 10
235.3202884489
 20
491.086676283
 30
0.0
 11
235.3202884489
 21
490.5131901933
 31
0.0
  0
LINE
  5
16F
330
1F
100
AcDbEntity
  8
0
  6
Continuous
 62
     7
370
    15
100
AcDbLine
 10
45.3202871078
 20
587.0131994916
 30
0.0
 11
47.3202911609
 21
587.0131994916
 31
0.0
  0
LINE
  5
170
330
1F
100
AcDbEntity
  8
0
  6
Continuous
 62
     7
370
    15
100
AcDbLine
 10
47.3202911609
 20
607.0131804181
 30
0.0
 11
45.3202871078
 21
607.0131804181
 31
0.0
  0
LINE
  5
171
330
1F
100
AcDbEntity
  8
0
  6
Continuous
 62
     7
370
    15
100
AcDbLine
 10
45.3202871078
 20
517.0253063871
 30
0.0
 11
47.3202911609
 21
517.0253063871
 31
0.0
  0
LINE
  5
172
330
1F
100
AcDbEntity
  8
0
  6
Continuous
 62
     7
370
    15
100
AcDbLine
 10
47.3202911609
 20
537.0252873136
 30
0.0
 11
45.3202871078
 21
537.0252873136
 31
0.0
  0
LINE
  5
173
330
1F
100
AcDbEntity
  8
0
  6
Continuous
 62
     7
370
    15
100
AcDbLine
 10
348.3081755631
 20
487.0131756498
 30
0.0
 11
348.3081755631
 21
489.0131797029
 31
0.0
  0
LINE
  5
174
330
1F
100
AcDbEntity
  8
0
  6
Continuous
 62
     7
370
    15
100
AcDbLine
 10
328.3081648343
 20
489.0131797029
 30
0.0
 11
328.3081648343
 21
487.0131756498
 31
0.0
  0
LINE
  5
175
330
1F
100
AcDbEntity
  8
0
  6
Continuous
 62
     7
370
    15
100
AcDbLine
 10
278.3081678145
 20
487.0131756498
 30
0.0
 11
278.3081678145
 21
489.0131797029
 31
0.0
  0
LINE
  5
176
330
1F
100
AcDbEntity
  8
0
  6
Continuous
 62
     7
370
    15
100
AcDbLine
 10
258.3081719869
 20
489.0131797029
 30
0.0
 11
258.3081719869
 21
487.0131756498
 31
0.0
  0
LINE
  5
177
330
1F
100
AcDbEntity
  8
0
  6
Continuous
 62
     7
370
    15
100
AcDbLine
 10
223.3081699752
 20
487.0131756498
 30
0.0
 11
223.3081699752
 21
489.0131797029
 31
0.0
  0
LINE
  5
178
330
1F
100
AcDbEntity
  8
0
  6
Continuous
 62
     7
370
    15
100
AcDbLine
 10
203.3081694909
 20
489.0131797029
 30
0.0
 11
203.3081694909
 21
487.0131756498
 31
0.0
  0
LINE
  5
179
330
1F
100
AcDbEntity
  8
0
  6
Continuous
 62
     7
370
    15
100
AcDbLine
 10
153.3081678145
 20
487.0131756498
 30
0.0
 11
153.3081678145
 21
489.0131797029
 31
0.0
  0
LINE
  5
17A
330
1F
100
AcDbEntity
  8
0
  6
Continuous
 62
     7
370
    15
100
AcDbLine
 10
133.3081682616
 20
489.0131797029
 30
0.0
 11
133.3081682616
 21
487.0131756498
 31
0.0
  0
LINE
  5
17B
330
1F
100
AcDbEntity
  8
0
  6
Continuous
 62
     7
370
    15
100
AcDbLine
 10
281.8202895515
 20
488.0131925775
 30
0.0
 11
281.8202895515
 21
478.413179083
 31
0.0
  0
LINE
  5
17C
330
1F
100
AcDbEntity
  8
0
  6
Continuous
 62
     7
370
    15
100
AcDbLine
 10
324.820279836
 20
478.413179083
 30
0.0
 11
324.820279836
 21
488.0131925775
 31
0.0
  0
ARC
  5
17D
330
1F
100
AcDbEntity
  8
0
  6
Continuous
 62
     7
370
    15
100
AcDbCircle
 10
323.8202865822
 20
478.4131820301
 30
0.0
 40
1.0
100
AcDbArc
 50
269.9999997215
 51
359.9999997215
  0
ARC
  5
17E
330
1F
100
AcDbEntity
  8
0
  6
Continuous
 62
     7
370
    15
100
AcDbCircle
 10
282.8202865822
 20
478.4131822294
 30
0.0
 40
1.0
100
AcDbArc
 50
179.9999997215
 51
269.9999997215
  0
ARC
  5
17F
330
1F
100
AcDbEntity
  8
0
  6
Continuous
 62
     7
370
    15
100
AcDbCircle
 10
325.8202866289
 20
488.0131820204
 30
0.0
 40
1.0
100
AcDbArc
 50
89.9999997215
 51
179.9999997215
  0
ARC
  5
180
330
1F
100
AcDbEntity
  8
0
  6
Continuous
 62
     7
370
    15
100
AcDbCircle
 10
280.8202866289
 20
488.0131822391
 30
0.0
 40
1.0
100
AcDbArc
 50
359.9999997215
 51
89.9999997215
  0
LINE
  5
181
330
1F
100
AcDbEntity
  8
0
  6
Continuous
 62
     7
370
    15
100
AcDbLine
 10
254.3202859753
 20
491.3173760606
 30
0.0
 11
254.3202859753
 21
491.013183756
 31
0.0
  0
LINE
  5
182
330
1F
100
AcDbEntity
  8
0
  6
Continuous
 62
     7
370
    15
100
AcDbLine
 10
352.3202834123
 20
491.013183756
 30
0.0
 11
352.3202834123
 21
491.3170482351
 31
0.0
  0
ARC
  5
183
330
1F
100
AcDbEntity
  8
0
  6
Continuous
 62
     7
370
    15
100
AcDbCircle
 10
350.3202866434
 20
491.0131819013
 30
0.0
 40
2.0
100
AcDbArc
 50
269.9999997215
 51
359.9999997215
  0
ARC
  5
184
330
1F
100
AcDbEntity
  8
0
  6
Continuous
 62
     7
370
    15
100
AcDbCircle
 10
256.3202866434
 20
491.0131823582
 30
0.0
 40
2.000000000000028
100
AcDbArc
 50
179.9999997215
 51
269.9999997215
  0
LINE
  5
185
330
1F
100
AcDbEntity
  8
0
  6
Continuous
 62
     7
370
    15
100
AcDbLine
 10
156.8202858263
 20
488.0131925775
 30
0.0
 11
156.8202858263
 21
478.413179083
 31
0.0
  0
LINE
  5
186
330
1F
100
AcDbEntity
  8
0
  6
Continuous
 62
     7
370
    15
100
AcDbLine
 10
199.8202863552
 20
478.413179083
 30
0.0
 11
199.8202868209
 21
488.0131925775
 31
0.0
  0
ARC
  5
187
330
1F
100
AcDbEntity
  8
0
  6
Continuous
 62
     7
370
    15
100
AcDbCircle
 10
198.8202865822
 20
478.4131826376
 30
0.0
 40
1.0
100
AcDbArc
 50
269.9999997215
 51
359.9999997215
  0
ARC
  5
188
330
1F
100
AcDbEntity
  8
0
  6
Continuous
 62
     7
370
    15
100
AcDbCircle
 10
157.8202865822
 20
478.4131828369
 30
0.0
 40
1.0
100
AcDbArc
 50
179.9999997215
 51
269.9999997215
  0
ARC
  5
189
330
1F
100
AcDbEntity
  8
0
  6
Continuous
 62
     7
370
    15
100
AcDbCircle
 10
200.8202866289
 20
488.0131826279
 30
0.0
 40
1.0
100
AcDbArc
 50
89.9999997215
 51
179.9999997215
  0
ARC
  5
18A
330
1F
100
AcDbEntity
  8
0
  6
Continuous
 62
     7
370
    15
100
AcDbCircle
 10
155.8202866289
 20
488.0131828466
 30
0.0
 40
1.0
100
AcDbArc
 50
359.9999997215
 51
89.9999997215
  0
LINE
  5
18B
330
1F
100
AcDbEntity
  8
0
  6
Continuous
 62
     7
370
    15
100
AcDbLine
 10
129.3202859753
 20
491.3173760606
 30
0.0
 11
129.3202859753
 21
491.013183756
 31
0.0
  0
LINE
  5
18C
330
1F
100
AcDbEntity
  8
0
  6
Continuous
 62
     7
370
    15
100
AcDbLine
 10
227.3202871376
 20
491.013183756
 30
0.0
 11
227.3202871376
 21
491.3170482351
 31
0.0
  0
ARC
  5
18D
330
1F
100
AcDbEntity
  8
0
  6
Continuous
 62
     7
370
    15
100
AcDbCircle
 10
225.3202866434
 20
491.0131825088
 30
0.0
 40
2.0
100
AcDbArc
 50
269.9999997215
 51
359.9999997215
  0
ARC
  5
18E
330
1F
100
AcDbEntity
  8
0
  6
Continuous
 62
     7
370
    15
100
AcDbCircle
 10
131.3202866434
 20
491.0131829657
 30
0.0
 40
2.0
100
AcDbArc
 50
179.9999997215
 51
269.9999997215
  0
LINE
  5
18F
330
1F
100
AcDbEntity
  8
0
  6
Continuous
 62
     7
370
    15
100
AcDbLine
 10
310.3647527688
 20
744.0018202497
 30
0.0
 11
308.2758185857
 21
744.0018202497
 31
0.0
  0
LINE
  5
190
330
1F
100
AcDbEntity
  8
0
  6
Continuous
 62
     7
370
    15
100
AcDbLine
 10
298.364713549
 20
744.0132047368
 30
0.0
 11
296.2758687728
 21
744.0132047368
 31
0.0
  0
SPLINE
  5
191
330
1F
100
AcDbEntity
  8
0
  6
Continuous
 62
     7
370
    15
100
AcDbSpline
210
0.0
220
0.0
230
1.0
 70
     8
 71
     3
 72
    11
 73
     7
 74
     0
 42
0.00000001
 43
0.00000001
 40
0.0
 40
0.0
 40
0.0
 40
0.0
 40
0.2500143278673587
 40
0.5000153598782616
 40
0.7500056095895467
 40
1.0
 40
1.0
 40
1.0
 40
1.0
 10
307.2768521898316
 20
743.0472518636147
 30
0.0
 10
307.2967797056226
 20
743.1737270579534
 30
0.0
 10
307.3366336774517
 20
743.4266707206322
 30
0.0
 10
307.5697655750056
 20
743.7407420041549
 30
0.0
 10
307.8940993323146
 20
743.9593548911638
 30
0.0
 10
308.1485781320609
 20
743.9876650520314
 30
0.0
 10
308.2758185856866
 20
744.0018202496926
 30
0.0
  0
SPLINE
  5
192
330
1F
100
AcDbEntity
  8
0
  6
Continuous
 62
     7
370
    15
100
AcDbSpline
210
0.0
220
0.0
230
1.0
 70
     8
 71
     3
 72
    11
 73
     7
 74
     0
 42
0.00000001
 43
0.00000001
 40
0.0
 40
0.0
 40
0.0
 40
0.0
 40
0.2500127543688152
 40
0.5000162076115198
 40
0.750006033459686
 40
0.9999999999999999
 40
0.9999999999999999
 40
0.9999999999999999
 40
0.9999999999999999
 10
311.3637191646623
 20
743.0472518636147
 30
0.0
 10
311.3437951985123
 20
743.1737275558872
 30
0.0
 10
311.3039480074359
 20
743.426674235207
 30
0.0
 10
311.0708045855235
 20
743.7407396823963
 30
0.0
 10
310.7464726282636
 20
743.9593552642716
 30
0.0
 10
310.4919934244622
 20
743.9876651764014
 30
0.0
 10
310.3647527688073
 20
744.0018202496926
 30
0.0
  0
SPLINE
  5
193
330
1F
100
AcDbEntity
  8
0
  6
Continuous
 62
     7
370
    15
100
AcDbSpline
210
0.0
220
0.0
230
1.0
 70
     8
 71
     3
 72
    11
 73
     7
 74
     0
 42
0.00000001
 43
0.00000001
 40
0.0
 40
0.0
 40
0.0
 40
0.0
 40
0.2500072946791185
 40
0.5000035928118001
 40
0.749993240824252
 40
0.9999999999999999
 40
0.9999999999999999
 40
0.9999999999999999
 40
0.9999999999999999
 10
295.2768949263619
 20
743.0585767461221
 30
0.0
 10
295.2968164703763
 20
743.1850517605257
 30
0.0
 10
295.3366586821577
 20
743.4379962263417
 30
0.0
 10
295.5697942596818
 20
743.7520735640692
 30
0.0
 10
295.894143674512
 20
743.9706674561351
 30
0.0
 10
296.1486241703766
 20
743.9990253197819
 30
0.0
 10
296.2758687727975
 20
744.0132047368447
 30
0.0
  0
SPLINE
  5
194
330
1F
100
AcDbEntity
  8
0
  6
Continuous
 62
     7
370
    15
100
AcDbSpline
210
0.0
220
0.0
230
1.0
 70
     8
 71
     3
 72
    11
 73
     7
 74
     0
 42
0.00000001
 43
0.00000001
 40
0.0
 40
0.0
 40
0.0
 40
0.0
 40
0.2500085009558579
 40
0.5000060053122208
 40
0.7499968595162676
 40
1.0
 40
1.0
 40
1.0
 40
1.0
 10
299.363679944806
 20
743.0585767461221
 30
0.0
 10
299.3437584013937
 20
743.1850517590101
 30
0.0
 10
299.3039161908162
 20
743.4379962217944
 30
0.0
 10
299.0707806042626
 20
743.752073582257
 30
0.0
 10
298.7464333103879
 20
743.9706659816466
 30
0.0
 10
298.4919555538449
 20
743.9990249194918
 30
0.0
 10
298.364713548951
 20
744.0132047368447
 30
0.0
  0
SPLINE
  5
195
330
1F
100
AcDbEntity
  8
0
  6
Continuous
 62
     7
370
    15
100
AcDbSpline
210
0.0
220
0.0
230
1.0
 70
     8
 71
     3
 72
    15
 73
    11
 74
     0
 42
0.00000001
 43
0.00000001
 40
0.0
 40
0.0
 40
0.0
 40
0.0
 40
0.1301251859855531
 40
0.2568319771034608
 40
0.380124891370117
 40
0.4999999838149233
 40
0.619876067352187
 40
0.7431658356757849
 40
0.8698739701333421
 40
1.0
 40
1.0
 40
1.0
 40
1.0
 10
382.3202846043633
 20
731.515243215696
 30
0.0
 10
382.2659347603775
 20
732.4350464796146
 30
0.0
 10
382.1586628454104
 20
734.2504897316584
 30
0.0
 10
381.3197915777197
 20
736.8267085636348
 30
0.0
 10
380.0680241125124
 20
739.1313332195111
 30
0.0
 10
378.4232000811833
 20
741.1161024371778
 30
0.0
 10
376.4384494245461
 20
742.7609130282799
 30
0.0
 10
374.1338331749738
 20
744.0126868795668
 30
0.0
 10
371.5576138950224
 20
744.8515297427392
 30
0.0
 10
369.7421584383235
 20
744.9588285191729
 30
0.0
 10
368.8223508589791
 20
745.0131918622415
 30
0.0
  0
SPLINE
  5
196
330
1F
100
AcDbEntity
  8
0
  6
Continuous
 62
     7
370
    15
100
AcDbSpline
210
0.0
220
0.0
230
1.0
 70
     8
 71
     3
 72
    15
 73
    11
 74
     0
 42
0.00000001
 43
0.00000001
 40
0.0
 40
0.0
 40
0.0
 40
0.0
 40
0.13012589237432
 40
0.2568333611361306
 40
0.3801244282142421
 40
0.5000001622481026
 40
0.6198763450288876
 40
0.7431664568020405
 40
0.8698748078790481
 40
1.0
 40
1.0
 40
1.0
 40
1.0
 10
368.8223359578179
 20
490.013196630613
 30
0.0
 10
369.7421434756236
 20
490.0675475832053
 30
0.0
 10
371.5575950516771
 20
490.174821682007
 30
0.0
 10
374.1338215262343
 20
491.0136714096932
 30
0.0
 10
376.4384125652628
 20
492.265484495868
 30
0.0
 10
378.4232219798847
 20
493.9102478533974
 30
0.0
 10
380.0679962838751
 20
495.8950427486615
 30
0.0
 10
381.3197941960237
 20
498.1996443351619
 30
0.0
 10
382.1586609929255
 20
500.7758590118871
 30
0.0
 10
382.2659343556933
 20
502.5913125598094
 30
0.0
 10
382.3202846043633
 20
503.5111154748361
 30
0.0
  0
SPLINE
  5
197
330
1F
100
AcDbEntity
  8
0
  6
Continuous
 62
     7
370
    15
100
AcDbSpline
210
0.0
220
0.0
230
1.0
 70
     8
 71
     3
 72
    15
 73
    11
 74
     0
 42
0.00000001
 43
0.00000001
 40
0.0
 40
0.0
 40
0.0
 40
0.0
 40
0.1301252311872064
 40
0.2568322769667799
 40
0.3801236610896706
 40
0.499999879859747
 40
0.6198751075377955
 40
0.743166211630417
 40
0.8698737184324112
 40
1.0
 40
1.0
 40
1.0
 40
1.0
 10
54.32029044561853
 20
503.5111154748361
 30
0.0
 10
54.37463899579515
 20
502.591311934008
 30
0.0
 10
54.48190844511219
 20
500.7758666464366
 30
0.0
 10
55.32079586380989
 20
498.1996611189664
 30
0.0
 10
56.57256800129807
 20
495.8950464833923
 30
0.0
 10
58.21735388025414
 20
493.9102539313789
 30
0.0
 10
60.20214820619135
 20
492.265479538823
 30
0.0
 10
62.50673938712684
 20
491.0136722848156
 30
0.0
 10
65.08296727693644
 20
490.1748206516407
 30
0.0
 10
66.89842154093492
 20
490.0675472846011
 30
0.0
 10
67.81823164158335
 20
490.013196630613
 30
0.0
  0
SPLINE
  5
198
330
1F
100
AcDbEntity
  8
0
  6
Continuous
 62
     7
370
    15
100
AcDbSpline
210
0.0
220
0.0
230
1.0
 70
     8
 71
     3
 72
    15
 73
    11
 74
     0
 42
0.00000001
 43
0.00000001
 40
0.0
 40
0.0
 40
0.0
 40
0.0
 40
0.1301256646303411
 40
0.2568331127047865
 40
0.3801234843808312
 40
0.5000000963388912
 40
0.6198747261130404
 40
0.7431651553962613
 40
0.8698748291244206
 40
1.0
 40
1.0
 40
1.0
 40
1.0
 10
67.81823164158335
 20
745.0131918622415
 30
0.0
 10
66.89842636920321
 20
744.9588290406555
 30
0.0
 10
65.08297780370492
 20
744.851531431663
 30
0.0
 10
62.50676398141825
 20
744.0126805822449
 30
0.0
 10
60.20214328977508
 20
742.7609122578359
 30
0.0
 10
58.21737266883789
 20
741.1161132460186
 30
0.0
 10
56.57258713730767
 20
739.1313364976635
 30
0.0
 10
55.32077174423594
 20
736.82673980246
 30
0.0
 10
54.48191903549443
 20
734.250507834118
 30
0.0
 10
54.37464217973745
 20
732.435045680096
 30
0.0
 10
54.32029044561853
 20
731.515243215696
 30
0.0
  0
LINE
  5
199
330
1F
100
AcDbEntity
  8
0
  6
Continuous
 62
     7
370
    15
100
AcDbLine
 10
382.3202846044
 20
669.5131804181
 30
0.0
 11
382.3202846044
 21
731.5152432157
 31
0.0
  0
SPLINE
  5
19A
330
1F
100
AcDbEntity
  8
0
  6
Continuous
 62
     7
370
    15
100
AcDbSpline
210
0.0
220
0.0
230
1.0
 70
     8
 71
     3
 72
    13
 73
     9
 74
     0
 42
0.00000001
 43
0.00000001
 40
0.0
 40
0.0
 40
0.0
 40
0.0
 40
0.2394391010880151
 40
0.3683361476886834
 40
0.4999723225647495
 40
0.6316162331193416
 40
0.7605251484159319
 40
1.0
 40
1.0
 40
1.0
 40
1.0
 10
381.8839040988015
 20
662.5132109357278
 30
0.0
 10
381.8855376898321
 20
663.3937868300108
 30
0.0
 10
381.8880506905258
 20
664.7484023926896
 30
0.0
 10
381.9032899933172
 20
666.3780872362482
 30
0.0
 10
381.9190592811433
 20
667.4994961574256
 30
0.0
 10
381.9386291154917
 20
668.4029986712898
 30
0.0
 10
381.9670871846588
 20
669.2757942124261
 30
0.0
 10
381.9907264609064
 20
669.4196586276265
 30
0.0
 10
382.0060936205911
 20
669.5131804181497
 30
0.0
  0
LINE
  5
19B
330
1F
100
AcDbEntity
  8
0
  6
Continuous
 62
     7
370
    15
100
AcDbLine
 10
381.8839040988
 20
572.5131775571
 30
0.0
 11
381.8839040988
 21
662.5132109357
 31
0.0
  0
SPLINE
  5
19C
330
1F
100
AcDbEntity
  8
0
  6
Continuous
 62
     7
370
    15
100
AcDbSpline
210
0.0
220
0.0
230
1.0
 70
     8
 71
     3
 72
    13
 73
     9
 74
     0
 42
0.00000001
 43
0.00000001
 40
0.0
 40
0.0
 40
0.0
 40
0.0
 40
0.2394731417717286
 40
0.3683841877120925
 40
0.5000242884597833
 40
0.6316600837317178
 40
0.7605615893914229
 40
1.0
 40
1.0
 40
1.0
 40
1.0
 10
382.0060936205911
 20
565.5132080747048
 30
0.0
 10
381.9907262988735
 20
565.6066894784334
 30
0.0
 10
381.9670865775823
 20
565.7504929577044
 30
0.0
 10
381.9386297511913
 20
566.6234078164373
 30
0.0
 10
381.9190589396098
 20
567.5268249568348
 30
0.0
 10
381.9032897356603
 20
568.6482565750388
 30
0.0
 10
381.888051023908
 20
570.2779753819323
 30
0.0
 10
381.8855378081862
 20
571.6326044393463
 30
0.0
 10
381.8839040988015
 20
572.5131775571267
 30
0.0
  0
LINE
  5
19D
330
1F
100
AcDbEntity
  8
0
  6
Continuous
 62
     7
370
    15
100
AcDbLine
 10
382.3202846044
 20
503.5111154748
 30
0.0
 11
382.3202846044
 21
565.5132080747
 31
0.0
  0
LINE
  5
19E
330
1F
100
AcDbEntity
  8
0
  6
Continuous
 62
     7
370
    15
100
AcDbLine
 10
368.822350859
 20
745.0131918622
 30
0.0
 11
271.1876553886
 21
745.0131918622
 31
0.0
  0
LINE
  5
19F
330
1F
100
AcDbEntity
  8
0
  6
Continuous
 62
     7
370
    15
100
AcDbLine
 10
106.471709668
 20
745.0131918622
 30
0.0
 11
67.8182316416
 21
745.0131918622
 31
0.0
  0
LINE
  5
1A0
330
1F
100
AcDbEntity
  8
0
  6
Continuous
 62
     7
370
    15
100
AcDbLine
 10
67.8182316416
 20
490.0131966306
 30
0.0
 11
129.5882386559
 21
490.0131966306
 31
0.0
  0
LINE
  5
1A1
330
1F
100
AcDbEntity
  8
0
  6
Continuous
 62
     7
370
    15
100
AcDbLine
 10
227.0523381823
 20
490.0131966306
 30
0.0
 11
236.8202877634
 21
490.0131966306
 31
0.0
  0
LINE
  5
1A2
330
1F
100
AcDbEntity
  8
0
  6
Continuous
 62
     7
370
    15
100
AcDbLine
 10
244.8202853494
 20
490.0131966306
 30
0.0
 11
254.5882349306
 21
490.0131966306
 31
0.0
  0
LINE
  5
1A3
330
1F
100
AcDbEntity
  8
0
  6
Continuous
 62
     7
370
    15
100
AcDbLine
 10
352.0523307317
 20
490.0131966306
 30
0.0
 11
368.8223359578
 21
490.0131966306
 31
0.0
  0
LINE
  5
1A4
330
1F
100
AcDbEntity
  8
0
  6
Continuous
 62
     7
370
    15
100
AcDbLine
 10
54.3202904456
 20
513.0131687356
 30
0.0
 11
54.3202904456
 21
503.5111154748
 31
0.0
  0
LINE
  5
1A5
330
1F
100
AcDbEntity
  8
0
  6
Continuous
 62
     7
370
    15
100
AcDbLine
 10
54.7566709512
 20
662.5132109357
 30
0.0
 11
54.7566709512
 21
611.0131885244
 31
0.0
  0
SPLINE
  5
1A6
330
1F
100
AcDbEntity
  8
0
  6
Continuous
 62
     7
370
    15
100
AcDbSpline
210
0.0
220
0.0
230
1.0
 70
     8
 71
     3
 72
    13
 73
     9
 74
     0
 42
0.00000001
 43
0.00000001
 40
0.0
 40
0.0
 40
0.0
 40
0.0
 40
0.2394746617892144
 40
0.3683834749195499
 40
0.5000238509526422
 40
0.6316641442346845
 40
0.7605610886785046
 40
1.0
 40
1.0
 40
1.0
 40
1.0
 10
54.63448142939081
 20
669.5131804181497
 30
0.0
 10
54.64984863166489
 20
669.4196614119273
 30
0.0
 10
54.67348797342744
 20
669.2758012798124
 30
0.0
 10
54.70194552591209
 20
668.4029907103951
 30
0.0
 10
54.72151648506224
 20
667.4995578347118
 30
0.0
 10
54.73728468833636
 20
666.3780886984803
 30
0.0
 10
54.75252448085466
 20
664.7484086252972
 30
0.0
 10
54.75503740797588
 20
663.3937892854085
 30
0.0
 10
54.75667095118036
 20
662.5132109357278
 30
0.0
  0
LINE
  5
1A7
330
1F
100
AcDbEntity
  8
0
  6
Continuous
 62
     7
370
    15
100
AcDbLine
 10
54.3202904456
 20
731.5152432157
 30
0.0
 11
54.3202904456
 21
669.5131804181
 31
0.0
  0
SPLINE
  5
1A8
330
1F
100
AcDbEntity
  8
0
  6
Continuous
 62
     7
370
    15
100
AcDbSpline
210
0.0
220
0.0
230
1.0
 70
     8
 71
     3
 72
    13
 73
     9
 74
     0
 42
0.00000001
 43
0.00000001
 40
0.0
 40
0.0
 40
0.0
 40
0.0
 40
0.2394389079394503
 40
0.3683358529564461
 40
0.4999761468238634
 40
0.6316165234423311
 40
0.7605253371458953
 40
0.9999999999999999
 40
0.9999999999999999
 40
0.9999999999999999
 40
0.9999999999999999
 10
53.75650501184931
 20
662.5132109357278
 30
0.0
 10
53.75487812867458
 20
663.393789290314
 30
0.0
 10
53.75237544685491
 20
664.748408646553
 30
0.0
 10
53.73713324644535
 20
666.3780886971183
 30
0.0
 10
53.72136555591641
 20
667.4995578350795
 30
0.0
 10
53.70179445990761
 20
668.4029907103017
 30
0.0
 10
53.67333694936097
 20
669.2758012798599
 30
0.0
 10
53.64969759905125
 20
669.4196614119461
 30
0.0
 10
53.63433039122095
 20
669.5131804181497
 30
0.0
  0
LINE
  5
1A9
330
1F
100
AcDbEntity
  8
0
  6
Continuous
 62
     7
370
    15
100
AcDbLine
 10
54.6344814294
 20
669.5131804181
 30
0.0
 11
53.6343303912
 21
669.5131804181
 31
0.0
  0
LINE
  5
1AA
330
1F
100
AcDbEntity
  8
0
  6
Continuous
 62
     7
370
    15
100
AcDbLine
 10
53.7565050118
 20
611.0131885244
 30
0.0
 11
53.7565050118
 21
662.5132109357
 31
0.0
  0
LINE
  5
1AB
330
1F
100
AcDbEntity
  8
0
  6
Continuous
 62
     7
370
    15
100
AcDbLine
 10
382.8840700381
 20
662.5132109357
 30
0.0
 11
382.8840700381
 21
572.5131775571
 31
0.0
  0
SPLINE
  5
1AC
330
1F
100
AcDbEntity
  8
0
  6
Continuous
 62
     7
370
    15
100
AcDbSpline
210
0.0
220
0.0
230
1.0
 70
     8
 71
     3
 72
    13
 73
     9
 74
     0
 42
0.00000001
 43
0.00000001
 40
0.0
 40
0.0
 40
0.0
 40
0.0
 40
0.2394384072265368
 40
0.3683399134594369
 40
0.4999757093167251
 40
0.6316158106497888
 40
0.7605268571633901
 40
1.0
 40
1.0
 40
1.0
 40
1.0
 10
382.8840700381326
 20
572.5131775571267
 30
0.0
 10
382.8856970875052
 20
571.6326044344405
 30
0.0
 10
382.8882000578181
 20
570.2779753606757
 30
0.0
 10
382.9034411775456
 20
568.6482565764004
 30
0.0
 10
382.9192098687565
 20
567.526824956467
 30
0.0
 10
382.9387808171966
 20
566.6234078165311
 30
0.0
 10
382.9672376016487
 20
565.7504929576568
 30
0.0
 10
382.9908773314872
 20
565.6066894784146
 30
0.0
 10
383.006244658761
 20
565.513208074705
 30
0.0
  0
LINE
  5
1AD
330
1F
100
AcDbEntity
  8
0
  6
Continuous
 62
     7
370
    15
100
AcDbLine
 10
382.0060936206
 20
565.5132080747
 30
0.0
 11
383.0062446588
 21
565.5132080747
 31
0.0
  0
SPLINE
  5
1AE
330
1F
100
AcDbEntity
  8
0
  6
Continuous
 62
     7
370
    15
100
AcDbSpline
210
0.0
220
0.0
230
1.0
 70
     8
 71
     3
 72
    13
 73
     9
 74
     0
 42
0.00000001
 43
0.00000001
 40
0.0
 40
0.0
 40
0.0
 40
0.0
 40
0.23947485264896
 40
0.3683837685187799
 40
0.5000276796587635
 40
0.6316638551201867
 40
0.7605609022940318
 40
1.0
 40
1.0
 40
1.0
 40
1.0
 10
383.0062446587609
 20
669.5131804181497
 30
0.0
 10
382.9908774935199
 20
669.4196586276452
 30
0.0
 10
382.9672382087251
 20
669.2757942124734
 30
0.0
 10
382.9387801814964
 20
668.4029986711957
 30
0.0
 10
382.9192102102875
 20
667.4994961577933
 30
0.0
 10
382.9034414351933
 20
666.3780872348864
 30
0.0
 10
382.8881997245229
 20
664.7484024139459
 30
0.0
 10
382.8856969691325
 20
663.3937868349166
 30
0.0
 10
382.8840700381326
 20
662.5132109357279
 30
0.0
  0
LINE
  5
1AF
330
1F
100
AcDbEntity
  8
0
  6
Continuous
 62
     7
370
    15
100
AcDbLine
 10
383.3204356425
 20
669.5131804181
 30
0.0
 11
383.0062446588
 21
669.5131804181
 31
0.0
  0
LINE
  5
1B0
330
1F
100
AcDbEntity
  8
0
  6
Continuous
 62
     7
370
    15
100
AcDbLine
 10
383.3202866309
 20
669.5131804181
 30
0.0
 11
383.3202866309
 21
667.5132061674
 31
0.0
  0
SPLINE
  5
1B1
330
1F
100
AcDbEntity
  8
0
  6
Continuous
 62
     7
370
    15
100
AcDbSpline
210
0.0
220
0.0
230
1.0
 70
     8
 71
     3
 72
    13
 73
     9
 74
     0
 42
0.00000001
 43
0.00000001
 40
0.0
 40
0.0
 40
0.0
 40
0.0
 40
0.2394399457701009
 40
0.3683372792608589
 40
0.4999734093399992
 40
0.6316163082005499
 40
0.7605257869833558
 40
1.0
 40
1.0
 40
1.0
 40
1.0
 10
382.9189685576486
 20
662.5132109357278
 30
0.0
 10
382.920141877901
 20
663.1421984831139
 30
0.0
 10
382.9219468298196
 20
664.1097879183191
 30
0.0
 10
382.9328105443139
 20
665.2738383901941
 30
0.0
 10
382.9440878815421
 20
666.0748714617005
 30
0.0
 10
382.958054569169
 20
666.7201799064936
 30
0.0
 10
382.9783765118898
 20
667.3436633627832
 30
0.0
 10
382.995265608415
 20
667.4464123831905
 30
0.0
 10
383.006244658761
 20
667.5132061673563
 30
0.0
  0
LINE
  5
1B2
330
1F
100
AcDbEntity
  8
0
  6
Continuous
 62
     7
370
    15
100
AcDbLine
 10
382.9189685576
 20
572.5131775571
 30
0.0
 11
382.9189685576
 21
662.5132109357
 31
0.0
  0
SPLINE
  5
1B3
330
1F
100
AcDbEntity
  8
0
  6
Continuous
 62
     7
370
    15
100
AcDbSpline
210
0.0
220
0.0
230
1.0
 70
     8
 71
     3
 72
    13
 73
     9
 74
     0
 42
0.00000001
 43
0.00000001
 40
0.0
 40
0.0
 40
0.0
 40
0.0
 40
0.2394742130166442
 40
0.3683836917994501
 40
0.5000265906600009
 40
0.6316627207391412
 40
0.7605600542298991
 40
1.0
 40
1.0
 40
1.0
 40
1.0
 10
383.0062446587609
 20
567.5131823254983
 30
0.0
 10
382.9952656084149
 20
567.5799761096642
 30
0.0
 10
382.9783765118898
 20
567.6827251300715
 30
0.0
 10
382.958054569169
 20
568.3062085863612
 30
0.0
 10
382.944087881542
 20
568.9515170311541
 30
0.0
 10
382.932810544314
 20
569.7525501026607
 30
0.0
 10
382.9219468298196
 20
570.9166005745351
 30
0.0
 10
382.920141877901
 20
571.8841900097403
 30
0.0
 10
382.9189685576486
 20
572.5131775571267
 30
0.0
  0
LINE
  5
1B4
330
1F
100
AcDbEntity
  8
0
  6
Continuous
 62
     7
370
    15
100
AcDbLine
 10
383.3204356425
 20
565.5132080747
 30
0.0
 11
383.3204356425
 21
567.5131823255
 31
0.0
  0
LINE
  5
1B5
330
1F
100
AcDbEntity
  8
0
  6
Continuous
 62
     7
370
    15
100
AcDbLine
 10
383.0062446588
 20
565.5132080747
 30
0.0
 11
383.3204356425
 21
565.5132080747
 31
0.0
  0
LINE
  5
1B6
330
1F
100
AcDbEntity
  8
0
  6
Continuous
 62
     7
370
    15
100
AcDbLine
 10
383.3204356425
 20
567.5131823255
 30
0.0
 11
383.0062446588
 21
567.5131823255
 31
0.0
  0
LINE
  5
1B7
330
1F
100
AcDbEntity
  8
0
  6
Continuous
 62
     7
370
    15
100
AcDbLine
 10
383.0062446588
 20
667.5132061674
 30
0.0
 11
383.3204356425
 21
667.5132061674
 31
0.0
  0
LINE
  5
1B8
330
1F
100
AcDbEntity
  8
0
  6
Continuous
 62
     7
370
    15
100
AcDbLine
 10
53.7216064923
 20
662.5132109357
 30
0.0
 11
53.7216064923
 21
611.0131885244
 31
0.0
  0
SPLINE
  5
1B9
330
1F
100
AcDbEntity
  8
0
  6
Continuous
 62
     7
370
    15
100
AcDbSpline
210
0.0
220
0.0
230
1.0
 70
     8
 71
     3
 72
    13
 73
     9
 74
     0
 42
0.00000001
 43
0.00000001
 40
0.0
 40
0.0
 40
0.0
 40
0.0
 40
0.2425059478301301
 40
0.3694468416307582
 40
0.499810115815185
 40
0.7096855806332452
 40
0.8448918919676092
 40
1.0
 40
1.0
 40
1.0
 40
1.0
 10
53.72160649233331
 20
662.5132109357278
 30
0.0
 10
53.72036014198756
 20
663.15051728844
 30
0.0
 10
53.71846138361514
 20
664.1214246878977
 30
0.0
 10
53.70756082462372
 20
665.2832077152966
 30
0.0
 10
53.69432389248887
 20
666.2360316466132
 30
0.0
 10
53.67570636119174
 20
666.9663713880657
 30
0.0
 10
53.6544571833856
 20
667.4313188720951
 30
0.0
 10
53.6413390817595
 20
667.4846908079871
 30
0.0
 10
53.63433039122095
 20
667.5132061673562
 30
0.0
  0
LINE
  5
1BA
330
1F
100
AcDbEntity
  8
0
  6
Continuous
 62
     7
370
    15
100
AcDbLine
 10
53.3202884191
 20
667.5132061674
 30
0.0
 11
53.3202884191
 21
669.5131804181
 31
0.0
  0
LINE
  5
1BB
330
1F
100
AcDbEntity
  8
0
  6
Continuous
 62
     7
370
    15
100
AcDbLine
 10
53.6343303912
 20
669.5131804181
 30
0.0
 11
53.3201394074
 21
669.5131804181
 31
0.0
  0
LINE
  5
1BC
330
1F
100
AcDbEntity
  8
0
  6
Continuous
 62
     7
370
    15
100
AcDbLine
 10
53.3201394074
 20
667.5132061674
 30
0.0
 11
53.6343303912
 21
667.5132061674
 31
0.0
  0
LINE
  5
1BD
330
1F
100
AcDbEntity
  8
0
  6
Continuous
 62
     7
370
    15
100
AcDbLine
 10
383.0062446588
 20
669.5131804181
 30
0.0
 11
382.0060936206
 21
669.5131804181
 31
0.0
  0
LINE
  5
1BE
330
1F
100
AcDbEntity
  8
0
  6
Continuous
 62
     7
370
    15
100
AcDbLine
 10
53.3202884191
 20
669.5131804181
 30
0.0
 11
53.3202884191
 21
731.5131570531
 31
0.0
  0
SPLINE
  5
1BF
330
1F
100
AcDbEntity
  8
0
  6
Continuous
 62
     7
370
    15
100
AcDbSpline
210
0.0
220
0.0
230
1.0
 70
     8
 71
     3
 72
    15
 73
    11
 74
     0
 42
0.00000001
 43
0.00000001
 40
0.0
 40
0.0
 40
0.0
 40
0.0
 40
0.1250009579673688
 40
0.2500015525006086
 40
0.3750010822949464
 40
0.5000004922921931
 40
0.6250008245387536
 40
0.7499997365404579
 40
0.8750000844513749
 40
1.0
 40
1.0
 40
1.0
 40
1.0
 10
53.32028841906061
 20
731.5131570531289
 30
0.0
 10
53.37425003890706
 20
732.4621839076398
 30
0.0
 10
53.48217312170917
 20
734.3602348574124
 30
0.0
 10
54.34438575165751
 20
737.0978377659369
 30
0.0
 10
55.68445470173397
 20
739.6210247190743
 30
0.0
 10
57.50163985579673
 20
741.8318356162829
 30
0.0
 10
59.71244300474232
 20
743.6490329276356
 30
0.0
 10
62.23565504006687
 20
744.989046989263
 30
0.0
 10
64.97322209488954
 20
745.8513236149555
 30
0.0
 10
66.87126712703825
 20
745.9592272589483
 30
0.0
 10
67.8202880018281
 20
746.0131789876382
 30
0.0
  0
LINE
  5
1C0
330
1F
100
AcDbEntity
  8
0
  6
Continuous
 62
     7
370
    15
100
AcDbLine
 10
67.8202880018
 20
746.0131789876
 30
0.0
 11
106.4712551826
 21
746.0131789876
 31
0.0
  0
LINE
  5
1C1
330
1F
100
AcDbEntity
  8
0
  6
Continuous
 62
     7
370
    15
100
AcDbLine
 10
271.1876553886
 20
746.0131789876
 30
0.0
 11
368.8202944987
 21
746.0131789876
 31
0.0
  0
SPLINE
  5
1C2
330
1F
100
AcDbEntity
  8
0
  6
Continuous
 62
     7
370
    15
100
AcDbSpline
210
0.0
220
0.0
230
1.0
 70
     8
 71
     3
 72
    15
 73
    11
 74
     0
 42
0.00000001
 43
0.00000001
 40
0.0
 40
0.0
 40
0.0
 40
0.0
 40
0.1249996302420913
 40
0.250000018911194
 40
0.374998971670616
 40
0.4999993446753571
 40
0.6249987954304838
 40
0.7499983659827406
 40
0.8749990012742465
 40
1.0
 40
1.0
 40
1.0
 40
1.0
 10
368.8202944987344
 20
746.0131789876382
 30
0.0
 10
369.7693128603738
 20
745.9592270454299
 30
0.0
 10
371.6673553417592
 20
745.8513228336637
 30
0.0
 10
374.4049200082181
 20
744.9890469977126
 30
0.0
 10
376.9281320456942
 20
743.6490329253716
 30
0.0
 10
379.1389351940634
 20
741.8318356168894
 30
0.0
 10
380.9561203482805
 20
739.6210247189116
 30
0.0
 10
382.2961892983158
 20
737.0978377659807
 30
0.0
 10
383.1584019282748
 20
734.3602348574011
 30
0.0
 10
383.2663250110755
 20
732.4621839076359
 30
0.0
 10
383.3202866309213
 20
731.5131570531289
 30
0.0
  0
LINE
  5
1C3
330
1F
100
AcDbEntity
  8
0
  6
Continuous
 62
     7
370
    15
100
AcDbLine
 10
383.3202866309
 20
731.5131570531
 30
0.0
 11
383.3202866309
 21
669.5131804181
 31
0.0
  0
LINE
  5
1C4
330
1F
100
AcDbEntity
  8
0
  6
Continuous
 62
     7
370
    15
100
AcDbLine
 10
383.3202866309
 20
565.5132080747
 30
0.0
 11
383.3202866309
 21
503.5131718351
 31
0.0
  0
SPLINE
  5
1C5
330
1F
100
AcDbEntity
  8
0
  6
Continuous
 62
     7
370
    15
100
AcDbSpline
210
0.0
220
0.0
230
1.0
 70
     8
 71
     3
 72
    15
 73
    11
 74
     0
 42
0.00000001
 43
0.00000001
 40
0.0
 40
0.0
 40
0.0
 40
0.0
 40
0.1249998643173077
 40
0.2499994153225177
 40
0.3749991557238535
 40
0.4999997894115459
 40
0.6249995008490408
 40
0.7499992412503768
 40
0.8749994193238528
 40
1.0
 40
1.0
 40
1.0
 40
1.0
 10
383.3202866309213
 20
503.5131718350808
 30
0.0
 10
383.2663251390665
 20
502.5641548689565
 30
0.0
 10
383.1584022906113
 20
500.6661233154186
 30
0.0
 10
382.2961844863783
 20
497.9285410296571
 30
0.0
 10
380.9561097198713
 20
495.4053641216051
 30
0.0
 10
379.1389571229906
 20
493.1945188561433
 30
0.0
 10
376.9281108487618
 20
491.3773688332387
 30
0.0
 10
374.4049364259049
 20
490.0372922526556
 30
0.0
 10
371.6673416552819
 20
489.1750832198245
 30
0.0
 10
369.7693013023478
 20
489.0671475998109
 30
0.0
 10
368.8202795975732
 20
489.0131797028939
 30
0.0
  0
LINE
  5
1C6
330
1F
100
AcDbEntity
  8
0
  6
Continuous
 62
     7
370
    15
100
AcDbLine
 10
368.8202795976
 20
489.0131797029
 30
0.0
 11
350.3202793592
 21
489.0131797029
 31
0.0
  0
LINE
  5
1C7
330
1F
100
AcDbEntity
  8
0
  6
Continuous
 62
     7
370
    15
100
AcDbLine
 10
256.3202900284
 20
489.0131797029
 30
0.0
 11
244.8202853494
 21
489.0131797029
 31
0.0
  0
LINE
  5
1C8
330
1F
100
AcDbEntity
  8
0
  6
Continuous
 62
     7
370
    15
100
AcDbLine
 10
236.8202877634
 20
489.0131797029
 30
0.0
 11
225.3202868097
 21
489.0131797029
 31
0.0
  0
LINE
  5
1C9
330
1F
100
AcDbEntity
  8
0
  6
Continuous
 62
     7
370
    15
100
AcDbLine
 10
131.3202863031
 20
489.0131797029
 30
0.0
 11
67.8202880018
 21
489.0131797029
 31
0.0
  0
SPLINE
  5
1CA
330
1F
100
AcDbEntity
  8
0
  6
Continuous
 62
     7
370
    15
100
AcDbSpline
210
0.0
220
0.0
230
1.0
 70
     8
 71
     3
 72
    15
 73
    11
 74
     0
 42
0.00000001
 43
0.00000001
 40
0.0
 40
0.0
 40
0.0
 40
0.0
 40
0.1250002953696357
 40
0.25000051420127
 40
0.3750002953606213
 40
0.5000000475561223
 40
0.6250007220021214
 40
0.7500005031614728
 40
0.8750000949246365
 40
1.0
 40
1.0
 40
1.0
 40
1.0
 10
67.8202880018281
 20
489.0131797028939
 30
0.0
 10
66.87126881019873
 20
489.0671478133116
 30
0.0
 10
64.97323100802687
 20
489.1750840011021
 30
0.0
 10
62.23563862577097
 20
490.0372922441929
 30
0.0
 10
59.71246420076634
 20
491.3773688355063
 30
0.0
 10
57.50161792711275
 20
493.1945188555359
 30
0.0
 10
55.68446533007815
 20
495.4053641217675
 30
0.0
 10
54.34439056361221
 20
497.928541029614
 30
0.0
 10
53.48217275936854
 20
500.6661233154293
 30
0.0
 10
53.37424991091477
 20
502.5641548689601
 30
0.0
 10
53.32028841906061
 20
503.5131718350808
 30
0.0
  0
LINE
  5
1CB
330
1F
100
AcDbEntity
  8
0
  6
Continuous
 62
     7
370
    15
100
AcDbLine
 10
53.3202884191
 20
503.5131718351
 30
0.0
 11
53.3202884191
 21
513.0131687356
 31
0.0
  0
LINE
  5
1CC
330
1F
100
AcDbEntity
  8
0
  6
Continuous
 62
     7
370
    15
100
AcDbLine
 10
262.8366199725
 20
740.4616023733
 30
0.0
 11
233.2318795317
 21
740.4616023733
 31
0.0
  0
LINE
  5
1CD
330
1F
100
AcDbEntity
  8
0
  6
Continuous
 62
     7
370
    15
100
AcDbLine
 10
233.2318795317
 20
740.4616023733
 30
0.0
 11
233.2318795317
 21
741.7614008619
 31
0.0
  0
LINE
  5
1CE
330
1F
100
AcDbEntity
  8
0
  6
Continuous
 62
     7
370
    15
100
AcDbLine
 10
233.2318795317
 20
741.7614008619
 30
0.0
 11
203.8020731353
 21
741.7614008619
 31
0.0
  0
LINE
  5
1CF
330
1F
100
AcDbEntity
  8
0
  6
Continuous
 62
     7
370
    15
100
AcDbLine
 10
203.8020731353
 20
741.7614008619
 30
0.0
 11
203.8020731353
 21
740.4616023733
 31
0.0
  0
LINE
  5
1D0
330
1F
100
AcDbEntity
  8
0
  6
Continuous
 62
     7
370
    15
100
AcDbLine
 10
203.8020731353
 20
740.4616023733
 30
0.0
 11
174.8020721071
 21
740.4616023733
 31
0.0
  0
LINE
  5
1D1
330
1F
100
AcDbEntity
  8
0
  6
Continuous
 62
     7
370
    15
100
AcDbLine
 10
174.8020721071
 20
740.4616023733
 30
0.0
 11
174.8020721071
 21
741.7614008619
 31
0.0
  0
LINE
  5
1D2
330
1F
100
AcDbEntity
  8
0
  6
Continuous
 62
     7
370
    15
100
AcDbLine
 10
174.8020721071
 20
741.7614008619
 30
0.0
 11
145.3722675734
 21
741.7614008619
 31
0.0
  0
LINE
  5
1D3
330
1F
100
AcDbEntity
  8
0
  6
Continuous
 62
     7
370
    15
100
AcDbLine
 10
145.3722675734
 20
741.7614008619
 30
0.0
 11
145.3722675734
 21
740.4616023733
 31
0.0
  0
LINE
  5
1D4
330
1F
100
AcDbEntity
  8
0
  6
Continuous
 62
     7
370
    15
100
AcDbLine
 10
145.3722675734
 20
740.4616023733
 30
0.0
 11
115.7675234073
 21
740.4616023733
 31
0.0
  0
SPLINE
  5
1D5
330
1F
100
AcDbEntity
  8
0
  6
Continuous
 62
     7
370
    15
100
AcDbSpline
210
0.0
220
0.0
230
1.0
 70
     8
 71
     3
 72
    10
 73
     6
 74
     0
 42
0.00000001
 43
0.00000001
 40
0.0
 40
0.0
 40
0.0
 40
0.0
 40
0.3685562650223699
 40
0.7372288841738127
 40
1.0
 40
1.0
 40
1.0
 40
1.0
 10
266.8052462332772
 20
742.8223635388772
 30
0.0
 10
266.8115568574749
 20
742.817808154637
 30
0.0
 10
266.82418009815
 20
742.8086959480102
 30
0.0
 10
266.8323662381115
 20
742.7349613687234
 30
0.0
 10
266.8344023901823
 20
742.6646874128077
 30
0.0
 10
266.835249721341
 20
742.6354433728616
 30
0.0
  0
ARC
  5
1D6
330
1F
100
AcDbEntity
  8
0
  6
Continuous
 62
     7
370
    15
100
AcDbCircle
 10
266.4426716683
 20
746.2791884392
 30
0.0
 40
3.475787494433314
100
AcDbArc
 50
271.6824622264
 51
275.9876656369
  0
SPLINE
  5
1D7
330
1F
100
AcDbEntity
  8
0
  6
Continuous
 62
     7
370
    15
100
AcDbSpline
210
0.0
220
0.0
230
1.0
 70
     8
 71
     3
 72
    12
 73
     8
 74
     0
 42
0.00000001
 43
0.00000001
 40
0.0
 40
0.0
 40
0.0
 40
0.0
 40
0.1850112447545215
 40
0.3696110904251435
 40
0.5656286696329462
 40
0.7860636539042652
 40
1.0
 40
1.0
 40
1.0
 40
1.0
 10
266.3007227175759
 20
742.2962333394448
 30
0.0
 10
266.3034083106559
 20
742.3474142482972
 30
0.0
 10
266.3087735250136
 20
742.4496622578977
 30
0.0
 10
266.3486853976362
 20
742.5886544691829
 30
0.0
 10
266.4056867416668
 20
742.7039632111448
 30
0.0
 10
266.4754870296767
 20
742.7862184093285
 30
0.0
 10
266.5218748673784
 20
742.7987348077775
 30
0.0
 10
266.5447217815446
 20
742.804899377958
 30
0.0
  0
LINE
  5
1D8
330
1F
100
AcDbEntity
  8
0
  6
Continuous
 62
     7
370
    15
100
AcDbLine
 10
266.3007227176
 20
742.2962333394
 30
0.0
 11
266.3007227176
 21
740.4965306951
 31
0.0
  0
ARC
  5
1D9
330
1F
100
AcDbEntity
  8
0
  6
Continuous
 62
     7
370
    15
100
AcDbCircle
 10
263.2144333892
 20
874.7889667317
 30
0.0
 40
134.3278956823825
100
AcDbArc
 50
269.8388484934
 51
271.3165315625
  0
ARC
  5
1DA
330
1F
100
AcDbEntity
  8
0
  6
Continuous
 62
     7
370
    15
100
AcDbCircle
 10
115.3897165034
 20
874.7896126592
 30
0.0
 40
134.3285415890743
100
AcDbArc
 50
268.6834719903
 51
270.1611479537
  0
LINE
  5
1DB
330
1F
100
AcDbEntity
  8
0
  6
Continuous
 62
     7
370
    15
100
AcDbLine
 10
112.3034206622
 20
740.4965306951
 30
0.0
 11
112.3034206622
 21
742.2962333394
 31
0.0
  0
SPLINE
  5
1DC
330
1F
100
AcDbEntity
  8
0
  6
Continuous
 62
     7
370
    15
100
AcDbSpline
210
0.0
220
0.0
230
1.0
 70
     8
 71
     3
 72
    12
 73
     8
 74
     0
 42
0.00000001
 43
0.00000001
 40
0.0
 40
0.0
 40
0.0
 40
0.0
 40
0.2397723025099032
 40
0.4795050697738825
 40
0.7168102137980781
 40
0.9306329927689692
 40
1.0
 40
1.0
 40
1.0
 40
1.0
 10
112.0594215982484
 20
742.804899377958
 30
0.0
 10
112.0851385192149
 20
742.7972889418613
 30
0.0
 10
112.1365681207716
 20
742.7820693245269
 30
0.0
 10
112.2152317829345
 20
742.6795110004402
 30
0.0
 10
112.2763826403334
 20
742.5329830599587
 30
0.0
 10
112.3014530432299
 20
742.3931520767935
 30
0.0
 10
112.3030335250435
 20
742.31530250186
 30
0.0
 10
112.3034206622171
 20
742.2962333394448
 30
0.0
  0
ARC
  5
1DD
330
1F
100
AcDbEntity
  8
0
  6
Continuous
 62
     7
370
    15
100
AcDbCircle
 10
112.1614956392
 20
746.2795453842
 30
0.0
 40
3.476144988167714
100
AcDbArc
 50
264.0125558452
 51
268.3173162915
  0
LINE
  5
1DE
330
1F
100
AcDbEntity
  8
0
  6
Continuous
 62
     7
370
    15
100
AcDbLine
 10
269.1457194679
 20
747.2503925992
 30
0.0
 11
270.202204346
 21
747.2397233678
 31
0.0
  0
LINE
  5
1DF
330
1F
100
AcDbEntity
  8
0
  6
Continuous
 62
     7
370
    15
100
AcDbLine
 10
108.5432094925
 20
747.8603865339
 30
0.0
 11
107.4707505696
 21
747.8603865339
 31
0.0
  0
ELLIPSE
  5
1E0
330
1F
100
AcDbEntity
  8
0
  6
Continuous
 62
     7
370
    15
100
AcDbEllipse
 10
266.8249001998
 20
742.3224285276
 30
0.0
 11
0.0002286628484853281
 21
0.4999999999631655
 31
0.0
210
0.0
220
0.0
230
0.9999999999999999
 40
0.0261819279
 41
4.729854246445985
 42
5.388887789446692
  0
ELLIPSE
  5
1E1
330
1F
100
AcDbEntity
  8
0
  6
Continuous
 62
     7
370
    15
100
AcDbEllipse
 10
270.2022074476
 20
746.2398946377
 30
0.0
 11
-0.2952506024638524
 21
0.9568909332532484
 31
0.0
210
0.0
220
0.0
230
1.0
 40
0.9825302827
 41
4.40810341882184
 42
5.978899745616743
  0
ELLIPSE
  5
1E2
330
1F
100
AcDbEntity
  8
0
  6
Continuous
 62
     7
370
    15
100
AcDbEllipse
 10
107.4705244335
 20
746.8606644098
 30
0.0
 11
-0.000140542748042094
 21
1.000152213775095
 31
0.0
210
0.0
220
0.0
230
0.9999999999999999
 40
0.999505281
 41
1.481203800558449
 42
1.571112651321847
  0
ELLIPSE
  5
1E3
330
1F
100
AcDbEntity
  8
0
  6
Continuous
 62
     7
370
    15
100
AcDbEllipse
 10
107.4712071605
 20
746.8602093856
 30
0.0
 11
0.8325338222848586
 21
-0.5548675746978233
 31
0.0
210
0.0
220
0.0
230
0.9999999999999998
 40
0.9995050723
 41
2.158898525474515
 42
3.639786001505873
  0
LINE
  5
1E4
330
1F
100
AcDbEntity
  8
0
  6
Continuous
 62
     7
370
    15
100
AcDbLine
 10
271.1876553886
 20
743.4803988172
 30
0.0
 11
266.837991535
 21
740.5814077093
 31
0.0
  0
LINE
  5
1E5
330
1F
100
AcDbEntity
  8
0
  6
Continuous
 62
     7
370
    15
100
AcDbLine
 10
266.837991535
 20
742.3311616613
 30
0.0
 11
266.837991535
 21
740.5814077093
 31
0.0
  0
LINE
  5
1E6
330
1F
100
AcDbEntity
  8
0
  6
Continuous
 62
     7
370
    15
100
AcDbLine
 10
271.1876553886
 20
746.2299610807
 30
0.0
 11
271.1876553886
 21
743.4803988172
 31
0.0
  0
LINE
  5
1E7
330
1F
100
AcDbEntity
  8
0
  6
Continuous
 62
     7
370
    15
100
AcDbLine
 10
111.7661518448
 20
740.5814077093
 30
0.0
 11
106.4721269005
 21
744.1097642614
 31
0.0
  0
LINE
  5
1E8
330
1F
100
AcDbEntity
  8
0
  6
Continuous
 62
     7
370
    15
100
AcDbLine
 10
106.4708677524
 20
746.8602205945
 30
0.0
 11
106.4721269005
 21
744.1097642614
 31
0.0
  0
LINE
  5
1E9
330
1F
100
AcDbEntity
  8
0
  6
Continuous
 62
     7
370
    15
100
AcDbLine
 10
266.7256144279
 20
770.5772663785
 30
0.0
 11
267.1077994102
 21
748.0974938108
 31
0.0
  0
LINE
  5
1EA
330
1F
100
AcDbEntity
  8
0
  6
Continuous
 62
     7
370
    15
100
AcDbLine
 10
111.8785364025
 20
770.5772663785
 30
0.0
 11
111.5424332612
 21
750.8084322645
 31
0.0
  0
ELLIPSE
  5
1EB
330
1F
100
AcDbEntity
  8
0
  6
Continuous
 62
     7
370
    15
100
AcDbEllipse
 10
269.1457173589
 20
750.2499307779
 30
0.0
 11
-0.8857518073916143
 21
2.870672799759859
 31
0.0
210
0.0
220
0.0
230
1.0
 40
0.9825302827
 41
1.46370075155778
 42
2.837307092026877
  0
ELLIPSE
  5
1EC
330
1F
100
AcDbEntity
  8
0
  6
Continuous
 62
     7
370
    15
100
AcDbEllipse
 10
269.3298573647
 20
750.3726565021
 30
0.0
 11
3.010530372140295
 21
0.957277534098921
 31
0.0
210
0.0
220
0.0
230
1.0
 40
0.9453652675
 41
2.866232176547649
 42
3.045968870353521
  0
ELLIPSE
  5
1ED
330
1F
100
AcDbEntity
  8
0
  6
Continuous
 62
     7
370
    15
100
AcDbEllipse
 10
108.541841472
 20
750.8608186925
 30
0.0
 11
-2.497601466854562
 21
1.664602724093811
 31
0.0
210
0.0
220
0.0
230
1.0
 40
0.9995050723
 41
2.158898525474552
 42
3.712241559749541
  0
ELLIPSE
  5
1EE
330
1F
100
AcDbEntity
  8
0
  6
Continuous
 62
     7
370
    15
100
AcDbEllipse
 10
136.8832975885
 20
770.1293222944
 30
0.0
 11
14.90430608289711
 21
-20.10081718334663
 31
0.0
210
0.0
220
0.0
230
1.0
 40
0.9990563843
 41
2.504019824870563
 42
4.056908665079275
  0
SPLINE
  5
1EF
330
1F
100
AcDbEntity
  8
0
  6
Continuous
 62
     7
370
    15
100
AcDbSpline
210
0.0
220
0.0
230
1.0
 70
     8
 71
     3
 72
    12
 73
     8
 74
     0
 42
0.00000001
 43
0.00000001
 40
0.0
 40
0.0
 40
0.0
 40
0.0
 40
0.0941150002751048
 40
0.3085551703075557
 40
0.5406547337060555
 40
0.79130424591549
 40
1.0
 40
1.0
 40
1.0
 40
1.0
 10
251.6166565411614
 20
791.7722608281533
 30
0.0
 10
251.5572813692719
 20
791.778652620966
 30
0.0
 10
251.3626204095854
 20
791.7996080554246
 30
0.0
 10
249.882905496833
 20
792.3496692436482
 30
0.0
 10
247.3687988264163
 20
793.0925317882419
 30
0.0
 10
244.153197574978
 20
793.7296047191923
 30
0.0
 10
241.8355475162737
 20
793.8114590861169
 30
0.0
 10
240.7825624042081
 20
793.8486482335489
 30
0.0
  0
ELLIPSE
  5
1F0
330
1F
100
AcDbEntity
  8
0
  6
Continuous
 62
     7
370
    15
100
AcDbEllipse
 10
241.7208480729
 20
770.1293217849
 30
0.0
 11
14.90430627829067
 21
20.10081703846652
 31
0.0
210
0.0
220
0.0
230
1.0
 40
0.9990563843
 41
5.36786929569014
 42
6.503869659117433
  0
LINE
  5
1F1
330
1F
100
AcDbEntity
  8
0
  6
Continuous
 62
     7
370
    15
100
AcDbLine
 10
230.882577359
 20
795.1445724203
 30
0.0
 11
136.860705673
 21
795.1445724203
 31
0.0
  0
ELLIPSE
  5
1F2
330
1F
100
AcDbEntity
  8
0
  6
Continuous
 62
     7
370
    15
100
AcDbEllipse
 10
240.9876193303
 20
794.2010194796
 30
0.0
 11
10.09680385563132
 21
-4.907383299723734E-8
 31
0.0
210
0.0
220
0.0
230
1.0
 40
0.0349048145
 41
3.842574308424602
 42
4.692078462345345
  0
ELLIPSE
  5
1F3
330
1F
100
AcDbEntity
  8
0
  6
Continuous
 62
     7
370
    15
100
AcDbEllipse
 10
230.8826002385
 20
793.1433413564
 30
0.0
 11
0.01746769071863241
 21
-2.001142946419805
 31
0.0
210
0.0
220
0.0
230
1.0
 40
0.9993907806
 41
2.013548275535766
 42
3.132869330747102
  0
SPLINE
  5
1F4
330
1F
100
AcDbEntity
  8
0
  6
Continuous
 62
     7
370
    15
100
AcDbSpline
210
0.0
220
0.0
230
1.0
 70
     8
 71
     3
 72
    11
 73
     7
 74
     0
 42
0.00000001
 43
0.00000001
 40
0.0
 40
0.0
 40
0.0
 40
0.0
 40
0.2024328094024851
 40
0.4618957059201952
 40
0.7210971498016485
 40
1.0
 40
1.0
 40
1.0
 40
1.0
 10
249.5255430632161
 20
792.4268986417214
 30
0.0
 10
249.6414759753007
 20
792.5597728616734
 30
0.0
 10
249.906002829543
 20
792.8629550968283
 30
0.0
 10
250.4898508876477
 20
793.1246729733998
 30
0.0
 10
251.1881434331257
 20
793.2217505834577
 30
0.0
 10
251.6358023488984
 20
793.077071529937
 30
0.0
 10
251.8678267889546
 20
793.002083463804
 30
0.0
  0
CIRCLE
  5
1F5
330
1F
100
AcDbEntity
  8
0
  6
Continuous
 62
     7
370
    15
100
AcDbCircle
 10
218.3145940684
 20
617.3510256595
 30
0.0
 40
8.00000000000017
  0
SPLINE
  5
1F6
330
1F
100
AcDbEntity
  8
0
  6
Continuous
 62
     7
370
    15
100
AcDbSpline
210
0.0
220
0.0
230
1.0
 70
     8
 71
     3
 72
    15
 73
    11
 74
     0
 42
0.00000001
 43
0.00000001
 40
0.0
 40
0.0
 40
0.0
 40
0.0
 40
0.1301245180303835
 40
0.2568328019249333
 40
0.3801246502364758
 40
0.5000010441207483
 40
0.6198775478762184
 40
0.7431690674632381
 40
0.8698744913202339
 40
1.0
 40
1.0
 40
1.0
 40
1.0
 10
66.82172393732536
 20
743.8421394063395
 30
0.0
 10
66.03819496882288
 20
743.795847635474
 30
0.0
 10
64.49170747041872
 20
743.7044794183437
 30
0.0
 10
62.29718844050952
 20
742.9898066488431
 30
0.0
 10
60.33400145939627
 20
741.9234834611246
 30
0.0
 10
58.64326505269385
 20
740.5223525880158
 30
0.0
 10
57.24216646695127
 20
738.831599719579
 30
0.0
 10
56.17580569070582
 20
736.8684522155493
 30
0.0
 10
55.46118184775664
 20
734.6739317046384
 30
0.0
 10
55.36978718154878
 20
733.1274594867039
 30
0.0
 10
55.32348132067194
 20
732.3439265920083
 30
0.0
  0
SPLINE
  5
1F7
330
1F
100
AcDbEntity
  8
0
  6
Continuous
 62
     7
370
    15
100
AcDbSpline
210
0.0
220
0.0
230
1.0
 70
     8
 71
     3
 72
    15
 73
    11
 74
     0
 42
0.00000001
 43
0.00000001
 40
0.0
 40
0.0
 40
0.0
 40
0.0
 40
0.1301250604377669
 40
0.2568332017530068
 40
0.3801239002750306
 40
0.5000005178855234
 40
0.6198764988328167
 40
0.7431664722687557
 40
0.8698751081700095
 40
1.0
 40
1.0
 40
1.0
 40
1.0
 10
381.3057092421578
 20
732.3438669873635
 30
0.0
 10
381.25940136128
 20
733.1273994154936
 30
0.0
 10
381.1680015857696
 20
734.6738897035053
 30
0.0
 10
380.4533944834947
 20
736.8684316832494
 30
0.0
 10
379.3870418991517
 20
738.8316086105922
 30
0.0
 10
377.985924417196
 20
740.522348388466
 30
0.0
 10
376.2951947612829
 20
741.9234744856888
 30
0.0
 10
374.3320222264511
 20
742.9898177596477
 30
0.0
 10
372.1374967924215
 20
743.7044776318882
 30
0.0
 10
370.5910002252501
 20
743.7958470332987
 30
0.0
 10
369.8074666255044
 20
743.8421394063395
 30
0.0
  0
SPLINE
  5
1F8
330
1F
100
AcDbEntity
  8
0
  6
Continuous
 62
     7
370
    15
100
AcDbSpline
210
0.0
220
0.0
230
1.0
 70
     8
 71
     3
 72
    15
 73
    11
 74
     0
 42
0.00000001
 43
0.00000001
 40
0.0
 40
0.0
 40
0.0
 40
0.0
 40
0.1301253896482254
 40
0.2568321924678708
 40
0.3801231230260764
 40
0.4999999662473654
 40
0.6198761728042567
 40
0.7431671033624623
 40
0.869874694663611
 40
1.0
 40
1.0
 40
1.0
 40
1.0
 10
55.32346641951074
 20
502.3581530286233
 30
0.0
 10
55.36977933952622
 20
501.5746203711751
 30
0.0
 10
55.46118847051385
 20
500.0281396203653
 30
0.0
 10
56.17580203495196
 20
497.833610367226
 30
0.0
 10
57.24214827918567
 20
495.8704410990343
 30
0.0
 10
58.6432663297086
 20
494.1797012927544
 30
0.0
 10
60.33399881606058
 20
492.7785731990679
 30
0.0
 10
62.29717078554564
 20
491.7122293137388
 30
0.0
 10
64.49170530807751
 20
490.9976157835953
 30
0.0
 10
66.0381912869675
 20
490.9062176188925
 30
0.0
 10
66.82172393732539
 20
490.8599104119698
 30
0.0
  0
SPLINE
  5
1F9
330
1F
100
AcDbEntity
  8
0
  6
Continuous
 62
     7
370
    15
100
AcDbSpline
210
0.0
220
0.0
230
1.0
 70
     8
 71
     3
 72
    15
 73
    11
 74
     0
 42
0.00000001
 43
0.00000001
 40
0.0
 40
0.0
 40
0.0
 40
0.0
 40
0.1301244958525616
 40
0.2568320993788855
 40
0.3801230418326152
 40
0.4999998966200258
 40
0.6198749512818147
 40
0.7431662901002972
 40
0.8698746821086832
 40
0.9999999999999999
 40
0.9999999999999999
 40
0.9999999999999999
 40
0.9999999999999999
 10
369.8074666255044
 20
490.8599104119698
 30
0.0
 10
370.590994188478
 20
490.9062181314946
 30
0.0
 10
372.1374749460114
 20
490.9976175927955
 30
0.0
 10
374.3320055122893
 20
491.7122285284106
 30
0.0
 10
376.2951779243421
 20
492.7785778058198
 30
0.0
 10
377.9859150093481
 20
494.1796895430468
 30
0.0
 10
379.3870317292679
 20
495.8704236339105
 30
0.0
 10
380.4533973191595
 20
497.833584156388
 30
0.0
 10
381.1680006518857
 20
500.0281308048905
 30
0.0
 10
381.2594010472365
 20
501.5746207660789
 30
0.0
 10
381.3057092421578
 20
502.3581530286233
 30
0.0
  0
LINE
  5
1FA
330
1F
100
AcDbEntity
  8
0
  6
Continuous
 62
     7
370
    15
100
AcDbLine
 10
381.3057092422
 20
502.3581530286
 30
0.0
 11
381.3057092422
 21
732.3438669874
 31
0.0
  0
SPLINE
  5
1FB
330
1F
100
AcDbEntity
  8
0
  6
Continuous
 62
     7
370
    15
100
AcDbSpline
210
0.0
220
0.0
230
1.0
 70
     8
 71
     3
 72
    19
 73
    15
 74
     0
 42
0.00000001
 43
0.00000001
 40
0.0
 40
0.0
 40
0.0
 40
0.0
 40
0.0791552343277608
 40
0.1600976683787022
 40
0.2427128211998598
 40
0.3278014699283708
 40
0.4136118056532516
 40
0.4999999956399467
 40
0.5863834918545355
 40
0.672193911807751
 40
0.7572871694359514
 40
0.8398976015950584
 40
0.9208423920349011
 40
1.0
 40
1.0
 40
1.0
 40
1.0
 10
256.8316904299783
 20
491.3612152768533
 30
0.0
 10
258.9524550815839
 20
491.3889557764562
 30
0.0
 10
263.2418678890318
 20
491.4450631121716
 30
0.0
 10
270.3611642907936
 20
491.5139602391169
 30
0.0
 10
278.0206937791037
 20
491.5711597665175
 30
0.0
 10
286.1672553061085
 20
491.6134257100114
 30
0.0
 10
294.6606612156309
 20
491.6395351979776
 30
0.0
 10
303.3144400313235
 20
491.6483130843088
 30
0.0
 10
311.9682160450055
 20
491.6395340620617
 30
0.0
 10
320.4616401099491
 20
491.6134278196349
 30
0.0
 10
328.608208375758
 20
491.5711494888876
 30
0.0
 10
336.2677947748455
 20
491.514007851258
 30
0.0
 10
343.3871557482917
 20
491.4450510866871
 30
0.0
 10
347.6766808236517
 20
491.3889518061167
 30
0.0
 10
349.7975019209908
 20
491.3612152768533
 30
0.0
  0
LINE
  5
1FC
330
1F
100
AcDbEntity
  8
0
  6
Continuous
 62
     7
370
    15
100
AcDbLine
 10
246.3202883893
 20
490.859910412
 30
0.0
 11
250.314593076
 21
490.859910412
 31
0.0
  0
SPLINE
  5
1FD
330
1F
100
AcDbEntity
  8
0
  6
Continuous
 62
     7
370
    15
100
AcDbSpline
210
0.0
220
0.0
230
1.0
 70
     8
 71
     3
 72
    13
 73
     9
 74
     0
 42
0.00000001
 43
0.00000001
 40
0.0
 40
0.0
 40
0.0
 40
0.0
 40
0.2498221394367791
 40
0.5003555084467532
 40
0.636621327685708
 40
0.7729926477928061
 40
0.9092659154801026
 40
1.0
 40
1.0
 40
1.0
 40
1.0
 10
239.5299186401891
 20
491.1958123876016
 30
0.0
 10
239.9552862937119
 20
491.1978446592956
 30
0.0
 10
240.8072325985313
 20
491.2019149884466
 30
0.0
 10
241.9349405994857
 20
491.1977278320339
 30
0.0
 10
242.7506822694735
 20
491.1904383745156
 30
0.0
 10
243.3030499352673
 20
491.1824635891405
 30
0.0
 10
243.7208440011678
 20
491.1739439968874
 30
0.0
 10
243.8909484462064
 20
491.1676794991292
 30
0.0
 10
243.9589386277722
 20
491.165175600187
 30
0.0
  0
LINE
  5
1FE
330
1F
100
AcDbEntity
  8
0
  6
Continuous
 62
     7
370
    15
100
AcDbLine
 10
231.3145918243
 20
490.859910412
 30
0.0
 11
235.3202884489
 21
490.859910412
 31
0.0
  0
SPLINE
  5
1FF
330
1F
100
AcDbEntity
  8
0
  6
Continuous
 62
     7
370
    15
100
AcDbSpline
210
0.0
220
0.0
230
1.0
 70
     8
 71
     3
 72
    19
 73
    15
 74
     0
 42
0.00000001
 43
0.00000001
 40
0.0
 40
0.0
 40
0.0
 40
0.0
 40
0.0791552647996822
 40
0.1600976667699573
 40
0.2427128540311086
 40
0.3278015030467998
 40
0.4136118390612965
 40
0.5000000015417353
 40
0.5863835119467871
 40
0.672193911622203
 40
0.7572871406273116
 40
0.8398976840890733
 40
0.9208423615630068
 40
1.0
 40
1.0
 40
1.0
 40
1.0
 10
131.831686704688
 20
491.3612152768533
 30
0.0
 10
133.9524527964449
 20
491.3889557707711
 30
0.0
 10
138.241866822339
 20
491.4450630728253
 30
0.0
 10
145.3611619277777
 20
491.5139602772911
 30
0.0
 10
153.0206930375399
 20
491.5711597475395
 30
0.0
 10
161.1672552098482
 20
491.613425713737
 30
0.0
 10
169.6606603193237
 20
491.6395351938123
 30
0.0
 10
178.3144386416396
 20
491.648313085457
 30
0.0
 10
186.9682134206567
 20
491.6395340618784
 30
0.0
 10
195.4616367123349
 20
491.613427834904
 30
0.0
 10
203.6082051238832
 20
491.5711494173615
 30
0.0
 10
211.2677955637022
 20
491.5140079753304
 30
0.0
 10
218.3871507394296
 20
491.4450509930912
 30
0.0
 10
222.6766753961563
 20
491.3889517918593
 30
0.0
 10
224.7974981957005
 20
491.3612152768533
 30
0.0
  0
LINE
  5
200
330
1F
100
AcDbEntity
  8
0
  6
Continuous
 62
     7
370
    15
100
AcDbLine
 10
66.8217239373
 20
490.859910412
 30
0.0
 11
125.314593076
 21
490.859910412
 31
0.0
  0
LINE
  5
201
330
1F
100
AcDbEntity
  8
0
  6
Continuous
 62
     7
370
    15
100
AcDbLine
 10
369.8074666255
 20
490.859910412
 30
0.0
 11
356.3145992749
 21
490.859910412
 31
0.0
  0
SPLINE
  5
202
330
1F
100
AcDbEntity
  8
0
  6
Continuous
 62
     7
370
    15
100
AcDbSpline
210
0.0
220
0.0
230
1.0
 70
     8
 71
     3
 72
    19
 73
    15
 74
     0
 42
0.00000001
 43
0.00000001
 40
0.0
 40
0.0
 40
0.0
 40
0.0
 40
0.079155639575717
 40
0.1600978655699257
 40
0.2427132728336614
 40
0.3278017619149103
 40
0.4136121537509306
 40
0.4999999555157518
 40
0.5863835824020137
 40
0.6721938390807501
 40
0.7572872217157667
 40
0.8398977737042173
 40
0.9208422888356355
 40
0.9999999999999999
 40
0.9999999999999999
 40
0.9999999999999999
 40
0.9999999999999999
 10
55.82478618555536
 20
608.3339597417275
 30
0.0
 10
55.85251627603841
 20
606.2131756937322
 30
0.0
 10
55.90860234043249
 20
601.9237403327305
 30
0.0
 10
55.9775686396804
 20
594.8044474819889
 30
0.0
 10
56.03470234254837
 20
587.1449065769257
 30
0.0
 10
56.07698031020119
 20
578.9983444471789
 30
0.0
 10
56.10311084603573
 20
570.5049510452635
 30
0.0
 10
56.11188134033466
 20
561.851178125134
 30
0.0
 10
56.10311080166674
 20
553.1974138444696
 30
0.0
 10
56.07697836180115
 20
544.7039859284259
 30
0.0
 10
56.03470656981785
 20
536.557413388505
 30
0.0
 10
55.97756484287058
 20
528.8978188363977
 30
0.0
 10
55.90860285768368
 20
521.7784729364477
 30
0.0
 10
55.85251642737318
 20
517.488945672596
 30
0.0
 10
55.82478618555536
 20
515.3681184483926
 30
0.0
  0
LINE
  5
203
330
1F
100
AcDbEntity
  8
0
  6
Continuous
 62
     7
370
    15
100
AcDbLine
 10
55.3234813207
 20
674.3800188733
 30
0.0
 11
55.3234813207
 21
614.8510123922
 31
0.0
  0
LINE
  5
204
330
1F
100
AcDbEntity
  8
0
  6
Continuous
 62
     7
370
    15
100
AcDbLine
 10
55.3234813207
 20
732.343926592
 30
0.0
 11
55.3234813207
 21
687.3510028554
 31
0.0
  0
LINE
  5
205
330
1F
100
AcDbEntity
  8
0
  6
Continuous
 62
     7
370
    15
100
AcDbLine
 10
55.3234664195
 20
508.8510359956
 30
0.0
 11
55.3234664195
 21
502.3581530286
 31
0.0
  0
LINE
  5
206
330
1F
100
AcDbEntity
  8
0
  6
Continuous
 62
     7
370
    15
100
AcDbLine
 10
173.7890483283
 20
740.2965571119
 30
0.0
 11
204.7890478217
 21
740.2965571119
 31
0.0
  0
LINE
  5
207
330
1F
100
AcDbEntity
  8
0
  6
Continuous
 62
     7
370
    15
100
AcDbLine
 10
204.7890478217
 20
740.2529265119
 30
0.0
 11
232.2188538902
 21
740.2529265119
 31
0.0
  0
LINE
  5
208
330
1F
100
AcDbEntity
  8
0
  6
Continuous
 62
     7
370
    15
100
AcDbLine
 10
232.2188538902
 20
740.2965571119
 30
0.0
 11
263.0235997432
 21
740.2965571119
 31
0.0
  0
LINE
  5
209
330
1F
100
AcDbEntity
  8
0
  6
Continuous
 62
     7
370
    15
100
AcDbLine
 10
263.0235997432
 20
740.3227235509
 30
0.0
 11
263.232499122
 21
740.4619600011
 31
0.0
  0
SPLINE
  5
20A
330
1F
100
AcDbEntity
  8
0
  6
Continuous
 62
     7
370
    15
100
AcDbSpline
210
0.0
220
0.0
230
1.0
 70
     8
 71
     3
 72
    18
 73
    14
 74
     0
 42
0.00000001
 43
0.00000001
 40
0.0
 40
0.0
 40
0.0
 40
0.0
 40
0.0946854573315199
 40
0.1915086145951073
 40
0.2903327532861535
 40
0.3921156828054947
 40
0.4947618951433009
 40
0.5980993363608369
 40
0.7014311628942845
 40
0.8040774759859156
 40
0.9058659186651854
 40
0.9754907038290385
 40
1.0
 40
1.0
 40
1.0
 40
1.0
 10
349.7975019209908
 20
743.3408047391335
 30
0.0
 10
347.6767345147461
 20
743.3130766217325
 30
0.0
 10
343.3873194419925
 20
743.2569943732178
 30
0.0
 10
336.2680254896693
 20
743.1880897054496
 30
0.0
 10
328.6085041591361
 20
743.1308812616649
 30
0.0
 10
320.461914780584
 20
743.0886604150919
 30
0.0
 10
311.9686150331806
 20
743.0625579710286
 30
0.0
 10
303.3144368952255
 20
743.0537053307793
 30
0.0
 10
294.6621498443214
 20
743.0625975979394
 30
0.0
 10
286.1632203971587
 20
743.0885060648517
 30
0.0
 10
278.8191235831349
 20
743.1273161053492
 30
0.0
 10
273.7030657342264
 20
743.1620798470685
 30
0.0
 10
271.3597894758186
 20
743.1830539360917
 30
0.0
 10
270.7496804588365
 20
743.1885148717324
 30
0.0
  0
LINE
  5
20B
330
1F
100
AcDbEntity
  8
0
  6
Continuous
 62
     7
370
    15
100
AcDbLine
 10
369.8074666255
 20
743.8421394063
 30
0.0
 11
356.3145992749
 21
743.8421394063
 31
0.0
  0
LINE
  5
20C
330
1F
100
AcDbEntity
  8
0
  6
Continuous
 62
     7
370
    15
100
AcDbLine
 10
106.8736982935
 20
743.8421394063
 30
0.0
 11
66.8217239373
 21
743.8421394063
 31
0.0
  0
LINE
  5
20D
330
1F
100
AcDbEntity
  8
0
  6
Continuous
 62
     7
370
    15
100
AcDbLine
 10
115.5544964068
 20
740.3227235509
 30
0.0
 11
115.3455299728
 21
740.4620196058
 31
0.0
  0
LINE
  5
20E
330
1F
100
AcDbEntity
  8
0
  6
Continuous
 62
     7
370
    15
100
AcDbLine
 10
115.5544964068
 20
740.2965571119
 30
0.0
 11
146.3592422598
 21
740.2965571119
 31
0.0
  0
LINE
  5
20F
330
1F
100
AcDbEntity
  8
0
  6
Continuous
 62
     7
370
    15
100
AcDbLine
 10
146.3592422598
 20
740.2529265119
 30
0.0
 11
173.7890483283
 21
740.2529265119
 31
0.0
  0
LINE
  5
210
330
1F
100
AcDbEntity
  8
0
  6
Continuous
 62
     7
370
    15
100
AcDbLine
 10
232.2188538902
 20
741.296425028
 30
0.0
 11
233.2318795317
 21
741.296425028
 31
0.0
  0
LINE
  5
211
330
1F
100
AcDbEntity
  8
0
  6
Continuous
 62
     7
370
    15
100
AcDbLine
 10
232.2188538902
 20
741.296425028
 30
0.0
 11
232.2188538902
 21
741.252794428
 31
0.0
  0
LINE
  5
212
330
1F
100
AcDbEntity
  8
0
  6
Continuous
 62
     7
370
    15
100
AcDbLine
 10
204.789048753
 20
741.252794428
 30
0.0
 11
232.2188538902
 21
741.252794428
 31
0.0
  0
LINE
  5
213
330
1F
100
AcDbEntity
  8
0
  6
Continuous
 62
     7
370
    15
100
AcDbLine
 10
204.789048753
 20
741.252794428
 30
0.0
 11
204.789048753
 21
741.296425028
 31
0.0
  0
LINE
  5
214
330
1F
100
AcDbEntity
  8
0
  6
Continuous
 62
     7
370
    15
100
AcDbLine
 10
173.7890483283
 20
741.296425028
 30
0.0
 11
174.8020721071
 21
741.296425028
 31
0.0
  0
LINE
  5
215
330
1F
100
AcDbEntity
  8
0
  6
Continuous
 62
     7
370
    15
100
AcDbLine
 10
203.8020731353
 20
741.296425028
 30
0.0
 11
204.789048753
 21
741.296425028
 31
0.0
  0
LINE
  5
216
330
1F
100
AcDbEntity
  8
0
  6
Continuous
 62
     7
370
    15
100
AcDbLine
 10
173.7890483283
 20
741.296425028
 30
0.0
 11
173.7890483283
 21
741.252794428
 31
0.0
  0
LINE
  5
217
330
1F
100
AcDbEntity
  8
0
  6
Continuous
 62
     7
370
    15
100
AcDbLine
 10
173.7890483283
 20
741.252794428
 30
0.0
 11
146.3592422598
 21
741.252794428
 31
0.0
  0
LINE
  5
218
330
1F
100
AcDbEntity
  8
0
  6
Continuous
 62
     7
370
    15
100
AcDbLine
 10
146.3592422598
 20
741.252794428
 30
0.0
 11
146.3592422598
 21
741.296425028
 31
0.0
  0
LINE
  5
219
330
1F
100
AcDbEntity
  8
0
  6
Continuous
 62
     7
370
    15
100
AcDbLine
 10
145.3722675734
 20
741.296425028
 30
0.0
 11
146.3592422598
 21
741.296425028
 31
0.0
  0
LINE
  5
21A
330
1F
100
AcDbEntity
  8
0
  6
Continuous
 62
     7
370
    15
100
AcDbLine
 10
233.2318795317
 20
741.3138295843
 30
0.0
 11
203.8020731353
 21
741.3138295843
 31
0.0
  0
LINE
  5
21B
330
1F
100
AcDbEntity
  8
0
  6
Continuous
 62
     7
370
    15
100
AcDbLine
 10
174.8020721071
 20
741.3138295843
 30
0.0
 11
145.3722675734
 21
741.3138295843
 31
0.0
  0
LINE
  5
21C
330
1F
100
AcDbEntity
  8
0
  6
Continuous
 62
     7
370
    15
100
AcDbLine
 10
232.2188538902
 20
740.2529265119
 30
0.0
 11
232.2188538902
 21
741.252794428
 31
0.0
  0
LINE
  5
21D
330
1F
100
AcDbEntity
  8
0
  6
Continuous
 62
     7
370
    15
100
AcDbLine
 10
204.7890478217
 20
740.2529265119
 30
0.0
 11
204.789048753
 21
741.252794428
 31
0.0
  0
LINE
  5
21E
330
1F
100
AcDbEntity
  8
0
  6
Continuous
 62
     7
370
    15
100
AcDbLine
 10
146.3592422598
 20
740.2529265119
 30
0.0
 11
146.3592422598
 21
741.252794428
 31
0.0
  0
LINE
  5
21F
330
1F
100
AcDbEntity
  8
0
  6
Continuous
 62
     7
370
    15
100
AcDbLine
 10
173.7890483283
 20
740.2529265119
 30
0.0
 11
173.7890483283
 21
741.252794428
 31
0.0
  0
LINE
  5
220
330
1F
100
AcDbEntity
  8
0
  6
Continuous
 62
     7
370
    15
100
AcDbLine
 10
263.0235997432
 20
740.2965571119
 30
0.0
 11
263.0235997432
 21
740.4617215825
 31
0.0
  0
LINE
  5
221
330
1F
100
AcDbEntity
  8
0
  6
Continuous
 62
     7
370
    15
100
AcDbLine
 10
115.5544964068
 20
740.2965571119
 30
0.0
 11
115.5544964068
 21
740.4617215825
 31
0.0
  0
LINE
  5
222
330
1F
100
AcDbEntity
  8
0
  6
Continuous
 62
     7
370
    15
100
AcDbLine
 10
56.1637727016
 20
686.35101573
 30
0.0
 11
56.1835763448
 21
686.2267996503
 31
0.0
  0
SPLINE
  5
223
330
1F
100
AcDbEntity
  8
0
  6
Continuous
 62
     7
370
    15
100
AcDbSpline
210
0.0
220
0.0
230
1.0
 70
     8
 71
     3
 72
    11
 73
     7
 74
     0
 42
0.00000001
 43
0.00000001
 40
0.0
 40
0.0
 40
0.0
 40
0.0
 40
0.2499831395653777
 40
0.5000178380654349
 40
0.7499929873349521
 40
0.9999999999999999
 40
0.9999999999999999
 40
0.9999999999999999
 40
0.9999999999999999
 10
55.33219849997032
 20
674.879982633726
 30
0.0
 10
55.3397170276454
 20
674.9454956774662
 30
0.0
 10
55.35475563368922
 20
675.0765352769891
 30
0.0
 10
55.47033941903345
 20
675.2418314590732
 30
0.0
 10
55.63561687349458
 20
675.3574214237732
 30
0.0
 10
55.76662448018341
 20
675.3724774872525
 30
0.0
 10
55.83213245802393
 20
675.3800059987466
 30
0.0
  0
SPLINE
  5
224
330
1F
100
AcDbEntity
  8
0
  6
Continuous
 62
     7
370
    15
100
AcDbSpline
210
0.0
220
0.0
230
1.0
 70
     8
 71
     3
 72
    10
 73
     6
 74
     0
 42
0.00000001
 43
0.00000001
 40
0.0
 40
0.0
 40
0.0
 40
0.0
 40
0.3628100646233556
 40
0.7256949586950313
 40
1.0
 40
1.0
 40
1.0
 40
1.0
 10
55.33219849997034
 20
686.8510390950601
 30
0.0
 10
55.33995262791714
 20
686.7860243054838
 30
0.0
 10
55.35546248309691
 20
686.6559813170542
 30
0.0
 10
55.45840213882003
 20
686.4972561015961
 30
0.0
 10
55.55825369102676
 20
686.4401092196691
 30
0.0
 10
55.60123896532526
 20
686.4155079556863
 30
0.0
  0
SPLINE
  5
225
330
1F
100
AcDbEntity
  8
0
  6
Continuous
 62
     7
370
    15
100
AcDbSpline
210
0.0
220
0.0
230
1.0
 70
     8
 71
     3
 72
    10
 73
     6
 74
     0
 42
0.00000001
 43
0.00000001
 40
0.0
 40
0.0
 40
0.0
 40
0.0
 40
0.3629127798916245
 40
0.7256994992850204
 40
1.0
 40
1.0
 40
1.0
 40
1.0
 10
55.33219849997034
 20
614.3510486318032
 30
0.0
 10
55.33994558206451
 20
614.2860108214215
 30
0.0
 10
55.35543705524526
 20
614.1559577920337
 30
0.0
 10
55.45842205995616
 20
613.9972605148529
 30
0.0
 10
55.55825533963202
 20
613.9401197022994
 30
0.0
 10
55.60123896532526
 20
613.9155174924294
 30
0.0
  0
SPLINE
  5
226
330
1F
100
AcDbEntity
  8
0
  6
Continuous
 62
     7
370
    15
100
AcDbSpline
210
0.0
220
0.0
230
1.0
 70
     8
 71
     3
 72
    11
 73
     7
 74
     0
 42
0.00000001
 43
0.00000001
 40
0.0
 40
0.0
 40
0.0
 40
0.0
 40
0.2499923182756802
 40
0.5000044420834755
 40
0.7500099865250031
 40
0.9999999999999999
 40
0.9999999999999999
 40
0.9999999999999999
 40
0.9999999999999999
 10
55.33219849997034
 20
509.3510295583169
 30
0.0
 10
55.3397146414388
 20
509.4165446195098
 30
0.0
 10
55.35474751983874
 20
509.5475799322979
 30
0.0
 10
55.47035956980984
 20
509.7128455120545
 30
0.0
 10
55.63559847522554
 20
509.8284784174596
 30
0.0
 10
55.7666125528459
 20
509.8435083754513
 30
0.0
 10
55.83211755686273
 20
509.8510231210153
 30
0.0
  0
SPLINE
  5
227
330
1F
100
AcDbEntity
  8
0
  6
Continuous
 62
     7
370
    15
100
AcDbSpline
210
0.0
220
0.0
230
1.0
 70
     8
 71
     3
 72
    10
 73
     6
 74
     0
 42
0.00000001
 43
0.00000001
 40
0.0
 40
0.0
 40
0.0
 40
0.0
 40
0.3628448516265377
 40
0.7256922358970682
 40
1.0
 40
1.0
 40
1.0
 40
1.0
 10
355.8145908110665
 20
743.8334371282021
 30
0.0
 10
355.7495764013214
 20
743.8256713097007
 30
0.0
 10
355.6195471280329
 20
743.8101396184926
 30
0.0
 10
355.4608298565534
 20
743.7072147827636
 30
0.0
 10
355.4036999278421
 20
743.6073678295946
 30
0.0
 10
355.3791043751763
 20
743.564381761686
 30
0.0
  0
LINE
  5
228
330
1F
100
AcDbEntity
  8
0
  6
Continuous
 62
     7
370
    15
100
AcDbLine
 10
125.314593076
 20
490.859910412
 30
0.0
 11
125.314593076
 21
490.8954049779
 31
0.0
  0
LINE
  5
229
330
1F
100
AcDbEntity
  8
0
  6
Continuous
 62
     7
370
    15
100
AcDbLine
 10
250.314593076
 20
490.859910412
 30
0.0
 11
250.314593076
 21
490.8954049779
 31
0.0
  0
SPLINE
  5
22A
330
1F
100
AcDbEntity
  8
0
  6
Continuous
 62
     7
370
    15
100
AcDbSpline
210
0.0
220
0.0
230
1.0
 70
     8
 71
     3
 72
    12
 73
     8
 74
     0
 42
0.00000001
 43
0.00000001
 40
0.0
 40
0.0
 40
0.0
 40
0.0
 40
0.2146683379196874
 40
0.4293411021514461
 40
0.6439983987428413
 40
0.8586048515237754
 40
1.0
 40
1.0
 40
1.0
 40
1.0
 10
136.9804141514825
 20
745.2131654454629
 30
0.0
 10
137.1437398823959
 20
745.1855408589663
 30
0.0
 10
137.4703947118859
 20
745.1302911163734
 30
0.0
 10
137.9057112470608
 20
744.6992284703972
 30
0.0
 10
138.2297515444256
 20
744.0649666114482
 30
0.0
 10
138.392933081919
 20
743.3620046297704
 30
0.0
 10
138.3984438903638
 20
742.8976128943567
 30
0.0
 10
138.4006326489972
 20
742.7131678296487
 30
0.0
  0
SPLINE
  5
22B
330
1F
100
AcDbEntity
  8
0
  6
Continuous
 62
     7
370
    15
100
AcDbSpline
210
0.0
220
0.0
230
1.0
 70
     8
 71
     3
 72
    12
 73
     8
 74
     0
 42
0.00000001
 43
0.00000001
 40
0.0
 40
0.0
 40
0.0
 40
0.0
 40
0.2146208193321081
 40
0.4292582817410445
 40
0.6438183451823993
 40
0.8584410949529401
 40
1.0
 40
1.0
 40
1.0
 40
1.0
 10
135.4971153133439
 20
742.7131678296487
 30
0.0
 10
135.5202346269802
 20
742.994030649743
 30
0.0
 10
135.5664750470728
 20
743.5557780698388
 30
0.0
 10
135.8252953990989
 20
744.3048674971241
 30
0.0
 10
136.1957603741751
 20
744.8702693851444
 30
0.0
 10
136.6033150068567
 20
745.1703463437201
 30
0.0
 10
136.8731660260295
 20
745.2009875647627
 30
0.0
 10
136.9804141514825
 20
745.2131654454629
 30
0.0
  0
LINE
  5
22C
330
1F
100
AcDbEntity
  8
0
  6
Continuous
 62
     7
370
    15
100
AcDbLine
 10
50.7202891105
 20
521.8265499307
 30
0.0
 11
50.7202891105
 21
602.1998073293
 31
0.0
  0
LINE
  5
22D
330
1F
100
AcDbEntity
  8
0
  6
Continuous
 62
     7
370
    15
100
AcDbLine
 10
50.5958048099
 20
605.295493765
 30
0.0
 11
55.8626798385
 21
605.295493765
 31
0.0
  0
LINE
  5
22E
330
1F
100
AcDbEntity
  8
0
  6
Continuous
 62
     7
370
    15
100
AcDbLine
 10
50.5958048099
 20
518.730863495
 30
0.0
 11
55.8667329543
 21
518.730863495
 31
0.0
  0
LINE
  5
22F
330
1F
100
AcDbEntity
  8
0
  6
Continuous
 62
     7
370
    15
100
AcDbLine
 10
47.3202911609
 20
545.3856136037
 30
0.0
 11
47.3202911609
 21
578.6407734586
 31
0.0
  0
LINE
  5
230
330
1F
100
AcDbEntity
  8
0
  6
Continuous
 62
     7
370
    15
100
AcDbLine
 10
44.8202935451
 20
579.0131832792
 30
0.0
 11
44.8202935451
 21
545.0131739808
 31
0.0
  0
LINE
  5
231
330
1F
100
AcDbEntity
  8
0
  6
Continuous
 62
     7
370
    15
100
AcDbLine
 10
44.3202850812
 20
545.5131973459
 30
0.0
 11
44.3202850812
 21
578.5131599142
 31
0.0
  0
SPLINE
  5
232
330
1F
100
AcDbEntity
  8
0
  6
Continuous
 62
     7
370
    15
100
AcDbSpline
210
0.0
220
0.0
230
1.0
 70
     8
 71
     3
 72
    10
 73
     6
 74
     0
 42
0.00000001
 43
0.00000001
 40
0.0
 40
0.0
 40
0.0
 40
0.0
 40
0.3881207071783611
 40
0.7804688308024935
 40
1.0
 40
1.0
 40
1.0
 40
1.0
 10
50.59580480986109
 20
518.7308634950082
 30
0.0
 10
50.58663159612847
 20
518.7312010474487
 30
0.0
 10
50.56818525388446
 20
518.7318798289556
 30
0.0
 10
50.54469018675131
 20
518.738465885231
 30
0.0
 10
50.53447203269226
 20
518.7472590064268
 30
0.0
 10
50.5308059447335
 20
518.7504138184946
 30
0.0
  0
SPLINE
  5
233
330
1F
100
AcDbEntity
  8
0
  6
Continuous
 62
     7
370
    15
100
AcDbSpline
210
0.0
220
0.0
230
1.0
 70
     8
 71
     3
 72
    10
 73
     6
 74
     0
 42
0.00000001
 43
0.00000001
 40
0.0
 40
0.0
 40
0.0
 40
0.0
 40
0.4959619751632868
 40
0.9680457469732133
 40
0.9999999999999999
 40
0.9999999999999999
 40
0.9999999999999999
 40
0.9999999999999999
 10
50.53080594473352
 20
518.7504138184945
 30
0.0
 10
50.45907153769644
 20
518.8328388199856
 30
0.0
 10
50.31905639314621
 20
518.9937204523153
 30
0.0
 10
50.19254286118194
 20
519.196837770086
 30
0.0
 10
50.13773111650841
 20
519.2972394126502
 30
0.0
 10
50.13425624304285
 20
519.3036045266549
 30
0.0
  0
LINE
  5
234
330
1F
100
AcDbEntity
  8
0
  6
Continuous
 62
     7
370
    15
100
AcDbLine
 10
47.3202911609
 20
578.6407734586
 30
0.0
 11
47.3202911609
 21
583.5073734952
 31
0.0
  0
LINE
  5
235
330
1F
100
AcDbEntity
  8
0
  6
Continuous
 62
     7
370
    15
100
AcDbLine
 10
47.3202911609
 20
540.5189837648
 30
0.0
 11
47.3202911609
 21
545.3856136037
 31
0.0
  0
SPLINE
  5
236
330
1F
100
AcDbEntity
  8
0
  6
Continuous
 62
     7
370
    15
100
AcDbSpline
210
0.0
220
0.0
230
1.0
 70
     8
 71
     3
 72
    10
 73
     6
 74
     0
 42
0.00000001
 43
0.00000001
 40
0.0
 40
0.0
 40
0.0
 40
0.0
 40
0.2546116415574243
 40
0.5814354582372631
 40
1.0
 40
1.0
 40
1.0
 40
1.0
 10
50.53080594473352
 20
605.2759434415261
 30
0.0
 10
50.53512810977418
 20
605.2795664953616
 30
0.0
 10
50.54499827908624
 20
605.287840162481
 30
0.0
 10
50.56823300652496
 20
605.2943961633717
 30
0.0
 10
50.58588982169712
 20
605.2950990607872
 30
0.0
 10
50.59580480986109
 20
605.2954937650125
 30
0.0
  0
SPLINE
  5
237
330
1F
100
AcDbEntity
  8
0
  6
Continuous
 62
     7
370
    15
100
AcDbSpline
210
0.0
220
0.0
230
1.0
 70
     8
 71
     3
 72
    10
 73
     6
 74
     0
 42
0.00000001
 43
0.00000001
 40
0.0
 40
0.0
 40
0.0
 40
0.0
 40
0.5447604885337404
 40
0.9680021957194339
 40
1.0
 40
1.0
 40
1.0
 40
1.0
 10
50.53080594473352
 20
605.2759434415261
 30
0.0
 10
50.45193490861841
 20
605.184651661678
 30
0.0
 10
50.31178646220011
 20
605.022432401647
 30
0.0
 10
50.1871686855698
 20
604.8198288492649
 30
0.0
 10
50.1377311041121
 20
604.7291279071392
 30
0.0
 10
50.13425624304285
 20
604.7227527333657
 30
0.0
  0
LINE
  5
238
330
1F
100
AcDbEntity
  8
0
  6
Continuous
 62
     7
370
    15
100
AcDbLine
 10
47.3202911609
 20
515.0131727888
 30
0.0
 11
47.3202911609
 21
521.0410501195
 31
0.0
  0
LINE
  5
239
330
1F
100
AcDbEntity
  8
0
  6
Continuous
 62
     7
370
    15
100
AcDbLine
 10
47.3202911609
 20
583.5073734952
 30
0.0
 11
47.3202911609
 21
593.890681429
 31
0.0
  0
LINE
  5
23A
330
1F
100
AcDbEntity
  8
0
  6
Continuous
 62
     7
370
    15
100
AcDbLine
 10
47.3202911609
 20
600.1356984807
 30
0.0
 11
47.3202911609
 21
602.9853369428
 31
0.0
  0
LINE
  5
23B
330
1F
100
AcDbEntity
  8
0
  6
Continuous
 62
     7
370
    15
100
AcDbLine
 10
47.3202911609
 20
521.0410501195
 30
0.0
 11
47.3202911609
 21
523.7590219213
 31
0.0
  0
LINE
  5
23C
330
1F
100
AcDbEntity
  8
0
  6
Continuous
 62
     7
370
    15
100
AcDbLine
 10
47.3202911609
 20
530.2915717794
 30
0.0
 11
47.3202911609
 21
540.5189837648
 31
0.0
  0
LINE
  5
23D
330
1F
100
AcDbEntity
  8
0
  6
Continuous
 62
     7
370
    15
100
AcDbLine
 10
47.3202911609
 20
602.9853369428
 30
0.0
 11
47.3202911609
 21
609.0131546689
 31
0.0
  0
LINE
  5
23E
330
1F
100
AcDbEntity
  8
0
  6
Continuous
 62
     7
370
    15
100
AcDbLine
 10
246.3202883893
 20
490.5131901933
 30
0.0
 11
235.3202884489
 21
490.5131901933
 31
0.0
  0
LINE
  5
23F
330
1F
100
AcDbEntity
  8
0
  6
Continuous
 62
     7
370
    15
100
AcDbLine
 10
244.8202853494
 20
487.5131692125
 30
0.0
 11
244.8202853494
 21
490.5131901933
 31
0.0
  0
LINE
  5
240
330
1F
100
AcDbEntity
  8
0
  6
Continuous
 62
     7
370
    15
100
AcDbLine
 10
244.8202853494
 20
487.5131692125
 30
0.0
 11
240.8202846938
 21
487.5131692125
 31
0.0
  0
LINE
  5
241
330
1F
100
AcDbEntity
  8
0
  6
Continuous
 62
     7
370
    15
100
AcDbLine
 10
240.8202846938
 20
487.5131692125
 30
0.0
 11
240.8202846938
 21
490.5131901933
 31
0.0
  0
LINE
  5
242
330
1F
100
AcDbEntity
  8
0
  6
Continuous
 62
     7
370
    15
100
AcDbLine
 10
236.8202877634
 20
487.5131692125
 30
0.0
 11
236.8202877634
 21
490.5131901933
 31
0.0
  0
LINE
  5
243
330
1F
100
AcDbEntity
  8
0
  6
Continuous
 62
     7
370
    15
100
AcDbLine
 10
240.8202846938
 20
487.5131692125
 30
0.0
 11
236.8202877634
 21
487.5131692125
 31
0.0
  0
LINE
  5
244
330
1F
100
AcDbEntity
  8
0
  6
Continuous
 62
     7
370
    15
100
AcDbLine
 10
45.3202871078
 20
607.0131804181
 30
0.0
 11
45.3202871078
 21
587.0131994916
 31
0.0
  0
LINE
  5
245
330
1F
100
AcDbEntity
  8
0
  6
Continuous
 62
     7
370
    15
100
AcDbLine
 10
47.3202911609
 20
600.1356984807
 30
0.0
 11
47.3202911609
 21
593.890681429
 31
0.0
  0
LINE
  5
246
330
1F
100
AcDbEntity
  8
0
  6
Continuous
 62
     7
370
    15
100
AcDbLine
 10
38.320287823
 20
597.001090212
 30
0.0
 11
45.3202871078
 21
597.001090212
 31
0.0
  0
LINE
  5
247
330
1F
100
AcDbEntity
  8
0
  6
Continuous
 62
     7
370
    15
100
AcDbLine
 10
38.320287823
 20
597.001090212
 30
0.0
 11
38.320287823
 21
605.5010701848
 31
0.0
  0
LINE
  5
248
330
1F
100
AcDbEntity
  8
0
  6
Continuous
 62
     7
370
    15
100
AcDbLine
 10
38.320287823
 20
605.5010701848
 30
0.0
 11
45.3202871078
 21
605.5010701848
 31
0.0
  0
LINE
  5
249
330
1F
100
AcDbEntity
  8
0
  6
Continuous
 62
     7
370
    15
100
AcDbLine
 10
38.320287823
 20
588.5010506345
 30
0.0
 11
45.3202871078
 21
588.5010506345
 31
0.0
  0
LINE
  5
24A
330
1F
100
AcDbEntity
  8
0
  6
Continuous
 62
     7
370
    15
100
AcDbLine
 10
38.320287823
 20
588.5010506345
 30
0.0
 11
38.320287823
 21
597.001090212
 31
0.0
  0
LINE
  5
24B
330
1F
100
AcDbEntity
  8
0
  6
Continuous
 62
     7
370
    15
100
AcDbLine
 10
47.3202911609
 20
530.2915717794
 30
0.0
 11
47.3202911609
 21
523.7590219213
 31
0.0
  0
LINE
  5
24C
330
1F
100
AcDbEntity
  8
0
  6
Continuous
 62
     7
370
    15
100
AcDbLine
 10
45.3202871078
 20
537.0252873136
 30
0.0
 11
45.3202871078
 21
517.0253063871
 31
0.0
  0
LINE
  5
24D
330
1F
100
AcDbEntity
  8
0
  6
Continuous
 62
     7
370
    15
100
AcDbLine
 10
38.320287823
 20
527.0131971075
 30
0.0
 11
45.3202871078
 21
527.0131971075
 31
0.0
  0
LINE
  5
24E
330
1F
100
AcDbEntity
  8
0
  6
Continuous
 62
     7
370
    15
100
AcDbLine
 10
38.320287823
 20
527.0131971075
 30
0.0
 11
38.320287823
 21
535.5131770803
 31
0.0
  0
LINE
  5
24F
330
1F
100
AcDbEntity
  8
0
  6
Continuous
 62
     7
370
    15
100
AcDbLine
 10
38.320287823
 20
535.5131770803
 30
0.0
 11
45.3202871078
 21
535.5131770803
 31
0.0
  0
LINE
  5
250
330
1F
100
AcDbEntity
  8
0
  6
Continuous
 62
     7
370
    15
100
AcDbLine
 10
38.320287823
 20
518.5131873323
 30
0.0
 11
45.3202871078
 21
518.5131873323
 31
0.0
  0
LINE
  5
251
330
1F
100
AcDbEntity
  8
0
  6
Continuous
 62
     7
370
    15
100
AcDbLine
 10
38.320287823
 20
518.5131873323
 30
0.0
 11
38.320287823
 21
527.0131971075
 31
0.0
  0
LINE
  5
252
330
1F
100
AcDbEntity
  8
0
  6
Continuous
 62
     7
370
    15
100
AcDbLine
 10
328.3081648343
 20
487.0131756498
 30
0.0
 11
348.3081755631
 21
487.0131756498
 31
0.0
  0
LINE
  5
253
330
1F
100
AcDbEntity
  8
0
  6
Continuous
 62
     7
370
    15
100
AcDbLine
 10
335.0418952697
 20
489.0131797029
 30
0.0
 11
341.5744451278
 21
489.0131797029
 31
0.0
  0
LINE
  5
254
330
1F
100
AcDbEntity
  8
0
  6
Continuous
 62
     7
370
    15
100
AcDbLine
 10
346.8202797168
 20
480.013176365
 30
0.0
 11
346.8202797168
 21
487.0131756498
 31
0.0
  0
LINE
  5
255
330
1F
100
AcDbEntity
  8
0
  6
Continuous
 62
     7
370
    15
100
AcDbLine
 10
346.8202797168
 20
480.013176365
 30
0.0
 11
338.3202848428
 21
480.013176365
 31
0.0
  0
LINE
  5
256
330
1F
100
AcDbEntity
  8
0
  6
Continuous
 62
     7
370
    15
100
AcDbLine
 10
338.3202848428
 20
480.013176365
 30
0.0
 11
338.3202848428
 21
487.0131756498
 31
0.0
  0
LINE
  5
257
330
1F
100
AcDbEntity
  8
0
  6
Continuous
 62
     7
370
    15
100
AcDbLine
 10
329.8202899688
 20
480.013176365
 30
0.0
 11
329.8202899688
 21
487.0131756498
 31
0.0
  0
LINE
  5
258
330
1F
100
AcDbEntity
  8
0
  6
Continuous
 62
     7
370
    15
100
AcDbLine
 10
338.3202848428
 20
480.013176365
 30
0.0
 11
329.8202899688
 21
480.013176365
 31
0.0
  0
LINE
  5
259
330
1F
100
AcDbEntity
  8
0
  6
Continuous
 62
     7
370
    15
100
AcDbLine
 10
258.3081719869
 20
487.0131756498
 30
0.0
 11
278.3081678145
 21
487.0131756498
 31
0.0
  0
LINE
  5
25A
330
1F
100
AcDbEntity
  8
0
  6
Continuous
 62
     7
370
    15
100
AcDbLine
 10
265.0418949717
 20
489.0131797029
 30
0.0
 11
271.5744448298
 21
489.0131797029
 31
0.0
  0
LINE
  5
25B
330
1F
100
AcDbEntity
  8
0
  6
Continuous
 62
     7
370
    15
100
AcDbLine
 10
276.8202868693
 20
480.013176365
 30
0.0
 11
276.8202868693
 21
487.0131756498
 31
0.0
  0
LINE
  5
25C
330
1F
100
AcDbEntity
  8
0
  6
Continuous
 62
     7
370
    15
100
AcDbLine
 10
276.8202868693
 20
480.013176365
 30
0.0
 11
268.3202845448
 21
480.013176365
 31
0.0
  0
LINE
  5
25D
330
1F
100
AcDbEntity
  8
0
  6
Continuous
 62
     7
370
    15
100
AcDbLine
 10
268.3202845448
 20
480.013176365
 30
0.0
 11
268.3202845448
 21
487.0131756498
 31
0.0
  0
LINE
  5
25E
330
1F
100
AcDbEntity
  8
0
  6
Continuous
 62
     7
370
    15
100
AcDbLine
 10
259.8202896708
 20
480.013176365
 30
0.0
 11
259.8202896708
 21
487.0131756498
 31
0.0
  0
LINE
  5
25F
330
1F
100
AcDbEntity
  8
0
  6
Continuous
 62
     7
370
    15
100
AcDbLine
 10
268.3202845448
 20
480.013176365
 30
0.0
 11
259.8202896708
 21
480.013176365
 31
0.0
  0
LINE
  5
260
330
1F
100
AcDbEntity
  8
0
  6
Continuous
 62
     7
370
    15
100
AcDbLine
 10
203.3081694909
 20
487.0131756498
 30
0.0
 11
223.3081699752
 21
487.0131756498
 31
0.0
  0
LINE
  5
261
330
1F
100
AcDbEntity
  8
0
  6
Continuous
 62
     7
370
    15
100
AcDbLine
 10
210.041893407
 20
489.0131797029
 30
0.0
 11
216.5744451278
 21
489.0131797029
 31
0.0
  0
LINE
  5
262
330
1F
100
AcDbEntity
  8
0
  6
Continuous
 62
     7
370
    15
100
AcDbLine
 10
221.8202853047
 20
480.013176365
 30
0.0
 11
221.8202853047
 21
487.0131756498
 31
0.0
  0
LINE
  5
263
330
1F
100
AcDbEntity
  8
0
  6
Continuous
 62
     7
370
    15
100
AcDbLine
 10
221.8202853047
 20
480.013176365
 30
0.0
 11
213.3202848428
 21
480.013176365
 31
0.0
  0
LINE
  5
264
330
1F
100
AcDbEntity
  8
0
  6
Continuous
 62
     7
370
    15
100
AcDbLine
 10
213.3202848428
 20
480.013176365
 30
0.0
 11
213.3202848428
 21
487.0131756498
 31
0.0
  0
LINE
  5
265
330
1F
100
AcDbEntity
  8
0
  6
Continuous
 62
     7
370
    15
100
AcDbLine
 10
204.8202862435
 20
480.013176365
 30
0.0
 11
204.8202862435
 21
487.0131756498
 31
0.0
  0
LINE
  5
266
330
1F
100
AcDbEntity
  8
0
  6
Continuous
 62
     7
370
    15
100
AcDbLine
 10
213.3202848428
 20
480.013176365
 30
0.0
 11
204.8202862435
 21
480.013176365
 31
0.0
  0
LINE
  5
267
330
1F
100
AcDbEntity
  8
0
  6
Continuous
 62
     7
370
    15
100
AcDbLine
 10
221.8202871674
 20
480.013176365
 30
0.0
 11
221.8202871674
 21
487.0131756498
 31
0.0
  0
LINE
  5
268
330
1F
100
AcDbEntity
  8
0
  6
Continuous
 62
     7
370
    15
100
AcDbLine
 10
221.8202871674
 20
480.013176365
 30
0.0
 11
221.8202853047
 21
480.013176365
 31
0.0
  0
LINE
  5
269
330
1F
100
AcDbEntity
  8
0
  6
Continuous
 62
     7
370
    15
100
AcDbLine
 10
133.3081682616
 20
487.0131756498
 30
0.0
 11
153.3081678145
 21
487.0131756498
 31
0.0
  0
LINE
  5
26A
330
1F
100
AcDbEntity
  8
0
  6
Continuous
 62
     7
370
    15
100
AcDbLine
 10
140.0418949717
 20
489.0131797029
 30
0.0
 11
146.5744448298
 21
489.0131797029
 31
0.0
  0
LINE
  5
26B
330
1F
100
AcDbEntity
  8
0
  6
Continuous
 62
     7
370
    15
100
AcDbLine
 10
151.8202868693
 20
480.013176365
 30
0.0
 11
151.8202868693
 21
487.0131756498
 31
0.0
  0
LINE
  5
26C
330
1F
100
AcDbEntity
  8
0
  6
Continuous
 62
     7
370
    15
100
AcDbLine
 10
151.8202868693
 20
480.013176365
 30
0.0
 11
143.3202845448
 21
480.013176365
 31
0.0
  0
LINE
  5
26D
330
1F
100
AcDbEntity
  8
0
  6
Continuous
 62
     7
370
    15
100
AcDbLine
 10
143.3202845448
 20
480.013176365
 30
0.0
 11
143.3202845448
 21
487.0131756498
 31
0.0
  0
LINE
  5
26E
330
1F
100
AcDbEntity
  8
0
  6
Continuous
 62
     7
370
    15
100
AcDbLine
 10
134.8202859455
 20
480.013176365
 30
0.0
 11
134.8202859455
 21
487.0131756498
 31
0.0
  0
LINE
  5
26F
330
1F
100
AcDbEntity
  8
0
  6
Continuous
 62
     7
370
    15
100
AcDbLine
 10
143.3202845448
 20
480.013176365
 30
0.0
 11
134.8202859455
 21
480.013176365
 31
0.0
  0
LINE
  5
270
330
1F
100
AcDbEntity
  8
0
  6
Continuous
 62
     7
370
    15
100
AcDbLine
 10
323.8202927106
 20
477.4131919576
 30
0.0
 11
282.8204033368
 21
477.4131919576
 31
0.0
  0
LINE
  5
271
330
1F
100
AcDbEntity
  8
0
  6
Continuous
 62
     7
370
    15
100
AcDbLine
 10
282.9764184945
 20
489.0131797029
 30
0.0
 11
281.8261010044
 21
489.0131797029
 31
0.0
  0
LINE
  5
272
330
1F
100
AcDbEntity
  8
0
  6
Continuous
 62
     7
370
    15
100
AcDbLine
 10
324.8144683831
 20
489.0131797029
 30
0.0
 11
323.6641583436
 21
489.0131797029
 31
0.0
  0
LINE
  5
273
330
1F
100
AcDbEntity
  8
0
  6
Continuous
 62
     7
370
    15
100
AcDbLine
 10
350.3202793592
 20
489.0131797029
 30
0.0
 11
344.2924169295
 21
489.0131797029
 31
0.0
  0
LINE
  5
274
330
1F
100
AcDbEntity
  8
0
  6
Continuous
 62
     7
370
    15
100
AcDbLine
 10
344.2924169295
 20
489.0131797029
 30
0.0
 11
341.5744451278
 21
489.0131797029
 31
0.0
  0
LINE
  5
275
330
1F
100
AcDbEntity
  8
0
  6
Continuous
 62
     7
370
    15
100
AcDbLine
 10
335.0418952697
 20
489.0131797029
 30
0.0
 11
324.8144683831
 21
489.0131797029
 31
0.0
  0
LINE
  5
276
330
1F
100
AcDbEntity
  8
0
  6
Continuous
 62
     7
370
    15
100
AcDbLine
 10
281.8261010044
 20
489.0131797029
 30
0.0
 11
271.5744448298
 21
489.0131797029
 31
0.0
  0
LINE
  5
277
330
1F
100
AcDbEntity
  8
0
  6
Continuous
 62
     7
370
    15
100
AcDbLine
 10
265.0418949717
 20
489.0131797029
 30
0.0
 11
262.348152458
 21
489.0131797029
 31
0.0
  0
LINE
  5
278
330
1F
100
AcDbEntity
  8
0
  6
Continuous
 62
     7
370
    15
100
AcDbLine
 10
262.348152458
 20
489.0131797029
 30
0.0
 11
256.3202900284
 21
489.0131797029
 31
0.0
  0
LINE
  5
279
330
1F
100
AcDbEntity
  8
0
  6
Continuous
 62
     7
370
    15
100
AcDbLine
 10
198.820286657
 20
477.4131919576
 30
0.0
 11
157.8204070621
 21
477.4131919576
 31
0.0
  0
LINE
  5
27A
330
1F
100
AcDbEntity
  8
0
  6
Continuous
 62
     7
370
    15
100
AcDbLine
 10
157.9764222198
 20
489.0131797029
 30
0.0
 11
156.8261010044
 21
489.0131797029
 31
0.0
  0
LINE
  5
27B
330
1F
100
AcDbEntity
  8
0
  6
Continuous
 62
     7
370
    15
100
AcDbLine
 10
199.8144721084
 20
489.0131797029
 30
0.0
 11
198.66415229
 21
489.0131797029
 31
0.0
  0
LINE
  5
27C
330
1F
100
AcDbEntity
  8
0
  6
Continuous
 62
     7
370
    15
100
AcDbLine
 10
225.3202868097
 20
489.0131797029
 30
0.0
 11
219.2924225175
 21
489.0131797029
 31
0.0
  0
LINE
  5
27D
330
1F
100
AcDbEntity
  8
0
  6
Continuous
 62
     7
370
    15
100
AcDbLine
 10
219.2924225175
 20
489.0131797029
 30
0.0
 11
216.5744451278
 21
489.0131797029
 31
0.0
  0
LINE
  5
27E
330
1F
100
AcDbEntity
  8
0
  6
Continuous
 62
     7
370
    15
100
AcDbLine
 10
210.041893407
 20
489.0131797029
 30
0.0
 11
199.8144721084
 21
489.0131797029
 31
0.0
  0
LINE
  5
27F
330
1F
100
AcDbEntity
  8
0
  6
Continuous
 62
     7
370
    15
100
AcDbLine
 10
156.8261010044
 20
489.0131797029
 30
0.0
 11
146.5744448298
 21
489.0131797029
 31
0.0
  0
LINE
  5
280
330
1F
100
AcDbEntity
  8
0
  6
Continuous
 62
     7
370
    15
100
AcDbLine
 10
140.0418949717
 20
489.0131797029
 30
0.0
 11
137.348152458
 21
489.0131797029
 31
0.0
  0
LINE
  5
281
330
1F
100
AcDbEntity
  8
0
  6
Continuous
 62
     7
370
    15
100
AcDbLine
 10
137.348152458
 20
489.0131797029
 30
0.0
 11
131.3202863031
 21
489.0131797029
 31
0.0
  0
LINE
  5
282
330
1F
100
AcDbEntity
  8
SLD-0
 62
     5
370
     0
100
AcDbLine
 10
303.3202865773
 20
477.4131821297
 30
0.0
 11
303.3202865822
 21
479.8697864837
 31
0.0
  0
LINE
  5
283
330
1F
100
AcDbEntity
  8
SLD-0
 62
     5
370
     0
100
AcDbLine
 10
178.3202865773
 20
477.4131827373
 30
0.0
 11
178.3202865822
 21
479.8697864837
 31
0.0
  0
LINE
  5
284
330
1F
100
AcDbEntity
  8
SLD-0
 62
     5
370
     0
100
AcDbLine
 10
44.3202869885
 20
562.0131833886
 30
0.0
 11
45.5654943264
 21
562.0131832641
 31
0.0
  0
ENDSEC
  0
SECTION
  2
OBJECTS
  0
DICTIONARY
  5
C
330
0
100
AcDbDictionary
281
     1
  3
ACAD_GROUP
350
D
  3
ACAD_LAYOUT
350
1A
  3
ACAD_MLINESTYLE
350
17
  3
ACAD_PLOTSETTINGS
350
19
  3
ACAD_PLOTSTYLENAME
350
E
  0
DICTIONARY
  5
D
102
{ACAD_REACTORS
330
C
102
}
330
C
100
AcDbDictionary
281
     1
  0
DICTIONARY
  5
1A
102
{ACAD_REACTORS
330
C
102
}
330
C
100
AcDbDictionary
281
     1
  3
Layout1
350
1E
  3
Layout2
350
26
  3
Model
350
22
  0
DICTIONARY
  5
17
102
{ACAD_REACTORS
330
C
102
}
330
C
100
AcDbDictionary
281
     1
  3
Standard
350
18
  0
DICTIONARY
  5
19
102
{ACAD_REACTORS
330
C
102
}
330
C
100
AcDbDictionary
281
     1
  0
ACDBDICTIONARYWDFLT
  5
E
102
{ACAD_REACTORS
330
C
102
}
330
C
100
AcDbDictionary
281
     1
  3
Normal
350
F
100
AcDbDictionaryWithDefault
340
F
  0
LAYOUT
  5
1E
102
{ACAD_REACTORS
330
1A
102
}
330
1A
100
AcDbPlotSettings
  1

  2
none_device
  4

  6

 40
0.0
 41
0.0
 42
0.0
 43
0.0
 44
0.0
 45
0.0
 46
0.0
 47
0.0
 48
0.0
 49
0.0
140
0.0
141
0.0
142
1.0
143
1.0
 70
   688
 72
     0
 73
     0
 74
     5
  7

 75
    16
147
1.0
148
0.0
149
0.0
100
AcDbLayout
  1
Layout1
 70
     1
 71
     1
 10
0.0
 20
0.0
 11
420.0
 21
297.0
 12
0.0
 22
0.0
 32
0.0
 14
1.0000000000E+20
 24
1.0000000000E+20
 34
1.0000000000E+20
 15
-1.0000000000E+20
 25
-1.0000000000E+20
 35
-1.0000000000E+20
146
0.0
 13
0.0
 23
0.0
 33
0.0
 16
1.0
 26
0.0
 36
0.0
 17
0.0
 27
1.0
 37
0.0
 76
     0
330
1B
  0
LAYOUT
  5
26
102
{ACAD_REACTORS
330
1A
102
}
330
1A
100
AcDbPlotSettings
  1

  2
none_device
  4

  6

 40
0.0
 41
0.0
 42
0.0
 43
0.0
 44
0.0
 45
0.0
 46
0.0
 47
0.0
 48
0.0
 49
0.0
140
0.0
141
0.0
142
1.0
143
1.0
 70
   688
 72
     0
 73
     0
 74
     5
  7

 75
    16
147
1.0
148
0.0
149
0.0
100
AcDbLayout
  1
Layout2
 70
     1
 71
     2
 10
0.0
 20
0.0
 11
0.0
 21
0.0
 12
0.0
 22
0.0
 32
0.0
 14
0.0
 24
0.0
 34
0.0
 15
0.0
 25
0.0
 35
0.0
146
0.0
 13
0.0
 23
0.0
 33
0.0
 16
1.0
 26
0.0
 36
0.0
 17
0.0
 27
1.0
 37
0.0
 76
     0
330
23
  0
LAYOUT
  5
22
102
{ACAD_REACTORS
330
1A
102
}
330
1A
100
AcDbPlotSettings
  1

  2
none_device
  4

  6

 40
0.0
 41
0.0
 42
0.0
 43
0.0
 44
0.0
 45
0.0
 46
0.0
 47
0.0
 48
0.0
 49
0.0
140
0.0
141
0.0
142
1.0
143
1.0
 70
  1712
 72
     0
 73
     0
 74
     0
  7

 75
     0
147
1.0
148
0.0
149
0.0
100
AcDbLayout
  1
Model
 70
     1
 71
     0
 10
0.0
 20
0.0
 11
420.0
 21
297.0
 12
0.0
 22
0.0
 32
0.0
 14
0.0
 24
0.0
 34
0.0
 15
420.0
 25
297.0
 35
0.0
146
0.0
 13
0.0
 23
0.0
 33
0.0
 16
1.0
 26
0.0
 36
0.0
 17
0.0
 27
1.0
 37
0.0
 76
     0
330
1F
331
29
  0
MLINESTYLE
  5
18
102
{ACAD_REACTORS
330
17
102
}
330
17
100
AcDbMlineStyle
  2
Standard
 70
     0
  3

 62
   256
 51
90.0
 52
90.0
 71
     2
 49
0.5
 62
   256
  6
BYLAYER
 49
-0.5
 62
   256
  6
BYLAYER
  0
ACDBPLACEHOLDER
  5
F
102
{ACAD_REACTORS
330
E
102
}
330
E
  0
ENDSEC
  0
EOF
