  0
SECTION
  2
HEADER
  9
$ACADVER
  1
AC1015
  9
$ACADMAINTVER
 70
     6
  9
$DWGCODEPAGE
  3
DOS932
  9
$INSBASE
 10
0.0
 20
0.0
 30
0.0
  9
$EXTMIN
 10
0.0
 20
0.0
 30
0.0
  9
$EXTMAX
 10
841.0
 20
594.0
 30
0.0
  9
$LIMMIN
 10
0.0
 20
0.0
  9
$LIMMAX
 10
841.0
 20
594.0
  9
$ORTHOMODE
 70
     0
  9
$REGENMODE
 70
     1
  9
$FILLMODE
 70
     1
  9
$QTEXTMODE
 70
     0
  9
$MIRRTEXT
 70
     1
  9
$LTSCALE
 40
1.0
  9
$ATTMODE
 70
     1
  9
$TEXTSIZE
 40
3.5
  9
$TRACEWID
 40
1.0
  9
$TEXTSTYLE
  7
Standard
  9
$CLAYER
  8
0
  9
$CELTYPE
  6
ByLayer
  9
$CECOLOR
 62
   256
  9
$CELTSCALE
 40
1.0
  9
$DISPSILH
 70
     0
  9
$DIMSCALE
 40
1.0
  9
$DIMASZ
 40
3.8637032976
  9
$DIMEXO
 40
1.0
  9
$DIMDLI
 40
3.75
  9
$DIMRND
 40
0.0
  9
$DIMDLE
 40
0.0
  9
$DIMEXE
 40
1.0
  9
$DIMTP
 40
0.0
  9
$DIMTM
 40
0.0
  9
$DIMTXT
 40
2.7999999523
  9
$DIMCEN
 40
2.5
  9
$DIMTSZ
 40
0.0
  9
$DIMTOL
 70
     0
  9
$DIMLIM
 70
     0
  9
$DIMTIH
 70
     1
  9
$DIMTOH
 70
     1
  9
$DIMSE1
 70
     0
  9
$DIMSE2
 70
     0
  9
$DIMTAD
 70
     1
  9
$DIMZIN
 70
     1
  9
$DIMBLK
  1

  9
$DIMASO
 70
     1
  9
$DIMSHO
 70
     1
  9
$DIMPOST
  1

  9
$DIMAPOST
  1

  9
$DIMALT
 70
     0
  9
$DIMALTD
 70
     3
  9
$DIMALTF
 40
0.0393700787
  9
$DIMLFAC
 40
1.0
  9
$DIMTOFL
 70
     1
  9
$DIMTVP
 40
0.0
  9
$DIMTIX
 70
     0
  9
$DIMSOXD
 70
     0
  9
$DIMSAH
 70
     0
  9
$DIMBLK1
  1

  9
$DIMBLK2
  1

  9
$DIMSTYLE
  2
ISO-25
  9
$DIMCLRD
 70
     0
  9
$DIMCLRE
 70
     0
  9
$DIMCLRT
 70
     0
  9
$DIMTFAC
 40
1.0
  9
$DIMGAP
 40
1.524
  9
$DIMJUST
 70
     0
  9
$DIMSD1
 70
     0
  9
$DIMSD2
 70
     0
  9
$DIMTOLJ
 70
     0
  9
$DIMTZIN
 70
     1
  9
$DIMALTZ
 70
     0
  9
$DIMALTTZ
 70
     0
  9
$DIMUPT
 70
     0
  9
$DIMDEC
 70
     2
  9
$DIMTDEC
 70
     2
  9
$DIMALTU
 70
     2
  9
$DIMALTTD
 70
     3
  9
$DIMTXSTY
  7
Standard
  9
$DIMAUNIT
 70
     0
  9
$DIMADEC
 70
     0
  9
$DIMALTRND
 40
0.0
  9
$DIMAZIN
 70
     0
  9
$DIMDSEP
 70
    44
  9
$DIMATFIT
 70
     3
  9
$DIMFRAC
 70
     0
  9
$DIMLDRBLK
  1

  9
$DIMLUNIT
 70
     2
  9
$DIMLWD
 70
    -2
  9
$DIMLWE
 70
    -2
  9
$DIMTMOVE
 70
     0
  9
$LUNITS
 70
     2
  9
$LUPREC
 70
     3
  9
$SKETCHINC
 40
1.0
  9
$FILLETRAD
 40
10.0
  9
$AUNITS
 70
     0
  9
$AUPREC
 70
     0
  9
$MENU
  1
.
  9
$ELEVATION
 40
0.0
  9
$PELEVATION
 40
0.0
  9
$THICKNESS
 40
0.0
  9
$LIMCHECK
 70
     0
  9
$CHAMFERA
 40
10.0
  9
$CHAMFERB
 40
10.0
  9
$CHAMFERC
 40
20.0
  9
$CHAMFERD
 40
0.0
  9
$SKPOLY
 70
     0
  9
$TDCREATE
 40
2456367.658357928
  9
$TDUCREATE
 40
2456367.283357928
  9
$TDUPDATE
 40
2456367.65835794
  9
$TDUUPDATE
 40
2456367.28335794
  9
$TDINDWG
 40
0.0000000116
  9
$TDUSRTIMER
 40
0.0000000116
  9
$USRTIMER
 70
     1
  9
$ANGBASE
 50
0.0
  9
$ANGDIR
 70
     0
  9
$PDMODE
 70
     0
  9
$PDSIZE
 40
-1.0
  9
$PLINEWID
 40
0.0
  9
$SPLFRAME
 70
     0
  9
$SPLINETYPE
 70
     6
  9
$SPLINESEGS
 70
     8
  9
$HANDSEED
  5
33D
  9
$SURFTAB1
 70
     6
  9
$SURFTAB2
 70
     6
  9
$SURFTYPE
 70
     6
  9
$SURFU
 70
     6
  9
$SURFV
 70
     6
  9
$UCSBASE
  2

  9
$UCSNAME
  2

  9
$UCSORG
 10
0.0
 20
0.0
 30
0.0
  9
$UCSXDIR
 10
1.0
 20
0.0
 30
0.0
  9
$UCSYDIR
 10
0.0
 20
1.0
 30
0.0
  9
$UCSORTHOREF
  2

  9
$UCSORTHOVIEW
 70
     0
  9
$UCSORGTOP
 10
0.0
 20
0.0
 30
0.0
  9
$UCSORGBOTTOM
 10
0.0
 20
0.0
 30
0.0
  9
$UCSORGLEFT
 10
0.0
 20
0.0
 30
0.0
  9
$UCSORGRIGHT
 10
0.0
 20
0.0
 30
0.0
  9
$UCSORGFRONT
 10
0.0
 20
0.0
 30
0.0
  9
$UCSORGBACK
 10
0.0
 20
0.0
 30
0.0
  9
$PUCSBASE
  2

  9
$PUCSNAME
  2

  9
$PUCSORG
 10
0.0
 20
0.0
 30
0.0
  9
$PUCSXDIR
 10
1.0
 20
0.0
 30
0.0
  9
$PUCSYDIR
 10
0.0
 20
1.0
 30
0.0
  9
$PUCSORTHOREF
  2

  9
$PUCSORTHOVIEW
 70
     0
  9
$PUCSORGTOP
 10
0.0
 20
0.0
 30
0.0
  9
$PUCSORGBOTTOM
 10
0.0
 20
0.0
 30
0.0
  9
$PUCSORGLEFT
 10
0.0
 20
0.0
 30
0.0
  9
$PUCSORGRIGHT
 10
0.0
 20
0.0
 30
0.0
  9
$PUCSORGFRONT
 10
0.0
 20
0.0
 30
0.0
  9
$PUCSORGBACK
 10
0.0
 20
0.0
 30
0.0
  9
$USERI1
 70
     0
  9
$USERI2
 70
     0
  9
$USERI3
 70
     0
  9
$USERI4
 70
     0
  9
$USERI5
 70
     0
  9
$USERR1
 40
0.0
  9
$USERR2
 40
0.0
  9
$USERR3
 40
0.0
  9
$USERR4
 40
0.0
  9
$USERR5
 40
0.0
  9
$WORLDVIEW
 70
     1
  9
$SHADEDGE
 70
     3
  9
$SHADEDIF
 70
    70
  9
$TILEMODE
 70
     1
  9
$MAXACTVP
 70
    64
  9
$PINSBASE
 10
0.0
 20
0.0
 30
0.0
  9
$PLIMCHECK
 70
     0
  9
$PEXTMIN
 10
1.0000000000E+20
 20
1.0000000000E+20
 30
1.0000000000E+20
  9
$PEXTMAX
 10
-1.0000000000E+20
 20
-1.0000000000E+20
 30
-1.0000000000E+20
  9
$PLIMMIN
 10
0.0
 20
0.0
  9
$PLIMMAX
 10
420.0
 20
297.0
  9
$UNITMODE
 70
     0
  9
$VISRETAIN
 70
     1
  9
$PLINEGEN
 70
     0
  9
$PSLTSCALE
 70
     1
  9
$TREEDEPTH
 70
  3020
  9
$CMLSTYLE
  2
Standard
  9
$CMLJUST
 70
     0
  9
$CMLSCALE
 40
20.0
  9
$PROXYGRAPHICS
 70
     1
  9
$MEASUREMENT
 70
     1
  9
$CELWEIGHT
370
    -1
  9
$ENDCAPS
280
     0
  9
$JOINSTYLE
280
     0
  9
$LWDISPLAY
290
     1
  9
$INSUNITS
 70
     4
  9
$HYPERLINKBASE
  1

  9
$STYLESHEET
  1

  9
$XEDIT
290
     1
  9
$CEPSNTYPE
380
     0
  9
$PSTYLEMODE
290
     1
  9
$FINGERPRINTGUID
  2
{5FCB6066-61F5-45B3-B195-0ABBE6FD4E10}
  9
$VERSIONGUID
  2
{FAEB1C32-E019-11D5-929B-00C0DF256EC4}
  9
$EXTNAMES
290
     1
  9
$PSVPSCALE
 40
0.0
  9
$OLESTARTUP
290
     0
  0
ENDSEC
  0
SECTION
  2
CLASSES
  0
CLASS
  1
ACDBDICTIONARYWDFLT
  2
AcDbDictionaryWithDefault
  3
ObjectDBX Classes
 90
        0
280
     0
281
     0
  0
CLASS
  1
VISUALSTYLE
  2
AcDbVisualStyle
  3
ObjectDBX Classes
 90
     4095
280
     0
281
     0
  0
CLASS
  1
DICTIONARYVAR
  2
AcDbDictionaryVar
  3
ObjectDBX Classes
 90
        0
280
     0
281
     0
  0
CLASS
  1
ACDBPLACEHOLDER
  2
AcDbPlaceHolder
  3
ObjectDBX Classes
 90
        0
280
     0
281
     0
  0
CLASS
  1
LAYOUT
  2
AcDbLayout
  3
ObjectDBX Classes
 90
        0
280
     0
281
     0
  0
ENDSEC
  0
SECTION
  2
TABLES
  0
TABLE
  2
VPORT
  5
8
330
0
100
AcDbSymbolTable
 70
     1
  0
VPORT
  5
29
330
8
100
AcDbSymbolTableRecord
100
AcDbViewportTableRecord
  2
*Active
 70
     0
 10
0.0
 20
0.0
 11
1.0
 21
1.0
 12
420.5
 22
297.0
 13
0.0
 23
0.0
 14
10.0
 24
10.0
 15
10.0
 25
10.0
 16
0.0
 26
0.0
 36
1.0
 17
0.0
 27
0.0
 37
0.0
 40
594.0
 41
1.4158249158
 42
50.0
 43
0.0
 44
0.0
 50
0.0
 51
0.0
 71
     0
 72
  2000
 73
     1
 74
     3
 75
     0
 76
     0
 77
     0
 78
     0
281
     0
 65
     1
110
0.0
120
0.0
130
0.0
111
1.0
121
0.0
131
0.0
112
0.0
122
1.0
132
0.0
 79
     0
146
0.0
  0
ENDTAB
  0
TABLE
  2
LTYPE
  5
5
330
0
100
AcDbSymbolTable
 70
     6
  0
LTYPE
  5
14
330
5
100
AcDbSymbolTableRecord
100
AcDbLinetypeTableRecord
  2
ByBlock
 70
     0
  3

 72
    65
 73
     0
 40
0.0
  0
LTYPE
  5
15
330
5
100
AcDbSymbolTableRecord
100
AcDbLinetypeTableRecord
  2
ByLayer
 70
     0
  3

 72
    65
 73
     0
 40
0.0
  0
LTYPE
  5
16
330
5
100
AcDbSymbolTableRecord
100
AcDbLinetypeTableRecord
  2
Continuous
 70
     0
  3
Solid line
 72
    65
 73
     0
 40
0.0
  0
LTYPE
  5
3B
330
5
100
AcDbSymbolTableRecord
100
AcDbLinetypeTableRecord
  2
HIDDEN
 70
     0
  3
Hidden __ __ __ __ __ __ __ __ __ __ __ __ __ __
 72
    65
 73
     2
 40
1.905
 49
1.27
 74
     0
 49
-0.635
 74
     0
  0
LTYPE
  5
3C
330
5
100
AcDbSymbolTableRecord
100
AcDbLinetypeTableRecord
  2
PHANTOM
 70
     0
  3
Phantom ______  __  __  ______  __  __  ______
 72
    65
 73
     6
 40
12.7
 49
6.35
 74
     0
 49
-1.27
 74
     0
 49
1.27
 74
     0
 49
-1.27
 74
     0
 49
1.27
 74
     0
 49
-1.27
 74
     0
  0
LTYPE
  5
3D
330
5
100
AcDbSymbolTableRecord
100
AcDbLinetypeTableRecord
  2
CENTER
 70
     0
  3
Center ____ _ ____ _ ____ _ ____ _ ____ _ ____
 72
    65
 73
     4
 40
10.16
 49
6.35
 74
     0
 49
-1.27
 74
     0
 49
1.27
 74
     0
 49
-1.27
 74
     0
  0
LTYPE
  5
3E
330
5
100
AcDbSymbolTableRecord
100
AcDbLinetypeTableRecord
  2
CENTERX2
 70
     0
  3
Center (2x) ________  __  ________  __  _____
 72
    65
 73
     4
 40
20.32
 49
12.7
 74
     0
 49
-2.54
 74
     0
 49
2.54
 74
     0
 49
-2.54
 74
     0
  0
LTYPE
  5
3F
330
5
100
AcDbSymbolTableRecord
100
AcDbLinetypeTableRecord
  2
DOT2
 70
     0
  3
Dot (.5x) ........................................
 72
    65
 73
     2
 40
0.635
 49
0.0
 74
     0
 49
-0.635
 74
     0
  0
ENDTAB
  0
TABLE
  2
LAYER
  5
2
330
0
100
AcDbSymbolTable
 70
     4
  0
LAYER
  5
10
330
2
100
AcDbSymbolTableRecord
100
AcDbLayerTableRecord
  2
0
 70
     0
 62
     7
  6
Continuous
370
    -3
390
F
  0
LAYER
  5
40
330
2
100
AcDbSymbolTableRecord
100
AcDbLayerTableRecord
  2
SLD-0
 70
     0
 62
     3
  6
Continuous
370
    -3
390
F
  0
LAYER
  5
41
330
2
100
AcDbSymbolTableRecord
100
AcDbLayerTableRecord
  2
SLD-DEFPOINTS
 70
     0
 62
   179
  6
Continuous
370
    -3
390
F
  0
LAYER
  5
42
330
2
100
AcDbSymbolTableRecord
100
AcDbLayerTableRecord
  2
AM_REFDIM
 70
     0
 62
     4
  6
Continuous
370
    15
390
F
  0
ENDTAB
  0
TABLE
  2
STYLE
  5
3
330
0
100
AcDbSymbolTable
 70
     1
  0
STYLE
  5
11
330
3
100
AcDbSymbolTableRecord
100
AcDbTextStyleTableRecord
  2
Standard
 70
     0
 40
0.0
 41
1.0
 50
0.0
 71
     0
 42
2.5
  3
txt
  4
bigfont
  0
ENDTAB
  0
TABLE
  2
VIEW
  5
6
330
0
100
AcDbSymbolTable
 70
     0
  0
ENDTAB
  0
TABLE
  2
UCS
  5
7
330
0
100
AcDbSymbolTable
 70
     0
  0
ENDTAB
  0
TABLE
  2
APPID
  5
9
330
0
100
AcDbSymbolTable
 70
     1
  0
APPID
  5
12
330
9
100
AcDbSymbolTableRecord
100
AcDbRegAppTableRecord
  2
ACAD
 70
     0
  0
ENDTAB
  0
TABLE
  2
DIMSTYLE
  5
A
330
0
100
AcDbSymbolTable
 70
     1
100
AcDbDimStyleTable
  0
DIMSTYLE
105
27
330
A
100
AcDbSymbolTableRecord
100
AcDbDimStyleTableRecord
  2
ISO-25
 70
     0
 41
2.5
 42
0.625
 43
3.75
 44
1.25
 73
     0
 74
     0
 77
     1
 78
     8
140
2.5
141
2.5
143
0.0393700787
147
0.625
171
     3
172
     1
271
     2
272
     2
274
     3
278
    44
283
     0
284
     8
340
11
  0
ENDTAB
  0
TABLE
  2
BLOCK_RECORD
  5
1
330
0
100
AcDbSymbolTable
 70
     2
  0
BLOCK_RECORD
  5
1F
330
1
100
AcDbSymbolTableRecord
100
AcDbBlockTableRecord
  2
*Model_Space
340
22
  0
BLOCK_RECORD
  5
1B
330
1
100
AcDbSymbolTableRecord
100
AcDbBlockTableRecord
  2
*Paper_Space
340
1E
  0
BLOCK_RECORD
  5
23
330
1
100
AcDbSymbolTableRecord
100
AcDbBlockTableRecord
  2
*Paper_Space0
340
26
  0
BLOCK_RECORD
  5
32C
330
1
100
AcDbSymbolTableRecord
100
AcDbBlockTableRecord
  2
SW_CENTERMARKSYMBOL_0
340
0
102
{BLKREFS
331
337
102
}
  0
ENDTAB
  0
ENDSEC
  0
SECTION
  2
BLOCKS
  0
BLOCK
  5
20
330
1F
100
AcDbEntity
  8
0
100
AcDbBlockBegin
  2
*Model_Space
 70
     0
 10
0.0
 20
0.0
 30
0.0
  3
*Model_Space
  1

  0
ENDBLK
  5
21
330
1F
100
AcDbEntity
  8
0
100
AcDbBlockEnd
  0
BLOCK
  5
1C
330
1B
100
AcDbEntity
 67
     1
  8
0
100
AcDbBlockBegin
  2
*Paper_Space
 70
     0
 10
0.0
 20
0.0
 30
0.0
  3
*Paper_Space
  1

  0
ENDBLK
  5
1D
330
1B
100
AcDbEntity
 67
     1
  8
0
100
AcDbBlockEnd
  0
BLOCK
  5
24
330
23
100
AcDbEntity
  8
0
100
AcDbBlockBegin
  2
*Paper_Space0
 70
     0
 10
0.0
 20
0.0
 30
0.0
  3
*Paper_Space0
  1

  0
ENDBLK
  5
25
330
23
100
AcDbEntity
  8
0
100
AcDbBlockEnd
  0
BLOCK
  5
32D
330
32C
100
AcDbEntity
  8
0
100
AcDbBlockBegin
  2
SW_CENTERMARKSYMBOL_0
 70
     0
 10
0.0
 20
0.0
 30
0.0
  3
SW_CENTERMARKSYMBOL_0
  1

  0
LINE
  5
32F
330
32C
100
AcDbEntity
  8
SLD-0
 62
     0
100
AcDbLine
 10
0.0
 20
0.0
 30
0.0
 11
0.0
 21
2.5
 31
0.0
  0
LINE
  5
330
330
32C
100
AcDbEntity
  8
SLD-0
 62
     0
100
AcDbLine
 10
0.0
 20
0.0
 30
0.0
 11
-2.5
 21
0.0
 31
0.0
  0
LINE
  5
331
330
32C
100
AcDbEntity
  8
SLD-0
 62
     0
100
AcDbLine
 10
0.0
 20
0.0
 30
0.0
 11
0.0
 21
-2.5
 31
0.0
  0
LINE
  5
332
330
32C
100
AcDbEntity
  8
SLD-0
 62
     0
100
AcDbLine
 10
0.0
 20
0.0
 30
0.0
 11
2.5
 21
0.0
 31
0.0
  0
LINE
  5
333
330
32C
100
AcDbEntity
  8
SLD-0
 62
     0
100
AcDbLine
 10
0.0
 20
5.0
 30
0.0
 11
0.0
 21
162.6968549874
 31
0.0
  0
LINE
  5
334
330
32C
100
AcDbEntity
  8
SLD-0
 62
     0
100
AcDbLine
 10
-5.0
 20
0.0
 30
0.0
 11
-96.7555268563
 21
0.0
 31
0.0
  0
LINE
  5
335
330
32C
100
AcDbEntity
  8
SLD-0
 62
     0
100
AcDbLine
 10
0.0
 20
-5.0
 30
0.0
 11
0.0
 21
-131.0472948143
 31
0.0
  0
LINE
  5
336
330
32C
100
AcDbEntity
  8
SLD-0
 62
     0
100
AcDbLine
 10
5.0
 20
0.0
 30
0.0
 11
99.4497712578
 21
0.0
 31
0.0
  0
ENDBLK
  5
32E
330
32C
100
AcDbEntity
  8
0
100
AcDbBlockEnd
  0
ENDSEC
  0
SECTION
  2
ENTITIES
  0
LINE
  5
43
330
1F
100
AcDbEntity
  8
0
  6
Continuous
 62
     7
370
    15
100
AcDbLine
 10
326.1082192655
 20
388.5374488517
 30
0.0
 11
326.1082192655
 21
386.5374447986
 31
0.0
  0
LINE
  5
44
330
1F
100
AcDbEntity
  8
0
  6
Continuous
 62
     7
370
    15
100
AcDbLine
 10
386.1082365508
 20
386.5374447986
 30
0.0
 11
386.1082365508
 21
388.5374488517
 31
0.0
  0
LINE
  5
45
330
1F
100
AcDbEntity
  8
0
  6
Continuous
 62
     7
370
    15
100
AcDbLine
 10
391.1082317825
 20
246.5374442026
 30
0.0
 11
393.1082358356
 21
246.5374442026
 31
0.0
  0
LINE
  5
46
330
1F
100
AcDbEntity
  8
0
  6
Continuous
 62
     7
370
    15
100
AcDbLine
 10
393.1082358356
 20
306.5374465868
 30
0.0
 11
391.1082317825
 21
306.5374465868
 31
0.0
  0
LINE
  5
47
330
1F
100
AcDbEntity
  8
0
  6
Continuous
 62
     7
370
    15
100
AcDbLine
 10
393.3082094188
 20
246.5371834323
 30
0.0
 11
403.6525359149
 21
246.5371834323
 31
0.0
  0
LINE
  5
48
330
1F
100
AcDbEntity
  8
0
  6
Continuous
 62
     7
370
    15
100
AcDbLine
 10
403.6524763103
 20
306.5377148077
 30
0.0
 11
393.3082094188
 21
306.5377148077
 31
0.0
  0
ARC
  5
49
330
1F
100
AcDbEntity
  8
0
  6
Continuous
 62
     7
370
    15
100
AcDbCircle
 10
406.3082217689
 20
306.5374474212
 30
0.0
 40
1.000000000000028
100
AcDbArc
 50
228.5280627883
 51
270.0
  0
ARC
  5
4A
330
1F
100
AcDbEntity
  8
0
  6
Continuous
 62
     7
370
    15
100
AcDbCircle
 10
406.3082217689
 20
246.5374474212
 30
0.0
 40
1.0
100
AcDbArc
 50
90.0
 51
131.4458812967
  0
ARC
  5
4B
330
1F
100
AcDbEntity
  8
0
  6
Continuous
 62
     7
370
    15
100
AcDbCircle
 10
418.1082217689
 20
304.5374474212
 30
0.0
 40
1.0
100
AcDbArc
 50
0.0
 51
90.0
  0
ARC
  5
4C
330
1F
100
AcDbEntity
  8
0
  6
Continuous
 62
     7
370
    15
100
AcDbCircle
 10
418.1082217689
 20
248.5374474212
 30
0.0
 40
1.0
100
AcDbArc
 50
270.0
 51
0.0
  0
LINE
  5
4D
330
1F
100
AcDbEntity
  8
0
  6
Continuous
 62
     7
370
    15
100
AcDbLine
 10
406.3082208629
 20
247.5374462291
 30
0.0
 11
418.1082119937
 21
247.5374462291
 31
0.0
  0
LINE
  5
4E
330
1F
100
AcDbEntity
  8
0
  6
Continuous
 62
     7
370
    15
100
AcDbLine
 10
418.1082119937
 20
305.5374445602
 30
0.0
 11
406.3082208629
 21
305.5374445602
 31
0.0
  0
LINE
  5
4F
330
1F
100
AcDbEntity
  8
0
  6
Continuous
 62
     7
370
    15
100
AcDbLine
 10
393.1082358356
 20
248.5374482557
 30
0.0
 11
393.3082094188
 21
248.5374482557
 31
0.0
  0
LINE
  5
50
330
1F
100
AcDbEntity
  8
0
  6
Continuous
 62
     7
370
    15
100
AcDbLine
 10
393.3082094188
 20
304.5374425337
 30
0.0
 11
393.1082358356
 21
304.5374425337
 31
0.0
  0
LINE
  5
51
330
1F
100
AcDbEntity
  8
0
  6
Continuous
 62
     7
370
    15
100
AcDbLine
 10
403.6525359149
 20
306.5377148077
 30
0.0
 11
403.6524763103
 21
306.5377148077
 31
0.0
  0
LINE
  5
52
330
1F
100
AcDbEntity
  8
0
  6
Continuous
 62
     7
370
    15
100
AcDbLine
 10
386.1084749694
 20
388.7374522373
 30
0.0
 11
386.1084749694
 21
399.0817638323
 31
0.0
  0
LINE
  5
53
330
1F
100
AcDbEntity
  8
0
  6
Continuous
 62
     7
370
    15
100
AcDbLine
 10
326.1079510446
 20
399.0817042276
 30
0.0
 11
326.1079510446
 21
388.7374522373
 31
0.0
  0
ARC
  5
54
330
1F
100
AcDbEntity
  8
0
  6
Continuous
 62
     7
370
    15
100
AcDbCircle
 10
326.1082217689
 20
401.7374474212
 30
0.0
 40
1.000000000000057
100
AcDbArc
 50
318.5280627883
 51
0.0
  0
ARC
  5
55
330
1F
100
AcDbEntity
  8
0
  6
Continuous
 62
     7
370
    15
100
AcDbCircle
 10
386.1082217689
 20
401.7374474212
 30
0.0
 40
1.0
100
AcDbArc
 50
180.0
 51
221.4458812967
  0
LINE
  5
56
330
1F
100
AcDbEntity
  8
0
  6
Continuous
 62
     7
370
    15
100
AcDbLine
 10
385.1082196231
 20
401.7374487802
 30
0.0
 11
385.1082196231
 21
413.5374548122
 31
0.0
  0
LINE
  5
57
330
1F
100
AcDbEntity
  8
0
  6
Continuous
 62
     7
370
    15
100
AcDbLine
 10
327.1082212921
 20
413.5374548122
 30
0.0
 11
327.1082212921
 21
401.7374487802
 31
0.0
  0
ARC
  5
58
330
1F
100
AcDbEntity
  8
0
  6
Continuous
 62
     7
370
    15
100
AcDbCircle
 10
328.1082217689
 20
413.5374474212
 30
0.0
 40
1.0
100
AcDbArc
 50
90.0
 51
180.0
  0
ARC
  5
59
330
1F
100
AcDbEntity
  8
0
  6
Continuous
 62
     7
370
    15
100
AcDbCircle
 10
384.1082217689
 20
413.5374474212
 30
0.0
 40
1.0
100
AcDbArc
 50
0.0
 51
90.0
  0
LINE
  5
5A
330
1F
100
AcDbEntity
  8
0
  6
Continuous
 62
     7
370
    15
100
AcDbLine
 10
384.1082324977
 20
388.5374488517
 30
0.0
 11
384.1082324977
 21
388.7374522373
 31
0.0
  0
LINE
  5
5B
330
1F
100
AcDbEntity
  8
0
  6
Continuous
 62
     7
370
    15
100
AcDbLine
 10
328.1082233186
 20
388.7374522373
 30
0.0
 11
328.1082233186
 21
388.5374488517
 31
0.0
  0
LINE
  5
5C
330
1F
100
AcDbEntity
  8
0
  6
Continuous
 62
     7
370
    15
100
AcDbLine
 10
326.1079510446
 20
399.0817638323
 30
0.0
 11
326.1079510446
 21
399.0817042276
 31
0.0
  0
LWPOLYLINE
  5
5D
330
1F
100
AcDbEntity
  8
0
  6
Continuous
 62
     7
370
    15
100
AcDbPolyline
 90
       19
 70
   128
 43
0.0
 10
204.0582692023
 20
189.4483128771
 10
204.058611929
 20
189.1357423946
 10
204.0582468505
 20
188.398730962
 10
204.0584927197
 20
187.3603323683
 10
204.0585374232
 20
186.2367103085
 10
204.0585448738
 20
185.1525986776
 10
204.058611929
 20
184.2052499041
 10
204.0586789842
 20
183.4702948317
 10
204.0587311383
 20
182.9881658986
 10
204.0588503476
 20
181.8262478545
 10
204.0590142603
 20
179.9577912524
 10
204.0591781731
 20
175.316066502
 10
204.0592601295
 20
172.6975804403
 10
204.0593420859
 20
170.2683055982
 10
204.0592824812
 20
168.0885618761
 10
204.0589248534
 20
165.459115079
 10
204.0580456849
 20
161.4994574547
 10
204.0590664144
 20
156.1924622137
 10
204.0576582547
 20
149.5374473952
  0
LWPOLYLINE
  5
5E
330
1F
100
AcDbEntity
  8
0
  6
Continuous
 62
     7
370
    15
100
AcDbPolyline
 90
       18
 70
   128
 43
0.0
 10
214.1587903495
 20
149.5374473952
 10
214.1565104719
 20
154.810549945
 10
214.1584923263
 20
159.1212540142
 10
214.1581943031
 20
162.4930035531
 10
214.157628059
 20
164.9476913944
 10
214.1572629805
 20
167.0609414786
 10
214.1571065183
 20
169.1415505692
 10
214.1571214195
 20
171.2052347347
 10
214.1572033759
 20
173.3110426202
 10
214.1572555299
 20
177.5803612754
 10
214.1573002334
 20
179.8285981849
 10
214.1574939485
 20
182.3265524789
 10
214.1578366752
 20
184.8696517035
 10
214.1582390066
 20
187.1612752065
 10
214.1585966344
 20
188.1112838372
 10
214.1588127013
 20
188.8470547482
 10
214.1580229397
 20
189.2675841436
 10
214.1581645008
 20
189.440471141
  0
LINE
  5
5F
330
1F
100
AcDbEntity
  8
0
  6
Continuous
 62
     7
370
    15
100
AcDbLine
 10
379.6082308288
 20
224.8974489257
 30
0.0
 11
378.9500465389
 21
226.0374473616
 31
0.0
  0
LINE
  5
60
330
1F
100
AcDbEntity
  8
0
  6
Continuous
 62
     7
370
    15
100
AcDbLine
 10
378.9500465389
 20
209.0374464378
 30
0.0
 11
379.6082308288
 21
210.177448599
 31
0.0
  0
LINE
  5
61
330
1F
100
AcDbEntity
  8
0
  6
Continuous
 62
     7
370
    15
100
AcDbLine
 10
389.6082212921
 20
374.6482553169
 30
0.0
 11
386.1082365508
 21
374.5388807937
 31
0.0
  0
LINE
  5
62
330
1F
100
AcDbEntity
  8
0
  6
Continuous
 62
     7
370
    15
100
AcDbLine
 10
386.1082365508
 20
358.5360171482
 30
0.0
 11
389.6082212921
 21
358.4266277239
 31
0.0
  0
LINE
  5
63
330
1F
100
AcDbEntity
  8
0
  6
Continuous
 62
     7
370
    15
100
AcDbLine
 10
129.6082215156
 20
206.0374478087
 30
0.0
 11
131.1082226928
 21
206.0374478087
 31
0.0
  0
ARC
  5
64
330
1F
100
AcDbEntity
  8
0
  6
Continuous
 62
     7
370
    15
100
AcDbCircle
 10
127.054902487
 20
214.0374474212
 30
0.0
 40
7.999999999999988
100
AcDbArc
 50
195.2555633432
 51
221.9837056292
  0
LWPOLYLINE
  5
65
330
1F
100
AcDbEntity
  8
0
  6
Continuous
 62
     7
370
    15
100
AcDbPolyline
 90
        3
 70
   128
 43
0.0
 10
117.9520878247
 20
217.537445037
 10
118.3502238016
 20
215.80238363
 10
119.3368082638
 20
211.9324477598
  0
LINE
  5
66
330
1F
100
AcDbEntity
  8
0
  6
Continuous
 62
     7
370
    15
100
AcDbLine
 10
250.0936260219
 20
345.1374443456
 30
0.0
 11
166.1228222545
 21
345.1374443456
 31
0.0
  0
LINE
  5
67
330
1F
100
AcDbEntity
  8
0
  6
Continuous
 62
     7
370
    15
100
AcDbLine
 10
131.1082226928
 20
207.9374464437
 30
0.0
 11
154.1082208748
 21
207.9374464437
 31
0.0
  0
LINE
  5
68
330
1F
100
AcDbEntity
  8
0
  6
Continuous
 62
     7
370
    15
100
AcDbLine
 10
273.1082161661
 20
206.5374488219
 30
0.0
 11
321.6082175966
 21
206.5374488219
 31
0.0
  0
LINE
  5
69
330
1F
100
AcDbEntity
  8
0
  6
Continuous
 62
     7
370
    15
100
AcDbLine
 10
321.6082175966
 20
346.5374531433
 30
0.0
 11
291.1082228418
 21
346.5374531433
 31
0.0
  0
LINE
  5
6A
330
1F
100
AcDbEntity
  8
0
  6
Continuous
 62
     7
370
    15
100
AcDbLine
 10
318.1082179542
 20
296.5374412224
 30
0.0
 11
291.1082228418
 21
296.5374412224
 31
0.0
  0
LINE
  5
6B
330
1F
100
AcDbEntity
  8
0
  6
Continuous
 62
     7
370
    15
100
AcDbLine
 10
291.1082228418
 20
256.537449567
 30
0.0
 11
318.1082179542
 21
256.537449567
 31
0.0
  0
LINE
  5
6C
330
1F
100
AcDbEntity
  8
0
  6
Continuous
 62
     7
370
    15
100
AcDbLine
 10
318.1082179542
 20
303.9351674005
 30
0.0
 11
314.6082183118
 21
303.5374405071
 31
0.0
  0
LINE
  5
6D
330
1F
100
AcDbEntity
  8
0
  6
Continuous
 62
     7
370
    15
100
AcDbLine
 10
314.6082183118
 20
249.5374502823
 30
0.0
 11
318.1082179542
 21
249.1397233888
 31
0.0
  0
LINE
  5
6E
330
1F
100
AcDbEntity
  8
0
  6
Continuous
 62
     7
370
    15
100
AcDbLine
 10
291.1082228418
 20
339.229476659
 30
0.0
 11
318.1082179542
 21
339.229476659
 31
0.0
  0
LINE
  5
6F
330
1F
100
AcDbEntity
  8
0
  6
Continuous
 62
     7
370
    15
100
AcDbLine
 10
318.1082179542
 20
213.845421581
 30
0.0
 11
287.1082147355
 21
213.845421581
 31
0.0
  0
ARC
  5
70
330
1F
100
AcDbEntity
  8
0
  6
Continuous
 62
     7
370
    15
100
AcDbCircle
 10
321.6082217689
 20
343.5374474212
 30
0.0
 40
3.000000000001431
100
AcDbArc
 50
12.8395884068
 51
90.0
  0
ARC
  5
71
330
1F
100
AcDbEntity
  8
0
  6
Continuous
 62
     7
370
    15
100
AcDbCircle
 10
321.6082217689
 20
209.5374474212
 30
0.0
 40
3.000000000002918
100
AcDbArc
 50
270.0
 51
347.1604115933
  0
ARC
  5
72
330
1F
100
AcDbEntity
  8
0
  6
Continuous
 62
     7
370
    15
100
AcDbCircle
 10
325.9957039626
 20
344.5374474212
 30
0.0
 40
1.499999999999943
100
AcDbArc
 50
192.8395884071
 51
270.0
  0
ARC
  5
73
330
1F
100
AcDbEntity
  8
0
  6
Continuous
 62
     7
370
    15
100
AcDbCircle
 10
325.9957039626
 20
208.5374474212
 30
0.0
 40
1.499999999999915
100
AcDbArc
 50
90.0
 51
167.1604115926
  0
LINE
  5
74
330
1F
100
AcDbEntity
  8
0
  6
Continuous
 62
     7
370
    15
100
AcDbLine
 10
326.1082192655
 20
343.0374535009
 30
0.0
 11
325.9957005973
 21
343.0374535009
 31
0.0
  0
LINE
  5
75
330
1F
100
AcDbEntity
  8
0
  6
Continuous
 62
     7
370
    15
100
AcDbLine
 10
325.9957005973
 20
210.0374484643
 30
0.0
 11
326.1082192655
 21
210.0374484643
 31
0.0
  0
LINE
  5
76
330
1F
100
AcDbEntity
  8
0
  6
Continuous
 62
     7
370
    15
100
AcDbLine
 10
303.5448213811
 20
326.8374325916
 30
0.0
 11
314.6082183118
 21
299.2888959333
 31
0.0
  0
LINE
  5
77
330
1F
100
AcDbEntity
  8
0
  6
Continuous
 62
     7
370
    15
100
AcDbLine
 10
299.5020618434
 20
331.5374525472
 30
0.0
 11
301.6888966556
 21
326.092106311
 31
0.0
  0
LINE
  5
78
330
1F
100
AcDbEntity
  8
0
  6
Continuous
 62
     7
370
    15
100
AcDbLine
 10
370.1888492103
 20
229.3774830386
 30
0.0
 11
374.0350475307
 21
246.5374442026
 31
0.0
  0
LINE
  5
79
330
1F
100
AcDbEntity
  8
0
  6
Continuous
 62
     7
370
    15
100
AcDbLine
 10
370.3346421714
 20
323.0469348118
 30
0.0
 11
368.1082298751
 21
332.9802276775
 31
0.0
  0
LINE
  5
7A
330
1F
100
AcDbEntity
  8
0
  6
Continuous
 62
     7
370
    15
100
AcDbLine
 10
374.0350475307
 20
306.5374465868
 30
0.0
 11
371.4642992015
 21
318.0069597646
 31
0.0
  0
LINE
  5
7B
330
1F
100
AcDbEntity
  8
0
  6
Continuous
 62
     7
370
    15
100
AcDbLine
 10
326.1082192655
 20
386.5374447986
 30
0.0
 11
326.1082192655
 21
374.5374502823
 31
0.0
  0
LINE
  5
7C
330
1F
100
AcDbEntity
  8
0
  6
Continuous
 62
     7
370
    15
100
AcDbLine
 10
386.1082365508
 20
381.537449567
 30
0.0
 11
386.1082365508
 21
386.5374447986
 31
0.0
  0
LINE
  5
7D
330
1F
100
AcDbEntity
  8
0
  6
Continuous
 62
     7
370
    15
100
AcDbLine
 10
391.1082317825
 20
306.5374465868
 30
0.0
 11
374.022411346
 21
306.5374465868
 31
0.0
  0
LINE
  5
7E
330
1F
100
AcDbEntity
  8
0
  6
Continuous
 62
     7
370
    15
100
AcDbLine
 10
374.0218749042
 20
246.5374442026
 30
0.0
 11
391.1082317825
 21
246.5374442026
 31
0.0
  0
LWPOLYLINE
  5
7F
330
1F
100
AcDbEntity
  8
0
  6
Continuous
 62
     7
370
    15
100
AcDbPolyline
 90
        3
 70
   128
 43
0.0
 10
337.2031768556
 20
374.5314004108
 10
337.5541141029
 20
372.9046555444
 10
338.2726480956
 20
369.566974251
  0
LWPOLYLINE
  5
80
330
1F
100
AcDbEntity
  8
0
  6
Continuous
 62
     7
370
    15
100
AcDbPolyline
 90
        6
 70
   128
 43
0.0
 10
338.2729759212
 20
369.5655139372
 10
339.4598832126
 20
364.1929896757
 10
340.6020870204
 20
359.2205764934
 10
341.6781594749
 20
354.7005178615
 10
343.0899103876
 20
348.7457754299
 10
344.1082259412
 20
343.6423214361
  0
ARC
  5
81
330
1F
100
AcDbEntity
  8
0
  6
Continuous
 62
     7
370
    15
100
AcDbCircle
 10
466.3957029139
 20
327.0864566302
 30
0.0
 40
99.67208242942121
100
AcDbArc
 50
165.7473275729
 51
170.4386648542
  0
LINE
  5
82
330
1F
100
AcDbEntity
  8
0
  6
Continuous
 62
     7
370
    15
100
AcDbLine
 10
351.3827940221
 20
205.4567570075
 30
0.0
 11
368.1082298751
 21
205.4567570075
 31
0.0
  0
LINE
  5
83
330
1F
100
AcDbEntity
  8
0
  6
Continuous
 62
     7
370
    15
100
AcDbLine
 10
369.7713186737
 20
351.5374483749
 30
0.0
 11
386.1082365508
 21
351.5374483749
 31
0.0
  0
LINE
  5
84
330
1F
100
AcDbEntity
  8
0
  6
Continuous
 62
     7
370
    15
100
AcDbLine
 10
356.1082204576
 20
205.5374467954
 30
0.0
 11
372.6082315441
 21
205.5374467954
 31
0.0
  0
LINE
  5
85
330
1F
100
AcDbEntity
  8
0
  6
Continuous
 62
     7
370
    15
100
AcDbLine
 10
372.6082315441
 20
229.537447004
 30
0.0
 11
370.2247014041
 21
229.537447004
 31
0.0
  0
LINE
  5
86
330
1F
100
AcDbEntity
  8
0
  6
Continuous
 62
     7
370
    15
100
AcDbLine
 10
371.9764521118
 20
320.1835276767
 30
0.0
 11
371.3928034301
 21
322.7874459907
 31
0.0
  0
LINE
  5
87
330
1F
100
AcDbEntity
  8
0
  6
Continuous
 62
     7
370
    15
100
AcDbLine
 10
326.1082192655
 20
210.0374484643
 30
0.0
 11
327.6082148548
 21
210.0374484643
 31
0.0
  0
LINE
  5
88
330
1F
100
AcDbEntity
  8
0
  6
Continuous
 62
     7
370
    15
100
AcDbLine
 10
344.0692743059
 20
343.0374535009
 30
0.0
 11
326.1082192655
 21
343.0374535009
 31
0.0
  0
LINE
  5
89
330
1F
100
AcDbEntity
  8
0
  6
Continuous
 62
     7
370
    15
100
AcDbLine
 10
348.0669876333
 20
388.5374488517
 30
0.0
 11
364.1494681831
 21
388.5374488517
 31
0.0
  0
LINE
  5
8A
330
1F
100
AcDbEntity
  8
0
  6
Continuous
 62
     7
370
    15
100
AcDbLine
 10
326.1082192655
 20
388.5374488517
 30
0.0
 11
348.0669876333
 21
388.5374488517
 31
0.0
  0
LINE
  5
8B
330
1F
100
AcDbEntity
  8
0
  6
Continuous
 62
     7
370
    15
100
AcDbLine
 10
386.1082365508
 20
388.5374488517
 30
0.0
 11
364.1494681831
 21
388.5374488517
 31
0.0
  0
LINE
  5
8C
330
1F
100
AcDbEntity
  8
0
  6
Continuous
 62
     7
370
    15
100
AcDbLine
 10
393.1082358356
 20
268.4962125703
 30
0.0
 11
393.1082358356
 21
284.578678219
 31
0.0
  0
LINE
  5
8D
330
1F
100
AcDbEntity
  8
0
  6
Continuous
 62
     7
370
    15
100
AcDbLine
 10
393.1082358356
 20
246.5374442026
 30
0.0
 11
393.1082358356
 21
268.4962125703
 31
0.0
  0
LINE
  5
8E
330
1F
100
AcDbEntity
  8
0
  6
Continuous
 62
     7
370
    15
100
AcDbLine
 10
393.1082358356
 20
306.5374465868
 30
0.0
 11
393.1082358356
 21
284.578678219
 31
0.0
  0
LINE
  5
8F
330
1F
100
AcDbEntity
  8
0
  6
Continuous
 62
     7
370
    15
100
AcDbLine
 10
405.3082337375
 20
283.146095483
 30
0.0
 11
405.3082337375
 21
269.9287953064
 31
0.0
  0
LINE
  5
90
330
1F
100
AcDbEntity
  8
0
  6
Continuous
 62
     7
370
    15
100
AcDbLine
 10
393.3082094188
 20
285.2330478117
 30
0.0
 11
393.3082094188
 21
267.8418504283
 31
0.0
  0
LINE
  5
91
330
1F
100
AcDbEntity
  8
0
  6
Continuous
 62
     7
370
    15
100
AcDbLine
 10
403.6624600883
 20
246.5374442026
 30
0.0
 11
403.6525359149
 21
246.5432407543
 31
0.0
  0
LINE
  5
92
330
1F
100
AcDbEntity
  8
0
  6
Continuous
 62
     7
370
    15
100
AcDbLine
 10
393.3082094188
 20
267.8418504283
 30
0.0
 11
393.3082094188
 21
246.5371834323
 31
0.0
  0
LINE
  5
93
330
1F
100
AcDbEntity
  8
0
  6
Continuous
 62
     7
370
    15
100
AcDbLine
 10
405.3082337375
 20
269.9287953064
 30
0.0
 11
405.3082337375
 21
251.5945704862
 31
0.0
  0
LINE
  5
94
330
1F
100
AcDbEntity
  8
0
  6
Continuous
 62
     7
370
    15
100
AcDbLine
 10
405.3082337375
 20
301.4803203031
 30
0.0
 11
405.3082337375
 21
283.146095483
 31
0.0
  0
LINE
  5
95
330
1F
100
AcDbEntity
  8
0
  6
Continuous
 62
     7
370
    15
100
AcDbLine
 10
403.6524763103
 20
306.5316053316
 30
0.0
 11
403.6624600883
 21
306.5374465868
 31
0.0
  0
LINE
  5
96
330
1F
100
AcDbEntity
  8
0
  6
Continuous
 62
     7
370
    15
100
AcDbLine
 10
393.3082094188
 20
285.2330478117
 30
0.0
 11
393.3082094188
 21
306.5377148077
 31
0.0
  0
LINE
  5
97
330
1F
100
AcDbEntity
  8
0
  6
Continuous
 62
     7
370
    15
100
AcDbLine
 10
405.3258767124
 20
302.0989271089
 30
0.0
 11
405.3082337375
 21
301.4803203031
 31
0.0
  0
LINE
  5
98
330
1F
100
AcDbEntity
  8
0
  6
Continuous
 62
     7
370
    15
100
AcDbLine
 10
405.3082337375
 20
251.5945704862
 30
0.0
 11
405.3144624229
 21
251.3731094286
 31
0.0
  0
LINE
  5
99
330
1F
100
AcDbEntity
  8
0
  6
Continuous
 62
     7
370
    15
100
AcDbLine
 10
419.1082289215
 20
304.5374425337
 30
0.0
 11
419.1082289215
 21
248.5374482557
 31
0.0
  0
ARC
  5
9A
330
1F
100
AcDbEntity
  8
0
  6
Continuous
 62
     7
370
    15
100
AcDbCircle
 10
403.6624401492
 20
249.5375197119
 30
0.0
 40
3.000075509377732
100
AcDbArc
 50
270.0003807991
 51
311.4092285004
  0
ARC
  5
9B
330
1F
100
AcDbEntity
  8
0
  6
Continuous
 62
     7
370
    15
100
AcDbCircle
 10
403.6624401492
 20
303.5373710775
 30
0.0
 40
3.000075509377648
100
AcDbArc
 50
48.5907714996
 51
89.9996192009
  0
LINE
  5
9C
330
1F
100
AcDbEntity
  8
0
  6
Continuous
 62
     7
370
    15
100
AcDbLine
 10
403.6524763103
 20
246.5432929084
 30
0.0
 11
403.6624600883
 21
246.5374442026
 31
0.0
  0
LINE
  5
9D
330
1F
100
AcDbEntity
  8
0
  6
Continuous
 62
     7
370
    15
100
AcDbLine
 10
403.6624600883
 20
306.5374465868
 30
0.0
 11
403.6525359149
 21
306.5316500351
 31
0.0
  0
LINE
  5
9E
330
1F
100
AcDbEntity
  8
0
  6
Continuous
 62
     7
370
    15
100
AcDbLine
 10
349.4995703693
 20
400.7374467537
 30
0.0
 11
362.7168705459
 21
400.7374467537
 31
0.0
  0
LINE
  5
9F
330
1F
100
AcDbEntity
  8
0
  6
Continuous
 62
     7
370
    15
100
AcDbLine
 10
347.4126329418
 20
388.7374522373
 30
0.0
 11
364.8038079734
 21
388.7374522373
 31
0.0
  0
LINE
  5
A0
330
1F
100
AcDbEntity
  8
0
  6
Continuous
 62
     7
370
    15
100
AcDbLine
 10
386.1082365508
 20
399.0916880056
 30
0.0
 11
386.102425098
 21
399.0817638323
 31
0.0
  0
LINE
  5
A1
330
1F
100
AcDbEntity
  8
0
  6
Continuous
 62
     7
370
    15
100
AcDbLine
 10
364.8038079734
 20
388.7374522373
 30
0.0
 11
386.1084749694
 21
388.7374522373
 31
0.0
  0
LINE
  5
A2
330
1F
100
AcDbEntity
  8
0
  6
Continuous
 62
     7
370
    15
100
AcDbLine
 10
362.7168705459
 20
400.7374467537
 30
0.0
 11
381.0511102672
 21
400.7374467537
 31
0.0
  0
LINE
  5
A3
330
1F
100
AcDbEntity
  8
0
  6
Continuous
 62
     7
370
    15
100
AcDbLine
 10
326.1140605207
 20
399.0817042276
 30
0.0
 11
326.1082192655
 21
399.0916880056
 31
0.0
  0
LINE
  5
A4
330
1F
100
AcDbEntity
  8
0
  6
Continuous
 62
     7
370
    15
100
AcDbLine
 10
347.4126329418
 20
388.7374522373
 30
0.0
 11
326.1079510446
 21
388.7374522373
 31
0.0
  0
LINE
  5
A5
330
1F
100
AcDbEntity
  8
0
  6
Continuous
 62
     7
370
    15
100
AcDbLine
 10
331.1653455491
 20
400.7374467537
 30
0.0
 11
349.4995703693
 21
400.7374467537
 31
0.0
  0
LINE
  5
A6
330
1F
100
AcDbEntity
  8
0
  6
Continuous
 62
     7
370
    15
100
AcDbLine
 10
381.0511102672
 20
400.7374467537
 30
0.0
 11
381.2725713249
 21
400.7436903402
 31
0.0
  0
LINE
  5
A7
330
1F
100
AcDbEntity
  8
0
  6
Continuous
 62
     7
370
    15
100
AcDbLine
 10
330.5467387433
 20
400.7551046297
 30
0.0
 11
331.1653455491
 21
400.7374467537
 31
0.0
  0
LINE
  5
A8
330
1F
100
AcDbEntity
  8
0
  6
Continuous
 62
     7
370
    15
100
AcDbLine
 10
384.1082324977
 20
414.5374419376
 30
0.0
 11
328.1082233186
 21
414.5374419376
 31
0.0
  0
ARC
  5
A9
330
1F
100
AcDbEntity
  8
0
  6
Continuous
 62
     7
370
    15
100
AcDbCircle
 10
383.1080600922
 20
399.0916299112
 30
0.0
 40
3.000176459256346
100
AcDbArc
 50
0.0011094554
 51
41.4084998441
  0
ARC
  5
AA
330
1F
100
AcDbEntity
  8
0
  6
Continuous
 62
     7
370
    15
100
AcDbCircle
 10
329.1082947748
 20
399.0916680665
 30
0.0
 40
3.000075509377703
100
AcDbArc
 50
138.5907714996
 51
179.9996192009
  0
LINE
  5
AB
330
1F
100
AcDbEntity
  8
0
  6
Continuous
 62
     7
370
    15
100
AcDbLine
 10
386.1023654933
 20
399.0817042276
 30
0.0
 11
386.1082365508
 21
399.0916880056
 31
0.0
  0
LINE
  5
AC
330
1F
100
AcDbEntity
  8
0
  6
Continuous
 62
     7
370
    15
100
AcDbLine
 10
326.1082192655
 20
399.0916880056
 30
0.0
 11
326.1140158172
 21
399.0817638323
 31
0.0
  0
LINE
  5
AD
330
1F
100
AcDbEntity
  8
0
  6
Continuous
 62
     7
370
    15
100
AcDbLine
 10
214.1582241054
 20
149.5374473952
 30
0.0
 11
204.0582244988
 21
149.5374473952
 31
0.0
  0
ARC
  5
AE
330
1F
100
AcDbEntity
  8
0
  6
Continuous
 62
     7
370
    15
100
AcDbCircle
 10
209.1175363743
 20
189.5586356327
 30
0.0
 40
5.04073226053572
100
AcDbArc
 50
359.7591676602
 51
181.3872119574
  0
ARC
  5
AF
330
1F
100
AcDbEntity
  8
0
  6
Continuous
 62
     7
370
    15
100
AcDbCircle
 10
209.1082217689
 20
189.5374474212
 30
0.0
 40
6.250000000000028
100
AcDbArc
 50
325.3387929305
 51
180.0
  0
ARC
  5
B0
330
1F
100
AcDbEntity
  8
0
  6
Continuous
 62
     7
370
    15
100
AcDbCircle
 10
209.1082217689
 20
189.5374474212
 30
0.0
 40
6.250000000000028
100
AcDbArc
 50
180.0
 51
215.2543415419
  0
ARC
  5
B1
330
1F
100
AcDbEntity
  8
0
  6
Continuous
 62
     7
370
    15
100
AcDbCircle
 10
209.1082217689
 20
189.5374474212
 30
0.0
 40
10.0
100
AcDbArc
 50
0.0
 51
239.4151499645
  0
ARC
  5
B2
330
1F
100
AcDbEntity
  8
0
  6
Continuous
 62
     7
370
    15
100
AcDbCircle
 10
209.1082217689
 20
189.5374474212
 30
0.0
 40
10.0
100
AcDbArc
 50
300.3451037055
 51
0.0
  0
ARC
  5
B3
330
1F
100
AcDbEntity
  8
0
  6
Continuous
 62
     7
370
    15
100
AcDbCircle
 10
375.721911114
 20
223.9124486431
 30
0.0
 40
3.864773974663574
100
AcDbArc
 50
326.6441157127
 51
33.3558842873
  0
LINE
  5
B4
330
1F
100
AcDbEntity
  8
0
  6
Continuous
 62
     7
370
    15
100
AcDbLine
 10
379.6082308288
 20
224.8974489257
 30
0.0
 11
379.6082308288
 21
218.787443845
 31
0.0
  0
LINE
  5
B5
330
1F
100
AcDbEntity
  8
0
  6
Continuous
 62
     7
370
    15
100
AcDbLine
 10
379.5466890331
 20
218.787443845
 30
0.0
 11
379.6082308288
 21
218.787443845
 31
0.0
  0
LINE
  5
B6
330
1F
100
AcDbEntity
  8
0
  6
Continuous
 62
     7
370
    15
100
AcDbLine
 10
379.5466890331
 20
218.787443845
 30
0.0
 11
378.9500465389
 21
221.7874499246
 31
0.0
  0
ARC
  5
B7
330
1F
100
AcDbEntity
  8
0
  6
Continuous
 62
     7
370
    15
100
AcDbCircle
 10
375.7734113369
 20
211.1624470189
 30
0.0
 40
3.82186324670981
100
AcDbArc
 50
326.2195753316
 51
33.7804246684
  0
LWPOLYLINE
  5
B8
330
1F
100
AcDbEntity
  8
0
  6
Continuous
 62
     7
370
    15
100
AcDbPolyline
 90
        3
 70
   128
 43
0.0
 10
378.9500465389
 20
213.2874476
 10
379.2288472648
 20
214.361486046
 10
379.5466890331
 20
216.2874462291
  0
LINE
  5
B9
330
1F
100
AcDbEntity
  8
0
  6
Continuous
 62
     7
370
    15
100
AcDbLine
 10
379.6082308288
 20
216.2874462291
 30
0.0
 11
379.5466890331
 21
216.2874462291
 31
0.0
  0
LINE
  5
BA
330
1F
100
AcDbEntity
  8
0
  6
Continuous
 62
     7
370
    15
100
AcDbLine
 10
379.6082308288
 20
216.2874462291
 30
0.0
 11
379.6082308288
 21
210.177448599
 31
0.0
  0
LINE
  5
BB
330
1F
100
AcDbEntity
  8
0
  6
Continuous
 62
     7
370
    15
100
AcDbLine
 10
376.608209848
 20
218.787443845
 30
0.0
 11
376.608209848
 21
216.2874462291
 31
0.0
  0
LINE
  5
BC
330
1F
100
AcDbEntity
  8
0
  6
Continuous
 62
     7
370
    15
100
AcDbLine
 10
376.608209848
 20
216.2874462291
 30
0.0
 11
379.5466890331
 21
216.2874462291
 31
0.0
  0
LINE
  5
BD
330
1F
100
AcDbEntity
  8
0
  6
Continuous
 62
     7
370
    15
100
AcDbLine
 10
372.6082315441
 20
213.2874476
 30
0.0
 11
378.9500465389
 21
213.2874476
 31
0.0
  0
LINE
  5
BE
330
1F
100
AcDbEntity
  8
0
  6
Continuous
 62
     7
370
    15
100
AcDbLine
 10
372.6082315441
 20
221.7874499246
 30
0.0
 11
378.9500465389
 21
221.7874499246
 31
0.0
  0
LINE
  5
BF
330
1F
100
AcDbEntity
  8
0
  6
Continuous
 62
     7
370
    15
100
AcDbLine
 10
376.608209848
 20
218.787443845
 30
0.0
 11
379.5466890331
 21
218.787443845
 31
0.0
  0
LINE
  5
C0
330
1F
100
AcDbEntity
  8
0
  6
Continuous
 62
     7
370
    15
100
AcDbLine
 10
372.6082315441
 20
226.0374473616
 30
0.0
 11
378.9500465389
 21
226.0374473616
 31
0.0
  0
LINE
  5
C1
330
1F
100
AcDbEntity
  8
0
  6
Continuous
 62
     7
370
    15
100
AcDbLine
 10
372.6082315441
 20
209.0374464378
 30
0.0
 11
378.9500465389
 21
209.0374464378
 31
0.0
  0
LINE
  5
C2
330
1F
100
AcDbEntity
  8
0
  6
Continuous
 62
     7
370
    15
100
AcDbLine
 10
389.6082212921
 20
372.5374462291
 30
0.0
 11
389.6082212921
 21
374.6482553169
 31
0.0
  0
LINE
  5
C3
330
1F
100
AcDbEntity
  8
0
  6
Continuous
 62
     7
370
    15
100
AcDbLine
 10
389.6082212921
 20
371.9950439617
 30
0.0
 11
389.6082212921
 21
372.5374462291
 31
0.0
  0
LINE
  5
C4
330
1F
100
AcDbEntity
  8
0
  6
Continuous
 62
     7
370
    15
100
AcDbLine
 10
389.6082212921
 20
361.0798539802
 30
0.0
 11
389.6082212921
 21
371.9950439617
 31
0.0
  0
LINE
  5
C5
330
1F
100
AcDbEntity
  8
0
  6
Continuous
 62
     7
370
    15
100
AcDbLine
 10
389.6082212921
 20
360.5374517128
 30
0.0
 11
389.6082212921
 21
361.0798539802
 31
0.0
  0
LINE
  5
C6
330
1F
100
AcDbEntity
  8
0
  6
Continuous
 62
     7
370
    15
100
AcDbLine
 10
389.6082212921
 20
358.4266277239
 30
0.0
 11
389.6082212921
 21
360.5374517128
 31
0.0
  0
LINE
  5
C7
330
1F
100
AcDbEntity
  8
0
  6
Continuous
 62
     7
370
    15
100
AcDbLine
 10
389.6082212921
 20
372.5374462291
 30
0.0
 11
398.6082246299
 21
372.5374462291
 31
0.0
  0
LINE
  5
C8
330
1F
100
AcDbEntity
  8
0
  6
Continuous
 62
     7
370
    15
100
AcDbLine
 10
398.6082246299
 20
371.9950439617
 30
0.0
 11
389.6082212921
 21
371.9950439617
 31
0.0
  0
LINE
  5
C9
330
1F
100
AcDbEntity
  8
0
  6
Continuous
 62
     7
370
    15
100
AcDbLine
 10
398.6082246299
 20
372.5374462291
 30
0.0
 11
398.6082246299
 21
371.9950439617
 31
0.0
  0
LINE
  5
CA
330
1F
100
AcDbEntity
  8
0
  6
Continuous
 62
     7
370
    15
100
AcDbLine
 10
389.6082212921
 20
361.0798539802
 30
0.0
 11
398.6082246299
 21
361.0798539802
 31
0.0
  0
LINE
  5
CB
330
1F
100
AcDbEntity
  8
0
  6
Continuous
 62
     7
370
    15
100
AcDbLine
 10
398.6082246299
 20
371.9950439617
 30
0.0
 11
398.6082246299
 21
361.0798539802
 31
0.0
  0
LINE
  5
CC
330
1F
100
AcDbEntity
  8
0
  6
Continuous
 62
     7
370
    15
100
AcDbLine
 10
398.6082246299
 20
360.5374517128
 30
0.0
 11
389.6082212921
 21
360.5374517128
 31
0.0
  0
LINE
  5
CD
330
1F
100
AcDbEntity
  8
0
  6
Continuous
 62
     7
370
    15
100
AcDbLine
 10
398.6082246299
 20
361.0798539802
 30
0.0
 11
398.6082246299
 21
360.5374517128
 31
0.0
  0
LINE
  5
CE
330
1F
100
AcDbEntity
  8
0
  6
Continuous
 62
     7
370
    15
100
AcDbLine
 10
131.1082226928
 20
217.537445037
 30
0.0
 11
131.1082226928
 21
206.0374478087
 31
0.0
  0
LINE
  5
CF
330
1F
100
AcDbEntity
  8
0
  6
Continuous
 62
     7
370
    15
100
AcDbLine
 10
127.0549028884
 20
211.5492345974
 30
0.0
 11
129.6082215156
 21
211.5492345974
 31
0.0
  0
ARC
  5
D0
330
1F
100
AcDbEntity
  8
0
  6
Continuous
 62
     7
370
    15
100
AcDbCircle
 10
127.4815967858
 20
218.6567919385
 30
0.0
 40
7.120353856394804
100
AcDbArc
 50
206.4796960217
 51
266.5644382117
  0
LINE
  5
D1
330
1F
100
AcDbEntity
  8
0
  6
Continuous
 62
     7
370
    15
100
AcDbLine
 10
121.108221985
 20
215.4819639608
 30
0.0
 11
121.108221985
 21
181.5374465868
 31
0.0
  0
LINE
  5
D2
330
1F
100
AcDbEntity
  8
0
  6
Continuous
 62
     7
370
    15
100
AcDbLine
 10
129.6082215156
 20
211.5492345974
 30
0.0
 11
129.6082215156
 21
185.8675750181
 31
0.0
  0
LINE
  5
D3
330
1F
100
AcDbEntity
  8
0
  6
Continuous
 62
     7
370
    15
100
AcDbLine
 10
121.108221985
 20
181.5374465868
 30
0.0
 11
129.6082215156
 21
181.5374465868
 31
0.0
  0
LINE
  5
D4
330
1F
100
AcDbEntity
  8
0
  6
Continuous
 62
     7
370
    15
100
AcDbLine
 10
171.608222812
 20
223.3006628439
 30
0.0
 11
163.8164838548
 21
223.3006628439
 31
0.0
  0
LWPOLYLINE
  5
D5
330
1F
100
AcDbEntity
  8
0
  6
Continuous
 62
     7
370
    15
100
AcDbPolyline
 90
        6
 70
   128
 43
0.0
 10
175.1082224544
 20
225.5773665592
 10
174.9113110598
 20
224.8091297433
 10
174.3422543402
 20
224.1396578237
 10
173.4656190272
 20
223.6387478396
 10
172.3795069154
 20
223.3549701258
 10
171.608222812
 20
223.3006628439
  0
LINE
  5
D6
330
1F
100
AcDbEntity
  8
0
  6
Continuous
 62
     7
370
    15
100
AcDbLine
 10
175.1082224544
 20
225.6182255432
 30
0.0
 11
175.1082224544
 21
225.5773665592
 31
0.0
  0
LWPOLYLINE
  5
D7
330
1F
100
AcDbEntity
  8
0
  6
Continuous
 62
     7
370
    15
100
AcDbPolyline
 90
        3
 70
   128
 43
0.0
 10
174.9184263642
 20
226.3110326811
 10
175.0225109752
 20
226.137829034
 10
175.1082224544
 20
225.6182255432
  0
LWPOLYLINE
  5
D8
330
1F
100
AcDbEntity
  8
0
  6
Continuous
 62
     7
370
    15
100
AcDbPolyline
 90
        3
 70
   128
 43
0.0
 10
227.3218428488
 20
252.5374489113
 10
227.1939312811
 20
252.8285207435
 10
227.1082198019
 20
253.5531344101
  0
LINE
  5
D9
330
1F
100
AcDbEntity
  8
0
  6
Continuous
 62
     7
370
    15
100
AcDbLine
 10
252.1082183118
 20
253.5531344101
 30
0.0
 11
251.9244273897
 21
252.5374489113
 31
0.0
  0
LINE
  5
DA
330
1F
100
AcDbEntity
  8
0
  6
Continuous
 62
     7
370
    15
100
AcDbLine
 10
252.1082183118
 20
253.5531344101
 30
0.0
 11
252.1082183118
 21
253.6106230899
 31
0.0
  0
ARC
  5
DB
330
1F
100
AcDbEntity
  8
0
  6
Continuous
 62
     7
370
    15
100
AcDbCircle
 10
230.2815980045
 20
253.6119483199
 30
0.0
 40
3.173378479224583
100
AcDbArc
 50
121.7295409751
 51
180.0239272067
  0
LINE
  5
DC
330
1F
100
AcDbEntity
  8
0
  6
Continuous
 62
     7
370
    15
100
AcDbLine
 10
227.1082198019
 20
253.6106230899
 30
0.0
 11
227.1082198019
 21
253.5531344101
 31
0.0
  0
LWPOLYLINE
  5
DD
330
1F
100
AcDbEntity
  8
0
  6
Continuous
 62
     7
370
    15
100
AcDbPolyline
 90
        6
 70
   128
 43
0.0
 10
230.6082194443
 20
223.3006628439
 10
229.4497286673
 20
223.4253110573
 10
228.4218465681
 20
223.787662594
 10
227.6405637856
 20
224.3530871555
 10
227.1939312811
 20
225.0646995589
 10
227.1082198019
 20
225.5773665592
  0
LINE
  5
DE
330
1F
100
AcDbEntity
  8
0
  6
Continuous
 62
     7
370
    15
100
AcDbLine
 10
230.6082194443
 20
223.3006628439
 30
0.0
 11
248.6082186695
 21
223.3006628439
 31
0.0
  0
ARC
  5
DF
330
1F
100
AcDbEntity
  8
0
  6
Continuous
 62
     7
370
    15
100
AcDbCircle
 10
248.9344601423
 20
226.9879120689
 30
0.0
 40
3.701653731275563
100
AcDbArc
 50
264.9437346583
 51
313.3299811891
  0
LINE
  5
E0
330
1F
100
AcDbEntity
  8
0
  6
Continuous
 62
     7
370
    15
100
AcDbLine
 10
227.1082198019
 20
225.6182255432
 30
0.0
 11
227.2823324199
 21
226.3110326811
 31
0.0
  0
LINE
  5
E1
330
1F
100
AcDbEntity
  8
0
  6
Continuous
 62
     7
370
    15
100
AcDbLine
 10
227.1082198019
 20
225.6182255432
 30
0.0
 11
227.1082198019
 21
225.5773665592
 31
0.0
  0
LWPOLYLINE
  5
E2
330
1F
100
AcDbEntity
  8
0
  6
Continuous
 62
     7
370
    15
100
AcDbPolyline
 90
        6
 70
   128
 43
0.0
 10
150.1082202192
 20
209.8681004926
 10
150.3051316138
 20
210.1505035743
 10
150.8741883333
 20
210.4169959411
 10
151.7508236463
 20
210.6294604227
 10
152.8369357582
 20
210.7549840793
 10
153.6082235868
 20
210.7794406101
  0
LINE
  5
E3
330
1F
100
AcDbEntity
  8
0
  6
Continuous
 62
     7
370
    15
100
AcDbLine
 10
150.1082202192
 20
209.853758125
 30
0.0
 11
150.1082202192
 21
209.8681004926
 31
0.0
  0
LWPOLYLINE
  5
E4
330
1F
100
AcDbEntity
  8
0
  6
Continuous
 62
     7
370
    15
100
AcDbPolyline
 90
        6
 70
   128
 43
0.0
 10
153.6082235868
 20
209.1191197023
 10
152.4497290845
 20
209.1558585152
 10
151.4218432601
 20
209.2650654003
 10
150.6405679281
 20
209.4424041197
 10
150.1939316984
 20
209.6770974085
 10
150.1082202192
 20
209.853758125
  0
LINE
  5
E5
330
1F
100
AcDbEntity
  8
0
  6
Continuous
 62
     7
370
    15
100
AcDbLine
 10
154.1082208748
 20
209.1191197023
 30
0.0
 11
153.6082235868
 21
209.1191197023
 31
0.0
  0
LINE
  5
E6
330
1F
100
AcDbEntity
  8
0
  6
Continuous
 62
     7
370
    15
100
AcDbLine
 10
154.1082208748
 20
210.7794406101
 30
0.0
 11
153.6082235868
 21
210.7794406101
 31
0.0
  0
LWPOLYLINE
  5
E7
330
1F
100
AcDbEntity
  8
0
  6
Continuous
 62
     7
370
    15
100
AcDbPolyline
 90
        5
 70
   128
 43
0.0
 10
150.1082202192
 20
215.8973934337
 10
150.3051316138
 20
216.4476560637
 10
150.8741883333
 20
216.9503839895
 10
151.7508236463
 20
217.3413979098
 10
152.6872349675
 20
217.537445037
  0
LINE
  5
E8
330
1F
100
AcDbEntity
  8
0
  6
Continuous
 62
     7
370
    15
100
AcDbLine
 10
150.1082202192
 20
215.8688949629
 30
0.0
 11
150.1082202192
 21
215.8973934337
 31
0.0
  0
LWPOLYLINE
  5
E9
330
1F
100
AcDbEntity
  8
0
  6
Continuous
 62
     7
370
    15
100
AcDbPolyline
 90
        6
 70
   128
 43
0.0
 10
153.6082235868
 20
214.3142270133
 10
152.4497290845
 20
214.3975505814
 10
151.4218432601
 20
214.6410169288
 10
150.6405679281
 20
215.0244871363
 10
150.1939316984
 20
215.5130254313
 10
150.1082202192
 20
215.8688949629
  0
LINE
  5
EA
330
1F
100
AcDbEntity
  8
0
  6
Continuous
 62
     7
370
    15
100
AcDbLine
 10
154.1082208748
 20
214.3142270133
 30
0.0
 11
153.6082235868
 21
214.3142270133
 31
0.0
  0
LINE
  5
EB
330
1F
100
AcDbEntity
  8
0
  6
Continuous
 62
     7
370
    15
100
AcDbLine
 10
175.1082224544
 20
253.5531344101
 30
0.0
 11
174.9244315322
 21
252.5374489113
 31
0.0
  0
LINE
  5
EC
330
1F
100
AcDbEntity
  8
0
  6
Continuous
 62
     7
370
    15
100
AcDbLine
 10
175.1082224544
 20
253.6106230899
 30
0.0
 11
175.1082224544
 21
253.5531344101
 31
0.0
  0
ARC
  5
ED
330
1F
100
AcDbEntity
  8
0
  6
Continuous
 62
     7
370
    15
100
AcDbCircle
 10
172.1059144133
 20
253.7026688744
 30
0.0
 40
3.00371869515515
100
AcDbArc
 50
358.2439564906
 51
60.2707641682
  0
LINE
  5
EE
330
1F
100
AcDbEntity
  8
0
  6
Continuous
 62
     7
370
    15
100
AcDbLine
 10
171.608222812
 20
224.5423393532
 30
0.0
 11
164.9750863905
 21
224.5423393532
 31
0.0
  0
LWPOLYLINE
  5
EF
330
1F
100
AcDbEntity
  8
0
  6
Continuous
 62
     7
370
    15
100
AcDbPolyline
 90
        6
 70
   128
 43
0.0
 10
171.608222812
 20
224.5423393532
 10
172.766713589
 20
224.6669875666
 10
173.7945994134
 20
225.0294210598
 10
174.5758672948
 20
225.5951138422
 10
175.022496074
 20
226.3073297426
 10
175.0231554504
 20
226.3110326811
  0
LWPOLYLINE
  5
F0
330
1F
100
AcDbEntity
  8
0
  6
Continuous
 62
     7
370
    15
100
AcDbPolyline
 90
        3
 70
   128
 43
0.0
 10
251.6254206891
 20
252.5374489113
 10
252.0224919315
 20
253.4412415907
 10
252.0495524402
 20
253.6555500909
  0
ARC
  5
F1
330
1F
100
AcDbEntity
  8
0
  6
Continuous
 62
     7
370
    15
100
AcDbCircle
 10
229.6675866906
 20
254.0804514313
 30
0.0
 40
2.559244532075438
100
AcDbArc
 50
179.1753517815
 51
217.0788322655
  0
LWPOLYLINE
  5
F2
330
1F
100
AcDbEntity
  8
0
  6
Continuous
 62
     7
370
    15
100
AcDbPolyline
 90
        3
 70
   128
 43
0.0
 10
248.6082186695
 20
224.5423393532
 10
249.7667094465
 20
224.6669875666
 10
250.4325976367
 20
224.901777713
  0
LINE
  5
F3
330
1F
100
AcDbEntity
  8
0
  6
Continuous
 62
     7
370
    15
100
AcDbLine
 10
230.6082194443
 20
224.5423393532
 30
0.0
 11
248.6082186695
 21
224.5423393532
 31
0.0
  0
ARC
  5
F4
330
1F
100
AcDbEntity
  8
0
  6
Continuous
 62
     7
370
    15
100
AcDbCircle
 10
230.1688978104
 20
227.7912391255
 30
0.0
 40
3.278468122159136
100
AcDbArc
 50
206.8395339987
 51
277.700920503
  0
LINE
  5
F5
330
1F
100
AcDbEntity
  8
0
  6
Continuous
 62
     7
370
    15
100
AcDbLine
 10
154.1082208748
 20
210.691561012
 30
0.0
 11
153.6082235868
 21
210.691561012
 31
0.0
  0
LWPOLYLINE
  5
F6
330
1F
100
AcDbEntity
  8
0
  6
Continuous
 62
     7
370
    15
100
AcDbPolyline
 90
        3
 70
   128
 43
0.0
 10
152.5756662484
 20
210.7295962259
 10
152.9544761177
 20
210.7029715761
 10
153.6082235868
 20
210.691561012
  0
ARC
  5
F7
330
1F
100
AcDbEntity
  8
0
  6
Continuous
 62
     7
370
    15
100
AcDbCircle
 10
153.2452472334
 20
220.5052536843
 30
0.0
 40
4.753636143403003
100
AcDbArc
 50
234.7431631861
 51
274.3792320547
  0
LINE
  5
F8
330
1F
100
AcDbEntity
  8
0
  6
Continuous
 62
     7
370
    15
100
AcDbLine
 10
154.1082208748
 20
215.7654958054
 30
0.0
 11
153.6082235868
 21
215.7654958054
 31
0.0
  0
LWPOLYLINE
  5
F9
330
1F
100
AcDbEntity
  8
0
  6
Continuous
 62
     7
370
    15
100
AcDbPolyline
 90
        3
 70
   128
 43
0.0
 10
174.6254248317
 20
252.5374489113
 10
175.022496074
 20
253.4412415907
 10
175.1078387495
 20
254.1172849223
  0
LINE
  5
FA
330
1F
100
AcDbEntity
  8
0
  6
Continuous
 62
     7
370
    15
100
AcDbLine
 10
287.1082147355
 20
208.9309031352
 30
0.0
 11
287.1082147355
 21
217.537445037
 31
0.0
  0
LINE
  5
FB
330
1F
100
AcDbEntity
  8
0
  6
Continuous
 62
     7
370
    15
100
AcDbLine
 10
326.1082192655
 20
265.0253968522
 30
0.0
 11
326.1082192655
 21
288.0495013878
 31
0.0
  0
LINE
  5
FC
330
1F
100
AcDbEntity
  8
0
  6
Continuous
 62
     7
370
    15
100
AcDbLine
 10
318.1082179542
 20
296.4597167656
 30
0.0
 11
318.1082179542
 21
298.8471063062
 31
0.0
  0
LINE
  5
FD
330
1F
100
AcDbEntity
  8
0
  6
Continuous
 62
     7
370
    15
100
AcDbLine
 10
318.1082179542
 20
254.2277844831
 30
0.0
 11
318.1082179542
 21
256.6151740238
 31
0.0
  0
LINE
  5
FE
330
1F
100
AcDbEntity
  8
0
  6
Continuous
 62
     7
370
    15
100
AcDbLine
 10
318.1082179542
 20
298.8471063062
 30
0.0
 11
318.1082179542
 21
327.0589532539
 31
0.0
  0
LINE
  5
FF
330
1F
100
AcDbEntity
  8
0
  6
Continuous
 62
     7
370
    15
100
AcDbLine
 10
326.1082192655
 20
327.0589532539
 30
0.0
 11
326.1082192655
 21
288.0495013878
 31
0.0
  0
LINE
  5
100
330
1F
100
AcDbEntity
  8
0
  6
Continuous
 62
     7
370
    15
100
AcDbLine
 10
318.1082179542
 20
226.015944986
 30
0.0
 11
318.1082179542
 21
254.2277844831
 31
0.0
  0
LINE
  5
101
330
1F
100
AcDbEntity
  8
0
  6
Continuous
 62
     7
370
    15
100
AcDbLine
 10
326.1082192655
 20
265.0253968522
 30
0.0
 11
326.1082192655
 21
226.015944986
 31
0.0
  0
LINE
  5
102
330
1F
100
AcDbEntity
  8
0
  6
Continuous
 62
     7
370
    15
100
AcDbLine
 10
318.1082179542
 20
327.0589532539
 30
0.0
 11
318.1082179542
 21
335.1768376514
 31
0.0
  0
LINE
  5
103
330
1F
100
AcDbEntity
  8
0
  6
Continuous
 62
     7
370
    15
100
AcDbLine
 10
326.1082192655
 20
335.1768376514
 30
0.0
 11
326.1082192655
 21
327.0589532539
 31
0.0
  0
LINE
  5
104
330
1F
100
AcDbEntity
  8
0
  6
Continuous
 62
     7
370
    15
100
AcDbLine
 10
318.1082179542
 20
217.8980605885
 30
0.0
 11
318.1082179542
 21
226.015944986
 31
0.0
  0
LINE
  5
105
330
1F
100
AcDbEntity
  8
0
  6
Continuous
 62
     7
370
    15
100
AcDbLine
 10
326.1082192655
 20
226.015944986
 30
0.0
 11
326.1082192655
 21
217.8980605885
 31
0.0
  0
LINE
  5
106
330
1F
100
AcDbEntity
  8
0
  6
Continuous
 62
     7
370
    15
100
AcDbLine
 10
318.1082179542
 20
335.1768376514
 30
0.0
 11
318.1082179542
 21
340.1355566665
 31
0.0
  0
LINE
  5
107
330
1F
100
AcDbEntity
  8
0
  6
Continuous
 62
     7
370
    15
100
AcDbLine
 10
326.1082192655
 20
342.0334281608
 30
0.0
 11
326.1082192655
 21
335.1768376514
 31
0.0
  0
LINE
  5
108
330
1F
100
AcDbEntity
  8
0
  6
Continuous
 62
     7
370
    15
100
AcDbLine
 10
318.1082179542
 20
212.9393415734
 30
0.0
 11
318.1082179542
 21
217.8980605885
 31
0.0
  0
LINE
  5
109
330
1F
100
AcDbEntity
  8
0
  6
Continuous
 62
     7
370
    15
100
AcDbLine
 10
326.1082192655
 20
217.8980605885
 30
0.0
 11
326.1082192655
 21
211.0414738044
 31
0.0
  0
LINE
  5
10A
330
1F
100
AcDbEntity
  8
0
  6
Continuous
 62
     7
370
    15
100
AcDbLine
 10
314.6082183118
 20
249.5374502823
 30
0.0
 11
314.6082183118
 21
256.537449567
 31
0.0
  0
LINE
  5
10B
330
1F
100
AcDbEntity
  8
0
  6
Continuous
 62
     7
370
    15
100
AcDbLine
 10
314.6082183118
 20
296.5374412224
 30
0.0
 11
314.6082183118
 21
303.5374405071
 31
0.0
  0
LINE
  5
10C
330
1F
100
AcDbEntity
  8
0
  6
Continuous
 62
     7
370
    15
100
AcDbLine
 10
318.1082179542
 20
340.1355566665
 30
0.0
 11
318.1082179542
 21
342.3480065748
 31
0.0
  0
LINE
  5
10D
330
1F
100
AcDbEntity
  8
0
  6
Continuous
 62
     7
370
    15
100
AcDbLine
 10
318.1082179542
 20
210.7268842146
 30
0.0
 11
318.1082179542
 21
212.9393415734
 31
0.0
  0
LINE
  5
10E
330
1F
100
AcDbEntity
  8
0
  6
Continuous
 62
     7
370
    15
100
AcDbLine
 10
326.1082192655
 20
342.0334281608
 30
0.0
 11
326.1082192655
 21
343.0374535009
 31
0.0
  0
LINE
  5
10F
330
1F
100
AcDbEntity
  8
0
  6
Continuous
 62
     7
370
    15
100
AcDbLine
 10
326.1082192655
 20
210.0374484643
 30
0.0
 11
326.1082192655
 21
211.0414738044
 31
0.0
  0
LINE
  5
110
330
1F
100
AcDbEntity
  8
0
  6
Continuous
 62
     7
370
    15
100
AcDbLine
 10
318.1082179542
 20
331.5374525472
 30
0.0
 11
291.1082228418
 21
331.5374525472
 31
0.0
  0
LINE
  5
111
330
1F
100
AcDbEntity
  8
0
  6
Continuous
 62
     7
370
    15
100
AcDbLine
 10
318.1082179542
 20
221.5374456927
 30
0.0
 11
291.1082228418
 21
221.5374456927
 31
0.0
  0
LWPOLYLINE
  5
112
330
1F
100
AcDbEntity
  8
0
  6
Continuous
 62
     7
370
    15
100
AcDbPolyline
 90
        7
 70
   128
 43
0.0
 10
303.5448213811
 20
326.8374325916
 10
303.4856041665
 20
327.0193608686
 10
303.4856041665
 20
327.8145315334
 10
303.853200912
 20
328.7135781929
 10
304.5723309513
 20
329.677206485
 10
305.6115528341
 20
330.6633206293
 10
306.7878057952
 20
331.5374525472
  0
LWPOLYLINE
  5
113
330
1F
100
AcDbEntity
  8
0
  6
Continuous
 62
     7
370
    15
100
AcDbPolyline
 90
       11
 70
   128
 43
0.0
 10
304.4808378215
 20
324.5066823646
 10
303.647698998
 20
324.6688964054
 10
302.6435395475
 20
325.0670256302
 10
301.9544800516
 20
325.6396772548
 10
301.603974938
 20
326.3673158571
 10
301.603974938
 20
327.2251906082
 10
301.9544800516
 20
328.184080331
 10
302.6435395475
 20
329.2113216802
 10
303.647698998
 20
330.2719416305
 10
304.9327751394
 20
331.3298346683
 10
305.2191754575
 20
331.5374525472
  0
LINE
  5
114
330
1F
100
AcDbEntity
  8
0
  6
Continuous
 62
     7
370
    15
100
AcDbLine
 10
306.4518293138
 20
346.5374531433
 30
0.0
 11
307.1082254644
 21
346.763354747
 31
0.0
  0
LINE
  5
115
330
1F
100
AcDbEntity
  8
0
  6
Continuous
 62
     7
370
    15
100
AcDbLine
 10
318.1082179542
 20
350.3919216081
 30
0.0
 11
307.1082254644
 21
346.763354747
 31
0.0
  0
LINE
  5
116
330
1F
100
AcDbEntity
  8
0
  6
Continuous
 62
     7
370
    15
100
AcDbLine
 10
318.1082179542
 20
350.3919216081
 30
0.0
 11
318.1082179542
 21
346.5374531433
 31
0.0
  0
LINE
  5
117
330
1F
100
AcDbEntity
  8
0
  6
Continuous
 62
     7
370
    15
100
AcDbLine
 10
154.1082208748
 20
173.1374478176
 30
0.0
 11
154.1082208748
 21
172.5374469742
 31
0.0
  0
LINE
  5
118
330
1F
100
AcDbEntity
  8
0
  6
Continuous
 62
     7
370
    15
100
AcDbLine
 10
154.1082208748
 20
173.1374478176
 30
0.0
 11
166.1082228418
 21
173.1374478176
 31
0.0
  0
LINE
  5
119
330
1F
100
AcDbEntity
  8
0
  6
Continuous
 62
     7
370
    15
100
AcDbLine
 10
166.1082228418
 20
173.1374478176
 30
0.0
 11
166.1082228418
 21
172.5374469742
 31
0.0
  0
LINE
  5
11A
330
1F
100
AcDbEntity
  8
0
  6
Continuous
 62
     7
370
    15
100
AcDbLine
 10
154.1082208748
 20
172.5374469742
 30
0.0
 11
166.1082228418
 21
172.5374469742
 31
0.0
  0
LINE
  5
11B
330
1F
100
AcDbEntity
  8
0
  6
Continuous
 62
     7
370
    15
100
AcDbLine
 10
261.1082216497
 20
173.1374478176
 30
0.0
 11
261.1082216497
 21
172.5374469742
 31
0.0
  0
LINE
  5
11C
330
1F
100
AcDbEntity
  8
0
  6
Continuous
 62
     7
370
    15
100
AcDbLine
 10
261.1082216497
 20
172.5374469742
 30
0.0
 11
273.1082161661
 21
172.5374469742
 31
0.0
  0
LINE
  5
11D
330
1F
100
AcDbEntity
  8
0
  6
Continuous
 62
     7
370
    15
100
AcDbLine
 10
261.1082216497
 20
173.1374478176
 30
0.0
 11
273.1082161661
 21
173.1374478176
 31
0.0
  0
LINE
  5
11E
330
1F
100
AcDbEntity
  8
0
  6
Continuous
 62
     7
370
    15
100
AcDbLine
 10
273.1082161661
 20
173.1374478176
 30
0.0
 11
273.1082161661
 21
172.5374469742
 31
0.0
  0
LINE
  5
11F
330
1F
100
AcDbEntity
  8
0
  6
Continuous
 62
     7
370
    15
100
AcDbLine
 10
172.1082201
 20
172.5374469742
 30
0.0
 11
204.0592675801
 21
172.5374469742
 31
0.0
  0
LINE
  5
120
330
1F
100
AcDbEntity
  8
0
  6
Continuous
 62
     7
370
    15
100
AcDbLine
 10
214.1571735735
 20
172.5374469742
 30
0.0
 11
255.1082243915
 21
172.5374469742
 31
0.0
  0
LINE
  5
121
330
1F
100
AcDbEntity
  8
0
  6
Continuous
 62
     7
370
    15
100
AcDbLine
 10
172.1082201
 20
173.1374478176
 30
0.0
 11
172.1082201
 21
172.5374469742
 31
0.0
  0
LINE
  5
122
330
1F
100
AcDbEntity
  8
0
  6
Continuous
 62
     7
370
    15
100
AcDbLine
 10
255.1082243915
 20
173.1374478176
 30
0.0
 11
255.1082243915
 21
172.5374469742
 31
0.0
  0
LINE
  5
123
330
1F
100
AcDbEntity
  8
0
  6
Continuous
 62
     7
370
    15
100
AcDbLine
 10
172.1082201
 20
173.1374478176
 30
0.0
 11
204.0592452283
 21
173.1374478176
 31
0.0
  0
LINE
  5
124
330
1F
100
AcDbEntity
  8
0
  6
Continuous
 62
     7
370
    15
100
AcDbLine
 10
214.1571959253
 20
173.1374478176
 30
0.0
 11
255.1082243915
 21
173.1374478176
 31
0.0
  0
LINE
  5
125
330
1F
100
AcDbEntity
  8
0
  6
Continuous
 62
     7
370
    15
100
AcDbLine
 10
253.1082203384
 20
343.6694862529
 30
0.0
 11
253.1082203384
 21
342.7638532802
 31
0.0
  0
ELLIPSE
  5
126
330
1F
100
AcDbEntity
  8
0
  6
Continuous
 62
     7
370
    15
100
AcDbEllipse
 10
243.1082217689
 20
342.7638549684
 30
0.0
 11
10.0
 21
5.684341886080801E-14
 31
0.0
210
0.0
220
0.0
230
1.0
 40
0.3773592453
 41
0.0
 42
1.570796326794895
  0
ELLIPSE
  5
127
330
1F
100
AcDbEntity
  8
0
  6
Continuous
 62
     7
370
    15
100
AcDbEllipse
 10
243.1082217689
 20
343.6694851571
 30
0.0
 11
0.0
 21
-18.86796226411326
 31
0.0
210
0.0
220
0.0
230
1.0
 40
0.52999894
 41
1.570796326794897
 42
3.141592653589787
  0
LINE
  5
128
330
1F
100
AcDbEntity
  8
0
  6
Continuous
 62
     7
370
    15
100
AcDbLine
 10
243.108214974
 20
362.5374408647
 30
0.0
 11
173.1082221265
 21
362.5374408647
 31
0.0
  0
LINE
  5
129
330
1F
100
AcDbEntity
  8
0
  6
Continuous
 62
     7
370
    15
100
AcDbLine
 10
243.108214974
 20
346.5374531433
 30
0.0
 11
173.1082221265
 21
346.5374531433
 31
0.0
  0
LINE
  5
12A
330
1F
100
AcDbEntity
  8
0
  6
Continuous
 62
     7
370
    15
100
AcDbLine
 10
243.108214974
 20
346.3110299989
 30
0.0
 11
173.1082221265
 21
346.3110299989
 31
0.0
  0
ELLIPSE
  5
12B
330
1F
100
AcDbEntity
  8
0
  6
Continuous
 62
     7
370
    15
100
AcDbEllipse
 10
173.1082217689
 20
342.7638549684
 30
0.0
 11
9.400000000000006
 21
5.684341886080801E-14
 31
0.0
210
0.0
220
0.0
230
1.0
 40
0.3773592453
 41
1.570796326794891
 42
3.141592653589778
  0
LINE
  5
12C
330
1F
100
AcDbEntity
  8
0
  6
Continuous
 62
     7
370
    15
100
AcDbLine
 10
163.7082231934
 20
342.7638532802
 30
0.0
 11
163.7082231934
 21
342.537445037
 31
0.0
  0
LINE
  5
12D
330
1F
100
AcDbEntity
  8
0
  6
Continuous
 62
     7
370
    15
100
AcDbLine
 10
163.7082231934
 20
342.537445037
 30
0.0
 11
163.1082204874
 21
342.537445037
 31
0.0
  0
LINE
  5
12E
330
1F
100
AcDbEntity
  8
0
  6
Continuous
 62
     7
370
    15
100
AcDbLine
 10
163.1082204874
 20
342.7638532802
 30
0.0
 11
163.1082204874
 21
342.537445037
 31
0.0
  0
ELLIPSE
  5
12F
330
1F
100
AcDbEntity
  8
0
  6
Continuous
 62
     7
370
    15
100
AcDbEllipse
 10
173.1082217689
 20
342.7638549684
 30
0.0
 11
10.00000000000003
 21
5.684341886080801E-14
 31
0.0
210
0.0
220
0.0
230
1.0
 40
0.3773592453
 41
1.570796326794892
 42
3.141592653589778
  0
LINE
  5
130
330
1F
100
AcDbEntity
  8
0
  6
Continuous
 62
     7
370
    15
100
AcDbLine
 10
253.1082203384
 20
342.7638532802
 30
0.0
 11
253.1082203384
 21
342.537445037
 31
0.0
  0
LINE
  5
131
330
1F
100
AcDbEntity
  8
0
  6
Continuous
 62
     7
370
    15
100
AcDbLine
 10
253.1082203384
 20
342.537445037
 30
0.0
 11
252.5082250829
 21
342.537445037
 31
0.0
  0
LINE
  5
132
330
1F
100
AcDbEntity
  8
0
  6
Continuous
 62
     7
370
    15
100
AcDbLine
 10
252.5082250829
 20
342.7638532802
 30
0.0
 11
252.5082250829
 21
342.537445037
 31
0.0
  0
ELLIPSE
  5
133
330
1F
100
AcDbEntity
  8
0
  6
Continuous
 62
     7
370
    15
100
AcDbEllipse
 10
243.1082217689
 20
342.7638549684
 30
0.0
 11
9.400000000000006
 21
5.684341886080801E-14
 31
0.0
210
0.0
220
0.0
230
1.0
 40
0.3773592453
 41
0.0
 42
1.570796326794894
  0
LINE
  5
134
330
1F
100
AcDbEntity
  8
0
  6
Continuous
 62
     7
370
    15
100
AcDbLine
 10
163.1082204874
 20
342.7638532802
 30
0.0
 11
163.1082204874
 21
343.6694862529
 31
0.0
  0
ELLIPSE
  5
135
330
1F
100
AcDbEntity
  8
0
  6
Continuous
 62
     7
370
    15
100
AcDbEllipse
 10
173.1082217689
 20
343.6694851571
 30
0.0
 11
0.0
 21
18.86796226411315
 31
0.0
210
0.0
220
0.0
230
1.0
 40
0.52999894
 41
0.0
 42
1.570796326794897
  0
ELLIPSE
  5
136
330
1F
100
AcDbEntity
  8
0
  6
Continuous
 62
     7
370
    15
100
AcDbEllipse
 10
173.1082217689
 20
222.7638549684
 30
0.0
 11
10.0
 21
0.0
 31
0.0
210
0.0
220
0.0
230
1.0
 40
0.3773592453
 41
1.570796326794894
 42
3.141592653589793
  0
LINE
  5
137
330
1F
100
AcDbEntity
  8
0
  6
Continuous
 62
     7
370
    15
100
AcDbLine
 10
163.1082204874
 20
222.7638559624
 30
0.0
 11
163.1082204874
 21
223.6694814846
 31
0.0
  0
ELLIPSE
  5
138
330
1F
100
AcDbEntity
  8
0
  6
Continuous
 62
     7
370
    15
100
AcDbEllipse
 10
173.1082217689
 20
223.6694851571
 30
0.0
 11
0.0
 21
18.8679622641132
 31
0.0
210
0.0
220
0.0
230
1.0
 40
0.52999894
 41
0.0
 42
1.570796326794897
  0
LINE
  5
139
330
1F
100
AcDbEntity
  8
0
  6
Continuous
 62
     7
370
    15
100
AcDbLine
 10
243.108214974
 20
316.3110288068
 30
0.0
 11
173.1082221265
 21
316.3110288068
 31
0.0
  0
ELLIPSE
  5
13A
330
1F
100
AcDbEntity
  8
0
  6
Continuous
 62
     7
370
    15
100
AcDbEllipse
 10
173.1082217689
 20
312.7638549684
 30
0.0
 11
9.400000000000006
 21
0.0
 31
0.0
210
0.0
220
0.0
230
1.0
 40
0.3773592453
 41
1.570796326794894
 42
3.141592653589846
  0
LINE
  5
13B
330
1F
100
AcDbEntity
  8
0
  6
Continuous
 62
     7
370
    15
100
AcDbLine
 10
163.7082231934
 20
312.7638520881
 30
0.0
 11
163.7082231934
 21
312.537443845
 31
0.0
  0
LINE
  5
13C
330
1F
100
AcDbEntity
  8
0
  6
Continuous
 62
     7
370
    15
100
AcDbLine
 10
163.7082231934
 20
312.537443845
 30
0.0
 11
163.1082204874
 21
312.537443845
 31
0.0
  0
LINE
  5
13D
330
1F
100
AcDbEntity
  8
0
  6
Continuous
 62
     7
370
    15
100
AcDbLine
 10
163.1082204874
 20
312.7638520881
 30
0.0
 11
163.1082204874
 21
312.537443845
 31
0.0
  0
ELLIPSE
  5
13E
330
1F
100
AcDbEntity
  8
0
  6
Continuous
 62
     7
370
    15
100
AcDbEllipse
 10
173.1082217689
 20
312.7638549684
 30
0.0
 11
10.0
 21
0.0
 31
0.0
210
0.0
220
0.0
230
1.0
 40
0.3773592453
 41
1.570796326794894
 42
3.141592653589846
  0
LINE
  5
13F
330
1F
100
AcDbEntity
  8
0
  6
Continuous
 62
     7
370
    15
100
AcDbLine
 10
243.108214974
 20
316.5374519512
 30
0.0
 11
173.1082221265
 21
316.5374519512
 31
0.0
  0
ELLIPSE
  5
140
330
1F
100
AcDbEntity
  8
0
  6
Continuous
 62
     7
370
    15
100
AcDbEllipse
 10
243.1082217689
 20
312.7638549684
 30
0.0
 11
10.0
 21
0.0
 31
0.0
210
0.0
220
0.0
230
1.0
 40
0.3773592453
 41
0.0
 42
1.570796326794897
  0
LINE
  5
141
330
1F
100
AcDbEntity
  8
0
  6
Continuous
 62
     7
370
    15
100
AcDbLine
 10
253.1082203384
 20
312.7638520881
 30
0.0
 11
253.1082203384
 21
312.537443845
 31
0.0
  0
LINE
  5
142
330
1F
100
AcDbEntity
  8
0
  6
Continuous
 62
     7
370
    15
100
AcDbLine
 10
253.1082203384
 20
312.537443845
 30
0.0
 11
252.5082250829
 21
312.537443845
 31
0.0
  0
LINE
  5
143
330
1F
100
AcDbEntity
  8
0
  6
Continuous
 62
     7
370
    15
100
AcDbLine
 10
252.5082250829
 20
312.7638520881
 30
0.0
 11
252.5082250829
 21
312.537443845
 31
0.0
  0
ELLIPSE
  5
144
330
1F
100
AcDbEntity
  8
0
  6
Continuous
 62
     7
370
    15
100
AcDbEllipse
 10
243.1082217689
 20
312.7638549684
 30
0.0
 11
9.400000000000006
 21
0.0
 31
0.0
210
0.0
220
0.0
230
1.0
 40
0.3773592453
 41
0.0
 42
1.570796326794897
  0
LINE
  5
145
330
1F
100
AcDbEntity
  8
0
  6
Continuous
 62
     7
370
    15
100
AcDbLine
 10
243.108214974
 20
226.3110326811
 30
0.0
 11
173.1082221265
 21
226.3110326811
 31
0.0
  0
ELLIPSE
  5
146
330
1F
100
AcDbEntity
  8
0
  6
Continuous
 62
     7
370
    15
100
AcDbEllipse
 10
173.1082217689
 20
222.7638549684
 30
0.0
 11
9.400000000000006
 21
0.0
 31
0.0
210
0.0
220
0.0
230
1.0
 40
0.3773592453
 41
1.570796326794894
 42
3.141592653589793
  0
LINE
  5
147
330
1F
100
AcDbEntity
  8
0
  6
Continuous
 62
     7
370
    15
100
AcDbLine
 10
163.7082231934
 20
222.7638559624
 30
0.0
 11
163.7082231934
 21
222.5374477193
 31
0.0
  0
LINE
  5
148
330
1F
100
AcDbEntity
  8
0
  6
Continuous
 62
     7
370
    15
100
AcDbLine
 10
163.7082231934
 20
222.5374477193
 30
0.0
 11
163.1082204874
 21
222.5374477193
 31
0.0
  0
LINE
  5
149
330
1F
100
AcDbEntity
  8
0
  6
Continuous
 62
     7
370
    15
100
AcDbLine
 10
163.1082204874
 20
222.7638559624
 30
0.0
 11
163.1082204874
 21
222.5374477193
 31
0.0
  0
LINE
  5
14A
330
1F
100
AcDbEntity
  8
0
  6
Continuous
 62
     7
370
    15
100
AcDbLine
 10
243.108214974
 20
226.5374483749
 30
0.0
 11
173.1082221265
 21
226.5374483749
 31
0.0
  0
ELLIPSE
  5
14B
330
1F
100
AcDbEntity
  8
0
  6
Continuous
 62
     7
370
    15
100
AcDbEllipse
 10
243.1082217689
 20
222.7638549684
 30
0.0
 11
10.0
 21
0.0
 31
0.0
210
0.0
220
0.0
230
1.0
 40
0.3773592453
 41
0.0
 42
1.570796326794897
  0
LINE
  5
14C
330
1F
100
AcDbEntity
  8
0
  6
Continuous
 62
     7
370
    15
100
AcDbLine
 10
253.1082203384
 20
222.7638559624
 30
0.0
 11
253.1082203384
 21
222.5374477193
 31
0.0
  0
LINE
  5
14D
330
1F
100
AcDbEntity
  8
0
  6
Continuous
 62
     7
370
    15
100
AcDbLine
 10
253.1082203384
 20
222.5374477193
 30
0.0
 11
252.5082250829
 21
222.5374477193
 31
0.0
  0
LINE
  5
14E
330
1F
100
AcDbEntity
  8
0
  6
Continuous
 62
     7
370
    15
100
AcDbLine
 10
252.5082250829
 20
222.7638559624
 30
0.0
 11
252.5082250829
 21
222.5374477193
 31
0.0
  0
ELLIPSE
  5
14F
330
1F
100
AcDbEntity
  8
0
  6
Continuous
 62
     7
370
    15
100
AcDbEllipse
 10
243.1082217689
 20
222.7638549684
 30
0.0
 11
9.400000000000006
 21
0.0
 31
0.0
210
0.0
220
0.0
230
1.0
 40
0.3773592453
 41
0.0
 42
1.570796326794897
  0
LINE
  5
150
330
1F
100
AcDbEntity
  8
0
  6
Continuous
 62
     7
370
    15
100
AcDbLine
 10
253.1082203384
 20
313.6694850609
 30
0.0
 11
253.1082203384
 21
312.7638520881
 31
0.0
  0
ELLIPSE
  5
151
330
1F
100
AcDbEntity
  8
0
  6
Continuous
 62
     7
370
    15
100
AcDbEllipse
 10
243.1082217689
 20
313.6694851571
 30
0.0
 11
0.0
 21
-18.86796226411315
 31
0.0
210
0.0
220
0.0
230
1.0
 40
0.52999894
 41
1.570796326794897
 42
3.141592653589792
  0
ELLIPSE
  5
152
330
1F
100
AcDbEntity
  8
0
  6
Continuous
 62
     7
370
    15
100
AcDbEllipse
 10
173.1082217689
 20
282.7638549684
 30
0.0
 11
10.0
 21
0.0
 31
0.0
210
0.0
220
0.0
230
1.0
 40
0.3773592453
 41
1.570796326794894
 42
3.141592653589793
  0
LINE
  5
153
330
1F
100
AcDbEntity
  8
0
  6
Continuous
 62
     7
370
    15
100
AcDbLine
 10
163.1082204874
 20
282.763850896
 30
0.0
 11
163.1082204874
 21
283.6694838688
 31
0.0
  0
ELLIPSE
  5
154
330
1F
100
AcDbEntity
  8
0
  6
Continuous
 62
     7
370
    15
100
AcDbEllipse
 10
173.1082217689
 20
283.6694851571
 30
0.0
 11
0.0
 21
18.8679622641132
 31
0.0
210
0.0
220
0.0
230
1.0
 40
0.52999894
 41
0.0
 42
1.570796326794897
  0
ELLIPSE
  5
155
330
1F
100
AcDbEntity
  8
0
  6
Continuous
 62
     7
370
    15
100
AcDbEllipse
 10
173.1082217689
 20
252.7638549684
 30
0.0
 11
10.0
 21
0.0
 31
0.0
210
0.0
220
0.0
230
1.0
 40
0.3773592453
 41
1.570796326794894
 42
3.141592653589793
  0
LINE
  5
156
330
1F
100
AcDbEntity
  8
0
  6
Continuous
 62
     7
370
    15
100
AcDbLine
 10
163.1082204874
 20
252.7638571545
 30
0.0
 11
163.1082204874
 21
253.6694826767
 31
0.0
  0
ELLIPSE
  5
157
330
1F
100
AcDbEntity
  8
0
  6
Continuous
 62
     7
370
    15
100
AcDbEllipse
 10
173.1082217689
 20
253.6694851571
 30
0.0
 11
0.0
 21
18.8679622641132
 31
0.0
210
0.0
220
0.0
230
1.0
 40
0.52999894
 41
0.0
 42
1.570796326794897
  0
LINE
  5
158
330
1F
100
AcDbEntity
  8
0
  6
Continuous
 62
     7
370
    15
100
AcDbLine
 10
243.108214974
 20
256.3110338732
 30
0.0
 11
173.1082221265
 21
256.3110338732
 31
0.0
  0
ELLIPSE
  5
159
330
1F
100
AcDbEntity
  8
0
  6
Continuous
 62
     7
370
    15
100
AcDbEllipse
 10
173.1082217689
 20
252.7638549684
 30
0.0
 11
9.400000000000006
 21
0.0
 31
0.0
210
0.0
220
0.0
230
1.0
 40
0.3773592453
 41
1.570796326794894
 42
3.141592653589793
  0
LINE
  5
15A
330
1F
100
AcDbEntity
  8
0
  6
Continuous
 62
     7
370
    15
100
AcDbLine
 10
163.7082231934
 20
252.7638571545
 30
0.0
 11
163.7082231934
 21
252.5374489113
 31
0.0
  0
LINE
  5
15B
330
1F
100
AcDbEntity
  8
0
  6
Continuous
 62
     7
370
    15
100
AcDbLine
 10
163.7082231934
 20
252.5374489113
 30
0.0
 11
163.1082204874
 21
252.5374489113
 31
0.0
  0
LINE
  5
15C
330
1F
100
AcDbEntity
  8
0
  6
Continuous
 62
     7
370
    15
100
AcDbLine
 10
163.1082204874
 20
252.7638571545
 30
0.0
 11
163.1082204874
 21
252.5374489113
 31
0.0
  0
LINE
  5
15D
330
1F
100
AcDbEntity
  8
0
  6
Continuous
 62
     7
370
    15
100
AcDbLine
 10
243.108214974
 20
256.537449567
 30
0.0
 11
173.1082221265
 21
256.537449567
 31
0.0
  0
ELLIPSE
  5
15E
330
1F
100
AcDbEntity
  8
0
  6
Continuous
 62
     7
370
    15
100
AcDbEllipse
 10
243.1082217689
 20
252.7638549684
 30
0.0
 11
10.0
 21
0.0
 31
0.0
210
0.0
220
0.0
230
1.0
 40
0.3773592453
 41
0.0
 42
1.570796326794897
  0
LINE
  5
15F
330
1F
100
AcDbEntity
  8
0
  6
Continuous
 62
     7
370
    15
100
AcDbLine
 10
253.1082203384
 20
252.7638571545
 30
0.0
 11
253.1082203384
 21
252.5374489113
 31
0.0
  0
LINE
  5
160
330
1F
100
AcDbEntity
  8
0
  6
Continuous
 62
     7
370
    15
100
AcDbLine
 10
253.1082203384
 20
252.5374489113
 30
0.0
 11
252.5082250829
 21
252.5374489113
 31
0.0
  0
LINE
  5
161
330
1F
100
AcDbEntity
  8
0
  6
Continuous
 62
     7
370
    15
100
AcDbLine
 10
252.5082250829
 20
252.7638571545
 30
0.0
 11
252.5082250829
 21
252.5374489113
 31
0.0
  0
ELLIPSE
  5
162
330
1F
100
AcDbEntity
  8
0
  6
Continuous
 62
     7
370
    15
100
AcDbEllipse
 10
243.1082217689
 20
252.7638549684
 30
0.0
 11
9.400000000000006
 21
0.0
 31
0.0
210
0.0
220
0.0
230
1.0
 40
0.3773592453
 41
0.0
 42
1.570796326794897
  0
LINE
  5
163
330
1F
100
AcDbEntity
  8
0
  6
Continuous
 62
     7
370
    15
100
AcDbLine
 10
163.1082204874
 20
312.7638520881
 30
0.0
 11
163.1082204874
 21
313.6694850609
 31
0.0
  0
ELLIPSE
  5
164
330
1F
100
AcDbEntity
  8
0
  6
Continuous
 62
     7
370
    15
100
AcDbEllipse
 10
173.1082217689
 20
313.6694851571
 30
0.0
 11
0.0
 21
18.86796226411326
 31
0.0
210
0.0
220
0.0
230
1.0
 40
0.52999894
 41
0.0
 42
1.570796326794897
  0
LINE
  5
165
330
1F
100
AcDbEntity
  8
0
  6
Continuous
 62
     7
370
    15
100
AcDbLine
 10
243.108214974
 20
286.3110276148
 30
0.0
 11
173.1082221265
 21
286.3110276148
 31
0.0
  0
ELLIPSE
  5
166
330
1F
100
AcDbEntity
  8
0
  6
Continuous
 62
     7
370
    15
100
AcDbEllipse
 10
173.1082217689
 20
282.7638549684
 30
0.0
 11
9.400000000000006
 21
0.0
 31
0.0
210
0.0
220
0.0
230
1.0
 40
0.3773592453
 41
1.570796326794894
 42
3.141592653589793
  0
LINE
  5
167
330
1F
100
AcDbEntity
  8
0
  6
Continuous
 62
     7
370
    15
100
AcDbLine
 10
163.7082231934
 20
282.763850896
 30
0.0
 11
163.7082231934
 21
282.5374426529
 31
0.0
  0
LINE
  5
168
330
1F
100
AcDbEntity
  8
0
  6
Continuous
 62
     7
370
    15
100
AcDbLine
 10
163.7082231934
 20
282.5374426529
 30
0.0
 11
163.1082204874
 21
282.5374426529
 31
0.0
  0
LINE
  5
169
330
1F
100
AcDbEntity
  8
0
  6
Continuous
 62
     7
370
    15
100
AcDbLine
 10
163.1082204874
 20
282.763850896
 30
0.0
 11
163.1082204874
 21
282.5374426529
 31
0.0
  0
LINE
  5
16A
330
1F
100
AcDbEntity
  8
0
  6
Continuous
 62
     7
370
    15
100
AcDbLine
 10
243.108214974
 20
286.5374507591
 30
0.0
 11
173.1082221265
 21
286.5374507591
 31
0.0
  0
ELLIPSE
  5
16B
330
1F
100
AcDbEntity
  8
0
  6
Continuous
 62
     7
370
    15
100
AcDbEllipse
 10
243.1082217689
 20
282.7638549684
 30
0.0
 11
10.0
 21
0.0
 31
0.0
210
0.0
220
0.0
230
1.0
 40
0.3773592453
 41
0.0
 42
1.570796326794897
  0
LINE
  5
16C
330
1F
100
AcDbEntity
  8
0
  6
Continuous
 62
     7
370
    15
100
AcDbLine
 10
253.1082203384
 20
282.763850896
 30
0.0
 11
253.1082203384
 21
282.5374426529
 31
0.0
  0
LINE
  5
16D
330
1F
100
AcDbEntity
  8
0
  6
Continuous
 62
     7
370
    15
100
AcDbLine
 10
253.1082203384
 20
282.5374426529
 30
0.0
 11
252.5082250829
 21
282.5374426529
 31
0.0
  0
LINE
  5
16E
330
1F
100
AcDbEntity
  8
0
  6
Continuous
 62
     7
370
    15
100
AcDbLine
 10
252.5082250829
 20
282.763850896
 30
0.0
 11
252.5082250829
 21
282.5374426529
 31
0.0
  0
ELLIPSE
  5
16F
330
1F
100
AcDbEntity
  8
0
  6
Continuous
 62
     7
370
    15
100
AcDbEllipse
 10
243.1082217689
 20
282.7638549684
 30
0.0
 11
9.400000000000006
 21
0.0
 31
0.0
210
0.0
220
0.0
230
1.0
 40
0.3773592453
 41
0.0
 42
1.570796326794897
  0
LINE
  5
170
330
1F
100
AcDbEntity
  8
0
  6
Continuous
 62
     7
370
    15
100
AcDbLine
 10
243.108214974
 20
332.5374545738
 30
0.0
 11
173.1082221265
 21
332.5374545738
 31
0.0
  0
LINE
  5
171
330
1F
100
AcDbEntity
  8
0
  6
Continuous
 62
     7
370
    15
100
AcDbLine
 10
243.108214974
 20
242.5374509975
 30
0.0
 11
173.1082221265
 21
242.5374509975
 31
0.0
  0
LINE
  5
172
330
1F
100
AcDbEntity
  8
0
  6
Continuous
 62
     7
370
    15
100
AcDbLine
 10
243.108214974
 20
302.5374533817
 30
0.0
 11
173.1082221265
 21
302.5374533817
 31
0.0
  0
LINE
  5
173
330
1F
100
AcDbEntity
  8
0
  6
Continuous
 62
     7
370
    15
100
AcDbLine
 10
253.1082203384
 20
223.6694814846
 30
0.0
 11
253.1082203384
 21
222.7638559624
 31
0.0
  0
ELLIPSE
  5
174
330
1F
100
AcDbEntity
  8
0
  6
Continuous
 62
     7
370
    15
100
AcDbEllipse
 10
243.1082217689
 20
223.6694851571
 30
0.0
 11
0.0
 21
-18.86796226411317
 31
0.0
210
0.0
220
0.0
230
1.0
 40
0.52999894
 41
1.570796326794897
 42
3.141592653589792
  0
LINE
  5
175
330
1F
100
AcDbEntity
  8
0
  6
Continuous
 62
     7
370
    15
100
AcDbLine
 10
253.1082203384
 20
283.6694838688
 30
0.0
 11
253.1082203384
 21
282.763850896
 31
0.0
  0
ELLIPSE
  5
176
330
1F
100
AcDbEntity
  8
0
  6
Continuous
 62
     7
370
    15
100
AcDbEllipse
 10
243.1082217689
 20
283.6694851571
 30
0.0
 11
0.0
 21
-18.86796226411326
 31
0.0
210
0.0
220
0.0
230
1.0
 40
0.52999894
 41
1.570796326794897
 42
3.141592653589792
  0
LINE
  5
177
330
1F
100
AcDbEntity
  8
0
  6
Continuous
 62
     7
370
    15
100
AcDbLine
 10
253.1082203384
 20
253.6694826767
 30
0.0
 11
253.1082203384
 21
252.7638571545
 31
0.0
  0
ELLIPSE
  5
178
330
1F
100
AcDbEntity
  8
0
  6
Continuous
 62
     7
370
    15
100
AcDbEllipse
 10
243.1082217689
 20
253.6694851571
 30
0.0
 11
0.0
 21
-18.8679622641132
 31
0.0
210
0.0
220
0.0
230
1.0
 40
0.52999894
 41
1.570796326794897
 42
3.141592653589792
  0
LINE
  5
179
330
1F
100
AcDbEntity
  8
0
  6
Continuous
 62
     7
370
    15
100
AcDbLine
 10
243.108214974
 20
272.537444739
 30
0.0
 11
173.1082221265
 21
272.537444739
 31
0.0
  0
LINE
  5
17A
330
1F
100
AcDbEntity
  8
0
  6
Continuous
 62
     7
370
    15
100
AcDbLine
 10
166.1082228418
 20
173.1374478176
 30
0.0
 11
172.1082201
 21
173.1374478176
 31
0.0
  0
LINE
  5
17B
330
1F
100
AcDbEntity
  8
0
  6
Continuous
 62
     7
370
    15
100
AcDbLine
 10
255.1082243915
 20
173.1374478176
 30
0.0
 11
261.1082216497
 21
173.1374478176
 31
0.0
  0
LINE
  5
17C
330
1F
100
AcDbEntity
  8
0
  6
Continuous
 62
     7
370
    15
100
AcDbLine
 10
291.1082228418
 20
411.9374575302
 30
0.0
 11
291.1082228418
 21
217.537445037
 31
0.0
  0
LINE
  5
17D
330
1F
100
AcDbEntity
  8
0
  6
Continuous
 62
     7
370
    15
100
AcDbLine
 10
291.1082228418
 20
217.537445037
 30
0.0
 11
285.5082174535
 21
217.537445037
 31
0.0
  0
LINE
  5
17E
330
1F
100
AcDbEntity
  8
0
  6
Continuous
 62
     7
370
    15
100
AcDbLine
 10
85.7082215841
 20
217.537445037
 30
0.0
 11
80.1082199212
 21
217.537445037
 31
0.0
  0
LINE
  5
17F
330
1F
100
AcDbEntity
  8
0
  6
Continuous
 62
     7
370
    15
100
AcDbLine
 10
80.1082199212
 20
217.537445037
 30
0.0
 11
80.1082199212
 21
411.9374575302
 31
0.0
  0
LINE
  5
180
330
1F
100
AcDbEntity
  8
0
  6
Continuous
 62
     7
370
    15
100
AcDbLine
 10
80.1082199212
 20
411.9374575302
 30
0.0
 11
80.1082199212
 21
426.9374432251
 31
0.0
  0
ARC
  5
181
330
1F
100
AcDbEntity
  8
0
  6
Continuous
 62
     7
370
    15
100
AcDbCircle
 10
85.7082217689
 20
426.9374474212
 30
0.0
 40
5.60000000000008
100
AcDbArc
 50
90.0
 51
180.0
  0
LINE
  5
182
330
1F
100
AcDbEntity
  8
0
  6
Continuous
 62
     7
370
    15
100
AcDbLine
 10
85.7082215841
 20
432.5374486133
 30
0.0
 11
285.5082174535
 21
432.5374486133
 31
0.0
  0
LINE
  5
183
330
1F
100
AcDbEntity
  8
0
  6
Continuous
 62
     7
370
    15
100
AcDbLine
 10
291.1082228418
 20
426.9374432251
 30
0.0
 11
291.1082228418
 21
411.9374575302
 31
0.0
  0
ARC
  5
184
330
1F
100
AcDbEntity
  8
0
  6
Continuous
 62
     7
370
    15
100
AcDbCircle
 10
285.5082217689
 20
426.9374474212
 30
0.0
 40
5.600000000000023
100
AcDbArc
 50
0.0
 51
90.0
  0
LINE
  5
185
330
1F
100
AcDbEntity
  8
0
  6
Continuous
 62
     7
370
    15
100
AcDbLine
 10
85.7082215841
 20
217.537445037
 30
0.0
 11
154.1082208748
 21
217.537445037
 31
0.0
  0
LINE
  5
186
330
1F
100
AcDbEntity
  8
0
  6
Continuous
 62
     7
370
    15
100
AcDbLine
 10
273.1082161661
 20
217.537445037
 30
0.0
 11
285.5082174535
 21
217.537445037
 31
0.0
  0
LINE
  5
187
330
1F
100
AcDbEntity
  8
0
  6
Continuous
 62
     7
370
    15
100
AcDbLine
 10
221.608223557
 20
173.1374478176
 30
0.0
 11
221.608223557
 21
190.0374489113
 31
0.0
  0
ARC
  5
188
330
1F
100
AcDbEntity
  8
0
  6
Continuous
 62
     7
370
    15
100
AcDbCircle
 10
209.1082217689
 20
190.0374474212
 30
0.0
 40
12.50000000000003
100
AcDbArc
 50
0.0
 51
180.0
  0
LINE
  5
189
330
1F
100
AcDbEntity
  8
0
  6
Continuous
 62
     7
370
    15
100
AcDbLine
 10
196.6082250472
 20
190.0374489113
 30
0.0
 11
196.6082250472
 21
173.1374478176
 31
0.0
  0
LINE
  5
18A
330
1F
100
AcDbEntity
  8
0
  6
Continuous
 62
     7
370
    15
100
AcDbLine
 10
252.5082250829
 20
342.537445037
 30
0.0
 11
163.7082231934
 21
342.537445037
 31
0.0
  0
LINE
  5
18B
330
1F
100
AcDbEntity
  8
0
  6
Continuous
 62
     7
370
    15
100
AcDbLine
 10
252.5082250829
 20
282.5374426529
 30
0.0
 11
163.7082231934
 21
282.5374426529
 31
0.0
  0
LINE
  5
18C
330
1F
100
AcDbEntity
  8
0
  6
Continuous
 62
     7
370
    15
100
AcDbLine
 10
252.5082250829
 20
222.5374477193
 30
0.0
 11
163.7082231934
 21
222.5374477193
 31
0.0
  0
LINE
  5
18D
330
1F
100
AcDbEntity
  8
0
  6
Continuous
 62
     7
370
    15
100
AcDbLine
 10
252.5082250829
 20
252.5374489113
 30
0.0
 11
163.7082231934
 21
252.5374489113
 31
0.0
  0
LINE
  5
18E
330
1F
100
AcDbEntity
  8
0
  6
Continuous
 62
     7
370
    15
100
AcDbLine
 10
252.5082250829
 20
312.537443845
 30
0.0
 11
163.7082231934
 21
312.537443845
 31
0.0
  0
LINE
  5
18F
330
1F
100
AcDbEntity
  8
0
  6
Continuous
 62
     7
370
    15
100
AcDbLine
 10
154.1082208748
 20
217.537445037
 30
0.0
 11
154.1082208748
 21
173.1374478176
 31
0.0
  0
LINE
  5
190
330
1F
100
AcDbEntity
  8
0
  6
Continuous
 62
     7
370
    15
100
AcDbLine
 10
273.1082161661
 20
173.1374478176
 30
0.0
 11
273.1082161661
 21
217.537445037
 31
0.0
  0
LINE
  5
191
330
1F
100
AcDbEntity
  8
0
  6
Continuous
 62
     7
370
    15
100
AcDbLine
 10
79.5422030385
 20
281.5638603851
 30
0.0
 11
80.1082199212
 21
281.3374521419
 31
0.0
  0
LINE
  5
192
330
1F
100
AcDbEntity
  8
0
  6
Continuous
 62
     7
370
    15
100
AcDbLine
 10
70.1082220073
 20
285.337445347
 30
0.0
 11
80.1082199212
 21
301.3374479696
 31
0.0
  0
LWPOLYLINE
  5
193
330
1F
100
AcDbEntity
  8
0
  6
Continuous
 62
     7
370
    15
100
AcDbPolyline
 90
        9
 70
   128
 43
0.0
 10
79.5422030385
 20
281.5638603851
 10
77.7017233665
 20
282.3000522539
 10
75.9319757815
 20
283.0079468176
 10
74.3009654577
 20
283.6603494569
 10
72.8713704045
 20
284.2321815178
 10
71.6981349285
 20
284.7014786884
 10
70.8263424929
 20
285.0501956627
 10
70.2894946332
 20
285.2649362966
 10
70.1082220073
 20
285.337445347
  0
LINE
  5
194
330
1F
100
AcDbEntity
  8
0
  6
Continuous
 62
     7
370
    15
100
AcDbLine
 10
79.5422030385
 20
371.5638490602
 30
0.0
 11
80.1082199212
 21
371.337440817
 31
0.0
  0
LINE
  5
195
330
1F
100
AcDbEntity
  8
0
  6
Continuous
 62
     7
370
    15
100
AcDbLine
 10
79.5422030385
 20
311.5638615772
 30
0.0
 11
80.1082199212
 21
311.337453334
 31
0.0
  0
LINE
  5
196
330
1F
100
AcDbEntity
  8
0
  6
Continuous
 62
     7
370
    15
100
AcDbLine
 10
70.1082220073
 20
375.3374489233
 30
0.0
 11
80.1082199212
 21
391.3374515459
 31
0.0
  0
LWPOLYLINE
  5
197
330
1F
100
AcDbEntity
  8
0
  6
Continuous
 62
     7
370
    15
100
AcDbPolyline
 90
        9
 70
   128
 43
0.0
 10
79.5422030385
 20
371.5638490602
 10
77.7017233665
 20
372.300040929
 10
75.9319757815
 20
373.0079503938
 10
74.3009654577
 20
373.6603530332
 10
72.8713704045
 20
374.232185094
 10
71.6981349285
 20
374.7014822647
 10
70.8263424929
 20
375.0501992389
 10
70.2894946332
 20
375.2649398729
 10
70.1082220073
 20
375.3374489233
  0
LINE
  5
198
330
1F
100
AcDbEntity
  8
0
  6
Continuous
 62
     7
370
    15
100
AcDbLine
 10
70.1082220073
 20
315.3374465391
 30
0.0
 11
80.1082199212
 21
331.3374491617
 31
0.0
  0
LWPOLYLINE
  5
199
330
1F
100
AcDbEntity
  8
0
  6
Continuous
 62
     7
370
    15
100
AcDbPolyline
 90
        9
 70
   128
 43
0.0
 10
79.5422030385
 20
311.5638615772
 10
77.7017233665
 20
312.300053446
 10
75.9319757815
 20
313.0079480097
 10
74.3009654577
 20
313.660350649
 10
72.8713704045
 20
314.2321827099
 10
71.6981349285
 20
314.7014798805
 10
70.8263424929
 20
315.0501968548
 10
70.2894946332
 20
315.2649374887
 10
70.1082220073
 20
315.3374465391
  0
LINE
  5
19A
330
1F
100
AcDbEntity
  8
0
  6
Continuous
 62
     7
370
    15
100
AcDbLine
 10
79.5422030385
 20
401.5638502523
 30
0.0
 11
80.1082199212
 21
401.3374420091
 31
0.0
  0
LINE
  5
19B
330
1F
100
AcDbEntity
  8
0
  6
Continuous
 62
     7
370
    15
100
AcDbLine
 10
70.1082220073
 20
345.3374477312
 30
0.0
 11
80.1082199212
 21
361.3374503538
 31
0.0
  0
LWPOLYLINE
  5
19C
330
1F
100
AcDbEntity
  8
0
  6
Continuous
 62
     7
370
    15
100
AcDbPolyline
 90
        9
 70
   128
 43
0.0
 10
79.5422030385
 20
341.5638478681
 10
77.7017233665
 20
342.3000397369
 10
75.9319757815
 20
343.0079492017
 10
74.3009654577
 20
343.6603518411
 10
72.8713704045
 20
344.2321839019
 10
71.6981349285
 20
344.7014810726
 10
70.8263424929
 20
345.0501980468
 10
70.2894946332
 20
345.2649386808
 10
70.1082220073
 20
345.3374477312
  0
LINE
  5
19D
330
1F
100
AcDbEntity
  8
0
  6
Continuous
 62
     7
370
    15
100
AcDbLine
 10
70.1082220073
 20
405.3374352142
 30
0.0
 11
80.1082199212
 21
421.3374378368
 31
0.0
  0
LWPOLYLINE
  5
19E
330
1F
100
AcDbEntity
  8
0
  6
Continuous
 62
     7
370
    15
100
AcDbPolyline
 90
        9
 70
   128
 43
0.0
 10
79.5422030385
 20
401.5638502523
 10
77.7017233665
 20
402.3000421211
 10
75.9319757815
 20
403.0079366848
 10
74.3009654577
 20
403.6603393242
 10
72.8713704045
 20
404.2321862861
 10
71.6981349285
 20
404.7014834568
 10
70.8263424929
 20
405.050200431
 10
70.2894946332
 20
405.2649261638
 10
70.1082220073
 20
405.3374352142
  0
LINE
  5
19F
330
1F
100
AcDbEntity
  8
0
  6
Continuous
 62
     7
370
    15
100
AcDbLine
 10
79.5422030385
 20
341.5638478681
 30
0.0
 11
80.1082199212
 21
341.3374545261
 31
0.0
  0
LINE
  5
1A0
330
1F
100
AcDbEntity
  8
0
  6
Continuous
 62
     7
370
    15
100
AcDbLine
 10
353.7297716136
 20
219.7470786258
 30
0.0
 11
327.6082148548
 21
219.7470786258
 31
0.0
  0
LINE
  5
1A1
330
1F
100
AcDbEntity
  8
0
  6
Continuous
 62
     7
370
    15
100
AcDbLine
 10
342.6082154508
 20
185.5374472424
 30
0.0
 11
353.7297716136
 21
219.7470786258
 31
0.0
  0
LINE
  5
1A2
330
1F
100
AcDbEntity
  8
0
  6
Continuous
 62
     7
370
    15
100
AcDbLine
 10
342.6082154508
 20
185.5374472424
 30
0.0
 11
327.6082148548
 21
185.5374472424
 31
0.0
  0
LINE
  5
1A3
330
1F
100
AcDbEntity
  8
0
  6
Continuous
 62
     7
370
    15
100
AcDbLine
 10
327.6082148548
 20
219.7470786258
 30
0.0
 11
327.6082148548
 21
185.5374472424
 31
0.0
  0
ELLIPSE
  5
1A4
330
1F
100
AcDbEntity
  8
0
  6
Continuous
 62
     7
370
    15
100
AcDbEllipse
 10
356.0054688537
 20
227.7470795194
 30
0.0
 11
1.667837984063908
 21
9.996515948551007
 31
0.0
210
0.0
220
0.0
230
1.0
 40
0.1582579684
 41
2.524489475692796
 42
2.994000470837337
  0
LINE
  5
1A5
330
1F
100
AcDbEntity
  8
0
  6
Continuous
 62
     7
370
    15
100
AcDbLine
 10
355.0374826189
 20
216.6985022113
 30
0.0
 11
354.1231175657
 21
217.8980605885
 31
0.0
  0
LINE
  5
1A6
330
1F
100
AcDbEntity
  8
0
  6
Continuous
 62
     7
370
    15
100
AcDbLine
 10
342.6082154508
 20
178.466378732
 30
0.0
 11
355.0374826189
 21
216.6985022113
 31
0.0
  0
LINE
  5
1A7
330
1F
100
AcDbEntity
  8
0
  6
Continuous
 62
     7
370
    15
100
AcDbLine
 10
281.1082174774
 20
185.5374472424
 30
0.0
 11
281.1082174774
 21
172.5374469742
 31
0.0
  0
LINE
  5
1A8
330
1F
100
AcDbEntity
  8
0
  6
Continuous
 62
     7
370
    15
100
AcDbLine
 10
342.6082154508
 20
185.5374472424
 30
0.0
 11
342.6082154508
 21
172.5374469742
 31
0.0
  0
LINE
  5
1A9
330
1F
100
AcDbEntity
  8
0
  6
Continuous
 62
     7
370
    15
100
AcDbLine
 10
281.1082174774
 20
185.5374472424
 30
0.0
 11
327.6082148548
 21
185.5374472424
 31
0.0
  0
LINE
  5
1AA
330
1F
100
AcDbEntity
  8
0
  6
Continuous
 62
     7
370
    15
100
AcDbLine
 10
326.1082192655
 20
265.0253968522
 30
0.0
 11
326.1082192655
 21
288.0495013878
 31
0.0
  0
LINE
  5
1AB
330
1F
100
AcDbEntity
  8
0
  6
Continuous
 62
     7
370
    15
100
AcDbLine
 10
356.1082204576
 20
266.6946323797
 30
0.0
 11
356.1082204576
 21
288.0495013878
 31
0.0
  0
LINE
  5
1AC
330
1F
100
AcDbEntity
  8
0
  6
Continuous
 62
     7
370
    15
100
AcDbLine
 10
368.1082298751
 20
293.54920706
 30
0.0
 11
356.1082204576
 21
293.54920706
 31
0.0
  0
LINE
  5
1AD
330
1F
100
AcDbEntity
  8
0
  6
Continuous
 62
     7
370
    15
100
AcDbLine
 10
368.1082298751
 20
242.9528730199
 30
0.0
 11
356.1082204576
 21
242.9528730199
 31
0.0
  0
LINE
  5
1AE
330
1F
100
AcDbEntity
  8
0
  6
Continuous
 62
     7
370
    15
100
AcDbLine
 10
368.1082298751
 20
293.54920706
 30
0.0
 11
368.1082298751
 21
242.9528730199
 31
0.0
  0
LINE
  5
1AF
330
1F
100
AcDbEntity
  8
0
  6
Continuous
 62
     7
370
    15
100
AcDbLine
 10
356.1082204576
 20
226.015944986
 30
0.0
 11
356.1082204576
 21
257.68151602
 31
0.0
  0
LINE
  5
1B0
330
1F
100
AcDbEntity
  8
0
  6
Continuous
 62
     7
370
    15
100
AcDbLine
 10
326.1082192655
 20
226.015944986
 30
0.0
 11
326.1082192655
 21
265.0253968522
 31
0.0
  0
LINE
  5
1B1
330
1F
100
AcDbEntity
  8
0
  6
Continuous
 62
     7
370
    15
100
AcDbLine
 10
326.1082192655
 20
288.0495013878
 30
0.0
 11
326.1082192655
 21
327.0589532539
 31
0.0
  0
LINE
  5
1B2
330
1F
100
AcDbEntity
  8
0
  6
Continuous
 62
     7
370
    15
100
AcDbLine
 10
356.1082204576
 20
288.0495013878
 30
0.0
 11
356.1082204576
 21
327.0589532539
 31
0.0
  0
LINE
  5
1B3
330
1F
100
AcDbEntity
  8
0
  6
Continuous
 62
     7
370
    15
100
AcDbLine
 10
368.1082298751
 20
330.7622494384
 30
0.0
 11
356.1082204576
 21
330.7622494384
 31
0.0
  0
LINE
  5
1B4
330
1F
100
AcDbEntity
  8
0
  6
Continuous
 62
     7
370
    15
100
AcDbLine
 10
368.1082298751
 20
330.7622494384
 30
0.0
 11
368.1082298751
 21
293.54920706
 31
0.0
  0
LINE
  5
1B5
330
1F
100
AcDbEntity
  8
0
  6
Continuous
 62
     7
370
    15
100
AcDbLine
 10
356.1082204576
 20
217.8980605885
 30
0.0
 11
356.1082204576
 21
226.015944986
 31
0.0
  0
LINE
  5
1B6
330
1F
100
AcDbEntity
  8
0
  6
Continuous
 62
     7
370
    15
100
AcDbLine
 10
326.1082192655
 20
217.8980605885
 30
0.0
 11
326.1082192655
 21
226.015944986
 31
0.0
  0
LINE
  5
1B7
330
1F
100
AcDbEntity
  8
0
  6
Continuous
 62
     7
370
    15
100
AcDbLine
 10
326.1082192655
 20
327.0589532539
 30
0.0
 11
326.1082192655
 21
335.1768376514
 31
0.0
  0
LINE
  5
1B8
330
1F
100
AcDbEntity
  8
0
  6
Continuous
 62
     7
370
    15
100
AcDbLine
 10
356.1082204576
 20
327.0589532539
 30
0.0
 11
356.1082204576
 21
335.1768376514
 31
0.0
  0
LINE
  5
1B9
330
1F
100
AcDbEntity
  8
0
  6
Continuous
 62
     7
370
    15
100
AcDbLine
 10
368.1082298751
 20
208.9732559606
 30
0.0
 11
352.5259962078
 21
208.9732559606
 31
0.0
  0
LINE
  5
1BA
330
1F
100
AcDbEntity
  8
0
  6
Continuous
 62
     7
370
    15
100
AcDbLine
 10
356.1082204576
 20
214.5396108016
 30
0.0
 11
354.3356230255
 21
214.5396108016
 31
0.0
  0
LINE
  5
1BB
330
1F
100
AcDbEntity
  8
0
  6
Continuous
 62
     7
370
    15
100
AcDbLine
 10
368.1082298751
 20
242.9528730199
 30
0.0
 11
368.1082298751
 21
208.9732559606
 31
0.0
  0
LINE
  5
1BC
330
1F
100
AcDbEntity
  8
0
  6
Continuous
 62
     7
370
    15
100
AcDbLine
 10
292.608218431
 20
190.5374461993
 30
0.0
 11
292.608218431
 21
185.5374472424
 31
0.0
  0
LINE
  5
1BD
330
1F
100
AcDbEntity
  8
0
  6
Continuous
 62
     7
370
    15
100
AcDbLine
 10
292.608218431
 20
190.5374461993
 30
0.0
 11
327.6082148548
 21
199.9987075314
 31
0.0
  0
ARC
  5
1BE
330
1F
100
AcDbEntity
  8
0
  6
Continuous
 62
     7
370
    15
100
AcDbCircle
 10
555.2995852833
 20
177.8137793895
 30
0.0
 40
192.1669624446393
100
AcDbArc
 50
164.4346349659
 51
166.9333923465
  0
LWPOLYLINE
  5
1BF
330
1F
100
AcDbEntity
  8
0
  6
Continuous
 62
     7
370
    15
100
AcDbPolyline
 90
        3
 70
   128
 43
0.0
 10
370.6729879375
 20
320.0041027948
 10
370.5786635871
 20
320.529651849
 10
370.112644672
 20
323.0469348118
  0
LWPOLYLINE
  5
1C0
330
1F
100
AcDbEntity
  8
0
  6
Continuous
 62
     7
370
    15
100
AcDbPolyline
 90
        3
 70
   128
 43
0.0
 10
371.2663521762
 20
318.0069597646
 10
370.9089627262
 20
319.2225666925
 10
370.6729879375
 20
320.0041027948
  0
LWPOLYLINE
  5
1C1
330
1F
100
AcDbEntity
  8
0
  6
Continuous
 62
     7
370
    15
100
AcDbPolyline
 90
       11
 70
   128
 43
0.0
 10
369.5732226367
 20
285.0210489914
 10
370.5629577632
 20
290.7191189214
 10
371.2068369384
 20
294.1422881767
 10
371.8184700008
 20
297.1884580537
 10
372.4020888801
 20
299.9059530183
 10
372.9236593242
 20
302.1805854723
 10
373.3527829643
 20
303.9415450975
 10
373.6903240676
 20
305.257228224
 10
373.9243617053
 20
306.134236066
 10
374.0299215312
 20
306.5188946411
 10
374.022411346
 20
306.4918639347
  0
ARC
  5
1C2
330
1F
100
AcDbEntity
  8
0
  6
Continuous
 62
     7
370
    15
100
AcDbCircle
 10
429.7029177675
 20
276.5374453947
 30
0.0
 40
60.72521524463835
100
AcDbArc
 50
171.9692357711
 51
188.0307642289
  0
LWPOLYLINE
  5
1C3
330
1F
100
AcDbEntity
  8
0
  6
Continuous
 62
     7
370
    15
100
AcDbPolyline
 90
       11
 70
   128
 43
0.0
 10
374.0218749042
 20
246.5849267527
 10
374.0299215312
 20
246.5559961483
 10
373.9294877048
 20
246.9218792602
 10
373.7077882286
 20
247.7512927934
 10
373.3646442886
 20
249.0860196039
 10
372.9236593242
 20
250.8943127677
 10
372.417884111
 20
253.097896485
 10
371.8531002994
 20
255.7200687215
 10
371.225284576
 20
258.8378759309
 10
370.5629577632
 20
262.3557793185
 10
369.5732226367
 20
268.053841798
  0
LINE
  5
1C4
330
1F
100
AcDbEntity
  8
0
  6
Continuous
 62
     7
370
    15
100
AcDbLine
 10
391.1082317825
 20
285.0210489914
 30
0.0
 11
391.1082317825
 21
268.053841798
 31
0.0
  0
LINE
  5
1C5
330
1F
100
AcDbEntity
  8
0
  6
Continuous
 62
     7
370
    15
100
AcDbLine
 10
347.6246168609
 20
374.5374502823
 30
0.0
 11
364.5918240543
 21
374.5374502823
 31
0.0
  0
LINE
  5
1C6
330
1F
100
AcDbEntity
  8
0
  6
Continuous
 62
     7
370
    15
100
AcDbLine
 10
347.6246168609
 20
386.5374447986
 30
0.0
 11
364.5918240543
 21
386.5374447986
 31
0.0
  0
LINE
  5
1C7
330
1F
100
AcDbEntity
  8
0
  6
Continuous
 62
     7
370
    15
100
AcDbLine
 10
356.1082204576
 20
214.5396108016
 30
0.0
 11
356.1082204576
 21
217.8980605885
 31
0.0
  0
LINE
  5
1C8
330
1F
100
AcDbEntity
  8
0
  6
Continuous
 62
     7
370
    15
100
AcDbLine
 10
326.1082192655
 20
211.0414738044
 30
0.0
 11
326.1082192655
 21
217.8980605885
 31
0.0
  0
LINE
  5
1C9
330
1F
100
AcDbEntity
  8
0
  6
Continuous
 62
     7
370
    15
100
AcDbLine
 10
350.9783318038
 20
341.6702868625
 30
0.0
 11
356.1082204576
 21
341.643241255
 31
0.0
  0
ARC
  5
1CA
330
1F
100
AcDbEntity
  8
0
  6
Continuous
 62
     7
370
    15
100
AcDbCircle
 10
351.1622933649
 20
401.3469361667
 30
0.0
 40
59.67693284699764
100
AcDbArc
 50
263.6735171638
 51
269.8233783603
  0
LINE
  5
1CB
330
1F
100
AcDbEntity
  8
0
  6
Continuous
 62
     7
370
    15
100
AcDbLine
 10
326.1082192655
 20
335.1768376514
 30
0.0
 11
326.1082192655
 21
342.0334281608
 31
0.0
  0
LINE
  5
1CC
330
1F
100
AcDbEntity
  8
0
  6
Continuous
 62
     7
370
    15
100
AcDbLine
 10
356.1082204576
 20
335.1768376514
 30
0.0
 11
356.1082204576
 21
341.643241255
 31
0.0
  0
LINE
  5
1CD
330
1F
100
AcDbEntity
  8
0
  6
Continuous
 62
     7
370
    15
100
AcDbLine
 10
326.1082192655
 20
374.5374502823
 30
0.0
 11
347.6246168609
 21
374.5374502823
 31
0.0
  0
LINE
  5
1CE
330
1F
100
AcDbEntity
  8
0
  6
Continuous
 62
     7
370
    15
100
AcDbLine
 10
326.1082192655
 20
386.5374447986
 30
0.0
 11
347.6246168609
 21
386.5374447986
 31
0.0
  0
ARC
  5
1CF
330
1F
100
AcDbEntity
  8
0
  6
Continuous
 62
     7
370
    15
100
AcDbCircle
 10
456.2744996226
 20
365.7721802461
 30
0.0
 40
71.91556292075099
100
AcDbArc
 50
167.336825323
 51
172.9992233125
  0
LINE
  5
1D0
330
1F
100
AcDbEntity
  8
0
  6
Continuous
 62
     7
370
    15
100
AcDbLine
 10
364.5918240543
 20
374.5374502823
 30
0.0
 11
384.8951032157
 21
374.5374502823
 31
0.0
  0
LINE
  5
1D1
330
1F
100
AcDbEntity
  8
0
  6
Continuous
 62
     7
370
    15
100
AcDbLine
 10
364.5918240543
 20
386.5374447986
 30
0.0
 11
386.1082365508
 21
386.5374447986
 31
0.0
  0
LINE
  5
1D2
330
1F
100
AcDbEntity
  8
0
  6
Continuous
 62
     7
370
    15
100
AcDbLine
 10
391.1082317825
 20
306.5374465868
 30
0.0
 11
391.1082317825
 21
285.0210489914
 31
0.0
  0
LINE
  5
1D3
330
1F
100
AcDbEntity
  8
0
  6
Continuous
 62
     7
370
    15
100
AcDbLine
 10
391.1082317825
 20
268.053841798
 30
0.0
 11
391.1082317825
 21
246.5374442026
 31
0.0
  0
LINE
  5
1D4
330
1F
100
AcDbEntity
  8
0
  6
Continuous
 62
     7
370
    15
100
AcDbLine
 10
368.1082298751
 20
334.8007174417
 30
0.0
 11
356.1082204576
 21
334.8007174417
 31
0.0
  0
LINE
  5
1D5
330
1F
100
AcDbEntity
  8
0
  6
Continuous
 62
     7
370
    15
100
AcDbLine
 10
368.1082298751
 20
334.8007174417
 30
0.0
 11
368.1082298751
 21
330.7622494384
 31
0.0
  0
ARC
  5
1D6
330
1F
100
AcDbEntity
  8
0
  6
Continuous
 62
     7
370
    15
100
AcDbCircle
 10
393.1608171504
 20
365.0302697962
 30
0.0
 40
23.16615943658065
100
AcDbArc
 50
155.7706085581
 51
173.1994505731
  0
LWPOLYLINE
  5
1D7
330
1F
100
AcDbEntity
  8
0
  6
Continuous
 62
     7
370
    15
100
AcDbPolyline
 90
       14
 70
   128
 43
0.0
 10
370.1576461788
 20
367.7734555885
 10
369.9032535549
 20
367.7121522113
 10
367.3249652381
 20
367.2624947712
 10
363.9379461999
 20
366.9831725046
 10
360.105561256
 20
366.931346266
 10
356.1082204576
 20
366.9283213302
 10
352.1108796592
 20
366.931346266
 10
348.2785096164
 20
366.9831725046
 10
344.8914607759
 20
367.2624947712
 10
342.3131873603
 20
367.7121522113
 10
340.5881246324
 20
368.2023557111
 10
339.319499373
 20
368.689698188
 10
338.5312577482
 20
369.1754015371
 10
338.3133729692
 20
369.5686282798
  0
LWPOLYLINE
  5
1D8
330
1F
100
AcDbEntity
  8
0
  6
Continuous
 62
     7
370
    15
100
AcDbPolyline
 90
       12
 70
   128
 43
0.0
 10
369.7713186737
 20
351.5480729028
 10
369.7683980461
 20
351.5380295202
 10
369.7199394699
 20
351.7664047167
 10
369.6636428829
 20
352.4261536285
 10
369.5953061576
 20
353.4624995872
 10
369.5139160152
 20
354.9048425838
 10
369.4216778274
 20
356.6323789045
 10
369.3289926048
 20
358.6947145149
 10
369.3226447101
 20
360.9187873289
 10
369.4632222648
 20
363.3722337171
 10
369.7336783405
 20
365.544986932
 10
370.1576461788
 20
367.7734555885
  0
LINE
  5
1D9
330
1F
100
AcDbEntity
  8
0
  6
Continuous
 62
     7
370
    15
100
AcDbLine
 10
368.1082298751
 20
335.9869988844
 30
0.0
 11
368.1082298751
 21
334.8007174417
 31
0.0
  0
LINE
  5
1DA
330
1F
100
AcDbEntity
  8
0
  6
Continuous
 62
     7
370
    15
100
AcDbLine
 10
368.1082298751
 20
351.0570051357
 30
0.0
 11
368.1082298751
 21
335.9869988844
 31
0.0
  0
LINE
  5
1DB
330
1F
100
AcDbEntity
  8
0
  6
Continuous
 62
     7
370
    15
100
AcDbLine
 10
368.1082298751
 20
205.6391621217
 30
0.0
 11
356.1082204576
 21
205.6391621217
 31
0.0
  0
LINE
  5
1DC
330
1F
100
AcDbEntity
  8
0
  6
Continuous
 62
     7
370
    15
100
AcDbLine
 10
368.1082298751
 20
205.5379385337
 30
0.0
 11
368.1082298751
 21
205.4567570075
 31
0.0
  0
LINE
  5
1DD
330
1F
100
AcDbEntity
  8
0
  6
Continuous
 62
     7
370
    15
100
AcDbLine
 10
368.1082298751
 20
208.9732559606
 30
0.0
 11
368.1082298751
 21
205.6391621217
 31
0.0
  0
LINE
  5
1DE
330
1F
100
AcDbEntity
  8
0
  6
Continuous
 62
     7
370
    15
100
AcDbLine
 10
344.1082259412
 20
342.0908423349
 30
0.0
 11
344.5862700935
 21
342.0334281608
 31
0.0
  0
LINE
  5
1DF
330
1F
100
AcDbEntity
  8
0
  6
Continuous
 62
     7
370
    15
100
AcDbLine
 10
344.1082259412
 20
342.0908423349
 30
0.0
 11
344.1082259412
 21
351.0570051357
 31
0.0
  0
LINE
  5
1E0
330
1F
100
AcDbEntity
  8
0
  6
Continuous
 62
     7
370
    15
100
AcDbLine
 10
386.1082365508
 20
381.537449567
 30
0.0
 11
386.1082365508
 21
351.5374483749
 31
0.0
  0
LINE
  5
1E1
330
1F
100
AcDbEntity
  8
0
  6
Continuous
 62
     7
370
    15
100
AcDbLine
 10
356.1082204576
 20
205.6391621217
 30
0.0
 11
356.1082204576
 21
205.5378677532
 31
0.0
  0
LINE
  5
1E2
330
1F
100
AcDbEntity
  8
0
  6
Continuous
 62
     7
370
    15
100
AcDbLine
 10
372.6082315441
 20
229.537447004
 30
0.0
 11
372.6082315441
 21
205.5374467954
 31
0.0
  0
LWPOLYLINE
  5
1E3
330
1F
100
AcDbEntity
  8
0
  6
Continuous
 62
     7
370
    15
100
AcDbPolyline
 90
        3
 70
   128
 43
0.0
 10
371.6729750629
 20
320.0041027948
 10
371.8551566596
 20
319.4021554872
 10
372.2663393016
 20
318.0069597646
  0
LWPOLYLINE
  5
1E4
330
1F
100
AcDbEntity
  8
0
  6
Continuous
 62
     7
370
    15
100
AcDbPolyline
 90
        3
 70
   128
 43
0.0
 10
371.1126317974
 20
323.0469348118
 10
371.4907338615
 20
321.0143717214
 10
371.6729750629
 20
320.0041027948
  0
LINE
  5
1E5
330
1F
100
AcDbEntity
  8
0
  6
Continuous
 62
     7
370
    15
100
AcDbLine
 10
371.3928034301
 20
321.8230130359
 30
0.0
 11
371.1126317974
 21
323.0469348118
 31
0.0
  0
LINE
  5
1E6
330
1F
100
AcDbEntity
  8
0
  6
Continuous
 62
     7
370
    15
100
AcDbLine
 10
371.3928034301
 20
322.7874459907
 30
0.0
 11
371.3928034301
 21
321.8230130359
 31
0.0
  0
LWPOLYLINE
  5
1E7
330
1F
100
AcDbEntity
  8
0
  6
Continuous
 62
     7
370
    15
100
AcDbPolyline
 90
        3
 70
   128
 43
0.0
 10
371.1126317974
 20
324.0206064865
 10
371.2555339332
 20
323.3956964895
 10
371.3928034301
 20
322.7874459907
  0
LINE
  5
1E8
330
1F
100
AcDbEntity
  8
0
  6
Continuous
 62
     7
370
    15
100
AcDbLine
 10
372.2333183284
 20
319.0223695919
 30
0.0
 11
372.2333183284
 21
318.151203005
 31
0.0
  0
LINE
  5
1E9
330
1F
100
AcDbEntity
  8
0
  6
Continuous
 62
     7
370
    15
100
AcDbLine
 10
372.2333183284
 20
318.0069597646
 30
0.0
 11
372.2333183284
 21
317.5892951175
 31
0.0
  0
LINE
  5
1EA
330
1F
100
AcDbEntity
  8
0
  6
Continuous
 62
     7
370
    15
100
AcDbLine
 10
371.9531466957
 20
320.2873291656
 30
0.0
 11
371.9763329025
 21
320.1834978744
 31
0.0
  0
LWPOLYLINE
  5
1EB
330
1F
100
AcDbEntity
  8
0
  6
Continuous
 62
     7
370
    15
100
AcDbPolyline
 90
        3
 70
   128
 43
0.0
 10
372.0018436904
 20
320.0692804739
 10
372.0755150314
 20
319.7394283697
 10
372.2333183284
 20
319.0223695919
  0
LINE
  5
1EC
330
1F
100
AcDbEntity
  8
0
  6
Continuous
 62
     7
370
    15
100
AcDbLine
 10
371.9531466957
 20
319.375139682
 30
0.0
 11
371.9531466957
 21
320.2873291656
 31
0.0
  0
LINE
  5
1ED
330
1F
100
AcDbEntity
  8
0
  6
Continuous
 62
     7
370
    15
100
AcDbLine
 10
372.2663393016
 20
318.0069597646
 30
0.0
 11
371.9531466957
 21
319.375139682
 31
0.0
  0
LINE
  5
1EE
330
1F
100
AcDbEntity
  8
0
  6
Continuous
 62
     7
370
    15
100
AcDbLine
 10
371.6729750629
 20
320.0041027948
 30
0.0
 11
370.6729879375
 21
320.0041027948
 31
0.0
  0
LINE
  5
1EF
330
1F
100
AcDbEntity
  8
0
  6
Continuous
 62
     7
370
    15
100
AcDbLine
 10
372.2663393016
 20
318.0069597646
 30
0.0
 11
371.2663521762
 21
318.0069597646
 31
0.0
  0
LINE
  5
1F0
330
1F
100
AcDbEntity
  8
0
  6
Continuous
 62
     7
370
    15
100
AcDbLine
 10
371.1126317974
 20
323.0469348118
 30
0.0
 11
370.112644672
 21
323.0469348118
 31
0.0
  0
LINE
  5
1F1
330
1F
100
AcDbEntity
  8
0
  6
Continuous
 62
     7
370
    15
100
AcDbLine
 10
326.1082192655
 20
210.0374484643
 30
0.0
 11
326.1082192655
 21
211.0414738044
 31
0.0
  0
LINE
  5
1F2
330
1F
100
AcDbEntity
  8
0
  6
Continuous
 62
     7
370
    15
100
AcDbLine
 10
326.1082192655
 20
342.0334281608
 30
0.0
 11
326.1082192655
 21
343.0374535009
 31
0.0
  0
LINE
  5
1F3
330
1F
100
AcDbEntity
  8
0
  6
Continuous
 62
     7
370
    15
100
AcDbLine
 10
371.3928034301
 20
322.7874459907
 30
0.0
 11
371.1720278259
 21
322.7874459907
 31
0.0
  0
LINE
  5
1F4
330
1F
100
AcDbEntity
  8
0
  6
Continuous
 62
     7
370
    15
100
AcDbLine
 10
372.2333183284
 20
319.0223695919
 30
0.0
 11
372.0339109893
 21
319.0223695919
 31
0.0
  0
LINE
  5
1F5
330
1F
100
AcDbEntity
  8
0
  6
Continuous
 62
     7
370
    15
100
AcDbLine
 10
371.1126317974
 20
324.0206064865
 30
0.0
 11
370.1163997646
 21
324.0206064865
 31
0.0
  0
LINE
  5
1F6
330
1F
100
AcDbEntity
  8
0
  6
Continuous
 62
     7
370
    15
100
AcDbLine
 10
372.2333183284
 20
317.5892951175
 30
0.0
 11
371.5579082962
 21
317.5892951175
 31
0.0
  0
LINE
  5
1F7
330
1F
100
AcDbEntity
  8
0
  6
Continuous
 62
     7
370
    15
100
AcDbLine
 10
137.1082218136
 20
152.5374474212
 30
0.0
 11
114.1082217689
 21
152.5374474212
 31
0.0
  0
LINE
  5
1F8
330
1F
100
AcDbEntity
  8
0
  6
Continuous
 62
     7
370
    15
100
AcDbLine
 10
114.1082217689
 20
152.5374474212
 30
0.0
 11
114.1082217689
 21
154.5374475162
 31
0.0
  0
LINE
  5
1F9
330
1F
100
AcDbEntity
  8
0
  6
Continuous
 62
     7
370
    15
100
AcDbLine
 10
114.1082217689
 20
154.5374475162
 30
0.0
 11
137.1082218136
 21
154.5374475162
 31
0.0
  0
LINE
  5
1FA
330
1F
100
AcDbEntity
  8
0
  6
Continuous
 62
     7
370
    15
100
AcDbLine
 10
137.1082218136
 20
152.5374474212
 30
0.0
 11
204.058291554
 21
152.5374474212
 31
0.0
  0
LINE
  5
1FB
330
1F
100
AcDbEntity
  8
0
  6
Continuous
 62
     7
370
    15
100
AcDbLine
 10
214.1574939485
 20
152.5374474212
 30
0.0
 11
361.1082156892
 21
152.5374474212
 31
0.0
  0
LINE
  5
1FC
330
1F
100
AcDbEntity
  8
0
  6
Continuous
 62
     7
370
    15
100
AcDbLine
 10
137.1082218136
 20
154.5374475162
 30
0.0
 11
204.0587162371
 21
154.5374475162
 31
0.0
  0
LINE
  5
1FD
330
1F
100
AcDbEntity
  8
0
  6
Continuous
 62
     7
370
    15
100
AcDbLine
 10
214.1566296812
 20
154.5374475162
 30
0.0
 11
361.1082156892
 21
154.5374475162
 31
0.0
  0
LINE
  5
1FE
330
1F
100
AcDbEntity
  8
0
  6
Continuous
 62
     7
370
    15
100
AcDbLine
 10
384.1082324977
 20
154.5374475162
 30
0.0
 11
384.1082324977
 21
152.5374474212
 31
0.0
  0
LINE
  5
1FF
330
1F
100
AcDbEntity
  8
0
  6
Continuous
 62
     7
370
    15
100
AcDbLine
 10
361.1082156892
 20
154.5374475162
 30
0.0
 11
384.1082324977
 21
154.5374475162
 31
0.0
  0
LINE
  5
200
330
1F
100
AcDbEntity
  8
0
  6
Continuous
 62
     7
370
    15
100
AcDbLine
 10
384.1082324977
 20
152.5374474212
 30
0.0
 11
361.1082156892
 21
152.5374474212
 31
0.0
  0
ARC
  5
201
330
1F
100
AcDbEntity
  8
0
  6
Continuous
 62
     7
370
    15
100
AcDbCircle
 10
115.1082217689
 20
156.5374474212
 30
0.0
 40
2.0
100
AcDbArc
 50
270.0
 51
0.0
  0
ARC
  5
202
330
1F
100
AcDbEntity
  8
0
  6
Continuous
 62
     7
370
    15
100
AcDbCircle
 10
383.1082217689
 20
156.5374474212
 30
0.0
 40
2.0
100
AcDbArc
 50
180.0
 51
270.0
  0
LINE
  5
203
330
1F
100
AcDbEntity
  8
0
  6
Continuous
 62
     7
370
    15
100
AcDbLine
 10
381.1082115169
 20
167.537447086
 30
0.0
 11
381.1082115169
 21
156.5374476112
 31
0.0
  0
LINE
  5
204
330
1F
100
AcDbEntity
  8
0
  6
Continuous
 62
     7
370
    15
100
AcDbLine
 10
361.1082156892
 20
172.5374469742
 30
0.0
 11
376.1082162853
 21
172.5374469742
 31
0.0
  0
ARC
  5
205
330
1F
100
AcDbEntity
  8
0
  6
Continuous
 62
     7
370
    15
100
AcDbCircle
 10
376.1082217689
 20
167.5374474212
 30
0.0
 40
5.0
100
AcDbArc
 50
0.0
 51
90.0
  0
LINE
  5
206
330
1F
100
AcDbEntity
  8
0
  6
Continuous
 62
     7
370
    15
100
AcDbLine
 10
122.1082221489
 20
172.5374469742
 30
0.0
 11
137.1082218136
 21
172.5374469742
 31
0.0
  0
ARC
  5
207
330
1F
100
AcDbEntity
  8
0
  6
Continuous
 62
     7
370
    15
100
AcDbCircle
 10
122.1082217689
 20
167.5374474212
 30
0.0
 40
5.0
100
AcDbArc
 50
90.0
 51
180.0
  0
LINE
  5
208
330
1F
100
AcDbEntity
  8
0
  6
Continuous
 62
     7
370
    15
100
AcDbLine
 10
137.1082218136
 20
172.5374469742
 30
0.0
 11
204.0592675801
 21
172.5374469742
 31
0.0
  0
LINE
  5
209
330
1F
100
AcDbEntity
  8
0
  6
Continuous
 62
     7
370
    15
100
AcDbLine
 10
214.1571735735
 20
172.5374469742
 30
0.0
 11
361.1082156892
 21
172.5374469742
 31
0.0
  0
LINE
  5
20A
330
1F
100
AcDbEntity
  8
0
  6
Continuous
 62
     7
370
    15
100
AcDbLine
 10
117.108221795
 20
156.5374476112
 30
0.0
 11
117.108221795
 21
167.537447086
 31
0.0
  0
ARC
  5
20B
330
1F
100
AcDbEntity
  8
0
  6
Continuous
 62
     7
370
    15
100
AcDbCircle
 10
209.1082217689
 20
188.0374474212
 30
0.0
 40
12.0
100
AcDbArc
 50
0.0
 51
180.0
  0
LINE
  5
20C
330
1F
100
AcDbEntity
  8
0
  6
Continuous
 62
     7
370
    15
100
AcDbLine
 10
221.1082225438
 20
188.0374485835
 30
0.0
 11
221.1082225438
 21
173.1374478176
 31
0.0
  0
LINE
  5
20D
330
1F
100
AcDbEntity
  8
0
  6
Continuous
 62
     7
370
    15
100
AcDbLine
 10
197.1082186099
 20
188.0374485835
 30
0.0
 11
197.1082186099
 21
173.1374478176
 31
0.0
  0
LINE
  5
20E
330
1F
100
AcDbEntity
  8
0
  6
Continuous
 62
     7
370
    15
100
AcDbLine
 10
132.8082216676
 20
201.5374461397
 30
0.0
 11
132.8082216676
 21
175.7374471262
 31
0.0
  0
LINE
  5
20F
330
1F
100
AcDbEntity
  8
0
  6
Continuous
 62
     7
370
    15
100
AcDbLine
 10
149.6082229312
 20
175.7374471262
 30
0.0
 11
149.6082229312
 21
172.5374469742
 31
0.0
  0
LINE
  5
210
330
1F
100
AcDbEntity
  8
0
  6
Continuous
 62
     7
370
    15
100
AcDbLine
 10
129.6082215156
 20
201.5374461397
 30
0.0
 11
132.8082216676
 21
201.5374461397
 31
0.0
  0
LINE
  5
211
330
1F
100
AcDbEntity
  8
0
  6
Continuous
 62
     7
370
    15
100
AcDbLine
 10
132.8082216676
 20
175.7374471262
 30
0.0
 11
149.6082229312
 21
175.7374471262
 31
0.0
  0
LINE
  5
212
330
1F
100
AcDbEntity
  8
0
  6
Continuous
 62
     7
370
    15
100
AcDbLine
 10
129.6082215156
 20
172.5374469742
 30
0.0
 11
129.6082215156
 21
185.8675750181
 31
0.0
  0
LINE
  5
213
330
1F
100
AcDbEntity
  8
SLD-0
370
     0
100
AcDbLine
 10
134.1082217689
 20
174.7518557923
 30
0.0
 11
134.1082217689
 21
147.9407927969
 31
0.0
  0
LINE
  5
214
330
1F
100
AcDbEntity
  8
SLD-0
370
     0
100
AcDbLine
 10
364.1082217689
 20
174.7518557923
 30
0.0
 11
364.1082217689
 21
147.9407927969
 31
0.0
  0
LINE
  5
215
330
1F
100
AcDbEntity
  8
SLD-0
  6
CENTERX2
370
     0
100
AcDbLine
 10
69.395640228
 20
276.5374474212
 30
0.0
 11
427.9412796797
 21
276.5374474212
 31
0.0
  0
LINE
  5
216
330
1F
100
AcDbEntity
  8
SLD-0
  6
CENTERX2
370
     0
100
AcDbLine
 10
356.1082217689
 20
194.512006846
 30
0.0
 11
356.1082217689
 21
430.4334673002
 31
0.0
  0
LINE
  5
217
330
1F
100
AcDbEntity
  8
SLD-0
  6
CENTERX2
370
     0
100
AcDbLine
 10
258.1082217689
 20
168.5374474212
 30
0.0
 11
258.1082217689
 21
174.5374474212
 31
0.0
  0
LINE
  5
218
330
1F
100
AcDbEntity
  8
0
  6
Continuous
 62
     7
370
    15
100
AcDbLine
 10
661.931161805
 20
386.5374447986
 30
0.0
 11
661.931161805
 21
388.5374488517
 31
0.0
  0
LINE
  5
219
330
1F
100
AcDbEntity
  8
0
  6
Continuous
 62
     7
370
    15
100
AcDbLine
 10
556.9311650833
 20
388.5374488517
 30
0.0
 11
556.9311650833
 21
386.5374447986
 31
0.0
  0
ARC
  5
21A
330
1F
100
AcDbEntity
  8
0
  6
Continuous
 62
     7
370
    15
100
AcDbCircle
 10
579.4311634442
 20
401.7374474212
 30
0.0
 40
1.0
100
AcDbArc
 50
270.0
 51
0.0
  0
ARC
  5
21B
330
1F
100
AcDbEntity
  8
0
  6
Continuous
 62
     7
370
    15
100
AcDbCircle
 10
639.4311634442
 20
401.7374474212
 30
0.0
 40
1.0
100
AcDbArc
 50
180.0
 51
270.0
  0
LINE
  5
21C
330
1F
100
AcDbEntity
  8
0
  6
Continuous
 62
     7
370
    15
100
AcDbLine
 10
638.4311626097
 20
401.7374487802
 30
0.0
 11
638.4311626097
 21
413.5374548122
 31
0.0
  0
LINE
  5
21D
330
1F
100
AcDbEntity
  8
0
  6
Continuous
 62
     7
370
    15
100
AcDbLine
 10
580.4311642786
 20
413.5374548122
 30
0.0
 11
580.4311642786
 21
401.7374487802
 31
0.0
  0
ARC
  5
21E
330
1F
100
AcDbEntity
  8
0
  6
Continuous
 62
     7
370
    15
100
AcDbCircle
 10
581.4311634442
 20
413.5374474212
 30
0.0
 40
1.0
100
AcDbArc
 50
90.0
 51
180.0
  0
ARC
  5
21F
330
1F
100
AcDbEntity
  8
0
  6
Continuous
 62
     7
370
    15
100
AcDbCircle
 10
637.4311634442
 20
413.5374474212
 30
0.0
 40
1.0
100
AcDbArc
 50
0.0
 51
90.0
  0
LINE
  5
220
330
1F
100
AcDbEntity
  8
0
  6
Continuous
 62
     7
370
    15
100
AcDbLine
 10
637.4311643084
 20
388.5374488517
 30
0.0
 11
637.4311643084
 21
388.7374522373
 31
0.0
  0
LINE
  5
221
330
1F
100
AcDbEntity
  8
0
  6
Continuous
 62
     7
370
    15
100
AcDbLine
 10
581.4311625799
 20
388.7374522373
 30
0.0
 11
581.4311625799
 21
388.5374488517
 31
0.0
  0
ARC
  5
222
330
1F
100
AcDbEntity
  8
0
  6
Continuous
 62
     7
370
    15
100
AcDbCircle
 10
660.4311634442
 20
397.7374474212
 30
0.0
 40
3.0
100
AcDbArc
 50
0.0
 51
90.0
  0
LINE
  5
223
330
1F
100
AcDbEntity
  8
0
  6
Continuous
 62
     7
370
    15
100
AcDbLine
 10
663.4311648449
 20
388.7374522373
 30
0.0
 11
663.4311648449
 21
397.737440674
 31
0.0
  0
ARC
  5
224
330
1F
100
AcDbEntity
  8
0
  6
Continuous
 62
     7
370
    15
100
AcDbCircle
 10
558.4311634442
 20
397.7374474212
 30
0.0
 40
3.0
100
AcDbArc
 50
90.0
 51
180.0
  0
LINE
  5
225
330
1F
100
AcDbEntity
  8
0
  6
Continuous
 62
     7
370
    15
100
AcDbLine
 10
555.4311620434
 20
397.737440674
 30
0.0
 11
555.4311620434
 21
388.7374522373
 31
0.0
  0
LINE
  5
226
330
1F
100
AcDbEntity
  8
0
  6
Continuous
 62
     7
370
    15
100
AcDbLine
 10
534.4311604639
 20
199.5374458119
 30
0.0
 11
531.4311618348
 21
199.5374458119
 31
0.0
  0
ARC
  5
227
330
1F
100
AcDbEntity
  8
0
  6
Continuous
 62
     7
370
    15
100
AcDbCircle
 10
528.4311634442
 20
198.7874474212
 30
0.0
 40
3.000000000000022
100
AcDbArc
 50
302.2309526355
 51
0.0
  0
LWPOLYLINE
  5
228
330
1F
100
AcDbEntity
  8
0
  6
Continuous
 62
     7
370
    15
100
AcDbPolyline
 90
        3
 70
   128
 43
0.0
 10
529.4311652323
 20
195.9590213582
 10
529.016436114
 20
195.845090805
 10
528.4311632057
 20
195.7874456629
  0
LINE
  5
229
330
1F
100
AcDbEntity
  8
0
  6
Continuous
 62
     7
370
    15
100
AcDbLine
 10
528.4311632057
 20
195.7874456629
 30
0.0
 11
527.4311611792
 21
195.7874456629
 31
0.0
  0
ARC
  5
22A
330
1F
100
AcDbEntity
  8
0
  6
Continuous
 62
     7
370
    15
100
AcDbCircle
 10
527.4311634442
 20
194.7874474212
 30
0.0
 40
1.0
100
AcDbArc
 50
90.0
 51
180.0
  0
LWPOLYLINE
  5
22B
330
1F
100
AcDbEntity
  8
0
  6
Continuous
 62
     7
370
    15
100
AcDbPolyline
 90
       21
 70
   128
 43
0.0
 10
521.431163921
 20
194.5882598147
 10
517.2945419689
 20
194.2215496883
 10
513.7530872961
 20
193.3975229248
 10
510.8312527081
 20
192.2339061484
 10
508.5082063814
 20
190.9924196288
 10
506.7165205618
 20
189.8087570652
 10
505.2593434592
 20
188.6678906366
 10
503.5773078343
 20
187.1074224099
 10
502.1086270353
 20
185.4780549392
 10
500.4090527436
 20
183.1604829266
 10
498.7832541009
 20
180.2394399628
 10
497.5767666837
 20
177.1829733833
 10
496.8177536865
 20
174.1681667253
 10
496.4675838491
 20
171.3684136256
 10
496.3648775955
 20
168.8329382077
 10
496.3641846915
 20
167.2065034717
 10
496.3879743954
 20
165.0033388495
 10
496.3972205659
 20
162.1656166598
 10
496.385351791
 20
158.7051958985
 10
496.3779310127
 20
154.5145441986
 10
496.3805983206
 20
149.5374473952
  0
LWPOLYLINE
  5
22C
330
1F
100
AcDbEntity
  8
0
  6
Continuous
 62
     7
370
    15
100
AcDbPolyline
 90
       18
 70
   128
 43
0.0
 10
506.4817304155
 20
149.5374473952
 10
506.4774016281
 20
155.7407037098
 10
506.489128842
 20
160.6881683901
 10
506.4881602665
 20
164.2441293433
 10
506.4699510475
 20
166.9154754117
 10
506.5029347678
 20
169.7794245764
 10
506.8063745638
 20
172.6350961461
 10
507.363223507
 20
174.6290149376
 10
508.2386071225
 20
176.5642063901
 10
509.4666788717
 20
178.5006104246
 10
510.9308818718
 20
180.1822548941
 10
512.0746652027
 20
181.1982663557
 10
512.6225883504
 20
181.6159198269
 10
513.5194221874
 20
182.2194280311
 10
514.8145268103
 20
182.9417953476
 10
516.5517786881
 20
183.6765920952
 10
518.7601754805
 20
184.2377381608
 10
520.4311618944
 20
184.39345157
  0
LINE
  5
22D
330
1F
100
AcDbEntity
  8
0
  6
Continuous
 62
     7
370
    15
100
AcDbLine
 10
526.4311666032
 20
194.5874477014
 30
0.0
 11
521.4188108584
 21
194.5874477014
 31
0.0
  0
ARC
  5
22E
330
1F
100
AcDbEntity
  8
0
  6
Continuous
 62
     7
370
    15
100
AcDbCircle
 10
631.2918878866
 20
374.8668024139
 30
0.0
 40
44.08142431241437
100
AcDbArc
 50
190.3748136375
 51
214.004009767
  0
LWPOLYLINE
  5
22F
330
1F
100
AcDbEntity
  8
0
  6
Continuous
 62
     7
370
    15
100
AcDbPolyline
 90
        9
 70
   128
 43
0.0
 10
640.1278199991
 20
353.7378283426
 10
638.5037983199
 20
354.6942295715
 10
636.8165063103
 20
355.9773089573
 10
635.1450207075
 20
357.6377900526
 10
633.5873818388
 20
359.7173514053
 10
632.2638104101
 20
362.2433366462
 10
631.320270746
 20
365.2229728386
 10
630.9323842069
 20
368.6368437692
 10
630.9311641743
 20
372.3923387214
  0
LINE
  5
230
330
1F
100
AcDbEntity
  8
0
  6
Continuous
 62
     7
370
    15
100
AcDbLine
 10
630.9311436852
 20
372.3923387214
 30
0.0
 11
630.9311511358
 21
374.5374353811
 31
0.0
  0
LWPOLYLINE
  5
231
330
1F
100
AcDbEntity
  8
0
  6
Continuous
 62
     7
370
    15
100
AcDbPolyline
 90
        3
 70
   128
 43
0.0
 10
587.9311683019
 20
374.5975317642
 10
587.9311757525
 20
370.7629265472
 10
587.9311850657
 20
366.9283213302
  0
LINE
  5
232
330
1F
100
AcDbEntity
  8
0
  6
Continuous
 62
     7
370
    15
100
AcDbLine
 10
657.8059802195
 20
343.3844568416
 30
0.0
 11
657.3674390455
 21
341.7478027031
 31
0.0
  0
LINE
  5
233
330
1F
100
AcDbEntity
  8
0
  6
Continuous
 62
     7
370
    15
100
AcDbLine
 10
674.3134940406
 20
319.9898721859
 30
0.0
 11
679.0563473841
 21
337.6904400274
 31
0.0
  0
LINE
  5
234
330
1F
100
AcDbEntity
  8
0
  6
Continuous
 62
     7
370
    15
100
AcDbLine
 10
661.931161805
 20
374.5374502823
 30
0.0
 11
661.931161805
 21
386.5374447986
 31
0.0
  0
LINE
  5
235
330
1F
100
AcDbEntity
  8
0
  6
Continuous
 62
     7
370
    15
100
AcDbLine
 10
556.9311650833
 20
386.5374447986
 30
0.0
 11
556.9311650833
 21
374.5374502823
 31
0.0
  0
ARC
  5
236
330
1F
100
AcDbEntity
  8
0
  6
Continuous
 62
     7
370
    15
100
AcDbCircle
 10
586.2159965666
 20
344.8162442202
 30
0.0
 40
10.0
100
AcDbArc
 50
343.6747508577
 51
32.3218745104
  0
LINE
  5
237
330
1F
100
AcDbEntity
  8
0
  6
Continuous
 62
     7
370
    15
100
AcDbLine
 10
534.9311614772
 20
200.0374468252
 30
0.0
 11
534.4311604639
 21
200.0374468252
 31
0.0
  0
LINE
  5
238
330
1F
100
AcDbEntity
  8
0
  6
Continuous
 62
     7
370
    15
100
AcDbLine
 10
658.8383810958
 20
388.5374488517
 30
0.0
 11
560.0239457926
 21
388.5374488517
 31
0.0
  0
LINE
  5
239
330
1F
100
AcDbEntity
  8
0
  6
Continuous
 62
     7
370
    15
100
AcDbLine
 10
658.8383810958
 20
388.5374488517
 30
0.0
 11
661.931161805
 21
388.5374488517
 31
0.0
  0
LINE
  5
23A
330
1F
100
AcDbEntity
  8
0
  6
Continuous
 62
     7
370
    15
100
AcDbLine
 10
556.9311650833
 20
388.5374488517
 30
0.0
 11
560.0239457926
 21
388.5374488517
 31
0.0
  0
CIRCLE
  5
23B
330
1F
100
AcDbEntity
  8
0
  6
Continuous
 62
     7
370
    15
100
AcDbCircle
 10
569.4311634442
 20
276.5374474212
 30
0.0
 40
6.0
  0
ARC
  5
23C
330
1F
100
AcDbEntity
  8
0
  6
Continuous
 62
     7
370
    15
100
AcDbCircle
 10
609.4311634442
 20
313.0999474212
 30
0.0
 40
66.56250000000003
100
AcDbArc
 50
268.4286385692
 51
284.9008273264
  0
LINE
  5
23D
330
1F
100
AcDbEntity
  8
0
  6
Continuous
 62
     7
370
    15
100
AcDbLine
 10
611.7281811675
 20
306.4977945968
 30
0.0
 11
607.6124355094
 21
306.5125914499
 31
0.0
  0
CIRCLE
  5
23E
330
1F
100
AcDbEntity
  8
0
  6
Continuous
 62
     7
370
    15
100
AcDbCircle
 10
649.4311634442
 20
276.5374474212
 30
0.0
 40
6.0
  0
CIRCLE
  5
23F
330
1F
100
AcDbEntity
  8
0
  6
Continuous
 62
     7
370
    15
100
AcDbCircle
 10
609.4311634442
 20
276.5374474212
 30
0.0
 40
29.00000000000006
  0
CIRCLE
  5
240
330
1F
100
AcDbEntity
  8
0
  6
Continuous
 62
     7
370
    15
100
AcDbCircle
 10
609.4311634442
 20
276.5374474212
 30
0.0
 40
22.49999999999997
  0
CIRCLE
  5
241
330
1F
100
AcDbEntity
  8
0
  6
Continuous
 62
     7
370
    15
100
AcDbCircle
 10
609.4311634442
 20
276.5374474212
 30
0.0
 40
19.476
  0
ARC
  5
242
330
1F
100
AcDbEntity
  8
0
  6
Continuous
 62
     7
370
    15
100
AcDbCircle
 10
609.6241013101
 20
316.5372722246
 30
0.0
 40
70.00009391512711
100
AcDbArc
 50
269.8420782201
 51
284.2356057713
  0
ARC
  5
243
330
1F
100
AcDbEntity
  8
0
  6
Continuous
 62
     7
370
    15
100
AcDbCircle
 10
609.2381806059
 20
236.5377475828
 30
0.0
 40
69.99996502158207
100
AcDbArc
 50
89.8420411188
 51
104.2355945604
  0
ARC
  5
244
330
1F
100
AcDbEntity
  8
0
  6
Continuous
 62
     7
370
    15
100
AcDbCircle
 10
609.23821286
 20
316.5371692201
 30
0.0
 40
69.99999094611817
100
AcDbArc
 50
255.7643835864
 51
270.1579324222
  0
ARC
  5
245
330
1F
100
AcDbEntity
  8
0
  6
Continuous
 62
     7
370
    15
100
AcDbCircle
 10
609.6241595473
 20
236.5378550148
 30
0.0
 40
69.99985762651902
100
AcDbArc
 50
75.7643943398
 51
90.157969981
  0
LINE
  5
246
330
1F
100
AcDbEntity
  8
0
  6
Continuous
 62
     7
370
    15
100
AcDbLine
 10
647.9311632355
 20
283.0374511167
 30
0.0
 11
650.9311618646
 21
283.0374511167
 31
0.0
  0
ARC
  5
247
330
1F
100
AcDbEntity
  8
0
  6
Continuous
 62
     7
370
    15
100
AcDbCircle
 10
650.9314424545
 20
276.53744912
 30
0.0
 40
6.500002002811803
100
AcDbArc
 50
269.9975266756
 51
90.0024733244
  0
LINE
  5
248
330
1F
100
AcDbEntity
  8
0
  6
Continuous
 62
     7
370
    15
100
AcDbLine
 10
650.9311618646
 20
270.0374471232
 30
0.0
 11
647.9311632355
 21
270.0374471232
 31
0.0
  0
ARC
  5
249
330
1F
100
AcDbEntity
  8
0
  6
Continuous
 62
     7
370
    15
100
AcDbCircle
 10
647.9308838874
 20
276.53744912
 30
0.0
 40
6.500002002758319
100
AcDbArc
 50
89.997537621
 51
270.002462379
  0
LINE
  5
24A
330
1F
100
AcDbEntity
  8
0
  6
Continuous
 62
     7
370
    15
100
AcDbLine
 10
647.9311632355
 20
270.5374481365
 30
0.0
 11
650.9311618646
 21
270.5374481365
 31
0.0
  0
ARC
  5
24B
330
1F
100
AcDbEntity
  8
0
  6
Continuous
 62
     7
370
    15
100
AcDbCircle
 10
650.9314135093
 20
276.5374453947
 30
0.0
 40
5.99999726346343
100
AcDbArc
 50
269.9975969692
 51
90.0024030308
  0
LINE
  5
24C
330
1F
100
AcDbEntity
  8
0
  6
Continuous
 62
     7
370
    15
100
AcDbLine
 10
650.9311618646
 20
282.5374426529
 30
0.0
 11
647.9311632355
 21
282.5374426529
 31
0.0
  0
ARC
  5
24D
330
1F
100
AcDbEntity
  8
0
  6
Continuous
 62
     7
370
    15
100
AcDbCircle
 10
647.9309153159
 20
276.5374453947
 30
0.0
 40
5.999997263308353
100
AcDbArc
 50
89.9976325412
 51
270.0023674588
  0
ARC
  5
24E
330
1F
100
AcDbEntity
  8
0
  6
Continuous
 62
     7
370
    15
100
AcDbCircle
 10
570.9314430009
 20
276.53744912
 30
0.0
 40
6.500002002758319
100
AcDbArc
 50
269.997537621
 51
90.002462379
  0
LINE
  5
24F
330
1F
100
AcDbEntity
  8
0
  6
Continuous
 62
     7
370
    15
100
AcDbLine
 10
570.9311636528
 20
283.0374511167
 30
0.0
 11
567.9311650237
 21
283.0374511167
 31
0.0
  0
ARC
  5
250
330
1F
100
AcDbEntity
  8
0
  6
Continuous
 62
     7
370
    15
100
AcDbCircle
 10
567.9308844338
 20
276.53744912
 30
0.0
 40
6.500002002811803
100
AcDbArc
 50
89.9975266756
 51
270.0024733244
  0
LINE
  5
251
330
1F
100
AcDbEntity
  8
0
  6
Continuous
 62
     7
370
    15
100
AcDbLine
 10
567.9311650237
 20
270.0374471232
 30
0.0
 11
570.9311636528
 21
270.0374471232
 31
0.0
  0
LINE
  5
252
330
1F
100
AcDbEntity
  8
0
  6
Continuous
 62
     7
370
    15
100
AcDbLine
 10
567.9311650237
 20
282.5374426529
 30
0.0
 11
570.9311636528
 21
282.5374426529
 31
0.0
  0
ARC
  5
253
330
1F
100
AcDbEntity
  8
0
  6
Continuous
 62
     7
370
    15
100
AcDbCircle
 10
567.930913379
 20
276.5374453947
 30
0.0
 40
5.99999726346343
100
AcDbArc
 50
89.9975969692
 51
270.0024030308
  0
LINE
  5
254
330
1F
100
AcDbEntity
  8
0
  6
Continuous
 62
     7
370
    15
100
AcDbLine
 10
570.9311636528
 20
270.5374481365
 30
0.0
 11
567.9311650237
 21
270.5374481365
 31
0.0
  0
ARC
  5
255
330
1F
100
AcDbEntity
  8
0
  6
Continuous
 62
     7
370
    15
100
AcDbCircle
 10
570.9314115724
 20
276.5374453947
 30
0.0
 40
5.999997263308353
100
AcDbArc
 50
269.9976325412
 51
90.0023674588
  0
ARC
  5
256
330
1F
100
AcDbEntity
  8
0
  6
Continuous
 62
     7
370
    15
100
AcDbCircle
 10
609.6241267914
 20
316.5371814575
 30
0.0
 40
70.00000000000004
100
AcDbArc
 50
284.2356041587
 51
315.9211590638
  0
ARC
  5
257
330
1F
100
AcDbEntity
  8
0
  6
Continuous
 62
     7
370
    15
100
AcDbCircle
 10
650.9311634442
 20
276.5374474212
 30
0.0
 40
12.50000000000003
100
AcDbArc
 50
315.9211590638
 51
44.0788409362
  0
ARC
  5
258
330
1F
100
AcDbEntity
  8
0
  6
Continuous
 62
     7
370
    15
100
AcDbCircle
 10
609.6241267914
 20
236.537713385
 30
0.0
 40
70.0
100
AcDbArc
 50
44.0788409362
 51
75.7643958413
  0
ARC
  5
259
330
1F
100
AcDbEntity
  8
0
  6
Continuous
 62
     7
370
    15
100
AcDbCircle
 10
609.2382000969
 20
316.5371814575
 30
0.0
 40
70.00000000000011
100
AcDbArc
 50
224.0788409362
 51
255.7643958413
  0
ARC
  5
25A
330
1F
100
AcDbEntity
  8
0
  6
Continuous
 62
     7
370
    15
100
AcDbCircle
 10
609.2382000969
 20
236.537713385
 30
0.0
 40
70.00000000000007
100
AcDbArc
 50
104.2356041587
 51
135.9211590638
  0
ARC
  5
25B
330
1F
100
AcDbEntity
  8
0
  6
Continuous
 62
     7
370
    15
100
AcDbCircle
 10
567.9311634442
 20
276.5374474212
 30
0.0
 40
12.50000000000003
100
AcDbArc
 50
135.9211590638
 51
224.0788409362
  0
LINE
  5
25C
330
1F
100
AcDbEntity
  8
0
  6
Continuous
 62
     7
370
    15
100
AcDbLine
 10
592.7622458329
 20
400.7374467537
 30
0.0
 11
593.7870266279
 21
400.7512601301
 31
0.0
  0
LINE
  5
25D
330
1F
100
AcDbEntity
  8
0
  6
Continuous
 62
     7
370
    15
100
AcDbLine
 10
659.9109555026
 20
388.7374522373
 30
0.0
 11
609.4311634442
 21
388.7374522373
 31
0.0
  0
LINE
  5
25E
330
1F
100
AcDbEntity
  8
0
  6
Continuous
 62
     7
370
    15
100
AcDbLine
 10
558.9513713857
 20
388.7374522373
 30
0.0
 11
609.4311634442
 21
388.7374522373
 31
0.0
  0
LINE
  5
25F
330
1F
100
AcDbEntity
  8
0
  6
Continuous
 62
     7
370
    15
100
AcDbLine
 10
609.4311634442
 20
414.5374419376
 30
0.0
 11
637.4311643084
 21
414.5374419376
 31
0.0
  0
LINE
  5
260
330
1F
100
AcDbEntity
  8
0
  6
Continuous
 62
     7
370
    15
100
AcDbLine
 10
581.4311625799
 20
414.5374419376
 30
0.0
 11
609.4311634442
 21
414.5374419376
 31
0.0
  0
LINE
  5
261
330
1F
100
AcDbEntity
  8
0
  6
Continuous
 62
     7
370
    15
100
AcDbLine
 10
626.1000810554
 20
400.7374467537
 30
0.0
 11
657.7558042845
 21
400.7374467537
 31
0.0
  0
LINE
  5
262
330
1F
100
AcDbEntity
  8
0
  6
Continuous
 62
     7
370
    15
100
AcDbLine
 10
561.1065226039
 20
400.7374467537
 30
0.0
 11
592.7622458329
 21
400.7374467537
 31
0.0
  0
LINE
  5
263
330
1F
100
AcDbEntity
  8
0
  6
Continuous
 62
     7
370
    15
100
AcDbLine
 10
657.7558042845
 20
400.7374467537
 30
0.0
 11
660.4311624905
 21
400.7374467537
 31
0.0
  0
LINE
  5
264
330
1F
100
AcDbEntity
  8
0
  6
Continuous
 62
     7
370
    15
100
AcDbLine
 10
659.9109555026
 20
388.7374522373
 30
0.0
 11
663.4311648449
 21
388.7374522373
 31
0.0
  0
LINE
  5
265
330
1F
100
AcDbEntity
  8
0
  6
Continuous
 62
     7
370
    15
100
AcDbLine
 10
558.4311643978
 20
400.7374467537
 30
0.0
 11
561.1065226039
 21
400.7374467537
 31
0.0
  0
LINE
  5
266
330
1F
100
AcDbEntity
  8
0
  6
Continuous
 62
     7
370
    15
100
AcDbLine
 10
555.4311620434
 20
388.7374522373
 30
0.0
 11
558.9513713857
 21
388.7374522373
 31
0.0
  0
LINE
  5
267
330
1F
100
AcDbEntity
  8
0
  6
Continuous
 62
     7
370
    15
100
AcDbLine
 10
531.4311618348
 20
196.5374471828
 30
0.0
 11
531.4311618348
 21
199.5374458119
 31
0.0
  0
LINE
  5
268
330
1F
100
AcDbEntity
  8
0
  6
Continuous
 62
     7
370
    15
100
AcDbLine
 10
526.4311666032
 20
191.5374482259
 30
0.0
 11
526.4311666032
 21
194.7874473616
 31
0.0
  0
LINE
  5
269
330
1F
100
AcDbEntity
  8
0
  6
Continuous
 62
     7
370
    15
100
AcDbLine
 10
501.4311606427
 20
149.5374473952
 30
0.0
 11
506.4804265639
 21
149.5374473952
 31
0.0
  0
LINE
  5
26A
330
1F
100
AcDbEntity
  8
0
  6
Continuous
 62
     7
370
    15
100
AcDbLine
 10
501.4311606427
 20
149.5374473952
 30
0.0
 11
496.3811645647
 21
149.5374473952
 31
0.0
  0
LINE
  5
26B
330
1F
100
AcDbEntity
  8
0
  6
Continuous
 62
     7
370
    15
100
AcDbLine
 10
521.431163921
 20
189.5374478981
 30
0.0
 11
521.431163921
 21
194.5867175445
 31
0.0
  0
LINE
  5
26C
330
1F
100
AcDbEntity
  8
0
  6
Continuous
 62
     7
370
    15
100
AcDbLine
 10
521.431163921
 20
186.537449269
 30
0.0
 11
521.431163921
 21
189.5374478981
 31
0.0
  0
LINE
  5
26D
330
1F
100
AcDbEntity
  8
0
  6
Continuous
 62
     7
370
    15
100
AcDbLine
 10
616.6842384627
 20
218.787443845
 30
0.0
 11
602.1780884256
 21
218.787443845
 31
0.0
  0
ARC
  5
26E
330
1F
100
AcDbEntity
  8
0
  6
Continuous
 62
     7
370
    15
100
AcDbCircle
 10
609.4311634442
 20
217.5374474212
 30
0.0
 40
7.360000000000147
100
AcDbArc
 50
9.778339503
 51
170.221660497
  0
LWPOLYLINE
  5
26F
330
1F
100
AcDbEntity
  8
0
  6
Continuous
 62
     7
370
    15
100
AcDbPolyline
 90
        5
 70
   128
 43
0.0
 10
602.0699474392
 20
221.7874499246
 10
603.2191659687
 20
222.4509464785
 10
605.0435821889
 20
223.504279761
 10
606.9312850376
 20
224.5941432401
 10
609.4311634442
 20
226.0374473616
  0
LWPOLYLINE
  5
270
330
1F
100
AcDbEntity
  8
0
  6
Continuous
 62
     7
370
    15
100
AcDbPolyline
 90
        4
 70
   128
 43
0.0
 10
609.4311634442
 20
226.0374473616
 10
612.8745135283
 20
224.0494312927
 10
614.8301265565
 20
222.9203554079
 10
616.7923794491
 20
221.7874499246
  0
LINE
  5
271
330
1F
100
AcDbEntity
  8
0
  6
Continuous
 62
     7
370
    15
100
AcDbLine
 10
616.7923794491
 20
221.7874499246
 30
0.0
 11
616.7923794491
 21
218.787443845
 31
0.0
  0
LINE
  5
272
330
1F
100
AcDbEntity
  8
0
  6
Continuous
 62
     7
370
    15
100
AcDbLine
 10
616.6842384627
 20
218.787443845
 30
0.0
 11
616.7923794491
 21
218.787443845
 31
0.0
  0
LINE
  5
273
330
1F
100
AcDbEntity
  8
0
  6
Continuous
 62
     7
370
    15
100
AcDbLine
 10
602.0699474392
 20
218.787443845
 30
0.0
 11
602.1780884256
 21
218.787443845
 31
0.0
  0
LINE
  5
274
330
1F
100
AcDbEntity
  8
0
  6
Continuous
 62
     7
370
    15
100
AcDbLine
 10
602.0699474392
 20
218.787443845
 30
0.0
 11
602.0699474392
 21
221.7874499246
 31
0.0
  0
LWPOLYLINE
  5
275
330
1F
100
AcDbEntity
  8
0
  6
Continuous
 62
     7
370
    15
100
AcDbPolyline
 90
        5
 70
   128
 43
0.0
 10
616.7923794491
 20
213.2874476
 10
614.2924018567
 20
211.8440838739
 10
612.4522525714
 20
210.7816757843
 10
610.5802607853
 20
209.7008796617
 10
609.4311634442
 20
209.0374464378
  0
LWPOLYLINE
  5
276
330
1F
100
AcDbEntity
  8
0
  6
Continuous
 62
     7
370
    15
100
AcDbPolyline
 90
        4
 70
   128
 43
0.0
 10
609.4311634442
 20
209.0374464378
 10
607.5159277897
 20
210.1432094559
 10
605.515574607
 20
211.2981127783
 10
602.0699474392
 20
213.2874476
  0
LINE
  5
277
330
1F
100
AcDbEntity
  8
0
  6
Continuous
 62
     7
370
    15
100
AcDbLine
 10
602.0699474392
 20
213.2874476
 30
0.0
 11
602.0699474392
 21
216.2874462291
 31
0.0
  0
ARC
  5
278
330
1F
100
AcDbEntity
  8
0
  6
Continuous
 62
     7
370
    15
100
AcDbCircle
 10
609.4311634442
 20
217.5374474212
 30
0.0
 40
7.360000000000147
100
AcDbArc
 50
189.778339503
 51
350.221660497
  0
LINE
  5
279
330
1F
100
AcDbEntity
  8
0
  6
Continuous
 62
     7
370
    15
100
AcDbLine
 10
616.7923794491
 20
216.2874462291
 30
0.0
 11
616.7923794491
 21
213.2874476
 31
0.0
  0
LINE
  5
27A
330
1F
100
AcDbEntity
  8
0
  6
Continuous
 62
     7
370
    15
100
AcDbLine
 10
616.7923794491
 20
216.2874462291
 30
0.0
 11
616.6842384627
 21
216.2874462291
 31
0.0
  0
LINE
  5
27B
330
1F
100
AcDbEntity
  8
0
  6
Continuous
 62
     7
370
    15
100
AcDbLine
 10
602.1780884256
 20
216.2874462291
 30
0.0
 11
602.0699474392
 21
216.2874462291
 31
0.0
  0
LINE
  5
27C
330
1F
100
AcDbEntity
  8
0
  6
Continuous
 62
     7
370
    15
100
AcDbLine
 10
602.1780884256
 20
216.2874462291
 30
0.0
 11
616.6842384627
 21
216.2874462291
 31
0.0
  0
LINE
  5
27D
330
1F
100
AcDbEntity
  8
0
  6
Continuous
 62
     7
370
    15
100
AcDbLine
 10
616.7923794491
 20
216.2874462291
 30
0.0
 11
616.7923794491
 21
218.787443845
 31
0.0
  0
LINE
  5
27E
330
1F
100
AcDbEntity
  8
0
  6
Continuous
 62
     7
370
    15
100
AcDbLine
 10
602.0699474392
 20
218.787443845
 30
0.0
 11
602.0699474392
 21
216.2874462291
 31
0.0
  0
ARC
  5
27F
330
1F
100
AcDbEntity
  8
0
  6
Continuous
 62
     7
370
    15
100
AcDbCircle
 10
609.4311634442
 20
366.5374474212
 30
0.0
 40
8.110812500000048
100
AcDbArc
 50
222.2895985257
 51
227.7104014743
  0
LINE
  5
280
330
1F
100
AcDbEntity
  8
0
  6
Continuous
 62
     7
370
    15
100
AcDbLine
 10
603.431163392
 20
371.9950439617
 30
0.0
 11
603.431163392
 21
361.0798539802
 31
0.0
  0
ARC
  5
281
330
1F
100
AcDbEntity
  8
0
  6
Continuous
 62
     7
370
    15
100
AcDbCircle
 10
609.4311634442
 20
366.5374474212
 30
0.0
 40
8.11081250000001
100
AcDbArc
 50
42.2895985257
 51
47.7104014743
  0
ARC
  5
282
330
1F
100
AcDbEntity
  8
0
  6
Continuous
 62
     7
370
    15
100
AcDbCircle
 10
609.4311634442
 20
366.5374474212
 30
0.0
 40
8.110812500000048
100
AcDbArc
 50
312.2895985257
 51
317.7104014743
  0
LINE
  5
283
330
1F
100
AcDbEntity
  8
0
  6
Continuous
 62
     7
370
    15
100
AcDbLine
 10
603.973574507
 20
360.5374517128
 30
0.0
 11
614.8887523813
 21
360.5374517128
 31
0.0
  0
LINE
  5
284
330
1F
100
AcDbEntity
  8
0
  6
Continuous
 62
     7
370
    15
100
AcDbLine
 10
614.8887523813
 20
372.5374462291
 30
0.0
 11
603.973574507
 21
372.5374462291
 31
0.0
  0
LINE
  5
285
330
1F
100
AcDbEntity
  8
0
  6
Continuous
 62
     7
370
    15
100
AcDbLine
 10
615.4311634963
 20
361.0798539802
 30
0.0
 11
615.4311634963
 21
371.9950439617
 31
0.0
  0
ARC
  5
286
330
1F
100
AcDbEntity
  8
0
  6
Continuous
 62
     7
370
    15
100
AcDbCircle
 10
609.4311634442
 20
366.5374474212
 30
0.0
 40
8.11081250000001
100
AcDbArc
 50
132.2895985257
 51
137.7104014743
  0
ARC
  5
287
330
1F
100
AcDbEntity
  8
0
  6
Continuous
 62
     7
370
    15
100
AcDbCircle
 10
609.4311634442
 20
366.5374474212
 30
0.0
 40
8.110812500000048
100
AcDbArc
 50
317.7104014743
 51
42.2895985257
  0
ARC
  5
288
330
1F
100
AcDbEntity
  8
0
  6
Continuous
 62
     7
370
    15
100
AcDbCircle
 10
609.4311634442
 20
366.5374474212
 30
0.0
 40
8.110812500000089
100
AcDbArc
 50
227.7104014743
 51
312.2895985257
  0
ARC
  5
289
330
1F
100
AcDbEntity
  8
0
  6
Continuous
 62
     7
370
    15
100
AcDbCircle
 10
609.4311634442
 20
366.5374474212
 30
0.0
 40
8.110812500000048
100
AcDbArc
 50
137.7104014743
 51
222.2895985257
  0
ARC
  5
28A
330
1F
100
AcDbEntity
  8
0
  6
Continuous
 62
     7
370
    15
100
AcDbCircle
 10
609.4311634442
 20
366.5374474212
 30
0.0
 40
8.110812500000048
100
AcDbArc
 50
47.7104014743
 51
132.2895985257
  0
ARC
  5
28B
330
1F
100
AcDbEntity
  8
0
  6
Continuous
 62
     7
370
    15
100
AcDbCircle
 10
609.4311634442
 20
276.5374474212
 30
0.0
 40
70.50000000000004
100
AcDbArc
 50
100.8423870425
 51
119.3620408032
  0
ARC
  5
28C
330
1F
100
AcDbEntity
  8
0
  6
Continuous
 62
     7
370
    15
100
AcDbCircle
 10
609.4311634442
 20
276.5374474212
 30
0.0
 40
70.50000000000001
100
AcDbArc
 50
150.6379591968
 51
209.3620408032
  0
ARC
  5
28D
330
1F
100
AcDbEntity
  8
0
  6
Continuous
 62
     7
370
    15
100
AcDbCircle
 10
609.4311634442
 20
276.5374474212
 30
0.0
 40
70.50000000000001
100
AcDbArc
 50
251.4612006064
 51
262.3054374537
  0
LINE
  5
28E
330
1F
100
AcDbEntity
  8
0
  6
Continuous
 62
     7
370
    15
100
AcDbLine
 10
584.5801970353
 20
207.2600731835
 30
0.0
 11
596.9311632579
 21
185.8675750181
 31
0.0
  0
LINE
  5
28F
330
1F
100
AcDbEntity
  8
0
  6
Continuous
 62
     7
370
    15
100
AcDbLine
 10
621.9311636304
 20
185.8675750181
 30
0.0
 11
634.282129853
 21
207.2600731835
 31
0.0
  0
LWPOLYLINE
  5
290
330
1F
100
AcDbEntity
  8
0
  6
Continuous
 62
     7
370
    15
100
AcDbPolyline
 90
        3
 70
   128
 43
0.0
 10
591.2830150118
 20
344.1439839288
 10
595.7513731336
 20
345.1877506658
 10
596.2053919574
 20
345.2766509935
  0
ARC
  5
291
330
1F
100
AcDbEntity
  8
0
  6
Continuous
 62
     7
370
    15
100
AcDbCircle
 10
591.9311634442
 20
341.7294714733
 30
0.0
 40
2.499999999999963
100
AcDbArc
 50
105.0261137591
 51
165.6753329502
  0
ARC
  5
292
330
1F
100
AcDbEntity
  8
0
  6
Continuous
 62
     7
370
    15
100
AcDbCircle
 10
544.2391393921
 20
259.0374474212
 30
0.0
 40
2.499999999999963
100
AcDbArc
 50
195.0261137591
 51
255.6753329502
  0
ARC
  5
293
330
1F
100
AcDbEntity
  8
0
  6
Continuous
 62
     7
370
    15
100
AcDbCircle
 10
609.4311634442
 20
276.5374474212
 30
0.0
 40
70.00000000000034
100
AcDbArc
 50
164.9738862409
 51
195.0261137591
  0
ARC
  5
294
330
1F
100
AcDbEntity
  8
0
  6
Continuous
 62
     7
370
    15
100
AcDbCircle
 10
544.2391393921
 20
294.0374474212
 30
0.0
 40
2.500000000000059
100
AcDbArc
 50
104.3246670498
 51
164.9738862409
  0
ARC
  5
295
330
1F
100
AcDbEntity
  8
0
  6
Continuous
 62
     7
370
    15
100
AcDbCircle
 10
586.6021622761
 20
343.0902604174
 30
0.0
 40
2.999999999999961
100
AcDbArc
 50
279.9688991891
 51
345.6753329502
  0
ARC
  5
296
330
1F
100
AcDbEntity
  8
0
  6
Continuous
 62
     7
370
    15
100
AcDbCircle
 10
542.878350448
 20
253.7084462532
 30
0.0
 40
3.000000000000003
100
AcDbArc
 50
9.9688991891
 51
75.6753329502
  0
ARC
  5
297
330
1F
100
AcDbEntity
  8
0
  6
Continuous
 62
     7
370
    15
100
AcDbCircle
 10
542.878350448
 20
299.3664485893
 30
0.0
 40
3.000000000000059
100
AcDbArc
 50
284.3246670498
 51
350.0311008109
  0
ARC
  5
298
330
1F
100
AcDbEntity
  8
0
  6
Continuous
 62
     7
370
    15
100
AcDbCircle
 10
609.4311634442
 20
276.5374474212
 30
0.0
 40
70.0000000000002
100
AcDbArc
 50
151.8362284722
 51
164.9738862409
  0
ARC
  5
299
330
1F
100
AcDbEntity
  8
0
  6
Continuous
 62
     7
370
    15
100
AcDbCircle
 10
609.4311634442
 20
276.5374474212
 30
0.0
 40
70.00000000000036
100
AcDbArc
 50
105.0261137591
 51
118.1637715278
  0
LINE
  5
29A
330
1F
100
AcDbEntity
  8
0
  6
Continuous
 62
     7
370
    15
100
AcDbLine
 10
591.2830150118
 20
208.9309031352
 30
0.0
 11
587.4111941447
 21
210.0910702929
 31
0.0
  0
ARC
  5
29B
330
1F
100
AcDbEntity
  8
0
  6
Continuous
 62
     7
370
    15
100
AcDbCircle
 10
609.4311634442
 20
276.5374474212
 30
0.0
 40
70.00000000000034
100
AcDbArc
 50
195.0261137591
 51
208.1637715278
  0
LINE
  5
29C
330
1F
100
AcDbEntity
  8
0
  6
Continuous
 62
     7
370
    15
100
AcDbLine
 10
689.431161656
 20
411.9374575302
 30
0.0
 11
689.431161656
 21
217.537445037
 31
0.0
  0
LINE
  5
29D
330
1F
100
AcDbEntity
  8
0
  6
Continuous
 62
     7
370
    15
100
AcDbLine
 10
689.431161656
 20
217.537445037
 30
0.0
 11
683.8311637183
 21
217.537445037
 31
0.0
  0
LINE
  5
29E
330
1F
100
AcDbEntity
  8
0
  6
Continuous
 62
     7
370
    15
100
AcDbLine
 10
682.4311623713
 20
217.537445037
 30
0.0
 11
682.4311623713
 21
258.8912369892
 31
0.0
  0
LINE
  5
29F
330
1F
100
AcDbEntity
  8
0
  6
Continuous
 62
     7
370
    15
100
AcDbLine
 10
536.431164517
 20
276.5374453947
 30
0.0
 11
536.431164517
 21
217.537445037
 31
0.0
  0
LINE
  5
2A0
330
1F
100
AcDbEntity
  8
0
  6
Continuous
 62
     7
370
    15
100
AcDbLine
 10
535.03116317
 20
217.537445037
 30
0.0
 11
536.431164517
 21
217.537445037
 31
0.0
  0
ARC
  5
2A1
330
1F
100
AcDbEntity
  8
0
  6
Continuous
 62
     7
370
    15
100
AcDbCircle
 10
609.4311634442
 20
276.5374474212
 30
0.0
 40
73.00000000000007
100
AcDbArc
 50
100.9063219661
 51
124.3306960655
  0
ARC
  5
2A2
330
1F
100
AcDbEntity
  8
0
  6
Continuous
 62
     7
370
    15
100
AcDbCircle
 10
609.4311634442
 20
276.5374474212
 30
0.0
 40
73.00000000000003
100
AcDbArc
 50
145.6693039345
 51
180.0
  0
LINE
  5
2A3
330
1F
100
AcDbEntity
  8
0
  6
Continuous
 62
     7
370
    15
100
AcDbLine
 10
682.4311623713
 20
217.537445037
 30
0.0
 11
683.8311637183
 21
217.537445037
 31
0.0
  0
ARC
  5
2A4
330
1F
100
AcDbEntity
  8
0
  6
Continuous
 62
     7
370
    15
100
AcDbCircle
 10
668.8311634442
 20
411.9374474212
 30
0.0
 40
20.59999999999997
100
AcDbArc
 50
0.0
 51
90.0
  0
LINE
  5
2A5
330
1F
100
AcDbEntity
  8
0
  6
Continuous
 62
     7
370
    15
100
AcDbLine
 10
550.031163766
 20
432.5374486133
 30
0.0
 11
668.8311631223
 21
432.5374486133
 31
0.0
  0
LINE
  5
2A6
330
1F
100
AcDbEntity
  8
0
  6
Continuous
 62
     7
370
    15
100
AcDbLine
 10
529.4311652323
 20
217.537445037
 30
0.0
 11
529.4311652323
 21
411.9374575302
 31
0.0
  0
LINE
  5
2A7
330
1F
100
AcDbEntity
  8
0
  6
Continuous
 62
     7
370
    15
100
AcDbLine
 10
535.03116317
 20
217.537445037
 30
0.0
 11
529.4311652323
 21
217.537445037
 31
0.0
  0
ARC
  5
2A8
330
1F
100
AcDbEntity
  8
0
  6
Continuous
 62
     7
370
    15
100
AcDbCircle
 10
550.0311634442
 20
411.9374474212
 30
0.0
 40
20.60000000000002
100
AcDbArc
 50
90.0
 51
180.0
  0
LINE
  5
2A9
330
1F
100
AcDbEntity
  8
0
  6
Continuous
 62
     7
370
    15
100
AcDbLine
 10
701.431163623
 20
173.1374478176
 30
0.0
 11
701.431163623
 21
172.5374469742
 31
0.0
  0
LINE
  5
2AA
330
1F
100
AcDbEntity
  8
0
  6
Continuous
 62
     7
370
    15
100
AcDbLine
 10
701.431163623
 20
173.1374478176
 30
0.0
 11
698.4311649939
 21
173.1374478176
 31
0.0
  0
LINE
  5
2AB
330
1F
100
AcDbEntity
  8
0
  6
Continuous
 62
     7
370
    15
100
AcDbLine
 10
688.8311664005
 20
195.1374458357
 30
0.0
 11
688.8311664005
 21
217.537445037
 31
0.0
  0
LINE
  5
2AC
330
1F
100
AcDbEntity
  8
0
  6
Continuous
 62
     7
370
    15
100
AcDbLine
 10
689.431161656
 20
194.537446855
 30
0.0
 11
689.431161656
 21
217.537445037
 31
0.0
  0
LINE
  5
2AD
330
1F
100
AcDbEntity
  8
0
  6
Continuous
 62
     7
370
    15
100
AcDbLine
 10
517.4311632653
 20
173.1374478176
 30
0.0
 11
517.4311632653
 21
172.5374469742
 31
0.0
  0
LINE
  5
2AE
330
1F
100
AcDbEntity
  8
0
  6
Continuous
 62
     7
370
    15
100
AcDbLine
 10
517.4311632653
 20
173.1374478176
 30
0.0
 11
520.4311618944
 21
173.1374478176
 31
0.0
  0
LINE
  5
2AF
330
1F
100
AcDbEntity
  8
0
  6
Continuous
 62
     7
370
    15
100
AcDbLine
 10
529.4311652323
 20
194.537446855
 30
0.0
 11
529.4311652323
 21
217.537445037
 31
0.0
  0
LINE
  5
2B0
330
1F
100
AcDbEntity
  8
0
  6
Continuous
 62
     7
370
    15
100
AcDbLine
 10
530.0311604878
 20
195.1374458357
 30
0.0
 11
530.0311604878
 21
217.537445037
 31
0.0
  0
LINE
  5
2B1
330
1F
100
AcDbEntity
  8
0
  6
Continuous
 62
     7
370
    15
100
AcDbLine
 10
689.431161656
 20
272.537444739
 30
0.0
 11
699.4311670204
 21
256.537449567
 31
0.0
  0
LWPOLYLINE
  5
2B2
330
1F
100
AcDbEntity
  8
0
  6
Continuous
 62
     7
370
    15
100
AcDbPolyline
 90
        9
 70
   128
 43
0.0
 10
699.4311670204
 20
256.537449567
 10
699.2498943945
 20
256.4649405166
 10
698.7130428096
 20
256.2501998827
 10
697.841250374
 20
255.9014829084
 10
696.6680148979
 20
255.4321857378
 10
695.2384198447
 20
254.860353677
 10
693.6074132463
 20
254.207943587
 10
691.8376619359
 20
253.5000490233
 10
689.997182264
 20
252.7638571545
  0
LINE
  5
2B3
330
1F
100
AcDbEntity
  8
0
  6
Continuous
 62
     7
370
    15
100
AcDbLine
 10
689.431161656
 20
362.5374408647
 30
0.0
 11
699.4311670204
 21
346.5374531433
 31
0.0
  0
LWPOLYLINE
  5
2B4
330
1F
100
AcDbEntity
  8
0
  6
Continuous
 62
     7
370
    15
100
AcDbPolyline
 90
        9
 70
   128
 43
0.0
 10
699.4311670204
 20
346.5374531433
 10
699.2498943945
 20
346.4649440929
 10
698.7130428096
 20
346.2502034589
 10
697.841250374
 20
345.9014864847
 10
696.6680148979
 20
345.432189314
 10
695.2384198447
 20
344.8603572532
 10
693.6074132463
 20
344.2079397127
 10
691.8376619359
 20
343.500045149
 10
689.997182264
 20
342.7638532802
  0
LINE
  5
2B5
330
1F
100
AcDbEntity
  8
0
  6
Continuous
 62
     7
370
    15
100
AcDbLine
 10
689.431161656
 20
332.5374545738
 30
0.0
 11
699.4311670204
 21
316.5374519512
 31
0.0
  0
LWPOLYLINE
  5
2B6
330
1F
100
AcDbEntity
  8
0
  6
Continuous
 62
     7
370
    15
100
AcDbPolyline
 90
        9
 70
   128
 43
0.0
 10
699.4311670204
 20
316.5374519512
 10
699.2498943945
 20
316.4649429008
 10
698.7130428096
 20
316.2502022669
 10
697.841250374
 20
315.9014852926
 10
696.6680148979
 20
315.432188122
 10
695.2384198447
 20
314.8603560611
 10
693.6074132463
 20
314.2079534218
 10
691.8376619359
 20
313.5000439569
 10
689.997182264
 20
312.7638520881
  0
LINE
  5
2B7
330
1F
100
AcDbEntity
  8
0
  6
Continuous
 62
     7
370
    15
100
AcDbLine
 10
689.431161656
 20
242.5374509975
 30
0.0
 11
699.4311670204
 21
226.5374483749
 31
0.0
  0
LWPOLYLINE
  5
2B8
330
1F
100
AcDbEntity
  8
0
  6
Continuous
 62
     7
370
    15
100
AcDbPolyline
 90
        9
 70
   128
 43
0.0
 10
699.4311670204
 20
226.5374483749
 10
699.2498943945
 20
226.4649393245
 10
698.7130428096
 20
226.2501986906
 10
697.841250374
 20
225.9014817163
 10
696.6680148979
 20
225.4321845457
 10
695.2384198447
 20
224.8603524849
 10
693.6074132463
 20
224.2079498455
 10
691.8376619359
 20
223.5000478312
 10
689.997182264
 20
222.7638559624
  0
LINE
  5
2B9
330
1F
100
AcDbEntity
  8
0
  6
Continuous
 62
     7
370
    15
100
AcDbLine
 10
689.431161656
 20
302.5374533817
 30
0.0
 11
699.4311670204
 21
286.5374507591
 31
0.0
  0
LWPOLYLINE
  5
2BA
330
1F
100
AcDbEntity
  8
0
  6
Continuous
 62
     7
370
    15
100
AcDbPolyline
 90
        9
 70
   128
 43
0.0
 10
699.4311670204
 20
286.5374507591
 10
699.2498943945
 20
286.4649417087
 10
698.7130428096
 20
286.2502010748
 10
697.841250374
 20
285.9014841005
 10
696.6680148979
 20
285.4321869299
 10
695.2384198447
 20
284.860354869
 10
693.6074132463
 20
284.2079522297
 10
691.8376619359
 20
283.5000427648
 10
689.997182264
 20
282.763850896
  0
LINE
  5
2BB
330
1F
100
AcDbEntity
  8
0
  6
Continuous
 62
     7
370
    15
100
AcDbLine
 10
689.997182264
 20
252.7638571545
 30
0.0
 11
689.431161656
 21
252.5374489113
 31
0.0
  0
LINE
  5
2BC
330
1F
100
AcDbEntity
  8
0
  6
Continuous
 62
     7
370
    15
100
AcDbLine
 10
689.997182264
 20
282.763850896
 30
0.0
 11
689.431161656
 21
282.5374426529
 31
0.0
  0
LINE
  5
2BD
330
1F
100
AcDbEntity
  8
0
  6
Continuous
 62
     7
370
    15
100
AcDbLine
 10
689.997182264
 20
222.7638559624
 30
0.0
 11
689.431161656
 21
222.5374477193
 31
0.0
  0
LINE
  5
2BE
330
1F
100
AcDbEntity
  8
0
  6
Continuous
 62
     7
370
    15
100
AcDbLine
 10
689.997182264
 20
342.7638532802
 30
0.0
 11
689.431161656
 21
342.537445037
 31
0.0
  0
LINE
  5
2BF
330
1F
100
AcDbEntity
  8
0
  6
Continuous
 62
     7
370
    15
100
AcDbLine
 10
689.997182264
 20
312.7638520881
 30
0.0
 11
689.431161656
 21
312.537443845
 31
0.0
  0
LINE
  5
2C0
330
1F
100
AcDbEntity
  8
0
  6
Continuous
 62
     7
370
    15
100
AcDbLine
 10
528.8651446243
 20
342.7638532802
 30
0.0
 11
529.4311652323
 21
342.537445037
 31
0.0
  0
LINE
  5
2C1
330
1F
100
AcDbEntity
  8
0
  6
Continuous
 62
     7
370
    15
100
AcDbLine
 10
528.8651446243
 20
222.7638559624
 30
0.0
 11
529.4311652323
 21
222.5374477193
 31
0.0
  0
LWPOLYLINE
  5
2C2
330
1F
100
AcDbEntity
  8
0
  6
Continuous
 62
     7
370
    15
100
AcDbPolyline
 90
        9
 70
   128
 43
0.0
 10
528.8651446243
 20
312.7638520881
 10
527.0246649524
 20
313.5000439569
 10
525.254913642
 20
314.2079534218
 10
523.6239070436
 20
314.8603560611
 10
522.1943119904
 20
315.432188122
 10
521.0210765144
 20
315.9014852926
 10
520.1492840787
 20
316.2502022669
 10
519.6124324938
 20
316.4649429008
 10
519.4311598679
 20
316.5374519512
  0
LINE
  5
2C3
330
1F
100
AcDbEntity
  8
0
  6
Continuous
 62
     7
370
    15
100
AcDbLine
 10
519.4311598679
 20
316.5374519512
 30
0.0
 11
529.4311652323
 21
332.5374545738
 31
0.0
  0
LWPOLYLINE
  5
2C4
330
1F
100
AcDbEntity
  8
0
  6
Continuous
 62
     7
370
    15
100
AcDbPolyline
 90
        9
 70
   128
 43
0.0
 10
528.8651446243
 20
252.7638571545
 10
527.0246649524
 20
253.5000490233
 10
525.254913642
 20
254.207943587
 10
523.6239070436
 20
254.860353677
 10
522.1943119904
 20
255.4321857378
 10
521.0210765144
 20
255.9014829084
 10
520.1492840787
 20
256.2501998827
 10
519.6124324938
 20
256.4649405166
 10
519.4311598679
 20
256.537449567
  0
LINE
  5
2C5
330
1F
100
AcDbEntity
  8
0
  6
Continuous
 62
     7
370
    15
100
AcDbLine
 10
519.4311598679
 20
256.537449567
 30
0.0
 11
529.4311652323
 21
272.537444739
 31
0.0
  0
LINE
  5
2C6
330
1F
100
AcDbEntity
  8
0
  6
Continuous
 62
     7
370
    15
100
AcDbLine
 10
528.8651446243
 20
282.763850896
 30
0.0
 11
529.4311652323
 21
282.5374426529
 31
0.0
  0
LWPOLYLINE
  5
2C7
330
1F
100
AcDbEntity
  8
0
  6
Continuous
 62
     7
370
    15
100
AcDbPolyline
 90
        9
 70
   128
 43
0.0
 10
528.8651446243
 20
222.7638559624
 10
527.0246649524
 20
223.5000478312
 10
525.254913642
 20
224.2079498455
 10
523.6239070436
 20
224.8603524849
 10
522.1943119904
 20
225.4321845457
 10
521.0210765144
 20
225.9014817163
 10
520.1492840787
 20
226.2501986906
 10
519.6124324938
 20
226.4649393245
 10
519.4311598679
 20
226.5374483749
  0
LINE
  5
2C8
330
1F
100
AcDbEntity
  8
0
  6
Continuous
 62
     7
370
    15
100
AcDbLine
 10
519.4311598679
 20
226.5374483749
 30
0.0
 11
529.4311652323
 21
242.5374509975
 31
0.0
  0
LINE
  5
2C9
330
1F
100
AcDbEntity
  8
0
  6
Continuous
 62
     7
370
    15
100
AcDbLine
 10
519.4311598679
 20
286.5374507591
 30
0.0
 11
529.4311652323
 21
302.5374533817
 31
0.0
  0
LWPOLYLINE
  5
2CA
330
1F
100
AcDbEntity
  8
0
  6
Continuous
 62
     7
370
    15
100
AcDbPolyline
 90
        9
 70
   128
 43
0.0
 10
528.8651446243
 20
282.763850896
 10
527.0246649524
 20
283.5000427648
 10
525.254913642
 20
284.2079522297
 10
523.6239070436
 20
284.860354869
 10
522.1943119904
 20
285.4321869299
 10
521.0210765144
 20
285.9014841005
 10
520.1492840787
 20
286.2502010748
 10
519.6124324938
 20
286.4649417087
 10
519.4311598679
 20
286.5374507591
  0
LINE
  5
2CB
330
1F
100
AcDbEntity
  8
0
  6
Continuous
 62
     7
370
    15
100
AcDbLine
 10
528.8651446243
 20
252.7638571545
 30
0.0
 11
529.4311652323
 21
252.5374489113
 31
0.0
  0
LINE
  5
2CC
330
1F
100
AcDbEntity
  8
0
  6
Continuous
 62
     7
370
    15
100
AcDbLine
 10
528.8651446243
 20
312.7638520881
 30
0.0
 11
529.4311652323
 21
312.537443845
 31
0.0
  0
LINE
  5
2CD
330
1F
100
AcDbEntity
  8
0
  6
Continuous
 62
     7
370
    15
100
AcDbLine
 10
519.4311598679
 20
346.5374531433
 30
0.0
 11
529.4311652323
 21
362.5374408647
 31
0.0
  0
LWPOLYLINE
  5
2CE
330
1F
100
AcDbEntity
  8
0
  6
Continuous
 62
     7
370
    15
100
AcDbPolyline
 90
        9
 70
   128
 43
0.0
 10
528.8651446243
 20
342.7638532802
 10
527.0246649524
 20
343.500045149
 10
525.254913642
 20
344.2079397127
 10
523.6239070436
 20
344.8603572532
 10
522.1943119904
 20
345.432189314
 10
521.0210765144
 20
345.9014864847
 10
520.1492840787
 20
346.2502034589
 10
519.6124324938
 20
346.4649440929
 10
519.4311598679
 20
346.5374531433
  0
LINE
  5
2CF
330
1F
100
AcDbEntity
  8
0
  6
Continuous
 62
     7
370
    15
100
AcDbLine
 10
575.3576206406
 20
341.0974415228
 30
0.0
 11
581.1070325216
 21
341.0974415228
 31
0.0
  0
LINE
  5
2D0
330
1F
100
AcDbEntity
  8
0
  6
Continuous
 62
     7
370
    15
100
AcDbLine
 10
536.431164517
 20
217.537445037
 30
0.0
 11
552.4311634144
 21
217.537445037
 31
0.0
  0
LINE
  5
2D1
330
1F
100
AcDbEntity
  8
0
  6
Continuous
 62
     7
370
    15
100
AcDbLine
 10
666.431163474
 20
217.537445037
 30
0.0
 11
682.4311623713
 21
217.537445037
 31
0.0
  0
LINE
  5
2D2
330
1F
100
AcDbEntity
  8
0
  6
Continuous
 62
     7
370
    15
100
AcDbLine
 10
575.8162858328
 20
341.3374545261
 30
0.0
 11
581.660495176
 21
341.3374545261
 31
0.0
  0
LINE
  5
2D3
330
1F
100
AcDbEntity
  8
0
  6
Continuous
 62
     7
370
    15
100
AcDbLine
 10
584.3979148557
 20
345.1110245868
 30
0.0
 11
593.0631002774
 21
345.1110245868
 31
0.0
  0
CIRCLE
  5
2D4
330
1F
100
AcDbEntity
  8
0
  6
Continuous
 62
     7
370
    15
100
AcDbCircle
 10
569.4311634442
 20
276.5374474212
 30
0.0
 40
4.999999999999886
  0
CIRCLE
  5
2D5
330
1F
100
AcDbEntity
  8
0
  6
Continuous
 62
     7
370
    15
100
AcDbCircle
 10
649.4311634442
 20
276.5374474212
 30
0.0
 40
5.0
  0
ARC
  5
2D6
330
1F
100
AcDbEntity
  8
0
  6
Continuous
 62
     7
370
    15
100
AcDbCircle
 10
609.4311634442
 20
313.5017331355
 30
0.0
 40
66.9642857142857
100
AcDbArc
 50
264.1267909614
 51
272.0940907517
  0
ARC
  5
2D7
330
1F
100
AcDbEntity
  8
0
  6
Continuous
 62
     7
370
    15
100
AcDbCircle
 10
609.4311634442
 20
239.5731617069
 30
0.0
 40
66.96428571428568
100
AcDbArc
 50
84.1267909614
 51
92.0940907517
  0
CIRCLE
  5
2D8
330
1F
100
AcDbEntity
  8
0
  6
Continuous
 62
     7
370
    15
100
AcDbCircle
 10
609.4311634442
 20
276.5374474212
 30
0.0
 40
17.5
  0
LINE
  5
2D9
330
1F
100
AcDbEntity
  8
0
  6
Continuous
 62
     7
370
    15
100
AcDbLine
 10
560.2508345982
 20
386.5374447986
 30
0.0
 11
658.6114922901
 21
386.5374447986
 31
0.0
  0
LINE
  5
2DA
330
1F
100
AcDbEntity
  8
0
  6
Continuous
 62
     7
370
    15
100
AcDbLine
 10
622.1197406193
 20
374.5374502823
 30
0.0
 11
658.6114922901
 21
374.5374502823
 31
0.0
  0
LINE
  5
2DB
330
1F
100
AcDbEntity
  8
0
  6
Continuous
 62
     7
370
    15
100
AcDbLine
 10
560.2508345982
 20
374.5374502823
 30
0.0
 11
596.742586269
 21
374.5374502823
 31
0.0
  0
CIRCLE
  5
2DC
330
1F
100
AcDbEntity
  8
0
  6
Continuous
 62
     7
370
    15
100
AcDbCircle
 10
609.4311634442
 20
366.5374474212
 30
0.0
 40
14.99999999999994
  0
ARC
  5
2DD
330
1F
100
AcDbEntity
  8
0
  6
Continuous
 62
     7
370
    15
100
AcDbCircle
 10
609.4311634442
 20
276.5374474212
 30
0.0
 40
56.44278289441671
100
AcDbArc
 50
281.6608817381
 51
258.3391182619
  0
CIRCLE
  5
2DE
330
1F
100
AcDbEntity
  8
0
  6
Continuous
 62
     7
370
    15
100
AcDbCircle
 10
609.4311634442
 20
217.5374474212
 30
0.0
 40
12.0
  0
LWPOLYLINE
  5
2DF
330
1F
100
AcDbEntity
  8
0
  6
Continuous
 62
     7
370
    15
100
AcDbPolyline
 90
        3
 70
   128
 43
0.0
 10
597.784305959
 20
320.0041027948
 10
598.701427727
 20
319.4021554872
 10
600.8271389073
 20
318.0069597646
  0
LWPOLYLINE
  5
2E0
330
1F
100
AcDbEntity
  8
0
  6
Continuous
 62
     7
370
    15
100
AcDbPolyline
 90
        3
 70
   128
 43
0.0
 10
599.7814527144
 20
323.0469348118
 10
598.4473834177
 20
321.0143717214
 10
597.784305959
 20
320.0041027948
  0
LINE
  5
2E1
330
1F
100
AcDbEntity
  8
0
  6
Continuous
 62
     7
370
    15
100
AcDbLine
 10
600.0353927156
 20
321.8230130359
 30
0.0
 11
599.7814527144
 21
323.0469348118
 31
0.0
  0
ARC
  5
2E2
330
1F
100
AcDbEntity
  8
0
  6
Continuous
 62
     7
370
    15
100
AcDbCircle
 10
609.4311634442
 20
276.5374474212
 30
0.0
 40
46.24999999999988
100
AcDbArc
 50
90.0
 51
101.7213289831
  0
LWPOLYLINE
  5
2E3
330
1F
100
AcDbEntity
  8
0
  6
Continuous
 62
     7
370
    15
100
AcDbPolyline
 90
        3
 70
   128
 43
0.0
 10
610.6961227851
 20
324.0206064865
 10
610.055098521
 20
323.3956964895
 10
609.4311634442
 20
322.7874459907
  0
ARC
  5
2E4
330
1F
100
AcDbEntity
  8
0
  6
Continuous
 62
     7
370
    15
100
AcDbCircle
 10
609.4311634442
 20
276.5374474212
 30
0.0
 40
47.49999999999982
100
AcDbArc
 50
75.0
 51
88.4739915367
  0
LWPOLYLINE
  5
2E5
330
1F
100
AcDbEntity
  8
0
  6
Continuous
 62
     7
370
    15
100
AcDbPolyline
 90
        3
 70
   128
 43
0.0
 10
618.646164461
 20
320.5838324711
 10
619.6394423386
 20
321.1758407041
 10
621.7250684639
 20
322.4189253732
  0
LWPOLYLINE
  5
2E6
330
1F
100
AcDbEntity
  8
0
  6
Continuous
 62
     7
370
    15
100
AcDbPolyline
 90
        3
 70
   128
 43
0.0
 10
620.4309724634
 20
317.5892951175
 10
619.8095139479
 20
318.6319740698
 10
618.646164461
 20
320.5838324711
  0
ARC
  5
2E7
330
1F
100
AcDbEntity
  8
0
  6
Continuous
 62
     7
370
    15
100
AcDbCircle
 10
609.4311634442
 20
276.5374474212
 30
0.0
 40
42.49999999999985
100
AcDbArc
 50
75.0
 51
88.473820546
  0
LWPOLYLINE
  5
2E8
330
1F
100
AcDbEntity
  8
0
  6
Continuous
 62
     7
370
    15
100
AcDbPolyline
 90
        3
 70
   128
 43
0.0
 10
609.3299423591
 20
320.2873291656
 10
609.8640644704
 20
319.7394283697
 10
610.5630959281
 20
319.0223695919
  0
ARC
  5
2E9
330
1F
100
AcDbEntity
  8
0
  6
Continuous
 62
     7
370
    15
100
AcDbCircle
 10
609.4311634442
 20
276.5374474212
 30
0.0
 40
43.74999999999982
100
AcDbArc
 50
90.1325610592
 51
101.7213289831
  0
LINE
  5
2EA
330
1F
100
AcDbEntity
  8
0
  6
Continuous
 62
     7
370
    15
100
AcDbLine
 10
600.8271389073
 20
318.0069597646
 30
0.0
 11
600.5432717865
 21
319.375139682
 31
0.0
  0
LWPOLYLINE
  5
2EB
330
1F
100
AcDbEntity
  8
0
  6
Continuous
 62
     7
370
    15
100
AcDbPolyline
 90
       19
 70
   128
 43
0.0
 10
657.8059802195
 20
343.3844568416
 10
657.9767289003
 20
343.3387102768
 10
658.4834950408
 20
343.2029159948
 10
659.3099879464
 20
342.9814549371
 10
660.4296388468
 20
342.6814498588
 10
661.8064688882
 20
342.31252691
 10
663.3962216219
 20
341.8865623161
 10
665.1478009661
 20
341.417220442
 10
667.004910334
 20
340.9196110651
 10
668.907859399
 20
340.4097231313
 10
670.7954900702
 20
339.9039330169
 10
672.6071248194
 20
339.4184978887
 10
674.284548535
 20
338.9690341636
 10
675.7738301893
 20
338.5699810669
 10
677.0271147033
 20
338.2341684982
 10
678.0041242381
 20
337.9723848983
 10
678.6734471461
 20
337.7930345222
 10
679.0135736009
 20
337.7018990204
 10
679.0563473841
 20
337.6904400274
  0
ARC
  5
2EC
330
1F
100
AcDbEntity
  8
0
  6
Continuous
 62
     7
370
    15
100
AcDbCircle
 10
610.3974029308
 20
272.6236973963
 30
0.0
 40
66.50000000000009
100
AcDbArc
 50
206.4987206187
 51
253.1663377255
  0
ARC
  5
2ED
330
1F
100
AcDbEntity
  8
0
  6
Continuous
 62
     7
370
    15
100
AcDbCircle
 10
607.3431684568
 20
273.09118177
 30
0.0
 40
64.0
100
AcDbArc
 50
161.3578385649
 51
208.0934539114
  0
ARC
  5
2EE
330
1F
100
AcDbEntity
  8
0
  6
Continuous
 62
     7
370
    15
100
AcDbCircle
 10
605.5183377243
 20
275.5832928199
 30
0.0
 40
61.49999999999999
100
AcDbArc
 50
116.2051436522
 51
163.014559625
  0
ARC
  5
2EF
330
1F
100
AcDbEntity
  8
0
  6
Continuous
 62
     7
370
    15
100
AcDbCircle
 10
605.994914365
 20
278.6339962676
 30
0.0
 40
58.99999999999999
100
AcDbArc
 50
107.8282830669
 51
117.9288827059
  0
LINE
  5
2F0
330
1F
100
AcDbEntity
  8
0
  6
Continuous
 62
     7
370
    15
100
AcDbLine
 10
591.2009040257
 20
335.9869988844
 30
0.0
 11
587.931162714
 21
334.8007174417
 31
0.0
  0
ARC
  5
2F1
330
1F
100
AcDbEntity
  8
0
  6
Continuous
 62
     7
370
    15
100
AcDbCircle
 10
611.5055464537
 20
279.9994572821
 30
0.0
 40
73.99999999999997
100
AcDbArc
 50
341.8627720975
 51
28.2746719791
  0
ARC
  5
2F2
330
1F
100
AcDbEntity
  8
0
  6
Continuous
 62
     7
370
    15
100
AcDbCircle
 10
613.3456619582
 20
277.5140219314
 30
0.0
 40
71.50000000000007
100
AcDbArc
 50
296.7501355173
 51
343.2966194962
  0
ARC
  5
2F3
330
1F
100
AcDbEntity
  8
0
  6
Continuous
 62
     7
370
    15
100
AcDbCircle
 10
612.8859063539
 20
274.456755974
 30
0.0
 40
69.00000000000009
100
AcDbArc
 50
267.2203637741
 51
298.2338706654
  0
ARC
  5
2F4
330
1F
100
AcDbEntity
  8
0
  6
Continuous
 62
     7
370
    15
100
AcDbCircle
 10
612.8859063539
 20
274.456755974
 30
0.0
 40
69.00000000000004
100
AcDbArc
 50
251.6291095339
 51
265.832972254
  0
ARC
  5
2F5
330
1F
100
AcDbEntity
  8
0
  6
Continuous
 62
     7
370
    15
100
AcDbCircle
 10
603.1766919495
 20
282.2195540313
 30
0.0
 40
80.50000000004245
100
AcDbArc
 50
24.0711716668
 51
62.6760978266
  0
LINE
  5
2F6
330
1F
100
AcDbEntity
  8
0
  6
Continuous
 62
     7
370
    15
100
AcDbLine
 10
658.6114922901
 20
374.5374502823
 30
0.0
 11
661.931161805
 21
374.5374502823
 31
0.0
  0
LINE
  5
2F7
330
1F
100
AcDbEntity
  8
0
  6
Continuous
 62
     7
370
    15
100
AcDbLine
 10
658.6114922901
 20
386.5374447986
 30
0.0
 11
661.931161805
 21
386.5374447986
 31
0.0
  0
LINE
  5
2F8
330
1F
100
AcDbEntity
  8
0
  6
Continuous
 62
     7
370
    15
100
AcDbLine
 10
556.9311650833
 20
374.5374502823
 30
0.0
 11
560.2508345982
 21
374.5374502823
 31
0.0
  0
LINE
  5
2F9
330
1F
100
AcDbEntity
  8
0
  6
Continuous
 62
     7
370
    15
100
AcDbLine
 10
556.9311650833
 20
386.5374447986
 30
0.0
 11
560.2508345982
 21
386.5374447986
 31
0.0
  0
ARC
  5
2FA
330
1F
100
AcDbEntity
  8
0
  6
Continuous
 62
     7
370
    15
100
AcDbCircle
 10
586.2159861276
 20
344.8162480915
 30
0.0
 40
10.00001134972454
100
AcDbArc
 50
289.9409732548
 51
341.5002617837
  0
ARC
  5
2FB
330
1F
100
AcDbEntity
  8
0
  6
Continuous
 62
     7
370
    15
100
AcDbCircle
 10
658.221531346
 20
227.7470795194
 30
0.0
 40
9.999999999999964
100
AcDbArc
 50
279.9688991891
 51
350.0311008109
  0
LINE
  5
2FC
330
1F
100
AcDbEntity
  8
0
  6
Continuous
 62
     7
370
    15
100
AcDbLine
 10
659.9526675781
 20
217.8980605885
 30
0.0
 11
650.0580655774
 21
216.1589162633
 31
0.0
  0
LINE
  5
2FD
330
1F
100
AcDbEntity
  8
0
  6
Continuous
 62
     7
370
    15
100
AcDbLine
 10
669.2979308208
 20
232.9989271447
 30
0.0
 11
668.0705482503
 21
226.015944986
 31
0.0
  0
LINE
  5
2FE
330
1F
100
AcDbEntity
  8
0
  6
Continuous
 62
     7
370
    15
100
AcDbLine
 10
543.9351881286
 20
288.0495013878
 30
0.0
 11
550.791778638
 21
327.0589532539
 31
0.0
  0
ARC
  5
2FF
330
1F
100
AcDbEntity
  8
0
  6
Continuous
 62
     7
370
    15
100
AcDbCircle
 10
560.6407955423
 20
325.3278153231
 30
0.0
 40
10.00000000000002
100
AcDbArc
 50
99.9688991891
 51
170.0311008109
  0
LINE
  5
300
330
1F
100
AcDbEntity
  8
0
  6
Continuous
 62
     7
370
    15
100
AcDbLine
 10
558.9096593102
 20
335.1768376514
 30
0.0
 11
595.6992479404
 21
341.643241255
 31
0.0
  0
ARC
  5
301
330
1F
100
AcDbEntity
  8
0
  6
Continuous
 62
     7
370
    15
100
AcDbCircle
 10
609.4311634442
 20
276.5374474212
 30
0.0
 40
66.50000000000003
100
AcDbArc
 50
170.0311008109
 51
188.5117489071
  0
ARC
  5
302
330
1F
100
AcDbEntity
  8
0
  6
Continuous
 62
     7
370
    15
100
AcDbCircle
 10
560.6407955423
 20
227.7470795194
 30
0.0
 40
10.00000000000001
100
AcDbArc
 50
189.9688991891
 51
260.0311008109
  0
LINE
  5
303
330
1F
100
AcDbEntity
  8
0
  6
Continuous
 62
     7
370
    15
100
AcDbLine
 10
550.791778638
 20
226.015944986
 30
0.0
 11
545.226001217
 21
257.68151602
 31
0.0
  0
LINE
  5
304
330
1F
100
AcDbEntity
  8
0
  6
Continuous
 62
     7
370
    15
100
AcDbLine
 10
578.0170271536
 20
214.5396108016
 30
0.0
 11
558.9096593102
 21
217.8980605885
 31
0.0
  0
LINE
  5
305
330
1F
100
AcDbEntity
  8
0
  6
Continuous
 62
     7
370
    15
100
AcDbLine
 10
698.4311649939
 20
185.5374472424
 30
0.0
 11
664.2215298852
 21
219.7470786258
 31
0.0
  0
LINE
  5
306
330
1F
100
AcDbEntity
  8
0
  6
Continuous
 62
     7
370
    15
100
AcDbLine
 10
691.3600946208
 20
178.466378732
 30
0.0
 11
698.4311649939
 21
185.5374472424
 31
0.0
  0
LINE
  5
307
330
1F
100
AcDbEntity
  8
0
  6
Continuous
 62
     7
370
    15
100
AcDbLine
 10
691.3600946208
 20
178.466378732
 30
0.0
 11
653.1279730042
 21
216.6985022113
 31
0.0
  0
LINE
  5
308
330
1F
100
AcDbEntity
  8
0
  6
Continuous
 62
     7
370
    15
100
AcDbLine
 10
527.5022322675
 20
178.466378732
 30
0.0
 11
520.4311618944
 21
185.5374472424
 31
0.0
  0
LINE
  5
309
330
1F
100
AcDbEntity
  8
0
  6
Continuous
 62
     7
370
    15
100
AcDbLine
 10
520.4311618944
 20
185.5374472424
 30
0.0
 11
554.6407970031
 21
219.7470786258
 31
0.0
  0
LINE
  5
30A
330
1F
100
AcDbEntity
  8
0
  6
Continuous
 62
     7
370
    15
100
AcDbLine
 10
527.5022322675
 20
178.466378732
 30
0.0
 11
565.7343538841
 21
216.6985022113
 31
0.0
  0
LINE
  5
30B
330
1F
100
AcDbEntity
  8
0
  6
Continuous
 62
     7
370
    15
100
AcDbLine
 10
698.4311649939
 20
185.5374472424
 30
0.0
 11
698.4311649939
 21
172.5374469742
 31
0.0
  0
LINE
  5
30C
330
1F
100
AcDbEntity
  8
0
  6
Continuous
 62
     7
370
    15
100
AcDbLine
 10
663.4311648449
 20
172.5374469742
 30
0.0
 11
663.4311648449
 21
178.1110400542
 31
0.0
  0
LINE
  5
30D
330
1F
100
AcDbEntity
  8
0
  6
Continuous
 62
     7
370
    15
100
AcDbLine
 10
663.4311648449
 20
178.1110400542
 30
0.0
 11
633.0679180464
 21
208.4742868528
 31
0.0
  0
LINE
  5
30E
330
1F
100
AcDbEntity
  8
0
  6
Continuous
 62
     7
370
    15
100
AcDbLine
 10
520.4311618944
 20
185.5374472424
 30
0.0
 11
520.4311618944
 21
172.5374469742
 31
0.0
  0
LINE
  5
30F
330
1F
100
AcDbEntity
  8
0
  6
Continuous
 62
     7
370
    15
100
AcDbLine
 10
555.4311620434
 20
172.5374469742
 30
0.0
 11
555.4311620434
 21
178.1110400542
 31
0.0
  0
LINE
  5
310
330
1F
100
AcDbEntity
  8
0
  6
Continuous
 62
     7
370
    15
100
AcDbLine
 10
555.4311620434
 20
178.1110400542
 30
0.0
 11
587.5074519207
 21
210.1873280689
 31
0.0
  0
LINE
  5
311
330
1F
100
AcDbEntity
  8
0
  6
Continuous
 62
     7
370
    15
100
AcDbLine
 10
709.4311649343
 20
154.5374475162
 30
0.0
 11
709.4311649343
 21
152.5374474212
 31
0.0
  0
LINE
  5
312
330
1F
100
AcDbEntity
  8
0
  6
Continuous
 62
     7
370
    15
100
AcDbLine
 10
686.4311630269
 20
154.5374475162
 30
0.0
 11
709.4311649343
 21
154.5374475162
 31
0.0
  0
LINE
  5
313
330
1F
100
AcDbEntity
  8
0
  6
Continuous
 62
     7
370
    15
100
AcDbLine
 10
709.4311649343
 20
152.5374474212
 30
0.0
 11
686.4311630269
 21
152.5374474212
 31
0.0
  0
LINE
  5
314
330
1F
100
AcDbEntity
  8
0
  6
Continuous
 62
     7
370
    15
100
AcDbLine
 10
532.4311638614
 20
154.5374475162
 30
0.0
 11
686.4311630269
 21
154.5374475162
 31
0.0
  0
LINE
  5
315
330
1F
100
AcDbEntity
  8
0
  6
Continuous
 62
     7
370
    15
100
AcDbLine
 10
532.4311638614
 20
152.5374474212
 30
0.0
 11
686.4311630269
 21
152.5374474212
 31
0.0
  0
LINE
  5
316
330
1F
100
AcDbEntity
  8
0
  6
Continuous
 62
     7
370
    15
100
AcDbLine
 10
509.431161954
 20
152.5374474212
 30
0.0
 11
509.431161954
 21
154.5374475162
 31
0.0
  0
LINE
  5
317
330
1F
100
AcDbEntity
  8
0
  6
Continuous
 62
     7
370
    15
100
AcDbLine
 10
509.431161954
 20
154.5374475162
 30
0.0
 11
532.4311638614
 21
154.5374475162
 31
0.0
  0
LINE
  5
318
330
1F
100
AcDbEntity
  8
0
  6
Continuous
 62
     7
370
    15
100
AcDbLine
 10
532.4311638614
 20
152.5374474212
 30
0.0
 11
509.431161954
 21
152.5374474212
 31
0.0
  0
ARC
  5
319
330
1F
100
AcDbEntity
  8
0
  6
Continuous
 62
     7
370
    15
100
AcDbCircle
 10
708.4311634442
 20
156.5374474212
 30
0.0
 40
2.0
100
AcDbArc
 50
180.0
 51
270.0
  0
ARC
  5
31A
330
1F
100
AcDbEntity
  8
0
  6
Continuous
 62
     7
370
    15
100
AcDbCircle
 10
510.4311634442
 20
156.5374474212
 30
0.0
 40
2.0
100
AcDbArc
 50
270.0
 51
0.0
  0
LINE
  5
31B
330
1F
100
AcDbEntity
  8
0
  6
Continuous
 62
     7
370
    15
100
AcDbLine
 10
706.4311663052
 20
167.537447086
 30
0.0
 11
706.4311663052
 21
156.5374476112
 31
0.0
  0
LINE
  5
31C
330
1F
100
AcDbEntity
  8
0
  6
Continuous
 62
     7
370
    15
100
AcDbLine
 10
686.4311630269
 20
172.5374469742
 30
0.0
 11
701.431163623
 21
172.5374469742
 31
0.0
  0
ARC
  5
31D
330
1F
100
AcDbEntity
  8
0
  6
Continuous
 62
     7
370
    15
100
AcDbCircle
 10
701.4311634442
 20
167.5374474212
 30
0.0
 40
5.0
100
AcDbArc
 50
0.0
 51
90.0
  0
LINE
  5
31E
330
1F
100
AcDbEntity
  8
0
  6
Continuous
 62
     7
370
    15
100
AcDbLine
 10
532.4311638614
 20
172.5374469742
 30
0.0
 11
686.4311630269
 21
172.5374469742
 31
0.0
  0
LINE
  5
31F
330
1F
100
AcDbEntity
  8
0
  6
Continuous
 62
     7
370
    15
100
AcDbLine
 10
512.4311605831
 20
156.5374476112
 30
0.0
 11
512.4311605831
 21
167.537447086
 31
0.0
  0
ARC
  5
320
330
1F
100
AcDbEntity
  8
0
  6
Continuous
 62
     7
370
    15
100
AcDbCircle
 10
517.4311634442
 20
167.5374474212
 30
0.0
 40
5.0
100
AcDbArc
 50
90.0
 51
180.0
  0
LINE
  5
321
330
1F
100
AcDbEntity
  8
0
  6
Continuous
 62
     7
370
    15
100
AcDbLine
 10
517.4311632653
 20
172.5374469742
 30
0.0
 11
532.4311638614
 21
172.5374469742
 31
0.0
  0
LINE
  5
322
330
1F
100
AcDbEntity
  8
0
  6
Continuous
 62
     7
370
    15
100
AcDbLine
 10
534.4311604639
 20
200.0374468252
 30
0.0
 11
534.4311604639
 21
199.5374458119
 31
0.0
  0
LINE
  5
323
330
1F
100
AcDbEntity
  8
0
  6
Continuous
 62
     7
370
    15
100
AcDbLine
 10
596.9311632579
 20
175.7374471262
 30
0.0
 11
596.9311632579
 21
172.5374469742
 31
0.0
  0
LINE
  5
324
330
1F
100
AcDbEntity
  8
0
  6
Continuous
 62
     7
370
    15
100
AcDbLine
 10
621.9311636304
 20
175.7374471262
 30
0.0
 11
596.9311632579
 21
175.7374471262
 31
0.0
  0
LINE
  5
325
330
1F
100
AcDbEntity
  8
0
  6
Continuous
 62
     7
370
    15
100
AcDbLine
 10
621.9311636304
 20
175.7374471262
 30
0.0
 11
621.9311636304
 21
172.5374469742
 31
0.0
  0
CIRCLE
  5
326
330
1F
100
AcDbEntity
  8
0
  6
Continuous
 62
     7
370
    15
100
AcDbCircle
 10
609.4311634442
 20
191.5374474212
 30
0.0
 40
4.000000000000028
  0
LINE
  5
327
330
1F
100
AcDbEntity
  8
0
  6
Continuous
 62
     7
370
    15
100
AcDbLine
 10
621.9311636304
 20
201.5374461397
 30
0.0
 11
596.9311632579
 21
201.5374461397
 31
0.0
  0
LINE
  5
328
330
1F
100
AcDbEntity
  8
0
  6
Continuous
 62
     7
370
    15
100
AcDbLine
 10
596.9311632579
 20
201.5374461397
 30
0.0
 11
596.9311632579
 21
175.7374471262
 31
0.0
  0
LINE
  5
329
330
1F
100
AcDbEntity
  8
0
  6
Continuous
 62
     7
370
    15
100
AcDbLine
 10
621.9311636304
 20
201.5374461397
 30
0.0
 11
621.9311636304
 21
175.7374471262
 31
0.0
  0
LINE
  5
32A
330
1F
100
AcDbEntity
  8
SLD-0
370
     0
100
AcDbLine
 10
529.4311634442
 20
174.4301814132
 30
0.0
 11
529.4311634442
 21
145.4004066048
 31
0.0
  0
LINE
  5
32B
330
1F
100
AcDbEntity
  8
SLD-0
370
     0
100
AcDbLine
 10
689.4311634442
 20
175.8188609112
 30
0.0
 11
689.4311634442
 21
145.4004066048
 31
0.0
  0
INSERT
  5
337
330
1F
100
AcDbEntity
  8
SLD-0
100
AcDbBlockReference
  2
SW_CENTERMARKSYMBOL_0
 10
609.4311634442
 20
276.5374474212
 30
0.0
  0
ENDSEC
  0
SECTION
  2
OBJECTS
  0
DICTIONARY
  5
C
330
0
100
AcDbDictionary
281
     1
  3
ACAD_GROUP
350
D
  3
ACAD_LAYOUT
350
1A
  3
ACAD_MLEADERSTYLE
350
339
  3
ACAD_MLINESTYLE
350
17
  3
ACAD_PLOTSETTINGS
350
19
  3
ACAD_PLOTSTYLENAME
350
E
  3
ACAD_TABLESTYLE
350
338
  3
ACAD_VISUALSTYLE
350
2A
  3
AcDbVariableDictionary
350
33A
  0
DICTIONARY
  5
D
102
{ACAD_REACTORS
330
C
102
}
330
C
100
AcDbDictionary
281
     1
  0
DICTIONARY
  5
1A
102
{ACAD_REACTORS
330
C
102
}
330
C
100
AcDbDictionary
281
     1
  3
Layout1
350
1E
  3
Layout2
350
26
  3
Model
350
22
  0
DICTIONARY
  5
339
102
{ACAD_REACTORS
330
C
102
}
330
C
100
AcDbDictionary
281
     1
  0
DICTIONARY
  5
17
102
{ACAD_REACTORS
330
C
102
}
330
C
100
AcDbDictionary
281
     1
  3
Standard
350
18
  0
DICTIONARY
  5
19
102
{ACAD_REACTORS
330
C
102
}
330
C
100
AcDbDictionary
281
     1
  0
ACDBDICTIONARYWDFLT
  5
E
102
{ACAD_REACTORS
330
C
102
}
330
C
100
AcDbDictionary
281
     1
  3
Normal
350
F
100
AcDbDictionaryWithDefault
340
F
  0
DICTIONARY
  5
338
102
{ACAD_REACTORS
330
C
102
}
330
C
100
AcDbDictionary
281
     1
  0
DICTIONARY
  5
2A
102
{ACAD_REACTORS
330
C
102
}
330
C
100
AcDbDictionary
281
     1
  3
2dWireframe
350
2F
  3
3D Hidden
350
31
  3
3dWireframe
350
30
  3
Basic
350
32
  3
Brighten
350
36
  3
ColorChange
350
3A
  3
Conceptual
350
34
  3
Dim
350
35
  3
Facepattern
350
39
  3
Flat
350
2B
  3
FlatWithEdges
350
2C
  3
Gouraud
350
2D
  3
GouraudWithEdges
350
2E
  3
Linepattern
350
38
  3
Realistic
350
33
  3
Thicken
350
37
  0
DICTIONARY
  5
33A
102
{ACAD_REACTORS
330
C
102
}
330
C
100
AcDbDictionary
281
     1
  3
PSOLHEIGHT
350
33C
  3
PSOLWIDTH
350
33B
  0
LAYOUT
  5
1E
102
{ACAD_REACTORS
330
1A
102
}
330
1A
100
AcDbPlotSettings
  1

  2
none_device
  4

  6

 40
0.0
 41
0.0
 42
0.0
 43
0.0
 44
0.0
 45
0.0
 46
0.0
 47
0.0
 48
0.0
 49
0.0
140
0.0
141
0.0
142
1.0
143
1.0
 70
   688
 72
     0
 73
     0
 74
     5
  7

 75
    16
147
1.0
148
0.0
149
0.0
100
AcDbLayout
  1
Layout1
 70
     1
 71
     1
 10
0.0
 20
0.0
 11
420.0
 21
297.0
 12
0.0
 22
0.0
 32
0.0
 14
1.0000000000E+20
 24
1.0000000000E+20
 34
1.0000000000E+20
 15
-1.0000000000E+20
 25
-1.0000000000E+20
 35
-1.0000000000E+20
146
0.0
 13
0.0
 23
0.0
 33
0.0
 16
1.0
 26
0.0
 36
0.0
 17
0.0
 27
1.0
 37
0.0
 76
     0
330
1B
  0
LAYOUT
  5
26
102
{ACAD_REACTORS
330
1A
102
}
330
1A
100
AcDbPlotSettings
  1

  2
none_device
  4

  6

 40
0.0
 41
0.0
 42
0.0
 43
0.0
 44
0.0
 45
0.0
 46
0.0
 47
0.0
 48
0.0
 49
0.0
140
0.0
141
0.0
142
1.0
143
1.0
 70
   688
 72
     0
 73
     0
 74
     5
  7

 75
    16
147
1.0
148
0.0
149
0.0
100
AcDbLayout
  1
Layout2
 70
     1
 71
     2
 10
0.0
 20
0.0
 11
0.0
 21
0.0
 12
0.0
 22
0.0
 32
0.0
 14
0.0
 24
0.0
 34
0.0
 15
0.0
 25
0.0
 35
0.0
146
0.0
 13
0.0
 23
0.0
 33
0.0
 16
1.0
 26
0.0
 36
0.0
 17
0.0
 27
1.0
 37
0.0
 76
     0
330
23
  0
LAYOUT
  5
22
102
{ACAD_REACTORS
330
1A
102
}
330
1A
100
AcDbPlotSettings
  1

  2
none_device
  4

  6

 40
0.0
 41
0.0
 42
0.0
 43
0.0
 44
0.0
 45
0.0
 46
0.0
 47
0.0
 48
0.0
 49
0.0
140
0.0
141
0.0
142
1.0
143
1.0
 70
  1712
 72
     0
 73
     0
 74
     0
  7

 75
     0
147
1.0
148
0.0
149
0.0
100
AcDbLayout
  1
Model
 70
     1
 71
     0
 10
0.0
 20
0.0
 11
841.0
 21
594.0
 12
0.0
 22
0.0
 32
0.0
 14
0.0
 24
0.0
 34
0.0
 15
841.0
 25
594.0
 35
0.0
146
0.0
 13
0.0
 23
0.0
 33
0.0
 16
1.0
 26
0.0
 36
0.0
 17
0.0
 27
1.0
 37
0.0
 76
     0
330
1F
331
29
  0
MLINESTYLE
  5
18
102
{ACAD_REACTORS
330
17
102
}
330
17
100
AcDbMlineStyle
  2
Standard
 70
     0
  3

 62
   256
 51
90.0
 52
90.0
 71
     2
 49
0.5
 62
   256
  6
BYLAYER
 49
-0.5
 62
   256
  6
BYLAYER
  0
ACDBPLACEHOLDER
  5
F
102
{ACAD_REACTORS
330
E
102
}
330
E
  0
VISUALSTYLE
  5
2F
102
{ACAD_REACTORS
330
2A
102
}
330
2A
100
AcDbVisualStyle
  2
2dWireframe
 70
     4
 71
     0
 72
     2
 73
     0
 90
        0
 40
-0.6
 41
-30.0
 62
     5
 63
     7
 74
     1
 91
        4
 64
     7
 65
   257
 75
     1
175
     1
 42
1.0
 92
        0
 66
   257
 43
1.0
 76
     1
 77
     6
 78
     2
 67
     7
 79
     5
170
     0
171
     0
290
     0
174
     0
 93
        1
 44
0.0
173
     0
291
     0
 45
0.0
1001
ACAD
1000
AcDbSavedByObjectVersion
1070
     0
  0
VISUALSTYLE
  5
31
102
{ACAD_REACTORS
330
2A
102
}
330
2A
100
AcDbVisualStyle
  2
3D Hidden
 70
     6
 71
     1
 72
     2
 73
     2
 90
        0
 40
-0.6
 41
-30.0
 62
     5
 63
     7
 74
     2
 91
        2
 64
     7
 65
   257
 75
     2
175
     1
 42
40.0
 92
        0
 66
   257
 43
1.0
 76
     1
 77
     6
 78
     2
 67
     7
 79
     3
170
     0
171
     0
290
     0
174
     0
 93
        1
 44
0.0
173
     0
291
     0
 45
0.0
1001
ACAD
1000
AcDbSavedByObjectVersion
1070
     0
  0
VISUALSTYLE
  5
30
102
{ACAD_REACTORS
330
2A
102
}
330
2A
100
AcDbVisualStyle
  2
3dWireframe
 70
     5
 71
     0
 72
     2
 73
     0
 90
        0
 40
-0.6
 41
-30.0
 62
     5
 63
     7
 74
     1
 91
        4
 64
     7
 65
   257
 75
     1
175
     1
 42
1.0
 92
        0
 66
   257
 43
1.0
 76
     1
 77
     6
 78
     2
 67
     7
 79
     5
170
     0
171
     0
290
     0
174
     0
 93
        1
 44
0.0
173
     0
291
     0
 45
0.0
1001
ACAD
1000
AcDbSavedByObjectVersion
1070
     0
  0
VISUALSTYLE
  5
32
102
{ACAD_REACTORS
330
2A
102
}
330
2A
100
AcDbVisualStyle
  2
Basic
 70
     7
 71
     1
 72
     0
 73
     1
 90
        0
 40
-0.6
 41
-30.0
 62
     5
 63
     7
 74
     0
 91
        4
 64
     7
 65
   257
 75
     1
175
     1
 42
1.0
 92
        8
 66
     7
 43
1.0
 76
     1
 77
     6
 78
     2
 67
     7
 79
     5
170
     0
171
     0
290
     0
174
     0
 93
        1
 44
0.0
173
     0
291
     1
 45
0.0
1001
ACAD
1000
AcDbSavedByObjectVersion
1070
     0
  0
VISUALSTYLE
  5
36
102
{ACAD_REACTORS
330
2A
102
}
330
2A
100
AcDbVisualStyle
  2
Brighten
 70
    12
 71
     2
 72
     2
 73
     0
 90
        0
 40
-0.6
 41
-30.0
 62
     5
 63
     7
 74
     1
 91
        4
 64
     7
 65
   257
 75
     1
175
     1
 42
1.0
 92
        8
 66
     7
 43
1.0
 76
     1
 77
     6
 78
     2
 67
     7
 79
     5
170
     0
171
     0
290
     0
174
     0
 93
        1
 44
50.0
173
     0
291
     1
 45
0.0
1001
ACAD
1000
AcDbSavedByObjectVersion
1070
     0
  0
VISUALSTYLE
  5
3A
102
{ACAD_REACTORS
330
2A
102
}
330
2A
100
AcDbVisualStyle
  2
ColorChange
 70
    16
 71
     2
 72
     2
 73
     3
 90
        0
 40
-0.6
 41
-30.0
 62
     5
 63
     8
 74
     1
 91
        4
 64
     7
 65
   257
 75
     1
175
     1
 42
1.0
 92
        8
 66
     8
 43
1.0
 76
     1
 77
     6
 78
     2
 67
     7
 79
     5
170
     0
171
     0
290
     0
174
     0
 93
        1
 44
0.0
173
     0
291
     1
 45
0.0
1001
ACAD
1000
AcDbSavedByObjectVersion
1070
     0
  0
VISUALSTYLE
  5
34
102
{ACAD_REACTORS
330
2A
102
}
330
2A
100
AcDbVisualStyle
  2
Conceptual
 70
     9
 71
     3
 72
     2
 73
     0
 90
        0
 40
-0.6
 41
-30.0
 62
     5
 63
     7
 74
     2
 91
        2
 64
     7
 65
   257
 75
     1
175
     1
 42
40.0
 92
        8
 66
     7
 43
1.0
 76
     1
 77
     6
 78
     2
 67
     7
 79
     3
170
     0
171
     0
290
     0
174
     0
 93
        1
 44
0.0
173
     0
291
     0
 45
0.0
1001
ACAD
1000
AcDbSavedByObjectVersion
1070
     0
  0
VISUALSTYLE
  5
35
102
{ACAD_REACTORS
330
2A
102
}
330
2A
100
AcDbVisualStyle
  2
Dim
 70
    11
 71
     2
 72
     2
 73
     0
 90
        0
 40
-0.6
 41
-30.0
 62
     5
 63
     7
 74
     1
 91
        4
 64
     7
 65
   257
 75
     1
175
     1
 42
1.0
 92
        8
 66
     7
 43
1.0
 76
     1
 77
     6
 78
     2
 67
     7
 79
     5
170
     0
171
     0
290
     0
174
     0
 93
        1
 44
-50.0
173
     0
291
     1
 45
0.0
1001
ACAD
1000
AcDbSavedByObjectVersion
1070
     0
  0
VISUALSTYLE
  5
39
102
{ACAD_REACTORS
330
2A
102
}
330
2A
100
AcDbVisualStyle
  2
Facepattern
 70
    15
 71
     2
 72
     2
 73
     0
 90
        0
 40
-0.6
 41
-30.0
 62
     5
 63
     7
 74
     1
 91
        4
 64
     7
 65
   257
 75
     1
175
     1
 42
1.0
 92
        8
 66
     7
 43
1.0
 76
     1
 77
     6
 78
     2
 67
     7
 79
     5
170
     0
171
     0
290
     0
174
     0
 93
        1
 44
0.0
173
     0
291
     1
 45
0.0
1001
ACAD
1000
AcDbSavedByObjectVersion
1070
     0
  0
VISUALSTYLE
  5
2B
102
{ACAD_REACTORS
330
2A
102
}
330
2A
100
AcDbVisualStyle
  2
Flat
 70
     0
 71
     2
 72
     1
 73
     1
 90
        2
 40
-0.6
 41
30.0
 62
     5
 63
     7
 74
     0
 91
        4
 64
     7
 65
   257
 75
     1
175
     1
 42
1.0
 92
        8
 66
     7
 43
1.0
 76
     1
 77
     6
 78
     2
 67
     7
 79
     5
170
     0
171
     0
290
     0
174
     0
 93
       13
 44
0.0
173
     0
291
     1
 45
0.0
1001
ACAD
1000
AcDbSavedByObjectVersion
1070
     0
  0
VISUALSTYLE
  5
2C
102
{ACAD_REACTORS
330
2A
102
}
330
2A
100
AcDbVisualStyle
  2
FlatWithEdges
 70
     1
 71
     2
 72
     1
 73
     1
 90
        2
 40
-0.6
 41
30.0
 62
     5
 63
     7
 74
     1
 91
        4
 64
     7
 65
   257
 75
     1
175
     1
 42
1.0
 92
        0
 66
   257
 43
1.0
 76
     1
 77
     6
 78
     2
 67
     7
 79
     5
170
     0
171
     0
290
     0
174
     0
 93
       13
 44
0.0
173
     0
291
     1
 45
0.0
1001
ACAD
1000
AcDbSavedByObjectVersion
1070
     0
  0
VISUALSTYLE
  5
2D
102
{ACAD_REACTORS
330
2A
102
}
330
2A
100
AcDbVisualStyle
  2
Gouraud
 70
     2
 71
     2
 72
     2
 73
     1
 90
        2
 40
-0.6
 41
30.0
 62
     5
 63
     7
 74
     0
 91
        4
 64
     7
 65
   257
 75
     1
175
     1
 42
1.0
 92
        0
 66
     7
 43
1.0
 76
     1
 77
     6
 78
     2
 67
     7
 79
     5
170
     0
171
     0
290
     0
174
     0
 93
       13
 44
0.0
173
     0
291
     1
 45
0.0
1001
ACAD
1000
AcDbSavedByObjectVersion
1070
     0
  0
VISUALSTYLE
  5
2E
102
{ACAD_REACTORS
330
2A
102
}
330
2A
100
AcDbVisualStyle
  2
GouraudWithEdges
 70
     3
 71
     2
 72
     2
 73
     1
 90
        2
 40
-0.6
 41
30.0
 62
     5
 63
     7
 74
     1
 91
        4
 64
     7
 65
   257
 75
     1
175
     1
 42
1.0
 92
        0
 66
   257
 43
1.0
 76
     1
 77
     6
 78
     2
 67
     7
 79
     5
170
     0
171
     0
290
     0
174
     0
 93
       13
 44
0.0
173
     0
291
     1
 45
0.0
1001
ACAD
1000
AcDbSavedByObjectVersion
1070
     0
  0
VISUALSTYLE
  5
38
102
{ACAD_REACTORS
330
2A
102
}
330
2A
100
AcDbVisualStyle
  2
Linepattern
 70
    14
 71
     2
 72
     2
 73
     0
 90
        0
 40
-0.6
 41
-30.0
 62
     5
 63
     7
 74
     1
 91
        4
 64
     7
 65
   257
 75
     7
175
     7
 42
1.0
 92
        8
 66
     7
 43
1.0
 76
     1
 77
     6
 78
     2
 67
     7
 79
     5
170
     0
171
     0
290
     0
174
     0
 93
        1
 44
0.0
173
     0
291
     1
 45
0.0
1001
ACAD
1000
AcDbSavedByObjectVersion
1070
     0
  0
VISUALSTYLE
  5
33
102
{ACAD_REACTORS
330
2A
102
}
330
2A
100
AcDbVisualStyle
  2
Realistic
 70
     8
 71
     2
 72
     2
 73
     0
 90
        0
 40
-0.6
 41
-30.0
 62
     5
 63
     7
 74
     1
 91
        0
 64
     7
 65
   257
 75
     1
175
     1
 42
1.0
 92
        8
 66
     8
 43
1.0
 76
     1
 77
     6
 78
     2
 67
     7
 79
     5
170
     0
171
     0
290
     0
174
     0
 93
       13
 44
0.0
173
     0
291
     0
 45
0.0
1001
ACAD
1000
AcDbSavedByObjectVersion
1070
     0
  0
VISUALSTYLE
  5
37
102
{ACAD_REACTORS
330
2A
102
}
330
2A
100
AcDbVisualStyle
  2
Thicken
 70
    13
 71
     2
 72
     2
 73
     0
 90
        0
 40
-0.6
 41
-30.0
 62
     5
 63
     7
 74
     1
 91
        4
 64
     7
 65
   257
 75
     1
175
     1
 42
1.0
 92
       12
 66
     7
 43
1.0
 76
     1
 77
     6
 78
     2
 67
     7
 79
     5
170
     0
171
     0
290
     0
174
     0
 93
        1
 44
0.0
173
     0
291
     1
 45
0.0
1001
ACAD
1000
AcDbSavedByObjectVersion
1070
     0
  0
DICTIONARYVAR
  5
33C
102
{ACAD_REACTORS
330
33A
102
}
330
33A
100
DictionaryVariables
280
     0
  1
80.000000
  0
DICTIONARYVAR
  5
33B
102
{ACAD_REACTORS
330
33A
102
}
330
33A
100
DictionaryVariables
280
     0
  1
5.000000
  0
ENDSEC
  0
EOF
