  0
SECTION
  2
HEADER
  9
$ACADVER
  1
AC1015
  9
$ACADMAINTVER
 70
     6
  9
$DWGCODEPAGE
  3
DOS932
  9
$INSBASE
 10
0.0
 20
0.0
 30
0.0
  9
$EXTMIN
 10
0.0
 20
0.0
 30
0.0
  9
$EXTMAX
 10
841.0
 20
594.0
 30
0.0
  9
$LIMMIN
 10
0.0
 20
0.0
  9
$LIMMAX
 10
841.0
 20
594.0
  9
$ORTHOMODE
 70
     0
  9
$REGENMODE
 70
     1
  9
$FILLMODE
 70
     1
  9
$QTEXTMODE
 70
     0
  9
$MIRRTEXT
 70
     1
  9
$LTSCALE
 40
1.0
  9
$ATTMODE
 70
     1
  9
$TEXTSIZE
 40
3.5
  9
$TRACEWID
 40
1.0
  9
$TEXTSTYLE
  7
Standard
  9
$CLAYER
  8
0
  9
$CELTYPE
  6
ByLayer
  9
$CECOLOR
 62
   256
  9
$CELTSCALE
 40
1.0
  9
$DISPSILH
 70
     0
  9
$DIMSCALE
 40
1.0
  9
$DIMASZ
 40
3.8637032976
  9
$DIMEXO
 40
1.0
  9
$DIMDLI
 40
3.75
  9
$DIMRND
 40
0.0
  9
$DIMDLE
 40
0.0
  9
$DIMEXE
 40
1.0
  9
$DIMTP
 40
0.0
  9
$DIMTM
 40
0.0
  9
$DIMTXT
 40
2.7999999523
  9
$DIMCEN
 40
2.5
  9
$DIMTSZ
 40
0.0
  9
$DIMTOL
 70
     0
  9
$DIMLIM
 70
     0
  9
$DIMTIH
 70
     1
  9
$DIMTOH
 70
     1
  9
$DIMSE1
 70
     0
  9
$DIMSE2
 70
     0
  9
$DIMTAD
 70
     1
  9
$DIMZIN
 70
     1
  9
$DIMBLK
  1

  9
$DIMASO
 70
     1
  9
$DIMSHO
 70
     1
  9
$DIMPOST
  1

  9
$DIMAPOST
  1

  9
$DIMALT
 70
     0
  9
$DIMALTD
 70
     3
  9
$DIMALTF
 40
0.0393700787
  9
$DIMLFAC
 40
1.0
  9
$DIMTOFL
 70
     1
  9
$DIMTVP
 40
0.0
  9
$DIMTIX
 70
     0
  9
$DIMSOXD
 70
     0
  9
$DIMSAH
 70
     0
  9
$DIMBLK1
  1

  9
$DIMBLK2
  1

  9
$DIMSTYLE
  2
ISO-25
  9
$DIMCLRD
 70
     0
  9
$DIMCLRE
 70
     0
  9
$DIMCLRT
 70
     0
  9
$DIMTFAC
 40
1.0
  9
$DIMGAP
 40
1.524
  9
$DIMJUST
 70
     0
  9
$DIMSD1
 70
     0
  9
$DIMSD2
 70
     0
  9
$DIMTOLJ
 70
     0
  9
$DIMTZIN
 70
     1
  9
$DIMALTZ
 70
     0
  9
$DIMALTTZ
 70
     0
  9
$DIMUPT
 70
     0
  9
$DIMDEC
 70
     2
  9
$DIMTDEC
 70
     2
  9
$DIMALTU
 70
     2
  9
$DIMALTTD
 70
     3
  9
$DIMTXSTY
  7
Standard
  9
$DIMAUNIT
 70
     0
  9
$DIMADEC
 70
     0
  9
$DIMALTRND
 40
0.0
  9
$DIMAZIN
 70
     0
  9
$DIMDSEP
 70
    44
  9
$DIMATFIT
 70
     3
  9
$DIMFRAC
 70
     0
  9
$DIMLDRBLK
  1

  9
$DIMLUNIT
 70
     2
  9
$DIMLWD
 70
    -2
  9
$DIMLWE
 70
    -2
  9
$DIMTMOVE
 70
     0
  9
$LUNITS
 70
     2
  9
$LUPREC
 70
     3
  9
$SKETCHINC
 40
1.0
  9
$FILLETRAD
 40
10.0
  9
$AUNITS
 70
     0
  9
$AUPREC
 70
     0
  9
$MENU
  1
.
  9
$ELEVATION
 40
0.0
  9
$PELEVATION
 40
0.0
  9
$THICKNESS
 40
0.0
  9
$LIMCHECK
 70
     0
  9
$CHAMFERA
 40
10.0
  9
$CHAMFERB
 40
10.0
  9
$CHAMFERC
 40
20.0
  9
$CHAMFERD
 40
0.0
  9
$SKPOLY
 70
     0
  9
$TDCREATE
 40
2456367.658965567
  9
$TDUCREATE
 40
2456367.283965567
  9
$TDUPDATE
 40
2456367.658965579
  9
$TDUUPDATE
 40
2456367.283965579
  9
$TDINDWG
 40
0.0000000116
  9
$TDUSRTIMER
 40
0.0000000116
  9
$USRTIMER
 70
     1
  9
$ANGBASE
 50
0.0
  9
$ANGDIR
 70
     0
  9
$PDMODE
 70
     0
  9
$PDSIZE
 40
-1.0
  9
$PLINEWID
 40
0.0
  9
$SPLFRAME
 70
     0
  9
$SPLINETYPE
 70
     6
  9
$SPLINESEGS
 70
     8
  9
$HANDSEED
  5
30F
  9
$SURFTAB1
 70
     6
  9
$SURFTAB2
 70
     6
  9
$SURFTYPE
 70
     6
  9
$SURFU
 70
     6
  9
$SURFV
 70
     6
  9
$UCSBASE
  2

  9
$UCSNAME
  2

  9
$UCSORG
 10
0.0
 20
0.0
 30
0.0
  9
$UCSXDIR
 10
1.0
 20
0.0
 30
0.0
  9
$UCSYDIR
 10
0.0
 20
1.0
 30
0.0
  9
$UCSORTHOREF
  2

  9
$UCSORTHOVIEW
 70
     0
  9
$UCSORGTOP
 10
0.0
 20
0.0
 30
0.0
  9
$UCSORGBOTTOM
 10
0.0
 20
0.0
 30
0.0
  9
$UCSORGLEFT
 10
0.0
 20
0.0
 30
0.0
  9
$UCSORGRIGHT
 10
0.0
 20
0.0
 30
0.0
  9
$UCSORGFRONT
 10
0.0
 20
0.0
 30
0.0
  9
$UCSORGBACK
 10
0.0
 20
0.0
 30
0.0
  9
$PUCSBASE
  2

  9
$PUCSNAME
  2

  9
$PUCSORG
 10
0.0
 20
0.0
 30
0.0
  9
$PUCSXDIR
 10
1.0
 20
0.0
 30
0.0
  9
$PUCSYDIR
 10
0.0
 20
1.0
 30
0.0
  9
$PUCSORTHOREF
  2

  9
$PUCSORTHOVIEW
 70
     0
  9
$PUCSORGTOP
 10
0.0
 20
0.0
 30
0.0
  9
$PUCSORGBOTTOM
 10
0.0
 20
0.0
 30
0.0
  9
$PUCSORGLEFT
 10
0.0
 20
0.0
 30
0.0
  9
$PUCSORGRIGHT
 10
0.0
 20
0.0
 30
0.0
  9
$PUCSORGFRONT
 10
0.0
 20
0.0
 30
0.0
  9
$PUCSORGBACK
 10
0.0
 20
0.0
 30
0.0
  9
$USERI1
 70
     0
  9
$USERI2
 70
     0
  9
$USERI3
 70
     0
  9
$USERI4
 70
     0
  9
$USERI5
 70
     0
  9
$USERR1
 40
0.0
  9
$USERR2
 40
0.0
  9
$USERR3
 40
0.0
  9
$USERR4
 40
0.0
  9
$USERR5
 40
0.0
  9
$WORLDVIEW
 70
     1
  9
$SHADEDGE
 70
     3
  9
$SHADEDIF
 70
    70
  9
$TILEMODE
 70
     1
  9
$MAXACTVP
 70
    64
  9
$PINSBASE
 10
0.0
 20
0.0
 30
0.0
  9
$PLIMCHECK
 70
     0
  9
$PEXTMIN
 10
1.0000000000E+20
 20
1.0000000000E+20
 30
1.0000000000E+20
  9
$PEXTMAX
 10
-1.0000000000E+20
 20
-1.0000000000E+20
 30
-1.0000000000E+20
  9
$PLIMMIN
 10
0.0
 20
0.0
  9
$PLIMMAX
 10
420.0
 20
297.0
  9
$UNITMODE
 70
     0
  9
$VISRETAIN
 70
     1
  9
$PLINEGEN
 70
     0
  9
$PSLTSCALE
 70
     1
  9
$TREEDEPTH
 70
  3020
  9
$CMLSTYLE
  2
Standard
  9
$CMLJUST
 70
     0
  9
$CMLSCALE
 40
20.0
  9
$PROXYGRAPHICS
 70
     1
  9
$MEASUREMENT
 70
     1
  9
$CELWEIGHT
370
    -1
  9
$ENDCAPS
280
     0
  9
$JOINSTYLE
280
     0
  9
$LWDISPLAY
290
     1
  9
$INSUNITS
 70
     4
  9
$HYPERLINKBASE
  1

  9
$STYLESHEET
  1

  9
$XEDIT
290
     1
  9
$CEPSNTYPE
380
     0
  9
$PSTYLEMODE
290
     1
  9
$FINGERPRINTGUID
  2
{11A31468-7748-4C8A-9807-B08D003F45BC}
  9
$VERSIONGUID
  2
{FAEB1C32-E019-11D5-929B-00C0DF256EC4}
  9
$EXTNAMES
290
     1
  9
$PSVPSCALE
 40
0.0
  9
$OLESTARTUP
290
     0
  0
ENDSEC
  0
SECTION
  2
CLASSES
  0
CLASS
  1
ACDBDICTIONARYWDFLT
  2
AcDbDictionaryWithDefault
  3
ObjectDBX Classes
 90
        0
280
     0
281
     0
  0
CLASS
  1
VISUALSTYLE
  2
AcDbVisualStyle
  3
ObjectDBX Classes
 90
     4095
280
     0
281
     0
  0
CLASS
  1
DICTIONARYVAR
  2
AcDbDictionaryVar
  3
ObjectDBX Classes
 90
        0
280
     0
281
     0
  0
CLASS
  1
ACDBPLACEHOLDER
  2
AcDbPlaceHolder
  3
ObjectDBX Classes
 90
        0
280
     0
281
     0
  0
CLASS
  1
LAYOUT
  2
AcDbLayout
  3
ObjectDBX Classes
 90
        0
280
     0
281
     0
  0
ENDSEC
  0
SECTION
  2
TABLES
  0
TABLE
  2
VPORT
  5
8
330
0
100
AcDbSymbolTable
 70
     1
  0
VPORT
  5
29
330
8
100
AcDbSymbolTableRecord
100
AcDbViewportTableRecord
  2
*Active
 70
     0
 10
0.0
 20
0.0
 11
1.0
 21
1.0
 12
420.5
 22
297.0
 13
0.0
 23
0.0
 14
10.0
 24
10.0
 15
10.0
 25
10.0
 16
0.0
 26
0.0
 36
1.0
 17
0.0
 27
0.0
 37
0.0
 40
594.0
 41
1.4158249158
 42
50.0
 43
0.0
 44
0.0
 50
0.0
 51
0.0
 71
     0
 72
  2000
 73
     1
 74
     3
 75
     0
 76
     0
 77
     0
 78
     0
281
     0
 65
     1
110
0.0
120
0.0
130
0.0
111
1.0
121
0.0
131
0.0
112
0.0
122
1.0
132
0.0
 79
     0
146
0.0
  0
ENDTAB
  0
TABLE
  2
LTYPE
  5
5
330
0
100
AcDbSymbolTable
 70
     6
  0
LTYPE
  5
14
330
5
100
AcDbSymbolTableRecord
100
AcDbLinetypeTableRecord
  2
ByBlock
 70
     0
  3

 72
    65
 73
     0
 40
0.0
  0
LTYPE
  5
15
330
5
100
AcDbSymbolTableRecord
100
AcDbLinetypeTableRecord
  2
ByLayer
 70
     0
  3

 72
    65
 73
     0
 40
0.0
  0
LTYPE
  5
16
330
5
100
AcDbSymbolTableRecord
100
AcDbLinetypeTableRecord
  2
Continuous
 70
     0
  3
Solid line
 72
    65
 73
     0
 40
0.0
  0
LTYPE
  5
3B
330
5
100
AcDbSymbolTableRecord
100
AcDbLinetypeTableRecord
  2
HIDDEN
 70
     0
  3
Hidden __ __ __ __ __ __ __ __ __ __ __ __ __ __
 72
    65
 73
     2
 40
1.905
 49
1.27
 74
     0
 49
-0.635
 74
     0
  0
LTYPE
  5
3C
330
5
100
AcDbSymbolTableRecord
100
AcDbLinetypeTableRecord
  2
PHANTOM
 70
     0
  3
Phantom ______  __  __  ______  __  __  ______
 72
    65
 73
     6
 40
12.7
 49
6.35
 74
     0
 49
-1.27
 74
     0
 49
1.27
 74
     0
 49
-1.27
 74
     0
 49
1.27
 74
     0
 49
-1.27
 74
     0
  0
LTYPE
  5
3D
330
5
100
AcDbSymbolTableRecord
100
AcDbLinetypeTableRecord
  2
CENTER
 70
     0
  3
Center ____ _ ____ _ ____ _ ____ _ ____ _ ____
 72
    65
 73
     4
 40
10.16
 49
6.35
 74
     0
 49
-1.27
 74
     0
 49
1.27
 74
     0
 49
-1.27
 74
     0
  0
LTYPE
  5
3E
330
5
100
AcDbSymbolTableRecord
100
AcDbLinetypeTableRecord
  2
CENTERX2
 70
     0
  3
Center (2x) ________  __  ________  __  _____
 72
    65
 73
     4
 40
20.32
 49
12.7
 74
     0
 49
-2.54
 74
     0
 49
2.54
 74
     0
 49
-2.54
 74
     0
  0
LTYPE
  5
3F
330
5
100
AcDbSymbolTableRecord
100
AcDbLinetypeTableRecord
  2
DOT2
 70
     0
  3
Dot (.5x) ........................................
 72
    65
 73
     2
 40
0.635
 49
0.0
 74
     0
 49
-0.635
 74
     0
  0
ENDTAB
  0
TABLE
  2
LAYER
  5
2
330
0
100
AcDbSymbolTable
 70
     4
  0
LAYER
  5
10
330
2
100
AcDbSymbolTableRecord
100
AcDbLayerTableRecord
  2
0
 70
     0
 62
     7
  6
Continuous
370
    -3
390
F
  0
LAYER
  5
40
330
2
100
AcDbSymbolTableRecord
100
AcDbLayerTableRecord
  2
SLD-0
 70
     0
 62
     3
  6
Continuous
370
    -3
390
F
  0
LAYER
  5
41
330
2
100
AcDbSymbolTableRecord
100
AcDbLayerTableRecord
  2
SLD-DEFPOINTS
 70
     0
 62
   179
  6
Continuous
370
    -3
390
F
  0
LAYER
  5
42
330
2
100
AcDbSymbolTableRecord
100
AcDbLayerTableRecord
  2
AM_REFDIM
 70
     0
 62
     4
  6
Continuous
370
    15
390
F
  0
ENDTAB
  0
TABLE
  2
STYLE
  5
3
330
0
100
AcDbSymbolTable
 70
     1
  0
STYLE
  5
11
330
3
100
AcDbSymbolTableRecord
100
AcDbTextStyleTableRecord
  2
Standard
 70
     0
 40
0.0
 41
1.0
 50
0.0
 71
     0
 42
2.5
  3
txt
  4
bigfont
  0
ENDTAB
  0
TABLE
  2
VIEW
  5
6
330
0
100
AcDbSymbolTable
 70
     0
  0
ENDTAB
  0
TABLE
  2
UCS
  5
7
330
0
100
AcDbSymbolTable
 70
     0
  0
ENDTAB
  0
TABLE
  2
APPID
  5
9
330
0
100
AcDbSymbolTable
 70
     1
  0
APPID
  5
12
330
9
100
AcDbSymbolTableRecord
100
AcDbRegAppTableRecord
  2
ACAD
 70
     0
  0
ENDTAB
  0
TABLE
  2
DIMSTYLE
  5
A
330
0
100
AcDbSymbolTable
 70
     1
100
AcDbDimStyleTable
  0
DIMSTYLE
105
27
330
A
100
AcDbSymbolTableRecord
100
AcDbDimStyleTableRecord
  2
ISO-25
 70
     0
 41
2.5
 42
0.625
 43
3.75
 44
1.25
 73
     0
 74
     0
 77
     1
 78
     8
140
2.5
141
2.5
143
0.0393700787
147
0.625
171
     3
172
     1
271
     2
272
     2
274
     3
278
    44
283
     0
284
     8
340
11
  0
ENDTAB
  0
TABLE
  2
BLOCK_RECORD
  5
1
330
0
100
AcDbSymbolTable
 70
     2
  0
BLOCK_RECORD
  5
1F
330
1
100
AcDbSymbolTableRecord
100
AcDbBlockTableRecord
  2
*Model_Space
340
22
  0
BLOCK_RECORD
  5
1B
330
1
100
AcDbSymbolTableRecord
100
AcDbBlockTableRecord
  2
*Paper_Space
340
1E
  0
BLOCK_RECORD
  5
23
330
1
100
AcDbSymbolTableRecord
100
AcDbBlockTableRecord
  2
*Paper_Space0
340
26
  0
BLOCK_RECORD
  5
2FE
330
1
100
AcDbSymbolTableRecord
100
AcDbBlockTableRecord
  2
SW_CENTERMARKSYMBOL_0
340
0
102
{BLKREFS
331
309
102
}
  0
ENDTAB
  0
ENDSEC
  0
SECTION
  2
BLOCKS
  0
BLOCK
  5
20
330
1F
100
AcDbEntity
  8
0
100
AcDbBlockBegin
  2
*Model_Space
 70
     0
 10
0.0
 20
0.0
 30
0.0
  3
*Model_Space
  1

  0
ENDBLK
  5
21
330
1F
100
AcDbEntity
  8
0
100
AcDbBlockEnd
  0
BLOCK
  5
1C
330
1B
100
AcDbEntity
 67
     1
  8
0
100
AcDbBlockBegin
  2
*Paper_Space
 70
     0
 10
0.0
 20
0.0
 30
0.0
  3
*Paper_Space
  1

  0
ENDBLK
  5
1D
330
1B
100
AcDbEntity
 67
     1
  8
0
100
AcDbBlockEnd
  0
BLOCK
  5
24
330
23
100
AcDbEntity
  8
0
100
AcDbBlockBegin
  2
*Paper_Space0
 70
     0
 10
0.0
 20
0.0
 30
0.0
  3
*Paper_Space0
  1

  0
ENDBLK
  5
25
330
23
100
AcDbEntity
  8
0
100
AcDbBlockEnd
  0
BLOCK
  5
2FF
330
2FE
100
AcDbEntity
  8
0
100
AcDbBlockBegin
  2
SW_CENTERMARKSYMBOL_0
 70
     0
 10
0.0
 20
0.0
 30
0.0
  3
SW_CENTERMARKSYMBOL_0
  1

  0
LINE
  5
301
330
2FE
100
AcDbEntity
  8
SLD-0
 62
     0
100
AcDbLine
 10
0.0
 20
0.0
 30
0.0
 11
0.0
 21
2.5
 31
0.0
  0
LINE
  5
302
330
2FE
100
AcDbEntity
  8
SLD-0
 62
     0
100
AcDbLine
 10
0.0
 20
0.0
 30
0.0
 11
-2.5
 21
0.0
 31
0.0
  0
LINE
  5
303
330
2FE
100
AcDbEntity
  8
SLD-0
 62
     0
100
AcDbLine
 10
0.0
 20
0.0
 30
0.0
 11
0.0
 21
-2.5
 31
0.0
  0
LINE
  5
304
330
2FE
100
AcDbEntity
  8
SLD-0
 62
     0
100
AcDbLine
 10
0.0
 20
0.0
 30
0.0
 11
2.5
 21
0.0
 31
0.0
  0
LINE
  5
305
330
2FE
100
AcDbEntity
  8
SLD-0
 62
     0
100
AcDbLine
 10
0.0
 20
5.0
 30
0.0
 11
0.0
 21
171.3560296291
 31
0.0
  0
LINE
  5
306
330
2FE
100
AcDbEntity
  8
SLD-0
 62
     0
100
AcDbLine
 10
-5.0
 20
0.0
 30
0.0
 11
-96.7555268563
 21
0.0
 31
0.0
  0
LINE
  5
307
330
2FE
100
AcDbEntity
  8
SLD-0
 62
     0
100
AcDbLine
 10
0.0
 20
-5.0
 30
0.0
 11
0.0
 21
-131.0472948143
 31
0.0
  0
LINE
  5
308
330
2FE
100
AcDbEntity
  8
SLD-0
 62
     0
100
AcDbLine
 10
5.0
 20
0.0
 30
0.0
 11
99.4497712578
 21
0.0
 31
0.0
  0
ENDBLK
  5
300
330
2FE
100
AcDbEntity
  8
0
100
AcDbBlockEnd
  0
ENDSEC
  0
SECTION
  2
ENTITIES
  0
LWPOLYLINE
  5
43
330
1F
100
AcDbEntity
  8
0
  6
Continuous
 62
     7
370
    15
100
AcDbPolyline
 90
       19
 70
   128
 43
0.0
 10
197.9621255426
 20
191.4769614662
 10
197.9624682693
 20
191.1643909837
 10
197.9621031909
 20
190.4273795511
 10
197.96234906
 20
189.3889809574
 10
197.9623937635
 20
188.2653588976
 10
197.9624012141
 20
187.1812472667
 10
197.9624682693
 20
186.2338984932
 10
197.9625353245
 20
185.4989434208
 10
197.9625874786
 20
185.0168144877
 10
197.9627066879
 20
183.8548964437
 10
197.9628706007
 20
181.9864398416
 10
197.9630345134
 20
177.3447150912
 10
197.9631164698
 20
174.7262290295
 10
197.9631984262
 20
172.2969541873
 10
197.9631388216
 20
170.1172104652
 10
197.9627811937
 20
167.4877636682
 10
197.9619020252
 20
163.5281060438
 10
197.9629227547
 20
158.2211108028
 10
197.961514595
 20
151.5660959843
  0
LWPOLYLINE
  5
44
330
1F
100
AcDbEntity
  8
0
  6
Continuous
 62
     7
370
    15
100
AcDbPolyline
 90
       18
 70
   128
 43
0.0
 10
208.0626466898
 20
151.5660959843
 10
208.0603668122
 20
156.8391985341
 10
208.0623486666
 20
161.1499026033
 10
208.0620506434
 20
164.5216521423
 10
208.0614843993
 20
166.9763399835
 10
208.0611193208
 20
169.0895900677
 10
208.0609628586
 20
171.1701991584
 10
208.0609777598
 20
173.2338833238
 10
208.0610597162
 20
175.3396912094
 10
208.0611118702
 20
179.6090098645
 10
208.0611565737
 20
181.857246774
 10
208.0613502888
 20
184.3552010681
 10
208.0616930155
 20
186.8983002927
 10
208.0620953469
 20
189.1899237956
 10
208.0624529748
 20
190.1399324264
 10
208.0626690416
 20
190.8757033374
 10
208.06187928
 20
191.2962327327
 10
208.0620208411
 20
191.4691197302
  0
LINE
  5
45
330
1F
100
AcDbEntity
  8
0
  6
Continuous
 62
     7
370
    15
100
AcDbLine
 10
385.3538909583
 20
200.5660960998
 30
0.0
 11
386.0120752482
 21
201.7060945358
 31
0.0
  0
LINE
  5
46
330
1F
100
AcDbEntity
  8
0
  6
Continuous
 62
     7
370
    15
100
AcDbLine
 10
386.0120752482
 20
216.4260948624
 30
0.0
 11
385.3538909583
 21
217.5660970237
 31
0.0
  0
LINE
  5
47
330
1F
100
AcDbEntity
  8
0
  6
Continuous
 62
     7
370
    15
100
AcDbLine
 10
420.5120781092
 20
396.6769146349
 30
0.0
 11
417.0120635657
 21
396.5675401117
 31
0.0
  0
LINE
  5
48
330
1F
100
AcDbEntity
  8
0
  6
Continuous
 62
     7
370
    15
100
AcDbLine
 10
417.0120635657
 20
380.564661565
 30
0.0
 11
420.5120781092
 21
380.4552870418
 31
0.0
  0
LINE
  5
49
330
1F
100
AcDbEntity
  8
0
  6
Continuous
 62
     7
370
    15
100
AcDbLine
 10
399.512080255
 20
410.5661081697
 30
0.0
 11
399.512080255
 21
412.5660824205
 31
0.0
  0
LINE
  5
4A
330
1F
100
AcDbEntity
  8
0
  6
Continuous
 62
     7
370
    15
100
AcDbLine
 10
314.5120719103
 20
412.5660824205
 30
0.0
 11
314.5120719103
 21
410.5661081697
 31
0.0
  0
LINE
  5
4B
330
1F
100
AcDbEntity
  8
0
  6
Continuous
 62
     7
370
    15
100
AcDbLine
 10
389.5120897917
 20
428.5660850431
 30
0.0
 11
389.5120897917
 21
435.5660843279
 31
0.0
  0
LINE
  5
4C
330
1F
100
AcDbEntity
  8
0
  6
Continuous
 62
     7
370
    15
100
AcDbLine
 10
324.5120772748
 20
435.5660843279
 30
0.0
 11
324.5120772748
 21
428.5660850431
 31
0.0
  0
LINE
  5
4D
330
1F
100
AcDbEntity
  8
0
  6
Continuous
 62
     7
370
    15
100
AcDbLine
 10
399.0120866923
 20
236.0660972621
 30
0.0
 11
401.0120907454
 21
236.0660972621
 31
0.0
  0
LINE
  5
4E
330
1F
100
AcDbEntity
  8
0
  6
Continuous
 62
     7
370
    15
100
AcDbLine
 10
401.0120907454
 20
321.0660981561
 30
0.0
 11
399.0120866923
 21
321.0660981561
 31
0.0
  0
LINE
  5
4F
330
1F
100
AcDbEntity
  8
0
  6
Continuous
 62
     7
370
    15
100
AcDbLine
 10
417.0120635657
 20
246.0660951759
 30
0.0
 11
424.0120926528
 21
246.0660951759
 31
0.0
  0
LINE
  5
50
330
1F
100
AcDbEntity
  8
0
  6
Continuous
 62
     7
370
    15
100
AcDbLine
 10
424.0120926528
 20
311.0660927917
 30
0.0
 11
417.0120635657
 21
311.0660927917
 31
0.0
  0
LINE
  5
51
330
1F
100
AcDbEntity
  8
0
  6
Continuous
 62
     7
370
    15
100
AcDbLine
 10
402.0120778708
 20
408.5661041166
 30
0.0
 11
402.0120778708
 21
410.5661081697
 31
0.0
  0
LINE
  5
52
330
1F
100
AcDbEntity
  8
0
  6
Continuous
 62
     7
370
    15
100
AcDbLine
 10
312.0120742945
 20
410.5661081697
 30
0.0
 11
312.0120742945
 21
408.5661041166
 31
0.0
  0
LINE
  5
53
330
1F
100
AcDbEntity
  8
0
  6
Continuous
 62
     7
370
    15
100
AcDbLine
 10
397.0120826392
 20
233.5660996463
 30
0.0
 11
399.0120866923
 21
233.5660996463
 31
0.0
  0
LINE
  5
54
330
1F
100
AcDbEntity
  8
0
  6
Continuous
 62
     7
370
    15
100
AcDbLine
 10
399.0120866923
 20
323.566095772
 30
0.0
 11
397.0120826392
 21
323.566095772
 31
0.0
  0
ARC
  5
55
330
1F
100
AcDbEntity
  8
0
  6
Continuous
 62
     7
370
    15
100
AcDbCircle
 10
129.4587588273
 20
216.0660960104
 30
0.0
 40
7.999999999999999
100
AcDbArc
 50
195.2555633432
 51
221.9837056292
  0
LINE
  5
56
330
1F
100
AcDbEntity
  8
0
  6
Continuous
 62
     7
370
    15
100
AcDbLine
 10
132.0120783178
 20
208.0660963978
 30
0.0
 11
133.5120776324
 21
208.0660963978
 31
0.0
  0
LWPOLYLINE
  5
57
330
1F
100
AcDbEntity
  8
0
  6
Continuous
 62
     7
370
    15
100
AcDbPolyline
 90
        3
 70
   128
 43
0.0
 10
120.3559439285
 20
219.5660936262
 10
120.7540806039
 20
217.8310322191
 10
121.7406641348
 20
213.9610963489
  0
LINE
  5
58
330
1F
100
AcDbEntity
  8
0
  6
Continuous
 62
     7
370
    15
100
AcDbLine
 10
243.9974823622
 20
347.1660929348
 30
0.0
 11
160.0266785948
 21
347.1660929348
 31
0.0
  0
LINE
  5
59
330
1F
100
AcDbEntity
  8
0
  6
Continuous
 62
     7
370
    15
100
AcDbLine
 10
133.5120776324
 20
209.9660950329
 30
0.0
 11
148.0120772151
 21
209.9660950329
 31
0.0
  0
LINE
  5
5A
330
1F
100
AcDbEntity
  8
0
  6
Continuous
 62
     7
370
    15
100
AcDbLine
 10
267.0120725064
 20
209.9660950329
 30
0.0
 11
273.5120782284
 21
209.9660950329
 31
0.0
  0
LINE
  5
5B
330
1F
100
AcDbEntity
  8
0
  6
Continuous
 62
     7
370
    15
100
AcDbLine
 10
273.5120782284
 20
208.5660974111
 30
0.0
 11
312.0120742945
 21
208.5660974111
 31
0.0
  0
LINE
  5
5C
330
1F
100
AcDbEntity
  8
0
  6
Continuous
 62
     7
370
    15
100
AcDbLine
 10
312.0120742945
 20
348.5661017324
 30
0.0
 11
285.0120791821
 21
348.5661017324
 31
0.0
  0
LINE
  5
5D
330
1F
100
AcDbEntity
  8
0
  6
Continuous
 62
     7
370
    15
100
AcDbLine
 10
312.0120742945
 20
298.5660898115
 30
0.0
 11
289.512080851
 21
298.5660898115
 31
0.0
  0
LINE
  5
5E
330
1F
100
AcDbEntity
  8
0
  6
Continuous
 62
     7
370
    15
100
AcDbLine
 10
289.512080851
 20
258.5660981561
 30
0.0
 11
312.0120742945
 21
258.5660981561
 31
0.0
  0
LINE
  5
5F
330
1F
100
AcDbEntity
  8
0
  6
Continuous
 62
     7
370
    15
100
AcDbLine
 10
320.0120756058
 20
349.0660952951
 30
0.0
 11
312.0120742945
 21
349.0660952951
 31
0.0
  0
LINE
  5
60
330
1F
100
AcDbEntity
  8
0
  6
Continuous
 62
     7
370
    15
100
AcDbLine
 10
312.0120742945
 20
208.0660963978
 30
0.0
 11
320.0120756058
 21
208.0660963978
 31
0.0
  0
LINE
  5
61
330
1F
100
AcDbEntity
  8
0
  6
Continuous
 62
     7
370
    15
100
AcDbLine
 10
289.512080851
 20
341.2581252481
 30
0.0
 11
312.0120742945
 21
341.2581252481
 31
0.0
  0
LINE
  5
62
330
1F
100
AcDbEntity
  8
0
  6
Continuous
 62
     7
370
    15
100
AcDbLine
 10
312.0120742945
 20
215.8740701701
 30
0.0
 11
289.512080851
 21
215.8740701701
 31
0.0
  0
LINE
  5
63
330
1F
100
AcDbEntity
  8
0
  6
Continuous
 62
     7
370
    15
100
AcDbLine
 10
297.4486777215
 20
328.8660811807
 30
0.0
 11
309.6170553593
 21
298.5660898115
 31
0.0
  0
LINE
  5
64
330
1F
100
AcDbEntity
  8
0
  6
Continuous
 62
     7
370
    15
100
AcDbLine
 10
293.4059181838
 20
333.5661011364
 30
0.0
 11
295.5927529959
 21
328.1207549001
 31
0.0
  0
LWPOLYLINE
  5
65
330
1F
100
AcDbEntity
  8
0
  6
Continuous
 62
     7
370
    15
100
AcDbPolyline
 90
        6
 70
   128
 43
0.0
 10
370.3982213168
 20
335.9498249914
 10
370.4864063887
 20
340.4717462684
 10
370.5929198889
 20
345.6684815313
 10
370.6700781016
 20
349.0850197698
 10
370.7450309424
 20
351.925792041
 10
370.7818070082
 20
352.9648798134
  0
ARC
  5
66
330
1F
100
AcDbEntity
  8
0
  6
Continuous
 62
     7
370
    15
100
AcDbCircle
 10
356.9874181757
 20
206.8706643475
 30
0.0
 40
10.92432195053279
100
AcDbArc
 50
197.1572189068
 51
295.7621278087
  0
LWPOLYLINE
  5
67
330
1F
100
AcDbEntity
  8
0
  6
Continuous
 62
     7
370
    15
100
AcDbPolyline
 90
       17
 70
   128
 43
0.0
 10
367.4976804881
 20
210.4064168956
 10
367.5023296504
 20
210.4927803005
 10
367.4491623072
 20
211.0706883098
 10
367.3890808253
 20
211.8159885134
 10
367.3118928103
 20
212.9097188439
 10
367.2327974467
 20
214.1928690101
 10
367.1545663504
 20
215.635971966
 10
367.0726397662
 20
217.3555287148
 10
366.9755736022
 20
219.7151052381
 10
366.8857494025
 20
222.2752960946
 10
366.7913952498
 20
225.4688757087
 10
366.6969814925
 20
229.3838577892
 10
366.6070976882
 20
234.0899723198
 10
366.5223398833
 20
239.6406399633
 10
366.4402642874
 20
246.0667657282
 10
366.3773217825
 20
251.4643984462
 10
366.3254955439
 20
255.9535967733
  0
LINE
  5
68
330
1F
100
AcDbEntity
  8
0
  6
Continuous
 62
     7
370
    15
100
AcDbLine
 10
369.7013238101
 20
334.8160999443
 30
0.0
 11
366.4540329604
 21
347.0836150076
 31
0.0
  0
LWPOLYLINE
  5
69
330
1F
100
AcDbEntity
  8
0
  6
Continuous
 62
     7
370
    15
100
AcDbPolyline
 90
        5
 70
   128
 43
0.0
 10
365.2689138083
 20
303.1383770134
 10
365.0566616683
 20
310.3012310888
 10
364.8331442503
 20
316.8622421648
 10
364.6022358565
 20
322.7314519312
 10
364.5762780337
 20
323.294507208
  0
LWPOLYLINE
  5
6A
330
1F
100
AcDbEntity
  8
0
  6
Continuous
 62
     7
370
    15
100
AcDbPolyline
 90
        4
 70
   128
 43
0.0
 10
349.3451902298
 20
320.7810985471
 10
349.191007915
 20
316.8622421648
 10
348.9674904971
 20
310.3012310888
 10
348.7552532582
 20
303.1383770134
  0
LINE
  5
6B
330
1F
100
AcDbEntity
  8
0
  6
Continuous
 62
     7
370
    15
100
AcDbLine
 10
367.4453774123
 20
225.4429923918
 30
0.0
 11
395.0120785861
 21
225.4429923918
 31
0.0
  0
LINE
  5
6C
330
1F
100
AcDbEntity
  8
0
  6
Continuous
 62
     7
370
    15
100
AcDbLine
 10
395.0120785861
 20
331.6891955759
 30
0.0
 11
367.4375394015
 21
331.6891955759
 31
0.0
  0
LINE
  5
6D
330
1F
100
AcDbEntity
  8
0
  6
Continuous
 62
     7
370
    15
100
AcDbLine
 10
369.363812509
 20
221.0411297704
 30
0.0
 11
370.5290237097
 21
225.4429923918
 31
0.0
  0
LINE
  5
6E
330
1F
100
AcDbEntity
  8
0
  6
Continuous
 62
     7
370
    15
100
AcDbLine
 10
314.5120719103
 20
408.5661041166
 30
0.0
 11
314.5120719103
 21
406.5661000635
 31
0.0
  0
LINE
  5
6F
330
1F
100
AcDbEntity
  8
0
  6
Continuous
 62
     7
370
    15
100
AcDbLine
 10
399.512080255
 20
406.5661000635
 30
0.0
 11
399.512080255
 21
408.5661041166
 31
0.0
  0
LINE
  5
70
330
1F
100
AcDbEntity
  8
0
  6
Continuous
 62
     7
370
    15
100
AcDbLine
 10
397.0120826392
 20
321.0660981561
 30
0.0
 11
395.0120785861
 21
321.0660981561
 31
0.0
  0
LINE
  5
71
330
1F
100
AcDbEntity
  8
0
  6
Continuous
 62
     7
370
    15
100
AcDbLine
 10
395.0120785861
 20
236.0660972621
 30
0.0
 11
397.0120826392
 21
236.0660972621
 31
0.0
  0
LINE
  5
72
330
1F
100
AcDbEntity
  8
0
  6
Continuous
 62
     7
370
    15
100
AcDbLine
 10
320.0120756058
 20
208.0660963978
 30
0.0
 11
321.5120711951
 21
208.0660963978
 31
0.0
  0
LINE
  5
73
330
1F
100
AcDbEntity
  8
0
  6
Continuous
 62
     7
370
    15
100
AcDbLine
 10
330.9721180825
 20
349.0660952951
 30
0.0
 11
320.0120756058
 21
349.0660952951
 31
0.0
  0
LWPOLYLINE
  5
74
330
1F
100
AcDbEntity
  8
0
  6
Continuous
 62
     7
370
    15
100
AcDbPolyline
 90
        3
 70
   128
 43
0.0
 10
373.0506280093
 20
364.7975938942
 10
373.9660063414
 20
371.9970601227
 10
374.168691936
 20
373.6144172575
  0
LINE
  5
75
330
1F
100
AcDbEntity
  8
0
  6
Continuous
 62
     7
370
    15
100
AcDbLine
 10
374.1381445555
 20
373.5660927917
 30
0.0
 11
417.0120635657
 21
373.5660927917
 31
0.0
  0
LINE
  5
76
330
1F
100
AcDbEntity
  8
0
  6
Continuous
 62
     7
370
    15
100
AcDbLine
 10
371.3856020598
 20
332.2310465004
 30
0.0
 11
370.7013109355
 21
334.8160999443
 31
0.0
  0
LWPOLYLINE
  5
77
330
1F
100
AcDbEntity
  8
0
  6
Continuous
 62
     7
370
    15
100
AcDbPolyline
 90
       11
 70
   128
 43
0.0
 10
366.5431717066
 20
346.7535840894
 10
366.6314759879
 20
346.8185382511
 10
368.4101083903
 20
348.6479091074
 10
369.0999725489
 20
349.5363312389
 10
369.6983137755
 20
350.4786508705
 10
370.227960649
 20
351.5187221195
 10
370.9250369696
 20
353.3388989593
 10
371.5416768221
 20
355.5973189499
 10
372.0511475234
 20
358.0912666942
 10
372.5475946097
 20
361.1378091003
 10
373.0509558348
 20
364.7999482776
  0
LINE
  5
78
330
1F
100
AcDbEntity
  8
0
  6
Continuous
 62
     7
370
    15
100
AcDbLine
 10
361.7198148398
 20
197.0660964574
 30
0.0
 11
379.0120759635
 21
197.0660964574
 31
0.0
  0
LINE
  5
79
330
1F
100
AcDbEntity
  8
0
  6
Continuous
 62
     7
370
    15
100
AcDbLine
 10
379.0120759635
 20
221.066096666
 30
0.0
 11
369.3625906138
 21
221.066096666
 31
0.0
  0
LINE
  5
7A
330
1F
100
AcDbEntity
  8
0
  6
Continuous
 62
     7
370
    15
100
AcDbLine
 10
208.0620804457
 20
151.5660959843
 30
0.0
 11
197.9620808391
 21
151.5660959843
 31
0.0
  0
ARC
  5
7B
330
1F
100
AcDbEntity
  8
0
  6
Continuous
 62
     7
370
    15
100
AcDbCircle
 10
203.0213927146
 20
191.5872842218
 30
0.0
 40
5.040732260535692
100
AcDbArc
 50
359.7591676602
 51
181.3872119574
  0
ARC
  5
7C
330
1F
100
AcDbEntity
  8
0
  6
Continuous
 62
     7
370
    15
100
AcDbCircle
 10
203.0120781092
 20
191.5660960104
 30
0.0
 40
6.250000000000028
100
AcDbArc
 50
325.3387929305
 51
180.0
  0
ARC
  5
7D
330
1F
100
AcDbEntity
  8
0
  6
Continuous
 62
     7
370
    15
100
AcDbCircle
 10
203.0120781092
 20
191.5660960104
 30
0.0
 40
6.250000000000028
100
AcDbArc
 50
180.0
 51
215.2543415419
  0
ARC
  5
7E
330
1F
100
AcDbEntity
  8
0
  6
Continuous
 62
     7
370
    15
100
AcDbCircle
 10
203.0120781092
 20
191.5660960104
 30
0.0
 40
9.999999999999998
100
AcDbArc
 50
0.0
 51
239.4151499645
  0
ARC
  5
7F
330
1F
100
AcDbEntity
  8
0
  6
Continuous
 62
     7
370
    15
100
AcDbCircle
 10
203.0120781092
 20
191.5660960104
 30
0.0
 40
9.999999999999972
100
AcDbArc
 50
300.3451037055
 51
0.0
  0
ARC
  5
80
330
1F
100
AcDbEntity
  8
0
  6
Continuous
 62
     7
370
    15
100
AcDbCircle
 10
382.1774535002
 20
202.6910966809
 30
0.0
 40
3.821698888578411
100
AcDbArc
 50
326.2179269671
 51
33.7820730329
  0
LWPOLYLINE
  5
81
330
1F
100
AcDbEntity
  8
0
  6
Continuous
 62
     7
370
    15
100
AcDbPolyline
 90
        3
 70
   128
 43
0.0
 10
385.3538909583
 20
204.8160972621
 10
385.6326916842
 20
205.890135708
 10
385.9505334525
 20
207.8160958912
  0
LINE
  5
82
330
1F
100
AcDbEntity
  8
0
  6
Continuous
 62
     7
370
    15
100
AcDbLine
 10
386.0120752482
 20
207.8160958912
 30
0.0
 11
385.9505334525
 21
207.8160958912
 31
0.0
  0
LINE
  5
83
330
1F
100
AcDbEntity
  8
0
  6
Continuous
 62
     7
370
    15
100
AcDbLine
 10
386.0120752482
 20
207.8160958912
 30
0.0
 11
386.0120752482
 21
201.7060945358
 31
0.0
  0
LINE
  5
84
330
1F
100
AcDbEntity
  8
0
  6
Continuous
 62
     7
370
    15
100
AcDbLine
 10
379.0120759635
 20
213.3160958614
 30
0.0
 11
385.3538909583
 21
213.3160958614
 31
0.0
  0
LINE
  5
85
330
1F
100
AcDbEntity
  8
0
  6
Continuous
 62
     7
370
    15
100
AcDbLine
 10
379.0120759635
 20
217.5660970237
 30
0.0
 11
385.3538909583
 21
217.5660970237
 31
0.0
  0
ARC
  5
86
330
1F
100
AcDbEntity
  8
0
  6
Continuous
 62
     7
370
    15
100
AcDbCircle
 10
382.1257442138
 20
215.4410964425
 30
0.0
 40
3.864784453677555
100
AcDbArc
 50
326.6441849173
 51
33.3558150827
  0
LINE
  5
87
330
1F
100
AcDbEntity
  8
0
  6
Continuous
 62
     7
370
    15
100
AcDbLine
 10
383.0120840697
 20
210.3160972323
 30
0.0
 11
383.0120840697
 21
207.8160958912
 31
0.0
  0
LINE
  5
88
330
1F
100
AcDbEntity
  8
0
  6
Continuous
 62
     7
370
    15
100
AcDbLine
 10
383.0120840697
 20
207.8160958912
 30
0.0
 11
385.9505334525
 21
207.8160958912
 31
0.0
  0
LINE
  5
89
330
1F
100
AcDbEntity
  8
0
  6
Continuous
 62
     7
370
    15
100
AcDbLine
 10
379.0120759635
 20
204.8160972621
 30
0.0
 11
385.3538909583
 21
204.8160972621
 31
0.0
  0
LINE
  5
8A
330
1F
100
AcDbEntity
  8
0
  6
Continuous
 62
     7
370
    15
100
AcDbLine
 10
385.9505334525
 20
210.3160972323
 30
0.0
 11
385.3538909583
 21
213.3160958614
 31
0.0
  0
LINE
  5
8B
330
1F
100
AcDbEntity
  8
0
  6
Continuous
 62
     7
370
    15
100
AcDbLine
 10
383.0120840697
 20
210.3160972323
 30
0.0
 11
385.9505334525
 21
210.3160972323
 31
0.0
  0
LINE
  5
8C
330
1F
100
AcDbEntity
  8
0
  6
Continuous
 62
     7
370
    15
100
AcDbLine
 10
386.0120752482
 20
216.4260948624
 30
0.0
 11
386.0120752482
 21
210.3160972323
 31
0.0
  0
LINE
  5
8D
330
1F
100
AcDbEntity
  8
0
  6
Continuous
 62
     7
370
    15
100
AcDbLine
 10
385.9505334525
 20
210.3160972323
 30
0.0
 11
386.0120752482
 21
210.3160972323
 31
0.0
  0
LINE
  5
8E
330
1F
100
AcDbEntity
  8
0
  6
Continuous
 62
     7
370
    15
100
AcDbLine
 10
379.0120759635
 20
200.5660960998
 30
0.0
 11
385.3538909583
 21
200.5660960998
 31
0.0
  0
LINE
  5
8F
330
1F
100
AcDbEntity
  8
0
  6
Continuous
 62
     7
370
    15
100
AcDbLine
 10
420.5120781092
 20
394.566090646
 30
0.0
 11
420.5120781092
 21
396.6769146349
 31
0.0
  0
LINE
  5
90
330
1F
100
AcDbEntity
  8
0
  6
Continuous
 62
     7
370
    15
100
AcDbLine
 10
420.5120781092
 20
394.0236883785
 30
0.0
 11
420.5120781092
 21
394.566090646
 31
0.0
  0
LINE
  5
91
330
1F
100
AcDbEntity
  8
0
  6
Continuous
 62
     7
370
    15
100
AcDbLine
 10
420.5120781092
 20
383.1085132982
 30
0.0
 11
420.5120781092
 21
394.0236883785
 31
0.0
  0
LINE
  5
92
330
1F
100
AcDbEntity
  8
0
  6
Continuous
 62
     7
370
    15
100
AcDbLine
 10
420.5120781092
 20
382.5660961296
 30
0.0
 11
420.5120781092
 21
383.1085132982
 31
0.0
  0
LINE
  5
93
330
1F
100
AcDbEntity
  8
0
  6
Continuous
 62
     7
370
    15
100
AcDbLine
 10
420.5120781092
 20
380.4552870418
 30
0.0
 11
420.5120781092
 21
382.5660961296
 31
0.0
  0
LINE
  5
94
330
1F
100
AcDbEntity
  8
0
  6
Continuous
 62
     7
370
    15
100
AcDbLine
 10
420.5120781092
 20
394.566090646
 30
0.0
 11
429.5120814471
 21
394.566090646
 31
0.0
  0
LINE
  5
95
330
1F
100
AcDbEntity
  8
0
  6
Continuous
 62
     7
370
    15
100
AcDbLine
 10
429.5120814471
 20
394.566090646
 30
0.0
 11
429.5120814471
 21
394.0236883785
 31
0.0
  0
LINE
  5
96
330
1F
100
AcDbEntity
  8
0
  6
Continuous
 62
     7
370
    15
100
AcDbLine
 10
429.5120814471
 20
394.0236883785
 30
0.0
 11
420.5120781092
 21
394.0236883785
 31
0.0
  0
LINE
  5
97
330
1F
100
AcDbEntity
  8
0
  6
Continuous
 62
     7
370
    15
100
AcDbLine
 10
420.5120781092
 20
383.1085132982
 30
0.0
 11
429.5120814471
 21
383.1085132982
 31
0.0
  0
LINE
  5
98
330
1F
100
AcDbEntity
  8
0
  6
Continuous
 62
     7
370
    15
100
AcDbLine
 10
429.5120814471
 20
394.0236883785
 30
0.0
 11
429.5120814471
 21
383.1085132982
 31
0.0
  0
LINE
  5
99
330
1F
100
AcDbEntity
  8
0
  6
Continuous
 62
     7
370
    15
100
AcDbLine
 10
429.5120814471
 20
382.5660961296
 30
0.0
 11
420.5120781092
 21
382.5660961296
 31
0.0
  0
LINE
  5
9A
330
1F
100
AcDbEntity
  8
0
  6
Continuous
 62
     7
370
    15
100
AcDbLine
 10
429.5120814471
 20
383.1085132982
 30
0.0
 11
429.5120814471
 21
382.5660961296
 31
0.0
  0
LINE
  5
9B
330
1F
100
AcDbEntity
  8
0
  6
Continuous
 62
     7
370
    15
100
AcDbLine
 10
357.0120760827
 20
412.5660824205
 30
0.0
 11
314.9542042641
 21
412.5660824205
 31
0.0
  0
LINE
  5
9C
330
1F
100
AcDbEntity
  8
0
  6
Continuous
 62
     7
370
    15
100
AcDbLine
 10
357.0120760827
 20
428.5660850431
 30
0.0
 11
314.9542042641
 21
428.5660850431
 31
0.0
  0
LINE
  5
9D
330
1F
100
AcDbEntity
  8
0
  6
Continuous
 62
     7
370
    15
100
AcDbLine
 10
399.0699628024
 20
428.5660850431
 30
0.0
 11
357.0120760827
 21
428.5660850431
 31
0.0
  0
LINE
  5
9E
330
1F
100
AcDbEntity
  8
0
  6
Continuous
 62
     7
370
    15
100
AcDbLine
 10
399.0699628024
 20
412.5660824205
 30
0.0
 11
357.0120760827
 21
412.5660824205
 31
0.0
  0
LINE
  5
9F
330
1F
100
AcDbEntity
  8
0
  6
Continuous
 62
     7
370
    15
100
AcDbLine
 10
314.9542042641
 20
428.5660850431
 30
0.0
 11
303.0991533427
 21
428.5660850431
 31
0.0
  0
LINE
  5
A0
330
1F
100
AcDbEntity
  8
0
  6
Continuous
 62
     7
370
    15
100
AcDbLine
 10
314.9542042641
 20
412.5660824205
 30
0.0
 11
303.0991533427
 21
412.5660824205
 31
0.0
  0
LINE
  5
A1
330
1F
100
AcDbEntity
  8
0
  6
Continuous
 62
     7
370
    15
100
AcDbLine
 10
410.9249988226
 20
428.5660850431
 30
0.0
 11
399.0699628024
 21
428.5660850431
 31
0.0
  0
LINE
  5
A2
330
1F
100
AcDbEntity
  8
0
  6
Continuous
 62
     7
370
    15
100
AcDbLine
 10
410.9249988226
 20
412.5660824205
 30
0.0
 11
399.0699628024
 21
412.5660824205
 31
0.0
  0
LINE
  5
A3
330
1F
100
AcDbEntity
  8
0
  6
Continuous
 62
     7
370
    15
100
AcDbLine
 10
297.0120736985
 20
412.5660824205
 30
0.0
 11
297.0120736985
 21
428.5660850431
 31
0.0
  0
LINE
  5
A4
330
1F
100
AcDbEntity
  8
0
  6
Continuous
 62
     7
370
    15
100
AcDbLine
 10
303.0991533427
 20
428.5660850431
 30
0.0
 11
297.0120736985
 21
428.5660850431
 31
0.0
  0
LINE
  5
A5
330
1F
100
AcDbEntity
  8
0
  6
Continuous
 62
     7
370
    15
100
AcDbLine
 10
303.0991533427
 20
412.5660824205
 30
0.0
 11
297.0120736985
 21
412.5660824205
 31
0.0
  0
LINE
  5
A6
330
1F
100
AcDbEntity
  8
0
  6
Continuous
 62
     7
370
    15
100
AcDbLine
 10
417.0120635657
 20
412.5660824205
 30
0.0
 11
417.0120635657
 21
428.5660850431
 31
0.0
  0
LINE
  5
A7
330
1F
100
AcDbEntity
  8
0
  6
Continuous
 62
     7
370
    15
100
AcDbLine
 10
417.0120635657
 20
428.5660850431
 30
0.0
 11
410.9249988226
 21
428.5660850431
 31
0.0
  0
LINE
  5
A8
330
1F
100
AcDbEntity
  8
0
  6
Continuous
 62
     7
370
    15
100
AcDbLine
 10
417.0120635657
 20
412.5660824205
 30
0.0
 11
410.9249988226
 21
412.5660824205
 31
0.0
  0
LINE
  5
A9
330
1F
100
AcDbEntity
  8
0
  6
Continuous
 62
     7
370
    15
100
AcDbLine
 10
389.5120897917
 20
435.5660843279
 30
0.0
 11
324.5120772748
 21
435.5660843279
 31
0.0
  0
LINE
  5
AA
330
1F
100
AcDbEntity
  8
0
  6
Continuous
 62
     7
370
    15
100
AcDbLine
 10
401.0120907454
 20
236.5082147147
 30
0.0
 11
401.0120907454
 21
278.5660939838
 31
0.0
  0
LINE
  5
AB
330
1F
100
AcDbEntity
  8
0
  6
Continuous
 62
     7
370
    15
100
AcDbLine
 10
417.0120635657
 20
236.5082147147
 30
0.0
 11
417.0120635657
 21
278.5660939838
 31
0.0
  0
LINE
  5
AC
330
1F
100
AcDbEntity
  8
0
  6
Continuous
 62
     7
370
    15
100
AcDbLine
 10
401.0120907454
 20
278.5660939838
 30
0.0
 11
401.0120907454
 21
320.6239807035
 31
0.0
  0
LINE
  5
AD
330
1F
100
AcDbEntity
  8
0
  6
Continuous
 62
     7
370
    15
100
AcDbLine
 10
417.0120635657
 20
278.5660939838
 30
0.0
 11
417.0120635657
 21
320.6239807035
 31
0.0
  0
LINE
  5
AE
330
1F
100
AcDbEntity
  8
0
  6
Continuous
 62
     7
370
    15
100
AcDbLine
 10
417.0120635657
 20
320.6239807035
 30
0.0
 11
417.0120635657
 21
332.4790167238
 31
0.0
  0
LINE
  5
AF
330
1F
100
AcDbEntity
  8
0
  6
Continuous
 62
     7
370
    15
100
AcDbLine
 10
401.0120907454
 20
320.6239807035
 30
0.0
 11
401.0120907454
 21
332.4790167238
 31
0.0
  0
LINE
  5
B0
330
1F
100
AcDbEntity
  8
0
  6
Continuous
 62
     7
370
    15
100
AcDbLine
 10
417.0120635657
 20
224.6531712438
 30
0.0
 11
417.0120635657
 21
236.5082147147
 31
0.0
  0
LINE
  5
B1
330
1F
100
AcDbEntity
  8
0
  6
Continuous
 62
     7
370
    15
100
AcDbLine
 10
401.0120907454
 20
224.6531712438
 30
0.0
 11
401.0120907454
 21
236.5082147147
 31
0.0
  0
LINE
  5
B2
330
1F
100
AcDbEntity
  8
0
  6
Continuous
 62
     7
370
    15
100
AcDbLine
 10
401.0120907454
 20
338.566096368
 30
0.0
 11
417.0120635657
 21
338.566096368
 31
0.0
  0
LINE
  5
B3
330
1F
100
AcDbEntity
  8
0
  6
Continuous
 62
     7
370
    15
100
AcDbLine
 10
417.0120635657
 20
332.4790167238
 30
0.0
 11
417.0120635657
 21
338.566096368
 31
0.0
  0
LINE
  5
B4
330
1F
100
AcDbEntity
  8
0
  6
Continuous
 62
     7
370
    15
100
AcDbLine
 10
401.0120907454
 20
332.4790167238
 30
0.0
 11
401.0120907454
 21
338.566096368
 31
0.0
  0
LINE
  5
B5
330
1F
100
AcDbEntity
  8
0
  6
Continuous
 62
     7
370
    15
100
AcDbLine
 10
401.0120907454
 20
218.5660990502
 30
0.0
 11
417.0120635657
 21
218.5660990502
 31
0.0
  0
LINE
  5
B6
330
1F
100
AcDbEntity
  8
0
  6
Continuous
 62
     7
370
    15
100
AcDbLine
 10
417.0120635657
 20
218.5660990502
 30
0.0
 11
417.0120635657
 21
224.6531712438
 31
0.0
  0
LINE
  5
B7
330
1F
100
AcDbEntity
  8
0
  6
Continuous
 62
     7
370
    15
100
AcDbLine
 10
401.0120907454
 20
218.5660990502
 30
0.0
 11
401.0120907454
 21
224.6531712438
 31
0.0
  0
LINE
  5
B8
330
1F
100
AcDbEntity
  8
0
  6
Continuous
 62
     7
370
    15
100
AcDbLine
 10
424.0120926528
 20
246.0660951759
 30
0.0
 11
424.0120926528
 21
311.0660927917
 31
0.0
  0
LINE
  5
B9
330
1F
100
AcDbEntity
  8
0
  6
Continuous
 62
     7
370
    15
100
AcDbLine
 10
312.0120742945
 20
408.5661041166
 30
0.0
 11
402.0120778708
 21
408.5661041166
 31
0.0
  0
LINE
  5
BA
330
1F
100
AcDbEntity
  8
0
  6
Continuous
 62
     7
370
    15
100
AcDbLine
 10
312.0120742945
 20
410.5661081697
 30
0.0
 11
402.0120778708
 21
410.5661081697
 31
0.0
  0
LINE
  5
BB
330
1F
100
AcDbEntity
  8
0
  6
Continuous
 62
     7
370
    15
100
AcDbLine
 10
397.0120826392
 20
323.566095772
 30
0.0
 11
397.0120826392
 21
233.5660996463
 31
0.0
  0
LINE
  5
BC
330
1F
100
AcDbEntity
  8
0
  6
Continuous
 62
     7
370
    15
100
AcDbLine
 10
399.0120866923
 20
323.566095772
 30
0.0
 11
399.0120866923
 21
233.5660996463
 31
0.0
  0
ARC
  5
BD
330
1F
100
AcDbEntity
  8
0
  6
Continuous
 62
     7
370
    15
100
AcDbCircle
 10
129.8854554453
 20
220.6854447442
 30
0.0
 40
7.120358232470675
100
AcDbArc
 50
206.4797163867
 51
266.5644178466
  0
LINE
  5
BE
330
1F
100
AcDbEntity
  8
0
  6
Continuous
 62
     7
370
    15
100
AcDbLine
 10
129.4587587593
 20
213.5778831865
 30
0.0
 11
132.0120783178
 21
213.5778831865
 31
0.0
  0
LINE
  5
BF
330
1F
100
AcDbEntity
  8
0
  6
Continuous
 62
     7
370
    15
100
AcDbLine
 10
133.5120776324
 20
219.5660936262
 30
0.0
 11
133.5120776324
 21
208.0660963978
 31
0.0
  0
LINE
  5
C0
330
1F
100
AcDbEntity
  8
0
  6
Continuous
 62
     7
370
    15
100
AcDbLine
 10
123.5120778559
 20
217.5106125499
 30
0.0
 11
123.5120778559
 21
183.5660951759
 31
0.0
  0
LINE
  5
C1
330
1F
100
AcDbEntity
  8
0
  6
Continuous
 62
     7
370
    15
100
AcDbLine
 10
132.0120783178
 20
213.5778831865
 30
0.0
 11
132.0120783178
 21
187.8962236072
 31
0.0
  0
LINE
  5
C2
330
1F
100
AcDbEntity
  8
0
  6
Continuous
 62
     7
370
    15
100
AcDbLine
 10
123.5120778559
 20
183.5660951759
 30
0.0
 11
132.0120783178
 21
183.5660951759
 31
0.0
  0
LINE
  5
C3
330
1F
100
AcDbEntity
  8
0
  6
Continuous
 62
     7
370
    15
100
AcDbLine
 10
174.0120777516
 20
225.329311433
 30
0.0
 11
157.7203401951
 21
225.329311433
 31
0.0
  0
LWPOLYLINE
  5
C4
330
1F
100
AcDbEntity
  8
0
  6
Continuous
 62
     7
370
    15
100
AcDbPolyline
 90
        6
 70
   128
 43
0.0
 10
177.512077394
 20
227.6060151483
 10
177.3151659994
 20
226.8377783324
 10
176.7461130051
 20
226.1683064129
 10
175.8694776921
 20
225.6673964288
 10
174.783361855
 20
225.383618715
 10
174.0120777516
 20
225.329311433
  0
LINE
  5
C5
330
1F
100
AcDbEntity
  8
0
  6
Continuous
 62
     7
370
    15
100
AcDbLine
 10
177.512077394
 20
227.6468741323
 30
0.0
 11
177.512077394
 21
227.6060151483
 31
0.0
  0
LWPOLYLINE
  5
C6
330
1F
100
AcDbEntity
  8
0
  6
Continuous
 62
     7
370
    15
100
AcDbPolyline
 90
        3
 70
   128
 43
0.0
 10
177.374345961
 20
228.2530459191
 10
177.4263659148
 20
228.1664776232
 10
177.512077394
 20
227.6468741323
  0
LWPOLYLINE
  5
C7
330
1F
100
AcDbEntity
  8
0
  6
Continuous
 62
     7
370
    15
100
AcDbPolyline
 90
        3
 70
   128
 43
0.0
 10
229.7257015137
 20
254.5660975005
 10
229.597789946
 20
254.8571693327
 10
229.5120784668
 20
255.5817829992
  0
ARC
  5
C8
330
1F
100
AcDbEntity
  8
0
  6
Continuous
 62
     7
370
    15
100
AcDbCircle
 10
232.6854749857
 20
255.6405913092
 30
0.0
 40
3.173396793250957
100
AcDbArc
 50
121.7298834938
 51
180.0238259637
  0
LINE
  5
C9
330
1F
100
AcDbEntity
  8
0
  6
Continuous
 62
     7
370
    15
100
AcDbLine
 10
229.5120784668
 20
255.6392716791
 30
0.0
 11
229.5120784668
 21
255.5817829992
 31
0.0
  0
LWPOLYLINE
  5
CA
330
1F
100
AcDbEntity
  8
0
  6
Continuous
 62
     7
370
    15
100
AcDbPolyline
 90
        6
 70
   128
 43
0.0
 10
233.0120781092
 20
225.329311433
 10
231.8535873322
 20
225.4539596464
 10
230.8256977825
 20
225.8163111831
 10
230.0444224505
 20
226.3817357446
 10
229.597789946
 20
227.093348148
 10
229.5120784668
 20
227.6060151483
  0
LINE
  5
CB
330
1F
100
AcDbEntity
  8
0
  6
Continuous
 62
     7
370
    15
100
AcDbLine
 10
233.0120781092
 20
225.329311433
 30
0.0
 11
246.303809586
 21
225.329311433
 31
0.0
  0
LINE
  5
CC
330
1F
100
AcDbEntity
  8
0
  6
Continuous
 62
     7
370
    15
100
AcDbLine
 10
229.5120784668
 20
227.6468741323
 30
0.0
 11
229.6688237814
 21
228.2705920364
 31
0.0
  0
LINE
  5
CD
330
1F
100
AcDbEntity
  8
0
  6
Continuous
 62
     7
370
    15
100
AcDbLine
 10
229.5120784668
 20
227.6468741323
 30
0.0
 11
229.5120784668
 21
227.6060151483
 31
0.0
  0
LINE
  5
CE
330
1F
100
AcDbEntity
  8
0
  6
Continuous
 62
     7
370
    15
100
AcDbLine
 10
177.512077394
 20
255.5817829992
 30
0.0
 11
177.3282864718
 21
254.5660975005
 31
0.0
  0
LINE
  5
CF
330
1F
100
AcDbEntity
  8
0
  6
Continuous
 62
     7
370
    15
100
AcDbLine
 10
177.512077394
 20
255.6392716791
 30
0.0
 11
177.512077394
 21
255.5817829992
 31
0.0
  0
ARC
  5
D0
330
1F
100
AcDbEntity
  8
0
  6
Continuous
 62
     7
370
    15
100
AcDbCircle
 10
174.5097813688
 20
255.7313241948
 30
0.0
 40
3.003706891196094
100
AcDbArc
 50
358.2438211285
 51
60.2708995303
  0
LINE
  5
D1
330
1F
100
AcDbEntity
  8
0
  6
Continuous
 62
     7
370
    15
100
AcDbLine
 10
174.0120777516
 20
226.5709879424
 30
0.0
 11
158.8789427309
 21
226.5709879424
 31
0.0
  0
ARC
  5
D2
330
1F
100
AcDbEntity
  8
0
  6
Continuous
 62
     7
370
    15
100
AcDbCircle
 10
174.4041948458
 20
229.9874706123
 30
0.0
 40
3.438911113922205
100
AcDbArc
 50
263.4526878372
 51
329.3903452989
  0
ARC
  5
D3
330
1F
100
AcDbEntity
  8
0
  6
Continuous
 62
     7
370
    15
100
AcDbCircle
 10
232.0714420227
 20
256.1090893002
 30
0.0
 40
2.5592413539669
100
AcDbArc
 50
179.1751107308
 51
217.0785852086
  0
LINE
  5
D4
330
1F
100
AcDbEntity
  8
0
  6
Continuous
 62
     7
370
    15
100
AcDbLine
 10
233.0120781092
 20
226.5709879424
 30
0.0
 11
245.1452145009
 21
226.5709879424
 31
0.0
  0
ARC
  5
D5
330
1F
100
AcDbEntity
  8
0
  6
Continuous
 62
     7
370
    15
100
AcDbCircle
 10
232.5705352262
 20
229.8368244878
 30
0.0
 40
3.295549796122456
100
AcDbArc
 50
208.1923480132
 51
277.6997322249
  0
LWPOLYLINE
  5
D6
330
1F
100
AcDbEntity
  8
0
  6
Continuous
 62
     7
370
    15
100
AcDbPolyline
 90
        3
 70
   128
 43
0.0
 10
177.0292797713
 20
254.5660975005
 10
177.4263510136
 20
255.4698901798
 10
177.5116899638
 20
256.1459335114
  0
LINE
  5
D7
330
1F
100
AcDbEntity
  8
0
  6
Continuous
 62
     7
370
    15
100
AcDbLine
 10
312.0120742945
 20
318.7884407665
 30
0.0
 11
320.0120756058
 21
318.7884407665
 31
0.0
  0
LINE
  5
D8
330
1F
100
AcDbEntity
  8
0
  6
Continuous
 62
     7
370
    15
100
AcDbLine
 10
312.0120742945
 20
238.3437472011
 30
0.0
 11
320.0120756058
 21
238.3437472011
 31
0.0
  0
LINE
  5
D9
330
1F
100
AcDbEntity
  8
0
  6
Continuous
 62
     7
370
    15
100
AcDbLine
 10
312.0120742945
 20
238.3437472011
 30
0.0
 11
312.0120742945
 21
318.7884407665
 31
0.0
  0
LINE
  5
DA
330
1F
100
AcDbEntity
  8
0
  6
Continuous
 62
     7
370
    15
100
AcDbLine
 10
320.0120756058
 20
238.3437472011
 30
0.0
 11
320.0120756058
 21
318.7884407665
 31
0.0
  0
LINE
  5
DB
330
1F
100
AcDbEntity
  8
0
  6
Continuous
 62
     7
370
    15
100
AcDbLine
 10
273.5120782284
 20
208.5660974111
 30
0.0
 11
273.5120782284
 21
219.5660936262
 31
0.0
  0
LINE
  5
DC
330
1F
100
AcDbEntity
  8
0
  6
Continuous
 62
     7
370
    15
100
AcDbLine
 10
289.512080851
 20
296.7142480041
 30
0.0
 11
289.512080851
 21
346.172632518
 31
0.0
  0
LINE
  5
DD
330
1F
100
AcDbEntity
  8
0
  6
Continuous
 62
     7
370
    15
100
AcDbLine
 10
289.512080851
 20
210.9595517244
 30
0.0
 11
289.512080851
 21
260.4179474141
 31
0.0
  0
LINE
  5
DE
330
1F
100
AcDbEntity
  8
0
  6
Continuous
 62
     7
370
    15
100
AcDbLine
 10
312.0120742945
 20
342.3191624309
 30
0.0
 11
320.0120756058
 21
342.3191624309
 31
0.0
  0
LINE
  5
DF
330
1F
100
AcDbEntity
  8
0
  6
Continuous
 62
     7
370
    15
100
AcDbLine
 10
312.0120742945
 20
331.7125605966
 30
0.0
 11
320.0120756058
 21
331.7125605966
 31
0.0
  0
LINE
  5
E0
330
1F
100
AcDbEntity
  8
0
  6
Continuous
 62
     7
370
    15
100
AcDbLine
 10
312.0120742945
 20
331.7125605966
 30
0.0
 11
312.0120742945
 21
342.3191624309
 31
0.0
  0
LINE
  5
E1
330
1F
100
AcDbEntity
  8
0
  6
Continuous
 62
     7
370
    15
100
AcDbLine
 10
320.0120756058
 20
342.3191624309
 30
0.0
 11
320.0120756058
 21
331.7125605966
 31
0.0
  0
LINE
  5
E2
330
1F
100
AcDbEntity
  8
0
  6
Continuous
 62
     7
370
    15
100
AcDbLine
 10
312.0120742945
 20
318.7884407665
 30
0.0
 11
312.0120742945
 21
331.7125605966
 31
0.0
  0
LINE
  5
E3
330
1F
100
AcDbEntity
  8
0
  6
Continuous
 62
     7
370
    15
100
AcDbLine
 10
320.0120756058
 20
331.7125605966
 30
0.0
 11
320.0120756058
 21
318.7884407665
 31
0.0
  0
LINE
  5
E4
330
1F
100
AcDbEntity
  8
0
  6
Continuous
 62
     7
370
    15
100
AcDbLine
 10
312.0120742945
 20
225.4196348216
 30
0.0
 11
320.0120756058
 21
225.4196348216
 31
0.0
  0
LINE
  5
E5
330
1F
100
AcDbEntity
  8
0
  6
Continuous
 62
     7
370
    15
100
AcDbLine
 10
312.0120742945
 20
225.4196348216
 30
0.0
 11
312.0120742945
 21
238.3437472011
 31
0.0
  0
LINE
  5
E6
330
1F
100
AcDbEntity
  8
0
  6
Continuous
 62
     7
370
    15
100
AcDbLine
 10
320.0120756058
 20
238.3437472011
 30
0.0
 11
320.0120756058
 21
225.4196348216
 31
0.0
  0
LINE
  5
E7
330
1F
100
AcDbEntity
  8
0
  6
Continuous
 62
     7
370
    15
100
AcDbLine
 10
312.0120742945
 20
214.813029262
 30
0.0
 11
320.0120756058
 21
214.813029262
 31
0.0
  0
LINE
  5
E8
330
1F
100
AcDbEntity
  8
0
  6
Continuous
 62
     7
370
    15
100
AcDbLine
 10
312.0120742945
 20
214.813029262
 30
0.0
 11
312.0120742945
 21
225.4196348216
 31
0.0
  0
LINE
  5
E9
330
1F
100
AcDbEntity
  8
0
  6
Continuous
 62
     7
370
    15
100
AcDbLine
 10
320.0120756058
 20
225.4196348216
 30
0.0
 11
320.0120756058
 21
214.813029262
 31
0.0
  0
LINE
  5
EA
330
1F
100
AcDbEntity
  8
0
  6
Continuous
 62
     7
370
    15
100
AcDbLine
 10
312.0120742945
 20
342.3191624309
 30
0.0
 11
312.0120742945
 21
349.0660952951
 31
0.0
  0
LINE
  5
EB
330
1F
100
AcDbEntity
  8
0
  6
Continuous
 62
     7
370
    15
100
AcDbLine
 10
320.0120756058
 20
342.3191624309
 30
0.0
 11
320.0120756058
 21
349.0660952951
 31
0.0
  0
LINE
  5
EC
330
1F
100
AcDbEntity
  8
0
  6
Continuous
 62
     7
370
    15
100
AcDbLine
 10
312.0120742945
 20
208.0660963978
 30
0.0
 11
312.0120742945
 21
214.813029262
 31
0.0
  0
LINE
  5
ED
330
1F
100
AcDbEntity
  8
0
  6
Continuous
 62
     7
370
    15
100
AcDbLine
 10
320.0120756058
 20
208.0660963978
 30
0.0
 11
320.0120756058
 21
214.813029262
 31
0.0
  0
LINE
  5
EE
330
1F
100
AcDbEntity
  8
0
  6
Continuous
 62
     7
370
    15
100
AcDbLine
 10
312.0120742945
 20
333.5661011364
 30
0.0
 11
289.512080851
 21
333.5661011364
 31
0.0
  0
LINE
  5
EF
330
1F
100
AcDbEntity
  8
0
  6
Continuous
 62
     7
370
    15
100
AcDbLine
 10
312.0120742945
 20
223.5660942818
 30
0.0
 11
289.512080851
 21
223.5660942818
 31
0.0
  0
LWPOLYLINE
  5
F0
330
1F
100
AcDbEntity
  8
0
  6
Continuous
 62
     7
370
    15
100
AcDbPolyline
 90
        7
 70
   128
 43
0.0
 10
297.4486777215
 20
328.8660811807
 10
297.3894605069
 20
329.0480094578
 10
297.3894605069
 20
329.8431801225
 10
297.7570572524
 20
330.742226782
 10
298.4761872916
 20
331.7058550741
 10
299.5154091744
 20
332.6919692184
 10
300.6916621356
 20
333.5661011364
  0
LWPOLYLINE
  5
F1
330
1F
100
AcDbEntity
  8
0
  6
Continuous
 62
     7
370
    15
100
AcDbPolyline
 90
       11
 70
   128
 43
0.0
 10
298.3846941618
 20
326.5353309538
 10
297.5515553383
 20
326.6975449945
 10
296.5473958878
 20
327.0956742193
 10
295.8583363919
 20
327.668325844
 10
295.5078312783
 20
328.3959644462
 10
295.5078312783
 20
329.2538391973
 10
295.8583363919
 20
330.2127289201
 10
296.5473958878
 20
331.2399702694
 10
297.5515553383
 20
332.3005902197
 10
298.8366314797
 20
333.3584832575
 10
299.1230317978
 20
333.5661011364
  0
LINE
  5
F2
330
1F
100
AcDbEntity
  8
0
  6
Continuous
 62
     7
370
    15
100
AcDbLine
 10
300.3556856541
 20
348.5661017324
 30
0.0
 11
301.0120818047
 21
348.7920033361
 31
0.0
  0
LINE
  5
F3
330
1F
100
AcDbEntity
  8
0
  6
Continuous
 62
     7
370
    15
100
AcDbLine
 10
312.0120742945
 20
352.4205701973
 30
0.0
 11
301.0120818047
 21
348.7920033361
 31
0.0
  0
LINE
  5
F4
330
1F
100
AcDbEntity
  8
0
  6
Continuous
 62
     7
370
    15
100
AcDbLine
 10
312.0120742945
 20
352.4205701973
 30
0.0
 11
312.0120742945
 21
349.0660952951
 31
0.0
  0
LINE
  5
F5
330
1F
100
AcDbEntity
  8
0
  6
Continuous
 62
     7
370
    15
100
AcDbLine
 10
166.0120764403
 20
175.1660964067
 30
0.0
 11
166.0120764403
 21
174.5660955633
 31
0.0
  0
LINE
  5
F6
330
1F
100
AcDbEntity
  8
0
  6
Continuous
 62
     7
370
    15
100
AcDbLine
 10
166.0120764403
 20
175.1660964067
 30
0.0
 11
197.9631015687
 21
175.1660964067
 31
0.0
  0
LINE
  5
F7
330
1F
100
AcDbEntity
  8
0
  6
Continuous
 62
     7
370
    15
100
AcDbLine
 10
208.0610522656
 20
175.1660964067
 30
0.0
 11
249.0120807318
 21
175.1660964067
 31
0.0
  0
LINE
  5
F8
330
1F
100
AcDbEntity
  8
0
  6
Continuous
 62
     7
370
    15
100
AcDbLine
 10
249.0120807318
 20
175.1660964067
 30
0.0
 11
249.0120807318
 21
174.5660955633
 31
0.0
  0
LINE
  5
F9
330
1F
100
AcDbEntity
  8
0
  6
Continuous
 62
     7
370
    15
100
AcDbLine
 10
166.0120764403
 20
174.5660955633
 30
0.0
 11
197.9631239204
 21
174.5660955633
 31
0.0
  0
LINE
  5
FA
330
1F
100
AcDbEntity
  8
0
  6
Continuous
 62
     7
370
    15
100
AcDbLine
 10
208.0610299139
 20
174.5660955633
 30
0.0
 11
249.0120807318
 21
174.5660955633
 31
0.0
  0
LINE
  5
FB
330
1F
100
AcDbEntity
  8
0
  6
Continuous
 62
     7
370
    15
100
AcDbLine
 10
255.01207799
 20
175.1660964067
 30
0.0
 11
255.01207799
 21
174.5660955633
 31
0.0
  0
LINE
  5
FC
330
1F
100
AcDbEntity
  8
0
  6
Continuous
 62
     7
370
    15
100
AcDbLine
 10
267.0120725064
 20
175.1660964067
 30
0.0
 11
267.0120725064
 21
174.5660955633
 31
0.0
  0
LINE
  5
FD
330
1F
100
AcDbEntity
  8
0
  6
Continuous
 62
     7
370
    15
100
AcDbLine
 10
255.01207799
 20
174.5660955633
 30
0.0
 11
267.0120725064
 21
174.5660955633
 31
0.0
  0
LINE
  5
FE
330
1F
100
AcDbEntity
  8
0
  6
Continuous
 62
     7
370
    15
100
AcDbLine
 10
255.01207799
 20
175.1660964067
 30
0.0
 11
267.0120725064
 21
175.1660964067
 31
0.0
  0
LINE
  5
FF
330
1F
100
AcDbEntity
  8
0
  6
Continuous
 62
     7
370
    15
100
AcDbLine
 10
160.0120791821
 20
175.1660964067
 30
0.0
 11
160.0120791821
 21
174.5660955633
 31
0.0
  0
LINE
  5
100
330
1F
100
AcDbEntity
  8
0
  6
Continuous
 62
     7
370
    15
100
AcDbLine
 10
148.0120772151
 20
175.1660964067
 30
0.0
 11
148.0120772151
 21
174.5660955633
 31
0.0
  0
LINE
  5
101
330
1F
100
AcDbEntity
  8
0
  6
Continuous
 62
     7
370
    15
100
AcDbLine
 10
148.0120772151
 20
174.5660955633
 30
0.0
 11
160.0120791821
 21
174.5660955633
 31
0.0
  0
LINE
  5
102
330
1F
100
AcDbEntity
  8
0
  6
Continuous
 62
     7
370
    15
100
AcDbLine
 10
148.0120772151
 20
175.1660964067
 30
0.0
 11
160.0120791821
 21
175.1660964067
 31
0.0
  0
ELLIPSE
  5
103
330
1F
100
AcDbEntity
  8
0
  6
Continuous
 62
     7
370
    15
100
AcDbEllipse
 10
167.0120781092
 20
314.7925035576
 30
0.0
 11
9.999999999999972
 21
0.0
 31
0.0
210
0.0
220
0.0
230
1.0
 40
0.3773592453
 41
1.570796326794894
 42
3.141592653589846
  0
LINE
  5
104
330
1F
100
AcDbEntity
  8
0
  6
Continuous
 62
     7
370
    15
100
AcDbLine
 10
157.0120768277
 20
314.7925006773
 30
0.0
 11
157.0120768277
 21
315.69813365
 31
0.0
  0
ELLIPSE
  5
105
330
1F
100
AcDbEntity
  8
0
  6
Continuous
 62
     7
370
    15
100
AcDbEllipse
 10
167.0120781092
 20
315.6981337463
 30
0.0
 11
0.0
 21
18.86796226411326
 31
0.0
210
0.0
220
0.0
230
1.0
 40
0.52999894
 41
0.0
 42
1.570796326794897
  0
ELLIPSE
  5
106
330
1F
100
AcDbEntity
  8
0
  6
Continuous
 62
     7
370
    15
100
AcDbEllipse
 10
167.0120781092
 20
254.7925035576
 30
0.0
 11
9.999999999999972
 21
0.0
 31
0.0
210
0.0
220
0.0
230
1.0
 40
0.3773592453
 41
1.570796326794894
 42
3.141592653589793
  0
LINE
  5
107
330
1F
100
AcDbEntity
  8
0
  6
Continuous
 62
     7
370
    15
100
AcDbLine
 10
157.0120768277
 20
254.7925057437
 30
0.0
 11
157.0120768277
 21
255.6981312658
 31
0.0
  0
ELLIPSE
  5
108
330
1F
100
AcDbEntity
  8
0
  6
Continuous
 62
     7
370
    15
100
AcDbEllipse
 10
167.0120781092
 20
255.6981337463
 30
0.0
 11
0.0
 21
18.8679622641132
 31
0.0
210
0.0
220
0.0
230
1.0
 40
0.52999894
 41
0.0
 42
1.570796326794897
  0
ELLIPSE
  5
109
330
1F
100
AcDbEntity
  8
0
  6
Continuous
 62
     7
370
    15
100
AcDbEllipse
 10
167.0120781092
 20
344.7925035576
 30
0.0
 11
9.999999999999972
 21
0.0
 31
0.0
210
0.0
220
0.0
230
1.0
 40
0.3773592453
 41
1.570796326794894
 42
3.141592653589793
  0
LINE
  5
10A
330
1F
100
AcDbEntity
  8
0
  6
Continuous
 62
     7
370
    15
100
AcDbLine
 10
157.0120768277
 20
344.7925018694
 30
0.0
 11
157.0120768277
 21
345.6981348421
 31
0.0
  0
ELLIPSE
  5
10B
330
1F
100
AcDbEntity
  8
0
  6
Continuous
 62
     7
370
    15
100
AcDbEllipse
 10
167.0120781092
 20
345.6981337463
 30
0.0
 11
0.0
 21
18.86796226411315
 31
0.0
210
0.0
220
0.0
230
1.0
 40
0.52999894
 41
0.0
 42
1.570796326794897
  0
LINE
  5
10C
330
1F
100
AcDbEntity
  8
0
  6
Continuous
 62
     7
370
    15
100
AcDbLine
 10
237.0120713143
 20
258.3396824624
 30
0.0
 11
167.0120784668
 21
258.3396824624
 31
0.0
  0
ELLIPSE
  5
10D
330
1F
100
AcDbEntity
  8
0
  6
Continuous
 62
     7
370
    15
100
AcDbEllipse
 10
167.0120781092
 20
254.7925035576
 30
0.0
 11
9.400000000000006
 21
0.0
 31
0.0
210
0.0
220
0.0
230
1.0
 40
0.3773592453
 41
1.570796326794894
 42
3.141592653589793
  0
LINE
  5
10E
330
1F
100
AcDbEntity
  8
0
  6
Continuous
 62
     7
370
    15
100
AcDbLine
 10
157.6120795338
 20
254.7925057437
 30
0.0
 11
157.6120795338
 21
254.5660975005
 31
0.0
  0
LINE
  5
10F
330
1F
100
AcDbEntity
  8
0
  6
Continuous
 62
     7
370
    15
100
AcDbLine
 10
157.6120795338
 20
254.5660975005
 30
0.0
 11
157.0120768277
 21
254.5660975005
 31
0.0
  0
LINE
  5
110
330
1F
100
AcDbEntity
  8
0
  6
Continuous
 62
     7
370
    15
100
AcDbLine
 10
157.0120768277
 20
254.7925057437
 30
0.0
 11
157.0120768277
 21
254.5660975005
 31
0.0
  0
LINE
  5
111
330
1F
100
AcDbEntity
  8
0
  6
Continuous
 62
     7
370
    15
100
AcDbLine
 10
237.0120713143
 20
258.5660981561
 30
0.0
 11
167.0120784668
 21
258.5660981561
 31
0.0
  0
ELLIPSE
  5
112
330
1F
100
AcDbEntity
  8
0
  6
Continuous
 62
     7
370
    15
100
AcDbEllipse
 10
237.0120781092
 20
254.7925035576
 30
0.0
 11
10.00000000000003
 21
0.0
 31
0.0
210
0.0
220
0.0
230
1.0
 40
0.3773592453
 41
0.0
 42
1.570796326794897
  0
LINE
  5
113
330
1F
100
AcDbEntity
  8
0
  6
Continuous
 62
     7
370
    15
100
AcDbLine
 10
247.0120766787
 20
254.7925057437
 30
0.0
 11
247.0120766787
 21
254.5660975005
 31
0.0
  0
LINE
  5
114
330
1F
100
AcDbEntity
  8
0
  6
Continuous
 62
     7
370
    15
100
AcDbLine
 10
247.0120766787
 20
254.5660975005
 30
0.0
 11
246.4120814232
 21
254.5660975005
 31
0.0
  0
LINE
  5
115
330
1F
100
AcDbEntity
  8
0
  6
Continuous
 62
     7
370
    15
100
AcDbLine
 10
246.4120814232
 20
254.7925057437
 30
0.0
 11
246.4120814232
 21
254.5660975005
 31
0.0
  0
ELLIPSE
  5
116
330
1F
100
AcDbEntity
  8
0
  6
Continuous
 62
     7
370
    15
100
AcDbEllipse
 10
237.0120781092
 20
254.7925035576
 30
0.0
 11
9.400000000000006
 21
0.0
 31
0.0
210
0.0
220
0.0
230
1.0
 40
0.3773592453
 41
0.0
 42
1.570796326794897
  0
LINE
  5
117
330
1F
100
AcDbEntity
  8
0
  6
Continuous
 62
     7
370
    15
100
AcDbLine
 10
237.0120713143
 20
318.339677396
 30
0.0
 11
167.0120784668
 21
318.339677396
 31
0.0
  0
ELLIPSE
  5
118
330
1F
100
AcDbEntity
  8
0
  6
Continuous
 62
     7
370
    15
100
AcDbEllipse
 10
167.0120781092
 20
314.7925035576
 30
0.0
 11
9.400000000000006
 21
0.0
 31
0.0
210
0.0
220
0.0
230
1.0
 40
0.3773592453
 41
1.570796326794894
 42
3.141592653589846
  0
LINE
  5
119
330
1F
100
AcDbEntity
  8
0
  6
Continuous
 62
     7
370
    15
100
AcDbLine
 10
157.6120795338
 20
314.7925006773
 30
0.0
 11
157.6120795338
 21
314.5660924341
 31
0.0
  0
LINE
  5
11A
330
1F
100
AcDbEntity
  8
0
  6
Continuous
 62
     7
370
    15
100
AcDbLine
 10
157.6120795338
 20
314.5660924341
 30
0.0
 11
157.0120768277
 21
314.5660924341
 31
0.0
  0
LINE
  5
11B
330
1F
100
AcDbEntity
  8
0
  6
Continuous
 62
     7
370
    15
100
AcDbLine
 10
157.0120768277
 20
314.7925006773
 30
0.0
 11
157.0120768277
 21
314.5660924341
 31
0.0
  0
LINE
  5
11C
330
1F
100
AcDbEntity
  8
0
  6
Continuous
 62
     7
370
    15
100
AcDbLine
 10
237.0120713143
 20
318.5661005403
 30
0.0
 11
167.0120784668
 21
318.5661005403
 31
0.0
  0
ELLIPSE
  5
11D
330
1F
100
AcDbEntity
  8
0
  6
Continuous
 62
     7
370
    15
100
AcDbEllipse
 10
237.0120781092
 20
314.7925035576
 30
0.0
 11
10.00000000000003
 21
0.0
 31
0.0
210
0.0
220
0.0
230
1.0
 40
0.3773592453
 41
0.0
 42
1.570796326794897
  0
LINE
  5
11E
330
1F
100
AcDbEntity
  8
0
  6
Continuous
 62
     7
370
    15
100
AcDbLine
 10
247.0120766787
 20
314.7925006773
 30
0.0
 11
247.0120766787
 21
314.5660924341
 31
0.0
  0
LINE
  5
11F
330
1F
100
AcDbEntity
  8
0
  6
Continuous
 62
     7
370
    15
100
AcDbLine
 10
247.0120766787
 20
314.5660924341
 30
0.0
 11
246.4120814232
 21
314.5660924341
 31
0.0
  0
LINE
  5
120
330
1F
100
AcDbEntity
  8
0
  6
Continuous
 62
     7
370
    15
100
AcDbLine
 10
246.4120814232
 20
314.7925006773
 30
0.0
 11
246.4120814232
 21
314.5660924341
 31
0.0
  0
ELLIPSE
  5
121
330
1F
100
AcDbEntity
  8
0
  6
Continuous
 62
     7
370
    15
100
AcDbEllipse
 10
237.0120781092
 20
314.7925035576
 30
0.0
 11
9.400000000000006
 21
0.0
 31
0.0
210
0.0
220
0.0
230
1.0
 40
0.3773592453
 41
0.0
 42
1.570796326794897
  0
LINE
  5
122
330
1F
100
AcDbEntity
  8
0
  6
Continuous
 62
     7
370
    15
100
AcDbLine
 10
237.0120713143
 20
228.3396812703
 30
0.0
 11
167.0120784668
 21
228.3396812703
 31
0.0
  0
ELLIPSE
  5
123
330
1F
100
AcDbEntity
  8
0
  6
Continuous
 62
     7
370
    15
100
AcDbEllipse
 10
167.0120781092
 20
224.7925035576
 30
0.0
 11
9.400000000000006
 21
0.0
 31
0.0
210
0.0
220
0.0
230
1.0
 40
0.3773592453
 41
1.570796326794894
 42
3.141592653589793
  0
LINE
  5
124
330
1F
100
AcDbEntity
  8
0
  6
Continuous
 62
     7
370
    15
100
AcDbLine
 10
157.6120795338
 20
224.7925045516
 30
0.0
 11
157.6120795338
 21
224.5660963084
 31
0.0
  0
LINE
  5
125
330
1F
100
AcDbEntity
  8
0
  6
Continuous
 62
     7
370
    15
100
AcDbLine
 10
157.6120795338
 20
224.5660963084
 30
0.0
 11
157.0120768277
 21
224.5660963084
 31
0.0
  0
LINE
  5
126
330
1F
100
AcDbEntity
  8
0
  6
Continuous
 62
     7
370
    15
100
AcDbLine
 10
157.0120768277
 20
224.7925045516
 30
0.0
 11
157.0120768277
 21
224.5660963084
 31
0.0
  0
ELLIPSE
  5
127
330
1F
100
AcDbEntity
  8
0
  6
Continuous
 62
     7
370
    15
100
AcDbEllipse
 10
167.0120781092
 20
224.7925035576
 30
0.0
 11
9.999999999999972
 21
0.0
 31
0.0
210
0.0
220
0.0
230
1.0
 40
0.3773592453
 41
1.570796326794894
 42
3.141592653589793
  0
LINE
  5
128
330
1F
100
AcDbEntity
  8
0
  6
Continuous
 62
     7
370
    15
100
AcDbLine
 10
237.0120713143
 20
228.566096964
 30
0.0
 11
167.0120784668
 21
228.566096964
 31
0.0
  0
ELLIPSE
  5
129
330
1F
100
AcDbEntity
  8
0
  6
Continuous
 62
     7
370
    15
100
AcDbEllipse
 10
237.0120781092
 20
224.7925035576
 30
0.0
 11
10.00000000000003
 21
0.0
 31
0.0
210
0.0
220
0.0
230
1.0
 40
0.3773592453
 41
0.0
 42
1.570796326794897
  0
LINE
  5
12A
330
1F
100
AcDbEntity
  8
0
  6
Continuous
 62
     7
370
    15
100
AcDbLine
 10
247.0120766787
 20
224.7925045516
 30
0.0
 11
247.0120766787
 21
224.5660963084
 31
0.0
  0
LINE
  5
12B
330
1F
100
AcDbEntity
  8
0
  6
Continuous
 62
     7
370
    15
100
AcDbLine
 10
247.0120766787
 20
224.5660963084
 30
0.0
 11
246.4120814232
 21
224.5660963084
 31
0.0
  0
LINE
  5
12C
330
1F
100
AcDbEntity
  8
0
  6
Continuous
 62
     7
370
    15
100
AcDbLine
 10
246.4120814232
 20
224.7925045516
 30
0.0
 11
246.4120814232
 21
224.5660963084
 31
0.0
  0
ELLIPSE
  5
12D
330
1F
100
AcDbEntity
  8
0
  6
Continuous
 62
     7
370
    15
100
AcDbEllipse
 10
237.0120781092
 20
224.7925035576
 30
0.0
 11
9.400000000000006
 21
0.0
 31
0.0
210
0.0
220
0.0
230
1.0
 40
0.3773592453
 41
0.0
 42
1.570796326794897
  0
LINE
  5
12E
330
1F
100
AcDbEntity
  8
0
  6
Continuous
 62
     7
370
    15
100
AcDbLine
 10
237.0120713143
 20
288.3396762039
 30
0.0
 11
167.0120784668
 21
288.3396762039
 31
0.0
  0
ELLIPSE
  5
12F
330
1F
100
AcDbEntity
  8
0
  6
Continuous
 62
     7
370
    15
100
AcDbEllipse
 10
167.0120781092
 20
284.7925035576
 30
0.0
 11
9.400000000000006
 21
0.0
 31
0.0
210
0.0
220
0.0
230
1.0
 40
0.3773592453
 41
1.570796326794894
 42
3.141592653589793
  0
LINE
  5
130
330
1F
100
AcDbEntity
  8
0
  6
Continuous
 62
     7
370
    15
100
AcDbLine
 10
157.6120795338
 20
284.7924994852
 30
0.0
 11
157.6120795338
 21
284.566091242
 31
0.0
  0
LINE
  5
131
330
1F
100
AcDbEntity
  8
0
  6
Continuous
 62
     7
370
    15
100
AcDbLine
 10
157.6120795338
 20
284.566091242
 30
0.0
 11
157.0120768277
 21
284.566091242
 31
0.0
  0
LINE
  5
132
330
1F
100
AcDbEntity
  8
0
  6
Continuous
 62
     7
370
    15
100
AcDbLine
 10
157.0120768277
 20
284.7924994852
 30
0.0
 11
157.0120768277
 21
284.566091242
 31
0.0
  0
ELLIPSE
  5
133
330
1F
100
AcDbEntity
  8
0
  6
Continuous
 62
     7
370
    15
100
AcDbEllipse
 10
167.0120781092
 20
284.7925035576
 30
0.0
 11
9.999999999999972
 21
0.0
 31
0.0
210
0.0
220
0.0
230
1.0
 40
0.3773592453
 41
1.570796326794894
 42
3.141592653589793
  0
LINE
  5
134
330
1F
100
AcDbEntity
  8
0
  6
Continuous
 62
     7
370
    15
100
AcDbLine
 10
237.0120713143
 20
288.5660993482
 30
0.0
 11
167.0120784668
 21
288.5660993482
 31
0.0
  0
ELLIPSE
  5
135
330
1F
100
AcDbEntity
  8
0
  6
Continuous
 62
     7
370
    15
100
AcDbEllipse
 10
237.0120781092
 20
284.7925035576
 30
0.0
 11
10.00000000000003
 21
0.0
 31
0.0
210
0.0
220
0.0
230
1.0
 40
0.3773592453
 41
0.0
 42
1.570796326794897
  0
LINE
  5
136
330
1F
100
AcDbEntity
  8
0
  6
Continuous
 62
     7
370
    15
100
AcDbLine
 10
247.0120766787
 20
284.7924994852
 30
0.0
 11
247.0120766787
 21
284.566091242
 31
0.0
  0
LINE
  5
137
330
1F
100
AcDbEntity
  8
0
  6
Continuous
 62
     7
370
    15
100
AcDbLine
 10
247.0120766787
 20
284.566091242
 30
0.0
 11
246.4120814232
 21
284.566091242
 31
0.0
  0
LINE
  5
138
330
1F
100
AcDbEntity
  8
0
  6
Continuous
 62
     7
370
    15
100
AcDbLine
 10
246.4120814232
 20
284.7924994852
 30
0.0
 11
246.4120814232
 21
284.566091242
 31
0.0
  0
ELLIPSE
  5
139
330
1F
100
AcDbEntity
  8
0
  6
Continuous
 62
     7
370
    15
100
AcDbEllipse
 10
237.0120781092
 20
284.7925035576
 30
0.0
 11
9.400000000000006
 21
0.0
 31
0.0
210
0.0
220
0.0
230
1.0
 40
0.3773592453
 41
0.0
 42
1.570796326794897
  0
LINE
  5
13A
330
1F
100
AcDbEntity
  8
0
  6
Continuous
 62
     7
370
    15
100
AcDbLine
 10
247.0120766787
 20
315.69813365
 30
0.0
 11
247.0120766787
 21
314.7925006773
 31
0.0
  0
ELLIPSE
  5
13B
330
1F
100
AcDbEntity
  8
0
  6
Continuous
 62
     7
370
    15
100
AcDbEllipse
 10
237.0120781092
 20
315.6981337463
 30
0.0
 11
0.0
 21
-18.86796226411315
 31
0.0
210
0.0
220
0.0
230
1.0
 40
0.52999894
 41
1.570796326794897
 42
3.141592653589792
  0
LINE
  5
13C
330
1F
100
AcDbEntity
  8
0
  6
Continuous
 62
     7
370
    15
100
AcDbLine
 10
157.0120768277
 20
224.7925045516
 30
0.0
 11
157.0120768277
 21
225.6981300737
 31
0.0
  0
ELLIPSE
  5
13D
330
1F
100
AcDbEntity
  8
0
  6
Continuous
 62
     7
370
    15
100
AcDbEllipse
 10
167.0120781092
 20
225.6981337463
 30
0.0
 11
0.0
 21
18.8679622641132
 31
0.0
210
0.0
220
0.0
230
1.0
 40
0.52999894
 41
0.0
 42
1.570796326794897
  0
LINE
  5
13E
330
1F
100
AcDbEntity
  8
0
  6
Continuous
 62
     7
370
    15
100
AcDbLine
 10
247.0120766787
 20
345.6981348421
 30
0.0
 11
247.0120766787
 21
344.7925018694
 31
0.0
  0
ELLIPSE
  5
13F
330
1F
100
AcDbEntity
  8
0
  6
Continuous
 62
     7
370
    15
100
AcDbEllipse
 10
237.0120781092
 20
344.7925035576
 30
0.0
 11
10.00000000000003
 21
0.0
 31
0.0
210
0.0
220
0.0
230
1.0
 40
0.3773592453
 41
0.0
 42
1.570796326794897
  0
ELLIPSE
  5
140
330
1F
100
AcDbEntity
  8
0
  6
Continuous
 62
     7
370
    15
100
AcDbEllipse
 10
237.0120781092
 20
345.6981337463
 30
0.0
 11
0.0
 21
-18.86796226411326
 31
0.0
210
0.0
220
0.0
230
1.0
 40
0.52999894
 41
1.570796326794897
 42
3.141592653589792
  0
LINE
  5
141
330
1F
100
AcDbEntity
  8
0
  6
Continuous
 62
     7
370
    15
100
AcDbLine
 10
157.0120768277
 20
284.7924994852
 30
0.0
 11
157.0120768277
 21
285.6981324579
 31
0.0
  0
ELLIPSE
  5
142
330
1F
100
AcDbEntity
  8
0
  6
Continuous
 62
     7
370
    15
100
AcDbEllipse
 10
167.0120781092
 20
285.6981337463
 30
0.0
 11
0.0
 21
18.8679622641132
 31
0.0
210
0.0
220
0.0
230
1.0
 40
0.52999894
 41
0.0
 42
1.570796326794897
  0
LINE
  5
143
330
1F
100
AcDbEntity
  8
0
  6
Continuous
 62
     7
370
    15
100
AcDbLine
 10
237.0120713143
 20
348.3396785881
 30
0.0
 11
167.0120784668
 21
348.3396785881
 31
0.0
  0
ELLIPSE
  5
144
330
1F
100
AcDbEntity
  8
0
  6
Continuous
 62
     7
370
    15
100
AcDbEllipse
 10
167.0120781092
 20
344.7925035576
 30
0.0
 11
9.400000000000006
 21
0.0
 31
0.0
210
0.0
220
0.0
230
1.0
 40
0.3773592453
 41
1.570796326794894
 42
3.141592653589793
  0
LINE
  5
145
330
1F
100
AcDbEntity
  8
0
  6
Continuous
 62
     7
370
    15
100
AcDbLine
 10
157.6120795338
 20
344.7925018694
 30
0.0
 11
157.6120795338
 21
344.5660936262
 31
0.0
  0
LINE
  5
146
330
1F
100
AcDbEntity
  8
0
  6
Continuous
 62
     7
370
    15
100
AcDbLine
 10
157.6120795338
 20
344.5660936262
 30
0.0
 11
157.0120768277
 21
344.5660936262
 31
0.0
  0
LINE
  5
147
330
1F
100
AcDbEntity
  8
0
  6
Continuous
 62
     7
370
    15
100
AcDbLine
 10
157.0120768277
 20
344.7925018694
 30
0.0
 11
157.0120768277
 21
344.5660936262
 31
0.0
  0
LINE
  5
148
330
1F
100
AcDbEntity
  8
0
  6
Continuous
 62
     7
370
    15
100
AcDbLine
 10
237.0120713143
 20
348.5661017324
 30
0.0
 11
167.0120784668
 21
348.5661017324
 31
0.0
  0
LINE
  5
149
330
1F
100
AcDbEntity
  8
0
  6
Continuous
 62
     7
370
    15
100
AcDbLine
 10
247.0120766787
 20
344.7925018694
 30
0.0
 11
247.0120766787
 21
344.5660936262
 31
0.0
  0
LINE
  5
14A
330
1F
100
AcDbEntity
  8
0
  6
Continuous
 62
     7
370
    15
100
AcDbLine
 10
247.0120766787
 20
344.5660936262
 30
0.0
 11
246.4120814232
 21
344.5660936262
 31
0.0
  0
LINE
  5
14B
330
1F
100
AcDbEntity
  8
0
  6
Continuous
 62
     7
370
    15
100
AcDbLine
 10
246.4120814232
 20
344.7925018694
 30
0.0
 11
246.4120814232
 21
344.5660936262
 31
0.0
  0
ELLIPSE
  5
14C
330
1F
100
AcDbEntity
  8
0
  6
Continuous
 62
     7
370
    15
100
AcDbEllipse
 10
237.0120781092
 20
344.7925035576
 30
0.0
 11
9.400000000000006
 21
0.0
 31
0.0
210
0.0
220
0.0
230
1.0
 40
0.3773592453
 41
0.0
 42
1.570796326794897
  0
LINE
  5
14D
330
1F
100
AcDbEntity
  8
0
  6
Continuous
 62
     7
370
    15
100
AcDbLine
 10
237.0120713143
 20
334.5661031629
 30
0.0
 11
167.0120784668
 21
334.5661031629
 31
0.0
  0
LINE
  5
14E
330
1F
100
AcDbEntity
  8
0
  6
Continuous
 62
     7
370
    15
100
AcDbLine
 10
247.0120766787
 20
225.6981300737
 30
0.0
 11
247.0120766787
 21
224.7925045516
 31
0.0
  0
ELLIPSE
  5
14F
330
1F
100
AcDbEntity
  8
0
  6
Continuous
 62
     7
370
    15
100
AcDbEllipse
 10
237.0120781092
 20
225.6981337463
 30
0.0
 11
0.0
 21
-18.86796226411317
 31
0.0
210
0.0
220
0.0
230
1.0
 40
0.52999894
 41
1.570796326794897
 42
3.141592653589792
  0
LINE
  5
150
330
1F
100
AcDbEntity
  8
0
  6
Continuous
 62
     7
370
    15
100
AcDbLine
 10
237.0120713143
 20
364.5660894539
 30
0.0
 11
167.0120784668
 21
364.5660894539
 31
0.0
  0
LINE
  5
151
330
1F
100
AcDbEntity
  8
0
  6
Continuous
 62
     7
370
    15
100
AcDbLine
 10
247.0120766787
 20
255.6981312658
 30
0.0
 11
247.0120766787
 21
254.7925057437
 31
0.0
  0
ELLIPSE
  5
152
330
1F
100
AcDbEntity
  8
0
  6
Continuous
 62
     7
370
    15
100
AcDbEllipse
 10
237.0120781092
 20
255.6981337463
 30
0.0
 11
0.0
 21
-18.86796226411315
 31
0.0
210
0.0
220
0.0
230
1.0
 40
0.52999894
 41
1.5707963267949
 42
3.141592653589792
  0
LINE
  5
153
330
1F
100
AcDbEntity
  8
0
  6
Continuous
 62
     7
370
    15
100
AcDbLine
 10
237.0120713143
 20
304.5661019708
 30
0.0
 11
167.0120784668
 21
304.5661019708
 31
0.0
  0
LINE
  5
154
330
1F
100
AcDbEntity
  8
0
  6
Continuous
 62
     7
370
    15
100
AcDbLine
 10
237.0120713143
 20
244.5660995867
 30
0.0
 11
167.0120784668
 21
244.5660995867
 31
0.0
  0
LINE
  5
155
330
1F
100
AcDbEntity
  8
0
  6
Continuous
 62
     7
370
    15
100
AcDbLine
 10
247.0120766787
 20
285.6981324579
 30
0.0
 11
247.0120766787
 21
284.7924994852
 31
0.0
  0
ELLIPSE
  5
156
330
1F
100
AcDbEntity
  8
0
  6
Continuous
 62
     7
370
    15
100
AcDbEllipse
 10
237.0120781092
 20
285.6981337463
 30
0.0
 11
0.0
 21
-18.8679622641132
 31
0.0
210
0.0
220
0.0
230
1.0
 40
0.52999894
 41
1.570796326794897
 42
3.141592653589792
  0
LINE
  5
157
330
1F
100
AcDbEntity
  8
0
  6
Continuous
 62
     7
370
    15
100
AcDbLine
 10
237.0120713143
 20
274.5660933282
 30
0.0
 11
167.0120784668
 21
274.5660933282
 31
0.0
  0
LINE
  5
158
330
1F
100
AcDbEntity
  8
0
  6
Continuous
 62
     7
370
    15
100
AcDbLine
 10
249.0120807318
 20
175.1660964067
 30
0.0
 11
255.01207799
 21
175.1660964067
 31
0.0
  0
LINE
  5
159
330
1F
100
AcDbEntity
  8
0
  6
Continuous
 62
     7
370
    15
100
AcDbLine
 10
160.0120791821
 20
175.1660964067
 30
0.0
 11
166.0120764403
 21
175.1660964067
 31
0.0
  0
LINE
  5
15A
330
1F
100
AcDbEntity
  8
0
  6
Continuous
 62
     7
370
    15
100
AcDbLine
 10
79.6120779244
 20
434.5660972025
 30
0.0
 11
279.4120737938
 21
434.5660972025
 31
0.0
  0
LINE
  5
15B
330
1F
100
AcDbEntity
  8
0
  6
Continuous
 62
     7
370
    15
100
AcDbLine
 10
285.0120791821
 20
413.9661061193
 30
0.0
 11
285.0120791821
 21
219.5660936262
 31
0.0
  0
LINE
  5
15C
330
1F
100
AcDbEntity
  8
0
  6
Continuous
 62
     7
370
    15
100
AcDbLine
 10
285.0120791821
 20
219.5660936262
 30
0.0
 11
279.4120737938
 21
219.5660936262
 31
0.0
  0
LINE
  5
15D
330
1F
100
AcDbEntity
  8
0
  6
Continuous
 62
     7
370
    15
100
AcDbLine
 10
74.0120762615
 20
413.9661061193
 30
0.0
 11
74.0120762615
 21
428.9660918142
 31
0.0
  0
ARC
  5
15E
330
1F
100
AcDbEntity
  8
0
  6
Continuous
 62
     7
370
    15
100
AcDbCircle
 10
79.6120781092
 20
428.9660960104
 30
0.0
 40
5.60000000000008
100
AcDbArc
 50
90.0
 51
180.0
  0
LINE
  5
15F
330
1F
100
AcDbEntity
  8
0
  6
Continuous
 62
     7
370
    15
100
AcDbLine
 10
285.0120791821
 20
428.9660918142
 30
0.0
 11
285.0120791821
 21
413.9661061193
 31
0.0
  0
ARC
  5
160
330
1F
100
AcDbEntity
  8
0
  6
Continuous
 62
     7
370
    15
100
AcDbCircle
 10
279.4120781092
 20
428.9660960104
 30
0.0
 40
5.600000000000023
100
AcDbArc
 50
0.0
 51
90.0
  0
LINE
  5
161
330
1F
100
AcDbEntity
  8
0
  6
Continuous
 62
     7
370
    15
100
AcDbLine
 10
74.0120762615
 20
219.5660936262
 30
0.0
 11
74.0120762615
 21
413.9661061193
 31
0.0
  0
LINE
  5
162
330
1F
100
AcDbEntity
  8
0
  6
Continuous
 62
     7
370
    15
100
AcDbLine
 10
79.6120779244
 20
219.5660936262
 30
0.0
 11
74.0120762615
 21
219.5660936262
 31
0.0
  0
LINE
  5
163
330
1F
100
AcDbEntity
  8
0
  6
Continuous
 62
     7
370
    15
100
AcDbLine
 10
246.4120814232
 20
284.566091242
 30
0.0
 11
157.6120795338
 21
284.566091242
 31
0.0
  0
LINE
  5
164
330
1F
100
AcDbEntity
  8
0
  6
Continuous
 62
     7
370
    15
100
AcDbLine
 10
246.4120814232
 20
224.5660963084
 30
0.0
 11
157.6120795338
 21
224.5660963084
 31
0.0
  0
LINE
  5
165
330
1F
100
AcDbEntity
  8
0
  6
Continuous
 62
     7
370
    15
100
AcDbLine
 10
246.4120814232
 20
254.5660975005
 30
0.0
 11
157.6120795338
 21
254.5660975005
 31
0.0
  0
LINE
  5
166
330
1F
100
AcDbEntity
  8
0
  6
Continuous
 62
     7
370
    15
100
AcDbLine
 10
246.4120814232
 20
314.5660924341
 30
0.0
 11
157.6120795338
 21
314.5660924341
 31
0.0
  0
LINE
  5
167
330
1F
100
AcDbEntity
  8
0
  6
Continuous
 62
     7
370
    15
100
AcDbLine
 10
246.4120814232
 20
344.5660936262
 30
0.0
 11
157.6120795338
 21
344.5660936262
 31
0.0
  0
ARC
  5
168
330
1F
100
AcDbEntity
  8
0
  6
Continuous
 62
     7
370
    15
100
AcDbCircle
 10
203.0120781092
 20
192.0660960104
 30
0.0
 40
12.50000000000003
100
AcDbArc
 50
0.0
 51
180.0
  0
LINE
  5
169
330
1F
100
AcDbEntity
  8
0
  6
Continuous
 62
     7
370
    15
100
AcDbLine
 10
267.0120725064
 20
219.5660936262
 30
0.0
 11
279.4120737938
 21
219.5660936262
 31
0.0
  0
LINE
  5
16A
330
1F
100
AcDbEntity
  8
0
  6
Continuous
 62
     7
370
    15
100
AcDbLine
 10
79.6120779244
 20
219.5660936262
 30
0.0
 11
148.0120772151
 21
219.5660936262
 31
0.0
  0
LINE
  5
16B
330
1F
100
AcDbEntity
  8
0
  6
Continuous
 62
     7
370
    15
100
AcDbLine
 10
215.5120798974
 20
175.1660964067
 30
0.0
 11
215.5120798974
 21
192.0660975005
 31
0.0
  0
LINE
  5
16C
330
1F
100
AcDbEntity
  8
0
  6
Continuous
 62
     7
370
    15
100
AcDbLine
 10
190.5120813875
 20
192.0660975005
 30
0.0
 11
190.5120813875
 21
175.1660964067
 31
0.0
  0
LINE
  5
16D
330
1F
100
AcDbEntity
  8
0
  6
Continuous
 62
     7
370
    15
100
AcDbLine
 10
267.0120725064
 20
175.1660964067
 30
0.0
 11
267.0120725064
 21
219.5660936262
 31
0.0
  0
LINE
  5
16E
330
1F
100
AcDbEntity
  8
0
  6
Continuous
 62
     7
370
    15
100
AcDbLine
 10
148.0120772151
 20
219.5660936262
 30
0.0
 11
148.0120772151
 21
175.1660964067
 31
0.0
  0
LINE
  5
16F
330
1F
100
AcDbEntity
  8
0
  6
Continuous
 62
     7
370
    15
100
AcDbLine
 10
73.4460593788
 20
283.5925089742
 30
0.0
 11
74.0120762615
 21
283.3661007311
 31
0.0
  0
LINE
  5
170
330
1F
100
AcDbEntity
  8
0
  6
Continuous
 62
     7
370
    15
100
AcDbLine
 10
64.0120783476
 20
287.3660939361
 30
0.0
 11
74.0120762615
 21
303.3660965587
 31
0.0
  0
LWPOLYLINE
  5
171
330
1F
100
AcDbEntity
  8
0
  6
Continuous
 62
     7
370
    15
100
AcDbPolyline
 90
        9
 70
   128
 43
0.0
 10
73.4460593788
 20
283.5925089742
 10
71.6055797069
 20
284.328700843
 10
69.8358321218
 20
285.0365954067
 10
68.204821798
 20
285.6889980461
 10
66.7752267448
 20
286.2608301069
 10
65.6019912688
 20
286.7301272775
 10
64.7301988332
 20
287.0788442518
 10
64.1933509736
 20
287.2935848858
 10
64.0120783476
 20
287.3660939361
  0
LWPOLYLINE
  5
172
330
1F
100
AcDbEntity
  8
0
  6
Continuous
 62
     7
370
    15
100
AcDbPolyline
 90
        9
 70
   128
 43
0.0
 10
73.4460593788
 20
403.5924988415
 10
71.6055797069
 20
404.3286907102
 10
69.8358321218
 20
405.0365852739
 10
68.204821798
 20
405.6889879133
 10
66.7752267448
 20
406.2608348753
 10
65.6019912688
 20
406.7301320459
 10
64.7301988332
 20
407.0788490202
 10
64.1933509736
 20
407.293574753
 10
64.0120783476
 20
407.3660838033
  0
LINE
  5
173
330
1F
100
AcDbEntity
  8
0
  6
Continuous
 62
     7
370
    15
100
AcDbLine
 10
64.0120783476
 20
407.3660838033
 30
0.0
 11
74.0120762615
 21
423.3660864259
 31
0.0
  0
LWPOLYLINE
  5
174
330
1F
100
AcDbEntity
  8
0
  6
Continuous
 62
     7
370
    15
100
AcDbPolyline
 90
        9
 70
   128
 43
0.0
 10
73.4460593788
 20
373.5924976494
 10
71.6055797069
 20
374.3286895181
 10
69.8358321218
 20
375.036598983
 10
68.204821798
 20
375.6890016224
 10
66.7752267448
 20
376.2608336832
 10
65.6019912688
 20
376.7301308538
 10
64.7301988332
 20
377.0788478281
 10
64.1933509736
 20
377.293588462
 10
64.0120783476
 20
377.3660975124
  0
LINE
  5
175
330
1F
100
AcDbEntity
  8
0
  6
Continuous
 62
     7
370
    15
100
AcDbLine
 10
64.0120783476
 20
377.3660975124
 30
0.0
 11
74.0120762615
 21
393.366100135
 31
0.0
  0
LINE
  5
176
330
1F
100
AcDbEntity
  8
0
  6
Continuous
 62
     7
370
    15
100
AcDbLine
 10
73.4460593788
 20
313.5925101663
 30
0.0
 11
74.0120762615
 21
313.3661019232
 31
0.0
  0
LINE
  5
177
330
1F
100
AcDbEntity
  8
0
  6
Continuous
 62
     7
370
    15
100
AcDbLine
 10
64.0120783476
 20
317.3660951282
 30
0.0
 11
74.0120762615
 21
333.3660977508
 31
0.0
  0
LWPOLYLINE
  5
178
330
1F
100
AcDbEntity
  8
0
  6
Continuous
 62
     7
370
    15
100
AcDbPolyline
 90
        9
 70
   128
 43
0.0
 10
73.4460593788
 20
313.5925101663
 10
71.6055797069
 20
314.3287020351
 10
69.8358321218
 20
315.0365965988
 10
68.204821798
 20
315.6889992382
 10
66.7752267448
 20
316.260831299
 10
65.6019912688
 20
316.7301284696
 10
64.7301988332
 20
317.0788454439
 10
64.1933509736
 20
317.2935860779
 10
64.0120783476
 20
317.3660951282
  0
LINE
  5
179
330
1F
100
AcDbEntity
  8
0
  6
Continuous
 62
     7
370
    15
100
AcDbLine
 10
73.4460593788
 20
403.5924988415
 30
0.0
 11
74.0120762615
 21
403.3660905983
 31
0.0
  0
LINE
  5
17A
330
1F
100
AcDbEntity
  8
0
  6
Continuous
 62
     7
370
    15
100
AcDbLine
 10
64.0120783476
 20
347.3660963203
 30
0.0
 11
74.0120762615
 21
363.3660989429
 31
0.0
  0
LWPOLYLINE
  5
17B
330
1F
100
AcDbEntity
  8
0
  6
Continuous
 62
     7
370
    15
100
AcDbPolyline
 90
        9
 70
   128
 43
0.0
 10
73.4460593788
 20
343.5924964573
 10
71.6055797069
 20
344.328688326
 10
69.8358321218
 20
345.0365977909
 10
68.204821798
 20
345.6890004303
 10
66.7752267448
 20
346.2608324911
 10
65.6019912688
 20
346.7301296617
 10
64.7301988332
 20
347.078846636
 10
64.1933509736
 20
347.2935872699
 10
64.0120783476
 20
347.3660963203
  0
LINE
  5
17C
330
1F
100
AcDbEntity
  8
0
  6
Continuous
 62
     7
370
    15
100
AcDbLine
 10
73.4460593788
 20
373.5924976494
 30
0.0
 11
74.0120762615
 21
373.3660894062
 31
0.0
  0
LINE
  5
17D
330
1F
100
AcDbEntity
  8
0
  6
Continuous
 62
     7
370
    15
100
AcDbLine
 10
73.4460593788
 20
343.5924964573
 30
0.0
 11
74.0120762615
 21
343.3661031152
 31
0.0
  0
LINE
  5
17E
330
1F
100
AcDbEntity
  8
0
  6
Continuous
 62
     7
370
    15
100
AcDbLine
 10
336.5120717911
 20
181.6906592424
 30
0.0
 11
336.5120717911
 21
174.5660955633
 31
0.0
  0
LINE
  5
17F
330
1F
100
AcDbEntity
  8
0
  6
Continuous
 62
     7
370
    15
100
AcDbLine
 10
275.0120738177
 20
174.5660955633
 30
0.0
 11
275.0120738177
 21
187.5660958316
 31
0.0
  0
LINE
  5
180
330
1F
100
AcDbEntity
  8
0
  6
Continuous
 62
     7
370
    15
100
AcDbLine
 10
336.5120717911
 20
187.5660958316
 30
0.0
 11
336.5120717911
 21
181.6906592424
 31
0.0
  0
LINE
  5
181
330
1F
100
AcDbEntity
  8
0
  6
Continuous
 62
     7
370
    15
100
AcDbLine
 10
336.5120717911
 20
187.5660958316
 30
0.0
 11
275.0120738177
 21
187.5660958316
 31
0.0
  0
LINE
  5
182
330
1F
100
AcDbEntity
  8
0
  6
Continuous
 62
     7
370
    15
100
AcDbLine
 10
336.5120717911
 20
225.4196348216
 30
0.0
 11
321.5120711951
 21
225.4196348216
 31
0.0
  0
LINE
  5
183
330
1F
100
AcDbEntity
  8
0
  6
Continuous
 62
     7
370
    15
100
AcDbLine
 10
336.5120717911
 20
236.7486971046
 30
0.0
 11
336.5120717911
 21
225.4196348216
 31
0.0
  0
LINE
  5
184
330
1F
100
AcDbEntity
  8
0
  6
Continuous
 62
     7
370
    15
100
AcDbLine
 10
347.5117662577
 20
236.7486971046
 30
0.0
 11
336.5120717911
 21
236.7486971046
 31
0.0
  0
ARC
  5
185
330
1F
100
AcDbEntity
  8
0
  6
Continuous
 62
     7
370
    15
100
AcDbCircle
 10
356.5334340102
 20
237.7461757106
 30
0.0
 40
9.076643245483165
100
AcDbArc
 50
186.3092685106
 51
254.6130268036
  0
LINE
  5
186
330
1F
100
AcDbEntity
  8
0
  6
Continuous
 62
     7
370
    15
100
AcDbLine
 10
352.7938851742
 20
225.4196348216
 30
0.0
 11
354.1250655083
 21
228.9948778774
 31
0.0
  0
LINE
  5
187
330
1F
100
AcDbEntity
  8
0
  6
Continuous
 62
     7
370
    15
100
AcDbLine
 10
336.5120717911
 20
181.6906592424
 30
0.0
 11
352.7938851742
 21
225.4196348216
 31
0.0
  0
LINE
  5
188
330
1F
100
AcDbEntity
  8
0
  6
Continuous
 62
     7
370
    15
100
AcDbLine
 10
321.5120711951
 20
225.4196348216
 30
0.0
 11
321.5120711951
 21
187.5660958316
 31
0.0
  0
ELLIPSE
  5
189
330
1F
100
AcDbEntity
  8
0
  6
Continuous
 62
     7
370
    15
100
AcDbEllipse
 10
377.9136914755
 20
278.5660960104
 30
0.0
 11
23.72783240603974
 21
82.92436845723506
 31
0.0
210
0.0
220
0.0
230
1.0
 40
0.1492961128
 41
2.308402988459528
 42
2.434194993120674
  0
LINE
  5
18A
330
1F
100
AcDbEntity
  8
0
  6
Continuous
 62
     7
370
    15
100
AcDbLine
 10
336.5120717911
 20
176.6906584229
 30
0.0
 11
351.8337884573
 21
217.8410681512
 31
0.0
  0
LINE
  5
18B
330
1F
100
AcDbEntity
  8
0
  6
Continuous
 62
     7
370
    15
100
AcDbLine
 10
357.0120760827
 20
228.3638584043
 30
0.0
 11
354.0903010993
 21
228.7605794694
 31
0.0
  0
LINE
  5
18C
330
1F
100
AcDbEntity
  8
0
  6
Continuous
 62
     7
370
    15
100
AcDbLine
 10
354.0903010993
 20
228.7605794694
 30
0.0
 11
354.1250655083
 21
228.9948778774
 31
0.0
  0
LWPOLYLINE
  5
18D
330
1F
100
AcDbEntity
  8
0
  6
Continuous
 62
     7
370
    15
100
AcDbPolyline
 90
       13
 70
   128
 43
0.0
 10
347.4795201449
 20
236.7486971046
 10
347.5420603184
 20
240.6874465372
 10
347.6078042416
 20
245.3023063566
 10
347.673473659
 20
250.2262162592
 10
347.7397391228
 20
255.3207742597
 10
347.8182086377
 20
261.2836825277
 10
347.9018637566
 20
267.3810514237
 10
347.995547357
 20
273.7710344221
 10
348.0988571076
 20
280.2006917621
 10
348.1995889573
 20
285.8551459934
 10
348.3103641896
 20
291.4624082472
 10
348.435846868
 20
297.1341627266
 10
348.5745617775
 20
302.6793467428
  0
LWPOLYLINE
  5
18E
330
1F
100
AcDbEntity
  8
0
  6
Continuous
 62
     7
370
    15
100
AcDbPolyline
 90
       11
 70
   128
 43
0.0
 10
365.4496052889
 20
302.6793467428
 10
364.7452870039
 20
303.6280738737
 10
362.9794099955
 20
304.4052290346
 10
361.2708726553
 20
304.8026877071
 10
359.2548647551
 20
305.0589876796
 10
357.0120760827
 20
305.1498251583
 10
354.7692874102
 20
305.0589876796
 10
352.75327951
 20
304.8026877071
 10
351.044757071
 20
304.4052290346
 10
349.2788800625
 20
303.6280738737
 10
348.5745617775
 20
302.6793467428
  0
LWPOLYLINE
  5
18F
330
1F
100
AcDbEntity
  8
0
  6
Continuous
 62
     7
370
    15
100
AcDbPolyline
 90
        4
 70
   128
 43
0.0
 10
365.4496052889
 20
302.6793467428
 10
365.6408467917
 20
294.8415743734
 10
365.8091405062
 20
286.6716849233
 10
365.9292438654
 20
279.9670266535
  0
LWPOLYLINE
  5
190
330
1F
100
AcDbEntity
  8
0
  6
Continuous
 62
     7
370
    15
100
AcDbPolyline
 90
        4
 70
   128
 43
0.0
 10
365.9292438654
 20
279.9670266535
 10
366.1245980887
 20
271.063940468
 10
366.2488737731
 20
262.2368278529
 10
366.3092234759
 20
256.3950958277
  0
LWPOLYLINE
  5
191
330
1F
100
AcDbEntity
  8
0
  6
Continuous
 62
     7
370
    15
100
AcDbPolyline
 90
       11
 70
   128
 43
0.0
 10
361.7198148398
 20
197.1082034137
 10
361.6269210009
 20
197.1091235604
 10
362.0206990866
 20
197.4380927707
 10
362.6753667025
 20
197.9536021675
 10
363.4814301161
 20
198.6691782798
 10
364.6587410597
 20
199.9520080711
 10
365.8138492732
 20
201.6206848051
 10
366.5483573107
 20
203.0486295547
 10
367.1551921992
 20
204.6931254293
 10
367.6725307135
 20
207.6493258204
 10
367.4530962138
 20
210.3917467024
  0
ARC
  5
192
330
1F
100
AcDbEntity
  8
0
  6
Continuous
 62
     7
370
    15
100
AcDbCircle
 10
360.1811472538
 20
355.2405705773
 30
0.0
 40
10.75439400477869
100
AcDbArc
 50
306.3088014636
 51
344.048773436
  0
LINE
  5
193
330
1F
100
AcDbEntity
  8
0
  6
Continuous
 62
     7
370
    15
100
AcDbLine
 10
369.7013238101
 20
334.7392397548
 30
0.0
 11
369.7013238101
 21
334.8160999443
 31
0.0
  0
LINE
  5
194
330
1F
100
AcDbEntity
  8
0
  6
Continuous
 62
     7
370
    15
100
AcDbLine
 10
370.0321891932
 20
331.6920118953
 30
0.0
 11
369.3704286246
 21
334.7392397548
 31
0.0
  0
LWPOLYLINE
  5
195
330
1F
100
AcDbEntity
  8
0
  6
Continuous
 62
     7
370
    15
100
AcDbPolyline
 90
       15
 70
   128
 43
0.0
 10
370.0629153876
 20
304.3754863168
 10
369.388220611
 20
306.4704703714
 10
368.7581101088
 20
308.8427948381
 10
368.1851306586
 20
311.4333170082
 10
367.6800110964
 20
314.1626881983
 10
367.2599473624
 20
316.9023560907
 10
366.9220486311
 20
319.6174817707
 10
366.6782954363
 20
322.1659975673
 10
366.5231147437
 20
324.5372342493
 10
366.4607086806
 20
326.6232478048
 10
366.4876201777
 20
328.4093903925
 10
366.6033723979
 20
329.8309909727
 10
366.8048062949
 20
330.8686184313
 10
367.0907893805
 20
331.491934004
 10
367.4375394015
 20
331.6792863037
  0
LINE
  5
196
330
1F
100
AcDbEntity
  8
0
  6
Continuous
 62
     7
370
    15
100
AcDbLine
 10
373.3410218386
 20
295.0934487011
 30
0.0
 11
370.0629153876
 21
304.3754863168
 31
0.0
  0
LINE
  5
197
330
1F
100
AcDbEntity
  8
0
  6
Continuous
 62
     7
370
    15
100
AcDbLine
 10
373.3410218386
 20
262.0387392666
 30
0.0
 11
373.3410218386
 21
295.0934487011
 31
0.0
  0
LINE
  5
198
330
1F
100
AcDbEntity
  8
0
  6
Continuous
 62
     7
370
    15
100
AcDbLine
 10
370.0629153876
 20
252.7567016508
 30
0.0
 11
373.3410218386
 21
262.0387392666
 31
0.0
  0
ARC
  5
199
330
1F
100
AcDbEntity
  8
0
  6
Continuous
 62
     7
370
    15
100
AcDbCircle
 10
443.4353682255
 20
229.5453125338
 30
0.0
 40
76.95638648087251
100
AcDbArc
 50
162.4452231019
 51
176.6738727462
  0
LINE
  5
19A
330
1F
100
AcDbEntity
  8
0
  6
Continuous
 62
     7
370
    15
100
AcDbLine
 10
365.9292438654
 20
279.9670266535
 30
0.0
 11
365.9292438654
 21
348.8659727003
 31
0.0
  0
LWPOLYLINE
  5
19B
330
1F
100
AcDbEntity
  8
0
  6
Continuous
 62
     7
370
    15
100
AcDbPolyline
 90
        3
 70
   128
 43
0.0
 10
366.4494136004
 20
347.0823931123
 10
366.3040080695
 20
347.6128148462
 10
365.9292438654
 20
348.8659727003
  0
LWPOLYLINE
  5
19C
330
1F
100
AcDbEntity
  8
0
  6
Continuous
 62
     7
370
    15
100
AcDbPolyline
 90
        4
 70
   128
 43
0.0
 10
348.5745617775
 20
302.6793467428
 10
348.7863668828
 20
309.5526265527
 10
349.0399250416
 20
316.1496537353
 10
349.2799529461
 20
320.8420144941
  0
LWPOLYLINE
  5
19D
330
1F
100
AcDbEntity
  8
0
  6
Continuous
 62
     7
370
    15
100
AcDbPolyline
 90
        6
 70
   128
 43
0.0
 10
349.2799529461
 20
320.8420144941
 10
350.1753786234
 20
322.8808658745
 10
351.8312552599
 20
324.5601224329
 10
354.0867099194
 20
325.7079737808
 10
356.6717037587
 20
326.1680620338
 10
357.0120760827
 20
326.1740672018
  0
ARC
  5
19E
330
1F
100
AcDbEntity
  8
0
  6
Continuous
 62
     7
370
    15
100
AcDbCircle
 10
357.6739741809
 20
324.4218147105
 30
0.0
 40
7.586643953359387
100
AcDbArc
 50
31.7767132753
 51
95.0051438267
  0
ARC
  5
19F
330
1F
100
AcDbEntity
  8
0
  6
Continuous
 62
     7
370
    15
100
AcDbCircle
 10
4.8245204153
 20
297.0215120751
 30
0.0
 40
360.6694649304608
100
AcDbArc
 50
0.8988377894
 51
4.9938122436
  0
ARC
  5
1A0
330
1F
100
AcDbEntity
  8
0
  6
Continuous
 62
     7
370
    15
100
AcDbCircle
 10
354.5850482017
 20
436.8355981683
 30
0.0
 40
88.69805961936878
100
AcDbArc
 50
273.507861199
 51
277.3480717677
  0
LWPOLYLINE
  5
1A1
330
1F
100
AcDbEntity
  8
0
  6
Continuous
 62
     7
370
    15
100
AcDbPolyline
 90
        8
 70
   128
 43
0.0
 10
364.1233721404
 20
328.4171240951
 10
363.9437833457
 20
333.0264555837
 10
363.5418692259
 20
337.1155875351
 10
362.8678301005
 20
340.5470120336
 10
361.630437675
 20
343.3970230247
 10
360.990373197
 20
344.2131149198
 10
360.1111748843
 20
344.9377434875
 10
360.0120821623
 20
344.9999707367
  0
LINE
  5
1A2
330
1F
100
AcDbEntity
  8
0
  6
Continuous
 62
     7
370
    15
100
AcDbLine
 10
336.5120717911
 20
236.2901809241
 30
0.0
 11
320.0120756058
 21
236.2901809241
 31
0.0
  0
LINE
  5
1A3
330
1F
100
AcDbEntity
  8
0
  6
Continuous
 62
     7
370
    15
100
AcDbLine
 10
349.2799529461
 20
320.8420144941
 30
0.0
 11
320.0120756058
 21
320.8420144941
 31
0.0
  0
LINE
  5
1A4
330
1F
100
AcDbEntity
  8
0
  6
Continuous
 62
     7
370
    15
100
AcDbLine
 10
320.0120756058
 20
238.3437472011
 30
0.0
 11
320.0120756058
 21
318.7884407665
 31
0.0
  0
LINE
  5
1A5
330
1F
100
AcDbEntity
  8
0
  6
Continuous
 62
     7
370
    15
100
AcDbLine
 10
357.0120760827
 20
225.4196348216
 30
0.0
 11
352.7938851742
 21
225.4196348216
 31
0.0
  0
LINE
  5
1A6
330
1F
100
AcDbEntity
  8
0
  6
Continuous
 62
     7
370
    15
100
AcDbLine
 10
357.0120760827
 20
214.813029262
 30
0.0
 11
357.0120760827
 21
225.4196348216
 31
0.0
  0
LINE
  5
1A7
330
1F
100
AcDbEntity
  8
0
  6
Continuous
 62
     7
370
    15
100
AcDbLine
 10
357.0120760827
 20
214.813029262
 30
0.0
 11
350.7063517003
 21
214.813029262
 31
0.0
  0
LINE
  5
1A8
330
1F
100
AcDbEntity
  8
0
  6
Continuous
 62
     7
370
    15
100
AcDbLine
 10
321.5120711951
 20
225.4196348216
 30
0.0
 11
320.0120756058
 21
225.4196348216
 31
0.0
  0
LINE
  5
1A9
330
1F
100
AcDbEntity
  8
0
  6
Continuous
 62
     7
370
    15
100
AcDbLine
 10
352.7938851742
 20
225.4196348216
 30
0.0
 11
354.0903010993
 21
228.7605794694
 31
0.0
  0
LINE
  5
1AA
330
1F
100
AcDbEntity
  8
0
  6
Continuous
 62
     7
370
    15
100
AcDbLine
 10
357.0120760827
 20
225.4196348216
 30
0.0
 11
357.0120760827
 21
228.3638584043
 31
0.0
  0
LINE
  5
1AB
330
1F
100
AcDbEntity
  8
0
  6
Continuous
 62
     7
370
    15
100
AcDbLine
 10
321.5120711951
 20
214.813029262
 30
0.0
 11
320.0120756058
 21
214.813029262
 31
0.0
  0
LINE
  5
1AC
330
1F
100
AcDbEntity
  8
0
  6
Continuous
 62
     7
370
    15
100
AcDbLine
 10
320.0120756058
 20
214.813029262
 30
0.0
 11
320.0120756058
 21
225.4196348216
 31
0.0
  0
LINE
  5
1AD
330
1F
100
AcDbEntity
  8
0
  6
Continuous
 62
     7
370
    15
100
AcDbLine
 10
357.0120760827
 20
326.1740672018
 30
0.0
 11
357.0120760827
 21
331.7125605966
 31
0.0
  0
LINE
  5
1AE
330
1F
100
AcDbEntity
  8
0
  6
Continuous
 62
     7
370
    15
100
AcDbLine
 10
357.0120760827
 20
331.7125605966
 30
0.0
 11
320.0120756058
 21
331.7125605966
 31
0.0
  0
LINE
  5
1AF
330
1F
100
AcDbEntity
  8
0
  6
Continuous
 62
     7
370
    15
100
AcDbLine
 10
357.0120760827
 20
331.7125605966
 30
0.0
 11
357.0120760827
 21
342.3191624309
 31
0.0
  0
LINE
  5
1B0
330
1F
100
AcDbEntity
  8
0
  6
Continuous
 62
     7
370
    15
100
AcDbLine
 10
357.0120760827
 20
342.3191624309
 30
0.0
 11
320.0120756058
 21
342.3191624309
 31
0.0
  0
LINE
  5
1B1
330
1F
100
AcDbEntity
  8
0
  6
Continuous
 62
     7
370
    15
100
AcDbLine
 10
320.0120756058
 20
331.7125605966
 30
0.0
 11
320.0120756058
 21
342.3191624309
 31
0.0
  0
LINE
  5
1B2
330
1F
100
AcDbEntity
  8
0
  6
Continuous
 62
     7
370
    15
100
AcDbLine
 10
286.5120747714
 20
192.5660947885
 30
0.0
 11
321.5120711951
 21
205.8922926511
 31
0.0
  0
LINE
  5
1B3
330
1F
100
AcDbEntity
  8
0
  6
Continuous
 62
     7
370
    15
100
AcDbLine
 10
286.5120747714
 20
192.5660947885
 30
0.0
 11
286.5120747714
 21
187.5660958316
 31
0.0
  0
LINE
  5
1B4
330
1F
100
AcDbEntity
  8
0
  6
Continuous
 62
     7
370
    15
100
AcDbLine
 10
357.0120760827
 20
390.5660974409
 30
0.0
 11
399.0699628024
 21
390.5660974409
 31
0.0
  0
LINE
  5
1B5
330
1F
100
AcDbEntity
  8
0
  6
Continuous
 62
     7
370
    15
100
AcDbLine
 10
399.0699628024
 20
406.5661000635
 30
0.0
 11
357.0120760827
 21
406.5661000635
 31
0.0
  0
LINE
  5
1B6
330
1F
100
AcDbEntity
  8
0
  6
Continuous
 62
     7
370
    15
100
AcDbLine
 10
314.9542042641
 20
390.5660974409
 30
0.0
 11
357.0120760827
 21
390.5660974409
 31
0.0
  0
LINE
  5
1B7
330
1F
100
AcDbEntity
  8
0
  6
Continuous
 62
     7
370
    15
100
AcDbLine
 10
357.0120760827
 20
406.5661000635
 30
0.0
 11
314.9542042641
 21
406.5661000635
 31
0.0
  0
LINE
  5
1B8
330
1F
100
AcDbEntity
  8
0
  6
Continuous
 62
     7
370
    15
100
AcDbLine
 10
303.0991533427
 20
390.5660974409
 30
0.0
 11
314.9542042641
 21
390.5660974409
 31
0.0
  0
LINE
  5
1B9
330
1F
100
AcDbEntity
  8
0
  6
Continuous
 62
     7
370
    15
100
AcDbLine
 10
314.9542042641
 20
406.5661000635
 30
0.0
 11
303.0991533427
 21
406.5661000635
 31
0.0
  0
LINE
  5
1BA
330
1F
100
AcDbEntity
  8
0
  6
Continuous
 62
     7
370
    15
100
AcDbLine
 10
399.0699628024
 20
390.5660974409
 30
0.0
 11
410.9249988226
 21
390.5660974409
 31
0.0
  0
LINE
  5
1BB
330
1F
100
AcDbEntity
  8
0
  6
Continuous
 62
     7
370
    15
100
AcDbLine
 10
410.9249988226
 20
406.5661000635
 30
0.0
 11
399.0699628024
 21
406.5661000635
 31
0.0
  0
ARC
  5
1BC
330
1F
100
AcDbEntity
  8
0
  6
Continuous
 62
     7
370
    15
100
AcDbCircle
 10
356.8256138946
 20
340.5188264376
 30
0.0
 40
5.291181305697386
100
AcDbArc
 50
122.1230471353
 51
160.1077607993
  0
ARC
  5
1BD
330
1F
100
AcDbEntity
  8
0
  6
Continuous
 62
     7
370
    15
100
AcDbCircle
 10
357.0120835332
 20
328.8931846133
 30
0.0
 40
16.35147419209427
100
AcDbArc
 50
79.4280794792
 51
100.5719205208
  0
LINE
  5
1BE
330
1F
100
AcDbEntity
  8
0
  6
Continuous
 62
     7
370
    15
100
AcDbLine
 10
395.0120785861
 20
252.7567016508
 30
0.0
 11
395.0120785861
 21
225.4429923918
 31
0.0
  0
LWPOLYLINE
  5
1BF
330
1F
100
AcDbEntity
  8
0
  6
Continuous
 62
     7
370
    15
100
AcDbPolyline
 90
        4
 70
   128
 43
0.0
 10
367.4453774123
 20
225.4989984061
 10
367.2653713851
 20
225.4859747912
 10
366.9220486311
 20
225.9327116038
 10
366.7673149733
 20
226.4677899505
  0
LINE
  5
1C0
330
1F
100
AcDbEntity
  8
0
  6
Continuous
 62
     7
370
    15
100
AcDbLine
 10
395.0120785861
 20
331.6891955759
 30
0.0
 11
395.0120785861
 21
304.3754863168
 31
0.0
  0
LINE
  5
1C1
330
1F
100
AcDbEntity
  8
0
  6
Continuous
 62
     7
370
    15
100
AcDbLine
 10
373.3410218386
 20
295.0934487011
 30
0.0
 11
395.0120785861
 21
295.0934487011
 31
0.0
  0
LINE
  5
1C2
330
1F
100
AcDbEntity
  8
0
  6
Continuous
 62
     7
370
    15
100
AcDbLine
 10
395.0120785861
 20
304.3754863168
 30
0.0
 11
395.0120785861
 21
295.0934487011
 31
0.0
  0
LINE
  5
1C3
330
1F
100
AcDbEntity
  8
0
  6
Continuous
 62
     7
370
    15
100
AcDbLine
 10
373.3410218386
 20
262.0387392666
 30
0.0
 11
395.0120785861
 21
262.0387392666
 31
0.0
  0
LINE
  5
1C4
330
1F
100
AcDbEntity
  8
0
  6
Continuous
 62
     7
370
    15
100
AcDbLine
 10
395.0120785861
 20
262.0387392666
 30
0.0
 11
395.0120785861
 21
252.7567016508
 31
0.0
  0
ARC
  5
1C5
330
1F
100
AcDbEntity
  8
0
  6
Continuous
 62
     7
370
    15
100
AcDbCircle
 10
550.8016380283
 20
163.0673845182
 30
0.0
 40
190.4760687183424
100
AcDbArc
 50
162.2800882186
 51
164.5060447044
  0
LINE
  5
1C6
330
1F
100
AcDbEntity
  8
0
  6
Continuous
 62
     7
370
    15
100
AcDbLine
 10
354.0120849041
 20
390.5660974409
 30
0.0
 11
354.0120849041
 21
344.9670987751
 31
0.0
  0
LINE
  5
1C7
330
1F
100
AcDbEntity
  8
0
  6
Continuous
 62
     7
370
    15
100
AcDbLine
 10
360.0120821623
 20
390.5660974409
 30
0.0
 11
360.0120821623
 21
344.9670987751
 31
0.0
  0
LINE
  5
1C8
330
1F
100
AcDbEntity
  8
0
  6
Continuous
 62
     7
370
    15
100
AcDbLine
 10
320.0120756058
 20
208.0660963978
 30
0.0
 11
320.0120756058
 21
214.813029262
 31
0.0
  0
LINE
  5
1C9
330
1F
100
AcDbEntity
  8
0
  6
Continuous
 62
     7
370
    15
100
AcDbLine
 10
346.8827733426
 20
349.0022438194
 30
0.0
 11
331.0089835553
 21
349.0022438194
 31
0.0
  0
ARC
  5
1CA
330
1F
100
AcDbEntity
  8
0
  6
Continuous
 62
     7
370
    15
100
AcDbCircle
 10
364.053010643
 20
487.5183889494
 30
0.0
 40
139.5762856312698
100
AcDbArc
 50
262.9337532931
 51
265.8746570865
  0
LINE
  5
1CB
330
1F
100
AcDbEntity
  8
0
  6
Continuous
 62
     7
370
    15
100
AcDbLine
 10
320.0120756058
 20
342.3191624309
 30
0.0
 11
320.0120756058
 21
349.0660952951
 31
0.0
  0
LINE
  5
1CC
330
1F
100
AcDbEntity
  8
0
  6
Continuous
 62
     7
370
    15
100
AcDbLine
 10
297.0120736985
 20
390.5660974409
 30
0.0
 11
297.0120736985
 21
406.5661000635
 31
0.0
  0
LINE
  5
1CD
330
1F
100
AcDbEntity
  8
0
  6
Continuous
 62
     7
370
    15
100
AcDbLine
 10
297.0120736985
 20
390.5660974409
 30
0.0
 11
303.0991533427
 21
390.5660974409
 31
0.0
  0
LINE
  5
1CE
330
1F
100
AcDbEntity
  8
0
  6
Continuous
 62
     7
370
    15
100
AcDbLine
 10
303.0991533427
 20
406.5661000635
 30
0.0
 11
297.0120736985
 21
406.5661000635
 31
0.0
  0
LINE
  5
1CF
330
1F
100
AcDbEntity
  8
0
  6
Continuous
 62
     7
370
    15
100
AcDbLine
 10
417.0120635657
 20
403.5660939838
 30
0.0
 11
417.0120635657
 21
406.5661000635
 31
0.0
  0
ARC
  5
1D0
330
1F
100
AcDbEntity
  8
0
  6
Continuous
 62
     7
370
    15
100
AcDbCircle
 10
551.5057534431
 20
389.1561687364
 30
0.0
 40
135.2634413375849
100
AcDbArc
 50
173.8845440071
 51
179.4027622962
  0
LINE
  5
1D1
330
1F
100
AcDbEntity
  8
0
  6
Continuous
 62
     7
370
    15
100
AcDbLine
 10
410.9249988226
 20
390.5660974409
 30
0.0
 11
416.2496605544
 21
390.5660974409
 31
0.0
  0
LINE
  5
1D2
330
1F
100
AcDbEntity
  8
0
  6
Continuous
 62
     7
370
    15
100
AcDbLine
 10
417.0120635657
 20
406.5661000635
 30
0.0
 11
410.9249988226
 21
406.5661000635
 31
0.0
  0
LWPOLYLINE
  5
1D3
330
1F
100
AcDbEntity
  8
0
  6
Continuous
 62
     7
370
    15
100
AcDbPolyline
 90
        7
 70
   128
 43
0.0
 10
372.9982653288
 20
364.8341613437
 10
372.4589327006
 20
362.9645871546
 10
370.9017613558
 20
360.904918852
 10
368.4944489626
 20
359.0222614433
 10
366.0882690577
 20
357.7401953365
 10
363.2467368273
 20
356.6884117748
 10
360.0120821623
 20
355.9826480772
  0
LWPOLYLINE
  5
1D4
330
1F
100
AcDbEntity
  8
0
  6
Continuous
 62
     7
370
    15
100
AcDbPolyline
 90
       11
 70
   128
 43
0.0
 10
374.1381445555
 20
373.5712336923
 10
373.9321807055
 20
373.700441661
 10
372.9764202265
 20
374.6919053222
 10
372.0283189444
 20
375.8396225597
 10
370.9159472613
 20
377.356262746
 10
369.7810748248
 20
379.1580217506
 10
368.7126615672
 20
381.3097643282
 10
367.83084065
 20
384.3996840145
 10
367.7199462084
 20
386.0734420444
 10
367.8947666316
 20
387.8440576221
 10
368.7106350092
 20
390.5660974409
  0
LWPOLYLINE
  5
1D5
330
1F
100
AcDbEntity
  8
0
  6
Continuous
 62
     7
370
    15
100
AcDbPolyline
 90
        4
 70
   128
 43
0.0
 10
338.0451777606
 20
390.5660974409
 10
339.3909314303
 20
380.4555999662
 10
340.6297692685
 20
371.2884950067
 10
342.0639762311
 20
362.147526684
  0
LWPOLYLINE
  5
1D6
330
1F
100
AcDbEntity
  8
0
  6
Continuous
 62
     7
370
    15
100
AcDbPolyline
 90
        6
 70
   128
 43
0.0
 10
354.0120849041
 20
355.9827076818
 10
350.7774302392
 20
356.6885011818
 10
347.9358682065
 20
357.7402102377
 10
345.529733005
 20
359.0222912456
 10
343.5266444115
 20
360.5225997593
 10
342.0639762311
 20
362.147526684
  0
LINE
  5
1D7
330
1F
100
AcDbEntity
  8
0
  6
Continuous
 62
     7
370
    15
100
AcDbLine
 10
417.0120635657
 20
403.5660939838
 30
0.0
 11
417.0120635657
 21
373.5660927917
 31
0.0
  0
LINE
  5
1D8
330
1F
100
AcDbEntity
  8
0
  6
Continuous
 62
     7
370
    15
100
AcDbLine
 10
370.3704455523
 20
334.7392397548
 30
0.0
 11
371.0322061209
 21
331.6920118953
 31
0.0
  0
LINE
  5
1D9
330
1F
100
AcDbEntity
  8
0
  6
Continuous
 62
     7
370
    15
100
AcDbLine
 10
370.7013109355
 20
333.5180746938
 30
0.0
 11
370.3704455523
 21
334.7392397548
 31
0.0
  0
LINE
  5
1DA
330
1F
100
AcDbEntity
  8
0
  6
Continuous
 62
     7
370
    15
100
AcDbLine
 10
370.7013109355
 20
334.8160999443
 30
0.0
 11
370.7013109355
 21
333.5180746938
 31
0.0
  0
LINE
  5
1DB
330
1F
100
AcDbEntity
  8
0
  6
Continuous
 62
     7
370
    15
100
AcDbLine
 10
370.3704455523
 20
336.0522257711
 30
0.0
 11
370.7013109355
 21
334.8160999443
 31
0.0
  0
LINE
  5
1DC
330
1F
100
AcDbEntity
  8
0
  6
Continuous
 62
     7
370
    15
100
AcDbLine
 10
371.3630715041
 20
332.3160278227
 30
0.0
 11
371.5273419051
 21
331.6891955759
 31
0.0
  0
LINE
  5
1DD
330
1F
100
AcDbEntity
  8
0
  6
Continuous
 62
     7
370
    15
100
AcDbLine
 10
371.3630715041
 20
331.6891955759
 30
0.0
 11
371.3630715041
 21
332.3160278227
 31
0.0
  0
LINE
  5
1DE
330
1F
100
AcDbEntity
  8
0
  6
Continuous
 62
     7
370
    15
100
AcDbLine
 10
370.3704455523
 20
334.7392397548
 30
0.0
 11
369.3704286246
 21
334.7392397548
 31
0.0
  0
LINE
  5
1DF
330
1F
100
AcDbEntity
  8
0
  6
Continuous
 62
     7
370
    15
100
AcDbLine
 10
371.0322061209
 20
331.6920118953
 30
0.0
 11
370.0321891932
 21
331.6920118953
 31
0.0
  0
ARC
  5
1E0
330
1F
100
AcDbEntity
  8
0
  6
Continuous
 62
     7
370
    15
100
AcDbCircle
 10
372.358662283
 20
365.7970724975
 30
0.0
 40
30.51372130096813
100
AcDbArc
 50
186.8692161174
 51
213.3946309595
  0
LINE
  5
1E1
330
1F
100
AcDbEntity
  8
0
  6
Continuous
 62
     7
370
    15
100
AcDbLine
 10
370.7013109355
 20
334.8160999443
 30
0.0
 11
369.7013238101
 21
334.8160999443
 31
0.0
  0
LINE
  5
1E2
330
1F
100
AcDbEntity
  8
0
  6
Continuous
 62
     7
370
    15
100
AcDbLine
 10
379.0120759635
 20
221.066096666
 30
0.0
 11
379.0120759635
 21
197.0660964574
 31
0.0
  0
LINE
  5
1E3
330
1F
100
AcDbEntity
  8
0
  6
Continuous
 62
     7
370
    15
100
AcDbLine
 10
307.0120790629
 20
390.5660974409
 30
0.0
 11
331.0089835553
 21
349.0022438194
 31
0.0
  0
LINE
  5
1E4
330
1F
100
AcDbEntity
  8
0
  6
Continuous
 62
     7
370
    15
100
AcDbLine
 10
370.3704455523
 20
336.0522257711
 30
0.0
 11
369.3740943102
 21
336.0522257711
 31
0.0
  0
LINE
  5
1E5
330
1F
100
AcDbEntity
  8
0
  6
Continuous
 62
     7
370
    15
100
AcDbLine
 10
286.5120747714
 20
187.5660958316
 30
0.0
 11
286.5120747714
 21
188.5660978581
 31
0.0
  0
LINE
  5
1E6
330
1F
100
AcDbEntity
  8
0
  6
Continuous
 62
     7
370
    15
100
AcDbLine
 10
378.0120888381
 20
156.5660961054
 30
0.0
 11
378.0120888381
 21
154.5660960104
 31
0.0
  0
LINE
  5
1E7
330
1F
100
AcDbEntity
  8
0
  6
Continuous
 62
     7
370
    15
100
AcDbLine
 10
355.0120720295
 20
156.5660961054
 30
0.0
 11
378.0120888381
 21
156.5660961054
 31
0.0
  0
LINE
  5
1E8
330
1F
100
AcDbEntity
  8
0
  6
Continuous
 62
     7
370
    15
100
AcDbLine
 10
378.0120888381
 20
154.5660960104
 30
0.0
 11
355.0120720295
 21
154.5660960104
 31
0.0
  0
LINE
  5
1E9
330
1F
100
AcDbEntity
  8
0
  6
Continuous
 62
     7
370
    15
100
AcDbLine
 10
131.0120781539
 20
156.5660961054
 30
0.0
 11
197.9625725774
 21
156.5660961054
 31
0.0
  0
LINE
  5
1EA
330
1F
100
AcDbEntity
  8
0
  6
Continuous
 62
     7
370
    15
100
AcDbLine
 10
208.0604860215
 20
156.5660961054
 30
0.0
 11
355.0120720295
 21
156.5660961054
 31
0.0
  0
LINE
  5
1EB
330
1F
100
AcDbEntity
  8
0
  6
Continuous
 62
     7
370
    15
100
AcDbLine
 10
131.0120781539
 20
154.5660960104
 30
0.0
 11
197.9621478943
 21
154.5660960104
 31
0.0
  0
LINE
  5
1EC
330
1F
100
AcDbEntity
  8
0
  6
Continuous
 62
     7
370
    15
100
AcDbLine
 10
208.0613502888
 20
154.5660960104
 30
0.0
 11
355.0120720295
 21
154.5660960104
 31
0.0
  0
LINE
  5
1ED
330
1F
100
AcDbEntity
  8
0
  6
Continuous
 62
     7
370
    15
100
AcDbLine
 10
108.0120781092
 20
154.5660960104
 30
0.0
 11
108.0120781092
 21
156.5660961054
 31
0.0
  0
LINE
  5
1EE
330
1F
100
AcDbEntity
  8
0
  6
Continuous
 62
     7
370
    15
100
AcDbLine
 10
108.0120781092
 20
156.5660961054
 30
0.0
 11
131.0120781539
 21
156.5660961054
 31
0.0
  0
LINE
  5
1EF
330
1F
100
AcDbEntity
  8
0
  6
Continuous
 62
     7
370
    15
100
AcDbLine
 10
131.0120781539
 20
154.5660960104
 30
0.0
 11
108.0120781092
 21
154.5660960104
 31
0.0
  0
ARC
  5
1F0
330
1F
100
AcDbEntity
  8
0
  6
Continuous
 62
     7
370
    15
100
AcDbCircle
 10
109.0120781092
 20
158.5660960104
 30
0.0
 40
2.0
100
AcDbArc
 50
270.0
 51
0.0
  0
ARC
  5
1F1
330
1F
100
AcDbEntity
  8
0
  6
Continuous
 62
     7
370
    15
100
AcDbCircle
 10
377.0120781092
 20
158.5660960104
 30
0.0
 40
2.0
100
AcDbArc
 50
180.0
 51
270.0
  0
LINE
  5
1F2
330
1F
100
AcDbEntity
  8
0
  6
Continuous
 62
     7
370
    15
100
AcDbLine
 10
111.0120781353
 20
158.5660962004
 30
0.0
 11
111.0120781353
 21
169.5660956751
 31
0.0
  0
LINE
  5
1F3
330
1F
100
AcDbEntity
  8
0
  6
Continuous
 62
     7
370
    15
100
AcDbLine
 10
355.0120720295
 20
174.5660955633
 30
0.0
 11
370.0120726256
 21
174.5660955633
 31
0.0
  0
ARC
  5
1F4
330
1F
100
AcDbEntity
  8
0
  6
Continuous
 62
     7
370
    15
100
AcDbCircle
 10
370.0120781092
 20
169.5660960104
 30
0.0
 40
5.0
100
AcDbArc
 50
0.0
 51
90.0
  0
LINE
  5
1F5
330
1F
100
AcDbEntity
  8
0
  6
Continuous
 62
     7
370
    15
100
AcDbLine
 10
116.0120784892
 20
174.5660955633
 30
0.0
 11
131.0120781539
 21
174.5660955633
 31
0.0
  0
ARC
  5
1F6
330
1F
100
AcDbEntity
  8
0
  6
Continuous
 62
     7
370
    15
100
AcDbCircle
 10
116.0120781092
 20
169.5660960104
 30
0.0
 40
5.000000000000014
100
AcDbArc
 50
90.0
 51
180.0
  0
LINE
  5
1F7
330
1F
100
AcDbEntity
  8
0
  6
Continuous
 62
     7
370
    15
100
AcDbLine
 10
375.0120678572
 20
169.5660956751
 30
0.0
 11
375.0120678572
 21
158.5660962004
 31
0.0
  0
LINE
  5
1F8
330
1F
100
AcDbEntity
  8
0
  6
Continuous
 62
     7
370
    15
100
AcDbLine
 10
131.0120781539
 20
174.5660955633
 30
0.0
 11
197.9631239204
 21
174.5660955633
 31
0.0
  0
LINE
  5
1F9
330
1F
100
AcDbEntity
  8
0
  6
Continuous
 62
     7
370
    15
100
AcDbLine
 10
208.0610299139
 20
174.5660955633
 30
0.0
 11
355.0120720295
 21
174.5660955633
 31
0.0
  0
LINE
  5
1FA
330
1F
100
AcDbEntity
  8
0
  6
Continuous
 62
     7
370
    15
100
AcDbLine
 10
191.0120749502
 20
190.0660971727
 30
0.0
 11
191.0120749502
 21
175.1660964067
 31
0.0
  0
ARC
  5
1FB
330
1F
100
AcDbEntity
  8
0
  6
Continuous
 62
     7
370
    15
100
AcDbCircle
 10
203.0120781092
 20
190.0660960104
 30
0.0
 40
12.0
100
AcDbArc
 50
0.0
 51
180.0
  0
LINE
  5
1FC
330
1F
100
AcDbEntity
  8
0
  6
Continuous
 62
     7
370
    15
100
AcDbLine
 10
215.0120788841
 20
190.0660971727
 30
0.0
 11
215.0120788841
 21
175.1660964067
 31
0.0
  0
LINE
  5
1FD
330
1F
100
AcDbEntity
  8
0
  6
Continuous
 62
     7
370
    15
100
AcDbLine
 10
132.0120783178
 20
203.5660947289
 30
0.0
 11
135.2120784698
 21
203.5660947289
 31
0.0
  0
LINE
  5
1FE
330
1F
100
AcDbEntity
  8
0
  6
Continuous
 62
     7
370
    15
100
AcDbLine
 10
135.2120784698
 20
177.7660957153
 30
0.0
 11
148.0120772151
 21
177.7660957153
 31
0.0
  0
LINE
  5
1FF
330
1F
100
AcDbEntity
  8
0
  6
Continuous
 62
     7
370
    15
100
AcDbLine
 10
135.2120784698
 20
203.5660947289
 30
0.0
 11
135.2120784698
 21
177.7660957153
 31
0.0
  0
LINE
  5
200
330
1F
100
AcDbEntity
  8
0
  6
Continuous
 62
     7
370
    15
100
AcDbLine
 10
132.0120783178
 20
174.5660955633
 30
0.0
 11
132.0120783178
 21
187.8962236072
 31
0.0
  0
LINE
  5
201
330
1F
100
AcDbEntity
  8
SLD-0
370
     0
100
AcDbLine
 10
128.0120781092
 20
176.7805043814
 30
0.0
 11
128.0120781092
 21
149.969441386
 31
0.0
  0
LINE
  5
202
330
1F
100
AcDbEntity
  8
SLD-0
370
     0
100
AcDbLine
 10
358.0120781092
 20
176.7805043814
 30
0.0
 11
358.0120781092
 21
149.969441386
 31
0.0
  0
LINE
  5
203
330
1F
100
AcDbEntity
  8
SLD-0
  6
CENTERX2
370
     0
100
AcDbLine
 10
252.0120781092
 20
170.5660960104
 30
0.0
 11
252.0120781092
 21
176.5660960104
 31
0.0
  0
LINE
  5
204
330
1F
100
AcDbEntity
  8
SLD-0
  6
CENTERX2
370
     0
100
AcDbLine
 10
357.0120781092
 20
188.4155437316
 30
0.0
 11
357.0120781092
 21
448.0825631417
 31
0.0
  0
LINE
  5
205
330
1F
100
AcDbEntity
  8
SLD-0
  6
CENTERX2
370
     0
100
AcDbLine
 10
58.5240093689
 20
278.5660960104
 30
0.0
 11
433.82399836
 21
278.5660960104
 31
0.0
  0
LINE
  5
206
330
1F
100
AcDbEntity
  8
0
  6
Continuous
 62
     7
370
    15
100
AcDbLine
 10
531.9062555572
 20
201.566094401
 30
0.0
 11
531.4311618348
 21
201.566094401
 31
0.0
  0
LINE
  5
207
330
1F
100
AcDbEntity
  8
0
  6
Continuous
 62
     7
370
    15
100
AcDbLine
 10
531.4311618348
 20
200.8160966064
 30
0.0
 11
531.4302379628
 21
200.7416168775
 31
0.0
  0
LWPOLYLINE
  5
208
330
1F
100
AcDbEntity
  8
0
  6
Continuous
 62
     7
370
    15
100
AcDbPolyline
 90
        3
 70
   128
 43
0.0
 10
529.4311652323
 20
197.9876699473
 10
529.016436114
 20
197.8737393941
 10
528.4311632057
 20
197.816094252
  0
LINE
  5
209
330
1F
100
AcDbEntity
  8
0
  6
Continuous
 62
     7
370
    15
100
AcDbLine
 10
528.4311632057
 20
197.816094252
 30
0.0
 11
527.4311611792
 21
197.816094252
 31
0.0
  0
ARC
  5
20A
330
1F
100
AcDbEntity
  8
0
  6
Continuous
 62
     7
370
    15
100
AcDbCircle
 10
527.4311634442
 20
196.8160960104
 30
0.0
 40
1.000000000000028
100
AcDbArc
 50
90.0
 51
180.0
  0
LWPOLYLINE
  5
20B
330
1F
100
AcDbEntity
  8
0
  6
Continuous
 62
     7
370
    15
100
AcDbPolyline
 90
       21
 70
   128
 43
0.0
 10
521.431163921
 20
196.6169084038
 10
517.2945419689
 20
196.2501982774
 10
513.7530872961
 20
195.426171514
 10
510.8312527081
 20
194.2625547375
 10
508.5082063814
 20
193.0210682179
 10
506.7165205618
 20
191.8374056544
 10
505.2593434592
 20
190.6965392257
 10
503.5773078343
 20
189.1360709991
 10
502.1086270353
 20
187.5067035283
 10
500.4090527436
 20
185.1891315158
 10
498.7832541009
 20
182.2680885519
 10
497.5767666837
 20
179.2116219725
 10
496.8177536865
 20
176.1968153145
 10
496.4675838491
 20
173.3970622148
 10
496.3648775955
 20
170.8615867968
 10
496.3641846915
 20
169.2351520609
 10
496.3879743954
 20
167.0319874387
 10
496.3972205659
 20
164.1942652489
 10
496.385351791
 20
160.7338444877
 10
496.3779310127
 20
156.5431927878
 10
496.3805983206
 20
151.5660959843
  0
LWPOLYLINE
  5
20C
330
1F
100
AcDbEntity
  8
0
  6
Continuous
 62
     7
370
    15
100
AcDbPolyline
 90
       18
 70
   128
 43
0.0
 10
506.4817304155
 20
151.5660959843
 10
506.4774016281
 20
157.7693522989
 10
506.489128842
 20
162.7168169792
 10
506.4881602665
 20
166.2727779325
 10
506.4699510475
 20
168.9441240008
 10
506.5029347678
 20
171.8080731656
 10
506.8063745638
 20
174.6637447353
 10
507.363223507
 20
176.6576635267
 10
508.2386071225
 20
178.5928549792
 10
509.4666788717
 20
180.5292590137
 10
510.9308818718
 20
182.2109034832
 10
512.0746652027
 20
183.2269149448
 10
512.6225883504
 20
183.644568416
 10
513.5194221874
 20
184.2480766203
 10
514.8145268103
 20
184.9704439368
 10
516.5517786881
 20
185.7052406843
 10
518.7601754805
 20
186.2663867499
 10
520.4311618944
 20
186.4221001591
  0
LINE
  5
20D
330
1F
100
AcDbEntity
  8
0
  6
Continuous
 62
     7
370
    15
100
AcDbLine
 10
526.4311666032
 20
196.6160962905
 30
0.0
 11
521.4188108584
 21
196.6160962905
 31
0.0
  0
LINE
  5
20E
330
1F
100
AcDbEntity
  8
0
  6
Continuous
 62
     7
370
    15
100
AcDbLine
 10
651.9311638912
 20
410.5661081697
 30
0.0
 11
651.9311638912
 21
412.5660824205
 31
0.0
  0
LINE
  5
20F
330
1F
100
AcDbEntity
  8
0
  6
Continuous
 62
     7
370
    15
100
AcDbLine
 10
566.9311629971
 20
412.5660824205
 30
0.0
 11
566.9311629971
 21
410.5661081697
 31
0.0
  0
LINE
  5
210
330
1F
100
AcDbEntity
  8
0
  6
Continuous
 62
     7
370
    15
100
AcDbLine
 10
641.9311622521
 20
428.5660850431
 30
0.0
 11
641.9311622521
 21
435.5660843279
 31
0.0
  0
LINE
  5
211
330
1F
100
AcDbEntity
  8
0
  6
Continuous
 62
     7
370
    15
100
AcDbLine
 10
576.9311646363
 20
435.5660843279
 30
0.0
 11
576.9311646363
 21
428.5660850431
 31
0.0
  0
LINE
  5
212
330
1F
100
AcDbEntity
  8
0
  6
Continuous
 62
     7
370
    15
100
AcDbLine
 10
654.4311652323
 20
408.5661041166
 30
0.0
 11
654.4311652323
 21
410.5661081697
 31
0.0
  0
LINE
  5
213
330
1F
100
AcDbEntity
  8
0
  6
Continuous
 62
     7
370
    15
100
AcDbLine
 10
564.431161656
 20
410.5661081697
 30
0.0
 11
564.431161656
 21
408.5661041166
 31
0.0
  0
LINE
  5
214
330
1F
100
AcDbEntity
  8
0
  6
Continuous
 62
     7
370
    15
100
AcDbLine
 10
566.9311629971
 20
408.5661041166
 30
0.0
 11
566.9311629971
 21
406.5661000635
 31
0.0
  0
LINE
  5
215
330
1F
100
AcDbEntity
  8
0
  6
Continuous
 62
     7
370
    15
100
AcDbLine
 10
651.9311638912
 20
406.5661000635
 30
0.0
 11
651.9311638912
 21
408.5661041166
 31
0.0
  0
LINE
  5
216
330
1F
100
AcDbEntity
  8
0
  6
Continuous
 62
     7
370
    15
100
AcDbLine
 10
661.8400523802
 20
352.6719229843
 30
0.0
 11
661.0549958786
 21
349.7420566704
 31
0.0
  0
LINE
  5
217
330
1F
100
AcDbEntity
  8
0
  6
Continuous
 62
     7
370
    15
100
AcDbLine
 10
680.1099190851
 20
328.127117696
 30
0.0
 11
685.0222731372
 21
346.4602696325
 31
0.0
  0
ARC
  5
218
330
1F
100
AcDbEntity
  8
0
  6
Continuous
 62
     7
370
    15
100
AcDbCircle
 10
607.4212910528
 20
287.2817198005
 30
0.0
 40
82.30717277991509
100
AcDbArc
 50
49.3445165902
 51
65.7267334193
  0
LWPOLYLINE
  5
219
330
1F
100
AcDbEntity
  8
0
  6
Continuous
 62
     7
370
    15
100
AcDbPolyline
 90
       33
 70
   128
 43
0.0
 10
558.989924415
 20
216.2311392452
 10
563.1783726057
 20
212.8137739922
 10
569.3316245815
 20
208.5611763026
 10
575.9119512876
 20
204.8415521707
 10
582.8566337367
 20
201.7083632375
 10
590.0990171721
 20
199.2166506674
 10
597.5932525834
 20
197.4090243305
 10
605.3021811312
 20
196.3192800607
 10
613.1517261164
 20
195.9789524402
 10
621.0971745094
 20
196.4072490658
 10
629.0687686195
 20
197.6155208971
 10
636.9677363327
 20
199.6092068578
 10
644.6911553284
 20
202.3933733429
 10
652.1330001196
 20
205.9702778782
 10
659.0019399663
 20
210.1711089339
 10
665.1182035347
 20
214.7611285176
 10
670.4909587642
 20
219.5997777011
 10
675.142512693
 20
224.5671393897
 10
679.1346753379
 20
229.5923771884
 10
682.7875757953
 20
235.031196716
 10
686.1359412214
 20
241.0331460263
 10
689.0939036747
 20
247.6096245076
 10
691.5325308582
 20
254.6465190675
 10
693.3318907758
 20
261.9038018014
 10
694.4681415697
 20
269.3336697842
 10
694.9195424458
 20
276.8945785786
 10
694.6719000479
 20
284.5444249536
 10
693.7952349325
 20
292.0987772371
 10
692.3263455173
 20
299.4907068636
 10
689.0517408391
 20
310.2214800741
 10
684.5392519971
 20
320.4487430479
 10
680.8813522001
 20
326.9194828893
 10
680.064142718
 20
328.1346427824
  0
ARC
  5
21A
330
1F
100
AcDbEntity
  8
0
  6
Continuous
 62
     7
370
    15
100
AcDbCircle
 10
612.4458075931
 20
277.9769095081
 30
0.0
 40
81.5498442438728
100
AcDbArc
 50
160.5365038009
 51
217.2000052475
  0
ARC
  5
21B
330
1F
100
AcDbEntity
  8
0
  6
Continuous
 62
     7
370
    15
100
AcDbCircle
 10
593.8248267168
 20
281.6969315848
 30
0.0
 40
62.81138079477363
100
AcDbArc
 50
135.2788000354
 51
158.0754038519
  0
ARC
  5
21C
330
1F
100
AcDbEntity
  8
0
  6
Continuous
 62
     7
370
    15
100
AcDbCircle
 10
602.0873389052
 20
268.7625994079
 30
0.0
 40
78.23344908882055
100
AcDbArc
 50
102.1881368892
 51
118.8934646103
  0
LINE
  5
21D
330
1F
100
AcDbEntity
  8
0
  6
Continuous
 62
     7
370
    15
100
AcDbLine
 10
531.4311618348
 20
200.7432187523
 30
0.0
 11
531.4311618348
 21
201.566094401
 31
0.0
  0
LINE
  5
21E
330
1F
100
AcDbEntity
  8
0
  6
Continuous
 62
     7
370
    15
100
AcDbLine
 10
526.4311666032
 20
192.082965615
 30
0.0
 11
526.4311666032
 21
196.8160959508
 31
0.0
  0
LINE
  5
21F
330
1F
100
AcDbEntity
  8
0
  6
Continuous
 62
     7
370
    15
100
AcDbLine
 10
501.4311606427
 20
151.5660959843
 30
0.0
 11
506.4804265639
 21
151.5660959843
 31
0.0
  0
LINE
  5
220
330
1F
100
AcDbEntity
  8
0
  6
Continuous
 62
     7
370
    15
100
AcDbLine
 10
501.4311606427
 20
151.5660959843
 30
0.0
 11
496.3811645647
 21
151.5660959843
 31
0.0
  0
LINE
  5
221
330
1F
100
AcDbEntity
  8
0
  6
Continuous
 62
     7
370
    15
100
AcDbLine
 10
521.431163921
 20
191.5660964872
 30
0.0
 11
521.431163921
 21
196.6153661336
 31
0.0
  0
LINE
  5
222
330
1F
100
AcDbEntity
  8
0
  6
Continuous
 62
     7
370
    15
100
AcDbLine
 10
521.431163921
 20
187.5660958316
 30
0.0
 11
521.431163921
 21
191.5660964872
 31
0.0
  0
LWPOLYLINE
  5
223
330
1F
100
AcDbEntity
  8
0
  6
Continuous
 62
     7
370
    15
100
AcDbPolyline
 90
        5
 70
   128
 43
0.0
 10
602.0699474392
 20
213.3160958614
 10
603.2191659687
 20
213.9795961406
 10
605.0435821889
 20
215.0329256977
 10
606.9312850376
 20
216.1227891769
 10
609.4311634442
 20
217.5660970237
  0
LWPOLYLINE
  5
224
330
1F
100
AcDbEntity
  8
0
  6
Continuous
 62
     7
370
    15
100
AcDbPolyline
 90
        4
 70
   128
 43
0.0
 10
609.4311634442
 20
217.5660970237
 10
612.8745135283
 20
215.5780772294
 10
614.8301265565
 20
214.4490013446
 10
616.7923794491
 20
213.3160958614
  0
LINE
  5
225
330
1F
100
AcDbEntity
  8
0
  6
Continuous
 62
     7
370
    15
100
AcDbLine
 10
616.7923794491
 20
213.3160958614
 30
0.0
 11
616.7923794491
 21
210.3160972323
 31
0.0
  0
LINE
  5
226
330
1F
100
AcDbEntity
  8
0
  6
Continuous
 62
     7
370
    15
100
AcDbLine
 10
616.6842384627
 20
210.3160972323
 30
0.0
 11
616.7923794491
 21
210.3160972323
 31
0.0
  0
ARC
  5
227
330
1F
100
AcDbEntity
  8
0
  6
Continuous
 62
     7
370
    15
100
AcDbCircle
 10
609.4311634442
 20
209.0660960104
 30
0.0
 40
7.360000000000035
100
AcDbArc
 50
9.778339503
 51
170.221660497
  0
LINE
  5
228
330
1F
100
AcDbEntity
  8
0
  6
Continuous
 62
     7
370
    15
100
AcDbLine
 10
602.0699474392
 20
210.3160972323
 30
0.0
 11
602.1780884256
 21
210.3160972323
 31
0.0
  0
LINE
  5
229
330
1F
100
AcDbEntity
  8
0
  6
Continuous
 62
     7
370
    15
100
AcDbLine
 10
602.0699474392
 20
210.3160972323
 30
0.0
 11
602.0699474392
 21
213.3160958614
 31
0.0
  0
LINE
  5
22A
330
1F
100
AcDbEntity
  8
0
  6
Continuous
 62
     7
370
    15
100
AcDbLine
 10
616.6842384627
 20
210.3160972323
 30
0.0
 11
602.1780884256
 21
210.3160972323
 31
0.0
  0
ARC
  5
22B
330
1F
100
AcDbEntity
  8
0
  6
Continuous
 62
     7
370
    15
100
AcDbCircle
 10
609.4311634442
 20
209.0660960104
 30
0.0
 40
7.360000000000035
100
AcDbArc
 50
189.778339503
 51
350.221660497
  0
LINE
  5
22C
330
1F
100
AcDbEntity
  8
0
  6
Continuous
 62
     7
370
    15
100
AcDbLine
 10
602.1780884256
 20
207.8160958912
 30
0.0
 11
616.6842384627
 21
207.8160958912
 31
0.0
  0
LWPOLYLINE
  5
22D
330
1F
100
AcDbEntity
  8
0
  6
Continuous
 62
     7
370
    15
100
AcDbPolyline
 90
        5
 70
   128
 43
0.0
 10
616.7923794491
 20
204.8160972621
 10
614.2924018567
 20
203.3727335359
 10
612.4522525714
 20
202.310321721
 10
610.5802607853
 20
201.2295293237
 10
609.4311634442
 20
200.5660960998
  0
LWPOLYLINE
  5
22E
330
1F
100
AcDbEntity
  8
0
  6
Continuous
 62
     7
370
    15
100
AcDbPolyline
 90
        4
 70
   128
 43
0.0
 10
609.4311634442
 20
200.5660960998
 10
607.5159277897
 20
201.6718591179
 10
605.515574607
 20
202.8267624404
 10
602.0699474392
 20
204.8160972621
  0
LINE
  5
22F
330
1F
100
AcDbEntity
  8
0
  6
Continuous
 62
     7
370
    15
100
AcDbLine
 10
602.0699474392
 20
204.8160972621
 30
0.0
 11
602.0699474392
 21
207.8160958912
 31
0.0
  0
LINE
  5
230
330
1F
100
AcDbEntity
  8
0
  6
Continuous
 62
     7
370
    15
100
AcDbLine
 10
616.7923794491
 20
207.8160958912
 30
0.0
 11
616.7923794491
 21
204.8160972621
 31
0.0
  0
LINE
  5
231
330
1F
100
AcDbEntity
  8
0
  6
Continuous
 62
     7
370
    15
100
AcDbLine
 10
616.7923794491
 20
207.8160958912
 30
0.0
 11
616.6842384627
 21
207.8160958912
 31
0.0
  0
LINE
  5
232
330
1F
100
AcDbEntity
  8
0
  6
Continuous
 62
     7
370
    15
100
AcDbLine
 10
602.1780884256
 20
207.8160958912
 30
0.0
 11
602.0699474392
 21
207.8160958912
 31
0.0
  0
LINE
  5
233
330
1F
100
AcDbEntity
  8
0
  6
Continuous
 62
     7
370
    15
100
AcDbLine
 10
616.7923794491
 20
207.8160958912
 30
0.0
 11
616.7923794491
 21
210.3160972323
 31
0.0
  0
LINE
  5
234
330
1F
100
AcDbEntity
  8
0
  6
Continuous
 62
     7
370
    15
100
AcDbLine
 10
602.0699474392
 20
210.3160972323
 30
0.0
 11
602.0699474392
 21
207.8160958912
 31
0.0
  0
ARC
  5
235
330
1F
100
AcDbEntity
  8
0
  6
Continuous
 62
     7
370
    15
100
AcDbCircle
 10
609.4311634442
 20
388.5660960104
 30
0.0
 40
8.11081250000001
100
AcDbArc
 50
132.2895985257
 51
137.7104014743
  0
ARC
  5
236
330
1F
100
AcDbEntity
  8
0
  6
Continuous
 62
     7
370
    15
100
AcDbCircle
 10
609.4311634442
 20
388.5660960104
 30
0.0
 40
8.11081250000001
100
AcDbArc
 50
42.2895985257
 51
47.7104014743
  0
ARC
  5
237
330
1F
100
AcDbEntity
  8
0
  6
Continuous
 62
     7
370
    15
100
AcDbCircle
 10
609.4311634442
 20
388.5660960104
 30
0.0
 40
8.110812499999971
100
AcDbArc
 50
312.2895985257
 51
317.7104014743
  0
ARC
  5
238
330
1F
100
AcDbEntity
  8
0
  6
Continuous
 62
     7
370
    15
100
AcDbCircle
 10
609.4311634442
 20
388.5660960104
 30
0.0
 40
8.110812499999971
100
AcDbArc
 50
222.2895985257
 51
227.7104014743
  0
LINE
  5
239
330
1F
100
AcDbEntity
  8
0
  6
Continuous
 62
     7
370
    15
100
AcDbLine
 10
603.431163392
 20
394.0236883785
 30
0.0
 11
603.431163392
 21
383.1085132982
 31
0.0
  0
LINE
  5
23A
330
1F
100
AcDbEntity
  8
0
  6
Continuous
 62
     7
370
    15
100
AcDbLine
 10
603.973574507
 20
382.5660961296
 30
0.0
 11
614.8887523813
 21
382.5660961296
 31
0.0
  0
LINE
  5
23B
330
1F
100
AcDbEntity
  8
0
  6
Continuous
 62
     7
370
    15
100
AcDbLine
 10
615.4311634963
 20
383.1085132982
 30
0.0
 11
615.4311634963
 21
394.0236883785
 31
0.0
  0
LINE
  5
23C
330
1F
100
AcDbEntity
  8
0
  6
Continuous
 62
     7
370
    15
100
AcDbLine
 10
614.8887523813
 20
394.566090646
 30
0.0
 11
603.973574507
 21
394.566090646
 31
0.0
  0
ARC
  5
23D
330
1F
100
AcDbEntity
  8
0
  6
Continuous
 62
     7
370
    15
100
AcDbCircle
 10
609.4311634442
 20
388.5660960104
 30
0.0
 40
8.11081250000001
100
AcDbArc
 50
317.7104014743
 51
42.2895985257
  0
ARC
  5
23E
330
1F
100
AcDbEntity
  8
0
  6
Continuous
 62
     7
370
    15
100
AcDbCircle
 10
609.4311634442
 20
388.5660960104
 30
0.0
 40
8.11081250000001
100
AcDbArc
 50
137.7104014743
 51
222.2895985257
  0
ARC
  5
23F
330
1F
100
AcDbEntity
  8
0
  6
Continuous
 62
     7
370
    15
100
AcDbCircle
 10
609.4311634442
 20
388.5660960104
 30
0.0
 40
8.110812499999971
100
AcDbArc
 50
227.7104014743
 51
312.2895985257
  0
ARC
  5
240
330
1F
100
AcDbEntity
  8
0
  6
Continuous
 62
     7
370
    15
100
AcDbCircle
 10
609.4311634442
 20
388.5660960104
 30
0.0
 40
8.110812499999971
100
AcDbArc
 50
47.7104014743
 51
132.2895985257
  0
LINE
  5
241
330
1F
100
AcDbEntity
  8
0
  6
Continuous
 62
     7
370
    15
100
AcDbLine
 10
651.4890427133
 20
428.5660850431
 30
0.0
 11
609.4311634442
 21
428.5660850431
 31
0.0
  0
LINE
  5
242
330
1F
100
AcDbEntity
  8
0
  6
Continuous
 62
     7
370
    15
100
AcDbLine
 10
651.4890427133
 20
412.5660824205
 30
0.0
 11
609.4311634442
 21
412.5660824205
 31
0.0
  0
LINE
  5
243
330
1F
100
AcDbEntity
  8
0
  6
Continuous
 62
     7
370
    15
100
AcDbLine
 10
609.4311634442
 20
428.5660850431
 30
0.0
 11
567.373284175
 21
428.5660850431
 31
0.0
  0
LINE
  5
244
330
1F
100
AcDbEntity
  8
0
  6
Continuous
 62
     7
370
    15
100
AcDbLine
 10
609.4311634442
 20
412.5660824205
 30
0.0
 11
567.373284175
 21
412.5660824205
 31
0.0
  0
LINE
  5
245
330
1F
100
AcDbEntity
  8
0
  6
Continuous
 62
     7
370
    15
100
AcDbLine
 10
663.3440899094
 20
428.5660850431
 30
0.0
 11
651.4890427133
 21
428.5660850431
 31
0.0
  0
LINE
  5
246
330
1F
100
AcDbEntity
  8
0
  6
Continuous
 62
     7
370
    15
100
AcDbLine
 10
663.3440899094
 20
412.5660824205
 30
0.0
 11
651.4890427133
 21
412.5660824205
 31
0.0
  0
LINE
  5
247
330
1F
100
AcDbEntity
  8
0
  6
Continuous
 62
     7
370
    15
100
AcDbLine
 10
567.373284175
 20
428.5660850431
 30
0.0
 11
555.5182369789
 21
428.5660850431
 31
0.0
  0
LINE
  5
248
330
1F
100
AcDbEntity
  8
0
  6
Continuous
 62
     7
370
    15
100
AcDbLine
 10
567.373284175
 20
412.5660824205
 30
0.0
 11
555.5182369789
 21
412.5660824205
 31
0.0
  0
LINE
  5
249
330
1F
100
AcDbEntity
  8
0
  6
Continuous
 62
     7
370
    15
100
AcDbLine
 10
669.4311621031
 20
412.5660824205
 30
0.0
 11
669.4311621031
 21
428.5660850431
 31
0.0
  0
LINE
  5
24A
330
1F
100
AcDbEntity
  8
0
  6
Continuous
 62
     7
370
    15
100
AcDbLine
 10
669.4311621031
 20
428.5660850431
 30
0.0
 11
663.3440899094
 21
428.5660850431
 31
0.0
  0
LINE
  5
24B
330
1F
100
AcDbEntity
  8
0
  6
Continuous
 62
     7
370
    15
100
AcDbLine
 10
669.4311621031
 20
412.5660824205
 30
0.0
 11
663.3440899094
 21
412.5660824205
 31
0.0
  0
LINE
  5
24C
330
1F
100
AcDbEntity
  8
0
  6
Continuous
 62
     7
370
    15
100
AcDbLine
 10
549.4311647853
 20
412.5660824205
 30
0.0
 11
549.4311647853
 21
428.5660850431
 31
0.0
  0
LINE
  5
24D
330
1F
100
AcDbEntity
  8
0
  6
Continuous
 62
     7
370
    15
100
AcDbLine
 10
555.5182369789
 20
428.5660850431
 30
0.0
 11
549.4311647853
 21
428.5660850431
 31
0.0
  0
LINE
  5
24E
330
1F
100
AcDbEntity
  8
0
  6
Continuous
 62
     7
370
    15
100
AcDbLine
 10
555.5182369789
 20
412.5660824205
 30
0.0
 11
549.4311647853
 21
412.5660824205
 31
0.0
  0
LINE
  5
24F
330
1F
100
AcDbEntity
  8
0
  6
Continuous
 62
     7
370
    15
100
AcDbLine
 10
641.9311622521
 20
435.5660843279
 30
0.0
 11
576.9311646363
 21
435.5660843279
 31
0.0
  0
CIRCLE
  5
250
330
1F
100
AcDbEntity
  8
0
  6
Continuous
 62
     7
370
    15
100
AcDbCircle
 10
609.4311634442
 20
278.5660960104
 30
0.0
 40
22.42249999999996
  0
CIRCLE
  5
251
330
1F
100
AcDbEntity
  8
0
  6
Continuous
 62
     7
370
    15
100
AcDbCircle
 10
609.4311634442
 20
278.5660960104
 30
0.0
 40
32.49999999999997
  0
ARC
  5
252
330
1F
100
AcDbEntity
  8
0
  6
Continuous
 62
     7
370
    15
100
AcDbCircle
 10
519.4313557252
 20
278.3259205224
 30
0.0
 40
150.0
100
AcDbArc
 50
0.0917403179
 51
16.3788327405
  0
ARC
  5
253
330
1F
100
AcDbEntity
  8
0
  6
Continuous
 62
     7
370
    15
100
AcDbCircle
 10
646.5542694565
 20
241.4429899981
 30
0.0
 40
17.50000000000008
100
AcDbArc
 50
286.3788327405
 51
343.6211672595
  0
ARC
  5
254
330
1F
100
AcDbEntity
  8
0
  6
Continuous
 62
     7
370
    15
100
AcDbCircle
 10
609.1909879562
 20
368.5659037294
 30
0.0
 40
150.0
100
AcDbArc
 50
270.0917403179
 51
286.3788327405
  0
ARC
  5
255
330
1F
100
AcDbEntity
  8
0
  6
Continuous
 62
     7
370
    15
100
AcDbCircle
 10
609.6713389321
 20
368.5659037294
 30
0.0
 40
150.0
100
AcDbArc
 50
253.6211672595
 51
269.9082596821
  0
ARC
  5
256
330
1F
100
AcDbEntity
  8
0
  6
Continuous
 62
     7
370
    15
100
AcDbCircle
 10
572.3080574319
 20
241.4429899981
 30
0.0
 40
17.50000000000016
100
AcDbArc
 50
196.3788327405
 51
253.6211672595
  0
ARC
  5
257
330
1F
100
AcDbEntity
  8
0
  6
Continuous
 62
     7
370
    15
100
AcDbCircle
 10
699.4309711632
 20
278.8062714983
 30
0.0
 40
150.0
100
AcDbArc
 50
180.0917403179
 51
196.3788327405
  0
ARC
  5
258
330
1F
100
AcDbEntity
  8
0
  6
Continuous
 62
     7
370
    15
100
AcDbCircle
 10
699.4309711632
 20
278.3259205224
 30
0.0
 40
150.0
100
AcDbArc
 50
163.6211672595
 51
179.9082596821
  0
ARC
  5
259
330
1F
100
AcDbEntity
  8
0
  6
Continuous
 62
     7
370
    15
100
AcDbCircle
 10
572.3080574319
 20
315.6892020227
 30
0.0
 40
17.50000000000006
100
AcDbArc
 50
106.3788327405
 51
163.6211672595
  0
ARC
  5
25A
330
1F
100
AcDbEntity
  8
0
  6
Continuous
 62
     7
370
    15
100
AcDbCircle
 10
609.6713389321
 20
188.5662882914
 30
0.0
 40
150.0
100
AcDbArc
 50
90.0917403179
 51
106.3788327405
  0
ARC
  5
25B
330
1F
100
AcDbEntity
  8
0
  6
Continuous
 62
     7
370
    15
100
AcDbCircle
 10
609.1909879562
 20
188.5662882914
 30
0.0
 40
150.0
100
AcDbArc
 50
73.6211672595
 51
89.9082596821
  0
ARC
  5
25C
330
1F
100
AcDbEntity
  8
0
  6
Continuous
 62
     7
370
    15
100
AcDbCircle
 10
646.5542694565
 20
315.6892020227
 30
0.0
 40
17.5000000000001
100
AcDbArc
 50
16.3788327405
 51
73.6211672595
  0
CIRCLE
  5
25D
330
1F
100
AcDbEntity
  8
0
  6
Continuous
 62
     7
370
    15
100
AcDbCircle
 10
572.3080574319
 20
315.6892020227
 30
0.0
 40
7.5
  0
CIRCLE
  5
25E
330
1F
100
AcDbEntity
  8
0
  6
Continuous
 62
     7
370
    15
100
AcDbCircle
 10
646.5542694565
 20
315.6892020227
 30
0.0
 40
7.5
  0
CIRCLE
  5
25F
330
1F
100
AcDbEntity
  8
0
  6
Continuous
 62
     7
370
    15
100
AcDbCircle
 10
646.5542694565
 20
241.4429899981
 30
0.0
 40
7.5
  0
CIRCLE
  5
260
330
1F
100
AcDbEntity
  8
0
  6
Continuous
 62
     7
370
    15
100
AcDbCircle
 10
572.3080574319
 20
241.4429899981
 30
0.0
 40
7.500000000000114
  0
ARC
  5
261
330
1F
100
AcDbEntity
  8
0
  6
Continuous
 62
     7
370
    15
100
AcDbCircle
 10
519.4313557252
 20
278.8062714983
 30
0.0
 40
150.0
100
AcDbArc
 50
343.6211672595
 51
359.9082596821
  0
LINE
  5
262
330
1F
100
AcDbEntity
  8
0
  6
Continuous
 62
     7
370
    15
100
AcDbLine
 10
609.4311634442
 20
408.5661041166
 30
0.0
 11
654.4311652323
 21
408.5661041166
 31
0.0
  0
LINE
  5
263
330
1F
100
AcDbEntity
  8
0
  6
Continuous
 62
     7
370
    15
100
AcDbLine
 10
564.431161656
 20
408.5661041166
 30
0.0
 11
609.4311634442
 21
408.5661041166
 31
0.0
  0
LINE
  5
264
330
1F
100
AcDbEntity
  8
0
  6
Continuous
 62
     7
370
    15
100
AcDbLine
 10
609.4311634442
 20
410.5661081697
 30
0.0
 11
654.4311652323
 21
410.5661081697
 31
0.0
  0
LINE
  5
265
330
1F
100
AcDbEntity
  8
0
  6
Continuous
 62
     7
370
    15
100
AcDbLine
 10
564.431161656
 20
410.5661081697
 30
0.0
 11
609.4311634442
 21
410.5661081697
 31
0.0
  0
LINE
  5
266
330
1F
100
AcDbEntity
  8
0
  6
Continuous
 62
     7
370
    15
100
AcDbLine
 10
590.4432470342
 20
199.1336213972
 30
0.0
 11
596.9311632579
 21
187.8962236072
 31
0.0
  0
LINE
  5
267
330
1F
100
AcDbEntity
  8
0
  6
Continuous
 62
     7
370
    15
100
AcDbLine
 10
621.9311636304
 20
187.8962236072
 30
0.0
 11
627.3962399354
 21
197.362011167
 31
0.0
  0
LINE
  5
268
330
1F
100
AcDbEntity
  8
0
  6
Continuous
 62
     7
370
    15
100
AcDbLine
 10
547.2741322955
 20
228.9438339497
 30
0.0
 11
545.678094997
 21
225.4196348216
 31
0.0
  0
LINE
  5
269
330
1F
100
AcDbEntity
  8
0
  6
Continuous
 62
     7
370
    15
100
AcDbLine
 10
545.678094997
 20
331.7125605966
 30
0.0
 11
548.6137168845
 21
325.2304213669
 31
0.0
  0
LINE
  5
26A
330
1F
100
AcDbEntity
  8
0
  6
Continuous
 62
     7
370
    15
100
AcDbLine
 10
565.7945545753
 20
338.0123543169
 30
0.0
 11
556.2847005566
 21
342.3191624309
 31
0.0
  0
LINE
  5
26B
330
1F
100
AcDbEntity
  8
0
  6
Continuous
 62
     7
370
    15
100
AcDbLine
 10
689.431161656
 20
413.9661061193
 30
0.0
 11
689.431161656
 21
308.9781420852
 31
0.0
  0
LINE
  5
26C
330
1F
100
AcDbEntity
  8
0
  6
Continuous
 62
     7
370
    15
100
AcDbLine
 10
689.431161656
 20
248.5828193452
 30
0.0
 11
689.431161656
 21
219.5660936262
 31
0.0
  0
LINE
  5
26D
330
1F
100
AcDbEntity
  8
0
  6
Continuous
 62
     7
370
    15
100
AcDbLine
 10
689.431161656
 20
219.5660936262
 30
0.0
 11
683.8311637183
 21
219.5660936262
 31
0.0
  0
ARC
  5
26E
330
1F
100
AcDbEntity
  8
0
  6
Continuous
 62
     7
370
    15
100
AcDbCircle
 10
668.8311634442
 20
413.9660960104
 30
0.0
 40
20.59999999999997
100
AcDbArc
 50
0.0
 51
90.0
  0
ARC
  5
26F
330
1F
100
AcDbEntity
  8
0
  6
Continuous
 62
     7
370
    15
100
AcDbCircle
 10
609.4311634442
 20
278.5660960104
 30
0.0
 40
73.00000000000006
100
AcDbArc
 50
109.8526310025
 51
121.5598424153
  0
LINE
  5
270
330
1F
100
AcDbEntity
  8
0
  6
Continuous
 62
     7
370
    15
100
AcDbLine
 10
536.431164517
 20
248.7129213835
 30
0.0
 11
536.431164517
 21
219.5660936262
 31
0.0
  0
LINE
  5
271
330
1F
100
AcDbEntity
  8
0
  6
Continuous
 62
     7
370
    15
100
AcDbLine
 10
535.03116317
 20
219.5660936262
 30
0.0
 11
536.431164517
 21
219.5660936262
 31
0.0
  0
LINE
  5
272
330
1F
100
AcDbEntity
  8
0
  6
Continuous
 62
     7
370
    15
100
AcDbLine
 10
682.4311623713
 20
219.5660936262
 30
0.0
 11
682.4311623713
 21
234.5005365636
 31
0.0
  0
LINE
  5
273
330
1F
100
AcDbEntity
  8
0
  6
Continuous
 62
     7
370
    15
100
AcDbLine
 10
682.4311623713
 20
219.5660936262
 30
0.0
 11
683.8311637183
 21
219.5660936262
 31
0.0
  0
LINE
  5
274
330
1F
100
AcDbEntity
  8
0
  6
Continuous
 62
     7
370
    15
100
AcDbLine
 10
550.031163766
 20
434.5660972025
 30
0.0
 11
576.9311646363
 21
434.5660972025
 31
0.0
  0
LINE
  5
275
330
1F
100
AcDbEntity
  8
0
  6
Continuous
 62
     7
370
    15
100
AcDbLine
 10
641.9311622521
 20
434.5660972025
 30
0.0
 11
668.8311631223
 21
434.5660972025
 31
0.0
  0
ARC
  5
276
330
1F
100
AcDbEntity
  8
0
  6
Continuous
 62
     7
370
    15
100
AcDbCircle
 10
550.0311634442
 20
413.9660960104
 30
0.0
 40
20.59999999999997
100
AcDbArc
 50
90.0
 51
180.0
  0
LINE
  5
277
330
1F
100
AcDbEntity
  8
0
  6
Continuous
 62
     7
370
    15
100
AcDbLine
 10
529.4311652323
 20
219.5660936262
 30
0.0
 11
529.4311652323
 21
413.9661061193
 31
0.0
  0
LINE
  5
278
330
1F
100
AcDbEntity
  8
0
  6
Continuous
 62
     7
370
    15
100
AcDbLine
 10
535.03116317
 20
219.5660936262
 30
0.0
 11
529.4311652323
 21
219.5660936262
 31
0.0
  0
LINE
  5
279
330
1F
100
AcDbEntity
  8
0
  6
Continuous
 62
     7
370
    15
100
AcDbLine
 10
701.431163623
 20
175.1660964067
 30
0.0
 11
698.4311649939
 21
175.1660964067
 31
0.0
  0
LINE
  5
27A
330
1F
100
AcDbEntity
  8
0
  6
Continuous
 62
     7
370
    15
100
AcDbLine
 10
701.431163623
 20
175.1660964067
 30
0.0
 11
701.431163623
 21
174.5660955633
 31
0.0
  0
LINE
  5
27B
330
1F
100
AcDbEntity
  8
0
  6
Continuous
 62
     7
370
    15
100
AcDbLine
 10
688.8311664005
 20
198.3183453407
 30
0.0
 11
688.8311664005
 21
219.5660936262
 31
0.0
  0
LINE
  5
27C
330
1F
100
AcDbEntity
  8
0
  6
Continuous
 62
     7
370
    15
100
AcDbLine
 10
689.431161656
 20
197.2791160073
 30
0.0
 11
689.431161656
 21
219.5660936262
 31
0.0
  0
LINE
  5
27D
330
1F
100
AcDbEntity
  8
0
  6
Continuous
 62
     7
370
    15
100
AcDbLine
 10
517.4311632653
 20
175.1660964067
 30
0.0
 11
517.4311632653
 21
174.5660955633
 31
0.0
  0
LINE
  5
27E
330
1F
100
AcDbEntity
  8
0
  6
Continuous
 62
     7
370
    15
100
AcDbLine
 10
517.4311632653
 20
175.1660964067
 30
0.0
 11
520.4311618944
 21
175.1660964067
 31
0.0
  0
LINE
  5
27F
330
1F
100
AcDbEntity
  8
0
  6
Continuous
 62
     7
370
    15
100
AcDbLine
 10
529.4311652323
 20
197.2791160073
 30
0.0
 11
529.4311652323
 21
219.5660936262
 31
0.0
  0
LINE
  5
280
330
1F
100
AcDbEntity
  8
0
  6
Continuous
 62
     7
370
    15
100
AcDbLine
 10
530.0311604878
 20
198.3183453407
 30
0.0
 11
530.0311604878
 21
219.5660936262
 31
0.0
  0
LINE
  5
281
330
1F
100
AcDbEntity
  8
0
  6
Continuous
 62
     7
370
    15
100
AcDbLine
 10
689.431161656
 20
244.5660995867
 30
0.0
 11
699.4311670204
 21
228.566096964
 31
0.0
  0
LWPOLYLINE
  5
282
330
1F
100
AcDbEntity
  8
0
  6
Continuous
 62
     7
370
    15
100
AcDbPolyline
 90
        9
 70
   128
 43
0.0
 10
699.4311670204
 20
228.566096964
 10
699.2498943945
 20
228.4935879137
 10
698.7130428096
 20
228.2788472797
 10
697.841250374
 20
227.9301303055
 10
696.6680148979
 20
227.4608331348
 10
695.2384198447
 20
226.889001074
 10
693.6074132463
 20
226.2365984346
 10
691.8376619359
 20
225.5286964204
 10
689.997182264
 20
224.7925045516
  0
LINE
  5
283
330
1F
100
AcDbEntity
  8
0
  6
Continuous
 62
     7
370
    15
100
AcDbLine
 10
694.1208327552
 20
267.0626285102
 30
0.0
 11
699.4311670204
 21
258.5660981561
 31
0.0
  0
LWPOLYLINE
  5
284
330
1F
100
AcDbEntity
  8
0
  6
Continuous
 62
     7
370
    15
100
AcDbPolyline
 90
        9
 70
   128
 43
0.0
 10
699.4311670204
 20
258.5660981561
 10
699.2498943945
 20
258.4935891058
 10
698.7130428096
 20
258.2788484718
 10
697.841250374
 20
257.9301314975
 10
696.6680148979
 20
257.4608343269
 10
695.2384198447
 20
256.8890022661
 10
693.6074132463
 20
256.2365921761
 10
691.8376619359
 20
255.5286976125
 10
691.7735273381
 20
255.5030378129
  0
LINE
  5
285
330
1F
100
AcDbEntity
  8
0
  6
Continuous
 62
     7
370
    15
100
AcDbLine
 10
692.0621255776
 20
300.3565537359
 30
0.0
 11
699.4311670204
 21
288.5660993482
 31
0.0
  0
LWPOLYLINE
  5
286
330
1F
100
AcDbEntity
  8
0
  6
Continuous
 62
     7
370
    15
100
AcDbPolyline
 90
        7
 70
   128
 43
0.0
 10
699.4311670204
 20
288.5660993482
 10
699.2498943945
 20
288.4935902979
 10
698.7130428096
 20
288.2788496639
 10
697.841250374
 20
287.9301326896
 10
696.6680148979
 20
287.460835519
 10
695.2384198447
 20
286.8890034582
 10
694.4706300637
 20
286.5818756248
  0
LINE
  5
287
330
1F
100
AcDbEntity
  8
0
  6
Continuous
 62
     7
370
    15
100
AcDbLine
 10
689.431161656
 20
364.5660894539
 30
0.0
 11
699.4311670204
 21
348.5661017324
 31
0.0
  0
LWPOLYLINE
  5
288
330
1F
100
AcDbEntity
  8
0
  6
Continuous
 62
     7
370
    15
100
AcDbPolyline
 90
        9
 70
   128
 43
0.0
 10
699.4311670204
 20
348.5661017324
 10
699.2498943945
 20
348.4935926821
 10
698.7130428096
 20
348.2788520481
 10
697.841250374
 20
347.9301350738
 10
696.6680148979
 20
347.4608379032
 10
695.2384198447
 20
346.8890058424
 10
693.6074132463
 20
346.2365883018
 10
691.8376619359
 20
345.5286937382
 10
689.997182264
 20
344.7925018694
  0
LINE
  5
289
330
1F
100
AcDbEntity
  8
0
  6
Continuous
 62
     7
370
    15
100
AcDbLine
 10
689.431161656
 20
334.5661031629
 30
0.0
 11
699.4311670204
 21
318.5661005403
 31
0.0
  0
LWPOLYLINE
  5
28A
330
1F
100
AcDbEntity
  8
0
  6
Continuous
 62
     7
370
    15
100
AcDbPolyline
 90
        9
 70
   128
 43
0.0
 10
699.4311670204
 20
318.5661005403
 10
699.2498943945
 20
318.49359149
 10
698.7130428096
 20
318.278850856
 10
697.841250374
 20
317.9301338817
 10
696.6680148979
 20
317.4608367111
 10
695.2384198447
 20
316.8890046503
 10
693.6074132463
 20
316.2366020109
 10
691.8376619359
 20
315.5286925461
 10
689.997182264
 20
314.7925006773
  0
LINE
  5
28B
330
1F
100
AcDbEntity
  8
0
  6
Continuous
 62
     7
370
    15
100
AcDbLine
 10
689.997182264
 20
344.7925018694
 30
0.0
 11
689.431161656
 21
344.5660936262
 31
0.0
  0
LINE
  5
28C
330
1F
100
AcDbEntity
  8
0
  6
Continuous
 62
     7
370
    15
100
AcDbLine
 10
689.997182264
 20
254.7925057437
 30
0.0
 11
689.431161656
 21
254.5660975005
 31
0.0
  0
LINE
  5
28D
330
1F
100
AcDbEntity
  8
0
  6
Continuous
 62
     7
370
    15
100
AcDbLine
 10
689.997182264
 20
314.7925006773
 30
0.0
 11
689.431161656
 21
314.5660924341
 31
0.0
  0
LINE
  5
28E
330
1F
100
AcDbEntity
  8
0
  6
Continuous
 62
     7
370
    15
100
AcDbLine
 10
689.997182264
 20
224.7925045516
 30
0.0
 11
689.431161656
 21
224.5660963084
 31
0.0
  0
LINE
  5
28F
330
1F
100
AcDbEntity
  8
0
  6
Continuous
 62
     7
370
    15
100
AcDbLine
 10
528.8651446243
 20
344.7925018694
 30
0.0
 11
529.4311652323
 21
344.5660936262
 31
0.0
  0
LINE
  5
290
330
1F
100
AcDbEntity
  8
0
  6
Continuous
 62
     7
370
    15
100
AcDbLine
 10
528.8651446243
 20
284.7924994852
 30
0.0
 11
529.4311652323
 21
284.566091242
 31
0.0
  0
LINE
  5
291
330
1F
100
AcDbEntity
  8
0
  6
Continuous
 62
     7
370
    15
100
AcDbLine
 10
528.8651446243
 20
314.7925006773
 30
0.0
 11
529.4311652323
 21
314.5660924341
 31
0.0
  0
LINE
  5
292
330
1F
100
AcDbEntity
  8
0
  6
Continuous
 62
     7
370
    15
100
AcDbLine
 10
519.4311598679
 20
348.5661017324
 30
0.0
 11
529.4311652323
 21
364.5660894539
 31
0.0
  0
LWPOLYLINE
  5
293
330
1F
100
AcDbEntity
  8
0
  6
Continuous
 62
     7
370
    15
100
AcDbPolyline
 90
        9
 70
   128
 43
0.0
 10
528.8651446243
 20
344.7925018694
 10
527.0246649524
 20
345.5286937382
 10
525.254913642
 20
346.2365883018
 10
523.6239070436
 20
346.8890058424
 10
522.1943119904
 20
347.4608379032
 10
521.0210765144
 20
347.9301350738
 10
520.1492840787
 20
348.2788520481
 10
519.6124324938
 20
348.4935926821
 10
519.4311598679
 20
348.5661017324
  0
LINE
  5
294
330
1F
100
AcDbEntity
  8
0
  6
Continuous
 62
     7
370
    15
100
AcDbLine
 10
519.4311598679
 20
288.5660993482
 30
0.0
 11
529.4311652323
 21
304.5661019708
 31
0.0
  0
LWPOLYLINE
  5
295
330
1F
100
AcDbEntity
  8
0
  6
Continuous
 62
     7
370
    15
100
AcDbPolyline
 90
        9
 70
   128
 43
0.0
 10
528.8651446243
 20
284.7924994852
 10
527.0246649524
 20
285.528691354
 10
525.254913642
 20
286.2366008188
 10
523.6239070436
 20
286.8890034582
 10
522.1943119904
 20
287.460835519
 10
521.0210765144
 20
287.9301326896
 10
520.1492840787
 20
288.2788496639
 10
519.6124324938
 20
288.4935902979
 10
519.4311598679
 20
288.5660993482
  0
LWPOLYLINE
  5
296
330
1F
100
AcDbEntity
  8
0
  6
Continuous
 62
     7
370
    15
100
AcDbPolyline
 90
        9
 70
   128
 43
0.0
 10
528.8651446243
 20
314.7925006773
 10
527.0246649524
 20
315.5286925461
 10
525.254913642
 20
316.2366020109
 10
523.6239070436
 20
316.8890046503
 10
522.1943119904
 20
317.4608367111
 10
521.0210765144
 20
317.9301338817
 10
520.1492840787
 20
318.278850856
 10
519.6124324938
 20
318.49359149
 10
519.4311598679
 20
318.5661005403
  0
LINE
  5
297
330
1F
100
AcDbEntity
  8
0
  6
Continuous
 62
     7
370
    15
100
AcDbLine
 10
519.4311598679
 20
318.5661005403
 30
0.0
 11
529.4311652323
 21
334.5661031629
 31
0.0
  0
LINE
  5
298
330
1F
100
AcDbEntity
  8
0
  6
Continuous
 62
     7
370
    15
100
AcDbLine
 10
519.4311598679
 20
228.566096964
 30
0.0
 11
529.4311652323
 21
244.5660995867
 31
0.0
  0
LWPOLYLINE
  5
299
330
1F
100
AcDbEntity
  8
0
  6
Continuous
 62
     7
370
    15
100
AcDbPolyline
 90
        9
 70
   128
 43
0.0
 10
528.8651446243
 20
224.7925045516
 10
527.0246649524
 20
225.5286964204
 10
525.254913642
 20
226.2365984346
 10
523.6239070436
 20
226.889001074
 10
522.1943119904
 20
227.4608331348
 10
521.0210765144
 20
227.9301303055
 10
520.1492840787
 20
228.2788472797
 10
519.6124324938
 20
228.4935879137
 10
519.4311598679
 20
228.566096964
  0
LINE
  5
29A
330
1F
100
AcDbEntity
  8
0
  6
Continuous
 62
     7
370
    15
100
AcDbLine
 10
528.8651446243
 20
254.7925057437
 30
0.0
 11
529.4311652323
 21
254.5660975005
 31
0.0
  0
LINE
  5
29B
330
1F
100
AcDbEntity
  8
0
  6
Continuous
 62
     7
370
    15
100
AcDbLine
 10
528.8651446243
 20
224.7925045516
 30
0.0
 11
529.4311652323
 21
224.5660963084
 31
0.0
  0
LINE
  5
29C
330
1F
100
AcDbEntity
  8
0
  6
Continuous
 62
     7
370
    15
100
AcDbLine
 10
519.4311598679
 20
258.5660981561
 30
0.0
 11
529.4311652323
 21
274.5660933282
 31
0.0
  0
LWPOLYLINE
  5
29D
330
1F
100
AcDbEntity
  8
0
  6
Continuous
 62
     7
370
    15
100
AcDbPolyline
 90
        9
 70
   128
 43
0.0
 10
528.8651446243
 20
254.7925057437
 10
527.0246649524
 20
255.5286976125
 10
525.254913642
 20
256.2365921761
 10
523.6239070436
 20
256.8890022661
 10
522.1943119904
 20
257.4608343269
 10
521.0210765144
 20
257.9301314975
 10
520.1492840787
 20
258.2788484718
 10
519.6124324938
 20
258.4935891058
 10
519.4311598679
 20
258.5660981561
  0
LINE
  5
29E
330
1F
100
AcDbEntity
  8
0
  6
Continuous
 62
     7
370
    15
100
AcDbLine
 10
575.3576206406
 20
343.1260901119
 30
0.0
 11
577.8461071094
 21
343.1260901119
 31
0.0
  0
LINE
  5
29F
330
1F
100
AcDbEntity
  8
0
  6
Continuous
 62
     7
370
    15
100
AcDbLine
 10
536.431164517
 20
219.5660936262
 30
0.0
 11
542.2985563418
 21
219.5660936262
 31
0.0
  0
LINE
  5
2A0
330
1F
100
AcDbEntity
  8
0
  6
Continuous
 62
     7
370
    15
100
AcDbLine
 10
676.5637705466
 20
219.5660936262
 30
0.0
 11
682.4311623713
 21
219.5660936262
 31
0.0
  0
LINE
  5
2A1
330
1F
100
AcDbEntity
  8
0
  6
Continuous
 62
     7
370
    15
100
AcDbLine
 10
575.8162858328
 20
343.3661031152
 30
0.0
 11
578.7073066821
 21
343.3661031152
 31
0.0
  0
LINE
  5
2A2
330
1F
100
AcDbEntity
  8
0
  6
Continuous
 62
     7
370
    15
100
AcDbLine
 10
584.3979148557
 20
347.139673176
 30
0.0
 11
584.6812343588
 21
347.139673176
 31
0.0
  0
LINE
  5
2A3
330
1F
100
AcDbEntity
  8
0
  6
Continuous
 62
     7
370
    15
100
AcDbLine
 10
651.4890427133
 20
406.5661000635
 30
0.0
 11
609.4311634442
 21
406.5661000635
 31
0.0
  0
LINE
  5
2A4
330
1F
100
AcDbEntity
  8
0
  6
Continuous
 62
     7
370
    15
100
AcDbLine
 10
624.2972324034
 20
390.5660974409
 30
0.0
 11
651.4890427133
 21
390.5660974409
 31
0.0
  0
LINE
  5
2A5
330
1F
100
AcDbEntity
  8
0
  6
Continuous
 62
     7
370
    15
100
AcDbLine
 10
609.4311634442
 20
406.5661000635
 30
0.0
 11
567.373284175
 21
406.5661000635
 31
0.0
  0
LINE
  5
2A6
330
1F
100
AcDbEntity
  8
0
  6
Continuous
 62
     7
370
    15
100
AcDbLine
 10
567.373284175
 20
390.5660974409
 30
0.0
 11
594.5650944849
 21
390.5660974409
 31
0.0
  0
CIRCLE
  5
2A7
330
1F
100
AcDbEntity
  8
0
  6
Continuous
 62
     7
370
    15
100
AcDbCircle
 10
609.4311634442
 20
388.5660960104
 30
0.0
 40
15.0
  0
LINE
  5
2A8
330
1F
100
AcDbEntity
  8
0
  6
Continuous
 62
     7
370
    15
100
AcDbLine
 10
651.4890427133
 20
390.5660974409
 30
0.0
 11
663.3440899094
 21
390.5660974409
 31
0.0
  0
LINE
  5
2A9
330
1F
100
AcDbEntity
  8
0
  6
Continuous
 62
     7
370
    15
100
AcDbLine
 10
663.3440899094
 20
406.5661000635
 30
0.0
 11
651.4890427133
 21
406.5661000635
 31
0.0
  0
LINE
  5
2AA
330
1F
100
AcDbEntity
  8
0
  6
Continuous
 62
     7
370
    15
100
AcDbLine
 10
555.5182369789
 20
390.5660974409
 30
0.0
 11
567.373284175
 21
390.5660974409
 31
0.0
  0
LINE
  5
2AB
330
1F
100
AcDbEntity
  8
0
  6
Continuous
 62
     7
370
    15
100
AcDbLine
 10
567.373284175
 20
406.5661000635
 30
0.0
 11
555.5182369789
 21
406.5661000635
 31
0.0
  0
LINE
  5
2AC
330
1F
100
AcDbEntity
  8
0
  6
Continuous
 62
     7
370
    15
100
AcDbLine
 10
669.4311621031
 20
390.5660974409
 30
0.0
 11
669.4311621031
 21
406.5661000635
 31
0.0
  0
LINE
  5
2AD
330
1F
100
AcDbEntity
  8
0
  6
Continuous
 62
     7
370
    15
100
AcDbLine
 10
663.3440899094
 20
390.5660974409
 30
0.0
 11
669.4311621031
 21
390.5660974409
 31
0.0
  0
LINE
  5
2AE
330
1F
100
AcDbEntity
  8
0
  6
Continuous
 62
     7
370
    15
100
AcDbLine
 10
669.4311621031
 20
406.5661000635
 30
0.0
 11
663.3440899094
 21
406.5661000635
 31
0.0
  0
LINE
  5
2AF
330
1F
100
AcDbEntity
  8
0
  6
Continuous
 62
     7
370
    15
100
AcDbLine
 10
549.4311647853
 20
390.5660974409
 30
0.0
 11
549.4311647853
 21
406.5661000635
 31
0.0
  0
LINE
  5
2B0
330
1F
100
AcDbEntity
  8
0
  6
Continuous
 62
     7
370
    15
100
AcDbLine
 10
549.4311647853
 20
390.5660974409
 30
0.0
 11
555.5182369789
 21
390.5660974409
 31
0.0
  0
LINE
  5
2B1
330
1F
100
AcDbEntity
  8
0
  6
Continuous
 62
     7
370
    15
100
AcDbLine
 10
555.5182369789
 20
406.5661000635
 30
0.0
 11
549.4311647853
 21
406.5661000635
 31
0.0
  0
CIRCLE
  5
2B2
330
1F
100
AcDbEntity
  8
0
  6
Continuous
 62
     7
370
    15
100
AcDbCircle
 10
609.4311634442
 20
278.5660960104
 30
0.0
 40
17.49999999999989
  0
CIRCLE
  5
2B3
330
1F
100
AcDbEntity
  8
0
  6
Continuous
 62
     7
370
    15
100
AcDbCircle
 10
646.5542694565
 20
241.4429899981
 30
0.0
 40
5.999999999999972
  0
CIRCLE
  5
2B4
330
1F
100
AcDbEntity
  8
0
  6
Continuous
 62
     7
370
    15
100
AcDbCircle
 10
646.5542694565
 20
315.6892020227
 30
0.0
 40
6.0
  0
CIRCLE
  5
2B5
330
1F
100
AcDbEntity
  8
0
  6
Continuous
 62
     7
370
    15
100
AcDbCircle
 10
572.3080574319
 20
241.4429899981
 30
0.0
 40
6.0
  0
CIRCLE
  5
2B6
330
1F
100
AcDbEntity
  8
0
  6
Continuous
 62
     7
370
    15
100
AcDbCircle
 10
572.3080574319
 20
315.6892020227
 30
0.0
 40
5.999999999999943
  0
ARC
  5
2B7
330
1F
100
AcDbEntity
  8
0
  6
Continuous
 62
     7
370
    15
100
AcDbCircle
 10
609.4311634442
 20
209.0660960104
 30
0.0
 40
12.00000000000001
100
AcDbArc
 50
0.0
 51
53.7648699835
  0
ARC
  5
2B8
330
1F
100
AcDbEntity
  8
0
  6
Continuous
 62
     7
370
    15
100
AcDbCircle
 10
609.4311634442
 20
209.0660960104
 30
0.0
 40
12.00000000000001
100
AcDbArc
 50
126.2351300165
 51
0.0
  0
LWPOLYLINE
  5
2B9
330
1F
100
AcDbEntity
  8
0
  6
Continuous
 62
     7
370
    15
100
AcDbPolyline
 90
        5
 70
   128
 43
0.0
 10
628.1675557038
 20
390.5660974409
 10
627.4383655181
 20
385.5049627449
 10
626.8262500306
 20
381.2544363167
 10
626.7998172333
 20
376.9195395138
 10
627.4595139911
 20
373.9684390451
  0
LWPOLYLINE
  5
2BA
330
1F
100
AcDbEntity
  8
0
  6
Continuous
 62
     7
370
    15
100
AcDbPolyline
 90
        3
 70
   128
 43
0.0
 10
595.8082769429
 20
355.9826480772
 10
593.8967457404
 20
368.8756095793
 10
590.7231951495
 20
390.5660974409
  0
LWPOLYLINE
  5
2BB
330
1F
100
AcDbEntity
  8
0
  6
Continuous
 62
     7
370
    15
100
AcDbPolyline
 90
       12
 70
   128
 43
0.0
 10
665.0342280408
 20
243.404226246
 10
667.0351559659
 20
246.4892434503
 10
670.6988523146
 20
254.1373463895
 10
673.0942437788
 20
261.3616454031
 10
674.6078292271
 20
268.8487487461
 10
675.1839677235
 20
276.4346914913
 10
674.8763332506
 20
283.3756225731
 10
673.8227466484
 20
290.2647870209
 10
672.0709586879
 20
296.9920056488
 10
669.5532100638
 20
303.7126528646
 10
666.3545156261
 20
310.1593571331
 10
665.5772598823
 20
311.4008324768
  0
LWPOLYLINE
  5
2BC
330
1F
100
AcDbEntity
  8
0
  6
Continuous
 62
     7
370
    15
100
AcDbPolyline
 90
        8
 70
   128
 43
0.0
 10
538.945087268
 20
279.9670266535
 10
540.0737384697
 20
271.063940468
 10
542.0901412507
 20
262.2368278529
 10
544.0224791309
 20
256.3950958277
 10
546.4236075422
 20
250.7304641034
 10
549.3908310672
 20
245.1329621102
 10
552.8482878944
 20
239.824706557
 10
555.6096332511
 20
236.2659739877
  0
ARC
  5
2BD
330
1F
100
AcDbEntity
  8
0
  6
Continuous
 62
     7
370
    15
100
AcDbCircle
 10
609.4311634442
 20
278.5660960104
 30
0.0
 40
70.50000000000014
100
AcDbArc
 50
94.3181366793
 51
178.8613768374
  0
ARC
  5
2BE
330
1F
100
AcDbEntity
  8
0
  6
Continuous
 62
     7
370
    15
100
AcDbCircle
 10
613.7608200146
 20
367.9786690014
 30
0.0
 40
21.4052440793855
100
AcDbArc
 50
243.2396782784
 51
270.5026451341
  0
ARC
  5
2BF
330
1F
100
AcDbEntity
  8
0
  6
Continuous
 62
     7
370
    15
100
AcDbCircle
 10
607.5217797766
 20
284.8242405838
 30
0.0
 40
62.0836706625922
100
AcDbArc
 50
52.3079651285
 51
84.0580435351
  0
ARC
  5
2C0
330
1F
100
AcDbEntity
  8
0
  6
Continuous
 62
     7
370
    15
100
AcDbCircle
 10
609.8686978669
 20
274.0446434706
 30
0.0
 40
61.9596725114692
100
AcDbArc
 50
280.1158164343
 51
304.7281739228
  0
ARC
  5
2C1
330
1F
100
AcDbEntity
  8
0
  6
Continuous
 62
     7
370
    15
100
AcDbCircle
 10
606.2138115792
 20
275.4768597836
 30
0.0
 40
63.4958470682024
100
AcDbArc
 50
233.6018137071
 51
262.5125195027
  0
ARC
  5
2C2
330
1F
100
AcDbEntity
  8
0
  6
Continuous
 62
     7
370
    15
100
AcDbCircle
 10
609.7037703835
 20
357.3821094932
 30
0.0
 40
13.96578784791621
100
AcDbArc
 50
185.7510564083
 51
220.5449777354
  0
ARC
  5
2C3
330
1F
100
AcDbEntity
  8
0
  6
Continuous
 62
     7
370
    15
100
AcDbCircle
 10
642.580548465
 20
378.8173236479
 30
0.0
 40
15.87946363868667
100
AcDbArc
 50
197.7795644429
 51
247.5557526803
  0
LWPOLYLINE
  5
2C4
330
1F
100
AcDbEntity
  8
0
  6
Continuous
 62
     7
370
    15
100
AcDbPolyline
 90
       20
 70
   128
 43
0.0
 10
661.8400523802
 20
352.6719229843
 10
662.0161468526
 20
352.624745908
 10
662.5390844783
 20
352.4846153881
 10
663.3929694434
 20
352.2558229591
 10
664.5518588265
 20
351.945297661
 10
665.9805411836
 20
351.5624868299
 10
667.6356094321
 20
351.1190133716
 10
669.466772153
 20
350.6283479358
 10
671.4183884104
 20
350.1054214861
 10
673.431166484
 20
349.5660888578
 10
675.4439408323
 20
349.0267711307
 10
677.3955533644
 20
348.503844681
 10
679.2267198106
 20
348.0131792452
 10
680.8817843338
 20
347.5697057869
 10
682.3104704162
 20
347.1868949558
 10
683.469356074
 20
346.8763696577
 10
684.3232447644
 20
346.6475772287
 10
684.8461786648
 20
346.5074467088
 10
685.0222731372
 20
346.4602696325
 10
685.0222731372
 20
346.4602696325
  0
LWPOLYLINE
  5
2C5
330
1F
100
AcDbEntity
  8
0
  6
Continuous
 62
     7
370
    15
100
AcDbPolyline
 90
       19
 70
   128
 43
0.0
 10
680.0690228482
 20
328.1380849506
 10
680.0594265004
 20
328.1376379158
 10
679.0532851955
 20
328.0875402118
 10
676.8892938634
 20
328.0310350086
 10
675.4018897554
 20
328.0693905975
 10
673.6755753299
 20
328.2463120844
 10
671.5002628406
 20
328.834490719
 10
669.7777295848
 20
329.8663961317
 10
668.3920184513
 20
331.3682692672
 10
667.0471588513
 20
333.6553590919
 10
665.9570942064
 20
336.1246603157
 10
664.2760606846
 20
340.6327533151
 10
663.4857776006
 20
342.8783434059
 10
662.7448359867
 20
344.9977951671
 10
661.8827628335
 20
347.4435525562
 10
661.5294525763
 20
348.4333025839
 10
661.2493740758
 20
349.2098915006
 10
661.0549958786
 20
349.7420566704
 10
661.0549958786
 20
349.7420566704
  0
ARC
  5
2C6
330
1F
100
AcDbEntity
  8
0
  6
Continuous
 62
     7
370
    15
100
AcDbCircle
 10
612.6147261298
 20
277.6038678441
 30
0.0
 40
81.50508403342383
100
AcDbArc
 50
217.1665658885
 51
228.6081126947
  0
LWPOLYLINE
  5
2C7
330
1F
100
AcDbEntity
  8
0
  6
Continuous
 62
     7
370
    15
100
AcDbPolyline
 90
        7
 70
   128
 43
0.0
 10
543.1831339737
 20
302.6793467428
 10
540.2542213341
 20
303.6280738737
 10
537.8549406668
 20
304.4052290346
 10
536.627874746
 20
304.8026877071
 10
535.8366305371
 20
305.0589876796
 10
535.5562130352
 20
305.1498251583
 10
535.5565781137
 20
305.149705949
  0
LWPOLYLINE
  5
2C8
330
1F
100
AcDbEntity
  8
0
  6
Continuous
 62
     7
370
    15
100
AcDbPolyline
 90
        3
 70
   128
 43
0.0
 10
636.5183974048
 20
364.1404675867
 10
640.1862418642
 20
362.5412153627
 10
641.1519432803
 20
362.0887118007
  0
LINE
  5
2C9
330
1F
100
AcDbEntity
  8
0
  6
Continuous
 62
     7
370
    15
100
AcDbLine
 10
549.4152540704
 20
326.1740672018
 30
0.0
 11
556.0177313527
 21
331.9795298006
 31
0.0
  0
LWPOLYLINE
  5
2CA
330
1F
100
AcDbEntity
  8
0
  6
Continuous
 62
     7
370
    15
100
AcDbPolyline
 90
        5
 70
   128
 43
0.0
 10
556.0177313527
 20
331.9795298006
 10
556.37033753
 20
331.6269236233
 10
557.3974969228
 20
330.599771681
 10
558.9158656439
 20
329.0813880588
 10
559.5802450916
 20
328.417019787
  0
LWPOLYLINE
  5
2CB
330
1F
100
AcDbEntity
  8
0
  6
Continuous
 62
     7
370
    15
100
AcDbPolyline
 90
        3
 70
   128
 43
0.0
 10
556.0177313527
 20
331.9795298006
 10
559.8725127419
 20
334.7059505607
 10
563.9405334731
 20
337.1533172752
  0
LINE
  5
2CC
330
1F
100
AcDbEntity
  8
0
  6
Continuous
 62
     7
370
    15
100
AcDbLine
 10
654.4311652323
 20
390.5660974409
 30
0.0
 11
641.1519432803
 21
362.0887118007
 31
0.0
  0
LINE
  5
2CD
330
1F
100
AcDbEntity
  8
0
  6
Continuous
 62
     7
370
    15
100
AcDbLine
 10
564.431161656
 20
390.5660974409
 30
0.0
 11
585.6943233302
 21
344.9670987751
 31
0.0
  0
ARC
  5
2CE
330
1F
100
AcDbEntity
  8
0
  6
Continuous
 62
     7
370
    15
100
AcDbCircle
 10
609.4311634442
 20
278.5660960104
 30
0.0
 40
83.00000000000009
100
AcDbArc
 50
129.8155988641
 51
140.1844011359
  0
LINE
  5
2CF
330
1F
100
AcDbEntity
  8
0
  6
Continuous
 62
     7
370
    15
100
AcDbLine
 10
556.2847005566
 20
342.3191624309
 30
0.0
 11
563.9405334731
 21
337.1533172752
 31
0.0
  0
LINE
  5
2D0
330
1F
100
AcDbEntity
  8
0
  6
Continuous
 62
     7
370
    15
100
AcDbLine
 10
549.4152540704
 20
326.1740672018
 30
0.0
 11
545.678094997
 21
331.7125605966
 31
0.0
  0
ARC
  5
2D1
330
1F
100
AcDbEntity
  8
0
  6
Continuous
 62
     7
370
    15
100
AcDbCircle
 10
609.4311634442
 20
278.5660960104
 30
0.0
 40
82.99999999999997
100
AcDbArc
 50
219.8155988641
 51
230.1844011359
  0
LINE
  5
2D2
330
1F
100
AcDbEntity
  8
0
  6
Continuous
 62
     7
370
    15
100
AcDbLine
 10
545.678094997
 20
225.4196348216
 30
0.0
 11
547.6647438844
 21
228.3638584043
 31
0.0
  0
LINE
  5
2D3
330
1F
100
AcDbEntity
  8
0
  6
Continuous
 62
     7
370
    15
100
AcDbLine
 10
558.7231042227
 20
216.4583707775
 30
0.0
 11
556.2847005566
 21
214.813029262
 31
0.0
  0
LINE
  5
2D4
330
1F
100
AcDbEntity
  8
0
  6
Continuous
 62
     7
370
    15
100
AcDbLine
 10
545.678094997
 20
225.4196348216
 30
0.0
 11
547.5464919945
 21
228.6557870533
 31
0.0
  0
LINE
  5
2D5
330
1F
100
AcDbEntity
  8
0
  6
Continuous
 62
     7
370
    15
100
AcDbLine
 10
529.0914187571
 20
176.6906584229
 30
0.0
 11
520.4311618944
 21
181.6906592424
 31
0.0
  0
LINE
  5
2D6
330
1F
100
AcDbEntity
  8
0
  6
Continuous
 62
     7
370
    15
100
AcDbLine
 10
529.0914187571
 20
176.6906584229
 30
0.0
 11
552.849617823
 21
217.8410681512
 31
0.0
  0
LINE
  5
2D7
330
1F
100
AcDbEntity
  8
0
  6
Continuous
 62
     7
370
    15
100
AcDbLine
 10
520.4311618944
 20
181.6906592424
 30
0.0
 11
545.678094997
 21
225.4196348216
 31
0.0
  0
LINE
  5
2D8
330
1F
100
AcDbEntity
  8
0
  6
Continuous
 62
     7
370
    15
100
AcDbLine
 10
689.7709081312
 20
176.6906584229
 30
0.0
 11
698.4311649939
 21
181.6906592424
 31
0.0
  0
LINE
  5
2D9
330
1F
100
AcDbEntity
  8
0
  6
Continuous
 62
     7
370
    15
100
AcDbLine
 10
689.7709081312
 20
176.6906584229
 30
0.0
 11
666.8766187867
 21
216.3447345223
 31
0.0
  0
LINE
  5
2DA
330
1F
100
AcDbEntity
  8
0
  6
Continuous
 62
     7
370
    15
100
AcDbLine
 10
698.4311649939
 20
181.6906592424
 30
0.0
 11
674.2355833193
 21
223.5986309673
 31
0.0
  0
LINE
  5
2DB
330
1F
100
AcDbEntity
  8
0
  6
Continuous
 62
     7
370
    15
100
AcDbLine
 10
695.0389752527
 20
187.5660958316
 30
0.0
 11
698.4311649939
 21
187.5660958316
 31
0.0
  0
LINE
  5
2DC
330
1F
100
AcDbEntity
  8
0
  6
Continuous
 62
     7
370
    15
100
AcDbLine
 10
698.4311649939
 20
187.5660958316
 30
0.0
 11
698.4311649939
 21
181.6906592424
 31
0.0
  0
LINE
  5
2DD
330
1F
100
AcDbEntity
  8
0
  6
Continuous
 62
     7
370
    15
100
AcDbLine
 10
698.4311649939
 20
181.6906592424
 30
0.0
 11
698.4311649939
 21
174.5660955633
 31
0.0
  0
LINE
  5
2DE
330
1F
100
AcDbEntity
  8
0
  6
Continuous
 62
     7
370
    15
100
AcDbLine
 10
663.4311648449
 20
182.3124381329
 30
0.0
 11
650.2850996693
 21
205.08209044
 31
0.0
  0
LINE
  5
2DF
330
1F
100
AcDbEntity
  8
0
  6
Continuous
 62
     7
370
    15
100
AcDbLine
 10
663.4311648449
 20
174.5660955633
 30
0.0
 11
663.4311648449
 21
182.3124381329
 31
0.0
  0
LINE
  5
2E0
330
1F
100
AcDbEntity
  8
0
  6
Continuous
 62
     7
370
    15
100
AcDbLine
 10
520.4311618944
 20
181.6906592424
 30
0.0
 11
520.4311618944
 21
174.5660955633
 31
0.0
  0
LINE
  5
2E1
330
1F
100
AcDbEntity
  8
0
  6
Continuous
 62
     7
370
    15
100
AcDbLine
 10
555.4311620434
 20
174.5660955633
 30
0.0
 11
555.4311620434
 21
182.3124381329
 31
0.0
  0
LINE
  5
2E2
330
1F
100
AcDbEntity
  8
0
  6
Continuous
 62
     7
370
    15
100
AcDbLine
 10
555.4311620434
 20
182.3124381329
 30
0.0
 11
570.277267172
 21
208.0266418483
 31
0.0
  0
LINE
  5
2E3
330
1F
100
AcDbEntity
  8
0
  6
Continuous
 62
     7
370
    15
100
AcDbLine
 10
520.4311618944
 20
187.5660958316
 30
0.0
 11
520.4311618944
 21
181.6906592424
 31
0.0
  0
LINE
  5
2E4
330
1F
100
AcDbEntity
  8
0
  6
Continuous
 62
     7
370
    15
100
AcDbLine
 10
523.8233516356
 20
187.5660958316
 30
0.0
 11
520.4311618944
 21
187.5660958316
 31
0.0
  0
LINE
  5
2E5
330
1F
100
AcDbEntity
  8
0
  6
Continuous
 62
     7
370
    15
100
AcDbLine
 10
709.4311649343
 20
156.5660961054
 30
0.0
 11
709.4311649343
 21
154.5660960104
 31
0.0
  0
LINE
  5
2E6
330
1F
100
AcDbEntity
  8
0
  6
Continuous
 62
     7
370
    15
100
AcDbLine
 10
709.4311649343
 20
154.5660960104
 30
0.0
 11
686.4311630269
 21
154.5660960104
 31
0.0
  0
LINE
  5
2E7
330
1F
100
AcDbEntity
  8
0
  6
Continuous
 62
     7
370
    15
100
AcDbLine
 10
686.4311630269
 20
156.5660961054
 30
0.0
 11
709.4311649343
 21
156.5660961054
 31
0.0
  0
LINE
  5
2E8
330
1F
100
AcDbEntity
  8
0
  6
Continuous
 62
     7
370
    15
100
AcDbLine
 10
532.4311638614
 20
154.5660960104
 30
0.0
 11
686.4311630269
 21
154.5660960104
 31
0.0
  0
LINE
  5
2E9
330
1F
100
AcDbEntity
  8
0
  6
Continuous
 62
     7
370
    15
100
AcDbLine
 10
532.4311638614
 20
156.5660961054
 30
0.0
 11
686.4311630269
 21
156.5660961054
 31
0.0
  0
LINE
  5
2EA
330
1F
100
AcDbEntity
  8
0
  6
Continuous
 62
     7
370
    15
100
AcDbLine
 10
509.431161954
 20
154.5660960104
 30
0.0
 11
509.431161954
 21
156.5660961054
 31
0.0
  0
LINE
  5
2EB
330
1F
100
AcDbEntity
  8
0
  6
Continuous
 62
     7
370
    15
100
AcDbLine
 10
532.4311638614
 20
154.5660960104
 30
0.0
 11
509.431161954
 21
154.5660960104
 31
0.0
  0
LINE
  5
2EC
330
1F
100
AcDbEntity
  8
0
  6
Continuous
 62
     7
370
    15
100
AcDbLine
 10
509.431161954
 20
156.5660961054
 30
0.0
 11
532.4311638614
 21
156.5660961054
 31
0.0
  0
ARC
  5
2ED
330
1F
100
AcDbEntity
  8
0
  6
Continuous
 62
     7
370
    15
100
AcDbCircle
 10
708.4311634442
 20
158.5660960104
 30
0.0
 40
2.0
100
AcDbArc
 50
180.0
 51
270.0
  0
ARC
  5
2EE
330
1F
100
AcDbEntity
  8
0
  6
Continuous
 62
     7
370
    15
100
AcDbCircle
 10
510.4311634442
 20
158.5660960104
 30
0.0
 40
2.0
100
AcDbArc
 50
270.0
 51
0.0
  0
LINE
  5
2EF
330
1F
100
AcDbEntity
  8
0
  6
Continuous
 62
     7
370
    15
100
AcDbLine
 10
706.4311663052
 20
169.5660956751
 30
0.0
 11
706.4311663052
 21
158.5660962004
 31
0.0
  0
LINE
  5
2F0
330
1F
100
AcDbEntity
  8
0
  6
Continuous
 62
     7
370
    15
100
AcDbLine
 10
686.4311630269
 20
174.5660955633
 30
0.0
 11
701.431163623
 21
174.5660955633
 31
0.0
  0
ARC
  5
2F1
330
1F
100
AcDbEntity
  8
0
  6
Continuous
 62
     7
370
    15
100
AcDbCircle
 10
701.4311634442
 20
169.5660960104
 30
0.0
 40
5.0
100
AcDbArc
 50
0.0
 51
90.0
  0
LINE
  5
2F2
330
1F
100
AcDbEntity
  8
0
  6
Continuous
 62
     7
370
    15
100
AcDbLine
 10
532.4311638614
 20
174.5660955633
 30
0.0
 11
686.4311630269
 21
174.5660955633
 31
0.0
  0
ARC
  5
2F3
330
1F
100
AcDbEntity
  8
0
  6
Continuous
 62
     7
370
    15
100
AcDbCircle
 10
517.4311634442
 20
169.5660960104
 30
0.0
 40
5.0
100
AcDbArc
 50
90.0
 51
180.0
  0
LINE
  5
2F4
330
1F
100
AcDbEntity
  8
0
  6
Continuous
 62
     7
370
    15
100
AcDbLine
 10
517.4311632653
 20
174.5660955633
 30
0.0
 11
532.4311638614
 21
174.5660955633
 31
0.0
  0
LINE
  5
2F5
330
1F
100
AcDbEntity
  8
0
  6
Continuous
 62
     7
370
    15
100
AcDbLine
 10
512.4311605831
 20
158.5660962004
 30
0.0
 11
512.4311605831
 21
169.5660956751
 31
0.0
  0
LINE
  5
2F6
330
1F
100
AcDbEntity
  8
0
  6
Continuous
 62
     7
370
    15
100
AcDbLine
 10
621.9311636304
 20
177.7660957153
 30
0.0
 11
596.9311632579
 21
177.7660957153
 31
0.0
  0
LINE
  5
2F7
330
1F
100
AcDbEntity
  8
0
  6
Continuous
 62
     7
370
    15
100
AcDbLine
 10
596.9311632579
 20
177.7660957153
 30
0.0
 11
596.9311632579
 21
174.5660955633
 31
0.0
  0
LINE
  5
2F8
330
1F
100
AcDbEntity
  8
0
  6
Continuous
 62
     7
370
    15
100
AcDbLine
 10
621.9311636304
 20
177.7660957153
 30
0.0
 11
621.9311636304
 21
174.5660955633
 31
0.0
  0
ARC
  5
2F9
330
1F
100
AcDbEntity
  8
0
  6
Continuous
 62
     7
370
    15
100
AcDbCircle
 10
609.4311634442
 20
193.5660960104
 30
0.0
 40
4.000000000000021
100
AcDbArc
 50
136.6513930018
 51
38.2168113771
  0
LINE
  5
2FA
330
1F
100
AcDbEntity
  8
0
  6
Continuous
 62
     7
370
    15
100
AcDbLine
 10
596.9311632579
 20
197.5687200751
 30
0.0
 11
596.9311632579
 21
177.7660957153
 31
0.0
  0
LINE
  5
2FB
330
1F
100
AcDbEntity
  8
0
  6
Continuous
 62
     7
370
    15
100
AcDbLine
 10
621.9311636304
 20
196.5336593415
 30
0.0
 11
621.9311636304
 21
177.7660957153
 31
0.0
  0
LINE
  5
2FC
330
1F
100
AcDbEntity
  8
SLD-0
370
     0
100
AcDbLine
 10
529.4311634442
 20
176.4588300024
 30
0.0
 11
529.4311634442
 21
147.4290551939
 31
0.0
  0
LINE
  5
2FD
330
1F
100
AcDbEntity
  8
SLD-0
370
     0
100
AcDbLine
 10
689.4311634442
 20
177.8475095004
 30
0.0
 11
689.4311634442
 21
147.4290551939
 31
0.0
  0
INSERT
  5
309
330
1F
100
AcDbEntity
  8
SLD-0
100
AcDbBlockReference
  2
SW_CENTERMARKSYMBOL_0
 10
609.4311634442
 20
278.5660960104
 30
0.0
  0
ENDSEC
  0
SECTION
  2
OBJECTS
  0
DICTIONARY
  5
C
330
0
100
AcDbDictionary
281
     1
  3
ACAD_GROUP
350
D
  3
ACAD_LAYOUT
350
1A
  3
ACAD_MLEADERSTYLE
350
30B
  3
ACAD_MLINESTYLE
350
17
  3
ACAD_PLOTSETTINGS
350
19
  3
ACAD_PLOTSTYLENAME
350
E
  3
ACAD_TABLESTYLE
350
30A
  3
ACAD_VISUALSTYLE
350
2A
  3
AcDbVariableDictionary
350
30C
  0
DICTIONARY
  5
D
102
{ACAD_REACTORS
330
C
102
}
330
C
100
AcDbDictionary
281
     1
  0
DICTIONARY
  5
1A
102
{ACAD_REACTORS
330
C
102
}
330
C
100
AcDbDictionary
281
     1
  3
Layout1
350
1E
  3
Layout2
350
26
  3
Model
350
22
  0
DICTIONARY
  5
30B
102
{ACAD_REACTORS
330
C
102
}
330
C
100
AcDbDictionary
281
     1
  0
DICTIONARY
  5
17
102
{ACAD_REACTORS
330
C
102
}
330
C
100
AcDbDictionary
281
     1
  3
Standard
350
18
  0
DICTIONARY
  5
19
102
{ACAD_REACTORS
330
C
102
}
330
C
100
AcDbDictionary
281
     1
  0
ACDBDICTIONARYWDFLT
  5
E
102
{ACAD_REACTORS
330
C
102
}
330
C
100
AcDbDictionary
281
     1
  3
Normal
350
F
100
AcDbDictionaryWithDefault
340
F
  0
DICTIONARY
  5
30A
102
{ACAD_REACTORS
330
C
102
}
330
C
100
AcDbDictionary
281
     1
  0
DICTIONARY
  5
2A
102
{ACAD_REACTORS
330
C
102
}
330
C
100
AcDbDictionary
281
     1
  3
2dWireframe
350
2F
  3
3D Hidden
350
31
  3
3dWireframe
350
30
  3
Basic
350
32
  3
Brighten
350
36
  3
ColorChange
350
3A
  3
Conceptual
350
34
  3
Dim
350
35
  3
Facepattern
350
39
  3
Flat
350
2B
  3
FlatWithEdges
350
2C
  3
Gouraud
350
2D
  3
GouraudWithEdges
350
2E
  3
Linepattern
350
38
  3
Realistic
350
33
  3
Thicken
350
37
  0
DICTIONARY
  5
30C
102
{ACAD_REACTORS
330
C
102
}
330
C
100
AcDbDictionary
281
     1
  3
PSOLHEIGHT
350
30E
  3
PSOLWIDTH
350
30D
  0
LAYOUT
  5
1E
102
{ACAD_REACTORS
330
1A
102
}
330
1A
100
AcDbPlotSettings
  1

  2
none_device
  4

  6

 40
0.0
 41
0.0
 42
0.0
 43
0.0
 44
0.0
 45
0.0
 46
0.0
 47
0.0
 48
0.0
 49
0.0
140
0.0
141
0.0
142
1.0
143
1.0
 70
   688
 72
     0
 73
     0
 74
     5
  7

 75
    16
147
1.0
148
0.0
149
0.0
100
AcDbLayout
  1
Layout1
 70
     1
 71
     1
 10
0.0
 20
0.0
 11
420.0
 21
297.0
 12
0.0
 22
0.0
 32
0.0
 14
1.0000000000E+20
 24
1.0000000000E+20
 34
1.0000000000E+20
 15
-1.0000000000E+20
 25
-1.0000000000E+20
 35
-1.0000000000E+20
146
0.0
 13
0.0
 23
0.0
 33
0.0
 16
1.0
 26
0.0
 36
0.0
 17
0.0
 27
1.0
 37
0.0
 76
     0
330
1B
  0
LAYOUT
  5
26
102
{ACAD_REACTORS
330
1A
102
}
330
1A
100
AcDbPlotSettings
  1

  2
none_device
  4

  6

 40
0.0
 41
0.0
 42
0.0
 43
0.0
 44
0.0
 45
0.0
 46
0.0
 47
0.0
 48
0.0
 49
0.0
140
0.0
141
0.0
142
1.0
143
1.0
 70
   688
 72
     0
 73
     0
 74
     5
  7

 75
    16
147
1.0
148
0.0
149
0.0
100
AcDbLayout
  1
Layout2
 70
     1
 71
     2
 10
0.0
 20
0.0
 11
0.0
 21
0.0
 12
0.0
 22
0.0
 32
0.0
 14
0.0
 24
0.0
 34
0.0
 15
0.0
 25
0.0
 35
0.0
146
0.0
 13
0.0
 23
0.0
 33
0.0
 16
1.0
 26
0.0
 36
0.0
 17
0.0
 27
1.0
 37
0.0
 76
     0
330
23
  0
LAYOUT
  5
22
102
{ACAD_REACTORS
330
1A
102
}
330
1A
100
AcDbPlotSettings
  1

  2
none_device
  4

  6

 40
0.0
 41
0.0
 42
0.0
 43
0.0
 44
0.0
 45
0.0
 46
0.0
 47
0.0
 48
0.0
 49
0.0
140
0.0
141
0.0
142
1.0
143
1.0
 70
  1712
 72
     0
 73
     0
 74
     0
  7

 75
     0
147
1.0
148
0.0
149
0.0
100
AcDbLayout
  1
Model
 70
     1
 71
     0
 10
0.0
 20
0.0
 11
841.0
 21
594.0
 12
0.0
 22
0.0
 32
0.0
 14
0.0
 24
0.0
 34
0.0
 15
841.0
 25
594.0
 35
0.0
146
0.0
 13
0.0
 23
0.0
 33
0.0
 16
1.0
 26
0.0
 36
0.0
 17
0.0
 27
1.0
 37
0.0
 76
     0
330
1F
331
29
  0
MLINESTYLE
  5
18
102
{ACAD_REACTORS
330
17
102
}
330
17
100
AcDbMlineStyle
  2
Standard
 70
     0
  3

 62
   256
 51
90.0
 52
90.0
 71
     2
 49
0.5
 62
   256
  6
BYLAYER
 49
-0.5
 62
   256
  6
BYLAYER
  0
ACDBPLACEHOLDER
  5
F
102
{ACAD_REACTORS
330
E
102
}
330
E
  0
VISUALSTYLE
  5
2F
102
{ACAD_REACTORS
330
2A
102
}
330
2A
100
AcDbVisualStyle
  2
2dWireframe
 70
     4
 71
     0
 72
     2
 73
     0
 90
        0
 40
-0.6
 41
-30.0
 62
     5
 63
     7
 74
     1
 91
        4
 64
     7
 65
   257
 75
     1
175
     1
 42
1.0
 92
        0
 66
   257
 43
1.0
 76
     1
 77
     6
 78
     2
 67
     7
 79
     5
170
     0
171
     0
290
     0
174
     0
 93
        1
 44
0.0
173
     0
291
     0
 45
0.0
1001
ACAD
1000
AcDbSavedByObjectVersion
1070
     0
  0
VISUALSTYLE
  5
31
102
{ACAD_REACTORS
330
2A
102
}
330
2A
100
AcDbVisualStyle
  2
3D Hidden
 70
     6
 71
     1
 72
     2
 73
     2
 90
        0
 40
-0.6
 41
-30.0
 62
     5
 63
     7
 74
     2
 91
        2
 64
     7
 65
   257
 75
     2
175
     1
 42
40.0
 92
        0
 66
   257
 43
1.0
 76
     1
 77
     6
 78
     2
 67
     7
 79
     3
170
     0
171
     0
290
     0
174
     0
 93
        1
 44
0.0
173
     0
291
     0
 45
0.0
1001
ACAD
1000
AcDbSavedByObjectVersion
1070
     0
  0
VISUALSTYLE
  5
30
102
{ACAD_REACTORS
330
2A
102
}
330
2A
100
AcDbVisualStyle
  2
3dWireframe
 70
     5
 71
     0
 72
     2
 73
     0
 90
        0
 40
-0.6
 41
-30.0
 62
     5
 63
     7
 74
     1
 91
        4
 64
     7
 65
   257
 75
     1
175
     1
 42
1.0
 92
        0
 66
   257
 43
1.0
 76
     1
 77
     6
 78
     2
 67
     7
 79
     5
170
     0
171
     0
290
     0
174
     0
 93
        1
 44
0.0
173
     0
291
     0
 45
0.0
1001
ACAD
1000
AcDbSavedByObjectVersion
1070
     0
  0
VISUALSTYLE
  5
32
102
{ACAD_REACTORS
330
2A
102
}
330
2A
100
AcDbVisualStyle
  2
Basic
 70
     7
 71
     1
 72
     0
 73
     1
 90
        0
 40
-0.6
 41
-30.0
 62
     5
 63
     7
 74
     0
 91
        4
 64
     7
 65
   257
 75
     1
175
     1
 42
1.0
 92
        8
 66
     7
 43
1.0
 76
     1
 77
     6
 78
     2
 67
     7
 79
     5
170
     0
171
     0
290
     0
174
     0
 93
        1
 44
0.0
173
     0
291
     1
 45
0.0
1001
ACAD
1000
AcDbSavedByObjectVersion
1070
     0
  0
VISUALSTYLE
  5
36
102
{ACAD_REACTORS
330
2A
102
}
330
2A
100
AcDbVisualStyle
  2
Brighten
 70
    12
 71
     2
 72
     2
 73
     0
 90
        0
 40
-0.6
 41
-30.0
 62
     5
 63
     7
 74
     1
 91
        4
 64
     7
 65
   257
 75
     1
175
     1
 42
1.0
 92
        8
 66
     7
 43
1.0
 76
     1
 77
     6
 78
     2
 67
     7
 79
     5
170
     0
171
     0
290
     0
174
     0
 93
        1
 44
50.0
173
     0
291
     1
 45
0.0
1001
ACAD
1000
AcDbSavedByObjectVersion
1070
     0
  0
VISUALSTYLE
  5
3A
102
{ACAD_REACTORS
330
2A
102
}
330
2A
100
AcDbVisualStyle
  2
ColorChange
 70
    16
 71
     2
 72
     2
 73
     3
 90
        0
 40
-0.6
 41
-30.0
 62
     5
 63
     8
 74
     1
 91
        4
 64
     7
 65
   257
 75
     1
175
     1
 42
1.0
 92
        8
 66
     8
 43
1.0
 76
     1
 77
     6
 78
     2
 67
     7
 79
     5
170
     0
171
     0
290
     0
174
     0
 93
        1
 44
0.0
173
     0
291
     1
 45
0.0
1001
ACAD
1000
AcDbSavedByObjectVersion
1070
     0
  0
VISUALSTYLE
  5
34
102
{ACAD_REACTORS
330
2A
102
}
330
2A
100
AcDbVisualStyle
  2
Conceptual
 70
     9
 71
     3
 72
     2
 73
     0
 90
        0
 40
-0.6
 41
-30.0
 62
     5
 63
     7
 74
     2
 91
        2
 64
     7
 65
   257
 75
     1
175
     1
 42
40.0
 92
        8
 66
     7
 43
1.0
 76
     1
 77
     6
 78
     2
 67
     7
 79
     3
170
     0
171
     0
290
     0
174
     0
 93
        1
 44
0.0
173
     0
291
     0
 45
0.0
1001
ACAD
1000
AcDbSavedByObjectVersion
1070
     0
  0
VISUALSTYLE
  5
35
102
{ACAD_REACTORS
330
2A
102
}
330
2A
100
AcDbVisualStyle
  2
Dim
 70
    11
 71
     2
 72
     2
 73
     0
 90
        0
 40
-0.6
 41
-30.0
 62
     5
 63
     7
 74
     1
 91
        4
 64
     7
 65
   257
 75
     1
175
     1
 42
1.0
 92
        8
 66
     7
 43
1.0
 76
     1
 77
     6
 78
     2
 67
     7
 79
     5
170
     0
171
     0
290
     0
174
     0
 93
        1
 44
-50.0
173
     0
291
     1
 45
0.0
1001
ACAD
1000
AcDbSavedByObjectVersion
1070
     0
  0
VISUALSTYLE
  5
39
102
{ACAD_REACTORS
330
2A
102
}
330
2A
100
AcDbVisualStyle
  2
Facepattern
 70
    15
 71
     2
 72
     2
 73
     0
 90
        0
 40
-0.6
 41
-30.0
 62
     5
 63
     7
 74
     1
 91
        4
 64
     7
 65
   257
 75
     1
175
     1
 42
1.0
 92
        8
 66
     7
 43
1.0
 76
     1
 77
     6
 78
     2
 67
     7
 79
     5
170
     0
171
     0
290
     0
174
     0
 93
        1
 44
0.0
173
     0
291
     1
 45
0.0
1001
ACAD
1000
AcDbSavedByObjectVersion
1070
     0
  0
VISUALSTYLE
  5
2B
102
{ACAD_REACTORS
330
2A
102
}
330
2A
100
AcDbVisualStyle
  2
Flat
 70
     0
 71
     2
 72
     1
 73
     1
 90
        2
 40
-0.6
 41
30.0
 62
     5
 63
     7
 74
     0
 91
        4
 64
     7
 65
   257
 75
     1
175
     1
 42
1.0
 92
        8
 66
     7
 43
1.0
 76
     1
 77
     6
 78
     2
 67
     7
 79
     5
170
     0
171
     0
290
     0
174
     0
 93
       13
 44
0.0
173
     0
291
     1
 45
0.0
1001
ACAD
1000
AcDbSavedByObjectVersion
1070
     0
  0
VISUALSTYLE
  5
2C
102
{ACAD_REACTORS
330
2A
102
}
330
2A
100
AcDbVisualStyle
  2
FlatWithEdges
 70
     1
 71
     2
 72
     1
 73
     1
 90
        2
 40
-0.6
 41
30.0
 62
     5
 63
     7
 74
     1
 91
        4
 64
     7
 65
   257
 75
     1
175
     1
 42
1.0
 92
        0
 66
   257
 43
1.0
 76
     1
 77
     6
 78
     2
 67
     7
 79
     5
170
     0
171
     0
290
     0
174
     0
 93
       13
 44
0.0
173
     0
291
     1
 45
0.0
1001
ACAD
1000
AcDbSavedByObjectVersion
1070
     0
  0
VISUALSTYLE
  5
2D
102
{ACAD_REACTORS
330
2A
102
}
330
2A
100
AcDbVisualStyle
  2
Gouraud
 70
     2
 71
     2
 72
     2
 73
     1
 90
        2
 40
-0.6
 41
30.0
 62
     5
 63
     7
 74
     0
 91
        4
 64
     7
 65
   257
 75
     1
175
     1
 42
1.0
 92
        0
 66
     7
 43
1.0
 76
     1
 77
     6
 78
     2
 67
     7
 79
     5
170
     0
171
     0
290
     0
174
     0
 93
       13
 44
0.0
173
     0
291
     1
 45
0.0
1001
ACAD
1000
AcDbSavedByObjectVersion
1070
     0
  0
VISUALSTYLE
  5
2E
102
{ACAD_REACTORS
330
2A
102
}
330
2A
100
AcDbVisualStyle
  2
GouraudWithEdges
 70
     3
 71
     2
 72
     2
 73
     1
 90
        2
 40
-0.6
 41
30.0
 62
     5
 63
     7
 74
     1
 91
        4
 64
     7
 65
   257
 75
     1
175
     1
 42
1.0
 92
        0
 66
   257
 43
1.0
 76
     1
 77
     6
 78
     2
 67
     7
 79
     5
170
     0
171
     0
290
     0
174
     0
 93
       13
 44
0.0
173
     0
291
     1
 45
0.0
1001
ACAD
1000
AcDbSavedByObjectVersion
1070
     0
  0
VISUALSTYLE
  5
38
102
{ACAD_REACTORS
330
2A
102
}
330
2A
100
AcDbVisualStyle
  2
Linepattern
 70
    14
 71
     2
 72
     2
 73
     0
 90
        0
 40
-0.6
 41
-30.0
 62
     5
 63
     7
 74
     1
 91
        4
 64
     7
 65
   257
 75
     7
175
     7
 42
1.0
 92
        8
 66
     7
 43
1.0
 76
     1
 77
     6
 78
     2
 67
     7
 79
     5
170
     0
171
     0
290
     0
174
     0
 93
        1
 44
0.0
173
     0
291
     1
 45
0.0
1001
ACAD
1000
AcDbSavedByObjectVersion
1070
     0
  0
VISUALSTYLE
  5
33
102
{ACAD_REACTORS
330
2A
102
}
330
2A
100
AcDbVisualStyle
  2
Realistic
 70
     8
 71
     2
 72
     2
 73
     0
 90
        0
 40
-0.6
 41
-30.0
 62
     5
 63
     7
 74
     1
 91
        0
 64
     7
 65
   257
 75
     1
175
     1
 42
1.0
 92
        8
 66
     8
 43
1.0
 76
     1
 77
     6
 78
     2
 67
     7
 79
     5
170
     0
171
     0
290
     0
174
     0
 93
       13
 44
0.0
173
     0
291
     0
 45
0.0
1001
ACAD
1000
AcDbSavedByObjectVersion
1070
     0
  0
VISUALSTYLE
  5
37
102
{ACAD_REACTORS
330
2A
102
}
330
2A
100
AcDbVisualStyle
  2
Thicken
 70
    13
 71
     2
 72
     2
 73
     0
 90
        0
 40
-0.6
 41
-30.0
 62
     5
 63
     7
 74
     1
 91
        4
 64
     7
 65
   257
 75
     1
175
     1
 42
1.0
 92
       12
 66
     7
 43
1.0
 76
     1
 77
     6
 78
     2
 67
     7
 79
     5
170
     0
171
     0
290
     0
174
     0
 93
        1
 44
0.0
173
     0
291
     1
 45
0.0
1001
ACAD
1000
AcDbSavedByObjectVersion
1070
     0
  0
DICTIONARYVAR
  5
30E
102
{ACAD_REACTORS
330
30C
102
}
330
30C
100
DictionaryVariables
280
     0
  1
80.000000
  0
DICTIONARYVAR
  5
30D
102
{ACAD_REACTORS
330
30C
102
}
330
30C
100
DictionaryVariables
280
     0
  1
5.000000
  0
ENDSEC
  0
EOF
