  0
SECTION
  2
HEADER
  9
$ACADVER
  1
AC1015
  9
$ACADMAINTVER
 70
     6
  9
$DWGCODEPAGE
  3
DOS932
  9
$INSBASE
 10
0.0
 20
0.0
 30
0.0
  9
$EXTMIN
 10
0.0
 20
0.0
 30
0.0
  9
$EXTMAX
 10
841.0
 20
594.0
 30
0.0
  9
$LIMMIN
 10
0.0
 20
0.0
  9
$LIMMAX
 10
841.0
 20
594.0
  9
$ORTHOMODE
 70
     0
  9
$REGENMODE
 70
     1
  9
$FILLMODE
 70
     1
  9
$QTEXTMODE
 70
     0
  9
$MIRRTEXT
 70
     1
  9
$LTSCALE
 40
1.0
  9
$ATTMODE
 70
     1
  9
$TEXTSIZE
 40
3.5
  9
$TRACEWID
 40
1.0
  9
$TEXTSTYLE
  7
Standard
  9
$CLAYER
  8
0
  9
$CELTYPE
  6
ByLayer
  9
$CECOLOR
 62
   256
  9
$CELTSCALE
 40
1.0
  9
$DISPSILH
 70
     0
  9
$DIMSCALE
 40
1.0
  9
$DIMASZ
 40
3.8637032976
  9
$DIMEXO
 40
1.0
  9
$DIMDLI
 40
3.75
  9
$DIMRND
 40
0.0
  9
$DIMDLE
 40
0.0
  9
$DIMEXE
 40
1.0
  9
$DIMTP
 40
0.0
  9
$DIMTM
 40
0.0
  9
$DIMTXT
 40
2.7999999523
  9
$DIMCEN
 40
2.5
  9
$DIMTSZ
 40
0.0
  9
$DIMTOL
 70
     0
  9
$DIMLIM
 70
     0
  9
$DIMTIH
 70
     1
  9
$DIMTOH
 70
     1
  9
$DIMSE1
 70
     0
  9
$DIMSE2
 70
     0
  9
$DIMTAD
 70
     1
  9
$DIMZIN
 70
     1
  9
$DIMBLK
  1

  9
$DIMASO
 70
     1
  9
$DIMSHO
 70
     1
  9
$DIMPOST
  1

  9
$DIMAPOST
  1

  9
$DIMALT
 70
     0
  9
$DIMALTD
 70
     3
  9
$DIMALTF
 40
0.0393700787
  9
$DIMLFAC
 40
1.0
  9
$DIMTOFL
 70
     1
  9
$DIMTVP
 40
0.0
  9
$DIMTIX
 70
     0
  9
$DIMSOXD
 70
     0
  9
$DIMSAH
 70
     0
  9
$DIMBLK1
  1

  9
$DIMBLK2
  1

  9
$DIMSTYLE
  2
ISO-25
  9
$DIMCLRD
 70
     0
  9
$DIMCLRE
 70
     0
  9
$DIMCLRT
 70
     0
  9
$DIMTFAC
 40
1.0
  9
$DIMGAP
 40
1.524
  9
$DIMJUST
 70
     0
  9
$DIMSD1
 70
     0
  9
$DIMSD2
 70
     0
  9
$DIMTOLJ
 70
     0
  9
$DIMTZIN
 70
     1
  9
$DIMALTZ
 70
     0
  9
$DIMALTTZ
 70
     0
  9
$DIMUPT
 70
     0
  9
$DIMDEC
 70
     2
  9
$DIMTDEC
 70
     2
  9
$DIMALTU
 70
     2
  9
$DIMALTTD
 70
     3
  9
$DIMTXSTY
  7
Standard
  9
$DIMAUNIT
 70
     0
  9
$DIMADEC
 70
     0
  9
$DIMALTRND
 40
0.0
  9
$DIMAZIN
 70
     0
  9
$DIMDSEP
 70
    44
  9
$DIMATFIT
 70
     3
  9
$DIMFRAC
 70
     0
  9
$DIMLDRBLK
  1

  9
$DIMLUNIT
 70
     2
  9
$DIMLWD
 70
    -2
  9
$DIMLWE
 70
    -2
  9
$DIMTMOVE
 70
     0
  9
$LUNITS
 70
     2
  9
$LUPREC
 70
     3
  9
$SKETCHINC
 40
1.0
  9
$FILLETRAD
 40
10.0
  9
$AUNITS
 70
     0
  9
$AUPREC
 70
     0
  9
$MENU
  1
.
  9
$ELEVATION
 40
0.0
  9
$PELEVATION
 40
0.0
  9
$THICKNESS
 40
0.0
  9
$LIMCHECK
 70
     0
  9
$CHAMFERA
 40
10.0
  9
$CHAMFERB
 40
10.0
  9
$CHAMFERC
 40
20.0
  9
$CHAMFERD
 40
0.0
  9
$SKPOLY
 70
     0
  9
$TDCREATE
 40
2456367.675933692
  9
$TDUCREATE
 40
2456367.300933692
  9
$TDUPDATE
 40
2456367.675933704
  9
$TDUUPDATE
 40
2456367.300933704
  9
$TDINDWG
 40
0.0000000116
  9
$TDUSRTIMER
 40
0.0000000116
  9
$USRTIMER
 70
     1
  9
$ANGBASE
 50
0.0
  9
$ANGDIR
 70
     0
  9
$PDMODE
 70
     0
  9
$PDSIZE
 40
-1.0
  9
$PLINEWID
 40
0.0
  9
$SPLFRAME
 70
     0
  9
$SPLINETYPE
 70
     6
  9
$SPLINESEGS
 70
     8
  9
$HANDSEED
  5
2E9
  9
$SURFTAB1
 70
     6
  9
$SURFTAB2
 70
     6
  9
$SURFTYPE
 70
     6
  9
$SURFU
 70
     6
  9
$SURFV
 70
     6
  9
$UCSBASE
  2

  9
$UCSNAME
  2

  9
$UCSORG
 10
0.0
 20
0.0
 30
0.0
  9
$UCSXDIR
 10
1.0
 20
0.0
 30
0.0
  9
$UCSYDIR
 10
0.0
 20
1.0
 30
0.0
  9
$UCSORTHOREF
  2

  9
$UCSORTHOVIEW
 70
     0
  9
$UCSORGTOP
 10
0.0
 20
0.0
 30
0.0
  9
$UCSORGBOTTOM
 10
0.0
 20
0.0
 30
0.0
  9
$UCSORGLEFT
 10
0.0
 20
0.0
 30
0.0
  9
$UCSORGRIGHT
 10
0.0
 20
0.0
 30
0.0
  9
$UCSORGFRONT
 10
0.0
 20
0.0
 30
0.0
  9
$UCSORGBACK
 10
0.0
 20
0.0
 30
0.0
  9
$PUCSBASE
  2

  9
$PUCSNAME
  2

  9
$PUCSORG
 10
0.0
 20
0.0
 30
0.0
  9
$PUCSXDIR
 10
1.0
 20
0.0
 30
0.0
  9
$PUCSYDIR
 10
0.0
 20
1.0
 30
0.0
  9
$PUCSORTHOREF
  2

  9
$PUCSORTHOVIEW
 70
     0
  9
$PUCSORGTOP
 10
0.0
 20
0.0
 30
0.0
  9
$PUCSORGBOTTOM
 10
0.0
 20
0.0
 30
0.0
  9
$PUCSORGLEFT
 10
0.0
 20
0.0
 30
0.0
  9
$PUCSORGRIGHT
 10
0.0
 20
0.0
 30
0.0
  9
$PUCSORGFRONT
 10
0.0
 20
0.0
 30
0.0
  9
$PUCSORGBACK
 10
0.0
 20
0.0
 30
0.0
  9
$USERI1
 70
     0
  9
$USERI2
 70
     0
  9
$USERI3
 70
     0
  9
$USERI4
 70
     0
  9
$USERI5
 70
     0
  9
$USERR1
 40
0.0
  9
$USERR2
 40
0.0
  9
$USERR3
 40
0.0
  9
$USERR4
 40
0.0
  9
$USERR5
 40
0.0
  9
$WORLDVIEW
 70
     1
  9
$SHADEDGE
 70
     3
  9
$SHADEDIF
 70
    70
  9
$TILEMODE
 70
     1
  9
$MAXACTVP
 70
    64
  9
$PINSBASE
 10
0.0
 20
0.0
 30
0.0
  9
$PLIMCHECK
 70
     0
  9
$PEXTMIN
 10
1.0000000000E+20
 20
1.0000000000E+20
 30
1.0000000000E+20
  9
$PEXTMAX
 10
-1.0000000000E+20
 20
-1.0000000000E+20
 30
-1.0000000000E+20
  9
$PLIMMIN
 10
0.0
 20
0.0
  9
$PLIMMAX
 10
420.0
 20
297.0
  9
$UNITMODE
 70
     0
  9
$VISRETAIN
 70
     1
  9
$PLINEGEN
 70
     0
  9
$PSLTSCALE
 70
     1
  9
$TREEDEPTH
 70
  3020
  9
$CMLSTYLE
  2
Standard
  9
$CMLJUST
 70
     0
  9
$CMLSCALE
 40
20.0
  9
$PROXYGRAPHICS
 70
     1
  9
$MEASUREMENT
 70
     1
  9
$CELWEIGHT
370
    -1
  9
$ENDCAPS
280
     0
  9
$JOINSTYLE
280
     0
  9
$LWDISPLAY
290
     1
  9
$INSUNITS
 70
     4
  9
$HYPERLINKBASE
  1

  9
$STYLESHEET
  1

  9
$XEDIT
290
     1
  9
$CEPSNTYPE
380
     0
  9
$PSTYLEMODE
290
     1
  9
$FINGERPRINTGUID
  2
{4A0EFFC9-19A7-49FC-BA91-58104267AE99}
  9
$VERSIONGUID
  2
{FAEB1C32-E019-11D5-929B-00C0DF256EC4}
  9
$EXTNAMES
290
     1
  9
$PSVPSCALE
 40
0.0
  9
$OLESTARTUP
290
     0
  0
ENDSEC
  0
SECTION
  2
CLASSES
  0
CLASS
  1
ACDBDICTIONARYWDFLT
  2
AcDbDictionaryWithDefault
  3
ObjectDBX Classes
 90
        0
280
     0
281
     0
  0
CLASS
  1
VISUALSTYLE
  2
AcDbVisualStyle
  3
ObjectDBX Classes
 90
     4095
280
     0
281
     0
  0
CLASS
  1
DICTIONARYVAR
  2
AcDbDictionaryVar
  3
ObjectDBX Classes
 90
        0
280
     0
281
     0
  0
CLASS
  1
ACDBPLACEHOLDER
  2
AcDbPlaceHolder
  3
ObjectDBX Classes
 90
        0
280
     0
281
     0
  0
CLASS
  1
LAYOUT
  2
AcDbLayout
  3
ObjectDBX Classes
 90
        0
280
     0
281
     0
  0
ENDSEC
  0
SECTION
  2
TABLES
  0
TABLE
  2
VPORT
  5
8
330
0
100
AcDbSymbolTable
 70
     1
  0
VPORT
  5
29
330
8
100
AcDbSymbolTableRecord
100
AcDbViewportTableRecord
  2
*Active
 70
     0
 10
0.0
 20
0.0
 11
1.0
 21
1.0
 12
420.5
 22
297.0
 13
0.0
 23
0.0
 14
10.0
 24
10.0
 15
10.0
 25
10.0
 16
0.0
 26
0.0
 36
1.0
 17
0.0
 27
0.0
 37
0.0
 40
594.0
 41
1.4158249158
 42
50.0
 43
0.0
 44
0.0
 50
0.0
 51
0.0
 71
     0
 72
  2000
 73
     1
 74
     3
 75
     0
 76
     0
 77
     0
 78
     0
281
     0
 65
     1
110
0.0
120
0.0
130
0.0
111
1.0
121
0.0
131
0.0
112
0.0
122
1.0
132
0.0
 79
     0
146
0.0
  0
ENDTAB
  0
TABLE
  2
LTYPE
  5
5
330
0
100
AcDbSymbolTable
 70
     6
  0
LTYPE
  5
14
330
5
100
AcDbSymbolTableRecord
100
AcDbLinetypeTableRecord
  2
ByBlock
 70
     0
  3

 72
    65
 73
     0
 40
0.0
  0
LTYPE
  5
15
330
5
100
AcDbSymbolTableRecord
100
AcDbLinetypeTableRecord
  2
ByLayer
 70
     0
  3

 72
    65
 73
     0
 40
0.0
  0
LTYPE
  5
16
330
5
100
AcDbSymbolTableRecord
100
AcDbLinetypeTableRecord
  2
Continuous
 70
     0
  3
Solid line
 72
    65
 73
     0
 40
0.0
  0
LTYPE
  5
3B
330
5
100
AcDbSymbolTableRecord
100
AcDbLinetypeTableRecord
  2
HIDDEN
 70
     0
  3
Hidden __ __ __ __ __ __ __ __ __ __ __ __ __ __
 72
    65
 73
     2
 40
1.905
 49
1.27
 74
     0
 49
-0.635
 74
     0
  0
LTYPE
  5
3C
330
5
100
AcDbSymbolTableRecord
100
AcDbLinetypeTableRecord
  2
PHANTOM
 70
     0
  3
Phantom ______  __  __  ______  __  __  ______
 72
    65
 73
     6
 40
12.7
 49
6.35
 74
     0
 49
-1.27
 74
     0
 49
1.27
 74
     0
 49
-1.27
 74
     0
 49
1.27
 74
     0
 49
-1.27
 74
     0
  0
LTYPE
  5
3D
330
5
100
AcDbSymbolTableRecord
100
AcDbLinetypeTableRecord
  2
CENTER
 70
     0
  3
Center ____ _ ____ _ ____ _ ____ _ ____ _ ____
 72
    65
 73
     4
 40
10.16
 49
6.35
 74
     0
 49
-1.27
 74
     0
 49
1.27
 74
     0
 49
-1.27
 74
     0
  0
LTYPE
  5
3E
330
5
100
AcDbSymbolTableRecord
100
AcDbLinetypeTableRecord
  2
CENTERX2
 70
     0
  3
Center (2x) ________  __  ________  __  _____
 72
    65
 73
     4
 40
20.32
 49
12.7
 74
     0
 49
-2.54
 74
     0
 49
2.54
 74
     0
 49
-2.54
 74
     0
  0
LTYPE
  5
3F
330
5
100
AcDbSymbolTableRecord
100
AcDbLinetypeTableRecord
  2
DOT2
 70
     0
  3
Dot (.5x) ........................................
 72
    65
 73
     2
 40
0.635
 49
0.0
 74
     0
 49
-0.635
 74
     0
  0
ENDTAB
  0
TABLE
  2
LAYER
  5
2
330
0
100
AcDbSymbolTable
 70
     4
  0
LAYER
  5
10
330
2
100
AcDbSymbolTableRecord
100
AcDbLayerTableRecord
  2
0
 70
     0
 62
     7
  6
Continuous
370
    -3
390
F
  0
LAYER
  5
40
330
2
100
AcDbSymbolTableRecord
100
AcDbLayerTableRecord
  2
SLD-0
 70
     0
 62
     3
  6
Continuous
370
    -3
390
F
  0
LAYER
  5
41
330
2
100
AcDbSymbolTableRecord
100
AcDbLayerTableRecord
  2
SLD-DEFPOINTS
 70
     0
 62
   179
  6
Continuous
370
    -3
390
F
  0
LAYER
  5
42
330
2
100
AcDbSymbolTableRecord
100
AcDbLayerTableRecord
  2
AM_REFDIM
 70
     0
 62
     4
  6
Continuous
370
    15
390
F
  0
ENDTAB
  0
TABLE
  2
STYLE
  5
3
330
0
100
AcDbSymbolTable
 70
     1
  0
STYLE
  5
11
330
3
100
AcDbSymbolTableRecord
100
AcDbTextStyleTableRecord
  2
Standard
 70
     0
 40
0.0
 41
1.0
 50
0.0
 71
     0
 42
2.5
  3
txt
  4
bigfont
  0
ENDTAB
  0
TABLE
  2
VIEW
  5
6
330
0
100
AcDbSymbolTable
 70
     0
  0
ENDTAB
  0
TABLE
  2
UCS
  5
7
330
0
100
AcDbSymbolTable
 70
     0
  0
ENDTAB
  0
TABLE
  2
APPID
  5
9
330
0
100
AcDbSymbolTable
 70
     1
  0
APPID
  5
12
330
9
100
AcDbSymbolTableRecord
100
AcDbRegAppTableRecord
  2
ACAD
 70
     0
  0
ENDTAB
  0
TABLE
  2
DIMSTYLE
  5
A
330
0
100
AcDbSymbolTable
 70
     1
100
AcDbDimStyleTable
  0
DIMSTYLE
105
27
330
A
100
AcDbSymbolTableRecord
100
AcDbDimStyleTableRecord
  2
ISO-25
 70
     0
 41
2.5
 42
0.625
 43
3.75
 44
1.25
 73
     0
 74
     0
 77
     1
 78
     8
140
2.5
141
2.5
143
0.0393700787
147
0.625
171
     3
172
     1
271
     2
272
     2
274
     3
278
    44
283
     0
284
     8
340
11
  0
ENDTAB
  0
TABLE
  2
BLOCK_RECORD
  5
1
330
0
100
AcDbSymbolTable
 70
     3
  0
BLOCK_RECORD
  5
1F
330
1
100
AcDbSymbolTableRecord
100
AcDbBlockTableRecord
  2
*Model_Space
340
22
  0
BLOCK_RECORD
  5
1B
330
1
100
AcDbSymbolTableRecord
100
AcDbBlockTableRecord
  2
*Paper_Space
340
1E
  0
BLOCK_RECORD
  5
23
330
1
100
AcDbSymbolTableRecord
100
AcDbBlockTableRecord
  2
*Paper_Space0
340
26
  0
BLOCK_RECORD
  5
175
330
1
100
AcDbSymbolTableRecord
100
AcDbBlockTableRecord
  2
SW_CENTERMARKSYMBOL_0
340
0
102
{BLKREFS
331
180
102
}
  0
BLOCK_RECORD
  5
2D6
330
1
100
AcDbSymbolTableRecord
100
AcDbBlockTableRecord
  2
SW_CENTERMARKSYMBOL_1
340
0
102
{BLKREFS
331
2E1
102
}
  0
ENDTAB
  0
ENDSEC
  0
SECTION
  2
BLOCKS
  0
BLOCK
  5
20
330
1F
100
AcDbEntity
  8
0
100
AcDbBlockBegin
  2
*Model_Space
 70
     0
 10
0.0
 20
0.0
 30
0.0
  3
*Model_Space
  1

  0
ENDBLK
  5
21
330
1F
100
AcDbEntity
  8
0
100
AcDbBlockEnd
  0
BLOCK
  5
1C
330
1B
100
AcDbEntity
 67
     1
  8
0
100
AcDbBlockBegin
  2
*Paper_Space
 70
     0
 10
0.0
 20
0.0
 30
0.0
  3
*Paper_Space
  1

  0
ENDBLK
  5
1D
330
1B
100
AcDbEntity
 67
     1
  8
0
100
AcDbBlockEnd
  0
BLOCK
  5
24
330
23
100
AcDbEntity
  8
0
100
AcDbBlockBegin
  2
*Paper_Space0
 70
     0
 10
0.0
 20
0.0
 30
0.0
  3
*Paper_Space0
  1

  0
ENDBLK
  5
25
330
23
100
AcDbEntity
  8
0
100
AcDbBlockEnd
  0
BLOCK
  5
176
330
175
100
AcDbEntity
  8
0
100
AcDbBlockBegin
  2
SW_CENTERMARKSYMBOL_0
 70
     0
 10
0.0
 20
0.0
 30
0.0
  3
SW_CENTERMARKSYMBOL_0
  1

  0
LINE
  5
178
330
175
100
AcDbEntity
  8
SLD-0
 62
     0
100
AcDbLine
 10
0.0
 20
0.0
 30
0.0
 11
0.0
 21
2.5
 31
0.0
  0
LINE
  5
179
330
175
100
AcDbEntity
  8
SLD-0
 62
     0
100
AcDbLine
 10
0.0
 20
0.0
 30
0.0
 11
-2.5
 21
0.0
 31
0.0
  0
LINE
  5
17A
330
175
100
AcDbEntity
  8
SLD-0
 62
     0
100
AcDbLine
 10
0.0
 20
0.0
 30
0.0
 11
0.0
 21
-2.5
 31
0.0
  0
LINE
  5
17B
330
175
100
AcDbEntity
  8
SLD-0
 62
     0
100
AcDbLine
 10
0.0
 20
0.0
 30
0.0
 11
2.5
 21
0.0
 31
0.0
  0
LINE
  5
17C
330
175
100
AcDbEntity
  8
SLD-0
 62
     0
100
AcDbLine
 10
0.0
 20
5.0
 30
0.0
 11
0.0
 21
20.5099564528
 31
0.0
  0
LINE
  5
17D
330
175
100
AcDbEntity
  8
SLD-0
 62
     0
100
AcDbLine
 10
-5.0
 20
0.0
 30
0.0
 11
-16.5520285609
 21
0.0
 31
0.0
  0
LINE
  5
17E
330
175
100
AcDbEntity
  8
SLD-0
 62
     0
100
AcDbLine
 10
0.0
 20
-5.0
 30
0.0
 11
0.0
 21
-18.0824496635
 31
0.0
  0
LINE
  5
17F
330
175
100
AcDbEntity
  8
SLD-0
 62
     0
100
AcDbLine
 10
5.0
 20
0.0
 30
0.0
 11
16.4572122035
 21
0.0
 31
0.0
  0
ENDBLK
  5
177
330
175
100
AcDbEntity
  8
0
100
AcDbBlockEnd
  0
BLOCK
  5
2D7
330
2D6
100
AcDbEntity
  8
0
100
AcDbBlockBegin
  2
SW_CENTERMARKSYMBOL_1
 70
     0
 10
0.0
 20
0.0
 30
0.0
  3
SW_CENTERMARKSYMBOL_1
  1

  0
LINE
  5
2D9
330
2D6
100
AcDbEntity
  8
SLD-0
 62
     0
100
AcDbLine
 10
0.0
 20
0.0
 30
0.0
 11
0.0
 21
2.5
 31
0.0
  0
LINE
  5
2DA
330
2D6
100
AcDbEntity
  8
SLD-0
 62
     0
100
AcDbLine
 10
0.0
 20
0.0
 30
0.0
 11
-2.5
 21
0.0
 31
0.0
  0
LINE
  5
2DB
330
2D6
100
AcDbEntity
  8
SLD-0
 62
     0
100
AcDbLine
 10
0.0
 20
0.0
 30
0.0
 11
0.0
 21
-2.5
 31
0.0
  0
LINE
  5
2DC
330
2D6
100
AcDbEntity
  8
SLD-0
 62
     0
100
AcDbLine
 10
0.0
 20
0.0
 30
0.0
 11
2.5
 21
0.0
 31
0.0
  0
LINE
  5
2DD
330
2D6
100
AcDbEntity
  8
SLD-0
 62
     0
100
AcDbLine
 10
0.0
 20
5.0
 30
0.0
 11
0.0
 21
63.3899647485
 31
0.0
  0
LINE
  5
2DE
330
2D6
100
AcDbEntity
  8
SLD-0
 62
     0
100
AcDbLine
 10
-5.0
 20
0.0
 30
0.0
 11
-69.7607787718
 21
0.0
 31
0.0
  0
LINE
  5
2DF
330
2D6
100
AcDbEntity
  8
SLD-0
 62
     0
100
AcDbLine
 10
0.0
 20
-5.0
 30
0.0
 11
0.0
 21
-65.8644769913
 31
0.0
  0
LINE
  5
2E0
330
2D6
100
AcDbEntity
  8
SLD-0
 62
     0
100
AcDbLine
 10
5.0
 20
0.0
 30
0.0
 11
69.9535599874
 21
0.0
 31
0.0
  0
ENDBLK
  5
2D8
330
2D6
100
AcDbEntity
  8
0
100
AcDbBlockEnd
  0
ENDSEC
  0
SECTION
  2
ENTITIES
  0
LINE
  5
43
330
1F
100
AcDbEntity
  8
0
  6
Continuous
 62
     7
370
    15
100
AcDbLine
 10
257.430994248
 20
271.1666369417
 30
0.0
 11
257.4297872539
 21
270.823008714
 31
0.0
  0
LWPOLYLINE
  5
44
330
1F
100
AcDbEntity
  8
0
  6
Continuous
 62
     7
370
    15
100
AcDbPolyline
 90
        9
 70
   128
 43
0.0
 10
257.4897048231
 20
285.8693109432
 10
257.485122716
 20
285.4799445325
 10
257.4808833357
 20
284.8925854617
 10
257.4786630627
 20
284.4216528886
 10
257.4764129873
 20
283.9014896729
 10
257.4723002668
 20
282.8752439075
 10
257.4684557672
 20
281.8919432887
 10
257.4596044775
 20
279.3002402016
 10
257.430994248
 20
271.1666369417
  0
LWPOLYLINE
  5
45
330
1F
100
AcDbEntity
  8
0
  6
Continuous
 62
     7
370
    15
100
AcDbPolyline
 90
        9
 70
   128
 43
0.0
 10
260.1747525092
 20
270.7693328687
 10
260.1472449656
 20
278.6939305791
 10
260.1378199812
 20
281.4681840667
 10
260.1341617461
 20
282.4728706458
 10
260.1317552086
 20
283.154955467
 10
260.1289537903
 20
283.8953699523
 10
260.12574259
 20
284.6053814122
 10
260.122367477
 20
285.1586447635
 10
260.1146114226
 20
285.8692485446
  0
LINE
  5
46
330
1F
100
AcDbEntity
  8
0
  6
Continuous
 62
     7
370
    15
100
AcDbLine
 10
260.1559993978
 20
271.1666369417
 30
0.0
 11
260.1547849532
 21
270.823008714
 31
0.0
  0
LWPOLYLINE
  5
47
330
1F
100
AcDbEntity
  8
0
  6
Continuous
 62
     7
370
    15
100
AcDbPolyline
 90
        9
 70
   128
 43
0.0
 10
260.2147099729
 20
285.8693109432
 10
260.2101204153
 20
285.4799445325
 10
260.2058884855
 20
284.8925854617
 10
260.2036607619
 20
284.4216528886
 10
260.2014106866
 20
283.9014896729
 10
260.1972979661
 20
282.8752439075
 10
260.1934534665
 20
281.8919432887
 10
260.1846021767
 20
279.3002402016
 10
260.1559993978
 20
271.1666369417
  0
LWPOLYLINE
  5
48
330
1F
100
AcDbEntity
  8
0
  6
Continuous
 62
     7
370
    15
100
AcDbPolyline
 90
        9
 70
   128
 43
0.0
 10
262.902156746
 20
270.0763636806
 10
262.8722426649
 20
278.6939305791
 10
262.8628176804
 20
281.4681840667
 10
262.8591594454
 20
282.4728706458
 10
262.8567529078
 20
283.154955467
 10
262.8539589401
 20
283.8953699523
 10
262.8507402893
 20
284.6053814122
 10
262.8473651763
 20
285.1586447635
 10
262.8396091219
 20
285.8692485446
  0
LINE
  5
49
330
1F
100
AcDbEntity
  8
0
  6
Continuous
 62
     7
370
    15
100
AcDbLine
 10
254.7059965487
 20
271.1666369417
 30
0.0
 11
254.7047895547
 21
270.823008714
 31
0.0
  0
LWPOLYLINE
  5
4A
330
1F
100
AcDbEntity
  8
0
  6
Continuous
 62
     7
370
    15
100
AcDbPolyline
 90
        9
 70
   128
 43
0.0
 10
254.7647071238
 20
285.8693109432
 10
254.7601250168
 20
285.4799445325
 10
254.7558856364
 20
284.8925854617
 10
254.7536579128
 20
284.4216528886
 10
254.7514078375
 20
283.9014896729
 10
254.747295117
 20
282.8752439075
 10
254.743458068
 20
281.8919432887
 10
254.7346067782
 20
279.3002402016
 10
254.7059965487
 20
271.1666369417
  0
LWPOLYLINE
  5
4B
330
1F
100
AcDbEntity
  8
0
  6
Continuous
 62
     7
370
    15
100
AcDbPolyline
 90
        9
 70
   128
 43
0.0
 10
257.4497548099
 20
270.7693328687
 10
257.4222398158
 20
278.6939305791
 10
257.4128222819
 20
281.4681840667
 10
257.4091640468
 20
282.4728706458
 10
257.4067575093
 20
283.154955467
 10
257.403956091
 20
283.8953699523
 10
257.4007448908
 20
284.6053814122
 10
257.3973697778
 20
285.1586447635
 10
257.3896062728
 20
285.8692485446
  0
LWPOLYLINE
  5
4C
330
1F
100
AcDbEntity
  8
0
  6
Continuous
 62
     7
370
    15
100
AcDbPolyline
 90
        9
 70
   128
 43
0.0
 10
252.0397094246
 20
285.8693109432
 10
252.0351198669
 20
285.4799445325
 10
252.0308879372
 20
284.8925854617
 10
252.0286602136
 20
284.4216528886
 10
252.0264101382
 20
283.9014896729
 10
252.0222974177
 20
282.8752439075
 10
252.0184529181
 20
281.8919432887
 10
252.0096016284
 20
279.3002402016
 10
251.9771618005
 20
270.077086387
  0
LWPOLYLINE
  5
4D
330
1F
100
AcDbEntity
  8
0
  6
Continuous
 62
     7
370
    15
100
AcDbPolyline
 90
        9
 70
   128
 43
0.0
 10
254.7247496601
 20
270.7693328687
 10
254.6972421165
 20
278.6939305791
 10
254.6878171321
 20
281.4681840667
 10
254.684158897
 20
282.4728706458
 10
254.6817523595
 20
283.154955467
 10
254.6789583917
 20
283.8953699523
 10
254.6757397409
 20
284.6053814122
 10
254.6723646279
 20
285.1586447635
 10
254.6646085735
 20
285.8692485446
  0
ARC
  5
4E
330
1F
100
AcDbEntity
  8
0
  6
Continuous
 62
     7
370
    15
100
AcDbCircle
 10
256.6018066145
 20
285.2943734905
 30
0.0
 40
8.630919905491112
100
AcDbArc
 50
178.6176432085
 51
237.8188498212
  0
ARC
  5
4F
330
1F
100
AcDbEntity
  8
0
  6
Continuous
 62
     7
370
    15
100
AcDbCircle
 10
258.2620768721
 20
285.2943792957
 30
0.0
 40
8.629974060750248
100
AcDbArc
 50
302.3088400777
 51
357.7797694211
  0
ARC
  5
50
330
1F
100
AcDbEntity
  8
0
  6
Continuous
 62
     7
370
    15
100
AcDbCircle
 10
257.2843896888
 20
285.3712609786
 30
0.0
 40
5.310780145265388
100
AcDbArc
 50
88.3246228392
 51
179.4101214935
  0
ARC
  5
51
330
1F
100
AcDbEntity
  8
0
  6
Continuous
 62
     7
370
    15
100
AcDbCircle
 10
257.5871097137
 20
285.356755547
 30
0.0
 40
5.325057145328354
100
AcDbArc
 50
3.5410491303
 51
91.5867187264
  0
LINE
  5
52
330
1F
100
AcDbEntity
  8
0
  6
Continuous
 62
     7
370
    15
100
AcDbLine
 10
247.9396549221
 20
285.8582822212
 30
0.0
 11
247.9396549221
 21
285.5477001124
 31
0.0
  0
LINE
  5
53
330
1F
100
AcDbEntity
  8
0
  6
Continuous
 62
     7
370
    15
100
AcDbLine
 10
266.9396561738
 20
285.5477001124
 30
0.0
 11
266.9396561738
 21
285.672880111
 31
0.0
  0
LINE
  5
54
330
1F
100
AcDbEntity
  8
0
  6
Continuous
 62
     7
370
    15
100
AcDbLine
 10
299.3479979392
 20
331.1521870622
 30
0.0
 11
297.4396509286
 21
331.1521870622
 31
0.0
  0
LINE
  5
55
330
1F
100
AcDbEntity
  8
0
  6
Continuous
 62
     7
370
    15
100
AcDbLine
 10
297.4396509286
 20
265.1521874198
 30
0.0
 11
318.439663684
 21
265.1521874198
 31
0.0
  0
LINE
  5
56
330
1F
100
AcDbEntity
  8
0
  6
Continuous
 62
     7
370
    15
100
AcDbLine
 10
326.3396633025
 20
282.152186481
 30
0.0
 11
326.4396649953
 21
282.152186481
 31
0.0
  0
LINE
  5
57
330
1F
100
AcDbEntity
  8
0
  6
Continuous
 62
     7
370
    15
100
AcDbLine
 10
326.4396649953
 20
314.152188001
 30
0.0
 11
326.3396633025
 21
314.152188001
 31
0.0
  0
LINE
  5
58
330
1F
100
AcDbEntity
  8
0
  6
Continuous
 62
     7
370
    15
100
AcDbLine
 10
334.4396514054
 20
284.6521868908
 30
0.0
 11
354.4396621343
 21
285.2771872261
 31
0.0
  0
LINE
  5
59
330
1F
100
AcDbEntity
  8
0
  6
Continuous
 62
     7
370
    15
100
AcDbLine
 10
354.4396621343
 20
311.0271872559
 30
0.0
 11
334.4396514054
 21
311.6521875912
 31
0.0
  0
LINE
  5
5A
330
1F
100
AcDbEntity
  8
0
  6
Continuous
 62
     7
370
    15
100
AcDbLine
 10
326.4396649953
 20
284.6521868908
 30
0.0
 11
334.4396514054
 21
284.6521868908
 31
0.0
  0
LINE
  5
5B
330
1F
100
AcDbEntity
  8
0
  6
Continuous
 62
     7
370
    15
100
AcDbLine
 10
334.4396514054
 20
311.6521875912
 30
0.0
 11
326.4396649953
 21
311.6521875912
 31
0.0
  0
LINE
  5
5C
330
1F
100
AcDbEntity
  8
0
  6
Continuous
 62
     7
370
    15
100
AcDbLine
 10
322.9396504517
 20
269.1521880755
 30
0.0
 11
322.334365284
 21
269.1521880755
 31
0.0
  0
LINE
  5
5D
330
1F
100
AcDbEntity
  8
0
  6
Continuous
 62
     7
370
    15
100
AcDbLine
 10
318.439663684
 20
251.1521888503
 30
0.0
 11
322.9396504517
 21
251.1521888503
 31
0.0
  0
LINE
  5
5E
330
1F
100
AcDbEntity
  8
0
  6
Continuous
 62
     7
370
    15
100
AcDbLine
 10
318.439663684
 20
358.1521858999
 30
0.0
 11
297.4396509286
 21
358.1521858999
 31
0.0
  0
LINE
  5
5F
330
1F
100
AcDbEntity
  8
0
  6
Continuous
 62
     7
370
    15
100
AcDbLine
 10
297.4396509286
 20
238.1521885821
 30
0.0
 11
318.439663684
 21
238.1521885821
 31
0.0
  0
LINE
  5
60
330
1F
100
AcDbEntity
  8
0
  6
Continuous
 62
     7
370
    15
100
AcDbLine
 10
277.9396561142
 20
358.1521858999
 30
0.0
 11
274.9396574851
 21
358.1521858999
 31
0.0
  0
LINE
  5
61
330
1F
100
AcDbEntity
  8
0
  6
Continuous
 62
     7
370
    15
100
AcDbLine
 10
297.4396509286
 20
331.1521870622
 30
0.0
 11
277.9396561142
 21
331.1521870622
 31
0.0
  0
LINE
  5
62
330
1F
100
AcDbEntity
  8
0
  6
Continuous
 62
     7
370
    15
100
AcDbLine
 10
274.9396574851
 20
265.1521874198
 30
0.0
 11
297.4396509286
 21
265.1521874198
 31
0.0
  0
LINE
  5
63
330
1F
100
AcDbEntity
  8
0
  6
Continuous
 62
     7
370
    15
100
AcDbLine
 10
297.4396509286
 20
358.1521858999
 30
0.0
 11
277.9396561142
 21
358.1521858999
 31
0.0
  0
LINE
  5
64
330
1F
100
AcDbEntity
  8
0
  6
Continuous
 62
     7
370
    15
100
AcDbLine
 10
274.9396574851
 20
238.1521885821
 30
0.0
 11
297.4396509286
 21
238.1521885821
 31
0.0
  0
ARC
  5
65
330
1F
100
AcDbEntity
  8
0
  6
Continuous
 62
     7
370
    15
100
AcDbCircle
 10
168.4396577235
 20
313.152187241
 30
0.0
 40
3.000000000000008
100
AcDbArc
 50
138.1896851042
 51
180.0
  0
ARC
  5
66
330
1F
100
AcDbEntity
  8
0
  6
Continuous
 62
     7
370
    15
100
AcDbCircle
 10
168.4396577235
 20
283.152187241
 30
0.0
 40
3.000000000000008
100
AcDbArc
 50
180.0
 51
221.8103148958
  0
LINE
  5
67
330
1F
100
AcDbEntity
  8
0
  6
Continuous
 62
     7
370
    15
100
AcDbLine
 10
274.9396574851
 20
332.9021868834
 30
0.0
 11
267.9396582003
 21
332.9021868834
 31
0.0
  0
ARC
  5
68
330
1F
100
AcDbEntity
  8
0
  6
Continuous
 62
     7
370
    15
100
AcDbCircle
 10
264.9396577235
 20
348.6045963936
 30
0.0
 40
3.000000000000032
100
AcDbArc
 50
270.916165718
 51
0.0
  0
LINE
  5
69
330
1F
100
AcDbEntity
  8
0
  6
Continuous
 62
     7
370
    15
100
AcDbLine
 10
274.9396574851
 20
358.1521858999
 30
0.0
 11
267.9396582003
 21
358.1521858999
 31
0.0
  0
LINE
  5
6A
330
1F
100
AcDbEntity
  8
0
  6
Continuous
 62
     7
370
    15
100
AcDbLine
 10
264.9876264091
 20
345.6049797663
 30
0.0
 11
177.760125434
 21
344.2100820669
 31
0.0
  0
LINE
  5
6B
330
1F
100
AcDbEntity
  8
0
  6
Continuous
 62
     7
370
    15
100
AcDbLine
 10
177.760125434
 20
252.0942924151
 30
0.0
 11
187.4396571126
 21
251.9394991526
 31
0.0
  0
ARC
  5
6C
330
1F
100
AcDbEntity
  8
0
  6
Continuous
 62
     7
370
    15
100
AcDbCircle
 10
177.8400725372
 20
339.210723041
 30
0.0
 40
4.999999999999986
100
AcDbArc
 50
90.916165718
 51
162.7392339256
  0
ARC
  5
6D
330
1F
100
AcDbEntity
  8
0
  6
Continuous
 62
     7
370
    15
100
AcDbCircle
 10
177.8400725372
 20
257.093651441
 30
0.0
 40
4.999999999999986
100
AcDbArc
 50
197.2607660744
 51
269.083834282
  0
LINE
  5
6E
330
1F
100
AcDbEntity
  8
0
  6
Continuous
 62
     7
370
    15
100
AcDbLine
 10
173.0652515013
 20
340.6943281719
 30
0.0
 11
169.9337548977
 21
330.6159501502
 31
0.0
  0
LINE
  5
6F
330
1F
100
AcDbEntity
  8
0
  6
Continuous
 62
     7
370
    15
100
AcDbLine
 10
172.2553184423
 20
258.2167287895
 30
0.0
 11
173.0652515013
 21
255.6100463101
 31
0.0
  0
ARC
  5
70
330
1F
100
AcDbEntity
  8
0
  6
Continuous
 62
     7
370
    15
100
AcDbCircle
 10
174.7085759502
 20
329.1323432209
 30
0.0
 40
5.000000000000018
100
AcDbArc
 50
162.7392339256
 51
174.0096066782
  0
LINE
  5
71
330
1F
100
AcDbEntity
  8
0
  6
Continuous
 62
     7
370
    15
100
AcDbLine
 10
169.7085760003
 20
296.6461101153
 30
0.0
 11
169.7085760003
 21
267.2834427634
 31
0.0
  0
LINE
  5
72
330
1F
100
AcDbEntity
  8
0
  6
Continuous
 62
     7
370
    15
100
AcDbLine
 10
169.7085760003
 20
329.0955660471
 30
0.0
 11
169.7085760003
 21
299.661365438
 31
0.0
  0
LINE
  5
73
330
1F
100
AcDbEntity
  8
0
  6
Continuous
 62
     7
370
    15
100
AcDbLine
 10
267.9396582003
 20
238.1521885821
 30
0.0
 11
274.9396574851
 21
238.1521885821
 31
0.0
  0
LINE
  5
74
330
1F
100
AcDbEntity
  8
0
  6
Continuous
 62
     7
370
    15
100
AcDbLine
 10
168.4396577235
 20
258.1521881351
 30
0.0
 11
172.2753719128
 21
258.1521881351
 31
0.0
  0
LINE
  5
75
330
1F
100
AcDbEntity
  8
0
  6
Continuous
 62
     7
370
    15
100
AcDbLine
 10
169.272945093
 20
268.1521879115
 30
0.0
 11
168.4396577235
 21
268.1521879115
 31
0.0
  0
LINE
  5
76
330
1F
100
AcDbEntity
  8
0
  6
Continuous
 62
     7
370
    15
100
AcDbLine
 10
297.4396509286
 20
294.152187051
 30
0.0
 11
298.5396546479
 21
294.152187051
 31
0.0
  0
LINE
  5
77
330
1F
100
AcDbEntity
  8
0
  6
Continuous
 62
     7
370
    15
100
AcDbLine
 10
298.5396546479
 20
302.152187431
 30
0.0
 11
297.4396509286
 21
302.152187431
 31
0.0
  0
ARC
  5
78
330
1F
100
AcDbEntity
  8
0
  6
Continuous
 62
     7
370
    15
100
AcDbCircle
 10
298.5396577235
 20
296.152187241
 30
0.0
 40
2.0
100
AcDbArc
 50
270.0
 51
312.3072493592
  0
ARC
  5
79
330
1F
100
AcDbEntity
  8
0
  6
Continuous
 62
     7
370
    15
100
AcDbCircle
 10
298.5396577235
 20
300.152187241
 30
0.0
 40
2.000000000000022
100
AcDbArc
 50
47.7525973771
 51
90.0
  0
LINE
  5
7A
330
1F
100
AcDbEntity
  8
0
  6
Continuous
 62
     7
370
    15
100
AcDbLine
 10
319.239662325
 20
275.6521863469
 30
0.0
 11
318.439663684
 21
275.6521863469
 31
0.0
  0
LINE
  5
7B
330
1F
100
AcDbEntity
  8
0
  6
Continuous
 62
     7
370
    15
100
AcDbLine
 10
318.439663684
 20
266.6521867344
 30
0.0
 11
319.239662325
 21
266.6521867344
 31
0.0
  0
ARC
  5
7C
330
1F
100
AcDbEntity
  8
0
  6
Continuous
 62
     7
370
    15
100
AcDbCircle
 10
320.3396577235
 20
269.152187241
 30
0.0
 40
2.000000000000057
100
AcDbArc
 50
270.0
 51
312.3072493592
  0
ARC
  5
7D
330
1F
100
AcDbEntity
  8
0
  6
Continuous
 62
     7
370
    15
100
AcDbCircle
 10
320.3396577235
 20
273.152187241
 30
0.0
 40
2.000000000000057
100
AcDbArc
 50
47.7525973771
 51
90.0
  0
LINE
  5
7E
330
1F
100
AcDbEntity
  8
0
  6
Continuous
 62
     7
370
    15
100
AcDbLine
 10
319.239662325
 20
267.1521877476
 30
0.0
 11
320.3396511432
 21
267.1521877476
 31
0.0
  0
LINE
  5
7F
330
1F
100
AcDbEntity
  8
0
  6
Continuous
 62
     7
370
    15
100
AcDbLine
 10
320.3396511432
 20
275.1521871963
 30
0.0
 11
319.239662325
 21
275.1521871963
 31
0.0
  0
LINE
  5
80
330
1F
100
AcDbEntity
  8
0
  6
Continuous
 62
     7
370
    15
100
AcDbLine
 10
319.239662325
 20
329.6521877476
 30
0.0
 11
318.439663684
 21
329.6521877476
 31
0.0
  0
LINE
  5
81
330
1F
100
AcDbEntity
  8
0
  6
Continuous
 62
     7
370
    15
100
AcDbLine
 10
318.439663684
 20
320.6521881351
 30
0.0
 11
319.239662325
 21
320.6521881351
 31
0.0
  0
LINE
  5
82
330
1F
100
AcDbEntity
  8
0
  6
Continuous
 62
     7
370
    15
100
AcDbLine
 10
319.239662325
 20
321.1521872857
 30
0.0
 11
320.3396511432
 21
321.1521872857
 31
0.0
  0
LINE
  5
83
330
1F
100
AcDbEntity
  8
0
  6
Continuous
 62
     7
370
    15
100
AcDbLine
 10
320.3396511432
 20
329.1521867344
 30
0.0
 11
319.239662325
 21
329.1521867344
 31
0.0
  0
ARC
  5
84
330
1F
100
AcDbEntity
  8
0
  6
Continuous
 62
     7
370
    15
100
AcDbCircle
 10
320.3396577235
 20
323.152187241
 30
0.0
 40
2.000000000000057
100
AcDbArc
 50
270.0
 51
312.3072493592
  0
ARC
  5
85
330
1F
100
AcDbEntity
  8
0
  6
Continuous
 62
     7
370
    15
100
AcDbCircle
 10
320.3396577235
 20
327.152187241
 30
0.0
 40
2.000000000000057
100
AcDbArc
 50
47.7525973771
 51
90.0
  0
LINE
  5
86
330
1F
100
AcDbEntity
  8
0
  6
Continuous
 62
     7
370
    15
100
AcDbLine
 10
319.239662325
 20
356.6521865853
 30
0.0
 11
318.439663684
 21
356.6521865853
 31
0.0
  0
LINE
  5
87
330
1F
100
AcDbEntity
  8
0
  6
Continuous
 62
     7
370
    15
100
AcDbLine
 10
320.1646370049
 20
348.1521879861
 30
0.0
 11
320.3396511432
 21
348.1521879861
 31
0.0
  0
LINE
  5
88
330
1F
100
AcDbEntity
  8
0
  6
Continuous
 62
     7
370
    15
100
AcDbLine
 10
320.3396511432
 20
356.1521855721
 30
0.0
 11
319.239662325
 21
356.1521855721
 31
0.0
  0
ARC
  5
89
330
1F
100
AcDbEntity
  8
0
  6
Continuous
 62
     7
370
    15
100
AcDbCircle
 10
320.3396577235
 20
350.152187241
 30
0.0
 40
2.000000000000057
100
AcDbArc
 50
270.0
 51
312.3072493592
  0
ARC
  5
8A
330
1F
100
AcDbEntity
  8
0
  6
Continuous
 62
     7
370
    15
100
AcDbCircle
 10
320.3396577235
 20
354.152187241
 30
0.0
 40
2.000000000000057
100
AcDbArc
 50
47.7525973771
 51
90.0
  0
LINE
  5
8B
330
1F
100
AcDbEntity
  8
0
  6
Continuous
 62
     7
370
    15
100
AcDbLine
 10
319.239662325
 20
248.6521875092
 30
0.0
 11
318.439663684
 21
248.6521875092
 31
0.0
  0
LINE
  5
8C
330
1F
100
AcDbEntity
  8
0
  6
Continuous
 62
     7
370
    15
100
AcDbLine
 10
318.439663684
 20
239.6521878966
 30
0.0
 11
319.239662325
 21
239.6521878966
 31
0.0
  0
LINE
  5
8D
330
1F
100
AcDbEntity
  8
0
  6
Continuous
 62
     7
370
    15
100
AcDbLine
 10
319.239662325
 20
240.1521889099
 30
0.0
 11
320.3396511432
 21
240.1521889099
 31
0.0
  0
LINE
  5
8E
330
1F
100
AcDbEntity
  8
0
  6
Continuous
 62
     7
370
    15
100
AcDbLine
 10
320.3396511432
 20
248.1521864959
 30
0.0
 11
319.239662325
 21
248.1521864959
 31
0.0
  0
ARC
  5
8F
330
1F
100
AcDbEntity
  8
0
  6
Continuous
 62
     7
370
    15
100
AcDbCircle
 10
320.3396577235
 20
242.152187241
 30
0.0
 40
2.000000000000057
100
AcDbArc
 50
270.0
 51
312.3072493592
  0
ARC
  5
90
330
1F
100
AcDbEntity
  8
0
  6
Continuous
 62
     7
370
    15
100
AcDbCircle
 10
320.3396577235
 20
246.152187241
 30
0.0
 40
2.000000000000057
100
AcDbArc
 50
47.7525973771
 51
90.0
  0
ARC
  5
91
330
1F
100
AcDbEntity
  8
0
  6
Continuous
 62
     7
370
    15
100
AcDbCircle
 10
258.802696307
 20
285.8253492674
 30
0.0
 40
1.312373097223449
100
AcDbArc
 50
1.4379427304
 51
177.9026441717
  0
LINE
  5
92
330
1F
100
AcDbEntity
  8
0
  6
Continuous
 62
     7
370
    15
100
AcDbLine
 10
260.1646942254
 20
270.0271563211
 30
0.0
 11
260.1646718737
 21
270.3601637462
 31
0.0
  0
ARC
  5
93
330
1F
100
AcDbEntity
  8
0
  6
Continuous
 62
     7
370
    15
100
AcDbCircle
 10
258.802173024
 20
272.4065945788
 30
0.0
 40
2.741987101477465
100
AcDbArc
 50
240.203496034
 51
299.796503966
  0
LINE
  5
94
330
1F
100
AcDbEntity
  8
0
  6
Continuous
 62
     7
370
    15
100
AcDbLine
 10
257.4396965261
 20
270.0271563211
 30
0.0
 11
257.4396741744
 21
270.3601637462
 31
0.0
  0
ARC
  5
95
330
1F
100
AcDbEntity
  8
0
  6
Continuous
 62
     7
370
    15
100
AcDbCircle
 10
261.519604129
 20
285.8427896787
 30
0.0
 40
1.30503827195306
100
AcDbArc
 50
1.0281513098
 51
179.3198068045
  0
LWPOLYLINE
  5
96
330
1F
100
AcDbEntity
  8
0
  6
Continuous
 62
     7
370
    15
100
AcDbPolyline
 90
       10
 70
   128
 43
0.0
 10
260.067404544
 20
270.0307605395
 10
260.2568206545
 20
269.9391128102
 10
260.5548885818
 20
269.8236567506
 10
261.0009697433
 20
269.7465134391
 10
261.5271595474
 20
269.719423128
 10
262.0533493515
 20
269.7465134391
 10
262.499430513
 20
269.8236567506
 10
262.7974909898
 20
269.9391128102
 10
262.902156746
 20
270.0753001103
 10
262.901374435
 20
270.0763245651
  0
ARC
  5
97
330
1F
100
AcDbEntity
  8
0
  6
Continuous
 62
     7
370
    15
100
AcDbCircle
 10
256.0776986015
 20
285.8253481784
 30
0.0
 40
1.312373130817414
100
AcDbArc
 50
1.437990254
 51
177.9025966481
  0
ARC
  5
98
330
1F
100
AcDbEntity
  8
0
  6
Continuous
 62
     7
370
    15
100
AcDbCircle
 10
256.0771715995
 20
272.4065843158
 30
0.0
 40
2.741976344138629
100
AcDbArc
 50
240.2034570196
 51
299.7965429804
  0
LINE
  5
99
330
1F
100
AcDbEntity
  8
0
  6
Continuous
 62
     7
370
    15
100
AcDbLine
 10
254.7146913763
 20
270.0271563211
 30
0.0
 11
254.7146690246
 21
270.3601637462
 31
0.0
  0
LWPOLYLINE
  5
9A
330
1F
100
AcDbEntity
  8
0
  6
Continuous
 62
     7
370
    15
100
AcDbPolyline
 90
       10
 70
   128
 43
0.0
 10
251.9784805532
 20
270.0770193317
 10
251.9771543499
 20
270.0753001103
 10
252.0818201061
 20
269.9391128102
 10
252.3798880335
 20
269.8236567506
 10
252.825969195
 20
269.7465134391
 10
253.352158999
 20
269.719423128
 10
253.8783488031
 20
269.7465134391
 10
254.3244299646
 20
269.8236567506
 10
254.6224904414
 20
269.9391128102
 10
254.7147211786
 20
270.027109755
  0
ARC
  5
9B
330
1F
100
AcDbEntity
  8
0
  6
Continuous
 62
     7
370
    15
100
AcDbCircle
 10
253.3527009053
 20
285.8253487043
 30
0.0
 40
1.312373114592706
100
AcDbArc
 50
1.4379673019
 51
177.9026196002
  0
LINE
  5
9C
330
1F
100
AcDbEntity
  8
0
  6
Continuous
 62
     7
370
    15
100
AcDbLine
 10
251.9396555777
 20
285.8582822212
 30
0.0
 11
251.9802537914
 21
285.2139765003
 31
0.0
  0
LINE
  5
9D
330
1F
100
AcDbEntity
  8
0
  6
Continuous
 62
     7
370
    15
100
AcDbLine
 10
262.8972021099
 20
285.1994786018
 30
0.0
 11
262.9349393006
 21
285.638286134
 31
0.0
  0
LINE
  5
9E
330
1F
100
AcDbEntity
  8
0
  6
Continuous
 62
     7
370
    15
100
AcDbLine
 10
266.9396561738
 20
285.5477001124
 30
0.0
 11
266.9205826875
 21
284.9664588997
 31
0.0
  0
LINE
  5
9F
330
1F
100
AcDbEntity
  8
0
  6
Continuous
 62
     7
370
    15
100
AcDbLine
 10
262.9396555181
 20
285.4182900467
 30
0.0
 11
262.9324582573
 21
285.6900844329
 31
0.0
  0
ARC
  5
A0
330
1F
100
AcDbEntity
  8
0
  6
Continuous
 62
     7
370
    15
100
AcDbCircle
 10
257.5413790977
 20
285.5551617569
 30
0.0
 40
9.479961922339564
100
AcDbArc
 50
26.0727588742
 51
90.6147945025
  0
ARC
  5
A1
330
1F
100
AcDbEntity
  8
0
  6
Continuous
 62
     7
370
    15
100
AcDbCircle
 10
257.2778274832
 20
285.6964045817
 30
0.0
 40
9.339575533817197
100
AcDbArc
 50
89.0071558845
 51
179.0068745677
  0
CIRCLE
  5
A2
330
1F
100
AcDbEntity
  8
0
  6
Continuous
 62
     7
370
    15
100
AcDbCircle
 10
308.9396577235
 20
340.652187241
 30
0.0
 40
12.87499999999994
  0
CIRCLE
  5
A3
330
1F
100
AcDbEntity
  8
0
  6
Continuous
 62
     7
370
    15
100
AcDbCircle
 10
308.9396577235
 20
340.652187241
 30
0.0
 40
13.49999999999994
  0
CIRCLE
  5
A4
330
1F
100
AcDbEntity
  8
0
  6
Continuous
 62
     7
370
    15
100
AcDbCircle
 10
308.9396577235
 20
340.652187241
 30
0.0
 40
7.5
  0
LINE
  5
A5
330
1F
100
AcDbEntity
  8
0
  6
Continuous
 62
     7
370
    15
100
AcDbLine
 10
318.439663684
 20
331.0605225691
 30
0.0
 11
318.439663684
 21
319.9560356864
 31
0.0
  0
LINE
  5
A6
330
1F
100
AcDbEntity
  8
0
  6
Continuous
 62
     7
370
    15
100
AcDbLine
 10
297.4396509286
 20
319.9560356864
 30
0.0
 11
297.4396509286
 21
331.1521870622
 31
0.0
  0
LINE
  5
A7
330
1F
100
AcDbEntity
  8
0
  6
Continuous
 62
     7
370
    15
100
AcDbLine
 10
318.439663684
 20
276.3483387956
 30
0.0
 11
318.439663684
 21
265.1521874198
 31
0.0
  0
LINE
  5
A8
330
1F
100
AcDbEntity
  8
0
  6
Continuous
 62
     7
370
    15
100
AcDbLine
 10
297.4396509286
 20
265.1521874198
 30
0.0
 11
297.4396509286
 21
276.3483387956
 31
0.0
  0
LINE
  5
A9
330
1F
100
AcDbEntity
  8
0
  6
Continuous
 62
     7
370
    15
100
AcDbLine
 10
305.4396522399
 20
318.7823773899
 30
0.0
 11
297.4396509286
 21
318.7823773899
 31
0.0
  0
LINE
  5
AA
330
1F
100
AcDbEntity
  8
0
  6
Continuous
 62
     7
370
    15
100
AcDbLine
 10
305.4396522399
 20
277.521997092
 30
0.0
 11
305.4396522399
 21
318.7823773899
 31
0.0
  0
LINE
  5
AB
330
1F
100
AcDbEntity
  8
0
  6
Continuous
 62
     7
370
    15
100
AcDbLine
 10
297.4396509286
 20
277.521997092
 30
0.0
 11
305.4396522399
 21
277.521997092
 31
0.0
  0
LINE
  5
AC
330
1F
100
AcDbEntity
  8
0
  6
Continuous
 62
     7
370
    15
100
AcDbLine
 10
297.4396509286
 20
279.1106955686
 30
0.0
 11
297.4396509286
 21
290.4484834128
 31
0.0
  0
LINE
  5
AD
330
1F
100
AcDbEntity
  8
0
  6
Continuous
 62
     7
370
    15
100
AcDbLine
 10
297.4396509286
 20
305.8558910692
 30
0.0
 11
297.4396509286
 21
317.1936789134
 31
0.0
  0
LINE
  5
AE
330
1F
100
AcDbEntity
  8
0
  6
Continuous
 62
     7
370
    15
100
AcDbLine
 10
318.439663684
 20
319.9560356864
 30
0.0
 11
318.439663684
 21
317.8871901312
 31
0.0
  0
LINE
  5
AF
330
1F
100
AcDbEntity
  8
0
  6
Continuous
 62
     7
370
    15
100
AcDbLine
 10
297.4396509286
 20
319.6580944189
 30
0.0
 11
297.4396509286
 21
319.9560356864
 31
0.0
  0
LINE
  5
B0
330
1F
100
AcDbEntity
  8
0
  6
Continuous
 62
     7
370
    15
100
AcDbLine
 10
318.439663684
 20
278.4171843508
 30
0.0
 11
318.439663684
 21
276.3483387956
 31
0.0
  0
LINE
  5
B1
330
1F
100
AcDbEntity
  8
0
  6
Continuous
 62
     7
370
    15
100
AcDbLine
 10
297.4396509286
 20
276.3483387956
 30
0.0
 11
297.4396509286
 21
276.6462800631
 31
0.0
  0
LINE
  5
B2
330
1F
100
AcDbEntity
  8
0
  6
Continuous
 62
     7
370
    15
100
AcDbLine
 10
318.439663684
 20
280.8622227588
 30
0.0
 11
318.439663684
 21
315.4421517232
 31
0.0
  0
LINE
  5
B3
330
1F
100
AcDbEntity
  8
0
  6
Continuous
 62
     7
370
    15
100
AcDbLine
 10
318.439663684
 20
317.8871901312
 30
0.0
 11
318.439663684
 21
315.4421517232
 31
0.0
  0
LINE
  5
B4
330
1F
100
AcDbEntity
  8
0
  6
Continuous
 62
     7
370
    15
100
AcDbLine
 10
318.439663684
 20
280.8622227588
 30
0.0
 11
318.439663684
 21
278.4171843508
 31
0.0
  0
LINE
  5
B5
330
1F
100
AcDbEntity
  8
0
  6
Continuous
 62
     7
370
    15
100
AcDbLine
 10
297.4396509286
 20
331.1521870622
 30
0.0
 11
297.4396509286
 21
333.5811210403
 31
0.0
  0
LINE
  5
B6
330
1F
100
AcDbEntity
  8
0
  6
Continuous
 62
     7
370
    15
100
AcDbLine
 10
297.4396509286
 20
246.4995024332
 30
0.0
 11
305.4396522399
 21
246.4995024332
 31
0.0
  0
LINE
  5
B7
330
1F
100
AcDbEntity
  8
0
  6
Continuous
 62
     7
370
    15
100
AcDbLine
 10
305.4396522399
 20
246.4995024332
 30
0.0
 11
305.4396522399
 21
265.1521874198
 31
0.0
  0
LINE
  5
B8
330
1F
100
AcDbEntity
  8
0
  6
Continuous
 62
     7
370
    15
100
AcDbLine
 10
297.4396509286
 20
246.7259963581
 30
0.0
 11
297.4396509286
 21
265.1521874198
 31
0.0
  0
LINE
  5
B9
330
1F
100
AcDbEntity
  8
0
  6
Continuous
 62
     7
370
    15
100
AcDbLine
 10
318.439663684
 20
250.2646235356
 30
0.0
 11
318.439663684
 21
265.1521874198
 31
0.0
  0
LINE
  5
BA
330
1F
100
AcDbEntity
  8
0
  6
Continuous
 62
     7
370
    15
100
AcDbLine
 10
307.4288678523
 20
333.4467386433
 30
0.0
 11
307.9075527545
 21
333.2235416004
 31
0.0
  0
LINE
  5
BB
330
1F
100
AcDbEntity
  8
0
  6
Continuous
 62
     7
370
    15
100
AcDbLine
 10
326.3653082009
 20
291.4864591861
 30
0.0
 11
318.439663684
 21
291.4864591861
 31
0.0
  0
LINE
  5
BC
330
1F
100
AcDbEntity
  8
0
  6
Continuous
 62
     7
370
    15
100
AcDbLine
 10
326.3653082009
 20
291.4864591861
 30
0.0
 11
318.439663684
 21
280.5986901352
 31
0.0
  0
LINE
  5
BD
330
1F
100
AcDbEntity
  8
0
  6
Continuous
 62
     7
370
    15
100
AcDbLine
 10
326.3653082009
 20
288.8883830586
 30
0.0
 11
318.439663684
 21
278.0006130764
 31
0.0
  0
ELLIPSE
  5
BE
330
1F
100
AcDbEntity
  8
0
  6
Continuous
 62
     7
370
    15
100
AcDbEllipse
 10
332.1631814718
 20
298.152187241
 30
0.0
 11
3.214408923904444
 21
15.97011838756817
 31
0.0
210
0.0
220
0.0
230
1.0
 40
0.304069606
 41
2.061633038344328
 42
2.249408788559358
  0
LINE
  5
BF
330
1F
100
AcDbEntity
  8
0
  6
Continuous
 62
     7
370
    15
100
AcDbLine
 10
326.3653082009
 20
304.8179152959
 30
0.0
 11
318.439663684
 21
304.8179152959
 31
0.0
  0
LINE
  5
C0
330
1F
100
AcDbEntity
  8
0
  6
Continuous
 62
     7
370
    15
100
AcDbLine
 10
326.3653082009
 20
304.8179152959
 30
0.0
 11
318.439663684
 21
315.7056843468
 31
0.0
  0
LINE
  5
C1
330
1F
100
AcDbEntity
  8
0
  6
Continuous
 62
     7
370
    15
100
AcDbLine
 10
326.3653082009
 20
307.4159914234
 30
0.0
 11
318.439663684
 21
318.3037614056
 31
0.0
  0
ELLIPSE
  5
C2
330
1F
100
AcDbEntity
  8
0
  6
Continuous
 62
     7
370
    15
100
AcDbEllipse
 10
332.1631814718
 20
298.152187241
 30
0.0
 11
-3.214408923904613
 21
15.97011838756816
 31
0.0
210
0.0
220
0.0
230
1.0
 40
0.304069606
 41
0.8921838650304087
 42
1.079959615245443
  0
LINE
  5
C3
330
1F
100
AcDbEntity
  8
0
  6
Continuous
 62
     7
370
    15
100
AcDbLine
 10
299.0160298701
 20
349.8048720488
 30
0.0
 11
297.4396509286
 21
349.8048720488
 31
0.0
  0
LINE
  5
C4
330
1F
100
AcDbEntity
  8
0
  6
Continuous
 62
     7
370
    15
100
AcDbLine
 10
297.4396509286
 20
347.7232543358
 30
0.0
 11
297.4396509286
 21
349.5783781239
 31
0.0
  0
LINE
  5
C5
330
1F
100
AcDbEntity
  8
0
  6
Continuous
 62
     7
370
    15
100
AcDbLine
 10
326.3653082009
 20
282.2226540723
 30
0.0
 11
321.5130579825
 21
282.2226540723
 31
0.0
  0
LINE
  5
C6
330
1F
100
AcDbEntity
  8
0
  6
Continuous
 62
     7
370
    15
100
AcDbLine
 10
326.3653082009
 20
314.0817204097
 30
0.0
 11
321.5130579825
 21
314.0817204097
 31
0.0
  0
LINE
  5
C7
330
1F
100
AcDbEntity
  8
0
  6
Continuous
 62
     7
370
    15
100
AcDbLine
 10
326.4396649953
 20
298.152187241
 30
0.0
 11
326.4396649953
 21
314.152188001
 31
0.0
  0
LINE
  5
C8
330
1F
100
AcDbEntity
  8
0
  6
Continuous
 62
     7
370
    15
100
AcDbLine
 10
326.4396649953
 20
282.152186481
 30
0.0
 11
326.4396649953
 21
298.152187241
 31
0.0
  0
LINE
  5
C9
330
1F
100
AcDbEntity
  8
0
  6
Continuous
 62
     7
370
    15
100
AcDbLine
 10
354.4396621343
 20
298.152187241
 30
0.0
 11
354.4396621343
 21
311.0271872559
 31
0.0
  0
LINE
  5
CA
330
1F
100
AcDbEntity
  8
0
  6
Continuous
 62
     7
370
    15
100
AcDbLine
 10
354.4396621343
 20
285.2771872261
 30
0.0
 11
354.4396621343
 21
298.152187241
 31
0.0
  0
LINE
  5
CB
330
1F
100
AcDbEntity
  8
0
  6
Continuous
 62
     7
370
    15
100
AcDbLine
 10
334.4396514054
 20
298.152187241
 30
0.0
 11
334.4396514054
 21
311.6521875912
 31
0.0
  0
LINE
  5
CC
330
1F
100
AcDbEntity
  8
0
  6
Continuous
 62
     7
370
    15
100
AcDbLine
 10
334.4396514054
 20
284.6521868908
 30
0.0
 11
334.4396514054
 21
298.152187241
 31
0.0
  0
LINE
  5
CD
330
1F
100
AcDbEntity
  8
0
  6
Continuous
 62
     7
370
    15
100
AcDbLine
 10
322.9396504517
 20
269.1521880755
 30
0.0
 11
322.9396504517
 21
251.1521888503
 31
0.0
  0
LINE
  5
CE
330
1F
100
AcDbEntity
  8
0
  6
Continuous
 62
     7
370
    15
100
AcDbLine
 10
318.439663684
 20
250.2646235356
 30
0.0
 11
318.439663684
 21
248.2898769507
 31
0.0
  0
LINE
  5
CF
330
1F
100
AcDbEntity
  8
0
  6
Continuous
 62
     7
370
    15
100
AcDbLine
 10
318.439663684
 20
358.1521858999
 30
0.0
 11
318.439663684
 21
352.1521886417
 31
0.0
  0
LINE
  5
D0
330
1F
100
AcDbEntity
  8
0
  6
Continuous
 62
     7
370
    15
100
AcDbLine
 10
297.4396509286
 20
352.1521886417
 30
0.0
 11
297.4396509286
 21
358.1521858999
 31
0.0
  0
LINE
  5
D1
330
1F
100
AcDbEntity
  8
0
  6
Continuous
 62
     7
370
    15
100
AcDbLine
 10
297.4396509286
 20
351.5563061067
 30
0.0
 11
297.4396509286
 21
352.1521886417
 31
0.0
  0
LINE
  5
D2
330
1F
100
AcDbEntity
  8
0
  6
Continuous
 62
     7
370
    15
100
AcDbLine
 10
318.439663684
 20
352.1521886417
 30
0.0
 11
318.439663684
 21
350.2438490817
 31
0.0
  0
LINE
  5
D3
330
1F
100
AcDbEntity
  8
0
  6
Continuous
 62
     7
370
    15
100
AcDbLine
 10
318.439663684
 20
248.2898769507
 30
0.0
 11
318.439663684
 21
244.1521858403
 31
0.0
  0
LINE
  5
D4
330
1F
100
AcDbEntity
  8
0
  6
Continuous
 62
     7
370
    15
100
AcDbLine
 10
297.4396509286
 20
244.1521858403
 30
0.0
 11
297.4396509286
 21
244.7480683753
 31
0.0
  0
LINE
  5
D5
330
1F
100
AcDbEntity
  8
0
  6
Continuous
 62
     7
370
    15
100
AcDbLine
 10
318.439663684
 20
244.1521858403
 30
0.0
 11
318.439663684
 21
238.1521885821
 31
0.0
  0
LINE
  5
D6
330
1F
100
AcDbEntity
  8
0
  6
Continuous
 62
     7
370
    15
100
AcDbLine
 10
297.4396509286
 20
238.1521885821
 30
0.0
 11
297.4396509286
 21
244.1521858403
 31
0.0
  0
LINE
  5
D7
330
1F
100
AcDbEntity
  8
0
  6
Continuous
 62
     7
370
    15
100
AcDbLine
 10
326.3653082009
 20
282.2226540723
 30
0.0
 11
322.154001629
 21
270.65218739
 31
0.0
  0
LINE
  5
D8
330
1F
100
AcDbEntity
  8
0
  6
Continuous
 62
     7
370
    15
100
AcDbLine
 10
326.3653082009
 20
314.0817204097
 30
0.0
 11
322.154001629
 21
325.652187092
 31
0.0
  0
LINE
  5
D9
330
1F
100
AcDbEntity
  8
0
  6
Continuous
 62
     7
370
    15
100
AcDbLine
 10
320.9103656169
 20
329.0690308043
 30
0.0
 11
319.6741354819
 21
332.4655530581
 31
0.0
  0
LINE
  5
DA
330
1F
100
AcDbEntity
  8
0
  6
Continuous
 62
     7
370
    15
100
AcDbLine
 10
277.9396561142
 20
303.7178459184
 30
0.0
 11
274.9396574851
 21
303.7178459184
 31
0.0
  0
LINE
  5
DB
330
1F
100
AcDbEntity
  8
0
  6
Continuous
 62
     7
370
    15
100
AcDbLine
 10
277.9396561142
 20
304.1521872932
 30
0.0
 11
297.4396509286
 21
304.1521872932
 31
0.0
  0
LINE
  5
DC
330
1F
100
AcDbEntity
  8
0
  6
Continuous
 62
     7
370
    15
100
AcDbLine
 10
297.4396509286
 20
292.1521871888
 30
0.0
 11
297.4396509286
 21
304.1521872932
 31
0.0
  0
LINE
  5
DD
330
1F
100
AcDbEntity
  8
0
  6
Continuous
 62
     7
370
    15
100
AcDbLine
 10
277.9396561142
 20
292.1521871888
 30
0.0
 11
297.4396509286
 21
292.1521871888
 31
0.0
  0
LINE
  5
DE
330
1F
100
AcDbEntity
  8
0
  6
Continuous
 62
     7
370
    15
100
AcDbLine
 10
274.9396574851
 20
292.5865285636
 30
0.0
 11
277.9396561142
 21
292.5865285636
 31
0.0
  0
LINE
  5
DF
330
1F
100
AcDbEntity
  8
0
  6
Continuous
 62
     7
370
    15
100
AcDbLine
 10
274.9396574851
 20
298.152187241
 30
0.0
 11
274.9396574851
 21
292.5865285636
 31
0.0
  0
LINE
  5
E0
330
1F
100
AcDbEntity
  8
0
  6
Continuous
 62
     7
370
    15
100
AcDbLine
 10
277.9396561142
 20
328.1521865704
 30
0.0
 11
277.9396561142
 21
358.1521858999
 31
0.0
  0
LINE
  5
E1
330
1F
100
AcDbEntity
  8
0
  6
Continuous
 62
     7
370
    15
100
AcDbLine
 10
277.9396561142
 20
303.7178459184
 30
0.0
 11
277.9396561142
 21
328.1521865704
 31
0.0
  0
LINE
  5
E2
330
1F
100
AcDbEntity
  8
0
  6
Continuous
 62
     7
370
    15
100
AcDbLine
 10
274.9396574851
 20
332.9021868834
 30
0.0
 11
274.9396574851
 21
358.1521858999
 31
0.0
  0
LINE
  5
E3
330
1F
100
AcDbEntity
  8
0
  6
Continuous
 62
     7
370
    15
100
AcDbLine
 10
277.9396561142
 20
268.1521879115
 30
0.0
 11
277.9396561142
 21
292.5865285636
 31
0.0
  0
LINE
  5
E4
330
1F
100
AcDbEntity
  8
0
  6
Continuous
 62
     7
370
    15
100
AcDbLine
 10
274.9396574851
 20
268.1521879115
 30
0.0
 11
274.9396574851
 21
292.5865285636
 31
0.0
  0
LINE
  5
E5
330
1F
100
AcDbEntity
  8
0
  6
Continuous
 62
     7
370
    15
100
AcDbLine
 10
297.4396509286
 20
304.1521872932
 30
0.0
 11
297.4396509286
 21
305.8558910692
 31
0.0
  0
LINE
  5
E6
330
1F
100
AcDbEntity
  8
0
  6
Continuous
 62
     7
370
    15
100
AcDbLine
 10
297.4396509286
 20
290.4484834128
 30
0.0
 11
297.4396509286
 21
292.1521871888
 31
0.0
  0
LINE
  5
E7
330
1F
100
AcDbEntity
  8
0
  6
Continuous
 62
     7
370
    15
100
AcDbLine
 10
297.4396509286
 20
331.1521870622
 30
0.0
 11
297.4396509286
 21
319.9560356864
 31
0.0
  0
LINE
  5
E8
330
1F
100
AcDbEntity
  8
0
  6
Continuous
 62
     7
370
    15
100
AcDbLine
 10
297.4396509286
 20
276.3483387956
 30
0.0
 11
297.4396509286
 21
265.1521874198
 31
0.0
  0
LINE
  5
E9
330
1F
100
AcDbEntity
  8
0
  6
Continuous
 62
     7
370
    15
100
AcDbLine
 10
297.4396509286
 20
305.8558910692
 30
0.0
 11
297.4396509286
 21
317.1936789134
 31
0.0
  0
LINE
  5
EA
330
1F
100
AcDbEntity
  8
0
  6
Continuous
 62
     7
370
    15
100
AcDbLine
 10
297.4396509286
 20
279.1106955686
 30
0.0
 11
297.4396509286
 21
290.4484834128
 31
0.0
  0
LINE
  5
EB
330
1F
100
AcDbEntity
  8
0
  6
Continuous
 62
     7
370
    15
100
AcDbLine
 10
297.4396509286
 20
319.9560356864
 30
0.0
 11
297.4396509286
 21
319.6580944189
 31
0.0
  0
LINE
  5
EC
330
1F
100
AcDbEntity
  8
0
  6
Continuous
 62
     7
370
    15
100
AcDbLine
 10
297.4396509286
 20
276.6462800631
 30
0.0
 11
297.4396509286
 21
276.3483387956
 31
0.0
  0
LINE
  5
ED
330
1F
100
AcDbEntity
  8
0
  6
Continuous
 62
     7
370
    15
100
AcDbLine
 10
297.4396509286
 20
319.6580944189
 30
0.0
 11
297.4396509286
 21
317.1936789134
 31
0.0
  0
LINE
  5
EE
330
1F
100
AcDbEntity
  8
0
  6
Continuous
 62
     7
370
    15
100
AcDbLine
 10
297.4396509286
 20
279.1106955686
 30
0.0
 11
297.4396509286
 21
276.6462800631
 31
0.0
  0
LINE
  5
EF
330
1F
100
AcDbEntity
  8
0
  6
Continuous
 62
     7
370
    15
100
AcDbLine
 10
297.4396509286
 20
331.1521870622
 30
0.0
 11
297.4396509286
 21
333.5811210403
 31
0.0
  0
LINE
  5
F0
330
1F
100
AcDbEntity
  8
0
  6
Continuous
 62
     7
370
    15
100
AcDbLine
 10
297.4396509286
 20
347.7232543358
 30
0.0
 11
297.4396509286
 21
349.5783781239
 31
0.0
  0
LINE
  5
F1
330
1F
100
AcDbEntity
  8
0
  6
Continuous
 62
     7
370
    15
100
AcDbLine
 10
297.4396509286
 20
246.7259963581
 30
0.0
 11
297.4396509286
 21
265.1521874198
 31
0.0
  0
LINE
  5
F2
330
1F
100
AcDbEntity
  8
0
  6
Continuous
 62
     7
370
    15
100
AcDbLine
 10
297.4396509286
 20
351.5563061067
 30
0.0
 11
297.4396509286
 21
349.5783781239
 31
0.0
  0
LINE
  5
F3
330
1F
100
AcDbEntity
  8
0
  6
Continuous
 62
     7
370
    15
100
AcDbLine
 10
297.4396509286
 20
246.7259963581
 30
0.0
 11
297.4396509286
 21
244.7480683753
 31
0.0
  0
LINE
  5
F4
330
1F
100
AcDbEntity
  8
0
  6
Continuous
 62
     7
370
    15
100
AcDbLine
 10
274.9396574851
 20
244.7480683753
 30
0.0
 11
274.9396574851
 21
245.1521878668
 31
0.0
  0
LINE
  5
F5
330
1F
100
AcDbEntity
  8
0
  6
Continuous
 62
     7
370
    15
100
AcDbLine
 10
297.4396509286
 20
352.1521886417
 30
0.0
 11
297.4396509286
 21
351.5563061067
 31
0.0
  0
LINE
  5
F6
330
1F
100
AcDbEntity
  8
0
  6
Continuous
 62
     7
370
    15
100
AcDbLine
 10
297.4396509286
 20
358.1521858999
 30
0.0
 11
297.4396509286
 21
352.1521886417
 31
0.0
  0
LINE
  5
F7
330
1F
100
AcDbEntity
  8
0
  6
Continuous
 62
     7
370
    15
100
AcDbLine
 10
297.4396509286
 20
244.7480683753
 30
0.0
 11
297.4396509286
 21
244.1521858403
 31
0.0
  0
LINE
  5
F8
330
1F
100
AcDbEntity
  8
0
  6
Continuous
 62
     7
370
    15
100
AcDbLine
 10
274.9396574851
 20
244.1521858403
 30
0.0
 11
274.9396574851
 21
244.7480683753
 31
0.0
  0
LINE
  5
F9
330
1F
100
AcDbEntity
  8
0
  6
Continuous
 62
     7
370
    15
100
AcDbLine
 10
297.4396509286
 20
244.1521858403
 30
0.0
 11
297.4396509286
 21
238.1521885821
 31
0.0
  0
LINE
  5
FA
330
1F
100
AcDbEntity
  8
0
  6
Continuous
 62
     7
370
    15
100
AcDbLine
 10
274.9396574851
 20
238.1521885821
 30
0.0
 11
274.9396574851
 21
244.1521858403
 31
0.0
  0
LINE
  5
FB
330
1F
100
AcDbEntity
  8
0
  6
Continuous
 62
     7
370
    15
100
AcDbLine
 10
165.4396576974
 20
283.1521875763
 30
0.0
 11
165.4396576974
 21
313.1521869057
 31
0.0
  0
LINE
  5
FC
330
1F
100
AcDbEntity
  8
0
  6
Continuous
 62
     7
370
    15
100
AcDbLine
 10
274.9396574851
 20
298.152187241
 30
0.0
 11
274.9396574851
 21
292.5865285636
 31
0.0
  0
LINE
  5
FD
330
1F
100
AcDbEntity
  8
0
  6
Continuous
 62
     7
370
    15
100
AcDbLine
 10
267.9396582003
 20
292.5865285636
 30
0.0
 11
274.9396574851
 21
292.5865285636
 31
0.0
  0
LINE
  5
FE
330
1F
100
AcDbEntity
  8
0
  6
Continuous
 62
     7
370
    15
100
AcDbLine
 10
267.9396582003
 20
298.152187241
 30
0.0
 11
267.9396582003
 21
292.5865285636
 31
0.0
  0
LINE
  5
FF
330
1F
100
AcDbEntity
  8
0
  6
Continuous
 62
     7
370
    15
100
AcDbLine
 10
274.9396574851
 20
298.152187241
 30
0.0
 11
274.9396574851
 21
329.9021882543
 31
0.0
  0
LINE
  5
100
330
1F
100
AcDbEntity
  8
0
  6
Continuous
 62
     7
370
    15
100
AcDbLine
 10
267.9396582003
 20
298.152187241
 30
0.0
 11
267.9396582003
 21
329.9021882543
 31
0.0
  0
LINE
  5
101
330
1F
100
AcDbEntity
  8
0
  6
Continuous
 62
     7
370
    15
100
AcDbLine
 10
187.4396571126
 20
247.1521881947
 30
0.0
 11
247.4396613594
 21
247.1521881947
 31
0.0
  0
LINE
  5
102
330
1F
100
AcDbEntity
  8
0
  6
Continuous
 62
     7
370
    15
100
AcDbLine
 10
187.4396571126
 20
243.152187539
 30
0.0
 11
187.4396571126
 21
247.1521881947
 31
0.0
  0
LINE
  5
103
330
1F
100
AcDbEntity
  8
0
  6
Continuous
 62
     7
370
    15
100
AcDbLine
 10
247.4396613594
 20
243.152187539
 30
0.0
 11
247.4396613594
 21
247.1521881947
 31
0.0
  0
LINE
  5
104
330
1F
100
AcDbEntity
  8
0
  6
Continuous
 62
     7
370
    15
100
AcDbLine
 10
187.4396571126
 20
243.152187539
 30
0.0
 11
247.4396613594
 21
243.152187539
 31
0.0
  0
LINE
  5
105
330
1F
100
AcDbEntity
  8
0
  6
Continuous
 62
     7
370
    15
100
AcDbLine
 10
267.9396582003
 20
245.1521878668
 30
0.0
 11
274.9396574851
 21
245.1521878668
 31
0.0
  0
LINE
  5
106
330
1F
100
AcDbEntity
  8
0
  6
Continuous
 62
     7
370
    15
100
AcDbLine
 10
267.9396582003
 20
292.5865285636
 30
0.0
 11
267.9396582003
 21
245.1521878668
 31
0.0
  0
LINE
  5
107
330
1F
100
AcDbEntity
  8
0
  6
Continuous
 62
     7
370
    15
100
AcDbLine
 10
274.9396574851
 20
292.5865285636
 30
0.0
 11
274.9396574851
 21
245.1521878668
 31
0.0
  0
LINE
  5
108
330
1F
100
AcDbEntity
  8
0
  6
Continuous
 62
     7
370
    15
100
AcDbLine
 10
267.9396582003
 20
332.9021868834
 30
0.0
 11
267.9396582003
 21
329.9021882543
 31
0.0
  0
LINE
  5
109
330
1F
100
AcDbEntity
  8
0
  6
Continuous
 62
     7
370
    15
100
AcDbLine
 10
274.9396574851
 20
332.9021868834
 30
0.0
 11
274.9396574851
 21
329.9021882543
 31
0.0
  0
LWPOLYLINE
  5
10A
330
1F
100
AcDbEntity
  8
0
  6
Continuous
 62
     7
370
    15
100
AcDbPolyline
 90
        8
 70
   128
 43
0.0
 10
267.9396582003
 20
252.7490419873
 10
267.9396507498
 20
252.758828325
 10
267.4984124657
 20
255.3210569152
 10
266.9987839814
 20
256.3753885755
 10
266.2186038848
 20
257.3084136078
 10
265.7124933954
 20
257.6379490623
 10
265.1065376755
 20
257.8110893795
 10
264.9876264091
 20
257.818744851
  0
LINE
  5
10B
330
1F
100
AcDbEntity
  8
0
  6
Continuous
 62
     7
370
    15
100
AcDbLine
 10
267.9396582003
 20
358.1521858999
 30
0.0
 11
267.9396582003
 21
332.8428392836
 31
0.0
  0
LINE
  5
10C
330
1F
100
AcDbEntity
  8
0
  6
Continuous
 62
     7
370
    15
100
AcDbLine
 10
274.9396574851
 20
358.1521858999
 30
0.0
 11
274.9396574851
 21
332.8428392836
 31
0.0
  0
LWPOLYLINE
  5
10D
330
1F
100
AcDbEntity
  8
0
  6
Continuous
 62
     7
370
    15
100
AcDbPolyline
 90
       12
 70
   128
 43
0.0
 10
181.9396580737
 20
256.3521762916
 10
181.9078673776
 20
256.3526568541
 10
180.9366478752
 20
256.2897367009
 10
180.0131856631
 20
256.0663161406
 10
179.3164744209
 20
255.7114300856
 10
178.9719241839
 20
255.3013762066
 10
178.9987388234
 20
254.9074789116
 10
179.3588021006
 20
254.5681571194
 10
180.0250851717
 20
254.296728743
 10
180.8989963662
 20
254.1221765408
 10
181.8437746893
 20
254.0493731925
 10
181.9396580737
 20
254.0473019311
  0
LWPOLYLINE
  5
10E
330
1F
100
AcDbEntity
  8
0
  6
Continuous
 62
     7
370
    15
100
AcDbPolyline
 90
        3
 70
   128
 43
0.0
 10
181.9396580737
 20
254.0473019311
 10
184.0553351845
 20
254.0119191238
 10
187.4396571126
 20
253.9553394148
  0
LWPOLYLINE
  5
10F
330
1F
100
AcDbEntity
  8
0
  6
Continuous
 62
     7
370
    15
100
AcDbPolyline
 90
        3
 70
   128
 43
0.0
 10
187.4396571126
 20
252.7279419431
 10
184.0355678629
 20
252.7833221087
 10
181.9396580737
 20
252.8174196908
  0
LWPOLYLINE
  5
110
330
1F
100
AcDbEntity
  8
0
  6
Continuous
 62
     7
370
    15
100
AcDbPolyline
 90
       11
 70
   128
 43
0.0
 10
181.9396580737
 20
252.8174196908
 10
181.040373927
 20
252.8063965568
 10
180.1389170047
 20
252.7381566891
 10
179.4405256565
 20
252.6269679495
 10
179.0305444207
 20
252.4974694082
 10
178.9519976061
 20
252.3728025684
 10
179.2099115606
 20
252.268032504
 10
179.7766502183
 20
252.1891941854
 10
180.5875769984
 20
252.1355239281
 10
181.5485715102
 20
252.1029164621
 10
181.9396580737
 20
252.09525354
  0
LWPOLYLINE
  5
111
330
1F
100
AcDbEntity
  8
0
  6
Continuous
 62
     7
370
    15
100
AcDbPolyline
 90
        3
 70
   128
 43
0.0
 10
181.9396580737
 20
252.09525354
 10
184.0245028194
 20
252.0618674883
 10
187.4396571126
 20
252.0071727761
  0
LWPOLYLINE
  5
112
330
1F
100
AcDbEntity
  8
0
  6
Continuous
 62
     7
370
    15
100
AcDbPolyline
 90
        3
 70
   128
 43
0.0
 10
264.9876264091
 20
257.818744851
 10
264.9700281378
 20
257.8192179629
 10
264.9396595713
 20
257.8198847899
  0
LWPOLYLINE
  5
113
330
1F
100
AcDbEntity
  8
0
  6
Continuous
 62
     7
370
    15
100
AcDbPolyline
 90
        3
 70
   128
 43
0.0
 10
264.9396595713
 20
257.8198847899
 10
252.235629892
 20
258.0591005811
 10
250.4396599885
 20
258.0929485687
  0
LWPOLYLINE
  5
114
330
1F
100
AcDbEntity
  8
0
  6
Continuous
 62
     7
370
    15
100
AcDbPolyline
 90
        6
 70
   128
 43
0.0
 10
250.4396599885
 20
258.0929485687
 10
249.9600437637
 20
258.0779319235
 10
248.9648846146
 20
257.8813334533
 10
248.0847996827
 20
257.4465175697
 10
247.5576413031
 20
256.8721187839
 10
247.4396613594
 20
256.4243314394
  0
LWPOLYLINE
  5
115
330
1F
100
AcDbEntity
  8
0
  6
Continuous
 62
     7
370
    15
100
AcDbPolyline
 90
        3
 70
   128
 43
0.0
 10
247.4396613594
 20
276.6762928644
 10
244.8261168953
 20
276.7682497927
 10
242.4396586772
 20
276.8524935075
  0
LWPOLYLINE
  5
116
330
1F
100
AcDbEntity
  8
0
  6
Continuous
 62
     7
370
    15
100
AcDbPolyline
 90
        3
 70
   128
 43
0.0
 10
242.4396586772
 20
264.1613011786
 10
195.0872627254
 20
264.7426737079
 10
187.4396571126
 20
264.8365696499
  0
LWPOLYLINE
  5
117
330
1F
100
AcDbEntity
  8
0
  6
Continuous
 62
     7
370
    15
100
AcDbPolyline
 90
        3
 70
   128
 43
0.0
 10
187.4396571126
 20
256.255166007
 10
184.0952330436
 20
256.3141410777
 10
181.9396580737
 20
256.3521762916
  0
LINE
  5
118
330
1F
100
AcDbEntity
  8
0
  6
Continuous
 62
     7
370
    15
100
AcDbLine
 10
242.4396586772
 20
252.9503417739
 30
0.0
 11
247.4396613594
 21
252.9503417739
 31
0.0
  0
LINE
  5
119
330
1F
100
AcDbEntity
  8
0
  6
Continuous
 62
     7
370
    15
100
AcDbLine
 10
187.4396571126
 20
247.1521881947
 30
0.0
 11
187.4396571126
 21
264.8365696499
 31
0.0
  0
LINE
  5
11A
330
1F
100
AcDbEntity
  8
0
  6
Continuous
 62
     7
370
    15
100
AcDbLine
 10
247.4396613594
 20
247.1521881947
 30
0.0
 11
247.4396613594
 21
252.9503417739
 31
0.0
  0
LWPOLYLINE
  5
11B
330
1F
100
AcDbEntity
  8
0
  6
Continuous
 62
     7
370
    15
100
AcDbPolyline
 90
        3
 70
   128
 43
0.0
 10
249.5339003559
 20
257.9938185939
 10
249.726378655
 20
257.9530154893
 10
250.4396599885
 20
257.9122831651
  0
LINE
  5
11C
330
1F
100
AcDbEntity
  8
0
  6
Continuous
 62
     7
370
    15
100
AcDbLine
 10
250.4396599885
 20
257.9122831651
 30
0.0
 11
260.0326773878
 21
257.9122831651
 31
0.0
  0
ARC
  5
11D
330
1F
100
AcDbEntity
  8
0
  6
Continuous
 62
     7
370
    15
100
AcDbCircle
 10
29.2084331433
 20
219.464524618
 30
0.0
 40
148.2054566995964
100
AcDbArc
 50
15.1579594769
 51
18.2811709993
  0
LINE
  5
11E
330
1F
100
AcDbEntity
  8
0
  6
Continuous
 62
     7
370
    15
100
AcDbLine
 10
242.4396586772
 20
252.9503417739
 30
0.0
 11
242.4396586772
 21
276.8524935075
 31
0.0
  0
LINE
  5
11F
330
1F
100
AcDbEntity
  8
0
  6
Continuous
 62
     7
370
    15
100
AcDbLine
 10
247.4396613594
 20
252.9503417739
 30
0.0
 11
247.4396613594
 21
276.6762928644
 31
0.0
  0
LWPOLYLINE
  5
120
330
1F
100
AcDbEntity
  8
0
  6
Continuous
 62
     7
370
    15
100
AcDbPolyline
 90
        3
 70
   128
 43
0.0
 10
169.9337548977
 20
265.9536761769
 10
169.7935230965
 20
266.4739576706
 10
169.7266420284
 20
267.3702252635
  0
LINE
  5
121
330
1F
100
AcDbEntity
  8
0
  6
Continuous
 62
     7
370
    15
100
AcDbLine
 10
169.7398254815
 20
296.652187228
 30
0.0
 11
169.7398254815
 21
299.652187254
 31
0.0
  0
LINE
  5
122
330
1F
100
AcDbEntity
  8
0
  6
Continuous
 62
     7
370
    15
100
AcDbLine
 10
169.7721544821
 20
328.9853756854
 30
0.0
 11
169.7398254815
 21
329.6547917256
 31
0.0
  0
LINE
  5
123
330
1F
100
AcDbEntity
  8
0
  6
Continuous
 62
     7
370
    15
100
AcDbLine
 10
165.5443737451
 20
299.652187254
 30
0.0
 11
165.5443737451
 21
296.652187228
 31
0.0
  0
LINE
  5
124
330
1F
100
AcDbEntity
  8
0
  6
Continuous
 62
     7
370
    15
100
AcDbLine
 10
169.7398254815
 20
299.652187254
 30
0.0
 11
165.5443737451
 21
299.652187254
 31
0.0
  0
LINE
  5
125
330
1F
100
AcDbEntity
  8
0
  6
Continuous
 62
     7
370
    15
100
AcDbLine
 10
169.7398254815
 20
296.652187228
 30
0.0
 11
165.5443737451
 21
296.652187228
 31
0.0
  0
LWPOLYLINE
  5
126
330
1F
100
AcDbEntity
  8
0
  6
Continuous
 62
     7
370
    15
100
AcDbPolyline
 90
        7
 70
   128
 43
0.0
 10
264.9876264091
 20
254.6693993339
 10
265.1748147961
 20
254.6636102327
 10
266.1261272784
 20
254.5098973045
 10
266.9152331706
 20
254.1866017112
 10
267.6543233152
 20
253.556427879
 10
267.9396432992
 20
252.7551738152
 10
267.9396582003
 20
252.7490419873
  0
LWPOLYLINE
  5
127
330
1F
100
AcDbEntity
  8
0
  6
Continuous
 62
     7
370
    15
100
AcDbPolyline
 90
        3
 70
   128
 43
0.0
 10
264.9396595713
 20
254.6700661608
 10
264.9624061938
 20
254.669708533
 10
264.9876264091
 20
254.6693993339
  0
LWPOLYLINE
  5
128
330
1F
100
AcDbEntity
  8
0
  6
Continuous
 62
     7
370
    15
100
AcDbPolyline
 90
        8
 70
   128
 43
0.0
 10
247.4396613594
 20
256.4243314394
 10
247.4498388525
 20
256.2948887774
 10
247.7062058802
 20
255.7908607253
 10
248.3065438624
 20
255.3633017072
 10
248.4067914244
 20
255.3166834244
 10
249.1653722878
 20
255.071536971
 10
250.0491378065
 20
254.941285921
 10
250.4396599885
 20
254.9232331642
  0
ARC
  5
129
330
1F
100
AcDbEntity
  8
0
  6
Continuous
 62
     7
370
    15
100
AcDbCircle
 10
264.4231408821
 20
249.3171880065
 30
0.0
 40
3.53960952822147
100
AcDbArc
 50
353.4516920698
 51
80.8234720726
  0
LWPOLYLINE
  5
12A
330
1F
100
AcDbEntity
  8
0
  6
Continuous
 62
     7
370
    15
100
AcDbPolyline
 90
        3
 70
   128
 43
0.0
 10
264.9876264091
 20
252.8114964792
 10
264.9721441027
 20
252.8118205794
 10
264.9396595713
 20
252.8124166259
  0
LWPOLYLINE
  5
12B
330
1F
100
AcDbEntity
  8
0
  6
Continuous
 62
     7
370
    15
100
AcDbPolyline
 90
        3
 70
   128
 43
0.0
 10
264.9396595713
 20
252.8124166259
 10
252.2466567512
 20
253.0248960086
 10
250.4396599885
 20
253.0551528165
  0
LWPOLYLINE
  5
12C
330
1F
100
AcDbEntity
  8
0
  6
Continuous
 62
     7
370
    15
100
AcDbPolyline
 90
        6
 70
   128
 43
0.0
 10
250.4396599885
 20
253.0551528165
 10
249.5136496778
 20
253.0254249999
 10
248.6055952664
 20
252.8961611518
 10
247.9038772341
 20
252.6870680579
 10
247.5099724885
 20
252.4389748999
 10
247.4396613594
 20
252.2804749736
  0
LWPOLYLINE
  5
12D
330
1F
100
AcDbEntity
  8
0
  6
Continuous
 62
     7
370
    15
100
AcDbPolyline
 90
        3
 70
   128
 43
0.0
 10
250.4396599885
 20
254.9232331642
 10
252.2263539191
 20
254.8920264074
 10
264.9396595713
 20
254.6700661608
  0
ARC
  5
12E
330
1F
100
AcDbEntity
  8
0
  6
Continuous
 62
     7
370
    15
100
AcDbCircle
 10
265.1985101601
 20
248.631096771
 30
0.0
 40
2.755659606057653
100
AcDbArc
 50
5.8826465265
 51
94.3889941079
  0
LWPOLYLINE
  5
12F
330
1F
100
AcDbEntity
  8
0
  6
Continuous
 62
     7
370
    15
100
AcDbPolyline
 90
        3
 70
   128
 43
0.0
 10
264.9396595713
 20
251.379386855
 10
264.970557129
 20
251.3789137432
 10
264.9876264091
 20
251.3786753246
  0
ARC
  5
130
330
1F
100
AcDbEntity
  8
0
  6
Continuous
 62
     7
370
    15
100
AcDbCircle
 10
249.7713092976
 20
255.6947111999
 30
0.0
 40
4.134439637583118
100
AcDbArc
 50
235.6700755697
 51
279.30294123
  0
ARC
  5
131
330
1F
100
AcDbEntity
  8
0
  6
Continuous
 62
     7
370
    15
100
AcDbCircle
 10
264.8726929465
 20
247.7293429549
 30
0.0
 40
3.06710773347617
100
AcDbArc
 50
359.4477302822
 51
87.8524574103
  0
LWPOLYLINE
  5
132
330
1F
100
AcDbEntity
  8
0
  6
Continuous
 62
     7
370
    15
100
AcDbPolyline
 90
        3
 70
   128
 43
0.0
 10
264.9876264091
 20
250.7942964861
 10
264.9603572842
 20
250.7947546968
 10
264.9396595713
 20
250.7950899729
  0
LWPOLYLINE
  5
133
330
1F
100
AcDbEntity
  8
0
  6
Continuous
 62
     7
370
    15
100
AcDbPolyline
 90
        3
 70
   128
 43
0.0
 10
264.9396595713
 20
250.7950899729
 10
252.2324857469
 20
250.9987031647
 10
250.4396599885
 20
251.0274326035
  0
ARC
  5
134
330
1F
100
AcDbEntity
  8
0
  6
Continuous
 62
     7
370
    15
100
AcDbCircle
 10
249.6852361903
 20
203.8345473473
 30
0.0
 40
47.19891496709315
100
AcDbArc
 50
89.084149701
 51
92.7269810947
  0
LWPOLYLINE
  5
135
330
1F
100
AcDbEntity
  8
0
  6
Continuous
 62
     7
370
    15
100
AcDbPolyline
 90
        3
 70
   128
 43
0.0
 10
250.4396599885
 20
251.6146501133
 10
252.2359204646
 20
251.585503442
 10
264.9396595713
 20
251.379386855
  0
LINE
  5
136
330
1F
100
AcDbEntity
  8
0
  6
Continuous
 62
     7
370
    15
100
AcDbLine
 10
267.9396582003
 20
245.1521878668
 30
0.0
 11
267.9396582003
 21
244.1521858403
 31
0.0
  0
LINE
  5
137
330
1F
100
AcDbEntity
  8
0
  6
Continuous
 62
     7
370
    15
100
AcDbLine
 10
274.9396574851
 20
244.7480683753
 30
0.0
 11
274.9396574851
 21
244.1521858403
 31
0.0
  0
LINE
  5
138
330
1F
100
AcDbEntity
  8
0
  6
Continuous
 62
     7
370
    15
100
AcDbLine
 10
267.9396582003
 20
244.1521858403
 30
0.0
 11
267.9396582003
 21
238.1521885821
 31
0.0
  0
LINE
  5
139
330
1F
100
AcDbEntity
  8
0
  6
Continuous
 62
     7
370
    15
100
AcDbLine
 10
274.9396574851
 20
244.1521858403
 30
0.0
 11
274.9396574851
 21
238.1521885821
 31
0.0
  0
LINE
  5
13A
330
1F
100
AcDbEntity
  8
0
  6
Continuous
 62
     7
370
    15
100
AcDbLine
 10
169.7085760003
 20
267.9218830147
 30
0.0
 11
169.3445038451
 21
267.9218830147
 31
0.0
  0
LINE
  5
13B
330
1F
100
AcDbEntity
  8
0
  6
Continuous
 62
     7
370
    15
100
AcDbLine
 10
168.4396577235
 20
268.1521879115
 30
0.0
 11
168.4396577235
 21
258.1521881351
 31
0.0
  0
LINE
  5
13C
330
1F
100
AcDbEntity
  8
0
  6
Continuous
 62
     7
370
    15
100
AcDbLine
 10
165.5443737451
 20
280.1521880159
 30
0.0
 11
165.5443737451
 21
281.1521863171
 31
0.0
  0
LINE
  5
13D
330
1F
100
AcDbEntity
  8
0
  6
Continuous
 62
     7
370
    15
100
AcDbLine
 10
165.5443737451
 20
281.1521863171
 30
0.0
 11
166.264469333
 21
281.1521863171
 31
0.0
  0
LINE
  5
13E
330
1F
100
AcDbEntity
  8
0
  6
Continuous
 62
     7
370
    15
100
AcDbLine
 10
169.3445038451
 20
267.9218830147
 30
0.0
 11
165.5443737451
 21
280.1521880159
 31
0.0
  0
LINE
  5
13F
330
1F
100
AcDbEntity
  8
0
  6
Continuous
 62
     7
370
    15
100
AcDbLine
 10
165.5443737451
 20
315.1521881649
 30
0.0
 11
166.264469333
 21
315.1521881649
 31
0.0
  0
LINE
  5
140
330
1F
100
AcDbEntity
  8
0
  6
Continuous
 62
     7
370
    15
100
AcDbLine
 10
165.5443737451
 20
316.1521864661
 30
0.0
 11
165.5443737451
 21
315.1521881649
 31
0.0
  0
LINE
  5
141
330
1F
100
AcDbEntity
  8
0
  6
Continuous
 62
     7
370
    15
100
AcDbLine
 10
169.7398254815
 20
329.6547917256
 30
0.0
 11
165.5443737451
 21
316.1521864661
 31
0.0
  0
LWPOLYLINE
  5
142
330
1F
100
AcDbEntity
  8
0
  6
Continuous
 62
     7
370
    15
100
AcDbPolyline
 90
        2
 70
   128
 43
0.0
 10
299.8692256566
 20
301.6103027461
 10
299.8692256566
 20
301.6103027461
  0
ARC
  5
143
330
1F
100
AcDbEntity
  8
0
  6
Continuous
 62
     7
370
    15
100
AcDbCircle
 10
298.4973638447
 20
300.0973458516
 30
0.0
 40
2.042313246155791
100
AcDbArc
 50
359.7568545566
 51
47.800077461
  0
LINE
  5
144
330
1F
100
AcDbEntity
  8
0
  6
Continuous
 62
     7
370
    15
100
AcDbLine
 10
300.539658701
 20
300.0886789362
 30
0.0
 11
300.539658701
 21
298.6521872647
 31
0.0
  0
LINE
  5
145
330
1F
100
AcDbEntity
  8
0
  6
Continuous
 62
     7
370
    15
100
AcDbLine
 10
300.539658701
 20
298.6521872647
 30
0.0
 11
299.8692256566
 21
298.6521872647
 31
0.0
  0
LINE
  5
146
330
1F
100
AcDbEntity
  8
0
  6
Continuous
 62
     7
370
    15
100
AcDbLine
 10
299.8692256566
 20
298.6521872647
 30
0.0
 11
299.8692256566
 21
297.6521872172
 31
0.0
  0
LINE
  5
147
330
1F
100
AcDbEntity
  8
0
  6
Continuous
 62
     7
370
    15
100
AcDbLine
 10
299.8692256566
 20
297.6521872172
 30
0.0
 11
300.539658701
 21
297.6521872172
 31
0.0
  0
LINE
  5
148
330
1F
100
AcDbEntity
  8
0
  6
Continuous
 62
     7
370
    15
100
AcDbLine
 10
300.539658701
 20
297.6521872172
 30
0.0
 11
300.539658701
 21
296.2156955458
 31
0.0
  0
ARC
  5
149
330
1F
100
AcDbEntity
  8
0
  6
Continuous
 62
     7
370
    15
100
AcDbCircle
 10
298.505224388
 20
296.2035652462
 30
0.0
 40
2.034470476112075
100
AcDbArc
 50
312.1014463682
 51
0.3416216143
  0
LWPOLYLINE
  5
14A
330
1F
100
AcDbEntity
  8
0
  6
Continuous
 62
     7
370
    15
100
AcDbPolyline
 90
        2
 70
   128
 43
0.0
 10
299.8692256566
 20
294.6940717359
 10
299.8692256566
 20
294.6940717359
  0
LINE
  5
14B
330
1F
100
AcDbEntity
  8
0
  6
Continuous
 62
     7
370
    15
100
AcDbLine
 10
319.239662325
 20
266.6521867344
 30
0.0
 11
319.239662325
 21
275.6521863469
 31
0.0
  0
LWPOLYLINE
  5
14C
330
1F
100
AcDbEntity
  8
0
  6
Continuous
 62
     7
370
    15
100
AcDbPolyline
 90
        2
 70
   128
 43
0.0
 10
321.6692221518
 20
274.6103027442
 10
321.6692221518
 20
274.6103027442
  0
ARC
  5
14D
330
1F
100
AcDbEntity
  8
0
  6
Continuous
 62
     7
370
    15
100
AcDbCircle
 10
320.2974822906
 20
273.0973995769
 30
0.0
 40
2.042191528799444
100
AcDbArc
 50
359.755309815
 51
47.8015995588
  0
LINE
  5
14E
330
1F
100
AcDbEntity
  8
0
  6
Continuous
 62
     7
370
    15
100
AcDbLine
 10
322.3396551963
 20
273.0886781195
 30
0.0
 11
322.3396551963
 21
271.6521875539
 31
0.0
  0
LINE
  5
14F
330
1F
100
AcDbEntity
  8
0
  6
Continuous
 62
     7
370
    15
100
AcDbLine
 10
322.3396551963
 20
271.6521875539
 30
0.0
 11
321.6692221518
 21
271.6521875539
 31
0.0
  0
LINE
  5
150
330
1F
100
AcDbEntity
  8
0
  6
Continuous
 62
     7
370
    15
100
AcDbLine
 10
321.6692221518
 20
271.6521875539
 30
0.0
 11
321.6692221518
 21
270.65218739
 31
0.0
  0
LINE
  5
151
330
1F
100
AcDbEntity
  8
0
  6
Continuous
 62
     7
370
    15
100
AcDbLine
 10
321.6692221518
 20
270.65218739
 30
0.0
 11
322.3396551963
 21
270.65218739
 31
0.0
  0
LINE
  5
152
330
1F
100
AcDbEntity
  8
0
  6
Continuous
 62
     7
370
    15
100
AcDbLine
 10
322.3396551963
 20
270.65218739
 30
0.0
 11
322.3396551963
 21
269.2156949618
 31
0.0
  0
ARC
  5
153
330
1F
100
AcDbEntity
  8
0
  6
Continuous
 62
     7
370
    15
100
AcDbCircle
 10
320.3053241824
 20
269.2035201876
 30
0.0
 40
2.034367444490849
100
AcDbArc
 50
312.1001473504
 51
0.3428915185
  0
LWPOLYLINE
  5
154
330
1F
100
AcDbEntity
  8
0
  6
Continuous
 62
     7
370
    15
100
AcDbPolyline
 90
        2
 70
   128
 43
0.0
 10
321.6692221518
 20
267.6940721997
 10
321.6692221518
 20
267.6940721997
  0
LINE
  5
155
330
1F
100
AcDbEntity
  8
0
  6
Continuous
 62
     7
370
    15
100
AcDbLine
 10
319.239662325
 20
320.6521881351
 30
0.0
 11
319.239662325
 21
329.6521877476
 31
0.0
  0
LWPOLYLINE
  5
156
330
1F
100
AcDbEntity
  8
0
  6
Continuous
 62
     7
370
    15
100
AcDbPolyline
 90
        2
 70
   128
 43
0.0
 10
321.6692221518
 20
328.6103022823
 10
321.6692221518
 20
328.6103022823
  0
ARC
  5
157
330
1F
100
AcDbEntity
  8
0
  6
Continuous
 62
     7
370
    15
100
AcDbCircle
 10
320.297482342
 20
327.0973991483
 30
0.0
 40
2.042191469658845
100
AcDbArc
 50
359.7553611328
 51
47.8015999983
  0
LINE
  5
158
330
1F
100
AcDbEntity
  8
0
  6
Continuous
 62
     7
370
    15
100
AcDbLine
 10
322.3396551963
 20
327.0886795202
 30
0.0
 11
322.3396551963
 21
325.652187092
 31
0.0
  0
LINE
  5
159
330
1F
100
AcDbEntity
  8
0
  6
Continuous
 62
     7
370
    15
100
AcDbLine
 10
322.3396551963
 20
325.652187092
 30
0.0
 11
321.6692221518
 21
325.652187092
 31
0.0
  0
LINE
  5
15A
330
1F
100
AcDbEntity
  8
0
  6
Continuous
 62
     7
370
    15
100
AcDbLine
 10
321.6692221518
 20
325.652187092
 30
0.0
 11
321.6692221518
 21
324.6521869281
 31
0.0
  0
LINE
  5
15B
330
1F
100
AcDbEntity
  8
0
  6
Continuous
 62
     7
370
    15
100
AcDbLine
 10
321.6692221518
 20
324.6521869281
 30
0.0
 11
322.3396551963
 21
324.6521869281
 31
0.0
  0
LINE
  5
15C
330
1F
100
AcDbEntity
  8
0
  6
Continuous
 62
     7
370
    15
100
AcDbLine
 10
322.3396551963
 20
324.6521869281
 30
0.0
 11
322.3396551963
 21
323.2156963625
 31
0.0
  0
ARC
  5
15D
330
1F
100
AcDbEntity
  8
0
  6
Continuous
 62
     7
370
    15
100
AcDbCircle
 10
320.3053241394
 20
323.2035197595
 30
0.0
 40
2.034367498404444
100
AcDbArc
 50
312.1001476094
 51
0.3429430168
  0
LWPOLYLINE
  5
15E
330
1F
100
AcDbEntity
  8
0
  6
Continuous
 62
     7
370
    15
100
AcDbPolyline
 90
        2
 70
   128
 43
0.0
 10
321.6692221518
 20
321.6940717378
 10
321.6692221518
 20
321.6940717378
  0
LINE
  5
15F
330
1F
100
AcDbEntity
  8
0
  6
Continuous
 62
     7
370
    15
100
AcDbLine
 10
319.239662325
 20
349.3791570493
 30
0.0
 11
319.239662325
 21
356.6521865853
 31
0.0
  0
LWPOLYLINE
  5
160
330
1F
100
AcDbEntity
  8
0
  6
Continuous
 62
     7
370
    15
100
AcDbPolyline
 90
        2
 70
   128
 43
0.0
 10
321.6692221518
 20
355.61030112
 10
321.6692221518
 20
355.61030112
  0
ARC
  5
161
330
1F
100
AcDbEntity
  8
0
  6
Continuous
 62
     7
370
    15
100
AcDbCircle
 10
320.2974849617
 20
354.0973991509
 30
0.0
 40
2.042188846938664
100
AcDbArc
 50
359.7553803933
 51
47.8016324952
  0
LINE
  5
162
330
1F
100
AcDbEntity
  8
0
  6
Continuous
 62
     7
370
    15
100
AcDbLine
 10
322.3396551963
 20
354.0886802205
 30
0.0
 11
322.3396551963
 21
352.6521859297
 31
0.0
  0
LINE
  5
163
330
1F
100
AcDbEntity
  8
0
  6
Continuous
 62
     7
370
    15
100
AcDbLine
 10
322.3396551963
 20
352.6521859297
 30
0.0
 11
321.6692221518
 21
352.6521859297
 31
0.0
  0
LINE
  5
164
330
1F
100
AcDbEntity
  8
0
  6
Continuous
 62
     7
370
    15
100
AcDbLine
 10
321.6692221518
 20
352.6521859297
 30
0.0
 11
321.6692221518
 21
351.6521876284
 31
0.0
  0
LINE
  5
165
330
1F
100
AcDbEntity
  8
0
  6
Continuous
 62
     7
370
    15
100
AcDbLine
 10
321.6692221518
 20
351.6521876284
 30
0.0
 11
322.3396551963
 21
351.6521876284
 31
0.0
  0
LINE
  5
166
330
1F
100
AcDbEntity
  8
0
  6
Continuous
 62
     7
370
    15
100
AcDbLine
 10
322.3396551963
 20
351.6521876284
 30
0.0
 11
322.3396551963
 21
350.2156970629
 31
0.0
  0
ARC
  5
167
330
1F
100
AcDbEntity
  8
0
  6
Continuous
 62
     7
370
    15
100
AcDbCircle
 10
320.3053207428
 20
350.2035219564
 30
0.0
 40
2.034370886017189
100
AcDbArc
 50
312.1001903304
 51
0.3429002958
  0
LWPOLYLINE
  5
168
330
1F
100
AcDbEntity
  8
0
  6
Continuous
 62
     7
370
    15
100
AcDbPolyline
 90
        2
 70
   128
 43
0.0
 10
321.6692221518
 20
348.6940724382
 10
321.6692221518
 20
348.6940724382
  0
LINE
  5
169
330
1F
100
AcDbEntity
  8
0
  6
Continuous
 62
     7
370
    15
100
AcDbLine
 10
319.239662325
 20
239.6521878966
 30
0.0
 11
319.239662325
 21
248.6521875092
 31
0.0
  0
LWPOLYLINE
  5
16A
330
1F
100
AcDbEntity
  8
0
  6
Continuous
 62
     7
370
    15
100
AcDbPolyline
 90
        2
 70
   128
 43
0.0
 10
321.6692221518
 20
247.6103020438
 10
321.6692221518
 20
247.6103020438
  0
ARC
  5
16B
330
1F
100
AcDbEntity
  8
0
  6
Continuous
 62
     7
370
    15
100
AcDbCircle
 10
320.2974848591
 20
246.0974000082
 30
0.0
 40
2.04218896523213
100
AcDbArc
 50
359.7552777577
 51
47.8016316161
  0
LINE
  5
16C
330
1F
100
AcDbEntity
  8
0
  6
Continuous
 62
     7
370
    15
100
AcDbLine
 10
322.3396551963
 20
246.0886774191
 30
0.0
 11
322.3396551963
 21
244.6521868536
 31
0.0
  0
LINE
  5
16D
330
1F
100
AcDbEntity
  8
0
  6
Continuous
 62
     7
370
    15
100
AcDbLine
 10
322.3396551963
 20
244.6521868536
 30
0.0
 11
321.6692221518
 21
244.6521868536
 31
0.0
  0
LINE
  5
16E
330
1F
100
AcDbEntity
  8
0
  6
Continuous
 62
     7
370
    15
100
AcDbLine
 10
321.6692221518
 20
244.6521868536
 30
0.0
 11
321.6692221518
 21
243.6521885523
 31
0.0
  0
LINE
  5
16F
330
1F
100
AcDbEntity
  8
0
  6
Continuous
 62
     7
370
    15
100
AcDbLine
 10
321.6692221518
 20
243.6521885523
 30
0.0
 11
322.3396551963
 21
243.6521885523
 31
0.0
  0
LINE
  5
170
330
1F
100
AcDbEntity
  8
0
  6
Continuous
 62
     7
370
    15
100
AcDbLine
 10
322.3396551963
 20
243.6521885523
 30
0.0
 11
322.3396551963
 21
242.2156942615
 31
0.0
  0
ARC
  5
171
330
1F
100
AcDbEntity
  8
0
  6
Continuous
 62
     7
370
    15
100
AcDbCircle
 10
320.3053488351
 20
242.2035104729
 30
0.0
 40
2.034342846139317
100
AcDbArc
 50
312.0998375591
 51
0.3431495525
  0
LWPOLYLINE
  5
172
330
1F
100
AcDbEntity
  8
0
  6
Continuous
 62
     7
370
    15
100
AcDbPolyline
 90
        2
 70
   128
 43
0.0
 10
321.6692221518
 20
240.694073362
 10
321.6692221518
 20
240.694073362
  0
LINE
  5
173
330
1F
100
AcDbEntity
  8
SLD-0
370
     0
100
AcDbLine
 10
232.4396577235
 20
249.7041015433
 30
0.0
 11
232.4396577235
 21
237.7101483322
 31
0.0
  0
LINE
  5
174
330
1F
100
AcDbEntity
  8
SLD-0
370
     0
100
AcDbLine
 10
202.4396577235
 20
249.7041015433
 30
0.0
 11
202.4396577235
 21
237.7101483322
 31
0.0
  0
INSERT
  5
180
330
1F
100
AcDbEntity
  8
SLD-0
100
AcDbBlockReference
  2
SW_CENTERMARKSYMBOL_0
 10
308.9396577235
 20
340.652187241
 30
0.0
  0
LINE
  5
181
330
1F
100
AcDbEntity
  8
SLD-0
  6
CENTERX2
370
     0
100
AcDbLine
 10
156.257980166
 20
298.152187241
 30
0.0
 11
356.4396577235
 21
298.152187241
 31
0.0
  0
LINE
  5
182
330
1F
100
AcDbEntity
  8
0
  6
Continuous
 62
     7
370
    15
100
AcDbLine
 10
512.8627870913
 20
354.0521872768
 30
0.0
 11
512.7161224123
 21
354.1521889695
 31
0.0
  0
LINE
  5
183
330
1F
100
AcDbEntity
  8
0
  6
Continuous
 62
     7
370
    15
100
AcDbLine
 10
512.7161224123
 20
354.1521889695
 30
0.0
 11
484.21612426
 21
354.1521889695
 31
0.0
  0
LINE
  5
184
330
1F
100
AcDbEntity
  8
0
  6
Continuous
 62
     7
370
    15
100
AcDbLine
 10
484.21612426
 20
327.1521864065
 30
0.0
 11
491.7938974436
 21
327.1521864065
 31
0.0
  0
LINE
  5
185
330
1F
100
AcDbEntity
  8
0
  6
Continuous
 62
     7
370
    15
100
AcDbLine
 10
484.21612426
 20
354.1521889695
 30
0.0
 11
464.2161247071
 21
353.5271858403
 31
0.0
  0
LINE
  5
186
330
1F
100
AcDbEntity
  8
0
  6
Continuous
 62
     7
370
    15
100
AcDbLine
 10
464.2161247071
 20
327.7771876731
 30
0.0
 11
484.21612426
 21
327.1521864065
 31
0.0
  0
CIRCLE
  5
187
330
1F
100
AcDbEntity
  8
0
  6
Continuous
 62
     7
370
    15
100
AcDbCircle
 10
544.2161229189
 20
298.152187241
 30
0.0
 40
7.500000000000114
  0
CIRCLE
  5
188
330
1F
100
AcDbEntity
  8
0
  6
Continuous
 62
     7
370
    15
100
AcDbCircle
 10
544.2161229189
 20
298.152187241
 30
0.0
 40
12.875
  0
CIRCLE
  5
189
330
1F
100
AcDbEntity
  8
0
  6
Continuous
 62
     7
370
    15
100
AcDbCircle
 10
544.2161229189
 20
298.152187241
 30
0.0
 40
13.5
  0
CIRCLE
  5
18A
330
1F
100
AcDbEntity
  8
0
  6
Continuous
 62
     7
370
    15
100
AcDbCircle
 10
544.2161229189
 20
298.152187241
 30
0.0
 40
16.00000000000011
  0
LINE
  5
18B
330
1F
100
AcDbEntity
  8
0
  6
Continuous
 62
     7
370
    15
100
AcDbLine
 10
576.1196729477
 20
318.3037614056
 30
0.0
 11
577.6196722623
 21
315.7056843468
 31
0.0
  0
LINE
  5
18C
330
1F
100
AcDbEntity
  8
0
  6
Continuous
 62
     7
370
    15
100
AcDbLine
 10
558.7615021255
 20
304.8179152959
 30
0.0
 11
577.6196722623
 21
315.7056843468
 31
0.0
  0
LINE
  5
18D
330
1F
100
AcDbEntity
  8
0
  6
Continuous
 62
     7
370
    15
100
AcDbLine
 10
557.2615028109
 20
307.4159914234
 30
0.0
 11
576.1196729477
 21
318.3037614056
 31
0.0
  0
LINE
  5
18E
330
1F
100
AcDbEntity
  8
0
  6
Continuous
 62
     7
370
    15
100
AcDbLine
 10
577.6196722623
 20
280.5986901352
 30
0.0
 11
576.1196729477
 21
278.0006130764
 31
0.0
  0
LINE
  5
18F
330
1F
100
AcDbEntity
  8
0
  6
Continuous
 62
     7
370
    15
100
AcDbLine
 10
558.7615021255
 20
291.4864591861
 30
0.0
 11
577.6196722623
 21
280.5986901352
 31
0.0
  0
LINE
  5
190
330
1F
100
AcDbEntity
  8
0
  6
Continuous
 62
     7
370
    15
100
AcDbLine
 10
557.2615028109
 20
288.8883830586
 30
0.0
 11
576.1196729477
 21
278.0006130764
 31
0.0
  0
LINE
  5
191
330
1F
100
AcDbEntity
  8
0
  6
Continuous
 62
     7
370
    15
100
AcDbLine
 10
542.7161229059
 20
282.2226540723
 30
0.0
 11
542.7161229059
 21
269.026306791
 31
0.0
  0
LINE
  5
192
330
1F
100
AcDbEntity
  8
0
  6
Continuous
 62
     7
370
    15
100
AcDbLine
 10
545.716122932
 20
282.2226540723
 30
0.0
 11
545.716122932
 21
269.026306791
 31
0.0
  0
LINE
  5
193
330
1F
100
AcDbEntity
  8
0
  6
Continuous
 62
     7
370
    15
100
AcDbLine
 10
542.7161229059
 20
314.0817204097
 30
0.0
 11
542.7161229059
 21
335.8572585115
 31
0.0
  0
LINE
  5
194
330
1F
100
AcDbEntity
  8
0
  6
Continuous
 62
     7
370
    15
100
AcDbLine
 10
542.7161229059
 20
335.8572585115
 30
0.0
 11
545.716122932
 21
335.8572585115
 31
0.0
  0
LINE
  5
195
330
1F
100
AcDbEntity
  8
0
  6
Continuous
 62
     7
370
    15
100
AcDbLine
 10
545.716122932
 20
314.0817204097
 30
0.0
 11
545.716122932
 21
335.8572585115
 31
0.0
  0
LINE
  5
196
330
1F
100
AcDbEntity
  8
0
  6
Continuous
 62
     7
370
    15
100
AcDbLine
 10
529.6707437124
 20
304.8179152959
 30
0.0
 11
510.8125735756
 21
315.7056843468
 31
0.0
  0
LINE
  5
197
330
1F
100
AcDbEntity
  8
0
  6
Continuous
 62
     7
370
    15
100
AcDbLine
 10
510.8125735756
 20
315.7056843468
 30
0.0
 11
512.3125728901
 21
318.3037614056
 31
0.0
  0
LINE
  5
198
330
1F
100
AcDbEntity
  8
0
  6
Continuous
 62
     7
370
    15
100
AcDbLine
 10
531.1707430269
 20
307.4159914234
 30
0.0
 11
512.3125728901
 21
318.3037614056
 31
0.0
  0
LINE
  5
199
330
1F
100
AcDbEntity
  8
0
  6
Continuous
 62
     7
370
    15
100
AcDbLine
 10
512.3125728901
 20
278.0006130764
 30
0.0
 11
510.8125735756
 21
280.5986901352
 31
0.0
  0
LINE
  5
19A
330
1F
100
AcDbEntity
  8
0
  6
Continuous
 62
     7
370
    15
100
AcDbLine
 10
531.1707430269
 20
288.8883830586
 30
0.0
 11
512.3125728901
 21
278.0006130764
 31
0.0
  0
LINE
  5
19B
330
1F
100
AcDbEntity
  8
0
  6
Continuous
 62
     7
370
    15
100
AcDbLine
 10
529.6707437124
 20
291.4864591861
 30
0.0
 11
510.8125735756
 21
280.5986901352
 31
0.0
  0
CIRCLE
  5
19C
330
1F
100
AcDbEntity
  8
0
  6
Continuous
 62
     7
370
    15
100
AcDbCircle
 10
544.2161229189
 20
260.152187241
 30
0.0
 40
9.0
  0
CIRCLE
  5
19D
330
1F
100
AcDbEntity
  8
0
  6
Continuous
 62
     7
370
    15
100
AcDbCircle
 10
544.2161229189
 20
260.152187241
 30
0.0
 40
5.0
  0
LINE
  5
19E
330
1F
100
AcDbEntity
  8
0
  6
Continuous
 62
     7
370
    15
100
AcDbLine
 10
512.740038776
 20
354.0521872768
 30
0.0
 11
515.9427602526
 21
351.8521872887
 31
0.0
  0
LINE
  5
19F
330
1F
100
AcDbEntity
  8
0
  6
Continuous
 62
     7
370
    15
100
AcDbLine
 10
523.7161223527
 20
346.5521199235
 30
0.0
 11
523.7161223527
 21
342.1067086586
 31
0.0
  0
LWPOLYLINE
  5
1A0
330
1F
100
AcDbEntity
  8
0
  6
Continuous
 62
     7
370
    15
100
AcDbPolyline
 90
        6
 70
   128
 43
0.0
 10
518.4268844064
 20
339.2273051271
 10
518.4070770379
 20
339.1389337906
 10
517.4117577012
 20
336.6763753423
 10
516.132092544
 20
334.7705540785
 10
514.6415517416
 20
333.0182035991
 10
512.7161224123
 20
331.0605225691
  0
LINE
  5
1A1
330
1F
100
AcDbEntity
  8
0
  6
Continuous
 62
     7
370
    15
100
AcDbLine
 10
512.7161224123
 20
354.1521889695
 30
0.0
 11
512.7161224123
 21
331.0605225691
 31
0.0
  0
LINE
  5
1A2
330
1F
100
AcDbEntity
  8
0
  6
Continuous
 62
     7
370
    15
100
AcDbLine
 10
484.21612426
 20
354.1521889695
 30
0.0
 11
484.21612426
 21
327.1521864065
 31
0.0
  0
LINE
  5
1A3
330
1F
100
AcDbEntity
  8
0
  6
Continuous
 62
     7
370
    15
100
AcDbLine
 10
508.5890074011
 20
331.0605225691
 30
0.0
 11
512.7161224123
 21
331.0605225691
 31
0.0
  0
LINE
  5
1A4
330
1F
100
AcDbEntity
  8
0
  6
Continuous
 62
     7
370
    15
100
AcDbLine
 10
496.4059744712
 20
331.0605225691
 30
0.0
 11
498.4955270525
 21
331.0605225691
 31
0.0
  0
LINE
  5
1A5
330
1F
100
AcDbEntity
  8
0
  6
Continuous
 62
     7
370
    15
100
AcDbLine
 10
464.2161247071
 20
353.5271858403
 30
0.0
 11
464.2161247071
 21
327.7771876731
 31
0.0
  0
ARC
  5
1A6
330
1F
100
AcDbEntity
  8
0
  6
Continuous
 62
     7
370
    15
100
AcDbCircle
 10
544.2161229189
 20
298.152187241
 30
0.0
 40
48.5
100
AcDbArc
 50
99.1149579538
 51
122.1228834999
  0
ARC
  5
1A7
330
1F
100
AcDbEntity
  8
0
  6
Continuous
 62
     7
370
    15
100
AcDbCircle
 10
536.2161229189
 20
348.0144976568
 30
0.0
 40
2.000000000000046
100
AcDbArc
 50
279.1149579538
 51
0.0
  0
LINE
  5
1A8
330
1F
100
AcDbEntity
  8
0
  6
Continuous
 62
     7
370
    15
100
AcDbLine
 10
538.2161228668
 20
352.1521886417
 30
0.0
 11
538.2161228668
 21
348.0144975313
 31
0.0
  0
ARC
  5
1A9
330
1F
100
AcDbEntity
  8
0
  6
Continuous
 62
     7
370
    15
100
AcDbCircle
 10
544.2161229189
 20
352.152187241
 30
0.0
 40
6.0
100
AcDbArc
 50
0.0
 51
180.0
  0
LINE
  5
1AA
330
1F
100
AcDbEntity
  8
0
  6
Continuous
 62
     7
370
    15
100
AcDbLine
 10
550.2161229711
 20
348.0144975313
 30
0.0
 11
550.2161229711
 21
352.1521886417
 31
0.0
  0
ARC
  5
1AB
330
1F
100
AcDbEntity
  8
0
  6
Continuous
 62
     7
370
    15
100
AcDbCircle
 10
552.2161229189
 20
348.0144976568
 30
0.0
 40
2.000000000000064
100
AcDbArc
 50
180.0
 51
260.8850420462
  0
ARC
  5
1AC
330
1F
100
AcDbEntity
  8
0
  6
Continuous
 62
     7
370
    15
100
AcDbCircle
 10
544.2161229189
 20
298.152187241
 30
0.0
 40
48.50000000000003
100
AcDbArc
 50
39.1149579538
 51
80.8850420462
  0
ARC
  5
1AD
330
1F
100
AcDbEntity
  8
0
  6
Continuous
 62
     7
370
    15
100
AcDbCircle
 10
583.3981504304
 20
330.0115456792
 30
0.0
 40
2.000000000000016
100
AcDbArc
 50
219.1149579538
 51
300.0
  0
LINE
  5
1AE
330
1F
100
AcDbEntity
  8
0
  6
Continuous
 62
     7
370
    15
100
AcDbLine
 10
587.9814964469
 20
330.3483401963
 30
0.0
 11
584.3981508847
 21
328.2794946411
 31
0.0
  0
ARC
  5
1AF
330
1F
100
AcDbEntity
  8
0
  6
Continuous
 62
     7
370
    15
100
AcDbCircle
 10
590.9814947233
 20
325.152187241
 30
0.0
 40
6.0
100
AcDbArc
 50
300.0
 51
120.0
  0
LINE
  5
1B0
330
1F
100
AcDbEntity
  8
0
  6
Continuous
 62
     7
370
    15
100
AcDbLine
 10
590.3981518682
 20
317.8871901312
 30
0.0
 11
593.9814937051
 21
319.9560356864
 31
0.0
  0
ARC
  5
1B1
330
1F
100
AcDbEntity
  8
0
  6
Continuous
 62
     7
370
    15
100
AcDbCircle
 10
591.3981504304
 20
316.1551392186
 30
0.0
 40
2.000000000000016
100
AcDbArc
 50
120.0
 51
200.8850420462
  0
ARC
  5
1B2
330
1F
100
AcDbEntity
  8
0
  6
Continuous
 62
     7
370
    15
100
AcDbCircle
 10
544.2161229189
 20
298.152187241
 30
0.0
 40
48.50000000000002
100
AcDbArc
 50
339.1149579538
 51
20.8850420462
  0
ARC
  5
1B3
330
1F
100
AcDbEntity
  8
0
  6
Continuous
 62
     7
370
    15
100
AcDbCircle
 10
591.3981504304
 20
280.1492352634
 30
0.0
 40
2.000000000000016
100
AcDbArc
 50
159.1149579538
 51
240.0
  0
LINE
  5
1B4
330
1F
100
AcDbEntity
  8
0
  6
Continuous
 62
     7
370
    15
100
AcDbLine
 10
593.9814937051
 20
276.3483387956
 30
0.0
 11
590.3981518682
 21
278.4171843508
 31
0.0
  0
ARC
  5
1B5
330
1F
100
AcDbEntity
  8
0
  6
Continuous
 62
     7
370
    15
100
AcDbCircle
 10
590.9814947233
 20
271.152187241
 30
0.0
 40
5.999999999999993
100
AcDbArc
 50
240.0
 51
60.0
  0
LINE
  5
1B6
330
1F
100
AcDbEntity
  8
0
  6
Continuous
 62
     7
370
    15
100
AcDbLine
 10
584.3981508847
 20
268.0248798409
 30
0.0
 11
587.9814964469
 21
265.9560342857
 31
0.0
  0
ARC
  5
1B7
330
1F
100
AcDbEntity
  8
0
  6
Continuous
 62
     7
370
    15
100
AcDbCircle
 10
583.3981504304
 20
266.2928288028
 30
0.0
 40
1.999999999999967
100
AcDbArc
 50
60.0
 51
140.8850420462
  0
ARC
  5
1B8
330
1F
100
AcDbEntity
  8
0
  6
Continuous
 62
     7
370
    15
100
AcDbCircle
 10
544.2161229189
 20
298.152187241
 30
0.0
 40
48.49999999999999
100
AcDbArc
 50
279.1149579538
 51
320.8850420462
  0
ARC
  5
1B9
330
1F
100
AcDbEntity
  8
0
  6
Continuous
 62
     7
370
    15
100
AcDbCircle
 10
552.2161229189
 20
248.2898768252
 30
0.0
 40
2.000000000000036
100
AcDbArc
 50
99.1149579538
 51
180.0
  0
LINE
  5
1BA
330
1F
100
AcDbEntity
  8
0
  6
Continuous
 62
     7
370
    15
100
AcDbLine
 10
550.2161229711
 20
244.1521858403
 30
0.0
 11
550.2161229711
 21
248.2898769507
 31
0.0
  0
ARC
  5
1BB
330
1F
100
AcDbEntity
  8
0
  6
Continuous
 62
     7
370
    15
100
AcDbCircle
 10
544.2161229189
 20
244.152187241
 30
0.0
 40
6.000000000000114
100
AcDbArc
 50
180.0
 51
0.0
  0
LINE
  5
1BC
330
1F
100
AcDbEntity
  8
0
  6
Continuous
 62
     7
370
    15
100
AcDbLine
 10
538.2161228668
 20
248.2898769507
 30
0.0
 11
538.2161228668
 21
244.1521858403
 31
0.0
  0
ARC
  5
1BD
330
1F
100
AcDbEntity
  8
0
  6
Continuous
 62
     7
370
    15
100
AcDbCircle
 10
536.2161229189
 20
248.2898768252
 30
0.0
 40
2.000000000000036
100
AcDbArc
 50
0.0
 51
80.8850420462
  0
ARC
  5
1BE
330
1F
100
AcDbEntity
  8
0
  6
Continuous
 62
     7
370
    15
100
AcDbCircle
 10
544.2161229189
 20
298.152187241
 30
0.0
 40
48.50000000000004
100
AcDbArc
 50
219.1149579538
 51
260.8850420462
  0
ARC
  5
1BF
330
1F
100
AcDbEntity
  8
0
  6
Continuous
 62
     7
370
    15
100
AcDbCircle
 10
505.0340954075
 20
266.2928288028
 30
0.0
 40
1.999999999999987
100
AcDbArc
 50
39.1149579538
 51
120.0
  0
LINE
  5
1C0
330
1F
100
AcDbEntity
  8
0
  6
Continuous
 62
     7
370
    15
100
AcDbLine
 10
500.4507493909
 20
265.9560342857
 30
0.0
 11
504.0340949531
 21
268.0248798409
 31
0.0
  0
ARC
  5
1C1
330
1F
100
AcDbEntity
  8
0
  6
Continuous
 62
     7
370
    15
100
AcDbCircle
 10
497.4507511146
 20
271.152187241
 30
0.0
 40
5.999999999999951
100
AcDbArc
 50
120.0
 51
300.0
  0
LINE
  5
1C2
330
1F
100
AcDbEntity
  8
0
  6
Continuous
 62
     7
370
    15
100
AcDbLine
 10
498.0340939697
 20
278.4171843508
 30
0.0
 11
494.4507521327
 21
276.3483387956
 31
0.0
  0
ARC
  5
1C3
330
1F
100
AcDbEntity
  8
0
  6
Continuous
 62
     7
370
    15
100
AcDbCircle
 10
497.0340954075
 20
280.1492352634
 30
0.0
 40
2.000000000000022
100
AcDbArc
 50
300.0
 51
20.8850420462
  0
ARC
  5
1C4
330
1F
100
AcDbEntity
  8
0
  6
Continuous
 62
     7
370
    15
100
AcDbCircle
 10
544.2161229189
 20
298.152187241
 30
0.0
 40
48.50000000000006
100
AcDbArc
 50
159.1149579538
 51
200.8850420462
  0
ARC
  5
1C5
330
1F
100
AcDbEntity
  8
0
  6
Continuous
 62
     7
370
    15
100
AcDbCircle
 10
497.0340954075
 20
316.1551392186
 30
0.0
 40
2.000000000000045
100
AcDbArc
 50
339.1149579538
 51
60.0
  0
LINE
  5
1C6
330
1F
100
AcDbEntity
  8
0
  6
Continuous
 62
     7
370
    15
100
AcDbLine
 10
494.4507521327
 20
319.9560356864
 30
0.0
 11
498.0340939697
 21
317.8871901312
 31
0.0
  0
LINE
  5
1C7
330
1F
100
AcDbEntity
  8
0
  6
Continuous
 62
     7
370
    15
100
AcDbLine
 10
504.0340949531
 20
328.2794946411
 30
0.0
 11
500.4507493909
 21
330.3483401963
 31
0.0
  0
ARC
  5
1C8
330
1F
100
AcDbEntity
  8
0
  6
Continuous
 62
     7
370
    15
100
AcDbCircle
 10
505.0340954075
 20
330.0115456792
 30
0.0
 40
2.000000000000032
100
AcDbArc
 50
240.0
 51
320.8850420462
  0
ARC
  5
1C9
330
1F
100
AcDbEntity
  8
0
  6
Continuous
 62
     7
370
    15
100
AcDbCircle
 10
544.2161229189
 20
298.152187241
 30
0.0
 40
48.50000000000004
100
AcDbArc
 50
137.2717133179
 51
140.8850420462
  0
ARC
  5
1CA
330
1F
100
AcDbEntity
  8
0
  6
Continuous
 62
     7
370
    15
100
AcDbCircle
 10
497.4507511146
 20
325.152187241
 30
0.0
 40
5.999999999999982
100
AcDbArc
 50
60.0
 51
79.9720166663
  0
ARC
  5
1CB
330
1F
100
AcDbEntity
  8
0
  6
Continuous
 62
     7
370
    15
100
AcDbCircle
 10
497.4507511146
 20
325.152187241
 30
0.0
 40
6.000000000000021
100
AcDbArc
 50
100.0279833337
 51
240.0
  0
LINE
  5
1CC
330
1F
100
AcDbEntity
  8
0
  6
Continuous
 62
     7
370
    15
100
AcDbLine
 10
537.5261227351
 20
346.5521199235
 30
0.0
 11
537.5261227351
 21
346.5032403895
 31
0.0
  0
LINE
  5
1CD
330
1F
100
AcDbEntity
  8
0
  6
Continuous
 62
     7
370
    15
100
AcDbLine
 10
515.9427602526
 20
351.8521872887
 30
0.0
 11
523.7161223527
 21
346.5521199235
 31
0.0
  0
LINE
  5
1CE
330
1F
100
AcDbEntity
  8
0
  6
Continuous
 62
     7
370
    15
100
AcDbLine
 10
523.7161223527
 20
346.5521199235
 30
0.0
 11
537.5804719265
 21
346.5521199235
 31
0.0
  0
LINE
  5
1CF
330
1F
100
AcDbEntity
  8
0
  6
Continuous
 62
     7
370
    15
100
AcDbLine
 10
538.5249014694
 20
354.0521872768
 30
0.0
 11
512.740038776
 21
354.0521872768
 31
0.0
  0
ARC
  5
1D0
330
1F
100
AcDbEntity
  8
0
  6
Continuous
 62
     7
370
    15
100
AcDbCircle
 10
544.2161229189
 20
298.152187241
 30
0.0
 40
52.00000000000006
100
AcDbArc
 50
336.6258095648
 51
23.3741904352
  0
ARC
  5
1D1
330
1F
100
AcDbEntity
  8
0
  6
Continuous
 62
     7
370
    15
100
AcDbCircle
 10
544.2161229189
 20
298.152187241
 30
0.0
 40
52.00000000000003
100
AcDbArc
 50
36.6258095648
 51
83.3741904352
  0
ARC
  5
1D2
330
1F
100
AcDbEntity
  8
0
  6
Continuous
 62
     7
370
    15
100
AcDbCircle
 10
544.2161229189
 20
298.152187241
 30
0.0
 40
52.00000000000005
100
AcDbArc
 50
276.6258095648
 51
323.3741904352
  0
ARC
  5
1D3
330
1F
100
AcDbEntity
  8
0
  6
Continuous
 62
     7
370
    15
100
AcDbCircle
 10
544.2161229189
 20
298.152187241
 30
0.0
 40
52.00000000000001
100
AcDbArc
 50
216.6258095648
 51
263.3741904352
  0
ARC
  5
1D4
330
1F
100
AcDbEntity
  8
0
  6
Continuous
 62
     7
370
    15
100
AcDbCircle
 10
544.2161229189
 20
298.152187241
 30
0.0
 40
51.99999999999999
100
AcDbArc
 50
156.6258095648
 51
203.3741904352
  0
ARC
  5
1D5
330
1F
100
AcDbEntity
  8
0
  6
Continuous
 62
     7
370
    15
100
AcDbCircle
 10
597.6202426102
 20
306.152187241
 30
0.0
 40
2.0
100
AcDbArc
 50
188.5196242541
 51
270.0
  0
LINE
  5
1D6
330
1F
100
AcDbEntity
  8
0
  6
Continuous
 62
     7
370
    15
100
AcDbLine
 10
597.6202417847
 20
304.1521872932
 30
0.0
 11
601.716123962
 21
304.1521872932
 31
0.0
  0
LINE
  5
1D7
330
1F
100
AcDbEntity
  8
0
  6
Continuous
 62
     7
370
    15
100
AcDbLine
 10
601.716123962
 20
292.1521871888
 30
0.0
 11
597.6202417847
 21
292.1521871888
 31
0.0
  0
ARC
  5
1D8
330
1F
100
AcDbEntity
  8
0
  6
Continuous
 62
     7
370
    15
100
AcDbCircle
 10
597.6202426102
 20
290.152187241
 30
0.0
 40
2.0
100
AcDbArc
 50
90.0
 51
171.4803757459
  0
ARC
  5
1D9
330
1F
100
AcDbEntity
  8
0
  6
Continuous
 62
     7
370
    15
100
AcDbCircle
 10
594.4654472383
 20
278.3783306256
 30
0.0
 40
1.999999999999972
100
AcDbArc
 50
158.5196242541
 51
240.0
  0
ARC
  5
1DA
330
1F
100
AcDbEntity
  8
0
  6
Continuous
 62
     7
370
    15
100
AcDbCircle
 10
586.4654472383
 20
264.5219241651
 30
0.0
 40
2.000000000000016
100
AcDbArc
 50
60.0
 51
141.4803757459
  0
ARC
  5
1DB
330
1F
100
AcDbEntity
  8
0
  6
Continuous
 62
     7
370
    15
100
AcDbCircle
 10
552.2161229189
 20
244.7480675497
 30
0.0
 40
2.000000000000051
100
AcDbArc
 50
98.5196242541
 51
180.0
  0
ARC
  5
1DC
330
1F
100
AcDbEntity
  8
0
  6
Continuous
 62
     7
370
    15
100
AcDbCircle
 10
536.2161229189
 20
244.7480675497
 30
0.0
 40
2.0
100
AcDbArc
 50
0.0
 51
81.4803757459
  0
ARC
  5
1DD
330
1F
100
AcDbEntity
  8
0
  6
Continuous
 62
     7
370
    15
100
AcDbCircle
 10
501.9667985995
 20
264.5219241651
 30
0.0
 40
1.999999999999967
100
AcDbArc
 50
38.5196242541
 51
120.0
  0
ARC
  5
1DE
330
1F
100
AcDbEntity
  8
0
  6
Continuous
 62
     7
370
    15
100
AcDbCircle
 10
493.9667985995
 20
278.3783306256
 30
0.0
 40
1.999999999999972
100
AcDbArc
 50
300.0
 51
21.4803757459
  0
ARC
  5
1DF
330
1F
100
AcDbEntity
  8
0
  6
Continuous
 62
     7
370
    15
100
AcDbCircle
 10
490.8120032277
 20
290.152187241
 30
0.0
 40
2.0
100
AcDbArc
 50
8.5196242541
 51
90.0
  0
LINE
  5
1E0
330
1F
100
AcDbEntity
  8
0
  6
Continuous
 62
     7
370
    15
100
AcDbLine
 10
490.8120040532
 20
292.1521871888
 30
0.0
 11
486.7161218759
 21
292.1521871888
 31
0.0
  0
ARC
  5
1E1
330
1F
100
AcDbEntity
  8
0
  6
Continuous
 62
     7
370
    15
100
AcDbCircle
 10
486.7161229189
 20
298.152187241
 30
0.0
 40
6.000000000000057
100
AcDbArc
 50
90.0
 51
270.0
  0
LINE
  5
1E2
330
1F
100
AcDbEntity
  8
0
  6
Continuous
 62
     7
370
    15
100
AcDbLine
 10
486.7161218759
 20
304.1521872932
 30
0.0
 11
490.8120040532
 21
304.1521872932
 31
0.0
  0
ARC
  5
1E3
330
1F
100
AcDbEntity
  8
0
  6
Continuous
 62
     7
370
    15
100
AcDbCircle
 10
490.8120032277
 20
306.152187241
 30
0.0
 40
2.0
100
AcDbArc
 50
270.0
 51
351.4803757459
  0
ARC
  5
1E4
330
1F
100
AcDbEntity
  8
0
  6
Continuous
 62
     7
370
    15
100
AcDbCircle
 10
493.9667985995
 20
317.9260438564
 30
0.0
 40
2.000000000000025
100
AcDbArc
 50
338.5196242541
 51
60.0
  0
ARC
  5
1E5
330
1F
100
AcDbEntity
  8
0
  6
Continuous
 62
     7
370
    15
100
AcDbCircle
 10
552.2161229189
 20
351.5563069323
 30
0.0
 40
2.0
100
AcDbArc
 50
180.0
 51
261.4803757459
  0
ARC
  5
1E6
330
1F
100
AcDbEntity
  8
0
  6
Continuous
 62
     7
370
    15
100
AcDbCircle
 10
586.4654472383
 20
331.7824503169
 30
0.0
 40
2.000000000000072
100
AcDbArc
 50
218.5196242541
 51
300.0
  0
ARC
  5
1E7
330
1F
100
AcDbEntity
  8
0
  6
Continuous
 62
     7
370
    15
100
AcDbCircle
 10
594.4654472383
 20
317.9260438564
 30
0.0
 40
2.000000000000016
100
AcDbArc
 50
120.0
 51
201.4803757459
  0
ARC
  5
1E8
330
1F
100
AcDbEntity
  8
0
  6
Continuous
 62
     7
370
    15
100
AcDbCircle
 10
601.7161229189
 20
298.152187241
 30
0.0
 40
6.0
100
AcDbArc
 50
270.0
 51
90.0
  0
CIRCLE
  5
1E9
330
1F
100
AcDbEntity
  8
0
  6
Continuous
 62
     7
370
    15
100
AcDbCircle
 10
544.2161229189
 20
298.152187241
 30
0.0
 40
7.0
  0
ARC
  5
1EA
330
1F
100
AcDbEntity
  8
0
  6
Continuous
 62
     7
370
    15
100
AcDbCircle
 10
544.2161229189
 20
298.152187241
 30
0.0
 40
60.00000000000003
100
AcDbArc
 50
5.3224640312
 51
30.0
  0
ARC
  5
1EB
330
1F
100
AcDbEntity
  8
0
  6
Continuous
 62
     7
370
    15
100
AcDbCircle
 10
544.2161229189
 20
298.152187241
 30
0.0
 40
60.00000000000005
100
AcDbArc
 50
330.0
 51
354.6775359688
  0
ARC
  5
1EC
330
1F
100
AcDbEntity
  8
0
  6
Continuous
 62
     7
370
    15
100
AcDbCircle
 10
544.2161229189
 20
298.152187241
 30
0.0
 40
60.00000000000003
100
AcDbArc
 50
30.0
 51
90.0
  0
ARC
  5
1ED
330
1F
100
AcDbEntity
  8
0
  6
Continuous
 62
     7
370
    15
100
AcDbCircle
 10
544.2161229189
 20
298.152187241
 30
0.0
 40
60.00000000000002
100
AcDbArc
 50
90.0
 51
111.3038736689
  0
ARC
  5
1EE
330
1F
100
AcDbEntity
  8
0
  6
Continuous
 62
     7
370
    15
100
AcDbCircle
 10
544.2161229189
 20
298.152187241
 30
0.0
 40
60.00000000000004
100
AcDbArc
 50
185.3224640312
 51
210.0
  0
ARC
  5
1EF
330
1F
100
AcDbEntity
  8
0
  6
Continuous
 62
     7
370
    15
100
AcDbCircle
 10
544.2161229189
 20
298.152187241
 30
0.0
 40
60.00000000000005
100
AcDbArc
 50
151.0966654602
 51
174.6775359688
  0
CIRCLE
  5
1F0
330
1F
100
AcDbEntity
  8
0
  6
Continuous
 62
     7
370
    15
100
AcDbCircle
 10
544.2161229189
 20
298.152187241
 30
0.0
 40
4.25
  0
ARC
  5
1F1
330
1F
100
AcDbEntity
  8
0
  6
Continuous
 62
     7
370
    15
100
AcDbCircle
 10
544.2161229189
 20
298.152187241
 30
0.0
 40
63.5
100
AcDbArc
 50
330.0
 51
0.0
  0
ARC
  5
1F2
330
1F
100
AcDbEntity
  8
0
  6
Continuous
 62
     7
370
    15
100
AcDbCircle
 10
594.0125836365
 20
269.402187241
 30
0.0
 40
6.000000000000003
100
AcDbArc
 50
261.9347670621
 51
330.0
  0
ARC
  5
1F3
330
1F
100
AcDbEntity
  8
0
  6
Continuous
 62
     7
370
    15
100
AcDbCircle
 10
544.2161229189
 20
298.152187241
 30
0.0
 40
60.00000000000002
100
AcDbArc
 50
297.9528865891
 51
324.6775359688
  0
LINE
  5
1F4
330
1F
100
AcDbEntity
  8
0
  6
Continuous
 62
     7
370
    15
100
AcDbLine
 10
550.2573763702
 20
245.1521878668
 30
0.0
 11
572.3408446397
 21
245.1521878668
 31
0.0
  0
LINE
  5
1F5
330
1F
100
AcDbEntity
  8
0
  6
Continuous
 62
     7
370
    15
100
AcDbLine
 10
516.0914011981
 20
245.1521878668
 30
0.0
 11
538.1748694677
 21
245.1521878668
 31
0.0
  0
ARC
  5
1F6
330
1F
100
AcDbEntity
  8
0
  6
Continuous
 62
     7
370
    15
100
AcDbCircle
 10
544.2161229189
 20
298.152187241
 30
0.0
 40
59.99999999999999
100
AcDbArc
 50
210.0
 51
242.0471134109
  0
ARC
  5
1F7
330
1F
100
AcDbEntity
  8
0
  6
Continuous
 62
     7
370
    15
100
AcDbCircle
 10
544.2161229189
 20
298.152187241
 30
0.0
 40
63.50000000000002
100
AcDbArc
 50
152.8260877367
 51
180.0
  0
LINE
  5
1F8
330
1F
100
AcDbEntity
  8
0
  6
Continuous
 62
     7
370
    15
100
AcDbLine
 10
586.2161223527
 20
252.9503417739
 30
0.0
 11
586.2161223527
 21
255.303615106
 31
0.0
  0
LINE
  5
1F9
330
1F
100
AcDbEntity
  8
0
  6
Continuous
 62
     7
370
    15
100
AcDbLine
 10
591.0813552078
 20
247.1521881947
 30
0.0
 11
586.2161223527
 21
252.9503417739
 31
0.0
  0
LINE
  5
1FA
330
1F
100
AcDbEntity
  8
0
  6
Continuous
 62
     7
370
    15
100
AcDbLine
 10
604.2161215778
 20
247.1521881947
 30
0.0
 11
591.0813552078
 21
247.1521881947
 31
0.0
  0
LINE
  5
1FB
330
1F
100
AcDbEntity
  8
0
  6
Continuous
 62
     7
370
    15
100
AcDbLine
 10
604.2161215778
 20
243.152187539
 30
0.0
 11
604.2161215778
 21
247.1521881947
 31
0.0
  0
LINE
  5
1FC
330
1F
100
AcDbEntity
  8
0
  6
Continuous
 62
     7
370
    15
100
AcDbLine
 10
589.2161247071
 20
243.152187539
 30
0.0
 11
604.2161215778
 21
243.152187539
 31
0.0
  0
LINE
  5
1FD
330
1F
100
AcDbEntity
  8
0
  6
Continuous
 62
     7
370
    15
100
AcDbLine
 10
587.5379224058
 20
245.1521878668
 30
0.0
 11
589.2161247071
 21
243.152187539
 31
0.0
  0
LINE
  5
1FE
330
1F
100
AcDbEntity
  8
0
  6
Continuous
 62
     7
370
    15
100
AcDbLine
 10
500.8943234321
 20
245.1521878668
 30
0.0
 11
516.0914011981
 21
245.1521878668
 31
0.0
  0
LINE
  5
1FF
330
1F
100
AcDbEntity
  8
0
  6
Continuous
 62
     7
370
    15
100
AcDbLine
 10
572.3408446397
 20
245.1521878668
 30
0.0
 11
587.5379224058
 21
245.1521878668
 31
0.0
  0
LINE
  5
200
330
1F
100
AcDbEntity
  8
0
  6
Continuous
 62
     7
370
    15
100
AcDbLine
 10
500.8943234321
 20
245.1521878668
 30
0.0
 11
499.2161211308
 21
243.152187539
 31
0.0
  0
LINE
  5
201
330
1F
100
AcDbEntity
  8
0
  6
Continuous
 62
     7
370
    15
100
AcDbLine
 10
499.2161211308
 20
243.152187539
 30
0.0
 11
484.21612426
 21
243.152187539
 31
0.0
  0
LINE
  5
202
330
1F
100
AcDbEntity
  8
0
  6
Continuous
 62
     7
370
    15
100
AcDbLine
 10
484.21612426
 20
243.152187539
 30
0.0
 11
484.21612426
 21
247.1521881947
 31
0.0
  0
LINE
  5
203
330
1F
100
AcDbEntity
  8
0
  6
Continuous
 62
     7
370
    15
100
AcDbLine
 10
484.21612426
 20
247.1521881947
 30
0.0
 11
497.3508906301
 21
247.1521881947
 31
0.0
  0
LINE
  5
204
330
1F
100
AcDbEntity
  8
0
  6
Continuous
 62
     7
370
    15
100
AcDbLine
 10
497.3508906301
 20
247.1521881947
 30
0.0
 11
502.2161234852
 21
252.9503417739
 31
0.0
  0
LINE
  5
205
330
1F
100
AcDbEntity
  8
0
  6
Continuous
 62
     7
370
    15
100
AcDbLine
 10
502.2161234852
 20
252.9503417739
 30
0.0
 11
502.2161234852
 21
255.303615106
 31
0.0
  0
CIRCLE
  5
206
330
1F
100
AcDbEntity
  8
0
  6
Continuous
 62
     7
370
    15
100
AcDbCircle
 10
601.7161229189
 20
298.152187241
 30
0.0
 40
4.0
  0
LINE
  5
207
330
1F
100
AcDbEntity
  8
0
  6
Continuous
 62
     7
370
    15
100
AcDbLine
 10
602.21612125
 20
301.6103027461
 30
0.0
 11
601.2161229487
 21
301.6103027461
 31
0.0
  0
LINE
  5
208
330
1F
100
AcDbEntity
  8
0
  6
Continuous
 62
     7
370
    15
100
AcDbLine
 10
601.2161229487
 20
301.6103027461
 30
0.0
 11
601.2161229487
 21
300.0886789362
 31
0.0
  0
ARC
  5
209
330
1F
100
AcDbEntity
  8
0
  6
Continuous
 62
     7
370
    15
100
AcDbCircle
 10
601.7161229189
 20
298.152187241
 30
0.0
 40
2.000000000000049
100
AcDbArc
 50
104.4775121859
 51
165.5224878141
  0
LINE
  5
20A
330
1F
100
AcDbEntity
  8
0
  6
Continuous
 62
     7
370
    15
100
AcDbLine
 10
599.7796323832
 20
298.6521872647
 30
0.0
 11
598.2580077585
 21
298.6521872647
 31
0.0
  0
LINE
  5
20B
330
1F
100
AcDbEntity
  8
0
  6
Continuous
 62
     7
370
    15
100
AcDbLine
 10
598.2580077585
 20
298.6521872647
 30
0.0
 11
598.2580077585
 21
297.6521872172
 31
0.0
  0
LINE
  5
20C
330
1F
100
AcDbEntity
  8
0
  6
Continuous
 62
     7
370
    15
100
AcDbLine
 10
598.2580077585
 20
297.6521872172
 30
0.0
 11
599.7796323832
 21
297.6521872172
 31
0.0
  0
ARC
  5
20D
330
1F
100
AcDbEntity
  8
0
  6
Continuous
 62
     7
370
    15
100
AcDbCircle
 10
601.7161229189
 20
298.152187241
 30
0.0
 40
2.000000000000077
100
AcDbArc
 50
194.4775121859
 51
255.5224878141
  0
LINE
  5
20E
330
1F
100
AcDbEntity
  8
0
  6
Continuous
 62
     7
370
    15
100
AcDbLine
 10
601.2161229487
 20
296.2156955458
 30
0.0
 11
601.2161229487
 21
294.6940717359
 31
0.0
  0
LINE
  5
20F
330
1F
100
AcDbEntity
  8
0
  6
Continuous
 62
     7
370
    15
100
AcDbLine
 10
601.2161229487
 20
294.6940717359
 30
0.0
 11
602.21612125
 21
294.6940717359
 31
0.0
  0
LINE
  5
210
330
1F
100
AcDbEntity
  8
0
  6
Continuous
 62
     7
370
    15
100
AcDbLine
 10
602.21612125
 20
294.6940717359
 30
0.0
 11
602.21612125
 21
296.2156955458
 31
0.0
  0
ARC
  5
211
330
1F
100
AcDbEntity
  8
0
  6
Continuous
 62
     7
370
    15
100
AcDbCircle
 10
601.7161229189
 20
298.152187241
 30
0.0
 40
1.99999999999998
100
AcDbArc
 50
284.4775121859
 51
345.5224878141
  0
LINE
  5
212
330
1F
100
AcDbEntity
  8
0
  6
Continuous
 62
     7
370
    15
100
AcDbLine
 10
603.6526155408
 20
297.6521872172
 30
0.0
 11
605.1742401656
 21
297.6521872172
 31
0.0
  0
LINE
  5
213
330
1F
100
AcDbEntity
  8
0
  6
Continuous
 62
     7
370
    15
100
AcDbLine
 10
605.1742401656
 20
297.6521872172
 30
0.0
 11
605.1742401656
 21
298.6521872647
 31
0.0
  0
LINE
  5
214
330
1F
100
AcDbEntity
  8
0
  6
Continuous
 62
     7
370
    15
100
AcDbLine
 10
605.1742401656
 20
298.6521872647
 30
0.0
 11
603.6526155408
 21
298.6521872647
 31
0.0
  0
ARC
  5
215
330
1F
100
AcDbEntity
  8
0
  6
Continuous
 62
     7
370
    15
100
AcDbCircle
 10
601.7161229189
 20
298.152187241
 30
0.0
 40
1.999999999999925
100
AcDbArc
 50
14.4775121859
 51
75.5224878141
  0
LINE
  5
216
330
1F
100
AcDbEntity
  8
0
  6
Continuous
 62
     7
370
    15
100
AcDbLine
 10
602.21612125
 20
300.0886789362
 30
0.0
 11
602.21612125
 21
301.6103027461
 31
0.0
  0
LINE
  5
217
330
1F
100
AcDbEntity
  8
0
  6
Continuous
 62
     7
370
    15
100
AcDbLine
 10
603.6526155408
 20
298.6521872647
 30
0.0
 11
602.21612125
 21
298.6521872647
 31
0.0
  0
LINE
  5
218
330
1F
100
AcDbEntity
  8
0
  6
Continuous
 62
     7
370
    15
100
AcDbLine
 10
602.21612125
 20
298.6521872647
 30
0.0
 11
602.21612125
 21
300.0886789362
 31
0.0
  0
LINE
  5
219
330
1F
100
AcDbEntity
  8
0
  6
Continuous
 62
     7
370
    15
100
AcDbLine
 10
599.7796323832
 20
297.6521872172
 30
0.0
 11
601.2161229487
 21
297.6521872172
 31
0.0
  0
LINE
  5
21A
330
1F
100
AcDbEntity
  8
0
  6
Continuous
 62
     7
370
    15
100
AcDbLine
 10
601.2161229487
 20
297.6521872172
 30
0.0
 11
601.2161229487
 21
296.2156955458
 31
0.0
  0
LINE
  5
21B
330
1F
100
AcDbEntity
  8
0
  6
Continuous
 62
     7
370
    15
100
AcDbLine
 10
602.21612125
 20
296.2156955458
 30
0.0
 11
602.21612125
 21
297.6521872172
 31
0.0
  0
LINE
  5
21C
330
1F
100
AcDbEntity
  8
0
  6
Continuous
 62
     7
370
    15
100
AcDbLine
 10
602.21612125
 20
297.6521872172
 30
0.0
 11
603.6526155408
 21
297.6521872172
 31
0.0
  0
LINE
  5
21D
330
1F
100
AcDbEntity
  8
0
  6
Continuous
 62
     7
370
    15
100
AcDbLine
 10
601.2161229487
 20
300.0886789362
 30
0.0
 11
601.2161229487
 21
298.6521872647
 31
0.0
  0
LINE
  5
21E
330
1F
100
AcDbEntity
  8
0
  6
Continuous
 62
     7
370
    15
100
AcDbLine
 10
601.2161229487
 20
298.6521872647
 30
0.0
 11
599.7796323832
 21
298.6521872647
 31
0.0
  0
CIRCLE
  5
21F
330
1F
100
AcDbEntity
  8
0
  6
Continuous
 62
     7
370
    15
100
AcDbCircle
 10
486.7161229189
 20
298.152187241
 30
0.0
 40
4.0
  0
LINE
  5
220
330
1F
100
AcDbEntity
  8
0
  6
Continuous
 62
     7
370
    15
100
AcDbLine
 10
487.2161228891
 20
301.6103027461
 30
0.0
 11
486.2161245879
 21
301.6103027461
 31
0.0
  0
LINE
  5
221
330
1F
100
AcDbEntity
  8
0
  6
Continuous
 62
     7
370
    15
100
AcDbLine
 10
486.2161245879
 20
301.6103027461
 30
0.0
 11
486.2161245879
 21
300.0886789362
 31
0.0
  0
ARC
  5
222
330
1F
100
AcDbEntity
  8
0
  6
Continuous
 62
     7
370
    15
100
AcDbCircle
 10
486.7161229189
 20
298.152187241
 30
0.0
 40
2.000000000000063
100
AcDbArc
 50
104.4775121859
 51
165.5224878141
  0
LINE
  5
223
330
1F
100
AcDbEntity
  8
0
  6
Continuous
 62
     7
370
    15
100
AcDbLine
 10
484.779630297
 20
298.6521872647
 30
0.0
 11
483.2580056723
 21
298.6521872647
 31
0.0
  0
LINE
  5
224
330
1F
100
AcDbEntity
  8
0
  6
Continuous
 62
     7
370
    15
100
AcDbLine
 10
483.2580056723
 20
298.6521872647
 30
0.0
 11
483.2580056723
 21
297.6521872172
 31
0.0
  0
LINE
  5
225
330
1F
100
AcDbEntity
  8
0
  6
Continuous
 62
     7
370
    15
100
AcDbLine
 10
483.2580056723
 20
297.6521872172
 30
0.0
 11
484.779630297
 21
297.6521872172
 31
0.0
  0
ARC
  5
226
330
1F
100
AcDbEntity
  8
0
  6
Continuous
 62
     7
370
    15
100
AcDbCircle
 10
486.7161229189
 20
298.152187241
 30
0.0
 40
2.000000000000008
100
AcDbArc
 50
194.4775121859
 51
255.5224878141
  0
LINE
  5
227
330
1F
100
AcDbEntity
  8
0
  6
Continuous
 62
     7
370
    15
100
AcDbLine
 10
486.2161245879
 20
296.2156955458
 30
0.0
 11
486.2161245879
 21
294.6940717359
 31
0.0
  0
LINE
  5
228
330
1F
100
AcDbEntity
  8
0
  6
Continuous
 62
     7
370
    15
100
AcDbLine
 10
486.2161245879
 20
294.6940717359
 30
0.0
 11
487.2161228891
 21
294.6940717359
 31
0.0
  0
LINE
  5
229
330
1F
100
AcDbEntity
  8
0
  6
Continuous
 62
     7
370
    15
100
AcDbLine
 10
487.2161228891
 20
294.6940717359
 30
0.0
 11
487.2161228891
 21
296.2156955458
 31
0.0
  0
ARC
  5
22A
330
1F
100
AcDbEntity
  8
0
  6
Continuous
 62
     7
370
    15
100
AcDbCircle
 10
486.7161229189
 20
298.152187241
 30
0.0
 40
2.000000000000008
100
AcDbArc
 50
284.4775121859
 51
345.5224878141
  0
LINE
  5
22B
330
1F
100
AcDbEntity
  8
0
  6
Continuous
 62
     7
370
    15
100
AcDbLine
 10
488.6526134547
 20
297.6521872172
 30
0.0
 11
490.1742380794
 21
297.6521872172
 31
0.0
  0
LINE
  5
22C
330
1F
100
AcDbEntity
  8
0
  6
Continuous
 62
     7
370
    15
100
AcDbLine
 10
490.1742380794
 20
297.6521872172
 30
0.0
 11
490.1742380794
 21
298.6521872647
 31
0.0
  0
LINE
  5
22D
330
1F
100
AcDbEntity
  8
0
  6
Continuous
 62
     7
370
    15
100
AcDbLine
 10
490.1742380794
 20
298.6521872647
 30
0.0
 11
488.6526134547
 21
298.6521872647
 31
0.0
  0
ARC
  5
22E
330
1F
100
AcDbEntity
  8
0
  6
Continuous
 62
     7
370
    15
100
AcDbCircle
 10
486.7161229189
 20
298.152187241
 30
0.0
 40
2.000000000000063
100
AcDbArc
 50
14.4775121859
 51
75.5224878141
  0
LINE
  5
22F
330
1F
100
AcDbEntity
  8
0
  6
Continuous
 62
     7
370
    15
100
AcDbLine
 10
487.2161228891
 20
300.0886789362
 30
0.0
 11
487.2161228891
 21
301.6103027461
 31
0.0
  0
LINE
  5
230
330
1F
100
AcDbEntity
  8
0
  6
Continuous
 62
     7
370
    15
100
AcDbLine
 10
487.2161228891
 20
296.2156955458
 30
0.0
 11
487.2161228891
 21
297.6521872172
 31
0.0
  0
LINE
  5
231
330
1F
100
AcDbEntity
  8
0
  6
Continuous
 62
     7
370
    15
100
AcDbLine
 10
487.2161228891
 20
297.6521872172
 30
0.0
 11
488.6526134547
 21
297.6521872172
 31
0.0
  0
LINE
  5
232
330
1F
100
AcDbEntity
  8
0
  6
Continuous
 62
     7
370
    15
100
AcDbLine
 10
486.2161245879
 20
300.0886789362
 30
0.0
 11
486.2161245879
 21
298.6521872647
 31
0.0
  0
LINE
  5
233
330
1F
100
AcDbEntity
  8
0
  6
Continuous
 62
     7
370
    15
100
AcDbLine
 10
486.2161245879
 20
298.6521872647
 30
0.0
 11
484.779630297
 21
298.6521872647
 31
0.0
  0
LINE
  5
234
330
1F
100
AcDbEntity
  8
0
  6
Continuous
 62
     7
370
    15
100
AcDbLine
 10
484.779630297
 20
297.6521872172
 30
0.0
 11
486.2161245879
 21
297.6521872172
 31
0.0
  0
LINE
  5
235
330
1F
100
AcDbEntity
  8
0
  6
Continuous
 62
     7
370
    15
100
AcDbLine
 10
486.2161245879
 20
297.6521872172
 30
0.0
 11
486.2161245879
 21
296.2156955458
 31
0.0
  0
LINE
  5
236
330
1F
100
AcDbEntity
  8
0
  6
Continuous
 62
     7
370
    15
100
AcDbLine
 10
488.6526134547
 20
298.6521872647
 30
0.0
 11
487.2161228891
 21
298.6521872647
 31
0.0
  0
LINE
  5
237
330
1F
100
AcDbEntity
  8
0
  6
Continuous
 62
     7
370
    15
100
AcDbLine
 10
487.2161228891
 20
298.6521872647
 30
0.0
 11
487.2161228891
 21
300.0886789362
 31
0.0
  0
CIRCLE
  5
238
330
1F
100
AcDbEntity
  8
0
  6
Continuous
 62
     7
370
    15
100
AcDbCircle
 10
497.4507511146
 20
271.152187241
 30
0.0
 40
4.000000000000114
  0
LINE
  5
239
330
1F
100
AcDbEntity
  8
0
  6
Continuous
 62
     7
370
    15
100
AcDbLine
 10
497.9507517751
 20
274.6103027442
 30
0.0
 11
496.9507497486
 21
274.6103027442
 31
0.0
  0
LINE
  5
23A
330
1F
100
AcDbEntity
  8
0
  6
Continuous
 62
     7
370
    15
100
AcDbLine
 10
496.9507497486
 20
274.6103027442
 30
0.0
 11
496.9507497486
 21
273.0886781195
 31
0.0
  0
ARC
  5
23B
330
1F
100
AcDbEntity
  8
0
  6
Continuous
 62
     7
370
    15
100
AcDbCircle
 10
497.4507511146
 20
271.152187241
 30
0.0
 40
2.000000000000653
100
AcDbArc
 50
104.477512186
 51
165.5224878141
  0
LINE
  5
23C
330
1F
100
AcDbEntity
  8
0
  6
Continuous
 62
     7
370
    15
100
AcDbLine
 10
495.514259183
 20
271.6521875539
 30
0.0
 11
493.9926345583
 21
271.6521875539
 31
0.0
  0
LINE
  5
23D
330
1F
100
AcDbEntity
  8
0
  6
Continuous
 62
     7
370
    15
100
AcDbLine
 10
493.9926345583
 20
271.6521875539
 30
0.0
 11
493.9926345583
 21
270.65218739
 31
0.0
  0
LINE
  5
23E
330
1F
100
AcDbEntity
  8
0
  6
Continuous
 62
     7
370
    15
100
AcDbLine
 10
493.9926345583
 20
270.65218739
 30
0.0
 11
495.514259183
 21
270.65218739
 31
0.0
  0
ARC
  5
23F
330
1F
100
AcDbEntity
  8
0
  6
Continuous
 62
     7
370
    15
100
AcDbCircle
 10
497.4507511146
 20
271.152187241
 30
0.0
 40
2.000000000001084
100
AcDbArc
 50
194.4775121859
 51
255.522487814
  0
LINE
  5
240
330
1F
100
AcDbEntity
  8
0
  6
Continuous
 62
     7
370
    15
100
AcDbLine
 10
496.9507497486
 20
269.2156949618
 30
0.0
 11
496.9507497486
 21
267.6940721997
 31
0.0
  0
LINE
  5
241
330
1F
100
AcDbEntity
  8
0
  6
Continuous
 62
     7
370
    15
100
AcDbLine
 10
496.9507497486
 20
267.6940721997
 30
0.0
 11
497.9507517751
 21
267.6940721997
 31
0.0
  0
LINE
  5
242
330
1F
100
AcDbEntity
  8
0
  6
Continuous
 62
     7
370
    15
100
AcDbLine
 10
497.9507517751
 20
267.6940721997
 30
0.0
 11
497.9507517751
 21
269.2156949618
 31
0.0
  0
ARC
  5
243
330
1F
100
AcDbEntity
  8
0
  6
Continuous
 62
     7
370
    15
100
AcDbCircle
 10
497.4507511146
 20
271.152187241
 30
0.0
 40
2.000000000000395
100
AcDbArc
 50
284.4775121859
 51
345.5224878141
  0
LINE
  5
244
330
1F
100
AcDbEntity
  8
0
  6
Continuous
 62
     7
370
    15
100
AcDbLine
 10
499.3872423407
 20
270.65218739
 30
0.0
 11
500.9088669654
 21
270.65218739
 31
0.0
  0
LINE
  5
245
330
1F
100
AcDbEntity
  8
0
  6
Continuous
 62
     7
370
    15
100
AcDbLine
 10
500.9088669654
 20
270.65218739
 30
0.0
 11
500.9088669654
 21
271.6521875539
 31
0.0
  0
LINE
  5
246
330
1F
100
AcDbEntity
  8
0
  6
Continuous
 62
     7
370
    15
100
AcDbLine
 10
500.9088669654
 20
271.6521875539
 30
0.0
 11
499.3872423407
 21
271.6521875539
 31
0.0
  0
ARC
  5
247
330
1F
100
AcDbEntity
  8
0
  6
Continuous
 62
     7
370
    15
100
AcDbCircle
 10
497.4507511146
 20
271.152187241
 30
0.0
 40
1.999999999999701
100
AcDbArc
 50
14.4775121859
 51
75.5224878141
  0
LINE
  5
248
330
1F
100
AcDbEntity
  8
0
  6
Continuous
 62
     7
370
    15
100
AcDbLine
 10
497.9507517751
 20
273.0886781195
 30
0.0
 11
497.9507517751
 21
274.6103027442
 31
0.0
  0
LINE
  5
249
330
1F
100
AcDbEntity
  8
0
  6
Continuous
 62
     7
370
    15
100
AcDbLine
 10
499.3872423407
 20
271.6521875539
 30
0.0
 11
497.9507517751
 21
271.6521875539
 31
0.0
  0
LINE
  5
24A
330
1F
100
AcDbEntity
  8
0
  6
Continuous
 62
     7
370
    15
100
AcDbLine
 10
497.9507517751
 20
271.6521875539
 30
0.0
 11
497.9507517751
 21
273.0886781195
 31
0.0
  0
LINE
  5
24B
330
1F
100
AcDbEntity
  8
0
  6
Continuous
 62
     7
370
    15
100
AcDbLine
 10
495.514259183
 20
270.65218739
 30
0.0
 11
496.9507497486
 21
270.65218739
 31
0.0
  0
LINE
  5
24C
330
1F
100
AcDbEntity
  8
0
  6
Continuous
 62
     7
370
    15
100
AcDbLine
 10
496.9507497486
 20
270.65218739
 30
0.0
 11
496.9507497486
 21
269.2156949618
 31
0.0
  0
LINE
  5
24D
330
1F
100
AcDbEntity
  8
0
  6
Continuous
 62
     7
370
    15
100
AcDbLine
 10
497.9507517751
 20
269.2156949618
 30
0.0
 11
497.9507517751
 21
270.65218739
 31
0.0
  0
LINE
  5
24E
330
1F
100
AcDbEntity
  8
0
  6
Continuous
 62
     7
370
    15
100
AcDbLine
 10
497.9507517751
 20
270.65218739
 30
0.0
 11
499.3872423407
 21
270.65218739
 31
0.0
  0
LINE
  5
24F
330
1F
100
AcDbEntity
  8
0
  6
Continuous
 62
     7
370
    15
100
AcDbLine
 10
496.9507497486
 20
273.0886781195
 30
0.0
 11
496.9507497486
 21
271.6521875539
 31
0.0
  0
LINE
  5
250
330
1F
100
AcDbEntity
  8
0
  6
Continuous
 62
     7
370
    15
100
AcDbLine
 10
496.9507497486
 20
271.6521875539
 30
0.0
 11
495.514259183
 21
271.6521875539
 31
0.0
  0
CIRCLE
  5
251
330
1F
100
AcDbEntity
  8
0
  6
Continuous
 62
     7
370
    15
100
AcDbCircle
 10
497.4507511146
 20
271.152187241
 30
0.0
 40
4.500000000000114
  0
CIRCLE
  5
252
330
1F
100
AcDbEntity
  8
0
  6
Continuous
 62
     7
370
    15
100
AcDbCircle
 10
497.4507511146
 20
325.152187241
 30
0.0
 40
4.000000000000114
  0
LINE
  5
253
330
1F
100
AcDbEntity
  8
0
  6
Continuous
 62
     7
370
    15
100
AcDbLine
 10
497.9507517751
 20
328.6103022823
 30
0.0
 11
496.9507497486
 21
328.6103022823
 31
0.0
  0
LINE
  5
254
330
1F
100
AcDbEntity
  8
0
  6
Continuous
 62
     7
370
    15
100
AcDbLine
 10
496.9507497486
 20
328.6103022823
 30
0.0
 11
496.9507497486
 21
327.0886795202
 31
0.0
  0
ARC
  5
255
330
1F
100
AcDbEntity
  8
0
  6
Continuous
 62
     7
370
    15
100
AcDbCircle
 10
497.4507511146
 20
325.152187241
 30
0.0
 40
2.000000000000667
100
AcDbArc
 50
104.4775121859
 51
165.5224878141
  0
LINE
  5
256
330
1F
100
AcDbEntity
  8
0
  6
Continuous
 62
     7
370
    15
100
AcDbLine
 10
495.514259183
 20
325.652187092
 30
0.0
 11
493.9926345583
 21
325.652187092
 31
0.0
  0
LINE
  5
257
330
1F
100
AcDbEntity
  8
0
  6
Continuous
 62
     7
370
    15
100
AcDbLine
 10
493.9926345583
 20
325.652187092
 30
0.0
 11
493.9926345583
 21
324.6521869281
 31
0.0
  0
LINE
  5
258
330
1F
100
AcDbEntity
  8
0
  6
Continuous
 62
     7
370
    15
100
AcDbLine
 10
493.9926345583
 20
324.6521869281
 30
0.0
 11
495.514259183
 21
324.6521869281
 31
0.0
  0
ARC
  5
259
330
1F
100
AcDbEntity
  8
0
  6
Continuous
 62
     7
370
    15
100
AcDbCircle
 10
497.4507511146
 20
325.152187241
 30
0.0
 40
2.000000000001015
100
AcDbArc
 50
194.4775121859
 51
255.522487814
  0
LINE
  5
25A
330
1F
100
AcDbEntity
  8
0
  6
Continuous
 62
     7
370
    15
100
AcDbLine
 10
496.9507497486
 20
323.2156963625
 30
0.0
 11
496.9507497486
 21
321.6940717378
 31
0.0
  0
LINE
  5
25B
330
1F
100
AcDbEntity
  8
0
  6
Continuous
 62
     7
370
    15
100
AcDbLine
 10
496.9507497486
 20
321.6940717378
 30
0.0
 11
497.9507517751
 21
321.6940717378
 31
0.0
  0
LINE
  5
25C
330
1F
100
AcDbEntity
  8
0
  6
Continuous
 62
     7
370
    15
100
AcDbLine
 10
497.9507517751
 20
321.6940717378
 30
0.0
 11
497.9507517751
 21
323.2156963625
 31
0.0
  0
ARC
  5
25D
330
1F
100
AcDbEntity
  8
0
  6
Continuous
 62
     7
370
    15
100
AcDbCircle
 10
497.4507511146
 20
325.152187241
 30
0.0
 40
2.000000000000395
100
AcDbArc
 50
284.4775121859
 51
345.5224878141
  0
LINE
  5
25E
330
1F
100
AcDbEntity
  8
0
  6
Continuous
 62
     7
370
    15
100
AcDbLine
 10
499.3872423407
 20
324.6521869281
 30
0.0
 11
500.9088669654
 21
324.6521869281
 31
0.0
  0
LINE
  5
25F
330
1F
100
AcDbEntity
  8
0
  6
Continuous
 62
     7
370
    15
100
AcDbLine
 10
500.9088669654
 20
324.6521869281
 30
0.0
 11
500.9088669654
 21
325.652187092
 31
0.0
  0
LINE
  5
260
330
1F
100
AcDbEntity
  8
0
  6
Continuous
 62
     7
370
    15
100
AcDbLine
 10
500.9088669654
 20
325.652187092
 30
0.0
 11
499.3872423407
 21
325.652187092
 31
0.0
  0
ARC
  5
261
330
1F
100
AcDbEntity
  8
0
  6
Continuous
 62
     7
370
    15
100
AcDbCircle
 10
497.4507511146
 20
325.152187241
 30
0.0
 40
1.999999999999715
100
AcDbArc
 50
14.4775121859
 51
75.5224878141
  0
LINE
  5
262
330
1F
100
AcDbEntity
  8
0
  6
Continuous
 62
     7
370
    15
100
AcDbLine
 10
497.9507517751
 20
327.0886795202
 30
0.0
 11
497.9507517751
 21
328.6103022823
 31
0.0
  0
LINE
  5
263
330
1F
100
AcDbEntity
  8
0
  6
Continuous
 62
     7
370
    15
100
AcDbLine
 10
497.9507517751
 20
323.2156963625
 30
0.0
 11
497.9507517751
 21
324.6521869281
 31
0.0
  0
LINE
  5
264
330
1F
100
AcDbEntity
  8
0
  6
Continuous
 62
     7
370
    15
100
AcDbLine
 10
497.9507517751
 20
324.6521869281
 30
0.0
 11
499.3872423407
 21
324.6521869281
 31
0.0
  0
LINE
  5
265
330
1F
100
AcDbEntity
  8
0
  6
Continuous
 62
     7
370
    15
100
AcDbLine
 10
496.9507497486
 20
327.0886795202
 30
0.0
 11
496.9507497486
 21
325.652187092
 31
0.0
  0
LINE
  5
266
330
1F
100
AcDbEntity
  8
0
  6
Continuous
 62
     7
370
    15
100
AcDbLine
 10
496.9507497486
 20
325.652187092
 30
0.0
 11
495.514259183
 21
325.652187092
 31
0.0
  0
LINE
  5
267
330
1F
100
AcDbEntity
  8
0
  6
Continuous
 62
     7
370
    15
100
AcDbLine
 10
495.514259183
 20
324.6521869281
 30
0.0
 11
496.9507497486
 21
324.6521869281
 31
0.0
  0
LINE
  5
268
330
1F
100
AcDbEntity
  8
0
  6
Continuous
 62
     7
370
    15
100
AcDbLine
 10
496.9507497486
 20
324.6521869281
 30
0.0
 11
496.9507497486
 21
323.2156963625
 31
0.0
  0
LINE
  5
269
330
1F
100
AcDbEntity
  8
0
  6
Continuous
 62
     7
370
    15
100
AcDbLine
 10
499.3872423407
 20
325.652187092
 30
0.0
 11
497.9507517751
 21
325.652187092
 31
0.0
  0
LINE
  5
26A
330
1F
100
AcDbEntity
  8
0
  6
Continuous
 62
     7
370
    15
100
AcDbLine
 10
497.9507517751
 20
325.652187092
 30
0.0
 11
497.9507517751
 21
327.0886795202
 31
0.0
  0
CIRCLE
  5
26B
330
1F
100
AcDbEntity
  8
0
  6
Continuous
 62
     7
370
    15
100
AcDbCircle
 10
497.4507511146
 20
325.152187241
 30
0.0
 40
4.500000000000114
  0
CIRCLE
  5
26C
330
1F
100
AcDbEntity
  8
0
  6
Continuous
 62
     7
370
    15
100
AcDbCircle
 10
590.9814947233
 20
325.152187241
 30
0.0
 40
4.000000000000114
  0
LINE
  5
26D
330
1F
100
AcDbEntity
  8
0
  6
Continuous
 62
     7
370
    15
100
AcDbLine
 10
591.4814960893
 20
328.6103022823
 30
0.0
 11
590.4814940627
 21
328.6103022823
 31
0.0
  0
LINE
  5
26E
330
1F
100
AcDbEntity
  8
0
  6
Continuous
 62
     7
370
    15
100
AcDbLine
 10
590.4814940627
 20
328.6103022823
 30
0.0
 11
590.4814940627
 21
327.0886795202
 31
0.0
  0
ARC
  5
26F
330
1F
100
AcDbEntity
  8
0
  6
Continuous
 62
     7
370
    15
100
AcDbCircle
 10
590.9814947233
 20
325.152187241
 30
0.0
 40
2.000000000000667
100
AcDbArc
 50
104.4775121859
 51
165.5224878141
  0
LINE
  5
270
330
1F
100
AcDbEntity
  8
0
  6
Continuous
 62
     7
370
    15
100
AcDbLine
 10
587.5233788725
 20
325.652187092
 30
0.0
 11
587.5233788725
 21
324.6521869281
 31
0.0
  0
LINE
  5
271
330
1F
100
AcDbEntity
  8
0
  6
Continuous
 62
     7
370
    15
100
AcDbLine
 10
587.5233788725
 20
324.6521869281
 30
0.0
 11
589.0450034972
 21
324.6521869281
 31
0.0
  0
ARC
  5
272
330
1F
100
AcDbEntity
  8
0
  6
Continuous
 62
     7
370
    15
100
AcDbCircle
 10
590.9814947233
 20
325.152187241
 30
0.0
 40
2.000000000001125
100
AcDbArc
 50
194.4775121859
 51
255.522487814
  0
LINE
  5
273
330
1F
100
AcDbEntity
  8
0
  6
Continuous
 62
     7
370
    15
100
AcDbLine
 10
590.4814940627
 20
323.2156963625
 30
0.0
 11
590.4814940627
 21
321.6940717378
 31
0.0
  0
LINE
  5
274
330
1F
100
AcDbEntity
  8
0
  6
Continuous
 62
     7
370
    15
100
AcDbLine
 10
590.4814940627
 20
321.6940717378
 30
0.0
 11
591.4814960893
 21
321.6940717378
 31
0.0
  0
LINE
  5
275
330
1F
100
AcDbEntity
  8
0
  6
Continuous
 62
     7
370
    15
100
AcDbLine
 10
591.4814960893
 20
321.6940717378
 30
0.0
 11
591.4814960893
 21
323.2156963625
 31
0.0
  0
ARC
  5
276
330
1F
100
AcDbEntity
  8
0
  6
Continuous
 62
     7
370
    15
100
AcDbCircle
 10
590.9814947233
 20
325.152187241
 30
0.0
 40
2.00000000000034
100
AcDbArc
 50
284.4775121859
 51
345.5224878141
  0
LINE
  5
277
330
1F
100
AcDbEntity
  8
0
  6
Continuous
 62
     7
370
    15
100
AcDbLine
 10
592.9179866548
 20
324.6521869281
 30
0.0
 11
594.4396112796
 21
324.6521869281
 31
0.0
  0
LINE
  5
278
330
1F
100
AcDbEntity
  8
0
  6
Continuous
 62
     7
370
    15
100
AcDbLine
 10
594.4396112796
 20
324.6521869281
 30
0.0
 11
594.4396112796
 21
325.652187092
 31
0.0
  0
LINE
  5
279
330
1F
100
AcDbEntity
  8
0
  6
Continuous
 62
     7
370
    15
100
AcDbLine
 10
594.4396112796
 20
325.652187092
 30
0.0
 11
592.9179866548
 21
325.652187092
 31
0.0
  0
ARC
  5
27A
330
1F
100
AcDbEntity
  8
0
  6
Continuous
 62
     7
370
    15
100
AcDbCircle
 10
590.9814947233
 20
325.152187241
 30
0.0
 40
1.999999999999701
100
AcDbArc
 50
14.4775121859
 51
75.5224878141
  0
LINE
  5
27B
330
1F
100
AcDbEntity
  8
0
  6
Continuous
 62
     7
370
    15
100
AcDbLine
 10
591.4814960893
 20
327.0886795202
 30
0.0
 11
591.4814960893
 21
328.6103022823
 31
0.0
  0
LINE
  5
27C
330
1F
100
AcDbEntity
  8
0
  6
Continuous
 62
     7
370
    15
100
AcDbLine
 10
589.0450034972
 20
325.652187092
 30
0.0
 11
587.5233788725
 21
325.652187092
 31
0.0
  0
LINE
  5
27D
330
1F
100
AcDbEntity
  8
0
  6
Continuous
 62
     7
370
    15
100
AcDbLine
 10
589.0450034972
 20
324.6521869281
 30
0.0
 11
590.4814940627
 21
324.6521869281
 31
0.0
  0
LINE
  5
27E
330
1F
100
AcDbEntity
  8
0
  6
Continuous
 62
     7
370
    15
100
AcDbLine
 10
590.4814940627
 20
324.6521869281
 30
0.0
 11
590.4814940627
 21
323.2156963625
 31
0.0
  0
LINE
  5
27F
330
1F
100
AcDbEntity
  8
0
  6
Continuous
 62
     7
370
    15
100
AcDbLine
 10
592.9179866548
 20
325.652187092
 30
0.0
 11
591.4814960893
 21
325.652187092
 31
0.0
  0
LINE
  5
280
330
1F
100
AcDbEntity
  8
0
  6
Continuous
 62
     7
370
    15
100
AcDbLine
 10
591.4814960893
 20
325.652187092
 30
0.0
 11
591.4814960893
 21
327.0886795202
 31
0.0
  0
LINE
  5
281
330
1F
100
AcDbEntity
  8
0
  6
Continuous
 62
     7
370
    15
100
AcDbLine
 10
590.4814940627
 20
327.0886795202
 30
0.0
 11
590.4814940627
 21
325.652187092
 31
0.0
  0
LINE
  5
282
330
1F
100
AcDbEntity
  8
0
  6
Continuous
 62
     7
370
    15
100
AcDbLine
 10
590.4814940627
 20
325.652187092
 30
0.0
 11
589.0450034972
 21
325.652187092
 31
0.0
  0
LINE
  5
283
330
1F
100
AcDbEntity
  8
0
  6
Continuous
 62
     7
370
    15
100
AcDbLine
 10
591.4814960893
 20
323.2156963625
 30
0.0
 11
591.4814960893
 21
324.6521869281
 31
0.0
  0
LINE
  5
284
330
1F
100
AcDbEntity
  8
0
  6
Continuous
 62
     7
370
    15
100
AcDbLine
 10
591.4814960893
 20
324.6521869281
 30
0.0
 11
592.9179866548
 21
324.6521869281
 31
0.0
  0
CIRCLE
  5
285
330
1F
100
AcDbEntity
  8
0
  6
Continuous
 62
     7
370
    15
100
AcDbCircle
 10
590.9814947233
 20
325.152187241
 30
0.0
 40
4.500000000000114
  0
CIRCLE
  5
286
330
1F
100
AcDbEntity
  8
0
  6
Continuous
 62
     7
370
    15
100
AcDbCircle
 10
544.2161229189
 20
352.152187241
 30
0.0
 40
4.000000000000114
  0
LINE
  5
287
330
1F
100
AcDbEntity
  8
0
  6
Continuous
 62
     7
370
    15
100
AcDbLine
 10
544.7161229427
 20
355.61030112
 30
0.0
 11
543.7161228952
 21
355.61030112
 31
0.0
  0
LINE
  5
288
330
1F
100
AcDbEntity
  8
0
  6
Continuous
 62
     7
370
    15
100
AcDbLine
 10
543.7161228952
 20
355.61030112
 30
0.0
 11
543.7161228952
 21
354.0886802205
 31
0.0
  0
ARC
  5
289
330
1F
100
AcDbEntity
  8
0
  6
Continuous
 62
     7
370
    15
100
AcDbCircle
 10
544.2161229189
 20
352.152187241
 30
0.0
 40
2.000000000000667
100
AcDbArc
 50
104.4775121859
 51
165.5224878141
  0
LINE
  5
28A
330
1F
100
AcDbEntity
  8
0
  6
Continuous
 62
     7
370
    15
100
AcDbLine
 10
542.2796312237
 20
352.6521859297
 30
0.0
 11
540.7580074139
 21
352.6521859297
 31
0.0
  0
LINE
  5
28B
330
1F
100
AcDbEntity
  8
0
  6
Continuous
 62
     7
370
    15
100
AcDbLine
 10
540.7580074139
 20
352.6521859297
 30
0.0
 11
540.7580074139
 21
351.6521876284
 31
0.0
  0
LINE
  5
28C
330
1F
100
AcDbEntity
  8
0
  6
Continuous
 62
     7
370
    15
100
AcDbLine
 10
540.7580074139
 20
351.6521876284
 30
0.0
 11
542.2796312237
 21
351.6521876284
 31
0.0
  0
ARC
  5
28D
330
1F
100
AcDbEntity
  8
0
  6
Continuous
 62
     7
370
    15
100
AcDbCircle
 10
544.2161229189
 20
352.152187241
 30
0.0
 40
2.000000000001125
100
AcDbArc
 50
194.4775121859
 51
255.522487814
  0
LINE
  5
28E
330
1F
100
AcDbEntity
  8
0
  6
Continuous
 62
     7
370
    15
100
AcDbLine
 10
543.7161228952
 20
350.2156970629
 30
0.0
 11
543.7161228952
 21
348.6940724382
 31
0.0
  0
LINE
  5
28F
330
1F
100
AcDbEntity
  8
0
  6
Continuous
 62
     7
370
    15
100
AcDbLine
 10
543.7161228952
 20
348.6940724382
 30
0.0
 11
544.7161229427
 21
348.6940724382
 31
0.0
  0
LINE
  5
290
330
1F
100
AcDbEntity
  8
0
  6
Continuous
 62
     7
370
    15
100
AcDbLine
 10
544.7161229427
 20
348.6940724382
 30
0.0
 11
544.7161229427
 21
350.2156970629
 31
0.0
  0
ARC
  5
291
330
1F
100
AcDbEntity
  8
0
  6
Continuous
 62
     7
370
    15
100
AcDbCircle
 10
544.2161229189
 20
352.152187241
 30
0.0
 40
2.00000000000034
100
AcDbArc
 50
284.4775121859
 51
345.5224878141
  0
LINE
  5
292
330
1F
100
AcDbEntity
  8
0
  6
Continuous
 62
     7
370
    15
100
AcDbLine
 10
546.1526146142
 20
351.6521876284
 30
0.0
 11
547.674238424
 21
351.6521876284
 31
0.0
  0
LINE
  5
293
330
1F
100
AcDbEntity
  8
0
  6
Continuous
 62
     7
370
    15
100
AcDbLine
 10
547.674238424
 20
351.6521876284
 30
0.0
 11
547.674238424
 21
352.6521859297
 31
0.0
  0
LINE
  5
294
330
1F
100
AcDbEntity
  8
0
  6
Continuous
 62
     7
370
    15
100
AcDbLine
 10
547.674238424
 20
352.6521859297
 30
0.0
 11
546.1526146142
 21
352.6521859297
 31
0.0
  0
ARC
  5
295
330
1F
100
AcDbEntity
  8
0
  6
Continuous
 62
     7
370
    15
100
AcDbCircle
 10
544.2161229189
 20
352.152187241
 30
0.0
 40
1.999999999999701
100
AcDbArc
 50
14.4775121859
 51
75.5224878141
  0
LINE
  5
296
330
1F
100
AcDbEntity
  8
0
  6
Continuous
 62
     7
370
    15
100
AcDbLine
 10
544.7161229427
 20
354.0886802205
 30
0.0
 11
544.7161229427
 21
355.61030112
 31
0.0
  0
LINE
  5
297
330
1F
100
AcDbEntity
  8
0
  6
Continuous
 62
     7
370
    15
100
AcDbLine
 10
542.2796312237
 20
351.6521876284
 30
0.0
 11
543.7161228952
 21
351.6521876284
 31
0.0
  0
LINE
  5
298
330
1F
100
AcDbEntity
  8
0
  6
Continuous
 62
     7
370
    15
100
AcDbLine
 10
543.7161228952
 20
351.6521876284
 30
0.0
 11
543.7161228952
 21
350.2156970629
 31
0.0
  0
LINE
  5
299
330
1F
100
AcDbEntity
  8
0
  6
Continuous
 62
     7
370
    15
100
AcDbLine
 10
544.7161229427
 20
350.2156970629
 30
0.0
 11
544.7161229427
 21
351.6521876284
 31
0.0
  0
LINE
  5
29A
330
1F
100
AcDbEntity
  8
0
  6
Continuous
 62
     7
370
    15
100
AcDbLine
 10
544.7161229427
 20
351.6521876284
 30
0.0
 11
546.1526146142
 21
351.6521876284
 31
0.0
  0
LINE
  5
29B
330
1F
100
AcDbEntity
  8
0
  6
Continuous
 62
     7
370
    15
100
AcDbLine
 10
543.7161228952
 20
354.0886802205
 30
0.0
 11
543.7161228952
 21
352.6521859297
 31
0.0
  0
LINE
  5
29C
330
1F
100
AcDbEntity
  8
0
  6
Continuous
 62
     7
370
    15
100
AcDbLine
 10
543.7161228952
 20
352.6521859297
 30
0.0
 11
542.2796312237
 21
352.6521859297
 31
0.0
  0
LINE
  5
29D
330
1F
100
AcDbEntity
  8
0
  6
Continuous
 62
     7
370
    15
100
AcDbLine
 10
546.1526146142
 20
352.6521859297
 30
0.0
 11
544.7161229427
 21
352.6521859297
 31
0.0
  0
LINE
  5
29E
330
1F
100
AcDbEntity
  8
0
  6
Continuous
 62
     7
370
    15
100
AcDbLine
 10
544.7161229427
 20
352.6521859297
 30
0.0
 11
544.7161229427
 21
354.0886802205
 31
0.0
  0
CIRCLE
  5
29F
330
1F
100
AcDbEntity
  8
0
  6
Continuous
 62
     7
370
    15
100
AcDbCircle
 10
544.2161229189
 20
352.152187241
 30
0.0
 40
4.500000000000171
  0
CIRCLE
  5
2A0
330
1F
100
AcDbEntity
  8
0
  6
Continuous
 62
     7
370
    15
100
AcDbCircle
 10
544.2161229189
 20
244.152187241
 30
0.0
 40
4.000000000000114
  0
LINE
  5
2A1
330
1F
100
AcDbEntity
  8
0
  6
Continuous
 62
     7
370
    15
100
AcDbLine
 10
544.7161229427
 20
247.6103020438
 30
0.0
 11
543.7161228952
 21
247.6103020438
 31
0.0
  0
LINE
  5
2A2
330
1F
100
AcDbEntity
  8
0
  6
Continuous
 62
     7
370
    15
100
AcDbLine
 10
543.7161228952
 20
247.6103020438
 30
0.0
 11
543.7161228952
 21
246.0886774191
 31
0.0
  0
ARC
  5
2A3
330
1F
100
AcDbEntity
  8
0
  6
Continuous
 62
     7
370
    15
100
AcDbCircle
 10
544.2161229189
 20
244.152187241
 30
0.0
 40
2.00000000000055
100
AcDbArc
 50
104.4775121859
 51
165.5224878141
  0
LINE
  5
2A4
330
1F
100
AcDbEntity
  8
0
  6
Continuous
 62
     7
370
    15
100
AcDbLine
 10
542.2796312237
 20
244.6521868536
 30
0.0
 11
540.7580074139
 21
244.6521868536
 31
0.0
  0
LINE
  5
2A5
330
1F
100
AcDbEntity
  8
0
  6
Continuous
 62
     7
370
    15
100
AcDbLine
 10
540.7580074139
 20
244.6521868536
 30
0.0
 11
540.7580074139
 21
243.6521885523
 31
0.0
  0
LINE
  5
2A6
330
1F
100
AcDbEntity
  8
0
  6
Continuous
 62
     7
370
    15
100
AcDbLine
 10
540.7580074139
 20
243.6521885523
 30
0.0
 11
542.2796312237
 21
243.6521885523
 31
0.0
  0
ARC
  5
2A7
330
1F
100
AcDbEntity
  8
0
  6
Continuous
 62
     7
370
    15
100
AcDbCircle
 10
544.2161229189
 20
244.152187241
 30
0.0
 40
2.000000000001022
100
AcDbArc
 50
194.4775121859
 51
255.522487814
  0
LINE
  5
2A8
330
1F
100
AcDbEntity
  8
0
  6
Continuous
 62
     7
370
    15
100
AcDbLine
 10
543.7161228952
 20
242.2156942615
 30
0.0
 11
543.7161228952
 21
240.694073362
 31
0.0
  0
LINE
  5
2A9
330
1F
100
AcDbEntity
  8
0
  6
Continuous
 62
     7
370
    15
100
AcDbLine
 10
543.7161228952
 20
240.694073362
 30
0.0
 11
544.7161229427
 21
240.694073362
 31
0.0
  0
LINE
  5
2AA
330
1F
100
AcDbEntity
  8
0
  6
Continuous
 62
     7
370
    15
100
AcDbLine
 10
544.7161229427
 20
240.694073362
 30
0.0
 11
544.7161229427
 21
242.2156942615
 31
0.0
  0
ARC
  5
2AB
330
1F
100
AcDbEntity
  8
0
  6
Continuous
 62
     7
370
    15
100
AcDbCircle
 10
544.2161229189
 20
244.152187241
 30
0.0
 40
2.000000000000457
100
AcDbArc
 50
284.4775121859
 51
345.5224878141
  0
LINE
  5
2AC
330
1F
100
AcDbEntity
  8
0
  6
Continuous
 62
     7
370
    15
100
AcDbLine
 10
546.1526146142
 20
243.6521885523
 30
0.0
 11
547.674238424
 21
243.6521885523
 31
0.0
  0
LINE
  5
2AD
330
1F
100
AcDbEntity
  8
0
  6
Continuous
 62
     7
370
    15
100
AcDbLine
 10
547.674238424
 20
243.6521885523
 30
0.0
 11
547.674238424
 21
244.6521868536
 31
0.0
  0
LINE
  5
2AE
330
1F
100
AcDbEntity
  8
0
  6
Continuous
 62
     7
370
    15
100
AcDbLine
 10
547.674238424
 20
244.6521868536
 30
0.0
 11
546.1526146142
 21
244.6521868536
 31
0.0
  0
ARC
  5
2AF
330
1F
100
AcDbEntity
  8
0
  6
Continuous
 62
     7
370
    15
100
AcDbCircle
 10
544.2161229189
 20
244.152187241
 30
0.0
 40
1.999999999999729
100
AcDbArc
 50
14.4775121859
 51
75.5224878141
  0
LINE
  5
2B0
330
1F
100
AcDbEntity
  8
0
  6
Continuous
 62
     7
370
    15
100
AcDbLine
 10
544.7161229427
 20
246.0886774191
 30
0.0
 11
544.7161229427
 21
247.6103020438
 31
0.0
  0
LINE
  5
2B1
330
1F
100
AcDbEntity
  8
0
  6
Continuous
 62
     7
370
    15
100
AcDbLine
 10
546.1526146142
 20
244.6521868536
 30
0.0
 11
544.7161229427
 21
244.6521868536
 31
0.0
  0
LINE
  5
2B2
330
1F
100
AcDbEntity
  8
0
  6
Continuous
 62
     7
370
    15
100
AcDbLine
 10
544.7161229427
 20
244.6521868536
 30
0.0
 11
544.7161229427
 21
246.0886774191
 31
0.0
  0
LINE
  5
2B3
330
1F
100
AcDbEntity
  8
0
  6
Continuous
 62
     7
370
    15
100
AcDbLine
 10
543.7161228952
 20
246.0886774191
 30
0.0
 11
543.7161228952
 21
244.6521868536
 31
0.0
  0
LINE
  5
2B4
330
1F
100
AcDbEntity
  8
0
  6
Continuous
 62
     7
370
    15
100
AcDbLine
 10
543.7161228952
 20
244.6521868536
 30
0.0
 11
542.2796312237
 21
244.6521868536
 31
0.0
  0
LINE
  5
2B5
330
1F
100
AcDbEntity
  8
0
  6
Continuous
 62
     7
370
    15
100
AcDbLine
 10
544.7161229427
 20
242.2156942615
 30
0.0
 11
544.7161229427
 21
243.6521885523
 31
0.0
  0
LINE
  5
2B6
330
1F
100
AcDbEntity
  8
0
  6
Continuous
 62
     7
370
    15
100
AcDbLine
 10
544.7161229427
 20
243.6521885523
 30
0.0
 11
546.1526146142
 21
243.6521885523
 31
0.0
  0
LINE
  5
2B7
330
1F
100
AcDbEntity
  8
0
  6
Continuous
 62
     7
370
    15
100
AcDbLine
 10
542.2796312237
 20
243.6521885523
 30
0.0
 11
543.7161228952
 21
243.6521885523
 31
0.0
  0
LINE
  5
2B8
330
1F
100
AcDbEntity
  8
0
  6
Continuous
 62
     7
370
    15
100
AcDbLine
 10
543.7161228952
 20
243.6521885523
 30
0.0
 11
543.7161228952
 21
242.2156942615
 31
0.0
  0
CIRCLE
  5
2B9
330
1F
100
AcDbEntity
  8
0
  6
Continuous
 62
     7
370
    15
100
AcDbCircle
 10
544.2161229189
 20
244.152187241
 30
0.0
 40
4.500000000000142
  0
CIRCLE
  5
2BA
330
1F
100
AcDbEntity
  8
0
  6
Continuous
 62
     7
370
    15
100
AcDbCircle
 10
590.9814947233
 20
271.152187241
 30
0.0
 40
4.000000000000114
  0
LINE
  5
2BB
330
1F
100
AcDbEntity
  8
0
  6
Continuous
 62
     7
370
    15
100
AcDbLine
 10
591.4814960893
 20
274.6103027442
 30
0.0
 11
590.4814940627
 21
274.6103027442
 31
0.0
  0
LINE
  5
2BC
330
1F
100
AcDbEntity
  8
0
  6
Continuous
 62
     7
370
    15
100
AcDbLine
 10
590.4814940627
 20
274.6103027442
 30
0.0
 11
590.4814940627
 21
273.0886781195
 31
0.0
  0
ARC
  5
2BD
330
1F
100
AcDbEntity
  8
0
  6
Continuous
 62
     7
370
    15
100
AcDbCircle
 10
590.9814947233
 20
271.152187241
 30
0.0
 40
2.000000000000667
100
AcDbArc
 50
104.4775121859
 51
165.5224878141
  0
LINE
  5
2BE
330
1F
100
AcDbEntity
  8
0
  6
Continuous
 62
     7
370
    15
100
AcDbLine
 10
587.5233788725
 20
271.6521875539
 30
0.0
 11
587.5233788725
 21
270.65218739
 31
0.0
  0
LINE
  5
2BF
330
1F
100
AcDbEntity
  8
0
  6
Continuous
 62
     7
370
    15
100
AcDbLine
 10
587.5233788725
 20
270.65218739
 30
0.0
 11
589.0450034972
 21
270.65218739
 31
0.0
  0
ARC
  5
2C0
330
1F
100
AcDbEntity
  8
0
  6
Continuous
 62
     7
370
    15
100
AcDbCircle
 10
590.9814947233
 20
271.152187241
 30
0.0
 40
2.000000000001125
100
AcDbArc
 50
194.4775121859
 51
255.522487814
  0
LINE
  5
2C1
330
1F
100
AcDbEntity
  8
0
  6
Continuous
 62
     7
370
    15
100
AcDbLine
 10
590.4814940627
 20
269.2156949618
 30
0.0
 11
590.4814940627
 21
267.6940721997
 31
0.0
  0
LINE
  5
2C2
330
1F
100
AcDbEntity
  8
0
  6
Continuous
 62
     7
370
    15
100
AcDbLine
 10
590.4814940627
 20
267.6940721997
 30
0.0
 11
591.4814960893
 21
267.6940721997
 31
0.0
  0
LINE
  5
2C3
330
1F
100
AcDbEntity
  8
0
  6
Continuous
 62
     7
370
    15
100
AcDbLine
 10
591.4814960893
 20
267.6940721997
 30
0.0
 11
591.4814960893
 21
269.2156949618
 31
0.0
  0
ARC
  5
2C4
330
1F
100
AcDbEntity
  8
0
  6
Continuous
 62
     7
370
    15
100
AcDbCircle
 10
590.9814947233
 20
271.152187241
 30
0.0
 40
2.00000000000034
100
AcDbArc
 50
284.4775121859
 51
345.5224878141
  0
LINE
  5
2C5
330
1F
100
AcDbEntity
  8
0
  6
Continuous
 62
     7
370
    15
100
AcDbLine
 10
592.9179866548
 20
270.65218739
 30
0.0
 11
594.4396112796
 21
270.65218739
 31
0.0
  0
LINE
  5
2C6
330
1F
100
AcDbEntity
  8
0
  6
Continuous
 62
     7
370
    15
100
AcDbLine
 10
594.4396112796
 20
270.65218739
 30
0.0
 11
594.4396112796
 21
271.6521875539
 31
0.0
  0
LINE
  5
2C7
330
1F
100
AcDbEntity
  8
0
  6
Continuous
 62
     7
370
    15
100
AcDbLine
 10
594.4396112796
 20
271.6521875539
 30
0.0
 11
592.9179866548
 21
271.6521875539
 31
0.0
  0
ARC
  5
2C8
330
1F
100
AcDbEntity
  8
0
  6
Continuous
 62
     7
370
    15
100
AcDbCircle
 10
590.9814947233
 20
271.152187241
 30
0.0
 40
1.999999999999701
100
AcDbArc
 50
14.4775121859
 51
75.5224878141
  0
LINE
  5
2C9
330
1F
100
AcDbEntity
  8
0
  6
Continuous
 62
     7
370
    15
100
AcDbLine
 10
591.4814960893
 20
273.0886781195
 30
0.0
 11
591.4814960893
 21
274.6103027442
 31
0.0
  0
LINE
  5
2CA
330
1F
100
AcDbEntity
  8
0
  6
Continuous
 62
     7
370
    15
100
AcDbLine
 10
589.0450034972
 20
271.6521875539
 30
0.0
 11
587.5233788725
 21
271.6521875539
 31
0.0
  0
LINE
  5
2CB
330
1F
100
AcDbEntity
  8
0
  6
Continuous
 62
     7
370
    15
100
AcDbLine
 10
589.0450034972
 20
270.65218739
 30
0.0
 11
590.4814940627
 21
270.65218739
 31
0.0
  0
LINE
  5
2CC
330
1F
100
AcDbEntity
  8
0
  6
Continuous
 62
     7
370
    15
100
AcDbLine
 10
590.4814940627
 20
270.65218739
 30
0.0
 11
590.4814940627
 21
269.2156949618
 31
0.0
  0
LINE
  5
2CD
330
1F
100
AcDbEntity
  8
0
  6
Continuous
 62
     7
370
    15
100
AcDbLine
 10
592.9179866548
 20
271.6521875539
 30
0.0
 11
591.4814960893
 21
271.6521875539
 31
0.0
  0
LINE
  5
2CE
330
1F
100
AcDbEntity
  8
0
  6
Continuous
 62
     7
370
    15
100
AcDbLine
 10
591.4814960893
 20
271.6521875539
 30
0.0
 11
591.4814960893
 21
273.0886781195
 31
0.0
  0
LINE
  5
2CF
330
1F
100
AcDbEntity
  8
0
  6
Continuous
 62
     7
370
    15
100
AcDbLine
 10
591.4814960893
 20
269.2156949618
 30
0.0
 11
591.4814960893
 21
270.65218739
 31
0.0
  0
LINE
  5
2D0
330
1F
100
AcDbEntity
  8
0
  6
Continuous
 62
     7
370
    15
100
AcDbLine
 10
591.4814960893
 20
270.65218739
 30
0.0
 11
592.9179866548
 21
270.65218739
 31
0.0
  0
LINE
  5
2D1
330
1F
100
AcDbEntity
  8
0
  6
Continuous
 62
     7
370
    15
100
AcDbLine
 10
590.4814940627
 20
273.0886781195
 30
0.0
 11
590.4814940627
 21
271.6521875539
 31
0.0
  0
LINE
  5
2D2
330
1F
100
AcDbEntity
  8
0
  6
Continuous
 62
     7
370
    15
100
AcDbLine
 10
590.4814940627
 20
271.6521875539
 30
0.0
 11
589.0450034972
 21
271.6521875539
 31
0.0
  0
CIRCLE
  5
2D3
330
1F
100
AcDbEntity
  8
0
  6
Continuous
 62
     7
370
    15
100
AcDbCircle
 10
590.9814947233
 20
271.152187241
 30
0.0
 40
4.500000000000114
  0
LINE
  5
2D4
330
1F
100
AcDbEntity
  8
SLD-0
370
     0
100
AcDbLine
 10
489.2161229189
 20
252.5010175104
 30
0.0
 11
489.2161229189
 21
233.2287867022
 31
0.0
  0
LINE
  5
2D5
330
1F
100
AcDbEntity
  8
SLD-0
370
     0
100
AcDbLine
 10
599.2161229189
 20
252.5010175104
 30
0.0
 11
599.2161229189
 21
233.2287867022
 31
0.0
  0
INSERT
  5
2E1
330
1F
100
AcDbEntity
  8
SLD-0
100
AcDbBlockReference
  2
SW_CENTERMARKSYMBOL_1
 10
544.2161229189
 20
298.152187241
 30
0.0
  0
LINE
  5
2E2
330
1F
100
AcDbEntity
  8
SLD-0
  6
CENTERX2
370
     0
100
AcDbLine
 10
513.5146740624
 20
289.9257588134
 30
0.0
 11
530.9973728289
 21
294.6102338294
 31
0.0
  0
LINE
  5
2E3
330
1F
100
AcDbEntity
  8
SLD-0
  6
CENTERX2
370
     0
100
AcDbLine
 10
526.8745302688
 20
340.652187241
 30
0.0
 11
457.2617440501
 21
340.652187241
 31
0.0
  0
ENDSEC
  0
SECTION
  2
OBJECTS
  0
DICTIONARY
  5
C
330
0
100
AcDbDictionary
281
     1
  3
ACAD_GROUP
350
D
  3
ACAD_LAYOUT
350
1A
  3
ACAD_MLEADERSTYLE
350
2E5
  3
ACAD_MLINESTYLE
350
17
  3
ACAD_PLOTSETTINGS
350
19
  3
ACAD_PLOTSTYLENAME
350
E
  3
ACAD_TABLESTYLE
350
2E4
  3
ACAD_VISUALSTYLE
350
2A
  3
AcDbVariableDictionary
350
2E6
  0
DICTIONARY
  5
D
102
{ACAD_REACTORS
330
C
102
}
330
C
100
AcDbDictionary
281
     1
  0
DICTIONARY
  5
1A
102
{ACAD_REACTORS
330
C
102
}
330
C
100
AcDbDictionary
281
     1
  3
Layout1
350
1E
  3
Layout2
350
26
  3
Model
350
22
  0
DICTIONARY
  5
2E5
102
{ACAD_REACTORS
330
C
102
}
330
C
100
AcDbDictionary
281
     1
  0
DICTIONARY
  5
17
102
{ACAD_REACTORS
330
C
102
}
330
C
100
AcDbDictionary
281
     1
  3
Standard
350
18
  0
DICTIONARY
  5
19
102
{ACAD_REACTORS
330
C
102
}
330
C
100
AcDbDictionary
281
     1
  0
ACDBDICTIONARYWDFLT
  5
E
102
{ACAD_REACTORS
330
C
102
}
330
C
100
AcDbDictionary
281
     1
  3
Normal
350
F
100
AcDbDictionaryWithDefault
340
F
  0
DICTIONARY
  5
2E4
102
{ACAD_REACTORS
330
C
102
}
330
C
100
AcDbDictionary
281
     1
  0
DICTIONARY
  5
2A
102
{ACAD_REACTORS
330
C
102
}
330
C
100
AcDbDictionary
281
     1
  3
2dWireframe
350
2F
  3
3D Hidden
350
31
  3
3dWireframe
350
30
  3
Basic
350
32
  3
Brighten
350
36
  3
ColorChange
350
3A
  3
Conceptual
350
34
  3
Dim
350
35
  3
Facepattern
350
39
  3
Flat
350
2B
  3
FlatWithEdges
350
2C
  3
Gouraud
350
2D
  3
GouraudWithEdges
350
2E
  3
Linepattern
350
38
  3
Realistic
350
33
  3
Thicken
350
37
  0
DICTIONARY
  5
2E6
102
{ACAD_REACTORS
330
C
102
}
330
C
100
AcDbDictionary
281
     1
  3
PSOLHEIGHT
350
2E8
  3
PSOLWIDTH
350
2E7
  0
LAYOUT
  5
1E
102
{ACAD_REACTORS
330
1A
102
}
330
1A
100
AcDbPlotSettings
  1

  2
none_device
  4

  6

 40
0.0
 41
0.0
 42
0.0
 43
0.0
 44
0.0
 45
0.0
 46
0.0
 47
0.0
 48
0.0
 49
0.0
140
0.0
141
0.0
142
1.0
143
1.0
 70
   688
 72
     0
 73
     0
 74
     5
  7

 75
    16
147
1.0
148
0.0
149
0.0
100
AcDbLayout
  1
Layout1
 70
     1
 71
     1
 10
0.0
 20
0.0
 11
420.0
 21
297.0
 12
0.0
 22
0.0
 32
0.0
 14
1.0000000000E+20
 24
1.0000000000E+20
 34
1.0000000000E+20
 15
-1.0000000000E+20
 25
-1.0000000000E+20
 35
-1.0000000000E+20
146
0.0
 13
0.0
 23
0.0
 33
0.0
 16
1.0
 26
0.0
 36
0.0
 17
0.0
 27
1.0
 37
0.0
 76
     0
330
1B
  0
LAYOUT
  5
26
102
{ACAD_REACTORS
330
1A
102
}
330
1A
100
AcDbPlotSettings
  1

  2
none_device
  4

  6

 40
0.0
 41
0.0
 42
0.0
 43
0.0
 44
0.0
 45
0.0
 46
0.0
 47
0.0
 48
0.0
 49
0.0
140
0.0
141
0.0
142
1.0
143
1.0
 70
   688
 72
     0
 73
     0
 74
     5
  7

 75
    16
147
1.0
148
0.0
149
0.0
100
AcDbLayout
  1
Layout2
 70
     1
 71
     2
 10
0.0
 20
0.0
 11
0.0
 21
0.0
 12
0.0
 22
0.0
 32
0.0
 14
0.0
 24
0.0
 34
0.0
 15
0.0
 25
0.0
 35
0.0
146
0.0
 13
0.0
 23
0.0
 33
0.0
 16
1.0
 26
0.0
 36
0.0
 17
0.0
 27
1.0
 37
0.0
 76
     0
330
23
  0
LAYOUT
  5
22
102
{ACAD_REACTORS
330
1A
102
}
330
1A
100
AcDbPlotSettings
  1

  2
none_device
  4

  6

 40
0.0
 41
0.0
 42
0.0
 43
0.0
 44
0.0
 45
0.0
 46
0.0
 47
0.0
 48
0.0
 49
0.0
140
0.0
141
0.0
142
1.0
143
1.0
 70
  1712
 72
     0
 73
     0
 74
     0
  7

 75
     0
147
1.0
148
0.0
149
0.0
100
AcDbLayout
  1
Model
 70
     1
 71
     0
 10
0.0
 20
0.0
 11
841.0
 21
594.0
 12
0.0
 22
0.0
 32
0.0
 14
0.0
 24
0.0
 34
0.0
 15
841.0
 25
594.0
 35
0.0
146
0.0
 13
0.0
 23
0.0
 33
0.0
 16
1.0
 26
0.0
 36
0.0
 17
0.0
 27
1.0
 37
0.0
 76
     0
330
1F
331
29
  0
MLINESTYLE
  5
18
102
{ACAD_REACTORS
330
17
102
}
330
17
100
AcDbMlineStyle
  2
Standard
 70
     0
  3

 62
   256
 51
90.0
 52
90.0
 71
     2
 49
0.5
 62
   256
  6
BYLAYER
 49
-0.5
 62
   256
  6
BYLAYER
  0
ACDBPLACEHOLDER
  5
F
102
{ACAD_REACTORS
330
E
102
}
330
E
  0
VISUALSTYLE
  5
2F
102
{ACAD_REACTORS
330
2A
102
}
330
2A
100
AcDbVisualStyle
  2
2dWireframe
 70
     4
 71
     0
 72
     2
 73
     0
 90
        0
 40
-0.6
 41
-30.0
 62
     5
 63
     7
 74
     1
 91
        4
 64
     7
 65
   257
 75
     1
175
     1
 42
1.0
 92
        0
 66
   257
 43
1.0
 76
     1
 77
     6
 78
     2
 67
     7
 79
     5
170
     0
171
     0
290
     0
174
     0
 93
        1
 44
0.0
173
     0
291
     0
 45
0.0
1001
ACAD
1000
AcDbSavedByObjectVersion
1070
     0
  0
VISUALSTYLE
  5
31
102
{ACAD_REACTORS
330
2A
102
}
330
2A
100
AcDbVisualStyle
  2
3D Hidden
 70
     6
 71
     1
 72
     2
 73
     2
 90
        0
 40
-0.6
 41
-30.0
 62
     5
 63
     7
 74
     2
 91
        2
 64
     7
 65
   257
 75
     2
175
     1
 42
40.0
 92
        0
 66
   257
 43
1.0
 76
     1
 77
     6
 78
     2
 67
     7
 79
     3
170
     0
171
     0
290
     0
174
     0
 93
        1
 44
0.0
173
     0
291
     0
 45
0.0
1001
ACAD
1000
AcDbSavedByObjectVersion
1070
     0
  0
VISUALSTYLE
  5
30
102
{ACAD_REACTORS
330
2A
102
}
330
2A
100
AcDbVisualStyle
  2
3dWireframe
 70
     5
 71
     0
 72
     2
 73
     0
 90
        0
 40
-0.6
 41
-30.0
 62
     5
 63
     7
 74
     1
 91
        4
 64
     7
 65
   257
 75
     1
175
     1
 42
1.0
 92
        0
 66
   257
 43
1.0
 76
     1
 77
     6
 78
     2
 67
     7
 79
     5
170
     0
171
     0
290
     0
174
     0
 93
        1
 44
0.0
173
     0
291
     0
 45
0.0
1001
ACAD
1000
AcDbSavedByObjectVersion
1070
     0
  0
VISUALSTYLE
  5
32
102
{ACAD_REACTORS
330
2A
102
}
330
2A
100
AcDbVisualStyle
  2
Basic
 70
     7
 71
     1
 72
     0
 73
     1
 90
        0
 40
-0.6
 41
-30.0
 62
     5
 63
     7
 74
     0
 91
        4
 64
     7
 65
   257
 75
     1
175
     1
 42
1.0
 92
        8
 66
     7
 43
1.0
 76
     1
 77
     6
 78
     2
 67
     7
 79
     5
170
     0
171
     0
290
     0
174
     0
 93
        1
 44
0.0
173
     0
291
     1
 45
0.0
1001
ACAD
1000
AcDbSavedByObjectVersion
1070
     0
  0
VISUALSTYLE
  5
36
102
{ACAD_REACTORS
330
2A
102
}
330
2A
100
AcDbVisualStyle
  2
Brighten
 70
    12
 71
     2
 72
     2
 73
     0
 90
        0
 40
-0.6
 41
-30.0
 62
     5
 63
     7
 74
     1
 91
        4
 64
     7
 65
   257
 75
     1
175
     1
 42
1.0
 92
        8
 66
     7
 43
1.0
 76
     1
 77
     6
 78
     2
 67
     7
 79
     5
170
     0
171
     0
290
     0
174
     0
 93
        1
 44
50.0
173
     0
291
     1
 45
0.0
1001
ACAD
1000
AcDbSavedByObjectVersion
1070
     0
  0
VISUALSTYLE
  5
3A
102
{ACAD_REACTORS
330
2A
102
}
330
2A
100
AcDbVisualStyle
  2
ColorChange
 70
    16
 71
     2
 72
     2
 73
     3
 90
        0
 40
-0.6
 41
-30.0
 62
     5
 63
     8
 74
     1
 91
        4
 64
     7
 65
   257
 75
     1
175
     1
 42
1.0
 92
        8
 66
     8
 43
1.0
 76
     1
 77
     6
 78
     2
 67
     7
 79
     5
170
     0
171
     0
290
     0
174
     0
 93
        1
 44
0.0
173
     0
291
     1
 45
0.0
1001
ACAD
1000
AcDbSavedByObjectVersion
1070
     0
  0
VISUALSTYLE
  5
34
102
{ACAD_REACTORS
330
2A
102
}
330
2A
100
AcDbVisualStyle
  2
Conceptual
 70
     9
 71
     3
 72
     2
 73
     0
 90
        0
 40
-0.6
 41
-30.0
 62
     5
 63
     7
 74
     2
 91
        2
 64
     7
 65
   257
 75
     1
175
     1
 42
40.0
 92
        8
 66
     7
 43
1.0
 76
     1
 77
     6
 78
     2
 67
     7
 79
     3
170
     0
171
     0
290
     0
174
     0
 93
        1
 44
0.0
173
     0
291
     0
 45
0.0
1001
ACAD
1000
AcDbSavedByObjectVersion
1070
     0
  0
VISUALSTYLE
  5
35
102
{ACAD_REACTORS
330
2A
102
}
330
2A
100
AcDbVisualStyle
  2
Dim
 70
    11
 71
     2
 72
     2
 73
     0
 90
        0
 40
-0.6
 41
-30.0
 62
     5
 63
     7
 74
     1
 91
        4
 64
     7
 65
   257
 75
     1
175
     1
 42
1.0
 92
        8
 66
     7
 43
1.0
 76
     1
 77
     6
 78
     2
 67
     7
 79
     5
170
     0
171
     0
290
     0
174
     0
 93
        1
 44
-50.0
173
     0
291
     1
 45
0.0
1001
ACAD
1000
AcDbSavedByObjectVersion
1070
     0
  0
VISUALSTYLE
  5
39
102
{ACAD_REACTORS
330
2A
102
}
330
2A
100
AcDbVisualStyle
  2
Facepattern
 70
    15
 71
     2
 72
     2
 73
     0
 90
        0
 40
-0.6
 41
-30.0
 62
     5
 63
     7
 74
     1
 91
        4
 64
     7
 65
   257
 75
     1
175
     1
 42
1.0
 92
        8
 66
     7
 43
1.0
 76
     1
 77
     6
 78
     2
 67
     7
 79
     5
170
     0
171
     0
290
     0
174
     0
 93
        1
 44
0.0
173
     0
291
     1
 45
0.0
1001
ACAD
1000
AcDbSavedByObjectVersion
1070
     0
  0
VISUALSTYLE
  5
2B
102
{ACAD_REACTORS
330
2A
102
}
330
2A
100
AcDbVisualStyle
  2
Flat
 70
     0
 71
     2
 72
     1
 73
     1
 90
        2
 40
-0.6
 41
30.0
 62
     5
 63
     7
 74
     0
 91
        4
 64
     7
 65
   257
 75
     1
175
     1
 42
1.0
 92
        8
 66
     7
 43
1.0
 76
     1
 77
     6
 78
     2
 67
     7
 79
     5
170
     0
171
     0
290
     0
174
     0
 93
       13
 44
0.0
173
     0
291
     1
 45
0.0
1001
ACAD
1000
AcDbSavedByObjectVersion
1070
     0
  0
VISUALSTYLE
  5
2C
102
{ACAD_REACTORS
330
2A
102
}
330
2A
100
AcDbVisualStyle
  2
FlatWithEdges
 70
     1
 71
     2
 72
     1
 73
     1
 90
        2
 40
-0.6
 41
30.0
 62
     5
 63
     7
 74
     1
 91
        4
 64
     7
 65
   257
 75
     1
175
     1
 42
1.0
 92
        0
 66
   257
 43
1.0
 76
     1
 77
     6
 78
     2
 67
     7
 79
     5
170
     0
171
     0
290
     0
174
     0
 93
       13
 44
0.0
173
     0
291
     1
 45
0.0
1001
ACAD
1000
AcDbSavedByObjectVersion
1070
     0
  0
VISUALSTYLE
  5
2D
102
{ACAD_REACTORS
330
2A
102
}
330
2A
100
AcDbVisualStyle
  2
Gouraud
 70
     2
 71
     2
 72
     2
 73
     1
 90
        2
 40
-0.6
 41
30.0
 62
     5
 63
     7
 74
     0
 91
        4
 64
     7
 65
   257
 75
     1
175
     1
 42
1.0
 92
        0
 66
     7
 43
1.0
 76
     1
 77
     6
 78
     2
 67
     7
 79
     5
170
     0
171
     0
290
     0
174
     0
 93
       13
 44
0.0
173
     0
291
     1
 45
0.0
1001
ACAD
1000
AcDbSavedByObjectVersion
1070
     0
  0
VISUALSTYLE
  5
2E
102
{ACAD_REACTORS
330
2A
102
}
330
2A
100
AcDbVisualStyle
  2
GouraudWithEdges
 70
     3
 71
     2
 72
     2
 73
     1
 90
        2
 40
-0.6
 41
30.0
 62
     5
 63
     7
 74
     1
 91
        4
 64
     7
 65
   257
 75
     1
175
     1
 42
1.0
 92
        0
 66
   257
 43
1.0
 76
     1
 77
     6
 78
     2
 67
     7
 79
     5
170
     0
171
     0
290
     0
174
     0
 93
       13
 44
0.0
173
     0
291
     1
 45
0.0
1001
ACAD
1000
AcDbSavedByObjectVersion
1070
     0
  0
VISUALSTYLE
  5
38
102
{ACAD_REACTORS
330
2A
102
}
330
2A
100
AcDbVisualStyle
  2
Linepattern
 70
    14
 71
     2
 72
     2
 73
     0
 90
        0
 40
-0.6
 41
-30.0
 62
     5
 63
     7
 74
     1
 91
        4
 64
     7
 65
   257
 75
     7
175
     7
 42
1.0
 92
        8
 66
     7
 43
1.0
 76
     1
 77
     6
 78
     2
 67
     7
 79
     5
170
     0
171
     0
290
     0
174
     0
 93
        1
 44
0.0
173
     0
291
     1
 45
0.0
1001
ACAD
1000
AcDbSavedByObjectVersion
1070
     0
  0
VISUALSTYLE
  5
33
102
{ACAD_REACTORS
330
2A
102
}
330
2A
100
AcDbVisualStyle
  2
Realistic
 70
     8
 71
     2
 72
     2
 73
     0
 90
        0
 40
-0.6
 41
-30.0
 62
     5
 63
     7
 74
     1
 91
        0
 64
     7
 65
   257
 75
     1
175
     1
 42
1.0
 92
        8
 66
     8
 43
1.0
 76
     1
 77
     6
 78
     2
 67
     7
 79
     5
170
     0
171
     0
290
     0
174
     0
 93
       13
 44
0.0
173
     0
291
     0
 45
0.0
1001
ACAD
1000
AcDbSavedByObjectVersion
1070
     0
  0
VISUALSTYLE
  5
37
102
{ACAD_REACTORS
330
2A
102
}
330
2A
100
AcDbVisualStyle
  2
Thicken
 70
    13
 71
     2
 72
     2
 73
     0
 90
        0
 40
-0.6
 41
-30.0
 62
     5
 63
     7
 74
     1
 91
        4
 64
     7
 65
   257
 75
     1
175
     1
 42
1.0
 92
       12
 66
     7
 43
1.0
 76
     1
 77
     6
 78
     2
 67
     7
 79
     5
170
     0
171
     0
290
     0
174
     0
 93
        1
 44
0.0
173
     0
291
     1
 45
0.0
1001
ACAD
1000
AcDbSavedByObjectVersion
1070
     0
  0
DICTIONARYVAR
  5
2E8
102
{ACAD_REACTORS
330
2E6
102
}
330
2E6
100
DictionaryVariables
280
     0
  1
80.000000
  0
DICTIONARYVAR
  5
2E7
102
{ACAD_REACTORS
330
2E6
102
}
330
2E6
100
DictionaryVariables
280
     0
  1
5.000000
  0
ENDSEC
  0
EOF
