  0
SECTION
  2
HEADER
  9
$ACADVER
  1
AC1015
  9
$ACADMAINTVER
 70
     6
  9
$DWGCODEPAGE
  3
DOS932
  9
$INSBASE
 10
0.0
 20
0.0
 30
0.0
  9
$EXTMIN
 10
0.0
 20
0.0
 30
0.0
  9
$EXTMAX
 10
841.0
 20
594.0
 30
0.0
  9
$LIMMIN
 10
0.0
 20
0.0
  9
$LIMMAX
 10
841.0
 20
594.0
  9
$ORTHOMODE
 70
     0
  9
$REGENMODE
 70
     1
  9
$FILLMODE
 70
     1
  9
$QTEXTMODE
 70
     0
  9
$MIRRTEXT
 70
     1
  9
$LTSCALE
 40
1.0
  9
$ATTMODE
 70
     1
  9
$TEXTSIZE
 40
3.5
  9
$TRACEWID
 40
1.0
  9
$TEXTSTYLE
  7
Standard
  9
$CLAYER
  8
0
  9
$CELTYPE
  6
ByLayer
  9
$CECOLOR
 62
   256
  9
$CELTSCALE
 40
1.0
  9
$DISPSILH
 70
     0
  9
$DIMSCALE
 40
1.0
  9
$DIMASZ
 40
3.8637032976
  9
$DIMEXO
 40
1.0
  9
$DIMDLI
 40
3.75
  9
$DIMRND
 40
0.0
  9
$DIMDLE
 40
0.0
  9
$DIMEXE
 40
1.0
  9
$DIMTP
 40
0.0
  9
$DIMTM
 40
0.0
  9
$DIMTXT
 40
2.7999999523
  9
$DIMCEN
 40
2.5
  9
$DIMTSZ
 40
0.0
  9
$DIMTOL
 70
     0
  9
$DIMLIM
 70
     0
  9
$DIMTIH
 70
     1
  9
$DIMTOH
 70
     1
  9
$DIMSE1
 70
     0
  9
$DIMSE2
 70
     0
  9
$DIMTAD
 70
     1
  9
$DIMZIN
 70
     1
  9
$DIMBLK
  1

  9
$DIMASO
 70
     1
  9
$DIMSHO
 70
     1
  9
$DIMPOST
  1

  9
$DIMAPOST
  1

  9
$DIMALT
 70
     0
  9
$DIMALTD
 70
     3
  9
$DIMALTF
 40
0.0393700787
  9
$DIMLFAC
 40
1.0
  9
$DIMTOFL
 70
     1
  9
$DIMTVP
 40
0.0
  9
$DIMTIX
 70
     0
  9
$DIMSOXD
 70
     0
  9
$DIMSAH
 70
     0
  9
$DIMBLK1
  1

  9
$DIMBLK2
  1

  9
$DIMSTYLE
  2
ISO-25
  9
$DIMCLRD
 70
     0
  9
$DIMCLRE
 70
     0
  9
$DIMCLRT
 70
     0
  9
$DIMTFAC
 40
1.0
  9
$DIMGAP
 40
1.524
  9
$DIMJUST
 70
     0
  9
$DIMSD1
 70
     0
  9
$DIMSD2
 70
     0
  9
$DIMTOLJ
 70
     0
  9
$DIMTZIN
 70
     1
  9
$DIMALTZ
 70
     0
  9
$DIMALTTZ
 70
     0
  9
$DIMUPT
 70
     0
  9
$DIMDEC
 70
     2
  9
$DIMTDEC
 70
     2
  9
$DIMALTU
 70
     2
  9
$DIMALTTD
 70
     3
  9
$DIMTXSTY
  7
Standard
  9
$DIMAUNIT
 70
     0
  9
$DIMADEC
 70
     0
  9
$DIMALTRND
 40
0.0
  9
$DIMAZIN
 70
     0
  9
$DIMDSEP
 70
    44
  9
$DIMATFIT
 70
     3
  9
$DIMFRAC
 70
     0
  9
$DIMLDRBLK
  1

  9
$DIMLUNIT
 70
     2
  9
$DIMLWD
 70
    -2
  9
$DIMLWE
 70
    -2
  9
$DIMTMOVE
 70
     0
  9
$LUNITS
 70
     2
  9
$LUPREC
 70
     3
  9
$SKETCHINC
 40
1.0
  9
$FILLETRAD
 40
10.0
  9
$AUNITS
 70
     0
  9
$AUPREC
 70
     0
  9
$MENU
  1
.
  9
$ELEVATION
 40
0.0
  9
$PELEVATION
 40
0.0
  9
$THICKNESS
 40
0.0
  9
$LIMCHECK
 70
     0
  9
$CHAMFERA
 40
10.0
  9
$CHAMFERB
 40
10.0
  9
$CHAMFERC
 40
20.0
  9
$CHAMFERD
 40
0.0
  9
$SKPOLY
 70
     0
  9
$TDCREATE
 40
2456413.90551794
  9
$TDUCREATE
 40
2456413.53051794
  9
$TDUPDATE
 40
2456413.905517952
  9
$TDUUPDATE
 40
2456413.530517952
  9
$TDINDWG
 40
0.0000000116
  9
$TDUSRTIMER
 40
0.0000000116
  9
$USRTIMER
 70
     1
  9
$ANGBASE
 50
0.0
  9
$ANGDIR
 70
     0
  9
$PDMODE
 70
     0
  9
$PDSIZE
 40
-1.0
  9
$PLINEWID
 40
0.0
  9
$SPLFRAME
 70
     0
  9
$SPLINETYPE
 70
     6
  9
$SPLINESEGS
 70
     8
  9
$HANDSEED
  5
2B1
  9
$SURFTAB1
 70
     6
  9
$SURFTAB2
 70
     6
  9
$SURFTYPE
 70
     6
  9
$SURFU
 70
     6
  9
$SURFV
 70
     6
  9
$UCSBASE
  2

  9
$UCSNAME
  2

  9
$UCSORG
 10
0.0
 20
0.0
 30
0.0
  9
$UCSXDIR
 10
1.0
 20
0.0
 30
0.0
  9
$UCSYDIR
 10
0.0
 20
1.0
 30
0.0
  9
$UCSORTHOREF
  2

  9
$UCSORTHOVIEW
 70
     0
  9
$UCSORGTOP
 10
0.0
 20
0.0
 30
0.0
  9
$UCSORGBOTTOM
 10
0.0
 20
0.0
 30
0.0
  9
$UCSORGLEFT
 10
0.0
 20
0.0
 30
0.0
  9
$UCSORGRIGHT
 10
0.0
 20
0.0
 30
0.0
  9
$UCSORGFRONT
 10
0.0
 20
0.0
 30
0.0
  9
$UCSORGBACK
 10
0.0
 20
0.0
 30
0.0
  9
$PUCSBASE
  2

  9
$PUCSNAME
  2

  9
$PUCSORG
 10
0.0
 20
0.0
 30
0.0
  9
$PUCSXDIR
 10
1.0
 20
0.0
 30
0.0
  9
$PUCSYDIR
 10
0.0
 20
1.0
 30
0.0
  9
$PUCSORTHOREF
  2

  9
$PUCSORTHOVIEW
 70
     0
  9
$PUCSORGTOP
 10
0.0
 20
0.0
 30
0.0
  9
$PUCSORGBOTTOM
 10
0.0
 20
0.0
 30
0.0
  9
$PUCSORGLEFT
 10
0.0
 20
0.0
 30
0.0
  9
$PUCSORGRIGHT
 10
0.0
 20
0.0
 30
0.0
  9
$PUCSORGFRONT
 10
0.0
 20
0.0
 30
0.0
  9
$PUCSORGBACK
 10
0.0
 20
0.0
 30
0.0
  9
$USERI1
 70
     0
  9
$USERI2
 70
     0
  9
$USERI3
 70
     0
  9
$USERI4
 70
     0
  9
$USERI5
 70
     0
  9
$USERR1
 40
0.0
  9
$USERR2
 40
0.0
  9
$USERR3
 40
0.0
  9
$USERR4
 40
0.0
  9
$USERR5
 40
0.0
  9
$WORLDVIEW
 70
     1
  9
$SHADEDGE
 70
     3
  9
$SHADEDIF
 70
    70
  9
$TILEMODE
 70
     1
  9
$MAXACTVP
 70
    64
  9
$PINSBASE
 10
0.0
 20
0.0
 30
0.0
  9
$PLIMCHECK
 70
     0
  9
$PEXTMIN
 10
1.0000000000E+20
 20
1.0000000000E+20
 30
1.0000000000E+20
  9
$PEXTMAX
 10
-1.0000000000E+20
 20
-1.0000000000E+20
 30
-1.0000000000E+20
  9
$PLIMMIN
 10
0.0
 20
0.0
  9
$PLIMMAX
 10
420.0
 20
297.0
  9
$UNITMODE
 70
     0
  9
$VISRETAIN
 70
     1
  9
$PLINEGEN
 70
     0
  9
$PSLTSCALE
 70
     1
  9
$TREEDEPTH
 70
  3020
  9
$CMLSTYLE
  2
Standard
  9
$CMLJUST
 70
     0
  9
$CMLSCALE
 40
20.0
  9
$PROXYGRAPHICS
 70
     1
  9
$MEASUREMENT
 70
     1
  9
$CELWEIGHT
370
    -1
  9
$ENDCAPS
280
     0
  9
$JOINSTYLE
280
     0
  9
$LWDISPLAY
290
     1
  9
$INSUNITS
 70
     4
  9
$HYPERLINKBASE
  1

  9
$STYLESHEET
  1

  9
$XEDIT
290
     1
  9
$CEPSNTYPE
380
     0
  9
$PSTYLEMODE
290
     1
  9
$FINGERPRINTGUID
  2
{7966101B-0568-4E47-99E0-F0FE66FC5CE5}
  9
$VERSIONGUID
  2
{FAEB1C32-E019-11D5-929B-00C0DF256EC4}
  9
$EXTNAMES
290
     1
  9
$PSVPSCALE
 40
0.0
  9
$OLESTARTUP
290
     0
  0
ENDSEC
  0
SECTION
  2
CLASSES
  0
CLASS
  1
ACDBDICTIONARYWDFLT
  2
AcDbDictionaryWithDefault
  3
ObjectDBX Classes
 90
        0
280
     0
281
     0
  0
CLASS
  1
VISUALSTYLE
  2
AcDbVisualStyle
  3
ObjectDBX Classes
 90
     4095
280
     0
281
     0
  0
CLASS
  1
DICTIONARYVAR
  2
AcDbDictionaryVar
  3
ObjectDBX Classes
 90
        0
280
     0
281
     0
  0
CLASS
  1
ACDBPLACEHOLDER
  2
AcDbPlaceHolder
  3
ObjectDBX Classes
 90
        0
280
     0
281
     0
  0
CLASS
  1
LAYOUT
  2
AcDbLayout
  3
ObjectDBX Classes
 90
        0
280
     0
281
     0
  0
ENDSEC
  0
SECTION
  2
TABLES
  0
TABLE
  2
VPORT
  5
8
330
0
100
AcDbSymbolTable
 70
     1
  0
VPORT
  5
29
330
8
100
AcDbSymbolTableRecord
100
AcDbViewportTableRecord
  2
*Active
 70
     0
 10
0.0
 20
0.0
 11
1.0
 21
1.0
 12
420.5
 22
297.0
 13
0.0
 23
0.0
 14
10.0
 24
10.0
 15
10.0
 25
10.0
 16
0.0
 26
0.0
 36
1.0
 17
0.0
 27
0.0
 37
0.0
 40
594.0
 41
1.4158249158
 42
50.0
 43
0.0
 44
0.0
 50
0.0
 51
0.0
 71
     0
 72
  2000
 73
     1
 74
     3
 75
     0
 76
     0
 77
     0
 78
     0
281
     0
 65
     1
110
0.0
120
0.0
130
0.0
111
1.0
121
0.0
131
0.0
112
0.0
122
1.0
132
0.0
 79
     0
146
0.0
  0
ENDTAB
  0
TABLE
  2
LTYPE
  5
5
330
0
100
AcDbSymbolTable
 70
     6
  0
LTYPE
  5
14
330
5
100
AcDbSymbolTableRecord
100
AcDbLinetypeTableRecord
  2
ByBlock
 70
     0
  3

 72
    65
 73
     0
 40
0.0
  0
LTYPE
  5
15
330
5
100
AcDbSymbolTableRecord
100
AcDbLinetypeTableRecord
  2
ByLayer
 70
     0
  3

 72
    65
 73
     0
 40
0.0
  0
LTYPE
  5
16
330
5
100
AcDbSymbolTableRecord
100
AcDbLinetypeTableRecord
  2
Continuous
 70
     0
  3
Solid line
 72
    65
 73
     0
 40
0.0
  0
LTYPE
  5
3B
330
5
100
AcDbSymbolTableRecord
100
AcDbLinetypeTableRecord
  2
HIDDEN
 70
     0
  3
Hidden __ __ __ __ __ __ __ __ __ __ __ __ __ __
 72
    65
 73
     2
 40
1.905
 49
1.27
 74
     0
 49
-0.635
 74
     0
  0
LTYPE
  5
3C
330
5
100
AcDbSymbolTableRecord
100
AcDbLinetypeTableRecord
  2
PHANTOM
 70
     0
  3
Phantom ______  __  __  ______  __  __  ______
 72
    65
 73
     6
 40
12.7
 49
6.35
 74
     0
 49
-1.27
 74
     0
 49
1.27
 74
     0
 49
-1.27
 74
     0
 49
1.27
 74
     0
 49
-1.27
 74
     0
  0
LTYPE
  5
3D
330
5
100
AcDbSymbolTableRecord
100
AcDbLinetypeTableRecord
  2
CENTER
 70
     0
  3
Center ____ _ ____ _ ____ _ ____ _ ____ _ ____
 72
    65
 73
     4
 40
10.16
 49
6.35
 74
     0
 49
-1.27
 74
     0
 49
1.27
 74
     0
 49
-1.27
 74
     0
  0
LTYPE
  5
3E
330
5
100
AcDbSymbolTableRecord
100
AcDbLinetypeTableRecord
  2
CENTERX2
 70
     0
  3
Center (2x) ________  __  ________  __  _____
 72
    65
 73
     4
 40
20.32
 49
12.7
 74
     0
 49
-2.54
 74
     0
 49
2.54
 74
     0
 49
-2.54
 74
     0
  0
LTYPE
  5
3F
330
5
100
AcDbSymbolTableRecord
100
AcDbLinetypeTableRecord
  2
DOT2
 70
     0
  3
Dot (.5x) ........................................
 72
    65
 73
     2
 40
0.635
 49
0.0
 74
     0
 49
-0.635
 74
     0
  0
ENDTAB
  0
TABLE
  2
LAYER
  5
2
330
0
100
AcDbSymbolTable
 70
     4
  0
LAYER
  5
10
330
2
100
AcDbSymbolTableRecord
100
AcDbLayerTableRecord
  2
0
 70
     0
 62
     7
  6
Continuous
370
    -3
390
F
  0
LAYER
  5
40
330
2
100
AcDbSymbolTableRecord
100
AcDbLayerTableRecord
  2
SLD-0
 70
     0
 62
     3
  6
Continuous
370
    -3
390
F
  0
LAYER
  5
41
330
2
100
AcDbSymbolTableRecord
100
AcDbLayerTableRecord
  2
SLD-DEFPOINTS
 70
     0
 62
   179
  6
Continuous
370
    -3
390
F
  0
LAYER
  5
42
330
2
100
AcDbSymbolTableRecord
100
AcDbLayerTableRecord
  2
AM_REFDIM
 70
     0
 62
     4
  6
Continuous
370
    15
390
F
  0
ENDTAB
  0
TABLE
  2
STYLE
  5
3
330
0
100
AcDbSymbolTable
 70
     1
  0
STYLE
  5
11
330
3
100
AcDbSymbolTableRecord
100
AcDbTextStyleTableRecord
  2
Standard
 70
     0
 40
0.0
 41
1.0
 50
0.0
 71
     0
 42
2.5
  3
txt
  4
bigfont
  0
ENDTAB
  0
TABLE
  2
VIEW
  5
6
330
0
100
AcDbSymbolTable
 70
     0
  0
ENDTAB
  0
TABLE
  2
UCS
  5
7
330
0
100
AcDbSymbolTable
 70
     0
  0
ENDTAB
  0
TABLE
  2
APPID
  5
9
330
0
100
AcDbSymbolTable
 70
     1
  0
APPID
  5
12
330
9
100
AcDbSymbolTableRecord
100
AcDbRegAppTableRecord
  2
ACAD
 70
     0
  0
ENDTAB
  0
TABLE
  2
DIMSTYLE
  5
A
330
0
100
AcDbSymbolTable
 70
     1
100
AcDbDimStyleTable
  0
DIMSTYLE
105
27
330
A
100
AcDbSymbolTableRecord
100
AcDbDimStyleTableRecord
  2
ISO-25
 70
     0
 41
2.5
 42
0.625
 43
3.75
 44
1.25
 73
     0
 74
     0
 77
     1
 78
     8
140
2.5
141
2.5
143
0.0393700787
147
0.625
171
     3
172
     1
271
     2
272
     2
274
     3
278
    44
283
     0
284
     8
340
11
  0
ENDTAB
  0
TABLE
  2
BLOCK_RECORD
  5
1
330
0
100
AcDbSymbolTable
 70
     2
  0
BLOCK_RECORD
  5
1F
330
1
100
AcDbSymbolTableRecord
100
AcDbBlockTableRecord
  2
*Model_Space
340
22
  0
BLOCK_RECORD
  5
1B
330
1
100
AcDbSymbolTableRecord
100
AcDbBlockTableRecord
  2
*Paper_Space
340
1E
  0
BLOCK_RECORD
  5
23
330
1
100
AcDbSymbolTableRecord
100
AcDbBlockTableRecord
  2
*Paper_Space0
340
26
  0
BLOCK_RECORD
  5
294
330
1
100
AcDbSymbolTableRecord
100
AcDbBlockTableRecord
  2
SW_CENTERMARKSYMBOL_0
340
0
102
{BLKREFS
331
29F
102
}
  0
ENDTAB
  0
ENDSEC
  0
SECTION
  2
BLOCKS
  0
BLOCK
  5
20
330
1F
100
AcDbEntity
  8
0
100
AcDbBlockBegin
  2
*Model_Space
 70
     0
 10
0.0
 20
0.0
 30
0.0
  3
*Model_Space
  1

  0
ENDBLK
  5
21
330
1F
100
AcDbEntity
  8
0
100
AcDbBlockEnd
  0
BLOCK
  5
1C
330
1B
100
AcDbEntity
 67
     1
  8
0
100
AcDbBlockBegin
  2
*Paper_Space
 70
     0
 10
0.0
 20
0.0
 30
0.0
  3
*Paper_Space
  1

  0
ENDBLK
  5
1D
330
1B
100
AcDbEntity
 67
     1
  8
0
100
AcDbBlockEnd
  0
BLOCK
  5
24
330
23
100
AcDbEntity
  8
0
100
AcDbBlockBegin
  2
*Paper_Space0
 70
     0
 10
0.0
 20
0.0
 30
0.0
  3
*Paper_Space0
  1

  0
ENDBLK
  5
25
330
23
100
AcDbEntity
  8
0
100
AcDbBlockEnd
  0
BLOCK
  5
295
330
294
100
AcDbEntity
  8
0
100
AcDbBlockBegin
  2
SW_CENTERMARKSYMBOL_0
 70
     0
 10
0.0
 20
0.0
 30
0.0
  3
SW_CENTERMARKSYMBOL_0
  1

  0
LINE
  5
297
330
294
100
AcDbEntity
  8
SLD-0
 62
     0
100
AcDbLine
 10
0.0
 20
0.0
 30
0.0
 11
0.0
 21
2.5
 31
0.0
  0
LINE
  5
298
330
294
100
AcDbEntity
  8
SLD-0
 62
     0
100
AcDbLine
 10
0.0
 20
0.0
 30
0.0
 11
-2.5
 21
0.0
 31
0.0
  0
LINE
  5
299
330
294
100
AcDbEntity
  8
SLD-0
 62
     0
100
AcDbLine
 10
0.0
 20
0.0
 30
0.0
 11
0.0
 21
-2.5
 31
0.0
  0
LINE
  5
29A
330
294
100
AcDbEntity
  8
SLD-0
 62
     0
100
AcDbLine
 10
0.0
 20
0.0
 30
0.0
 11
2.5
 21
0.0
 31
0.0
  0
LINE
  5
29B
330
294
100
AcDbEntity
  8
SLD-0
 62
     0
100
AcDbLine
 10
0.0
 20
5.0
 30
0.0
 11
0.0
 21
149.8493977944
 31
0.0
  0
LINE
  5
29C
330
294
100
AcDbEntity
  8
SLD-0
 62
     0
100
AcDbLine
 10
-5.0
 20
0.0
 30
0.0
 11
-107.8289296589
 21
0.0
 31
0.0
  0
LINE
  5
29D
330
294
100
AcDbEntity
  8
SLD-0
 62
     0
100
AcDbLine
 10
0.0
 20
-5.0
 30
0.0
 11
0.0
 21
-142.9080221125
 31
0.0
  0
LINE
  5
29E
330
294
100
AcDbEntity
  8
SLD-0
 62
     0
100
AcDbLine
 10
5.0
 20
0.0
 30
0.0
 11
87.0993274861
 21
0.0
 31
0.0
  0
ENDBLK
  5
296
330
294
100
AcDbEntity
  8
0
100
AcDbBlockEnd
  0
ENDSEC
  0
SECTION
  2
ENTITIES
  0
LINE
  5
43
330
1F
100
AcDbEntity
  8
0
  6
Continuous
 62
     7
370
    15
100
AcDbLine
 10
212.4005316687
 20
208.5442053057
 30
0.0
 11
212.4005316687
 21
211.4979470052
 31
0.0
  0
LINE
  5
44
330
1F
100
AcDbEntity
  8
0
  6
Continuous
 62
     7
370
    15
100
AcDbLine
 10
192.400535841
 20
211.4979470052
 30
0.0
 11
192.400535841
 21
208.5442053057
 31
0.0
  0
ARC
  5
45
330
1F
100
AcDbEntity
  8
0
  6
Continuous
 62
     7
370
    15
100
AcDbCircle
 10
210.8660616854
 20
205.8080101545
 30
0.0
 40
2.210970144531347
100
AcDbArc
 50
119.4475602042
 51
185.5246818373
  0
ARC
  5
46
330
1F
100
AcDbEntity
  8
0
  6
Continuous
 62
     7
370
    15
100
AcDbCircle
 10
193.7264039532
 20
205.6812149598
 30
0.0
 40
2.425826571493478
100
AcDbArc
 50
357.8559486396
 51
58.1202446073
  0
LWPOLYLINE
  5
47
330
1F
100
AcDbEntity
  8
0
  6
Continuous
 62
     7
370
    15
100
AcDbPolyline
 90
        6
 70
   128
 43
0.0
 10
206.800533731
 20
203.0763583161
 10
207.6076178742
 20
203.3197725095
 10
208.0816089106
 20
203.5740682759
 10
208.4312125039
 20
203.921321211
 10
208.635790546
 20
204.4213892795
 10
208.6217983556
 20
204.6035038211
  0
LWPOLYLINE
  5
48
330
1F
100
AcDbEntity
  8
0
  6
Continuous
 62
     7
370
    15
100
AcDbPolyline
 90
        6
 70
   128
 43
0.0
 10
196.1505322647
 20
204.605876831
 10
196.2945892406
 20
204.0430823244
 10
196.5616776538
 20
203.7022815921
 10
196.9180985284
 20
203.4499229767
 10
197.4541752529
 20
203.2242821433
 10
198.0005337787
 20
203.0875937917
  0
LINE
  5
49
330
1F
100
AcDbEntity
  8
0
  6
Continuous
 62
     7
370
    15
100
AcDbLine
 10
208.650535245
 20
204.605876831
 30
0.0
 11
208.650535245
 21
205.590459881
 31
0.0
  0
LINE
  5
4A
330
1F
100
AcDbEntity
  8
0
  6
Continuous
 62
     7
370
    15
100
AcDbLine
 10
196.1505322647
 20
205.590459881
 30
0.0
 11
196.1505322647
 21
204.605876831
 31
0.0
  0
LINE
  5
4B
330
1F
100
AcDbEntity
  8
0
  6
Continuous
 62
     7
370
    15
100
AcDbLine
 10
206.800533731
 20
198.6983897068
 30
0.0
 11
206.800533731
 21
203.6212975063
 31
0.0
  0
LINE
  5
4C
330
1F
100
AcDbEntity
  8
0
  6
Continuous
 62
     7
370
    15
100
AcDbLine
 10
198.0005337787
 20
203.6212975063
 30
0.0
 11
198.0005337787
 21
198.6983897068
 31
0.0
  0
ARC
  5
4D
330
1F
100
AcDbEntity
  8
0
  6
Continuous
 62
     7
370
    15
100
AcDbCircle
 10
217.4005325628
 20
260.2681549658
 30
0.0
 40
5.599999999999994
100
AcDbArc
 50
0.0
 51
90.0
  0
ARC
  5
4E
330
1F
100
AcDbEntity
  8
0
  6
Continuous
 62
     7
370
    15
100
AcDbCircle
 10
171.4005325628
 20
260.2681549658
 30
0.0
 40
5.600000000000023
100
AcDbArc
 50
90.0
 51
180.0
  0
LINE
  5
4F
330
1F
100
AcDbEntity
  8
0
  6
Continuous
 62
     7
370
    15
100
AcDbLine
 10
217.4005343509
 20
265.8681547173
 30
0.0
 11
171.4005305362
 21
265.8681547173
 31
0.0
  0
LINE
  5
50
330
1F
100
AcDbEntity
  8
0
  6
Continuous
 62
     7
370
    15
100
AcDbLine
 10
242.4005328608
 20
371.4868420638
 30
0.0
 11
237.4005339039
 21
371.4868420638
 31
0.0
  0
LINE
  5
51
330
1F
100
AcDbEntity
  8
0
  6
Continuous
 62
     7
370
    15
100
AcDbLine
 10
217.4005343509
 20
371.4868420638
 30
0.0
 11
182.4005304766
 21
371.4868420638
 31
0.0
  0
LINE
  5
52
330
1F
100
AcDbEntity
  8
0
  6
Continuous
 62
     7
370
    15
100
AcDbLine
 10
182.4005304766
 20
323.4868490972
 30
0.0
 11
217.4005343509
 21
323.4868490972
 31
0.0
  0
LINE
  5
53
330
1F
100
AcDbEntity
  8
0
  6
Continuous
 62
     7
370
    15
100
AcDbLine
 10
237.4005339039
 20
323.4868490972
 30
0.0
 11
242.4005328608
 21
323.4868490972
 31
0.0
  0
LINE
  5
54
330
1F
100
AcDbEntity
  8
0
  6
Continuous
 62
     7
370
    15
100
AcDbLine
 10
277.4005330098
 20
369.9868464746
 30
0.0
 11
242.4005328608
 21
369.9868464746
 31
0.0
  0
LINE
  5
55
330
1F
100
AcDbEntity
  8
0
  6
Continuous
 62
     7
370
    15
100
AcDbLine
 10
242.4005328608
 20
324.986852137
 30
0.0
 11
277.4005330098
 21
324.986852137
 31
0.0
  0
LINE
  5
56
330
1F
100
AcDbEntity
  8
0
  6
Continuous
 62
     7
370
    15
100
AcDbLine
 10
237.4005339039
 20
371.9368422307
 30
0.0
 11
217.4005343509
 21
371.9368422307
 31
0.0
  0
LINE
  5
57
330
1F
100
AcDbEntity
  8
0
  6
Continuous
 62
     7
370
    15
100
AcDbLine
 10
332.4005327118
 20
384.9509054698
 30
0.0
 11
332.4005327118
 21
382.9509014167
 31
0.0
  0
LINE
  5
58
330
1F
100
AcDbEntity
  8
0
  6
Continuous
 62
     7
370
    15
100
AcDbLine
 10
412.4005346489
 20
382.9509014167
 30
0.0
 11
412.4005346489
 21
384.9509054698
 31
0.0
  0
LINE
  5
59
330
1F
100
AcDbEntity
  8
0
  6
Continuous
 62
     7
370
    15
100
AcDbLine
 10
412.4005346489
 20
104.9509042777
 30
0.0
 11
412.4005346489
 21
106.9509083308
 31
0.0
  0
LINE
  5
5A
330
1F
100
AcDbEntity
  8
0
  6
Continuous
 62
     7
370
    15
100
AcDbLine
 10
332.4005327118
 20
106.9509083308
 30
0.0
 11
332.4005327118
 21
104.9509042777
 31
0.0
  0
LINE
  5
5B
330
1F
100
AcDbEntity
  8
0
  6
Continuous
 62
     7
370
    15
100
AcDbLine
 10
429.9016429973
 20
366.9509062447
 30
0.0
 11
429.9016429973
 21
382.9509014167
 31
0.0
  0
LINE
  5
5C
330
1F
100
AcDbEntity
  8
0
  6
Continuous
 62
     7
370
    15
100
AcDbLine
 10
429.9016429973
 20
106.9509083308
 30
0.0
 11
429.9016429973
 21
122.9509035029
 31
0.0
  0
LINE
  5
5D
330
1F
100
AcDbEntity
  8
0
  6
Continuous
 62
     7
370
    15
100
AcDbLine
 10
314.8994243634
 20
382.9509014167
 30
0.0
 11
314.8994243634
 21
366.9509062447
 31
0.0
  0
LINE
  5
5E
330
1F
100
AcDbEntity
  8
0
  6
Continuous
 62
     7
370
    15
100
AcDbLine
 10
314.8994243634
 20
122.9509035029
 30
0.0
 11
314.8994243634
 21
106.9509083308
 31
0.0
  0
LINE
  5
5F
330
1F
100
AcDbEntity
  8
0
  6
Continuous
 62
     7
370
    15
100
AcDbLine
 10
379.4005348277
 20
306.0474539079
 30
0.0
 11
369.9005304766
 21
306.0474539079
 31
0.0
  0
LINE
  5
60
330
1F
100
AcDbEntity
  8
0
  6
Continuous
 62
     7
370
    15
100
AcDbLine
 10
394.9005289865
 20
306.0474539079
 30
0.0
 11
385.4005320859
 21
306.0474539079
 31
0.0
  0
LINE
  5
61
330
1F
100
AcDbEntity
  8
0
  6
Continuous
 62
     7
370
    15
100
AcDbLine
 10
409.9005295825
 20
274.9509042032
 30
0.0
 11
403.4005313111
 21
274.9509042032
 31
0.0
  0
ARC
  5
62
330
1F
100
AcDbEntity
  8
0
  6
Continuous
 62
     7
370
    15
100
AcDbCircle
 10
411.0729391055
 20
127.9509086472
 30
0.0
 40
5.000007560243729
100
AcDbArc
 50
140.2208140587
 51
268.5620842555
  0
ARC
  5
63
330
1F
100
AcDbEntity
  8
0
  6
Continuous
 62
     7
370
    15
100
AcDbCircle
 10
347.7807709582
 20
127.9508574313
 30
0.0
 40
4.999954203930142
100
AcDbArc
 50
271.477236883
 51
346.6027650593
  0
LWPOLYLINE
  5
64
330
1F
100
AcDbEntity
  8
0
  6
Continuous
 62
     7
370
    15
100
AcDbPolyline
 90
       17
 70
   128
 43
0.0
 10
448.8993867231
 20
227.9315827318
 10
448.8927408052
 20
233.7375445195
 10
448.6178292823
 20
237.6661918961
 10
448.0524792266
 20
241.0710164249
 10
447.3179413867
 20
243.9751172924
 10
445.9536208701
 20
247.8388481677
 10
444.2758395267
 20
251.376418294
 10
441.654755075
 20
255.5864168234
 10
438.6594577623
 20
259.2824542798
 10
435.2452739072
 20
262.5839313396
 10
433.2910462213
 20
264.1519786693
 10
430.5868430925
 20
266.0112338044
 10
426.94927593
 20
268.0314028539
 10
423.5360606504
 20
269.4969991125
 10
419.4827063871
 20
270.762962652
 10
414.7503732634
 20
271.6517200597
 10
409.9007903528
 20
271.9186631866
  0
LINE
  5
65
330
1F
100
AcDbEntity
  8
0
  6
Continuous
 62
     7
370
    15
100
AcDbLine
 10
448.9005341125
 20
200.6271587588
 30
0.0
 11
448.9005341125
 21
202.0650798358
 31
0.0
  0
ARC
  5
66
330
1F
100
AcDbEntity
  8
0
  6
Continuous
 62
     7
370
    15
100
AcDbCircle
 10
351.4538552865
 20
361.9509113103
 30
0.0
 40
4.999996526745197
100
AcDbArc
 50
13.5815427174
 51
89.8910298967
  0
ARC
  5
67
330
1F
100
AcDbEntity
  8
0
  6
Continuous
 62
     7
370
    15
100
AcDbCircle
 10
400.9482173371
 20
361.9511006095
 30
0.0
 40
4.99980168431108
100
AcDbArc
 50
90.0677914848
 51
179.0932567569
  0
LWPOLYLINE
  5
68
330
1F
100
AcDbEntity
  8
0
  6
Continuous
 62
     7
370
    15
100
AcDbPolyline
 90
        3
 70
   128
 43
0.0
 10
448.6626966787
 20
191.9502125956
 10
448.896793921
 20
194.4108823218
 10
448.9005341125
 20
200.6271587588
  0
LWPOLYLINE
  5
69
330
1F
100
AcDbEntity
  8
0
  6
Continuous
 62
     7
370
    15
100
AcDbPolyline
 90
        3
 70
   128
 43
0.0
 10
407.2292431188
 20
131.1485612668
 10
421.742415328
 20
148.4204227008
 10
428.9104028535
 20
156.9509053506
  0
ARC
  5
6A
330
1F
100
AcDbEntity
  8
0
  6
Continuous
 62
     7
370
    15
100
AcDbCircle
 10
413.4278420421
 20
113.0526528498
 30
0.0
 40
62.2134537727278
100
AcDbArc
 50
126.532326372
 51
167.2631808205
  0
LWPOLYLINE
  5
6B
330
1F
100
AcDbEntity
  8
0
  6
Continuous
 62
     7
370
    15
100
AcDbPolyline
 90
       13
 70
   128
 43
0.0
 10
356.314113636
 20
363.123863367
 10
357.9508087528
 20
356.5118009128
 10
359.8153761518
 20
348.9636102595
 10
361.4649235201
 20
342.2765130081
 10
362.8975807619
 20
336.5311393418
 10
364.113716681
 20
331.7245611824
 10
364.902345736
 20
328.6483803667
 10
365.6543849898
 20
325.7492402472
 10
366.3672416401
 20
323.0495298185
 10
367.0369445276
 20
320.5480569877
 10
367.8166179848
 20
317.6411012091
 10
368.8591926289
 20
313.5640615501
 10
369.3094163132
 20
311.4509055294
  0
LWPOLYLINE
  5
6C
330
1F
100
AcDbEntity
  8
0
  6
Continuous
 62
     7
370
    15
100
AcDbPolyline
 90
        3
 70
   128
 43
0.0
 10
395.8101331187
 20
354.8272022881
 10
395.8107217145
 20
354.8571610727
 10
395.9516345453
 20
362.039237646
  0
LINE
  5
6D
330
1F
100
AcDbEntity
  8
0
  6
Continuous
 62
     7
370
    15
100
AcDbLine
 10
369.9005304766
 20
173.8979512729
 30
0.0
 11
376.4005361986
 21
173.8979512729
 31
0.0
  0
LINE
  5
6E
330
1F
100
AcDbEntity
  8
0
  6
Continuous
 62
     7
370
    15
100
AcDbLine
 10
406.2005340052
 20
324.9509030856
 30
0.0
 11
406.4005299402
 21
324.9509030856
 31
0.0
  0
LINE
  5
6F
330
1F
100
AcDbEntity
  8
0
  6
Continuous
 62
     7
370
    15
100
AcDbLine
 10
406.4005299402
 20
354.9509042777
 30
0.0
 11
395.7598118973
 21
354.9509042777
 31
0.0
  0
ARC
  5
70
330
1F
100
AcDbEntity
  8
0
  6
Continuous
 62
     7
370
    15
100
AcDbCircle
 10
452.9005325628
 20
225.9509048738
 30
0.0
 40
2.0
100
AcDbArc
 50
0.0
 51
90.0
  0
ARC
  5
71
330
1F
100
AcDbEntity
  8
0
  6
Continuous
 62
     7
370
    15
100
AcDbCircle
 10
452.9005325628
 20
203.9509048738
 30
0.0
 40
2.0
100
AcDbArc
 50
270.0
 51
0.0
  0
LINE
  5
72
330
1F
100
AcDbEntity
  8
0
  6
Continuous
 62
     7
370
    15
100
AcDbLine
 10
448.8041534019
 20
201.9509034135
 30
0.0
 11
452.9005273175
 21
201.9509034135
 31
0.0
  0
LINE
  5
73
330
1F
100
AcDbEntity
  8
0
  6
Continuous
 62
     7
370
    15
100
AcDbLine
 10
452.9005273175
 20
227.9509039499
 30
0.0
 11
448.887272079
 21
227.9509039499
 31
0.0
  0
LINE
  5
74
330
1F
100
AcDbEntity
  8
0
  6
Continuous
 62
     7
370
    15
100
AcDbLine
 10
352.4005322647
 20
178.4509042181
 30
0.0
 11
369.9005304766
 21
178.4509042181
 31
0.0
  0
LINE
  5
75
330
1F
100
AcDbEntity
  8
0
  6
Continuous
 62
     7
370
    15
100
AcDbLine
 10
369.6373461676
 20
311.4509055294
 30
0.0
 11
352.4005322647
 21
311.4509055294
 31
0.0
  0
LWPOLYLINE
  5
76
330
1F
100
AcDbEntity
  8
0
  6
Continuous
 62
     7
370
    15
100
AcDbPolyline
 90
       12
 70
   128
 43
0.0
 10
432.0110960794
 20
159.4509029664
 10
433.2320972276
 20
160.9039971508
 10
436.1593856406
 20
164.387709824
 10
438.5653569293
 20
167.2510126509
 10
440.4499961925
 20
169.4938907303
 10
441.8936206889
 20
171.27749267
 10
443.2620241237
 20
173.1853926458
 10
444.7985126567
 20
175.6654674091
 10
446.3846518588
 20
178.7684554138
 10
447.87299474
 20
182.5400659718
 10
449.0841313195
 20
187.0128804721
 10
449.8032017541
 20
192.1967821099
  0
LINE
  5
77
330
1F
100
AcDbEntity
  8
0
  6
Continuous
 62
     7
370
    15
100
AcDbLine
 10
157.4005319667
 20
313.9509031452
 30
0.0
 11
128.4005328012
 21
313.9509031452
 31
0.0
  0
LINE
  5
78
330
1F
100
AcDbEntity
  8
0
  6
Continuous
 62
     7
370
    15
100
AcDbLine
 10
153.3472075057
 20
175.9509066023
 30
0.0
 11
157.4005319667
 21
175.9509066023
 31
0.0
  0
ARC
  5
79
330
1F
100
AcDbEntity
  8
0
  6
Continuous
 62
     7
370
    15
100
AcDbCircle
 10
153.3472132808
 20
183.9509048738
 30
0.0
 40
8.000000000000028
100
AcDbArc
 50
195.2555633432
 51
270.0
  0
ARC
  5
7A
330
1F
100
AcDbEntity
  8
0
  6
Continuous
 62
     7
370
    15
100
AcDbCircle
 10
261.4005325628
 20
213.4208928642
 30
0.0
 40
120.0
100
AcDbArc
 50
180.0
 51
195.2555633432
  0
ARC
  5
7B
330
1F
100
AcDbEntity
  8
0
  6
Continuous
 62
     7
370
    15
100
AcDbCircle
 10
128.4005325628
 20
310.9509048738
 30
0.0
 40
3.0
100
AcDbArc
 50
90.0
 51
180.0
  0
LINE
  5
7C
330
1F
100
AcDbEntity
  8
0
  6
Continuous
 62
     7
370
    15
100
AcDbLine
 10
130.4005368543
 20
221.9509048291
 30
0.0
 11
141.4005293441
 21
221.9509048291
 31
0.0
  0
LINE
  5
7D
330
1F
100
AcDbEntity
  8
0
  6
Continuous
 62
     7
370
    15
100
AcDbLine
 10
297.4005325628
 20
313.5509038247
 30
0.0
 11
237.4005339039
 21
313.5509038247
 31
0.0
  0
LINE
  5
7E
330
1F
100
AcDbEntity
  8
0
  6
Continuous
 62
     7
370
    15
100
AcDbLine
 10
217.4005343509
 20
313.5509038247
 30
0.0
 11
157.4005319667
 21
313.5509038247
 31
0.0
  0
LINE
  5
7F
330
1F
100
AcDbEntity
  8
0
  6
Continuous
 62
     7
370
    15
100
AcDbLine
 10
157.4005319667
 20
176.3509059228
 30
0.0
 11
297.4005325628
 21
176.3509059228
 31
0.0
  0
LINE
  5
80
330
1F
100
AcDbEntity
  8
0
  6
Continuous
 62
     7
370
    15
100
AcDbLine
 10
297.4005325628
 20
174.9509045758
 30
0.0
 11
347.9005343211
 21
174.9509045758
 31
0.0
  0
LINE
  5
81
330
1F
100
AcDbEntity
  8
0
  6
Continuous
 62
     7
370
    15
100
AcDbLine
 10
347.9005343211
 20
314.9509051718
 30
0.0
 11
297.4005325628
 21
314.9509051718
 31
0.0
  0
LINE
  5
82
330
1F
100
AcDbEntity
  8
0
  6
Continuous
 62
     7
370
    15
100
AcDbLine
 10
313.4005333227
 20
224.9509053208
 30
0.0
 11
344.4005309534
 21
224.9509053208
 31
0.0
  0
LINE
  5
83
330
1F
100
AcDbEntity
  8
0
  6
Continuous
 62
     7
370
    15
100
AcDbLine
 10
344.4005309534
 20
264.9509044267
 30
0.0
 11
313.4005333227
 21
264.9509044267
 31
0.0
  0
LINE
  5
84
330
1F
100
AcDbEntity
  8
0
  6
Continuous
 62
     7
370
    15
100
AcDbLine
 10
344.4005309534
 20
272.3486324676
 30
0.0
 11
340.9005313111
 21
271.9509055741
 31
0.0
  0
LINE
  5
85
330
1F
100
AcDbEntity
  8
0
  6
Continuous
 62
     7
370
    15
100
AcDbLine
 10
340.9005313111
 20
217.9509041734
 30
0.0
 11
344.4005309534
 21
217.55317728
 31
0.0
  0
LINE
  5
86
330
1F
100
AcDbEntity
  8
0
  6
Continuous
 62
     7
370
    15
100
AcDbLine
 10
313.4005333227
 20
307.6429286875
 30
0.0
 11
344.4005309534
 21
307.6429286875
 31
0.0
  0
LINE
  5
87
330
1F
100
AcDbEntity
  8
0
  6
Continuous
 62
     7
370
    15
100
AcDbLine
 10
344.4005309534
 20
182.2588810601
 30
0.0
 11
313.4005333227
 21
182.2588810601
 31
0.0
  0
ARC
  5
88
330
1F
100
AcDbEntity
  8
0
  6
Continuous
 62
     7
370
    15
100
AcDbCircle
 10
347.9005325628
 20
311.9509048738
 30
0.0
 40
3.000000000001473
100
AcDbArc
 50
12.8395884068
 51
90.0
  0
ARC
  5
89
330
1F
100
AcDbEntity
  8
0
  6
Continuous
 62
     7
370
    15
100
AcDbCircle
 10
347.9005325628
 20
177.9509048738
 30
0.0
 40
3.000000000002906
100
AcDbArc
 50
270.0
 51
347.1604115933
  0
ARC
  5
8A
330
1F
100
AcDbEntity
  8
0
  6
Continuous
 62
     7
370
    15
100
AcDbCircle
 10
352.2880147565
 20
312.9509048738
 30
0.0
 40
1.500000000000057
100
AcDbArc
 50
192.8395884071
 51
270.0
  0
ARC
  5
8B
330
1F
100
AcDbEntity
  8
0
  6
Continuous
 62
     7
370
    15
100
AcDbCircle
 10
352.2880147565
 20
176.9509048738
 30
0.0
 40
1.5
100
AcDbArc
 50
90.0
 51
167.1604115926
  0
LINE
  5
8C
330
1F
100
AcDbEntity
  8
0
  6
Continuous
 62
     7
370
    15
100
AcDbLine
 10
352.4005322647
 20
311.4509055294
 30
0.0
 11
352.2880135966
 21
311.4509055294
 31
0.0
  0
LINE
  5
8D
330
1F
100
AcDbEntity
  8
0
  6
Continuous
 62
     7
370
    15
100
AcDbLine
 10
352.2880135966
 20
178.4509042181
 30
0.0
 11
352.4005322647
 21
178.4509042181
 31
0.0
  0
LINE
  5
8E
330
1F
100
AcDbEntity
  8
0
  6
Continuous
 62
     7
370
    15
100
AcDbLine
 10
329.8371306551
 20
295.2508920707
 30
0.0
 11
340.9005313111
 21
267.7023554124
 31
0.0
  0
LINE
  5
8F
330
1F
100
AcDbEntity
  8
0
  6
Continuous
 62
     7
370
    15
100
AcDbLine
 10
325.7943673921
 20
299.9509045758
 30
0.0
 11
327.9812003416
 21
294.5055583395
 31
0.0
  0
LWPOLYLINE
  5
90
330
1F
100
AcDbEntity
  8
0
  6
Continuous
 62
     7
370
    15
100
AcDbPolyline
 90
       22
 70
   128
 43
0.0
 10
212.4005316687
 20
208.5442053057
 10
212.2198178363
 20
208.8752569534
 10
211.6842104984
 20
209.1943429686
 10
210.8130662632
 20
209.4899298527
 10
209.6378712845
 20
209.7513409235
 10
208.2011013222
 20
209.969117669
 10
206.5546794725
 20
210.1353960015
 10
204.7581209731
 20
210.2441670276
 10
202.8763501835
 20
210.2914931156
 10
200.9773834539
 20
210.2756718077
 10
199.1298555327
 20
210.1972656228
 10
197.4005310726
 20
210.0591169574
 10
195.8519278956
 20
209.8662139751
 10
194.5399998617
 20
209.6255304195
 10
193.5121773672
 20
209.3457648434
 10
192.8056015563
 20
209.0370314099
 10
192.4458130193
 20
208.7104836382
 10
192.4458130193
 20
208.3779269733
 10
192.8056015563
 20
208.0513792016
 10
193.5121773672
 20
207.7426420428
 10
194.5399998617
 20
207.4628764667
 10
195.3720807028
 20
207.2998726644
  0
LWPOLYLINE
  5
91
330
1F
100
AcDbEntity
  8
0
  6
Continuous
 62
     7
370
    15
100
AcDbPolyline
 90
        6
 70
   128
 43
0.0
 10
209.4065754605
 20
207.2960095383
 10
209.6378712845
 20
207.337069688
 10
210.8130662632
 20
207.5984770335
 10
211.6842104984
 20
207.8940639176
 10
212.2198178363
 20
208.2131536581
 10
212.4005316687
 20
208.5442053057
  0
LWPOLYLINE
  5
92
330
1F
100
AcDbEntity
  8
0
  6
Continuous
 62
     7
370
    15
100
AcDbPolyline
 90
       18
 70
   128
 43
0.0
 10
212.4005316687
 20
211.4979470052
 10
212.2198178363
 20
211.8289986529
 10
211.6842104984
 20
212.1480883934
 10
210.8130662632
 20
212.4436752774
 10
209.6378712845
 20
212.7050826229
 10
208.2011013222
 20
212.9228630938
 10
206.5546794725
 20
213.0891414263
 10
204.7581209731
 20
213.1979087271
 10
202.8763501835
 20
213.2452385403
 10
200.9773834539
 20
213.2294135072
 10
199.1298555327
 20
213.1510110475
 10
197.4005310726
 20
213.0128623821
 10
195.8519278956
 20
212.8199593999
 10
194.5399998617
 20
212.5792758443
 10
193.5121773672
 20
212.2995102681
 10
192.8056015563
 20
211.9907731094
 10
192.4458130193
 20
211.6642253377
 10
192.400535841
 20
211.4979470052
  0
LWPOLYLINE
  5
93
330
1F
100
AcDbEntity
  8
0
  6
Continuous
 62
     7
370
    15
100
AcDbPolyline
 90
       12
 70
   128
 43
0.0
 10
206.800533731
 20
203.6212975063
 10
206.622300942
 20
203.838139204
 10
206.1020492506
 20
204.0374161579
 10
205.2819191408
 20
204.2029829599
 10
204.228362341
 20
204.3214211144
 10
203.0267178011
 20
204.383141724
 10
201.7743497086
 20
204.383141724
 10
200.5727051687
 20
204.3214211144
 10
199.5191483689
 20
204.2029829599
 10
198.6990182591
 20
204.0374161579
 10
198.1787665677
 20
203.838139204
 10
198.0005337787
 20
203.6212975063
  0
LWPOLYLINE
  5
94
330
1F
100
AcDbEntity
  8
0
  6
Continuous
 62
     7
370
    15
100
AcDbPolyline
 90
       23
 70
   128
 43
0.0
 10
206.800533731
 20
198.6983897068
 10
206.622300942
 20
198.9152351298
 10
206.1020492506
 20
199.1145083584
 10
205.2819191408
 20
199.2800751604
 10
204.228362341
 20
199.3985133149
 10
203.0267178011
 20
199.4602339246
 10
201.7743497086
 20
199.4602339246
 10
200.5727051687
 20
199.3985133149
 10
199.5191483689
 20
199.2800751604
 10
198.6990182591
 20
199.1145083584
 10
198.1787665677
 20
198.9152351298
 10
198.0005337787
 20
198.6983897068
 10
198.1787665677
 20
198.4815480091
 10
198.6990182591
 20
198.2822710552
 10
199.5191483689
 20
198.1167042531
 10
200.5727051687
 20
197.9982660987
 10
201.7743497086
 20
197.936545489
 10
203.0267178011
 20
197.936545489
 10
204.228362341
 20
197.9982660987
 10
205.2819191408
 20
198.1167042531
 10
206.1020492506
 20
198.2822710552
 10
206.622300942
 20
198.4815480091
 10
206.800533731
 20
198.6983897068
  0
LINE
  5
95
330
1F
100
AcDbEntity
  8
0
  6
Continuous
 62
     7
370
    15
100
AcDbLine
 10
223.0005322886
 20
260.2681549169
 30
0.0
 11
223.0005322886
 21
219.7886681088
 31
0.0
  0
LINE
  5
96
330
1F
100
AcDbEntity
  8
0
  6
Continuous
 62
     7
370
    15
100
AcDbLine
 10
165.8005251479
 20
219.7886681088
 30
0.0
 11
165.8005251479
 21
260.2681549169
 31
0.0
  0
LWPOLYLINE
  5
97
330
1F
100
AcDbEntity
  8
0
  6
Continuous
 62
     7
370
    15
100
AcDbPolyline
 90
       28
 70
   128
 43
0.0
 10
186.9005321455
 20
211.4979470052
 10
186.7253242922
 20
211.2357312717
 10
186.2091480685
 20
210.9876530148
 10
185.3798239422
 20
210.7670823015
 10
184.2820628476
 20
210.5859139838
 10
182.975052197
 20
210.4539120473
 10
181.5292446804
 20
210.378195522
 10
180.0225882721
 20
210.362847326
 10
178.5363092017
 20
210.4086907484
 10
177.150531013
 20
210.5132559218
 10
175.9399606776
 20
210.6709064819
 10
174.9698652816
 20
210.8731413163
 10
174.2925329995
 20
211.1090639509
 10
173.9444865775
 20
211.3659487941
 10
173.9444865775
 20
211.6299489416
 10
174.2925329995
 20
211.8868337848
 10
174.9698652816
 20
212.1227526941
 10
175.9399606776
 20
212.3249912538
 10
177.150531013
 20
212.4826418139
 10
178.5363092017
 20
212.5872069873
 10
180.0225882721
 20
212.6330504097
 10
181.5292446804
 20
212.6177022137
 10
182.975052197
 20
212.5419856884
 10
184.2820628476
 20
212.4099837519
 10
185.3798239422
 20
212.2288154342
 10
186.2091480685
 20
212.0082447209
 10
186.7253242922
 20
211.7601627387
 10
186.9005321455
 20
211.4979470052
  0
LINE
  5
98
330
1F
100
AcDbEntity
  8
0
  6
Continuous
 62
     7
370
    15
100
AcDbLine
 10
223.0005322886
 20
219.7886681088
 30
0.0
 11
223.0005322886
 21
215.1505792417
 31
0.0
  0
LWPOLYLINE
  5
99
330
1F
100
AcDbEntity
  8
0
  6
Continuous
 62
     7
370
    15
100
AcDbPolyline
 90
        3
 70
   128
 43
0.0
 10
165.8005251479
 20
215.1505792417
 10
166.0630091024
 20
213.2223578073
 10
166.202841599
 20
212.7819539882
  0
LINE
  5
9A
330
1F
100
AcDbEntity
  8
0
  6
Continuous
 62
     7
370
    15
100
AcDbLine
 10
165.8005251479
 20
215.1505792417
 30
0.0
 11
165.8005251479
 21
219.7886681088
 31
0.0
  0
ARC
  5
9B
330
1F
100
AcDbEntity
  8
0
  6
Continuous
 62
     7
370
    15
100
AcDbCircle
 10
194.4005361688
 20
258.0628214985
 30
0.0
 40
4.641680039442875
100
AcDbArc
 50
178.0086177875
 51
1.9913822125
  0
ARC
  5
9C
330
1F
100
AcDbEntity
  8
0
  6
Continuous
 62
     7
370
    15
100
AcDbCircle
 10
194.4005324435
 20
258.162805663
 30
0.0
 40
3.500241624587679
100
AcDbArc
 50
180.6737252808
 51
359.3262747192
  0
ARC
  5
9D
330
1F
100
AcDbEntity
  8
0
  6
Continuous
 62
     7
370
    15
100
AcDbCircle
 10
197.999400853
 20
263.4030604695
 30
0.0
 40
5.282337572052832
100
AcDbArc
 50
268.9275403543
 51
281.3548506067
  0
ARC
  5
9E
330
1F
100
AcDbEntity
  8
0
  6
Continuous
 62
     7
370
    15
100
AcDbCircle
 10
190.8016556991
 20
263.4028922111
 30
0.0
 40
5.282169499146473
100
AcDbArc
 50
258.6449579326
 51
271.0725841989
  0
CIRCLE
  5
9F
330
1F
100
AcDbEntity
  8
0
  6
Continuous
 62
     7
370
    15
100
AcDbCircle
 10
194.4240802654
 20
258.112116638
 30
0.0
 40
2.376474666531443
  0
ARC
  5
A0
330
1F
100
AcDbEntity
  8
0
  6
Continuous
 62
     7
370
    15
100
AcDbCircle
 10
194.4005324435
 20
257.9858525862
 30
0.0
 40
2.400853457604118
100
AcDbArc
 50
1.9887506657
 51
178.0112493343
  0
LWPOLYLINE
  5
A1
330
1F
100
AcDbEntity
  8
0
  6
Continuous
 62
     7
370
    15
100
AcDbPolyline
 90
       13
 70
   128
 43
0.0
 10
186.6773798061
 20
211.7933215477
 10
186.2091480685
 20
211.5784020998
 10
185.3798239422
 20
211.3578313865
 10
184.2820628476
 20
211.1766630687
 10
182.975052197
 20
211.0446611323
 10
181.5292446804
 20
210.968944607
 10
180.0225882721
 20
210.9535926856
 10
178.5363092017
 20
210.999436108
 10
177.150531013
 20
211.1040050067
 10
175.9399606776
 20
211.2616555669
 10
174.9698652816
 20
211.4638904013
 10
174.2925329995
 20
211.6998093106
 10
174.1236879421
 20
211.7933215477
  0
LINE
  5
A2
330
1F
100
AcDbEntity
  8
0
  6
Continuous
 62
     7
370
    15
100
AcDbLine
 10
224.4005336356
 20
257.5117800288
 30
0.0
 11
224.4005336356
 21
216.1187393494
 31
0.0
  0
LINE
  5
A3
330
1F
100
AcDbEntity
  8
0
  6
Continuous
 62
     7
370
    15
100
AcDbLine
 10
164.4005312515
 20
257.5117800288
 30
0.0
 11
164.4005312515
 21
216.1187393494
 31
0.0
  0
ARC
  5
A4
330
1F
100
AcDbEntity
  8
0
  6
Continuous
 62
     7
370
    15
100
AcDbCircle
 10
169.8907127123
 20
258.092214509
 30
0.0
 40
5.495032350277421
100
AcDbArc
 50
132.8517772643
 51
182.4076599388
  0
ARC
  5
A5
330
1F
100
AcDbEntity
  8
0
  6
Continuous
 62
     7
370
    15
100
AcDbCircle
 10
219.0129624041
 20
258.2020146201
 30
0.0
 40
5.398329451352041
100
AcDbArc
 50
356.3821521727
 51
48.8145939533
  0
LINE
  5
A6
330
1F
100
AcDbEntity
  8
0
  6
Continuous
 62
     7
370
    15
100
AcDbLine
 10
164.4005312515
 20
257.8613724463
 30
0.0
 11
164.4005312515
 21
257.5117800288
 31
0.0
  0
LINE
  5
A7
330
1F
100
AcDbEntity
  8
0
  6
Continuous
 62
     7
370
    15
100
AcDbLine
 10
224.4005336356
 20
257.8613724463
 30
0.0
 11
224.4005336356
 21
257.5117800288
 31
0.0
  0
LINE
  5
A8
330
1F
100
AcDbEntity
  8
0
  6
Continuous
 62
     7
370
    15
100
AcDbLine
 10
164.4005312515
 20
216.1187393494
 30
0.0
 11
164.4005312515
 21
212.9093887188
 31
0.0
  0
LINE
  5
A9
330
1F
100
AcDbEntity
  8
0
  6
Continuous
 62
     7
370
    15
100
AcDbLine
 10
224.4005336356
 20
216.1187393494
 30
0.0
 11
224.4005336356
 21
212.9093887188
 31
0.0
  0
LWPOLYLINE
  5
AA
330
1F
100
AcDbEntity
  8
0
  6
Continuous
 62
     7
370
    15
100
AcDbPolyline
 90
        3
 70
   128
 43
0.0
 10
223.7047686172
 20
210.1890960612
 10
224.2265253258
 20
211.5126283743
 10
224.4005336356
 20
212.9093887188
  0
LWPOLYLINE
  5
AB
330
1F
100
AcDbEntity
  8
0
  6
Continuous
 62
     7
370
    15
100
AcDbPolyline
 90
        3
 70
   128
 43
0.0
 10
164.4005312515
 20
212.9093887188
 10
164.7913887096
 20
210.8399862327
 10
165.0962962699
 20
210.1890960612
  0
ARC
  5
AC
330
1F
100
AcDbEntity
  8
0
  6
Continuous
 62
     7
370
    15
100
AcDbCircle
 10
217.6909661709
 20
213.753542772
 30
0.0
 40
6.990786809624749
100
AcDbArc
 50
267.6189649937
 51
329.3443123377
  0
ARC
  5
AD
330
1F
100
AcDbEntity
  8
0
  6
Continuous
 62
     7
370
    15
100
AcDbCircle
 10
171.1618962932
 20
213.8490149906
 30
0.0
 40
7.084243799637602
100
AcDbArc
 50
211.1063370965
 51
271.9303855721
  0
LINE
  5
AE
330
1F
100
AcDbEntity
  8
0
  6
Continuous
 62
     7
370
    15
100
AcDbLine
 10
217.4005343509
 20
206.7687915541
 30
0.0
 11
208.9440955711
 21
206.7687915541
 31
0.0
  0
LINE
  5
AF
330
1F
100
AcDbEntity
  8
0
  6
Continuous
 62
     7
370
    15
100
AcDbLine
 10
195.853127439
 20
206.7687915541
 30
0.0
 11
171.4005305362
 21
206.7687915541
 31
0.0
  0
LINE
  5
B0
330
1F
100
AcDbEntity
  8
0
  6
Continuous
 62
     7
370
    15
100
AcDbLine
 10
182.4005304766
 20
371.4868420638
 30
0.0
 11
182.4005304766
 21
323.4868490972
 31
0.0
  0
LINE
  5
B1
330
1F
100
AcDbEntity
  8
0
  6
Continuous
 62
     7
370
    15
100
AcDbLine
 10
242.4005328608
 20
371.4868420638
 30
0.0
 11
242.4005328608
 21
323.4868490972
 31
0.0
  0
LINE
  5
B2
330
1F
100
AcDbEntity
  8
0
  6
Continuous
 62
     7
370
    15
100
AcDbLine
 10
277.4005330098
 20
369.9868464746
 30
0.0
 11
277.4005330098
 21
324.986852137
 31
0.0
  0
LINE
  5
B3
330
1F
100
AcDbEntity
  8
0
  6
Continuous
 62
     7
370
    15
100
AcDbLine
 10
217.4005343509
 20
325.1931959667
 30
0.0
 11
217.4005343509
 21
371.9368422307
 31
0.0
  0
LINE
  5
B4
330
1F
100
AcDbEntity
  8
0
  6
Continuous
 62
     7
370
    15
100
AcDbLine
 10
237.4005339039
 20
325.1931959667
 30
0.0
 11
237.4005339039
 21
371.9368422307
 31
0.0
  0
LINE
  5
B5
330
1F
100
AcDbEntity
  8
0
  6
Continuous
 62
     7
370
    15
100
AcDbLine
 10
229.8005356384
 20
305.0796272136
 30
0.0
 11
237.4005339039
 21
305.0796272136
 31
0.0
  0
LINE
  5
B6
330
1F
100
AcDbEntity
  8
0
  6
Continuous
 62
     7
370
    15
100
AcDbLine
 10
229.8005356384
 20
305.0796272136
 30
0.0
 11
229.8005356384
 21
307.9884866156
 31
0.0
  0
LWPOLYLINE
  5
B7
330
1F
100
AcDbEntity
  8
0
  6
Continuous
 62
     7
370
    15
100
AcDbPolyline
 90
        9
 70
   128
 43
0.0
 10
229.8005356384
 20
307.9884866156
 10
229.6178399515
 20
308.4337556638
 10
229.0975882602
 20
308.8112318792
 10
228.3189727855
 20
309.0634563841
 10
227.4005322647
 20
309.1520288863
 10
226.482091744
 20
309.0634563841
 10
225.7034762693
 20
308.8112318792
 10
225.1832245779
 20
308.4337556638
 10
225.0005288911
 20
307.9884866156
  0
LINE
  5
B8
330
1F
100
AcDbEntity
  8
0
  6
Continuous
 62
     7
370
    15
100
AcDbLine
 10
225.0005288911
 20
307.9884866156
 30
0.0
 11
225.0005288911
 21
305.0796272136
 31
0.0
  0
LINE
  5
B9
330
1F
100
AcDbEntity
  8
0
  6
Continuous
 62
     7
370
    15
100
AcDbLine
 10
217.4005343509
 20
305.0796272136
 30
0.0
 11
225.0005288911
 21
305.0796272136
 31
0.0
  0
LINE
  5
BA
330
1F
100
AcDbEntity
  8
0
  6
Continuous
 62
     7
370
    15
100
AcDbLine
 10
217.4005343509
 20
305.0796272136
 30
0.0
 11
217.4005343509
 21
311.1880266942
 31
0.0
  0
LINE
  5
BB
330
1F
100
AcDbEntity
  8
0
  6
Continuous
 62
     7
370
    15
100
AcDbLine
 10
237.4005339039
 20
305.0796272136
 30
0.0
 11
237.4005339039
 21
311.1880266942
 31
0.0
  0
LINE
  5
BC
330
1F
100
AcDbEntity
  8
0
  6
Continuous
 62
     7
370
    15
100
AcDbLine
 10
229.8005356384
 20
304.0300862767
 30
0.0
 11
237.4005339039
 21
304.0300862767
 31
0.0
  0
LINE
  5
BD
330
1F
100
AcDbEntity
  8
0
  6
Continuous
 62
     7
370
    15
100
AcDbLine
 10
229.8005356384
 20
305.0796272136
 30
0.0
 11
229.8005356384
 21
304.0300862767
 31
0.0
  0
LINE
  5
BE
330
1F
100
AcDbEntity
  8
0
  6
Continuous
 62
     7
370
    15
100
AcDbLine
 10
237.4005339039
 20
304.0300862767
 30
0.0
 11
237.4005339039
 21
305.0796272136
 31
0.0
  0
LINE
  5
BF
330
1F
100
AcDbEntity
  8
0
  6
Continuous
 62
     7
370
    15
100
AcDbLine
 10
217.4005343509
 20
304.0300862767
 30
0.0
 11
225.0005288911
 21
304.0300862767
 31
0.0
  0
LINE
  5
C0
330
1F
100
AcDbEntity
  8
0
  6
Continuous
 62
     7
370
    15
100
AcDbLine
 10
225.0005288911
 20
304.0300862767
 30
0.0
 11
225.0005288911
 21
305.0796272136
 31
0.0
  0
LINE
  5
C1
330
1F
100
AcDbEntity
  8
0
  6
Continuous
 62
     7
370
    15
100
AcDbLine
 10
217.4005343509
 20
304.0300862767
 30
0.0
 11
217.4005343509
 21
305.0796272136
 31
0.0
  0
LWPOLYLINE
  5
C2
330
1F
100
AcDbEntity
  8
0
  6
Continuous
 62
     7
370
    15
100
AcDbPolyline
 90
        9
 70
   128
 43
0.0
 10
229.8005356384
 20
306.9389419534
 10
229.6178399515
 20
307.3842110016
 10
229.0975882602
 20
307.7616909422
 10
228.3189727855
 20
308.0139154472
 10
227.4005322647
 20
308.1024879493
 10
226.482091744
 20
308.0139154472
 10
225.7034762693
 20
307.7616909422
 10
225.1832245779
 20
307.3842110016
 10
225.0005288911
 20
306.9389419534
  0
LINE
  5
C3
330
1F
100
AcDbEntity
  8
0
  6
Continuous
 62
     7
370
    15
100
AcDbLine
 10
217.4005343509
 20
323.6824566402
 30
0.0
 11
217.4005343509
 21
325.1931959667
 31
0.0
  0
LINE
  5
C4
330
1F
100
AcDbEntity
  8
0
  6
Continuous
 62
     7
370
    15
100
AcDbLine
 10
237.4005339039
 20
325.1931959667
 30
0.0
 11
237.4005339039
 21
323.6824566402
 31
0.0
  0
ARC
  5
C5
330
1F
100
AcDbEntity
  8
0
  6
Continuous
 62
     7
370
    15
100
AcDbCircle
 10
227.4005322647
 20
316.9123875285
 30
0.0
 40
2.400122662240325
100
AcDbArc
 50
180.5712447382
 51
359.4287552618
  0
LINE
  5
C6
330
1F
100
AcDbEntity
  8
0
  6
Continuous
 62
     7
370
    15
100
AcDbLine
 10
229.8005356384
 20
318.863830892
 30
0.0
 11
229.8005356384
 21
316.8884584584
 31
0.0
  0
ARC
  5
C7
330
1F
100
AcDbEntity
  8
0
  6
Continuous
 62
     7
370
    15
100
AcDbCircle
 10
227.4005322647
 20
318.8399018219
 30
0.0
 40
2.400122662240326
100
AcDbArc
 50
0.5712447382
 51
179.4287552618
  0
LINE
  5
C8
330
1F
100
AcDbEntity
  8
0
  6
Continuous
 62
     7
370
    15
100
AcDbLine
 10
225.0005288911
 20
316.8884584584
 30
0.0
 11
225.0005288911
 21
318.863830892
 31
0.0
  0
LINE
  5
C9
330
1F
100
AcDbEntity
  8
0
  6
Continuous
 62
     7
370
    15
100
AcDbLine
 10
217.4005343509
 20
313.2501387872
 30
0.0
 11
217.4005343509
 21
323.6824566402
 31
0.0
  0
LINE
  5
CA
330
1F
100
AcDbEntity
  8
0
  6
Continuous
 62
     7
370
    15
100
AcDbLine
 10
237.4005339039
 20
313.2501387872
 30
0.0
 11
237.4005339039
 21
323.6824566402
 31
0.0
  0
LINE
  5
CB
330
1F
100
AcDbEntity
  8
0
  6
Continuous
 62
     7
370
    15
100
AcDbLine
 10
217.4005343509
 20
311.1880266942
 30
0.0
 11
217.4005343509
 21
313.2501387872
 31
0.0
  0
LINE
  5
CC
330
1F
100
AcDbEntity
  8
0
  6
Continuous
 62
     7
370
    15
100
AcDbLine
 10
237.4005339039
 20
313.2501387872
 30
0.0
 11
237.4005339039
 21
311.1880266942
 31
0.0
  0
ARC
  5
CD
330
1F
100
AcDbEntity
  8
0
  6
Continuous
 62
     7
370
    15
100
AcDbCircle
 10
227.4005322647
 20
317.1001074213
 30
0.0
 40
2.400122687312865
100
AcDbArc
 50
180.5713047657
 51
359.4286952343
  0
ARC
  5
CE
330
1F
100
AcDbEntity
  8
0
  6
Continuous
 62
     7
370
    15
100
AcDbCircle
 10
227.4005322647
 20
320.6464745387
 30
0.0
 40
2.408943789061758
100
AcDbArc
 50
202.1630226289
 51
337.8369773711
  0
ARC
  5
CF
330
1F
100
AcDbEntity
  8
0
  6
Continuous
 62
     7
370
    15
100
AcDbCircle
 10
227.4005322647
 20
320.8353934803
 30
0.0
 40
2.409906153554994
100
AcDbArc
 50
204.6163159355
 51
335.3836840645
  0
LWPOLYLINE
  5
D0
330
1F
100
AcDbEntity
  8
0
  6
Continuous
 62
     7
370
    15
100
AcDbPolyline
 90
        3
 70
   128
 43
0.0
 10
332.0324516785
 20
315.8674606957
 10
330.8216541004
 20
315.3897592701
 10
329.9715614808
 20
314.9509051718
  0
ARC
  5
D1
330
1F
100
AcDbEntity
  8
0
  6
Continuous
 62
     7
370
    15
100
AcDbCircle
 10
334.1660951101
 20
311.4704516939
 30
0.0
 40
4.887343087514236
100
AcDbArc
 50
68.543494663
 51
115.8849256083
  0
LINE
  5
D2
330
1F
100
AcDbEntity
  8
0
  6
Continuous
 62
     7
370
    15
100
AcDbLine
 10
335.5589083326
 20
317.8449043907
 30
0.0
 11
328.5059950245
 21
315.5183637418
 31
0.0
  0
LINE
  5
D3
330
1F
100
AcDbEntity
  8
0
  6
Continuous
 62
     7
370
    15
100
AcDbLine
 10
338.0700408411
 20
316.7171398081
 30
0.0
 11
335.5589083326
 21
317.8449043907
 31
0.0
  0
LINE
  5
D4
330
1F
100
AcDbEntity
  8
0
  6
Continuous
 62
     7
370
    15
100
AcDbLine
 10
328.5059950245
 20
315.5183637418
 30
0.0
 11
327.994236995
 21
314.9509051718
 31
0.0
  0
LINE
  5
D5
330
1F
100
AcDbEntity
  8
0
  6
Continuous
 62
     7
370
    15
100
AcDbLine
 10
323.6370704067
 20
314.9509051718
 30
0.0
 11
321.2173174066
 21
320.976234404
 31
0.0
  0
LINE
  5
D6
330
1F
100
AcDbEntity
  8
0
  6
Continuous
 62
     7
370
    15
100
AcDbLine
 10
324.7437740606
 20
324.8865226187
 30
0.0
 11
321.2173174066
 21
320.976234404
 31
0.0
  0
LINE
  5
D7
330
1F
100
AcDbEntity
  8
0
  6
Continuous
 62
     7
370
    15
100
AcDbLine
 10
328.5059950245
 20
315.5183637418
 30
0.0
 11
324.7437740606
 21
324.8865226187
 31
0.0
  0
LINE
  5
D8
330
1F
100
AcDbEntity
  8
0
  6
Continuous
 62
     7
370
    15
100
AcDbLine
 10
331.7966855061
 20
327.2130632676
 30
0.0
 11
324.7437740606
 21
324.8865226187
 31
0.0
  0
LINE
  5
D9
330
1F
100
AcDbEntity
  8
0
  6
Continuous
 62
     7
370
    15
100
AcDbLine
 10
335.5589083326
 20
317.8449043907
 30
0.0
 11
331.7966855061
 21
327.2130632676
 31
0.0
  0
LINE
  5
DA
330
1F
100
AcDbEntity
  8
0
  6
Continuous
 62
     7
370
    15
100
AcDbLine
 10
335.3231421602
 20
325.6293082513
 30
0.0
 11
331.7966855061
 21
327.2130632676
 31
0.0
  0
LINE
  5
DB
330
1F
100
AcDbEntity
  8
0
  6
Continuous
 62
     7
370
    15
100
AcDbLine
 10
338.8048953307
 20
316.9595444478
 30
0.0
 11
335.3231421602
 21
325.6293082513
 31
0.0
  0
LINE
  5
DC
330
1F
100
AcDbEntity
  8
0
  6
Continuous
 62
     7
370
    15
100
AcDbLine
 10
320.5332777393
 20
322.679533986
 30
0.0
 11
324.0597343934
 21
326.5898222007
 31
0.0
  0
LINE
  5
DD
330
1F
100
AcDbEntity
  8
0
  6
Continuous
 62
     7
370
    15
100
AcDbLine
 10
324.0597343934
 20
326.5898222007
 30
0.0
 11
331.1126477015
 21
328.9163628496
 31
0.0
  0
LINE
  5
DE
330
1F
100
AcDbEntity
  8
0
  6
Continuous
 62
     7
370
    15
100
AcDbLine
 10
331.1126477015
 20
328.9163628496
 30
0.0
 11
334.6391043556
 21
327.3326152839
 31
0.0
  0
LINE
  5
DF
330
1F
100
AcDbEntity
  8
0
  6
Continuous
 62
     7
370
    15
100
AcDbLine
 10
334.6391043556
 20
327.3326152839
 30
0.0
 11
333.7429932249
 21
326.3389686026
 31
0.0
  0
LINE
  5
E0
330
1F
100
AcDbEntity
  8
0
  6
Continuous
 62
     7
370
    15
100
AcDbLine
 10
322.1134285373
 20
321.9698810853
 30
0.0
 11
320.5332777393
 21
322.679533986
 31
0.0
  0
LWPOLYLINE
  5
E1
330
1F
100
AcDbEntity
  8
0
  6
Continuous
 62
     7
370
    15
100
AcDbPolyline
 90
       11
 70
   128
 43
0.0
 10
323.8354607415
 20
323.879345683
 10
323.9216602338
 20
324.1734275498
 10
324.330998857
 20
324.7775206246
 10
325.0295764697
 20
325.4019314327
 10
325.9553204221
 20
325.9911680497
 10
327.0259744418
 20
326.4928677954
 10
328.1464057905
 20
326.8624612965
 10
329.2170598102
 20
327.0671138443
 10
330.1428018999
 20
327.0886236705
 10
330.8413795126
 20
326.9250983276
 10
330.8755106223
 20
326.909191338
  0
LINE
  5
E2
330
1F
100
AcDbEntity
  8
0
  6
Continuous
 62
     7
370
    15
100
AcDbLine
 10
322.007613529
 20
331.6997283973
 30
0.0
 11
318.4811568749
 21
327.7894401826
 31
0.0
  0
LINE
  5
E3
330
1F
100
AcDbEntity
  8
0
  6
Continuous
 62
     7
370
    15
100
AcDbLine
 10
324.0597343934
 20
326.5898222007
 30
0.0
 11
322.007613529
 21
331.6997283973
 31
0.0
  0
LINE
  5
E4
330
1F
100
AcDbEntity
  8
0
  6
Continuous
 62
     7
370
    15
100
AcDbLine
 10
320.5332777393
 20
322.679533986
 30
0.0
 11
318.4811568749
 21
327.7894401826
 31
0.0
  0
LINE
  5
E5
330
1F
100
AcDbEntity
  8
0
  6
Continuous
 62
     7
370
    15
100
AcDbLine
 10
329.0605268371
 20
334.0262690462
 30
0.0
 11
322.007613529
 21
331.6997283973
 31
0.0
  0
LINE
  5
E6
330
1F
100
AcDbEntity
  8
0
  6
Continuous
 62
     7
370
    15
100
AcDbLine
 10
331.1126477015
 20
328.9163628496
 30
0.0
 11
329.0605268371
 21
334.0262690462
 31
0.0
  0
LINE
  5
E7
330
1F
100
AcDbEntity
  8
0
  6
Continuous
 62
     7
370
    15
100
AcDbLine
 10
332.5869834912
 20
332.4425140299
 30
0.0
 11
329.0605268371
 21
334.0262690462
 31
0.0
  0
LINE
  5
E8
330
1F
100
AcDbEntity
  8
0
  6
Continuous
 62
     7
370
    15
100
AcDbLine
 10
334.6391043556
 20
327.3326152839
 30
0.0
 11
332.5869834912
 21
332.4425140299
 31
0.0
  0
LINE
  5
E9
330
1F
100
AcDbEntity
  8
0
  6
Continuous
 62
     7
370
    15
100
AcDbLine
 10
394.9005289865
 20
261.7730921038
 30
0.0
 11
394.9005289865
 21
210.2106952943
 31
0.0
  0
LINE
  5
EA
330
1F
100
AcDbEntity
  8
0
  6
Continuous
 62
     7
370
    15
100
AcDbLine
 10
394.9005289865
 20
210.2106952943
 30
0.0
 11
369.9005304766
 21
210.2106952943
 31
0.0
  0
LINE
  5
EB
330
1F
100
AcDbEntity
  8
0
  6
Continuous
 62
     7
370
    15
100
AcDbLine
 10
369.9005304766
 20
247.1448938731
 30
0.0
 11
369.9005304766
 21
214.6400896736
 31
0.0
  0
LINE
  5
EC
330
1F
100
AcDbEntity
  8
0
  6
Continuous
 62
     7
370
    15
100
AcDbLine
 10
394.9005289865
 20
261.7730921038
 30
0.0
 11
369.9005304766
 21
261.7730921038
 31
0.0
  0
LINE
  5
ED
330
1F
100
AcDbEntity
  8
0
  6
Continuous
 62
     7
370
    15
100
AcDbLine
 10
369.9005304766
 20
247.1448938731
 30
0.0
 11
369.9005304766
 21
256.4629580729
 31
0.0
  0
LINE
  5
EE
330
1F
100
AcDbEntity
  8
0
  6
Continuous
 62
     7
370
    15
100
AcDbLine
 10
352.4005322647
 20
256.4629580729
 30
0.0
 11
352.4005322647
 21
233.4388516747
 31
0.0
  0
LINE
  5
EF
330
1F
100
AcDbEntity
  8
0
  6
Continuous
 62
     7
370
    15
100
AcDbLine
 10
369.9005304766
 20
194.4294007398
 30
0.0
 11
369.9005304766
 21
214.6400896736
 31
0.0
  0
LINE
  5
F0
330
1F
100
AcDbEntity
  8
0
  6
Continuous
 62
     7
370
    15
100
AcDbLine
 10
352.4005322647
 20
233.4388516747
 30
0.0
 11
352.4005322647
 21
194.4294007398
 31
0.0
  0
LINE
  5
F1
330
1F
100
AcDbEntity
  8
0
  6
Continuous
 62
     7
370
    15
100
AcDbLine
 10
369.9005304766
 20
256.4629580729
 30
0.0
 11
369.9005304766
 21
295.4724090077
 31
0.0
  0
LINE
  5
F2
330
1F
100
AcDbEntity
  8
0
  6
Continuous
 62
     7
370
    15
100
AcDbLine
 10
352.4005322647
 20
295.4724090077
 30
0.0
 11
352.4005322647
 21
256.4629580729
 31
0.0
  0
LINE
  5
F3
330
1F
100
AcDbEntity
  8
0
  6
Continuous
 62
     7
370
    15
100
AcDbLine
 10
394.9005289865
 20
299.0794772186
 30
0.0
 11
369.9005304766
 21
299.0794772186
 31
0.0
  0
LINE
  5
F4
330
1F
100
AcDbEntity
  8
0
  6
Continuous
 62
     7
370
    15
100
AcDbLine
 10
394.9005289865
 20
299.0794772186
 30
0.0
 11
394.9005289865
 21
261.7730921038
 31
0.0
  0
LINE
  5
F5
330
1F
100
AcDbEntity
  8
0
  6
Continuous
 62
     7
370
    15
100
AcDbLine
 10
382.4005334568
 20
180.4571593084
 30
0.0
 11
376.4005361986
 21
180.4571593084
 31
0.0
  0
LINE
  5
F6
330
1F
100
AcDbEntity
  8
0
  6
Continuous
 62
     7
370
    15
100
AcDbLine
 10
376.4005361986
 20
177.3564511813
 30
0.0
 11
369.9005304766
 21
177.3564511813
 31
0.0
  0
LINE
  5
F7
330
1F
100
AcDbEntity
  8
0
  6
Continuous
 62
     7
370
    15
100
AcDbLine
 10
369.9005304766
 20
183.2767570295
 30
0.0
 11
369.9005304766
 21
177.3564511813
 31
0.0
  0
LINE
  5
F8
330
1F
100
AcDbEntity
  8
0
  6
Continuous
 62
     7
370
    15
100
AcDbLine
 10
386.1115186405
 20
177.3564511813
 30
0.0
 11
382.4005334568
 21
177.3564511813
 31
0.0
  0
LINE
  5
F9
330
1F
100
AcDbEntity
  8
0
  6
Continuous
 62
     7
370
    15
100
AcDbLine
 10
394.9005289865
 20
210.2106952943
 30
0.0
 11
394.9005289865
 21
179.0638038792
 31
0.0
  0
LINE
  5
FA
330
1F
100
AcDbEntity
  8
0
  6
Continuous
 62
     7
370
    15
100
AcDbLine
 10
369.9005304766
 20
186.3115200676
 30
0.0
 11
369.9005304766
 21
194.4294007398
 31
0.0
  0
LINE
  5
FB
330
1F
100
AcDbEntity
  8
0
  6
Continuous
 62
     7
370
    15
100
AcDbLine
 10
352.4005322647
 20
194.4294007398
 30
0.0
 11
352.4005322647
 21
186.3115200676
 31
0.0
  0
LINE
  5
FC
330
1F
100
AcDbEntity
  8
0
  6
Continuous
 62
     7
370
    15
100
AcDbLine
 10
369.9005304766
 20
295.4724090077
 30
0.0
 11
369.9005304766
 21
303.5902896799
 31
0.0
  0
LINE
  5
FD
330
1F
100
AcDbEntity
  8
0
  6
Continuous
 62
     7
370
    15
100
AcDbLine
 10
352.4005322647
 20
303.5902896799
 30
0.0
 11
352.4005322647
 21
295.4724090077
 31
0.0
  0
LINE
  5
FE
330
1F
100
AcDbEntity
  8
0
  6
Continuous
 62
     7
370
    15
100
AcDbLine
 10
332.4518038821
 20
366.9509062447
 30
0.0
 11
372.400535543
 21
366.9509062447
 31
0.0
  0
LINE
  5
FF
330
1F
100
AcDbEntity
  8
0
  6
Continuous
 62
     7
370
    15
100
AcDbLine
 10
372.400535543
 20
382.9509014167
 30
0.0
 11
332.4518038821
 21
382.9509014167
 31
0.0
  0
LINE
  5
100
330
1F
100
AcDbEntity
  8
0
  6
Continuous
 62
     7
370
    15
100
AcDbLine
 10
372.400535543
 20
106.9509083308
 30
0.0
 11
332.4518038821
 21
106.9509083308
 31
0.0
  0
LINE
  5
101
330
1F
100
AcDbEntity
  8
0
  6
Continuous
 62
     7
370
    15
100
AcDbLine
 10
332.4518038821
 20
122.9509035029
 30
0.0
 11
372.400535543
 21
122.9509035029
 31
0.0
  0
LINE
  5
102
330
1F
100
AcDbEntity
  8
0
  6
Continuous
 62
     7
370
    15
100
AcDbLine
 10
412.3492597533
 20
382.9509014167
 30
0.0
 11
372.400535543
 21
382.9509014167
 31
0.0
  0
LINE
  5
103
330
1F
100
AcDbEntity
  8
0
  6
Continuous
 62
     7
370
    15
100
AcDbLine
 10
372.400535543
 20
366.9509062447
 30
0.0
 11
412.3492597533
 21
366.9509062447
 31
0.0
  0
LINE
  5
104
330
1F
100
AcDbEntity
  8
0
  6
Continuous
 62
     7
370
    15
100
AcDbLine
 10
412.3492597533
 20
106.9509083308
 30
0.0
 11
372.400535543
 21
106.9509083308
 31
0.0
  0
LINE
  5
105
330
1F
100
AcDbEntity
  8
0
  6
Continuous
 62
     7
370
    15
100
AcDbLine
 10
372.400535543
 20
122.9509035029
 30
0.0
 11
412.3492597533
 21
122.9509035029
 31
0.0
  0
LINE
  5
106
330
1F
100
AcDbEntity
  8
0
  6
Continuous
 62
     7
370
    15
100
AcDbLine
 10
400.3431781125
 20
274.8005272724
 30
0.0
 11
394.9005289865
 21
299.9799543895
 31
0.0
  0
LINE
  5
107
330
1F
100
AcDbEntity
  8
0
  6
Continuous
 62
     7
370
    15
100
AcDbLine
 10
400.3431781125
 20
229.1154818513
 30
0.0
 11
400.3431781125
 21
274.8005272724
 31
0.0
  0
LWPOLYLINE
  5
108
330
1F
100
AcDbEntity
  8
0
  6
Continuous
 62
     7
370
    15
100
AcDbPolyline
 90
        3
 70
   128
 43
0.0
 10
394.9005289865
 20
195.3709417857
 10
398.7555785966
 20
217.2181060441
 10
400.3431781125
 20
229.1154818513
  0
LINE
  5
109
330
1F
100
AcDbEntity
  8
0
  6
Continuous
 62
     7
370
    15
100
AcDbLine
 10
424.6422781539
 20
382.9509014167
 30
0.0
 11
412.3492597533
 21
382.9509014167
 31
0.0
  0
LINE
  5
10A
330
1F
100
AcDbEntity
  8
0
  6
Continuous
 62
     7
370
    15
100
AcDbLine
 10
412.3492597533
 20
366.9509062447
 30
0.0
 11
424.6422781539
 21
366.9509062447
 31
0.0
  0
LINE
  5
10B
330
1F
100
AcDbEntity
  8
0
  6
Continuous
 62
     7
370
    15
100
AcDbLine
 10
424.6422781539
 20
106.9509083308
 30
0.0
 11
412.3492597533
 21
106.9509083308
 31
0.0
  0
LINE
  5
10C
330
1F
100
AcDbEntity
  8
0
  6
Continuous
 62
     7
370
    15
100
AcDbLine
 10
412.3492597533
 20
122.9509035029
 30
0.0
 11
424.6422781539
 21
122.9509035029
 31
0.0
  0
LINE
  5
10D
330
1F
100
AcDbEntity
  8
0
  6
Continuous
 62
     7
370
    15
100
AcDbLine
 10
332.4518038821
 20
382.9509014167
 30
0.0
 11
320.1587854815
 21
382.9509014167
 31
0.0
  0
LINE
  5
10E
330
1F
100
AcDbEntity
  8
0
  6
Continuous
 62
     7
370
    15
100
AcDbLine
 10
320.1587854815
 20
366.9509062447
 30
0.0
 11
332.4518038821
 21
366.9509062447
 31
0.0
  0
LINE
  5
10F
330
1F
100
AcDbEntity
  8
0
  6
Continuous
 62
     7
370
    15
100
AcDbLine
 10
332.4518038821
 20
106.9509083308
 30
0.0
 11
320.1587854815
 21
106.9509083308
 31
0.0
  0
LINE
  5
110
330
1F
100
AcDbEntity
  8
0
  6
Continuous
 62
     7
370
    15
100
AcDbLine
 10
320.1587854815
 20
122.9509035029
 30
0.0
 11
332.4518038821
 21
122.9509035029
 31
0.0
  0
LINE
  5
111
330
1F
100
AcDbEntity
  8
0
  6
Continuous
 62
     7
370
    15
100
AcDbLine
 10
369.9005304766
 20
183.2767570295
 30
0.0
 11
369.9005304766
 21
186.3115200676
 31
0.0
  0
LINE
  5
112
330
1F
100
AcDbEntity
  8
0
  6
Continuous
 62
     7
370
    15
100
AcDbLine
 10
352.4005322647
 20
186.3115200676
 30
0.0
 11
352.4005322647
 21
179.4549295582
 31
0.0
  0
LINE
  5
113
330
1F
100
AcDbEntity
  8
0
  6
Continuous
 62
     7
370
    15
100
AcDbLine
 10
369.9005304766
 20
303.5902896799
 30
0.0
 11
369.9005304766
 21
310.4468801894
 31
0.0
  0
LINE
  5
114
330
1F
100
AcDbEntity
  8
0
  6
Continuous
 62
     7
370
    15
100
AcDbLine
 10
352.4005322647
 20
310.4468801894
 30
0.0
 11
352.4005322647
 21
303.5902896799
 31
0.0
  0
LINE
  5
115
330
1F
100
AcDbEntity
  8
0
  6
Continuous
 62
     7
370
    15
100
AcDbLine
 10
379.4005348277
 20
362.8191420712
 30
0.0
 11
379.4005348277
 21
366.9509062447
 31
0.0
  0
LINE
  5
116
330
1F
100
AcDbEntity
  8
0
  6
Continuous
 62
     7
370
    15
100
AcDbLine
 10
385.4005320859
 20
366.9509062447
 30
0.0
 11
385.4005320859
 21
362.8191420712
 31
0.0
  0
LINE
  5
117
330
1F
100
AcDbEntity
  8
0
  6
Continuous
 62
     7
370
    15
100
AcDbLine
 10
332.4005327118
 20
384.9509054698
 30
0.0
 11
412.4005346489
 21
384.9509054698
 31
0.0
  0
LINE
  5
118
330
1F
100
AcDbEntity
  8
0
  6
Continuous
 62
     7
370
    15
100
AcDbLine
 10
332.4005327118
 20
104.9509042777
 30
0.0
 11
412.4005346489
 21
104.9509042777
 31
0.0
  0
LINE
  5
119
330
1F
100
AcDbEntity
  8
0
  6
Continuous
 62
     7
370
    15
100
AcDbLine
 10
429.9016429973
 20
382.9509014167
 30
0.0
 11
424.6422781539
 21
382.9509014167
 31
0.0
  0
LINE
  5
11A
330
1F
100
AcDbEntity
  8
0
  6
Continuous
 62
     7
370
    15
100
AcDbLine
 10
424.6422781539
 20
366.9509062447
 30
0.0
 11
429.9016429973
 21
366.9509062447
 31
0.0
  0
LINE
  5
11B
330
1F
100
AcDbEntity
  8
0
  6
Continuous
 62
     7
370
    15
100
AcDbLine
 10
429.9016429973
 20
106.9509083308
 30
0.0
 11
424.6422781539
 21
106.9509083308
 31
0.0
  0
LINE
  5
11C
330
1F
100
AcDbEntity
  8
0
  6
Continuous
 62
     7
370
    15
100
AcDbLine
 10
424.6422781539
 20
122.9509035029
 30
0.0
 11
429.9016429973
 21
122.9509035029
 31
0.0
  0
LINE
  5
11D
330
1F
100
AcDbEntity
  8
0
  6
Continuous
 62
     7
370
    15
100
AcDbLine
 10
320.1587854815
 20
382.9509014167
 30
0.0
 11
314.8994243634
 21
382.9509014167
 31
0.0
  0
LINE
  5
11E
330
1F
100
AcDbEntity
  8
0
  6
Continuous
 62
     7
370
    15
100
AcDbLine
 10
314.8994243634
 20
366.9509062447
 30
0.0
 11
320.1587854815
 21
366.9509062447
 31
0.0
  0
LINE
  5
11F
330
1F
100
AcDbEntity
  8
0
  6
Continuous
 62
     7
370
    15
100
AcDbLine
 10
320.1587854815
 20
106.9509083308
 30
0.0
 11
314.8994243634
 21
106.9509083308
 31
0.0
  0
LINE
  5
120
330
1F
100
AcDbEntity
  8
0
  6
Continuous
 62
     7
370
    15
100
AcDbLine
 10
314.8994243634
 20
122.9509035029
 30
0.0
 11
320.1587854815
 21
122.9509035029
 31
0.0
  0
LINE
  5
121
330
1F
100
AcDbEntity
  8
0
  6
Continuous
 62
     7
370
    15
100
AcDbLine
 10
382.4005334568
 20
180.4571593084
 30
0.0
 11
382.4005334568
 21
122.9509035029
 31
0.0
  0
LINE
  5
122
330
1F
100
AcDbEntity
  8
0
  6
Continuous
 62
     7
370
    15
100
AcDbLine
 10
376.4005361986
 20
180.4571593084
 30
0.0
 11
376.4005361986
 21
122.9509035029
 31
0.0
  0
LINE
  5
123
330
1F
100
AcDbEntity
  8
0
  6
Continuous
 62
     7
370
    15
100
AcDbLine
 10
385.4005320859
 20
301.5738533713
 30
0.0
 11
379.4005348277
 21
301.5738533713
 31
0.0
  0
LINE
  5
124
330
1F
100
AcDbEntity
  8
0
  6
Continuous
 62
     7
370
    15
100
AcDbLine
 10
379.4005348277
 20
362.8191420712
 30
0.0
 11
379.4005348277
 21
301.5738533713
 31
0.0
  0
LINE
  5
125
330
1F
100
AcDbEntity
  8
0
  6
Continuous
 62
     7
370
    15
100
AcDbLine
 10
385.4005320859
 20
362.8191420712
 30
0.0
 11
385.4005320859
 21
301.5738533713
 31
0.0
  0
LINE
  5
126
330
1F
100
AcDbEntity
  8
0
  6
Continuous
 62
     7
370
    15
100
AcDbLine
 10
394.9005289865
 20
306.0474539079
 30
0.0
 11
394.9005289865
 21
299.0794772186
 31
0.0
  0
LINE
  5
127
330
1F
100
AcDbEntity
  8
0
  6
Continuous
 62
     7
370
    15
100
AcDbLine
 10
409.9005295825
 20
274.9509042032
 30
0.0
 11
409.9005295825
 21
229.1154818513
 31
0.0
  0
LINE
  5
128
330
1F
100
AcDbEntity
  8
0
  6
Continuous
 62
     7
370
    15
100
AcDbLine
 10
409.9005295825
 20
229.1154818513
 30
0.0
 11
400.3431781125
 21
229.1154818513
 31
0.0
  0
LINE
  5
129
330
1F
100
AcDbEntity
  8
0
  6
Continuous
 62
     7
370
    15
100
AcDbLine
 10
403.392112155
 20
274.8005272724
 30
0.0
 11
400.3431781125
 21
274.8005272724
 31
0.0
  0
LWPOLYLINE
  5
12A
330
1F
100
AcDbEntity
  8
0
  6
Continuous
 62
     7
370
    15
100
AcDbPolyline
 90
       12
 70
   128
 43
0.0
 10
409.9005295825
 20
234.7314463832
 10
412.9079713416
 20
230.7066539206
 10
414.927369256
 20
227.3118602015
 10
416.6553600621
 20
223.7592799492
 10
417.4155875039
 20
221.8238798805
 10
417.8752287221
 20
219.8080526568
 10
417.7955149603
 20
215.6030511387
 10
417.0970155788
 20
211.4207589902
 10
415.7481550169
 20
205.7918639757
 10
413.8646929455
 20
200.316804824
 10
405.2242546273
 20
178.9342680849
 10
404.9024267984
 20
178.1533801832
  0
LINE
  5
12B
330
1F
100
AcDbEntity
  8
0
  6
Continuous
 62
     7
370
    15
100
AcDbLine
 10
404.9024267984
 20
178.1533801832
 30
0.0
 11
403.6548047257
 21
175.9718501844
 31
0.0
  0
LWPOLYLINE
  5
12C
330
1F
100
AcDbEntity
  8
0
  6
Continuous
 62
     7
370
    15
100
AcDbPolyline
 90
        7
 70
   128
 43
0.0
 10
394.9005289865
 20
178.9195159354
 10
397.8870346141
 20
178.616918055
 10
400.7915838552
 20
177.8782898464
 10
401.9004090619
 20
177.4308303274
 10
403.0103667569
 20
176.7668196835
 10
403.4156410885
 20
176.3732055105
 10
403.6548047257
 20
175.9718501844
  0
LWPOLYLINE
  5
12D
330
1F
100
AcDbEntity
  8
0
  6
Continuous
 62
     7
370
    15
100
AcDbPolyline
 90
        9
 70
   128
 43
0.0
 10
444.9005260062
 20
219.9345374383
 10
445.6313683582
 20
221.9419026651
 10
446.4582635951
 20
223.7689210005
 10
447.2511990857
 20
225.2786619492
 10
447.9793145252
 20
226.5252372153
 10
448.4445883823
 20
227.2658994325
 10
448.7682267022
 20
227.7569001444
 10
448.8983138395
 20
227.9477039255
 10
448.8872571779
 20
227.9315696933
  0
ARC
  5
12E
330
1F
100
AcDbEntity
  8
0
  6
Continuous
 62
     7
370
    15
100
AcDbCircle
 10
465.7850598996
 20
216.4208405101
 30
0.0
 40
22.23601961311402
100
AcDbArc
 50
200.0788777635
 51
220.2113052992
  0
LINE
  5
12F
330
1F
100
AcDbEntity
  8
0
  6
Continuous
 62
     7
370
    15
100
AcDbLine
 10
395.8604990435
 20
362.0408842243
 30
0.0
 11
395.8751692367
 21
362.0451906599
 31
0.0
  0
ARC
  5
130
330
1F
100
AcDbEntity
  8
0
  6
Continuous
 62
     7
370
    15
100
AcDbCircle
 10
412.9128825049
 20
133.9529967087
 30
0.0
 40
43.02668999096556
100
AcDbArc
 50
102.4255349635
 51
119.8547815999
  0
LWPOLYLINE
  5
131
330
1F
100
AcDbEntity
  8
0
  6
Continuous
 62
     7
370
    15
100
AcDbPolyline
 90
        6
 70
   128
 43
0.0
 10
391.4940490318
 20
171.2696099557
 10
390.5830069375
 20
170.8087915458
 10
387.5649704528
 20
169.2919203915
 10
384.9796338868
 20
168.0077308692
 10
382.8816696
 20
166.9796923079
 10
382.4005334568
 20
166.7461687602
  0
ARC
  5
132
330
1F
100
AcDbEntity
  8
0
  6
Continuous
 62
     7
370
    15
100
AcDbCircle
 10
409.8243059173
 20
194.952915846
 30
0.0
 40
39.02200621472998
100
AcDbArc
 50
328.3050835127
 51
351.8944191844
  0
LINE
  5
133
330
1F
100
AcDbEntity
  8
0
  6
Continuous
 62
     7
370
    15
100
AcDbLine
 10
442.0693351817
 20
173.2009047546
 30
0.0
 11
443.0264814687
 21
174.4509035625
 31
0.0
  0
ARC
  5
134
330
1F
100
AcDbEntity
  8
0
  6
Continuous
 62
     7
370
    15
100
AcDbCircle
 10
167.6068287521
 20
385.125766429
 30
0.0
 40
346.7590149244897
100
AcDbArc
 50
318.8508505917
 51
322.3266530273
  0
LINE
  5
135
330
1F
100
AcDbEntity
  8
0
  6
Continuous
 62
     7
370
    15
100
AcDbLine
 10
448.2949211192
 20
189.4509041585
 30
0.0
 11
448.7850054097
 21
191.9509054996
 31
0.0
  0
LWPOLYLINE
  5
136
330
1F
100
AcDbEntity
  8
0
  6
Continuous
 62
     7
370
    15
100
AcDbPolyline
 90
       12
 70
   128
 43
0.0
 10
382.4005334568
 20
175.2428257741
 10
383.6779131484
 20
175.8354151525
 10
385.1606680942
 20
176.5070030369
 10
385.8381568384
 20
176.8324294962
 10
386.18209054
 20
177.0224342026
 10
386.4321469259
 20
177.232264904
 10
386.42822047
 20
177.2947231211
 10
386.3963468862
 20
177.3185351767
 10
386.339573462
 20
177.3376682677
 10
386.2732856465
 20
177.3486653246
 10
386.1441521836
 20
177.3562053122
 10
386.1115186405
 20
177.3564511813
  0
LWPOLYLINE
  5
137
330
1F
100
AcDbEntity
  8
0
  6
Continuous
 62
     7
370
    15
100
AcDbPolyline
 90
        6
 70
   128
 43
0.0
 10
375.6975739193
 20
306.0474539079
 10
374.5868637157
 20
306.1237329521
 10
372.5331931305
 20
306.5831841804
 10
370.96670856
 20
307.2938652612
 10
370.0735851121
 20
308.1698859014
 10
369.9005304766
 20
308.7947362937
  0
LINE
  5
138
330
1F
100
AcDbEntity
  8
0
  6
Continuous
 62
     7
370
    15
100
AcDbLine
 10
369.6373461676
 20
311.4441925563
 30
0.0
 11
369.9005304766
 21
311.4426204838
 31
0.0
  0
LWPOLYLINE
  5
139
330
1F
100
AcDbEntity
  8
0
  6
Continuous
 62
     7
370
    15
100
AcDbPolyline
 90
       21
 70
   128
 43
0.0
 10
394.7822510195
 20
325.253962902
 10
394.7656362248
 20
325.2903142847
 10
394.5057301712
 20
326.00811067
 10
394.1854669643
 20
327.135815648
 10
393.7107234192
 20
328.5698363461
 10
393.1110634399
 20
330.3417334236
 10
392.5231306744
 20
332.3241541065
 10
392.0124082756
 20
334.5872679629
 10
391.7139380169
 20
336.6845989503
 10
391.5881126118
 20
338.9309862532
 10
391.59617414
 20
339.9509036817
 10
391.7440905166
 20
342.1400183715
 10
392.0787109924
 20
344.3240294136
 10
392.5496770931
 20
346.3438967146
 10
393.0937035871
 20
348.2576379456
 10
393.6870976281
 20
350.2099061288
 10
394.2754178238
 20
351.9239196457
 10
394.8389126849
 20
353.2871523775
 10
395.3258826328
 20
354.2902240433
 10
395.6438063574
 20
354.8245275296
 10
395.7598118973
 20
354.907251326
  0
LWPOLYLINE
  5
13A
330
1F
100
AcDbEntity
  8
0
  6
Continuous
 62
     7
370
    15
100
AcDbPolyline
 90
        8
 70
   128
 43
0.0
 10
387.7458332968
 20
308.2381853737
 10
389.6073087049
 20
308.586492566
 10
391.2485524011
 20
309.5287749447
 10
392.5699724746
 20
310.9695458688
 10
393.872065742
 20
313.7818271198
 10
394.5611401391
 20
317.5390282549
 10
394.7268708539
 20
321.3933179058
 10
394.7822510195
 20
325.253962902
  0
LWPOLYLINE
  5
13B
330
1F
100
AcDbEntity
  8
0
  6
Continuous
 62
     7
370
    15
100
AcDbPolyline
 90
        8
 70
   128
 43
0.0
 10
385.4005320859
 20
356.636061696
 10
385.7288717222
 20
349.1545090355
 10
386.0572188092
 20
341.6729489245
 10
386.3855584455
 20
334.3023950137
 10
386.7138980818
 20
327.2331351318
 10
387.0578764868
 20
320.2708581366
 10
387.4018548918
 20
313.8943159856
 10
387.7458332968
 20
308.2381853737
  0
LINE
  5
13C
330
1F
100
AcDbEntity
  8
0
  6
Continuous
 62
     7
370
    15
100
AcDbLine
 10
385.4005320859
 20
308.2392955102
 30
0.0
 11
387.7458332968
 21
308.2381853737
 31
0.0
  0
LINE
  5
13D
330
1F
100
AcDbEntity
  8
0
  6
Continuous
 62
     7
370
    15
100
AcDbLine
 10
369.9005304766
 20
177.3564511813
 30
0.0
 11
369.9005304766
 21
173.8979512729
 31
0.0
  0
LINE
  5
13E
330
1F
100
AcDbEntity
  8
0
  6
Continuous
 62
     7
370
    15
100
AcDbLine
 10
406.2175064278
 20
325.253962902
 30
0.0
 11
394.7822510195
 21
325.253962902
 31
0.0
  0
LINE
  5
13F
330
1F
100
AcDbEntity
  8
0
  6
Continuous
 62
     7
370
    15
100
AcDbLine
 10
406.4005299402
 20
354.9509042777
 30
0.0
 11
406.4005299402
 21
324.9509030856
 31
0.0
  0
LINE
  5
140
330
1F
100
AcDbEntity
  8
0
  6
Continuous
 62
     7
370
    15
100
AcDbLine
 10
454.9005313707
 20
225.9509054847
 30
0.0
 11
454.9005313707
 21
203.9509037413
 31
0.0
  0
LINE
  5
141
330
1F
100
AcDbEntity
  8
0
  6
Continuous
 62
     7
370
    15
100
AcDbLine
 10
444.9005260062
 20
219.9345374383
 30
0.0
 11
444.9005260062
 21
208.7869154193
 31
0.0
  0
LINE
  5
142
330
1F
100
AcDbEntity
  8
0
  6
Continuous
 62
     7
370
    15
100
AcDbLine
 10
352.4005322647
 20
179.4549295582
 30
0.0
 11
352.4005322647
 21
178.4509042181
 31
0.0
  0
LINE
  5
143
330
1F
100
AcDbEntity
  8
0
  6
Continuous
 62
     7
370
    15
100
AcDbLine
 10
369.9005304766
 20
310.4468801894
 30
0.0
 11
369.9005304766
 21
311.4426204838
 31
0.0
  0
LINE
  5
144
330
1F
100
AcDbEntity
  8
0
  6
Continuous
 62
     7
370
    15
100
AcDbLine
 10
352.4005322647
 20
311.4509055294
 30
0.0
 11
352.4005322647
 21
310.4468801894
 31
0.0
  0
LINE
  5
145
330
1F
100
AcDbEntity
  8
0
  6
Continuous
 62
     7
370
    15
100
AcDbLine
 10
406.2175064278
 20
325.253962902
 30
0.0
 11
403.392112155
 21
274.8005272724
 31
0.0
  0
LINE
  5
146
330
1F
100
AcDbEntity
  8
0
  6
Continuous
 62
     7
370
    15
100
AcDbLine
 10
429.7160937381
 20
156.9509053506
 30
0.0
 11
432.0110960794
 21
159.4509029664
 31
0.0
  0
ARC
  5
147
330
1F
100
AcDbEntity
  8
0
  6
Continuous
 62
     7
370
    15
100
AcDbCircle
 10
168.8433890208
 20
384.931377511
 30
0.0
 40
346.4529748074808
100
AcDbArc
 50
318.8493149406
 51
322.3281886783
  0
LINE
  5
148
330
1F
100
AcDbEntity
  8
0
  6
Continuous
 62
     7
370
    15
100
AcDbLine
 10
444.0264834953
 20
174.4509035625
 30
0.0
 11
443.0693372083
 21
173.2009047546
 31
0.0
  0
ARC
  5
149
330
1F
100
AcDbEntity
  8
0
  6
Continuous
 62
     7
370
    15
100
AcDbCircle
 10
410.8233716727
 20
194.9532547761
 30
0.0
 40
39.02298092136673
100
AcDbArc
 50
328.3053823501
 51
351.8941203469
  0
LINE
  5
14A
330
1F
100
AcDbEntity
  8
0
  6
Continuous
 62
     7
370
    15
100
AcDbLine
 10
449.2949231458
 20
189.4509041585
 30
0.0
 11
449.4564815355
 21
189.4509041585
 31
0.0
  0
LINE
  5
14B
330
1F
100
AcDbEntity
  8
0
  6
Continuous
 62
     7
370
    15
100
AcDbLine
 10
449.7850074363
 20
191.9509054996
 30
0.0
 11
449.2949231458
 21
189.4509041585
 31
0.0
  0
LINE
  5
14C
330
1F
100
AcDbEntity
  8
0
  6
Continuous
 62
     7
370
    15
100
AcDbLine
 10
449.7850074363
 20
191.9509054996
 30
0.0
 11
448.7850054097
 21
191.9509054996
 31
0.0
  0
LINE
  5
14D
330
1F
100
AcDbEntity
  8
0
  6
Continuous
 62
     7
370
    15
100
AcDbLine
 10
449.2949231458
 20
189.4509041585
 30
0.0
 11
448.2949211192
 21
189.4509041585
 31
0.0
  0
LINE
  5
14E
330
1F
100
AcDbEntity
  8
0
  6
Continuous
 62
     7
370
    15
100
AcDbLine
 10
443.0693372083
 20
173.2009047546
 30
0.0
 11
442.0693351817
 21
173.2009047546
 31
0.0
  0
LINE
  5
14F
330
1F
100
AcDbEntity
  8
0
  6
Continuous
 62
     7
370
    15
100
AcDbLine
 10
429.7160937381
 20
156.9509053506
 30
0.0
 11
428.7160917115
 21
156.9509053506
 31
0.0
  0
LINE
  5
150
330
1F
100
AcDbEntity
  8
0
  6
Continuous
 62
     7
370
    15
100
AcDbLine
 10
444.0264834953
 20
174.4509035625
 30
0.0
 11
443.0264814687
 21
174.4509035625
 31
0.0
  0
LINE
  5
151
330
1F
100
AcDbEntity
  8
0
  6
Continuous
 62
     7
370
    15
100
AcDbLine
 10
153.3472075057
 20
307.3267819263
 30
0.0
 11
128.4005328012
 21
307.3267819263
 31
0.0
  0
LINE
  5
152
330
1F
100
AcDbEntity
  8
0
  6
Continuous
 62
     7
370
    15
100
AcDbLine
 10
157.4005319667
 20
313.9509031452
 30
0.0
 11
157.4005319667
 21
175.9509066023
 31
0.0
  0
ARC
  5
153
330
1F
100
AcDbEntity
  8
0
  6
Continuous
 62
     7
370
    15
100
AcDbCircle
 10
153.6131678091
 20
299.2008072129
 30
0.0
 40
8.130325942198978
100
AcDbArc
 50
91.8746015899
 51
169.1149974348
  0
LINE
  5
154
330
1F
100
AcDbEntity
  8
0
  6
Continuous
 62
     7
370
    15
100
AcDbLine
 10
141.4005293441
 20
265.9509045907
 30
0.0
 11
141.4005293441
 21
213.4208934285
 31
0.0
  0
ARC
  5
155
330
1F
100
AcDbEntity
  8
0
  6
Continuous
 62
     7
370
    15
100
AcDbCircle
 10
300.6769008604
 20
264.6565699506
 30
0.0
 40
159.1902894335348
100
AcDbArc
 50
166.9004183863
 51
179.5341378576
  0
LINE
  5
156
330
1F
100
AcDbEntity
  8
0
  6
Continuous
 62
     7
370
    15
100
AcDbLine
 10
141.4918734622
 20
265.9509045907
 30
0.0
 11
128.4005328012
 21
265.9509045907
 31
0.0
  0
LINE
  5
157
330
1F
100
AcDbEntity
  8
0
  6
Continuous
 62
     7
370
    15
100
AcDbLine
 10
125.4005267215
 20
268.9509050824
 30
0.0
 11
125.4005267215
 21
305.3971635081
 31
0.0
  0
LWPOLYLINE
  5
158
330
1F
100
AcDbEntity
  8
0
  6
Continuous
 62
     7
370
    15
100
AcDbPolyline
 90
        7
 70
   128
 43
0.0
 10
128.4005328012
 20
307.3267819263
 10
127.5212450814
 20
307.2432907202
 10
126.7437471938
 20
307.0099869646
 10
126.0973795247
 20
306.6405834533
 10
125.6127490592
 20
306.1171093859
 10
125.4005416227
 20
305.4034219958
 10
125.4005267215
 20
305.3971635081
  0
ARC
  5
159
330
1F
100
AcDbEntity
  8
0
  6
Continuous
 62
     7
370
    15
100
AcDbCircle
 10
128.4005325628
 20
268.9509048738
 30
0.0
 40
3.0
100
AcDbArc
 50
180.0
 51
270.0000000022
  0
LINE
  5
15A
330
1F
100
AcDbEntity
  8
0
  6
Continuous
 62
     7
370
    15
100
AcDbLine
 10
125.4005267215
 20
305.3971635081
 30
0.0
 11
125.4005267215
 21
310.9509045162
 31
0.0
  0
LINE
  5
15B
330
1F
100
AcDbEntity
  8
0
  6
Continuous
 62
     7
370
    15
100
AcDbLine
 10
133.4005280328
 20
244.9509048738
 30
0.0
 11
133.4005280328
 21
265.9509045907
 31
0.0
  0
LINE
  5
15C
330
1F
100
AcDbEntity
  8
0
  6
Continuous
 62
     7
370
    15
100
AcDbLine
 10
130.4005368543
 20
221.9509048291
 30
0.0
 11
130.4005368543
 21
244.9509048738
 31
0.0
  0
LINE
  5
15D
330
1F
100
AcDbEntity
  8
0
  6
Continuous
 62
     7
370
    15
100
AcDbLine
 10
130.4005368543
 20
244.9509048738
 30
0.0
 11
133.4005280328
 21
244.9509048738
 31
0.0
  0
LWPOLYLINE
  5
15E
330
1F
100
AcDbEntity
  8
0
  6
Continuous
 62
     7
370
    15
100
AcDbPolyline
 90
       20
 70
   128
 43
0.0
 10
229.4005288673
 20
306.608177153
 10
229.2878462863
 20
306.3151681699
 10
228.9625166846
 20
306.0503931619
 10
228.4610553575
 20
305.8460051097
 10
227.8399079037
 20
305.727909682
 10
227.1693631006
 20
305.7114513494
 10
226.525081594
 20
305.7987013735
 10
225.9793712688
 20
305.97831252
 10
225.5936696124
 20
306.227471111
 10
225.4116891814
 20
306.5153987982
 10
225.4539339733
 20
306.8080427028
 10
225.7154568029
 20
307.0728177108
 10
226.1669172836
 20
307.2820374646
 10
226.7576142144
 20
307.4148850419
 10
227.4207456899
 20
307.4586683788
 10
228.0813588691
 20
307.4093865134
 10
228.6652310682
 20
307.2716476299
 10
229.1067599249
 20
307.058460442
 10
229.3559892965
 20
306.7910330273
 10
229.4005288673
 20
306.608177153
  0
ARC
  5
15F
330
1F
100
AcDbEntity
  8
0
  6
Continuous
 62
     7
370
    15
100
AcDbCircle
 10
179.5527319587
 20
207.0998374618
 30
0.0
 40
3.165183610486293
100
AcDbArc
 50
185.1916518999
 51
276.3085898628
  0
LINE
  5
160
330
1F
100
AcDbEntity
  8
0
  6
Continuous
 62
     7
370
    15
100
AcDbLine
 10
196.3645427418
 20
203.9538206436
 30
0.0
 11
179.9005328608
 21
203.9538206436
 31
0.0
  0
LWPOLYLINE
  5
161
330
1F
100
AcDbEntity
  8
0
  6
Continuous
 62
     7
370
    15
100
AcDbPolyline
 90
        6
 70
   128
 43
0.0
 10
176.4005332184
 20
184.3108491875
 10
176.597444613
 20
184.8611155428
 10
177.1664976073
 20
185.3638397433
 10
178.0431329203
 20
185.7548573889
 10
179.1292487574
 20
185.9822453834
 10
179.9005328608
 20
186.026255963
  0
LINE
  5
162
330
1F
100
AcDbEntity
  8
0
  6
Continuous
 62
     7
370
    15
100
AcDbLine
 10
176.4005332184
 20
184.2823507168
 30
0.0
 11
176.4005332184
 21
184.3108491875
 31
0.0
  0
LWPOLYLINE
  5
163
330
1F
100
AcDbEntity
  8
0
  6
Continuous
 62
     7
370
    15
100
AcDbPolyline
 90
        6
 70
   128
 43
0.0
 10
179.9005328608
 20
182.7276864924
 10
178.7420420838
 20
182.8110100605
 10
177.714152534
 20
183.0544726826
 10
176.9328772021
 20
183.4379428901
 10
176.4862446976
 20
183.9264849104
 10
176.4005332184
 20
184.2823507168
  0
LINE
  5
164
330
1F
100
AcDbEntity
  8
0
  6
Continuous
 62
     7
370
    15
100
AcDbLine
 10
185.900530119
 20
182.7276864924
 30
0.0
 11
179.9005328608
 21
182.7276864924
 31
0.0
  0
LWPOLYLINE
  5
165
330
1F
100
AcDbEntity
  8
0
  6
Continuous
 62
     7
370
    15
100
AcDbPolyline
 90
        6
 70
   128
 43
0.0
 10
189.4005297613
 20
184.2823507168
 10
189.2036258173
 20
183.7502898552
 10
188.6345653725
 20
183.2926975467
 10
187.7579300595
 20
182.9541915931
 10
186.6718142224
 20
182.763959644
 10
185.900530119
 20
182.7276864924
  0
LINE
  5
166
330
1F
100
AcDbEntity
  8
0
  6
Continuous
 62
     7
370
    15
100
AcDbLine
 10
189.4005297613
 20
184.2823507168
 30
0.0
 11
189.4005297613
 21
184.3108491875
 31
0.0
  0
LWPOLYLINE
  5
167
330
1F
100
AcDbEntity
  8
0
  6
Continuous
 62
     7
370
    15
100
AcDbPolyline
 90
        6
 70
   128
 43
0.0
 10
185.900530119
 20
186.026255963
 10
187.0590283466
 20
185.9254794099
 10
188.0869104457
 20
185.6372462489
 10
188.8681857777
 20
185.2011525907
 10
189.3148257327
 20
184.6749739625
 10
189.4005297613
 20
184.3108491875
  0
LINE
  5
168
330
1F
100
AcDbEntity
  8
0
  6
Continuous
 62
     7
370
    15
100
AcDbLine
 10
185.900530119
 20
186.026255963
 30
0.0
 11
179.9005328608
 21
186.026255963
 31
0.0
  0
LWPOLYLINE
  5
169
330
1F
100
AcDbEntity
  8
0
  6
Continuous
 62
     7
370
    15
100
AcDbPolyline
 90
        6
 70
   128
 43
0.0
 10
176.4005332184
 20
178.2815599717
 10
176.597444613
 20
178.5639593281
 10
177.1664976073
 20
178.8304516949
 10
178.0431329203
 20
179.0429199018
 10
179.1292487574
 20
179.1684398331
 10
179.9005328608
 20
179.1929000892
  0
LINE
  5
16A
330
1F
100
AcDbEntity
  8
0
  6
Continuous
 62
     7
370
    15
100
AcDbLine
 10
176.4005332184
 20
178.2672176041
 30
0.0
 11
176.4005332184
 21
178.2815599717
 31
0.0
  0
LWPOLYLINE
  5
16B
330
1F
100
AcDbEntity
  8
0
  6
Continuous
 62
     7
370
    15
100
AcDbPolyline
 90
        6
 70
   128
 43
0.0
 10
179.9005328608
 20
177.5325754561
 10
178.7420420838
 20
177.569314269
 10
177.714152534
 20
177.6785248794
 10
176.9328772021
 20
177.8558635988
 10
176.4862446976
 20
178.0905568876
 10
176.4005332184
 20
178.2672176041
  0
LINE
  5
16C
330
1F
100
AcDbEntity
  8
0
  6
Continuous
 62
     7
370
    15
100
AcDbLine
 10
185.900530119
 20
177.5325754561
 30
0.0
 11
179.9005328608
 21
177.5325754561
 31
0.0
  0
LWPOLYLINE
  5
16D
330
1F
100
AcDbEntity
  8
0
  6
Continuous
 62
     7
370
    15
100
AcDbPolyline
 90
        6
 70
   128
 43
0.0
 10
189.4005297613
 20
178.2672176041
 10
189.2036258173
 20
178.0048305072
 10
188.6345653725
 20
177.7879515566
 10
187.7579300595
 20
177.6332104482
 10
186.6718142224
 20
177.5485345997
 10
185.900530119
 20
177.5325754561
  0
LINE
  5
16E
330
1F
100
AcDbEntity
  8
0
  6
Continuous
 62
     7
370
    15
100
AcDbLine
 10
189.4005297613
 20
178.2672176041
 30
0.0
 11
189.4005297613
 21
178.2815599717
 31
0.0
  0
LWPOLYLINE
  5
16F
330
1F
100
AcDbEntity
  8
0
  6
Continuous
 62
     7
370
    15
100
AcDbPolyline
 90
        6
 70
   128
 43
0.0
 10
185.900530119
 20
179.1929000892
 10
187.0590283466
 20
179.1369685807
 10
188.0869104457
 20
178.9785468854
 10
188.8681857777
 20
178.7433693089
 10
189.3148257327
 20
178.467302946
 10
189.4005297613
 20
178.2815599717
  0
LINE
  5
170
330
1F
100
AcDbEntity
  8
0
  6
Continuous
 62
     7
370
    15
100
AcDbLine
 10
185.900530119
 20
179.1929000892
 30
0.0
 11
179.9005328608
 21
179.1929000892
 31
0.0
  0
LWPOLYLINE
  5
171
330
1F
100
AcDbEntity
  8
0
  6
Continuous
 62
     7
370
    15
100
AcDbPolyline
 90
        6
 70
   128
 43
0.0
 10
278.4005331737
 20
184.2823507168
 10
278.2036217791
 20
183.7502898552
 10
277.6345669222
 20
183.2926975467
 10
276.7579297465
 20
182.9541915931
 10
275.6718176347
 20
182.763959644
 10
274.9005316687
 20
182.7276864924
  0
LINE
  5
172
330
1F
100
AcDbEntity
  8
0
  6
Continuous
 62
     7
370
    15
100
AcDbLine
 10
278.4005331737
 20
184.2823507168
 30
0.0
 11
278.4005331737
 21
184.3108491875
 31
0.0
  0
LWPOLYLINE
  5
173
330
1F
100
AcDbEntity
  8
0
  6
Continuous
 62
     7
370
    15
100
AcDbPolyline
 90
        6
 70
   128
 43
0.0
 10
274.9005316687
 20
186.026255963
 10
276.059026171
 20
185.9254794099
 10
277.0869119954
 20
185.6372462489
 10
277.8681873274
 20
185.2011525907
 10
278.3148216945
 20
184.6749739625
 10
278.4005331737
 20
184.3108491875
  0
LINE
  5
174
330
1F
100
AcDbEntity
  8
0
  6
Continuous
 62
     7
370
    15
100
AcDbLine
 10
268.9005325479
 20
186.026255963
 30
0.0
 11
274.9005316687
 21
186.026255963
 31
0.0
  0
LWPOLYLINE
  5
175
330
1F
100
AcDbEntity
  8
0
  6
Continuous
 62
     7
370
    15
100
AcDbPolyline
 90
        6
 70
   128
 43
0.0
 10
265.4005310428
 20
184.3108491875
 10
265.5974424374
 20
184.8611155428
 10
266.166499157
 20
185.3638397433
 10
267.04313447
 20
185.7548573889
 10
268.1292465818
 20
185.9822453834
 10
268.9005325479
 20
186.026255963
  0
LINE
  5
176
330
1F
100
AcDbEntity
  8
0
  6
Continuous
 62
     7
370
    15
100
AcDbLine
 10
265.4005310428
 20
184.2823507168
 30
0.0
 11
265.4005310428
 21
184.3108491875
 31
0.0
  0
LWPOLYLINE
  5
177
330
1F
100
AcDbEntity
  8
0
  6
Continuous
 62
     7
370
    15
100
AcDbPolyline
 90
        6
 70
   128
 43
0.0
 10
268.9005325479
 20
182.7276864924
 10
267.7420399082
 20
182.8110100605
 10
266.7141540838
 20
183.0544726826
 10
265.9328787518
 20
183.4379428901
 10
265.486242522
 20
183.9264849104
 10
265.4005310428
 20
184.2823507168
  0
LINE
  5
178
330
1F
100
AcDbEntity
  8
0
  6
Continuous
 62
     7
370
    15
100
AcDbLine
 10
268.9005325479
 20
182.7276864924
 30
0.0
 11
274.9005316687
 21
182.7276864924
 31
0.0
  0
LWPOLYLINE
  5
179
330
1F
100
AcDbEntity
  8
0
  6
Continuous
 62
     7
370
    15
100
AcDbPolyline
 90
        6
 70
   128
 43
0.0
 10
256.9005324435
 20
191.714122323
 10
255.7420379412
 20
191.8387668111
 10
254.7141521168
 20
192.2011220731
 10
253.9328767848
 20
192.7665429093
 10
253.4862442804
 20
193.4781553127
 10
253.4005328012
 20
193.990822313
  0
LINE
  5
17A
330
1F
100
AcDbEntity
  8
0
  6
Continuous
 62
     7
370
    15
100
AcDbLine
 10
256.9005324435
 20
191.714122323
 30
0.0
 11
274.9005316687
 21
191.714122323
 31
0.0
  0
LWPOLYLINE
  5
17B
330
1F
100
AcDbEntity
  8
0
  6
Continuous
 62
     7
370
    15
100
AcDbPolyline
 90
        6
 70
   128
 43
0.0
 10
278.4005331737
 20
193.990822313
 10
278.2036217791
 20
193.2225854971
 10
277.6345669222
 20
192.5531173028
 10
276.7579297465
 20
192.0522035934
 10
275.6718176347
 20
191.7684258796
 10
274.9005316687
 20
191.714122323
  0
LINE
  5
17C
330
1F
100
AcDbEntity
  8
0
  6
Continuous
 62
     7
370
    15
100
AcDbLine
 10
278.4005331737
 20
193.990822313
 30
0.0
 11
278.4005331737
 21
194.031681297
 31
0.0
  0
LWPOLYLINE
  5
17D
330
1F
100
AcDbEntity
  8
0
  6
Continuous
 62
     7
370
    15
100
AcDbPolyline
 90
        6
 70
   128
 43
0.0
 10
274.9005316687
 20
196.4433783569
 10
276.059026171
 20
196.3040748514
 10
277.0869119954
 20
195.9041202344
 10
277.8681873274
 20
195.2945100047
 10
278.3148216945
 20
194.5512847878
 10
278.4005331737
 20
194.031681297
  0
LINE
  5
17E
330
1F
100
AcDbEntity
  8
0
  6
Continuous
 62
     7
370
    15
100
AcDbLine
 10
256.9005324435
 20
196.4433783569
 30
0.0
 11
274.9005316687
 21
196.4433783569
 31
0.0
  0
LWPOLYLINE
  5
17F
330
1F
100
AcDbEntity
  8
0
  6
Continuous
 62
     7
370
    15
100
AcDbPolyline
 90
        6
 70
   128
 43
0.0
 10
253.4005328012
 20
194.031681297
 10
253.5974441958
 20
194.8152104296
 10
254.16649719
 20
195.5225797273
 10
255.0431362283
 20
196.0676008739
 10
256.1292483402
 20
196.3825778939
 10
256.9005324435
 20
196.4433783569
  0
LINE
  5
180
330
1F
100
AcDbEntity
  8
0
  6
Continuous
 62
     7
370
    15
100
AcDbLine
 10
253.4005328012
 20
194.031681297
 30
0.0
 11
253.4005328012
 21
193.990822313
 31
0.0
  0
ARC
  5
181
330
1F
100
AcDbEntity
  8
0
  6
Continuous
 62
     7
370
    15
100
AcDbCircle
 10
256.5527302077
 20
207.0998358294
 30
0.0
 40
3.165182134459292
100
AcDbArc
 50
185.191624655
 51
276.3086171077
  0
LINE
  5
182
330
1F
100
AcDbEntity
  8
0
  6
Continuous
 62
     7
370
    15
100
AcDbLine
 10
256.9005324435
 20
203.9538206436
 30
0.0
 11
274.9005316687
 21
203.9538206436
 31
0.0
  0
ARC
  5
183
330
1F
100
AcDbEntity
  8
0
  6
Continuous
 62
     7
370
    15
100
AcDbCircle
 10
275.1584615305
 20
207.2098367066
 30
0.0
 40
3.266216223129081
100
AcDbArc
 50
265.4706931277
 51
353.0290352298
  0
LINE
  5
184
330
1F
100
AcDbEntity
  8
0
  6
Continuous
 62
     7
370
    15
100
AcDbLine
 10
278.4005331737
 20
206.8134279825
 30
0.0
 11
278.4005331737
 21
206.8641515352
 31
0.0
  0
ARC
  5
185
330
1F
100
AcDbEntity
  8
0
  6
Continuous
 62
     7
370
    15
100
AcDbCircle
 10
275.1769917149
 20
206.6024536935
 30
0.0
 40
3.234146764878369
100
AcDbArc
 50
4.6412837536
 51
94.9037194238
  0
LINE
  5
186
330
1F
100
AcDbEntity
  8
0
  6
Continuous
 62
     7
370
    15
100
AcDbLine
 10
256.9005324435
 20
209.82476267
 30
0.0
 11
274.9005316687
 21
209.82476267
 31
0.0
  0
ARC
  5
187
330
1F
100
AcDbEntity
  8
0
  6
Continuous
 62
     7
370
    15
100
AcDbCircle
 10
256.6997149479
 20
206.5130319884
 30
0.0
 40
3.317813703870166
100
AcDbArc
 50
86.5299341669
 51
173.9250927255
  0
LINE
  5
188
330
1F
100
AcDbEntity
  8
0
  6
Continuous
 62
     7
370
    15
100
AcDbLine
 10
253.4005328012
 20
206.8641515352
 30
0.0
 11
253.4005328012
 21
206.8134279825
 31
0.0
  0
ARC
  5
189
330
1F
100
AcDbEntity
  8
0
  6
Continuous
 62
     7
370
    15
100
AcDbCircle
 10
256.7629620476
 20
222.0597258979
 30
0.0
 40
3.363718879762029
100
AcDbArc
 50
181.5866268095
 51
272.3439539394
  0
LINE
  5
18A
330
1F
100
AcDbEntity
  8
0
  6
Continuous
 62
     7
370
    15
100
AcDbLine
 10
256.9005324435
 20
218.6988213934
 30
0.0
 11
274.9005316687
 21
218.6988213934
 31
0.0
  0
ARC
  5
18B
330
1F
100
AcDbEntity
  8
0
  6
Continuous
 62
     7
370
    15
100
AcDbCircle
 10
275.0031707295
 20
222.0971416385
 30
0.0
 40
3.399869889411775
100
AcDbArc
 50
268.2700283161
 51
357.7993605148
  0
LINE
  5
18C
330
1F
100
AcDbEntity
  8
0
  6
Continuous
 62
     7
370
    15
100
AcDbLine
 10
278.4005331737
 20
221.9665901639
 30
0.0
 11
278.4005331737
 21
222.0240788438
 31
0.0
  0
ARC
  5
18D
330
1F
100
AcDbEntity
  8
0
  6
Continuous
 62
     7
370
    15
100
AcDbCircle
 10
274.9908680278
 20
221.9432571377
 30
0.0
 40
3.410622898453192
100
AcDbArc
 50
1.3578681358
 51
91.5177572098
  0
LINE
  5
18E
330
1F
100
AcDbEntity
  8
0
  6
Continuous
 62
     7
370
    15
100
AcDbLine
 10
256.9005324435
 20
225.3526834674
 30
0.0
 11
274.9005316687
 21
225.3526834674
 31
0.0
  0
ARC
  5
18F
330
1F
100
AcDbEntity
  8
0
  6
Continuous
 62
     7
370
    15
100
AcDbCircle
 10
256.8354186389
 20
221.9167377428
 30
0.0
 40
3.436562647471714
100
AcDbArc
 50
88.9143310223
 51
178.2100740856
  0
LINE
  5
190
330
1F
100
AcDbEntity
  8
0
  6
Continuous
 62
     7
370
    15
100
AcDbLine
 10
253.4005328012
 20
222.0240788438
 30
0.0
 11
253.4005328012
 21
221.9665901639
 31
0.0
  0
LWPOLYLINE
  5
191
330
1F
100
AcDbEntity
  8
0
  6
Continuous
 62
     7
370
    15
100
AcDbPolyline
 90
        6
 70
   128
 43
0.0
 10
278.4005331737
 20
178.2672176041
 10
278.2036217791
 20
178.0048305072
 10
277.6345669222
 20
177.7879515566
 10
276.7579297465
 20
177.6332104482
 10
275.6718176347
 20
177.5485345997
 10
274.9005316687
 20
177.5325754561
  0
LINE
  5
192
330
1F
100
AcDbEntity
  8
0
  6
Continuous
 62
     7
370
    15
100
AcDbLine
 10
278.4005331737
 20
178.2672176041
 30
0.0
 11
278.4005331737
 21
178.2815599717
 31
0.0
  0
LWPOLYLINE
  5
193
330
1F
100
AcDbEntity
  8
0
  6
Continuous
 62
     7
370
    15
100
AcDbPolyline
 90
        6
 70
   128
 43
0.0
 10
274.9005316687
 20
179.1929000892
 10
276.059026171
 20
179.1369685807
 10
277.0869119954
 20
178.9785468854
 10
277.8681873274
 20
178.7433693089
 10
278.3148216945
 20
178.467302946
 10
278.4005331737
 20
178.2815599717
  0
LINE
  5
194
330
1F
100
AcDbEntity
  8
0
  6
Continuous
 62
     7
370
    15
100
AcDbLine
 10
268.9005325479
 20
179.1929000892
 30
0.0
 11
274.9005316687
 21
179.1929000892
 31
0.0
  0
LWPOLYLINE
  5
195
330
1F
100
AcDbEntity
  8
0
  6
Continuous
 62
     7
370
    15
100
AcDbPolyline
 90
        6
 70
   128
 43
0.0
 10
265.4005310428
 20
178.2815599717
 10
265.5974424374
 20
178.5639593281
 10
266.166499157
 20
178.8304516949
 10
267.04313447
 20
179.0429199018
 10
268.1292465818
 20
179.1684398331
 10
268.9005325479
 20
179.1929000892
  0
LINE
  5
196
330
1F
100
AcDbEntity
  8
0
  6
Continuous
 62
     7
370
    15
100
AcDbLine
 10
265.4005310428
 20
178.2672176041
 30
0.0
 11
265.4005310428
 21
178.2815599717
 31
0.0
  0
LWPOLYLINE
  5
197
330
1F
100
AcDbEntity
  8
0
  6
Continuous
 62
     7
370
    15
100
AcDbPolyline
 90
        6
 70
   128
 43
0.0
 10
268.9005325479
 20
177.5325754561
 10
267.7420399082
 20
177.569314269
 10
266.7141540838
 20
177.6785248794
 10
265.9328787518
 20
177.8558635988
 10
265.486242522
 20
178.0905568876
 10
265.4005310428
 20
178.2672176041
  0
LINE
  5
198
330
1F
100
AcDbEntity
  8
0
  6
Continuous
 62
     7
370
    15
100
AcDbLine
 10
268.9005325479
 20
177.5325754561
 30
0.0
 11
274.9005316687
 21
177.5325754561
 31
0.0
  0
LWPOLYLINE
  5
199
330
1F
100
AcDbEntity
  8
0
  6
Continuous
 62
     7
370
    15
100
AcDbPolyline
 90
        6
 70
   128
 43
0.0
 10
176.4005332184
 20
194.031681297
 10
176.597444613
 20
194.8152104296
 10
177.1664976073
 20
195.5225797273
 10
178.0431329203
 20
196.0676008739
 10
179.1292487574
 20
196.3825778939
 10
179.9005328608
 20
196.4433783569
  0
LINE
  5
19A
330
1F
100
AcDbEntity
  8
0
  6
Continuous
 62
     7
370
    15
100
AcDbLine
 10
176.4005332184
 20
193.990822313
 30
0.0
 11
176.4005332184
 21
194.031681297
 31
0.0
  0
LWPOLYLINE
  5
19B
330
1F
100
AcDbEntity
  8
0
  6
Continuous
 62
     7
370
    15
100
AcDbPolyline
 90
        6
 70
   128
 43
0.0
 10
179.9005328608
 20
191.714122323
 10
178.7420420838
 20
191.8387668111
 10
177.714152534
 20
192.2011220731
 10
176.9328772021
 20
192.7665429093
 10
176.4862446976
 20
193.4781553127
 10
176.4005332184
 20
193.990822313
  0
LINE
  5
19C
330
1F
100
AcDbEntity
  8
0
  6
Continuous
 62
     7
370
    15
100
AcDbLine
 10
197.9005320859
 20
191.714122323
 30
0.0
 11
179.9005328608
 21
191.714122323
 31
0.0
  0
LWPOLYLINE
  5
19D
330
1F
100
AcDbEntity
  8
0
  6
Continuous
 62
     7
370
    15
100
AcDbPolyline
 90
        6
 70
   128
 43
0.0
 10
201.4005317283
 20
193.990822313
 10
201.2036203337
 20
193.2225854971
 10
200.6345673394
 20
192.5531173028
 10
199.7579320264
 20
192.0522035934
 10
198.6718161893
 20
191.7684258796
 10
197.9005320859
 20
191.714122323
  0
LINE
  5
19E
330
1F
100
AcDbEntity
  8
0
  6
Continuous
 62
     7
370
    15
100
AcDbLine
 10
201.4005317283
 20
194.031681297
 30
0.0
 11
201.4005317283
 21
193.990822313
 31
0.0
  0
LWPOLYLINE
  5
19F
330
1F
100
AcDbEntity
  8
0
  6
Continuous
 62
     7
370
    15
100
AcDbPolyline
 90
        6
 70
   128
 43
0.0
 10
197.9005320859
 20
196.4433783569
 10
199.0590228629
 20
196.3040748514
 10
200.0869124127
 20
195.9041202344
 10
200.8681877446
 20
195.2945100047
 10
201.3148202491
 20
194.5512847878
 10
201.4005317283
 20
194.031681297
  0
LINE
  5
1A0
330
1F
100
AcDbEntity
  8
0
  6
Continuous
 62
     7
370
    15
100
AcDbLine
 10
197.9005320859
 20
196.4433783569
 30
0.0
 11
179.9005328608
 21
196.4433783569
 31
0.0
  0
ARC
  5
1A1
330
1F
100
AcDbEntity
  8
0
  6
Continuous
 62
     7
370
    15
100
AcDbCircle
 10
194.3893775954
 20
256.954293341
 30
0.0
 40
1.98559716363083
100
AcDbArc
 50
359.9368938377
 51
180.113011161
  0
ARC
  5
1A2
330
1F
100
AcDbEntity
  8
0
  6
Continuous
 62
     7
370
    15
100
AcDbCircle
 10
194.3900821915
 20
256.6669255007
 30
0.0
 40
1.986364217167551
100
AcDbArc
 50
5.3344730773
 51
173.8871364092
  0
ARC
  5
1A3
330
1F
100
AcDbEntity
  8
0
  6
Continuous
 62
     7
370
    15
100
AcDbCircle
 10
179.5831259325
 20
208.1263206657
 30
0.0
 40
3.231923975545416
100
AcDbArc
 50
202.4784111261
 51
275.636097821
  0
LINE
  5
1A4
330
1F
100
AcDbEntity
  8
0
  6
Continuous
 62
     7
370
    15
100
AcDbLine
 10
196.1505322647
 20
204.9100207068
 30
0.0
 11
179.9005328608
 21
204.9100207068
 31
0.0
  0
ARC
  5
1A5
330
1F
100
AcDbEntity
  8
0
  6
Continuous
 62
     7
370
    15
100
AcDbCircle
 10
179.5375461585
 20
188.9186974828
 30
0.0
 40
4.753621298769552
100
AcDbArc
 50
234.7432444458
 51
274.3793708577
  0
ARC
  5
1A6
330
1F
100
AcDbEntity
  8
0
  6
Continuous
 62
     7
370
    15
100
AcDbCircle
 10
186.4294748388
 20
188.302463933
 30
0.0
 40
4.157295526044342
100
AcDbArc
 50
262.6902793523
 51
308.2550330289
  0
LINE
  5
1A7
330
1F
100
AcDbEntity
  8
0
  6
Continuous
 62
     7
370
    15
100
AcDbLine
 10
185.900530119
 20
184.1789552845
 30
0.0
 11
179.9005328608
 21
184.1789552845
 31
0.0
  0
LINE
  5
1A8
330
1F
100
AcDbEntity
  8
0
  6
Continuous
 62
     7
370
    15
100
AcDbLine
 10
185.900530119
 20
179.1050204911
 30
0.0
 11
179.9005328608
 21
179.1050204911
 31
0.0
  0
LWPOLYLINE
  5
1A9
330
1F
100
AcDbEntity
  8
0
  6
Continuous
 62
     7
370
    15
100
AcDbPolyline
 90
        3
 70
   128
 43
0.0
 10
178.8679792476
 20
179.1430482544
 10
179.2467816663
 20
179.1164273299
 10
179.9005328608
 20
179.1050204911
  0
LINE
  5
1AA
330
1F
100
AcDbEntity
  8
0
  6
Continuous
 62
     7
370
    15
100
AcDbLine
 10
185.900530119
 20
179.1050204911
 30
0.0
 11
186.9363247347
 21
179.1378701009
 31
0.0
  0
ARC
  5
1AB
330
1F
100
AcDbEntity
  8
0
  6
Continuous
 62
     7
370
    15
100
AcDbCircle
 10
275.2938675102
 20
208.0229902963
 30
0.0
 40
3.137720948312623
100
AcDbArc
 50
262.7986172148
 51
345.2171885019
  0
LINE
  5
1AC
330
1F
100
AcDbEntity
  8
0
  6
Continuous
 62
     7
370
    15
100
AcDbLine
 10
256.9005324435
 20
204.9100207068
 30
0.0
 11
274.9005316687
 21
204.9100207068
 31
0.0
  0
ARC
  5
1AD
330
1F
100
AcDbEntity
  8
0
  6
Continuous
 62
     7
370
    15
100
AcDbCircle
 10
256.6193174912
 20
208.1300613145
 30
0.0
 40
3.232296917720768
100
AcDbArc
 50
194.6326057983
 51
274.9911336842
  0
ARC
  5
1AE
330
1F
100
AcDbEntity
  8
0
  6
Continuous
 62
     7
370
    15
100
AcDbCircle
 10
275.29263595
 20
196.3723101846
 30
0.0
 40
3.438941849196068
100
AcDbArc
 50
263.4529614853
 51
329.3900208993
  0
LINE
  5
1AF
330
1F
100
AcDbEntity
  8
0
  6
Continuous
 62
     7
370
    15
100
AcDbLine
 10
256.9005324435
 20
192.9557951071
 30
0.0
 11
274.9005316687
 21
192.9557951071
 31
0.0
  0
ARC
  5
1B0
330
1F
100
AcDbEntity
  8
0
  6
Continuous
 62
     7
370
    15
100
AcDbCircle
 10
256.4589966694
 20
196.221645572
 30
0.0
 40
3.295562637676563
100
AcDbArc
 50
208.1925029153
 51
277.6995773228
  0
ARC
  5
1B1
330
1F
100
AcDbEntity
  8
0
  6
Continuous
 62
     7
370
    15
100
AcDbCircle
 10
275.0368677519
 20
222.6747138674
 30
0.0
 40
3.366360080892869
100
AcDbArc
 50
267.6789116523
 51
357.5487827594
  0
LINE
  5
1B2
330
1F
100
AcDbEntity
  8
0
  6
Continuous
 62
     7
370
    15
100
AcDbLine
 10
256.9005324435
 20
219.3111156948
 30
0.0
 11
274.9005316687
 21
219.3111156948
 31
0.0
  0
ARC
  5
1B3
330
1F
100
AcDbEntity
  8
0
  6
Continuous
 62
     7
370
    15
100
AcDbCircle
 10
256.7734527307
 20
222.6847752131
 30
0.0
 40
3.376052102480009
100
AcDbArc
 50
182.6150960712
 51
272.1572095171
  0
ARC
  5
1B4
330
1F
100
AcDbEntity
  8
0
  6
Continuous
 62
     7
370
    15
100
AcDbCircle
 10
275.4294758124
 20
188.3024604323
 30
0.0
 40
4.1572919804333
100
AcDbArc
 50
262.6902810887
 51
308.2550489782
  0
LINE
  5
1B5
330
1F
100
AcDbEntity
  8
0
  6
Continuous
 62
     7
370
    15
100
AcDbLine
 10
268.9005325479
 20
184.1789552845
 30
0.0
 11
274.9005316687
 21
184.1789552845
 31
0.0
  0
ARC
  5
1B6
330
1F
100
AcDbEntity
  8
0
  6
Continuous
 62
     7
370
    15
100
AcDbCircle
 10
268.5375505001
 20
188.9187202931
 30
0.0
 40
4.753643687096266
100
AcDbArc
 50
234.7433390054
 51
274.3792939261
  0
LINE
  5
1B7
330
1F
100
AcDbEntity
  8
0
  6
Continuous
 62
     7
370
    15
100
AcDbLine
 10
274.9005316687
 20
179.1050204911
 30
0.0
 11
275.9363262844
 21
179.1378701009
 31
0.0
  0
LINE
  5
1B8
330
1F
100
AcDbEntity
  8
0
  6
Continuous
 62
     7
370
    15
100
AcDbLine
 10
268.9005325479
 20
179.1050204911
 30
0.0
 11
274.9005316687
 21
179.1050204911
 31
0.0
  0
LWPOLYLINE
  5
1B9
330
1F
100
AcDbEntity
  8
0
  6
Continuous
 62
     7
370
    15
100
AcDbPolyline
 90
        3
 70
   128
 43
0.0
 10
267.867977072
 20
179.1430482544
 10
268.2467850787
 20
179.1164273299
 10
268.9005325479
 20
179.1050204911
  0
LINE
  5
1BA
330
1F
100
AcDbEntity
  8
0
  6
Continuous
 62
     7
370
    15
100
AcDbLine
 10
197.9005320859
 20
192.9557951071
 30
0.0
 11
179.9005328608
 21
192.9557951071
 31
0.0
  0
ARC
  5
1BB
330
1F
100
AcDbEntity
  8
0
  6
Continuous
 62
     7
370
    15
100
AcDbCircle
 10
179.4589879239
 20
196.2216276309
 30
0.0
 40
3.295546085988479
100
AcDbArc
 50
208.1923032592
 51
277.6997769789
  0
ARC
  5
1BC
330
1F
100
AcDbEntity
  8
0
  6
Continuous
 62
     7
370
    15
100
AcDbCircle
 10
198.2926412917
 20
196.3722936531
 30
0.0
 40
3.438925987006603
100
AcDbArc
 50
263.4528485685
 51
329.3901845676
  0
LINE
  5
1BD
330
1F
100
AcDbEntity
  8
0
  6
Continuous
 62
     7
370
    15
100
AcDbLine
 10
297.4005325628
 20
244.9509048738
 30
0.0
 11
297.4005325628
 21
314.9509051718
 31
0.0
  0
LINE
  5
1BE
330
1F
100
AcDbEntity
  8
0
  6
Continuous
 62
     7
370
    15
100
AcDbLine
 10
297.4005325628
 20
174.9509045758
 30
0.0
 11
297.4005325628
 21
244.9509048738
 31
0.0
  0
LINE
  5
1BF
330
1F
100
AcDbEntity
  8
0
  6
Continuous
 62
     7
370
    15
100
AcDbLine
 10
313.4005333227
 20
263.0990533062
 30
0.0
 11
313.4005333227
 21
312.5574508585
 31
0.0
  0
LINE
  5
1C0
330
1F
100
AcDbEntity
  8
0
  6
Continuous
 62
     7
370
    15
100
AcDbLine
 10
313.4005333227
 20
177.344358889
 30
0.0
 11
313.4005333227
 21
226.8027564414
 31
0.0
  0
LINE
  5
1C1
330
1F
100
AcDbEntity
  8
0
  6
Continuous
 62
     7
370
    15
100
AcDbLine
 10
352.4005322647
 20
233.4388516747
 30
0.0
 11
352.4005322647
 21
256.4629580729
 31
0.0
  0
LINE
  5
1C2
330
1F
100
AcDbEntity
  8
0
  6
Continuous
 62
     7
370
    15
100
AcDbLine
 10
344.4005309534
 20
264.8731781073
 30
0.0
 11
344.4005309534
 21
267.2605657853
 31
0.0
  0
LINE
  5
1C3
330
1F
100
AcDbEntity
  8
0
  6
Continuous
 62
     7
370
    15
100
AcDbLine
 10
344.4005309534
 20
222.6412439622
 30
0.0
 11
344.4005309534
 21
225.0286316402
 31
0.0
  0
LINE
  5
1C4
330
1F
100
AcDbEntity
  8
0
  6
Continuous
 62
     7
370
    15
100
AcDbLine
 10
344.4005309534
 20
267.2605657853
 30
0.0
 11
344.4005309534
 21
295.4724090077
 31
0.0
  0
LINE
  5
1C5
330
1F
100
AcDbEntity
  8
0
  6
Continuous
 62
     7
370
    15
100
AcDbLine
 10
352.4005322647
 20
295.4724090077
 30
0.0
 11
352.4005322647
 21
256.4629580729
 31
0.0
  0
LINE
  5
1C6
330
1F
100
AcDbEntity
  8
0
  6
Continuous
 62
     7
370
    15
100
AcDbLine
 10
344.4005309534
 20
194.4294007398
 30
0.0
 11
344.4005309534
 21
222.6412439622
 31
0.0
  0
LINE
  5
1C7
330
1F
100
AcDbEntity
  8
0
  6
Continuous
 62
     7
370
    15
100
AcDbLine
 10
352.4005322647
 20
233.4388516747
 30
0.0
 11
352.4005322647
 21
194.4294007398
 31
0.0
  0
LINE
  5
1C8
330
1F
100
AcDbEntity
  8
0
  6
Continuous
 62
     7
370
    15
100
AcDbLine
 10
344.4005309534
 20
295.4724090077
 30
0.0
 11
344.4005309534
 21
303.5902896799
 31
0.0
  0
LINE
  5
1C9
330
1F
100
AcDbEntity
  8
0
  6
Continuous
 62
     7
370
    15
100
AcDbLine
 10
352.4005322647
 20
303.5902896799
 30
0.0
 11
352.4005322647
 21
295.4724090077
 31
0.0
  0
LINE
  5
1CA
330
1F
100
AcDbEntity
  8
0
  6
Continuous
 62
     7
370
    15
100
AcDbLine
 10
344.4005309534
 20
186.3115200676
 30
0.0
 11
344.4005309534
 21
194.4294007398
 31
0.0
  0
LINE
  5
1CB
330
1F
100
AcDbEntity
  8
0
  6
Continuous
 62
     7
370
    15
100
AcDbLine
 10
352.4005322647
 20
194.4294007398
 30
0.0
 11
352.4005322647
 21
186.3115200676
 31
0.0
  0
LINE
  5
1CC
330
1F
100
AcDbEntity
  8
0
  6
Continuous
 62
     7
370
    15
100
AcDbLine
 10
344.4005309534
 20
303.5902896799
 30
0.0
 11
344.4005309534
 21
308.5490086951
 31
0.0
  0
LINE
  5
1CD
330
1F
100
AcDbEntity
  8
0
  6
Continuous
 62
     7
370
    15
100
AcDbLine
 10
352.4005322647
 20
310.4468801894
 30
0.0
 11
352.4005322647
 21
303.5902896799
 31
0.0
  0
LINE
  5
1CE
330
1F
100
AcDbEntity
  8
0
  6
Continuous
 62
     7
370
    15
100
AcDbLine
 10
344.4005309534
 20
181.3528010525
 30
0.0
 11
344.4005309534
 21
186.3115200676
 31
0.0
  0
LINE
  5
1CF
330
1F
100
AcDbEntity
  8
0
  6
Continuous
 62
     7
370
    15
100
AcDbLine
 10
352.4005322647
 20
186.3115200676
 30
0.0
 11
352.4005322647
 21
179.4549295582
 31
0.0
  0
LINE
  5
1D0
330
1F
100
AcDbEntity
  8
0
  6
Continuous
 62
     7
370
    15
100
AcDbLine
 10
340.9005313111
 20
217.9509041734
 30
0.0
 11
340.9005313111
 21
224.9509053208
 31
0.0
  0
LINE
  5
1D1
330
1F
100
AcDbEntity
  8
0
  6
Continuous
 62
     7
370
    15
100
AcDbLine
 10
340.9005313111
 20
264.9509044267
 30
0.0
 11
340.9005313111
 21
271.9509055741
 31
0.0
  0
LINE
  5
1D2
330
1F
100
AcDbEntity
  8
0
  6
Continuous
 62
     7
370
    15
100
AcDbLine
 10
344.4005309534
 20
308.5490086951
 30
0.0
 11
344.4005309534
 21
310.7614660539
 31
0.0
  0
LINE
  5
1D3
330
1F
100
AcDbEntity
  8
0
  6
Continuous
 62
     7
370
    15
100
AcDbLine
 10
344.4005309534
 20
179.1403436937
 30
0.0
 11
344.4005309534
 21
181.3528010525
 31
0.0
  0
LINE
  5
1D4
330
1F
100
AcDbEntity
  8
0
  6
Continuous
 62
     7
370
    15
100
AcDbLine
 10
352.4005322647
 20
310.4468801894
 30
0.0
 11
352.4005322647
 21
311.4509055294
 31
0.0
  0
LINE
  5
1D5
330
1F
100
AcDbEntity
  8
0
  6
Continuous
 62
     7
370
    15
100
AcDbLine
 10
352.4005322647
 20
178.4509042181
 30
0.0
 11
352.4005322647
 21
179.4549295582
 31
0.0
  0
LINE
  5
1D6
330
1F
100
AcDbEntity
  8
0
  6
Continuous
 62
     7
370
    15
100
AcDbLine
 10
344.4005309534
 20
189.9509051718
 30
0.0
 11
313.4005333227
 21
189.9509051718
 31
0.0
  0
LINE
  5
1D7
330
1F
100
AcDbEntity
  8
0
  6
Continuous
 62
     7
370
    15
100
AcDbLine
 10
344.4005309534
 20
299.9509045758
 30
0.0
 11
313.4005333227
 21
299.9509045758
 31
0.0
  0
LWPOLYLINE
  5
1D8
330
1F
100
AcDbEntity
  8
0
  6
Continuous
 62
     7
370
    15
100
AcDbPolyline
 90
        7
 70
   128
 43
0.0
 10
329.8371306551
 20
295.2508920707
 10
329.7779097152
 20
295.432824073
 10
329.7779097152
 20
296.2279835619
 10
330.1455064607
 20
297.1270302214
 10
330.8646364999
 20
298.0906622388
 10
331.9038658333
 20
299.0767726578
 10
333.0801225198
 20
299.9509045758
  0
LWPOLYLINE
  5
1D9
330
1F
100
AcDbEntity
  8
0
  6
Continuous
 62
     7
370
    15
100
AcDbPolyline
 90
       11
 70
   128
 43
0.0
 10
330.7731508208
 20
292.9201418437
 10
329.9400157225
 20
293.0823484339
 10
328.9358525467
 20
293.4804851093
 10
328.2467893255
 20
294.0531292834
 10
327.8962897998
 20
294.7807790615
 10
327.8962897998
 20
295.6386538126
 10
328.2467893255
 20
296.5975398101
 10
328.9358525467
 20
297.6247848846
 10
329.9400157225
 20
298.6854048349
 10
331.225080688
 20
299.7432866968
 10
331.5114810062
 20
299.9509045758
  0
LINE
  5
1DA
330
1F
100
AcDbEntity
  8
0
  6
Continuous
 62
     7
370
    15
100
AcDbLine
 10
332.7441348624
 20
314.9509051718
 30
0.0
 11
333.400531013
 21
315.1768142261
 31
0.0
  0
LINE
  5
1DB
330
1F
100
AcDbEntity
  8
0
  6
Continuous
 62
     7
370
    15
100
AcDbLine
 10
344.4005309534
 20
318.8053736367
 30
0.0
 11
333.400531013
 21
315.1768142261
 31
0.0
  0
LINE
  5
1DC
330
1F
100
AcDbEntity
  8
0
  6
Continuous
 62
     7
370
    15
100
AcDbLine
 10
344.4005309534
 20
318.8053736367
 30
0.0
 11
344.4005309534
 21
314.9509051718
 31
0.0
  0
LINE
  5
1DD
330
1F
100
AcDbEntity
  8
SLD-0
  6
CENTERX2
370
     0
100
AcDbLine
 10
372.4005325628
 20
400.0561227128
 30
0.0
 11
372.4005325628
 21
338.6811063811
 31
0.0
  0
LINE
  5
1DE
330
1F
100
AcDbEntity
  8
SLD-0
  6
CENTERX2
370
     0
100
AcDbLine
 10
372.4005325628
 20
93.7562380414
 30
0.0
 11
372.4005325628
 21
148.8051183425
 31
0.0
  0
LINE
  5
1DF
330
1F
100
AcDbEntity
  8
SLD-0
  6
CENTERX2
370
     0
100
AcDbLine
 10
456.9240135572
 20
244.9509048738
 30
0.0
 11
123.820421208
 21
244.9509048738
 31
0.0
  0
LINE
  5
1E0
330
1F
100
AcDbEntity
  8
0
  6
Continuous
 62
     7
370
    15
100
AcDbLine
 10
578.4433125388
 20
206.7949319162
 30
0.0
 11
578.9680941832
 21
209.7486773409
 31
0.0
  0
LINE
  5
1E1
330
1F
100
AcDbEntity
  8
0
  6
Continuous
 62
     7
370
    15
100
AcDbLine
 10
559.2764629852
 20
213.2472203948
 30
0.0
 11
558.7516813409
 21
210.29347497
 31
0.0
  0
ARC
  5
1E2
330
1F
100
AcDbEntity
  8
0
  6
Continuous
 62
     7
370
    15
100
AcDbCircle
 10
558.9653375679
 20
207.208535627
 30
0.0
 40
3.000000000000024
100
AcDbArc
 50
349.925583395
 51
79.925583395
  0
ARC
  5
1E3
330
1F
100
AcDbEntity
  8
0
  6
Continuous
 62
     7
370
    15
100
AcDbCircle
 10
577.1800932017
 20
203.9723840235
 30
0.0
 40
2.999999999999996
100
AcDbArc
 50
79.925583395
 51
169.925583395
  0
LINE
  5
1E4
330
1F
100
AcDbEntity
  8
0
  6
Continuous
 62
     7
370
    15
100
AcDbLine
 10
574.0514187943
 20
203.5125823595
 30
0.0
 11
574.2263509762
 21
204.4971654095
 31
0.0
  0
LINE
  5
1E5
330
1F
100
AcDbEntity
  8
0
  6
Continuous
 62
     7
370
    15
100
AcDbLine
 10
561.9190796148
 20
206.6837543525
 30
0.0
 11
561.7441548836
 21
205.6991713025
 31
0.0
  0
ARC
  5
1E6
330
1F
100
AcDbEntity
  8
0
  6
Continuous
 62
     7
370
    15
100
AcDbCircle
 10
562.7287359966
 20
205.5242457866
 30
0.0
 40
1.00000000000014
100
AcDbArc
 50
169.925583395
 51
259.925583395
  0
ARC
  5
1E7
330
1F
100
AcDbEntity
  8
0
  6
Continuous
 62
     7
370
    15
100
AcDbCircle
 10
573.0668405455
 20
203.6875110927
 30
0.0
 40
1.000000000000028
100
AcDbArc
 50
259.925583395
 51
349.925583395
  0
LINE
  5
1E8
330
1F
100
AcDbEntity
  8
0
  6
Continuous
 62
     7
370
    15
100
AcDbLine
 10
571.1803822648
 20
197.9287112035
 30
0.0
 11
572.0550208222
 21
202.851619003
 31
0.0
  0
LINE
  5
1E9
330
1F
100
AcDbEntity
  8
0
  6
Continuous
 62
     7
370
    15
100
AcDbLine
 10
563.3907033932
 20
204.3909760095
 30
0.0
 11
562.5160648357
 21
199.4680682101
 31
0.0
  0
LWPOLYLINE
  5
1EA
330
1F
100
AcDbEntity
  8
0
  6
Continuous
 62
     7
370
    15
100
AcDbPolyline
 90
        4
 70
   128
 43
0.0
 10
556.3425137531
 20
251.7518772647
 10
556.2620996367
 20
251.5583093181
 10
556.1580671799
 20
251.3047902748
 10
556.1537458431
 20
251.2942174353
  0
LINE
  5
1EB
330
1F
100
AcDbEntity
  8
0
  6
Continuous
 62
     7
370
    15
100
AcDbLine
 10
683.219963206
 20
326.6965443172
 30
0.0
 11
683.1767721903
 21
326.6039261498
 31
0.0
  0
LINE
  5
1EC
330
1F
100
AcDbEntity
  8
0
  6
Continuous
 62
     7
370
    15
100
AcDbLine
 10
690.4272339177
 20
323.2229793348
 30
0.0
 11
690.4704249334
 21
323.3156049527
 31
0.0
  0
LWPOLYLINE
  5
1ED
330
1F
100
AcDbEntity
  8
0
  6
Continuous
 62
     7
370
    15
100
AcDbPolyline
 90
       17
 70
   128
 43
0.0
 10
673.8651967477
 20
182.6720939853
 10
674.112023307
 20
189.9348789729
 10
674.3305600118
 20
196.3597604908
 10
674.5209484231
 20
201.9530976095
 10
674.6833152008
 20
206.7192340173
 10
674.8177758288
 20
210.6027522959
 10
674.9262413811
 20
213.6540779747
 10
675.0177605879
 20
216.1628411986
 10
675.1300706398
 20
219.1472569384
 10
675.2164284568
 20
221.3632253833
 10
675.311924411
 20
223.7253481426
 10
675.4165007603
 20
226.2696431853
 10
675.5300979
 20
229.1235135772
 10
675.6526469123
 20
232.0634419002
 10
675.7840714287
 20
234.9781807415
 10
675.9976628106
 20
239.1322938629
 10
676.1042303276
 20
240.7833490424
  0
LWPOLYLINE
  5
1EE
330
1F
100
AcDbEntity
  8
0
  6
Continuous
 62
     7
370
    15
100
AcDbPolyline
 90
       16
 70
   128
 43
0.0
 10
622.9244074654
 20
240.8347152077
 10
623.0017575305
 20
239.6577600293
 10
623.1845724266
 20
236.2407216706
 10
623.3471496832
 20
232.7463835381
 10
623.4892359805
 20
229.3766535722
 10
623.5525268
 20
227.7926759698
 10
623.6106208395
 20
226.331589175
 10
623.7111310344
 20
223.8851724096
 10
623.7916904371
 20
221.9047242679
 10
623.877776308
 20
219.714601887
 10
624.0182141643
 20
215.993686942
 10
624.1880780887
 20
211.2814294078
 10
624.3874928784
 20
205.5144788601
 10
624.6166000944
 20
198.7855950274
 10
624.8755543363
 20
191.1740409114
 10
625.1645139288
 20
182.6720939853
  0
LWPOLYLINE
  5
1EF
330
1F
100
AcDbEntity
  8
0
  6
Continuous
 62
     7
370
    15
100
AcDbPolyline
 90
       14
 70
   128
 43
0.0
 10
672.1489070784
 20
137.5526258625
 10
672.356616227
 20
143.1105503716
 10
672.5882920306
 20
149.1940686383
 10
672.7787232828
 20
154.1031667866
 10
672.9279286098
 20
157.8858191051
 10
673.0359266382
 20
160.586237339
 10
673.0853593778
 20
161.8220055379
 10
673.1196599882
 20
162.691160468
 10
673.1676789802
 20
163.9225253739
 10
673.23584993
 20
165.6972089686
 10
673.3241430354
 20
168.0346870698
 10
673.4701129478
 20
171.9681018867
 10
673.6503685694
 20
176.8784666337
 10
673.8647217732
 20
182.6592417337
  0
LWPOLYLINE
  5
1F0
330
1F
100
AcDbEntity
  8
0
  6
Continuous
 62
     7
370
    15
100
AcDbPolyline
 90
        9
 70
   128
 43
0.0
 10
625.1649889033
 20
182.6592417337
 10
625.3501283806
 20
177.6745686211
 10
625.5407309961
 20
172.4823335089
 10
625.736779986
 20
167.2057727255
 10
625.9382585865
 20
161.9760835447
 10
626.1451500338
 20
156.7930424489
 10
626.5019564759
 20
147.6163485922
 10
626.8736920189
 20
137.756272582
 10
627.0632105749
 20
132.6045388259
  0
LINE
  5
1F1
330
1F
100
AcDbEntity
  8
0
  6
Continuous
 62
     7
370
    15
100
AcDbLine
 10
689.5148544442
 20
104.9509042777
 30
0.0
 11
689.5148544442
 21
106.9509083308
 31
0.0
  0
LINE
  5
1F2
330
1F
100
AcDbEntity
  8
0
  6
Continuous
 62
     7
370
    15
100
AcDbLine
 10
609.5148562323
 20
106.9509083308
 30
0.0
 11
609.5148562323
 21
104.9509042777
 31
0.0
  0
LINE
  5
1F3
330
1F
100
AcDbEntity
  8
0
  6
Continuous
 62
     7
370
    15
100
AcDbLine
 10
609.5148562323
 20
384.9509054698
 30
0.0
 11
609.5148562323
 21
382.9509014167
 31
0.0
  0
LINE
  5
1F4
330
1F
100
AcDbEntity
  8
0
  6
Continuous
 62
     7
370
    15
100
AcDbLine
 10
689.5148544442
 20
382.9509014167
 30
0.0
 11
689.5148544442
 21
384.9509054698
 31
0.0
  0
LINE
  5
1F5
330
1F
100
AcDbEntity
  8
0
  6
Continuous
 62
     7
370
    15
100
AcDbLine
 10
707.0159627926
 20
349.9509015955
 30
0.0
 11
707.0159627926
 21
382.9509014167
 31
0.0
  0
LINE
  5
1F6
330
1F
100
AcDbEntity
  8
0
  6
Continuous
 62
     7
370
    15
100
AcDbLine
 10
707.0159627926
 20
106.9509083308
 30
0.0
 11
707.0159627926
 21
139.950908152
 31
0.0
  0
LINE
  5
1F7
330
1F
100
AcDbEntity
  8
0
  6
Continuous
 62
     7
370
    15
100
AcDbLine
 10
592.013747884
 20
122.9509035029
 30
0.0
 11
592.013747884
 21
106.9509083308
 31
0.0
  0
LINE
  5
1F8
330
1F
100
AcDbEntity
  8
0
  6
Continuous
 62
     7
370
    15
100
AcDbLine
 10
592.013747884
 20
382.9509014167
 30
0.0
 11
592.013747884
 21
366.9509062447
 31
0.0
  0
LWPOLYLINE
  5
1F9
330
1F
100
AcDbEntity
  8
0
  6
Continuous
 62
     7
370
    15
100
AcDbPolyline
 90
        3
 70
   128
 43
0.0
 10
644.3646144923
 20
310.3223958887
 10
644.3653227631
 20
310.3216657318
 10
644.3661306855
 20
310.3208387174
  0
LINE
  5
1FA
330
1F
100
AcDbEntity
  8
0
  6
Continuous
 62
     7
370
    15
100
AcDbLine
 10
707.0159627926
 20
139.950908152
 30
0.0
 11
684.014854474
 21
139.950908152
 31
0.0
  0
LINE
  5
1FB
330
1F
100
AcDbEntity
  8
0
  6
Continuous
 62
     7
370
    15
100
AcDbLine
 10
689.4165961873
 20
349.9509015955
 30
0.0
 11
707.0159627926
 21
349.9509015955
 31
0.0
  0
LWPOLYLINE
  5
1FC
330
1F
100
AcDbEntity
  8
0
  6
Continuous
 62
     7
370
    15
100
AcDbPolyline
 90
       10
 70
   128
 43
0.0
 10
568.5974969398
 20
208.5442053057
 10
566.7341663372
 20
208.8752569534
 10
564.938174082
 20
209.1943429686
 10
563.2744445335
 20
209.4899298527
 10
561.8031038773
 20
209.7513409235
 10
560.5773343574
 20
209.969117669
 10
559.6414296758
 20
210.1353960015
 10
559.0292229187
 20
210.2441670276
 10
558.76283486
 20
210.2914931156
 10
558.7516813409
 20
210.29347497
  0
LWPOLYLINE
  5
1FD
330
1F
100
AcDbEntity
  8
0
  6
Continuous
 62
     7
370
    15
100
AcDbPolyline
 90
       10
 70
   128
 43
0.0
 10
578.4433125388
 20
206.7949319162
 10
578.4321590197
 20
206.7969137706
 10
578.165770961
 20
206.8442435839
 10
577.5535642039
 20
206.9530108847
 10
576.6176595222
 20
207.1192892172
 10
575.3918825519
 20
207.337069688
 10
573.9205418956
 20
207.5984770335
 10
572.2568197977
 20
207.8940639176
 10
570.4608275425
 20
208.2131536581
 10
568.5974969398
 20
208.5442053057
  0
LWPOLYLINE
  5
1FE
330
1F
100
AcDbEntity
  8
0
  6
Continuous
 62
     7
370
    15
100
AcDbPolyline
 90
       13
 70
   128
 43
0.0
 10
572.8919147384
 20
202.7029314913
 10
572.7157830131
 20
202.7342239298
 10
572.1993907225
 20
202.825966654
 10
571.3779344093
 20
202.971912352
 10
570.3073902857
 20
203.1621144988
 10
569.0607069861
 20
203.3836053588
 10
567.7228583824
 20
203.6212975063
 10
566.3850097787
 20
203.8589896538
 10
565.1383339297
 20
204.0804805137
 10
564.0677898061
 20
204.2706826605
 10
563.2463334929
 20
204.4166283585
 10
562.7299412023
 20
204.5083710827
 10
562.553809477
 20
204.5396635212
  0
LWPOLYLINE
  5
1FF
330
1F
100
AcDbEntity
  8
0
  6
Continuous
 62
     7
370
    15
100
AcDbPolyline
 90
        7
 70
   128
 43
0.0
 10
566.8482272756
 20
198.6983897068
 10
565.6277178657
 20
198.9152351298
 10
564.5060851108
 20
199.1145083584
 10
563.5741962921
 20
199.2800751604
 10
562.9075555932
 20
199.3985133149
 10
562.5601648223
 20
199.4602339246
 10
562.5160648357
 20
199.4680682101
  0
LWPOLYLINE
  5
200
330
1F
100
AcDbEntity
  8
0
  6
Continuous
 62
     7
370
    15
100
AcDbPolyline
 90
        7
 70
   128
 43
0.0
 10
571.1803822648
 20
197.9287112035
 10
571.1362897288
 20
197.936545489
 10
570.7888915073
 20
197.9982660987
 10
570.1222508084
 20
198.1167042531
 10
569.1903694403
 20
198.2822710552
 10
568.0687366855
 20
198.4815480091
 10
566.8482272756
 20
198.6983897068
  0
ARC
  5
201
330
1F
100
AcDbEntity
  8
0
  6
Continuous
 62
     7
370
    15
100
AcDbCircle
 10
580.9443383668
 20
266.4776602326
 30
0.0
 40
2.999999999999982
100
AcDbArc
 50
259.925583395
 51
292.0756648412
  0
LINE
  5
202
330
1F
100
AcDbEntity
  8
0
  6
Continuous
 62
     7
370
    15
100
AcDbLine
 10
588.2455943953
 20
207.0873113252
 30
0.0
 11
587.7371220719
 21
206.7687915541
 31
0.0
  0
ARC
  5
203
330
1F
100
AcDbEntity
  8
0
  6
Continuous
 62
     7
370
    15
100
AcDbCircle
 10
640.7882524624
 20
240.0015827263
 30
0.0
 40
62.60064572193308
100
AcDbArc
 50
208.4396540116
 51
212.0642413743
  0
LWPOLYLINE
  5
204
330
1F
100
AcDbEntity
  8
0
  6
Continuous
 62
     7
370
    15
100
AcDbPolyline
 90
        3
 70
   128
 43
0.0
 10
585.7423036229
 20
210.1890960612
 10
585.0458084475
 20
211.5126283743
 10
584.3537538182
 20
212.9093887188
  0
LINE
  5
205
330
1F
100
AcDbEntity
  8
0
  6
Continuous
 62
     7
370
    15
100
AcDbLine
 10
585.5241953265
 20
211.8952901937
 30
0.0
 11
584.8383395802
 21
213.212947724
 31
0.0
  0
ARC
  5
206
330
1F
100
AcDbEntity
  8
0
  6
Continuous
 62
     7
370
    15
100
AcDbCircle
 10
640.7886726199
 20
240.0017698386
 30
0.0
 40
62.00110199458815
100
AcDbArc
 50
206.9570373079
 51
212.0641835685
  0
LINE
  5
207
330
1F
100
AcDbEntity
  8
0
  6
Continuous
 62
     7
370
    15
100
AcDbLine
 10
584.8383395802
 20
213.212947724
 30
0.0
 11
583.3505778443
 21
216.2046017029
 31
0.0
  0
ARC
  5
208
330
1F
100
AcDbEntity
  8
0
  6
Continuous
 62
     7
370
    15
100
AcDbCircle
 10
640.7877294844
 20
240.0011981916
 30
0.0
 40
62.6
100
AcDbArc
 50
202.4271801237
 51
205.6438937209
  0
ARC
  5
209
330
1F
100
AcDbEntity
  8
0
  6
Continuous
 62
     7
370
    15
100
AcDbCircle
 10
640.7877294844
 20
240.0011981916
 30
0.0
 40
62.6
100
AcDbArc
 50
164.0691487281
 51
202.4271801237
  0
ARC
  5
20A
330
1F
100
AcDbEntity
  8
0
  6
Continuous
 62
     7
370
    15
100
AcDbCircle
 10
640.7877294844
 20
240.0011981916
 30
0.0
 40
62.17157287525379
100
AcDbArc
 50
168.0380900979
 51
202.5045537878
  0
ARC
  5
20B
330
1F
100
AcDbEntity
  8
0
  6
Continuous
 62
     7
370
    15
100
AcDbCircle
 10
584.9023560335
 20
205.647376945
 30
0.0
 40
2.999999999999996
100
AcDbArc
 50
31.5798476138
 51
79.925583395
  0
LINE
  5
20C
330
1F
100
AcDbEntity
  8
0
  6
Continuous
 62
     7
370
    15
100
AcDbLine
 10
567.710944904
 20
265.7818099387
 30
0.0
 11
580.4195566904
 21
263.5239152141
 31
0.0
  0
LINE
  5
20D
330
1F
100
AcDbEntity
  8
0
  6
Continuous
 62
     7
370
    15
100
AcDbLine
 10
585.4271366131
 20
208.6011202909
 30
0.0
 11
553.4915118348
 21
214.2750112243
 31
0.0
  0
ARC
  5
20E
330
1F
100
AcDbEntity
  8
0
  6
Continuous
 62
     7
370
    15
100
AcDbCircle
 10
649.8299867811
 20
213.0031903492
 30
0.0
 40
101.2000000000001
100
AcDbArc
 50
150.3695827411
 51
175.9298493727
  0
ARC
  5
20F
330
1F
100
AcDbEntity
  8
0
  6
Continuous
 62
     7
370
    15
100
AcDbCircle
 10
566.7313518959
 20
260.2681549658
 30
0.0
 40
5.600000000000054
100
AcDbArc
 50
79.925583395
 51
150.3695827411
  0
ARC
  5
210
330
1F
100
AcDbEntity
  8
0
  6
Continuous
 62
     7
370
    15
100
AcDbCircle
 10
554.4710999634
 20
219.7886678471
 30
0.0
 40
5.599999999999989
100
AcDbArc
 50
175.9298493727
 51
259.925583395
  0
ARC
  5
211
330
1F
100
AcDbEntity
  8
0
  6
Continuous
 62
     7
370
    15
100
AcDbCircle
 10
633.2747572348
 20
347.486848873
 30
0.0
 40
22.50000000000011
100
AcDbArc
 50
151.2891440377
 51
228.7108559623
  0
ARC
  5
212
330
1F
100
AcDbEntity
  8
0
  6
Continuous
 62
     7
370
    15
100
AcDbCircle
 10
633.2747572348
 20
347.486848873
 30
0.0
 40
24.00000000000003
100
AcDbArc
 50
147.0158578735
 51
232.9841421265
  0
LINE
  5
213
330
1F
100
AcDbEntity
  8
0
  6
Continuous
 62
     7
370
    15
100
AcDbLine
 10
620.2998901587
 20
308.5628965773
 30
0.0
 11
622.1312410068
 21
309.578030733
 31
0.0
  0
ARC
  5
214
330
1F
100
AcDbEntity
  8
0
  6
Continuous
 62
     7
370
    15
100
AcDbCircle
 10
633.2747572348
 20
347.486848873
 30
0.0
 40
24.45000000000011
100
AcDbArc
 50
145.8960616174
 51
234.1039383826
  0
LINE
  5
215
330
1F
100
AcDbEntity
  8
0
  6
Continuous
 62
     7
370
    15
100
AcDbLine
 10
684.3997887206
 20
319.7618866243
 30
0.0
 11
687.1358132791
 21
325.6293082513
 31
0.0
  0
LINE
  5
216
330
1F
100
AcDbEntity
  8
0
  6
Continuous
 62
     7
370
    15
100
AcDbLine
 10
692.4843727481
 20
321.7190200366
 30
0.0
 11
687.1358132791
 21
325.6293082513
 31
0.0
  0
LINE
  5
217
330
1F
100
AcDbEntity
  8
0
  6
Continuous
 62
     7
370
    15
100
AcDbLine
 10
689.900023384
 20
316.1768684067
 30
0.0
 11
692.4843727481
 21
321.7190200366
 31
0.0
  0
LINE
  5
218
330
1F
100
AcDbEntity
  8
0
  6
Continuous
 62
     7
370
    15
100
AcDbLine
 10
687.1358132791
 20
325.6293082513
 30
0.0
 11
681.9813600611
 21
326.8982091822
 31
0.0
  0
LINE
  5
219
330
1F
100
AcDbEntity
  8
0
  6
Continuous
 62
     7
370
    15
100
AcDbLine
 10
682.3022491168
 20
328.7180432953
 30
0.0
 11
687.9300749731
 21
327.3326152839
 31
0.0
  0
LINE
  5
21A
330
1F
100
AcDbEntity
  8
0
  6
Continuous
 62
     7
370
    15
100
AcDbLine
 10
687.9300749731
 20
327.3326152839
 30
0.0
 11
693.278634442
 21
323.4223270692
 31
0.0
  0
LINE
  5
21B
330
1F
100
AcDbEntity
  8
0
  6
Continuous
 62
     7
370
    15
100
AcDbLine
 10
693.278634442
 20
323.4223270692
 30
0.0
 11
692.4843727481
 21
321.7190200366
 31
0.0
  0
LWPOLYLINE
  5
21C
330
1F
100
AcDbEntity
  8
0
  6
Continuous
 62
     7
370
    15
100
AcDbPolyline
 90
       13
 70
   128
 43
0.0
 10
683.219963206
 20
326.6965443172
 10
683.3466268014
 20
326.8624612965
 10
683.829834206
 20
327.0671138443
 10
684.5809719395
 20
327.0886236705
 10
685.5332939755
 20
326.9250983276
 10
686.6021840703
 20
326.5910515465
 10
687.6926659476
 20
326.1161813416
 10
688.7078485321
 20
325.5426654496
 10
689.5575239193
 20
324.9214732923
 10
690.1661991012
 20
324.3077987708
 10
690.4797865879
 20
323.7561726846
 10
690.4704249334
 20
323.3156049527
 10
690.4704249334
 20
323.3156049527
  0
LINE
  5
21D
330
1F
100
AcDbEntity
  8
0
  6
Continuous
 62
     7
370
    15
100
AcDbLine
 10
695.6614232492
 20
328.5322258152
 30
0.0
 11
690.3128637802
 21
332.4425140299
 31
0.0
  0
LINE
  5
21E
330
1F
100
AcDbEntity
  8
0
  6
Continuous
 62
     7
370
    15
100
AcDbLine
 10
693.278634442
 20
323.4223270692
 30
0.0
 11
695.6614232492
 21
328.5322258152
 31
0.0
  0
LINE
  5
21F
330
1F
100
AcDbEntity
  8
0
  6
Continuous
 62
     7
370
    15
100
AcDbLine
 10
687.9300749731
 20
327.3326152839
 30
0.0
 11
690.3128637802
 21
332.4425140299
 31
0.0
  0
LINE
  5
220
330
1F
100
AcDbEntity
  8
0
  6
Continuous
 62
     7
370
    15
100
AcDbLine
 10
690.3128637802
 20
332.4425140299
 30
0.0
 11
683.8794215452
 21
334.0262690462
 31
0.0
  0
LINE
  5
221
330
1F
100
AcDbEntity
  8
0
  6
Continuous
 62
     7
370
    15
100
AcDbLine
 10
682.8483468723
 20
331.815115539
 30
0.0
 11
683.8794215452
 21
334.0262690462
 31
0.0
  0
CIRCLE
  5
222
330
1F
100
AcDbEntity
  8
0
  6
Continuous
 62
     7
370
    15
100
AcDbCircle
 10
649.5148553383
 20
214.9509048738
 30
0.0
 40
13.00000000000011
  0
LINE
  5
223
330
1F
100
AcDbEntity
  8
0
  6
Continuous
 62
     7
370
    15
100
AcDbLine
 10
652.0148552824
 20
173.2009047546
 30
0.0
 11
650.7648553103
 21
174.4509035625
 31
0.0
  0
LINE
  5
224
330
1F
100
AcDbEntity
  8
0
  6
Continuous
 62
     7
370
    15
100
AcDbLine
 10
652.0148552824
 20
156.9509053506
 30
0.0
 11
652.0148552824
 21
173.2009047546
 31
0.0
  0
LINE
  5
225
330
1F
100
AcDbEntity
  8
0
  6
Continuous
 62
     7
370
    15
100
AcDbLine
 10
649.5148553383
 20
159.4509029664
 30
0.0
 11
652.0148552824
 21
156.9509053506
 31
0.0
  0
LINE
  5
226
330
1F
100
AcDbEntity
  8
0
  6
Continuous
 62
     7
370
    15
100
AcDbLine
 10
647.0148553942
 20
156.9509053506
 30
0.0
 11
649.5148553383
 21
159.4509029664
 31
0.0
  0
LINE
  5
227
330
1F
100
AcDbEntity
  8
0
  6
Continuous
 62
     7
370
    15
100
AcDbLine
 10
647.0148553942
 20
173.2009047546
 30
0.0
 11
647.0148553942
 21
156.9509053506
 31
0.0
  0
LINE
  5
228
330
1F
100
AcDbEntity
  8
0
  6
Continuous
 62
     7
370
    15
100
AcDbLine
 10
648.2648553662
 20
174.4509035625
 30
0.0
 11
647.0148553942
 21
173.2009047546
 31
0.0
  0
LINE
  5
229
330
1F
100
AcDbEntity
  8
0
  6
Continuous
 62
     7
370
    15
100
AcDbLine
 10
647.0148553942
 20
189.4509041585
 30
0.0
 11
648.2648553662
 21
189.4509041585
 31
0.0
  0
LINE
  5
22A
330
1F
100
AcDbEntity
  8
0
  6
Continuous
 62
     7
370
    15
100
AcDbLine
 10
650.7648553103
 20
189.4509041585
 30
0.0
 11
652.0148552824
 21
189.4509041585
 31
0.0
  0
LINE
  5
22B
330
1F
100
AcDbEntity
  8
0
  6
Continuous
 62
     7
370
    15
100
AcDbLine
 10
650.7648553103
 20
174.4509035625
 30
0.0
 11
650.7648553103
 21
189.4509041585
 31
0.0
  0
LINE
  5
22C
330
1F
100
AcDbEntity
  8
0
  6
Continuous
 62
     7
370
    15
100
AcDbLine
 10
648.2648553662
 20
189.4509041585
 30
0.0
 11
648.2648553662
 21
174.4509035625
 31
0.0
  0
LINE
  5
22D
330
1F
100
AcDbEntity
  8
0
  6
Continuous
 62
     7
370
    15
100
AcDbLine
 10
649.5148553383
 20
191.9509054996
 30
0.0
 11
647.0148553942
 21
189.4509041585
 31
0.0
  0
LINE
  5
22E
330
1F
100
AcDbEntity
  8
0
  6
Continuous
 62
     7
370
    15
100
AcDbLine
 10
652.0148552824
 20
189.4509041585
 30
0.0
 11
649.5148553383
 21
191.9509054996
 31
0.0
  0
LWPOLYLINE
  5
22F
330
1F
100
AcDbEntity
  8
0
  6
Continuous
 62
     7
370
    15
100
AcDbPolyline
 90
       22
 70
   128
 43
0.0
 10
676.0289440733
 20
240.7864680417
 10
676.1792334598
 20
244.4140902507
 10
675.6455576848
 20
249.5258253902
 10
674.3089067619
 20
254.3901367016
 10
672.059585793
 20
259.0843628995
 10
669.2429142874
 20
262.9534615107
 10
665.6538224649
 20
266.3587065317
 10
661.9400889483
 20
268.796825213
 10
657.7406204175
 20
270.6161638625
 10
653.5067539532
 20
271.6422988005
 10
649.0326182263
 20
271.9464110114
 10
644.7296105195
 20
271.5064784415
 10
640.4405603986
 20
270.3175073393
 10
636.5200593006
 20
268.4792050995
 10
632.8590023201
 20
265.9423494615
 10
629.7389357221
 20
262.8985581823
 10
627.0909192842
 20
259.2835830428
 10
625.0839899164
 20
255.3215170183
 10
623.6924524289
 20
250.9827123858
 10
622.9547853451
 20
246.3161248151
 10
622.8904141914
 20
241.4897404514
 10
622.9774984401
 20
240.8418510013
  0
LINE
  5
230
330
1F
100
AcDbEntity
  8
0
  6
Continuous
 62
     7
370
    15
100
AcDbLine
 10
627.2131274324
 20
132.6085397877
 30
0.0
 11
627.3260353934
 21
128.3806854762
 31
0.0
  0
LINE
  5
231
330
1F
100
AcDbEntity
  8
0
  6
Continuous
 62
     7
370
    15
100
AcDbLine
 10
649.5148553383
 20
366.9509062447
 30
0.0
 11
689.4635832738
 21
366.9509062447
 31
0.0
  0
LINE
  5
232
330
1F
100
AcDbEntity
  8
0
  6
Continuous
 62
     7
370
    15
100
AcDbLine
 10
689.4635832738
 20
382.9509014167
 30
0.0
 11
649.5148553383
 21
382.9509014167
 31
0.0
  0
LINE
  5
233
330
1F
100
AcDbEntity
  8
0
  6
Continuous
 62
     7
370
    15
100
AcDbLine
 10
649.5148553383
 20
122.9509035029
 30
0.0
 11
689.4635832738
 21
122.9509035029
 31
0.0
  0
LINE
  5
234
330
1F
100
AcDbEntity
  8
0
  6
Continuous
 62
     7
370
    15
100
AcDbLine
 10
689.4635832738
 20
106.9509083308
 30
0.0
 11
649.5148553383
 21
106.9509083308
 31
0.0
  0
LINE
  5
235
330
1F
100
AcDbEntity
  8
0
  6
Continuous
 62
     7
370
    15
100
AcDbLine
 10
609.5661274027
 20
122.9509035029
 30
0.0
 11
649.5148553383
 21
122.9509035029
 31
0.0
  0
LINE
  5
236
330
1F
100
AcDbEntity
  8
0
  6
Continuous
 62
     7
370
    15
100
AcDbLine
 10
649.5148553383
 20
106.9509083308
 30
0.0
 11
609.5661274027
 21
106.9509083308
 31
0.0
  0
LINE
  5
237
330
1F
100
AcDbEntity
  8
0
  6
Continuous
 62
     7
370
    15
100
AcDbLine
 10
609.5661274027
 20
366.9509062447
 30
0.0
 11
649.5148553383
 21
366.9509062447
 31
0.0
  0
LINE
  5
238
330
1F
100
AcDbEntity
  8
0
  6
Continuous
 62
     7
370
    15
100
AcDbLine
 10
649.5148553383
 20
382.9509014167
 30
0.0
 11
609.5661274027
 21
382.9509014167
 31
0.0
  0
LINE
  5
239
330
1F
100
AcDbEntity
  8
0
  6
Continuous
 62
     7
370
    15
100
AcDbLine
 10
689.4635832738
 20
122.9509035029
 30
0.0
 11
701.7566016745
 21
122.9509035029
 31
0.0
  0
LINE
  5
23A
330
1F
100
AcDbEntity
  8
0
  6
Continuous
 62
     7
370
    15
100
AcDbLine
 10
701.7566016745
 20
106.9509083308
 30
0.0
 11
689.4635832738
 21
106.9509083308
 31
0.0
  0
LINE
  5
23B
330
1F
100
AcDbEntity
  8
0
  6
Continuous
 62
     7
370
    15
100
AcDbLine
 10
689.4635832738
 20
366.9509062447
 30
0.0
 11
701.7566016745
 21
366.9509062447
 31
0.0
  0
LINE
  5
23C
330
1F
100
AcDbEntity
  8
0
  6
Continuous
 62
     7
370
    15
100
AcDbLine
 10
701.7566016745
 20
382.9509014167
 30
0.0
 11
689.4635832738
 21
382.9509014167
 31
0.0
  0
LINE
  5
23D
330
1F
100
AcDbEntity
  8
0
  6
Continuous
 62
     7
370
    15
100
AcDbLine
 10
597.2731090021
 20
122.9509035029
 30
0.0
 11
609.5661274027
 21
122.9509035029
 31
0.0
  0
LINE
  5
23E
330
1F
100
AcDbEntity
  8
0
  6
Continuous
 62
     7
370
    15
100
AcDbLine
 10
609.5661274027
 20
106.9509083308
 30
0.0
 11
597.2731090021
 21
106.9509083308
 31
0.0
  0
LINE
  5
23F
330
1F
100
AcDbEntity
  8
0
  6
Continuous
 62
     7
370
    15
100
AcDbLine
 10
597.2731090021
 20
366.9509062447
 30
0.0
 11
609.5661274027
 21
366.9509062447
 31
0.0
  0
LINE
  5
240
330
1F
100
AcDbEntity
  8
0
  6
Continuous
 62
     7
370
    15
100
AcDbLine
 10
609.5661274027
 20
382.9509014167
 30
0.0
 11
597.2731090021
 21
382.9509014167
 31
0.0
  0
ARC
  5
241
330
1F
100
AcDbEntity
  8
0
  6
Continuous
 62
     7
370
    15
100
AcDbCircle
 10
622.337764083
 20
127.9571170614
 30
0.0
 40
5.006222215271978
100
AcDbArc
 50
269.8934485613
 51
4.8535063002
  0
LINE
  5
242
330
1F
100
AcDbEntity
  8
0
  6
Continuous
 62
     7
370
    15
100
AcDbLine
 10
649.5148553383
 20
104.9509042777
 30
0.0
 11
689.5148544442
 21
104.9509042777
 31
0.0
  0
LINE
  5
243
330
1F
100
AcDbEntity
  8
0
  6
Continuous
 62
     7
370
    15
100
AcDbLine
 10
609.5148562323
 20
104.9509042777
 30
0.0
 11
649.5148553383
 21
104.9509042777
 31
0.0
  0
LINE
  5
244
330
1F
100
AcDbEntity
  8
0
  6
Continuous
 62
     7
370
    15
100
AcDbLine
 10
649.5148553383
 20
384.9509054698
 30
0.0
 11
689.5148544442
 21
384.9509054698
 31
0.0
  0
LINE
  5
245
330
1F
100
AcDbEntity
  8
0
  6
Continuous
 62
     7
370
    15
100
AcDbLine
 10
609.5148562323
 20
384.9509054698
 30
0.0
 11
649.5148553383
 21
384.9509054698
 31
0.0
  0
LWPOLYLINE
  5
246
330
1F
100
AcDbEntity
  8
0
  6
Continuous
 62
     7
370
    15
100
AcDbPolyline
 90
       10
 70
   128
 43
0.0
 10
706.3372223508
 20
362.7009013571
 10
706.3997848761
 20
359.9986875333
 10
706.4882567954
 20
357.730723349
 10
706.6005519461
 20
355.604960946
 10
706.7180774044
 20
353.7934342303
 10
706.8331069183
 20
352.250448791
 10
706.9261721205
 20
351.1035064139
 10
706.9908841383
 20
350.3228792824
 10
707.0157020223
 20
349.9753991045
 10
707.0138356518
 20
349.9833190717
  0
LWPOLYLINE
  5
247
330
1F
100
AcDbEntity
  8
0
  6
Continuous
 62
     7
370
    15
100
AcDbPolyline
 90
        6
 70
   128
 43
0.0
 10
705.7824893724
 20
366.9509062447
 10
705.9874734711
 20
366.6667560019
 10
706.1538449358
 20
365.8436978139
 10
706.2697424423
 20
364.579416243
 10
706.3315040302
 20
363.0233699359
 10
706.3372223508
 20
362.7009013571
  0
LINE
  5
248
330
1F
100
AcDbEntity
  8
0
  6
Continuous
 62
     7
370
    15
100
AcDbLine
 10
701.7566016745
 20
366.9509062447
 30
0.0
 11
705.7824893724
 21
366.9509062447
 31
0.0
  0
LINE
  5
249
330
1F
100
AcDbEntity
  8
0
  6
Continuous
 62
     7
370
    15
100
AcDbLine
 10
707.0159627926
 20
382.9509014167
 30
0.0
 11
701.7566016745
 21
382.9509014167
 31
0.0
  0
LWPOLYLINE
  5
24A
330
1F
100
AcDbEntity
  8
0
  6
Continuous
 62
     7
370
    15
100
AcDbPolyline
 90
        6
 70
   128
 43
0.0
 10
706.3372223508
 20
127.2009083905
 10
706.286241753
 20
125.6116920986
 10
706.1820044052
 20
124.2863157667
 10
706.027419759
 20
123.3701998271
 10
705.8308324646
 20
122.9652458705
 10
705.7824893724
 20
122.9509035029
  0
LWPOLYLINE
  5
24B
330
1F
100
AcDbEntity
  8
0
  6
Continuous
 62
     7
370
    15
100
AcDbPolyline
 90
       10
 70
   128
 43
0.0
 10
706.3372223508
 20
127.2009083905
 10
706.3997848761
 20
129.9031222142
 10
706.4882567954
 20
132.1710863985
 10
706.6005519461
 20
134.2968488015
 10
706.7180774044
 20
136.1083755173
 10
706.8331069183
 20
137.6513609566
 10
706.9261721205
 20
138.7983033337
 10
706.9908841383
 20
139.5789304652
 10
707.0157020223
 20
139.926410643
 10
707.0100023281
 20
139.9022111573
  0
LINE
  5
24C
330
1F
100
AcDbEntity
  8
0
  6
Continuous
 62
     7
370
    15
100
AcDbLine
 10
701.7566016745
 20
122.9509035029
 30
0.0
 11
705.7824893724
 21
122.9509035029
 31
0.0
  0
LINE
  5
24D
330
1F
100
AcDbEntity
  8
0
  6
Continuous
 62
     7
370
    15
100
AcDbLine
 10
707.0159627926
 20
106.9509083308
 30
0.0
 11
701.7566016745
 21
106.9509083308
 31
0.0
  0
LINE
  5
24E
330
1F
100
AcDbEntity
  8
0
  6
Continuous
 62
     7
370
    15
100
AcDbLine
 10
592.013747884
 20
122.9509035029
 30
0.0
 11
597.2731090021
 21
122.9509035029
 31
0.0
  0
LINE
  5
24F
330
1F
100
AcDbEntity
  8
0
  6
Continuous
 62
     7
370
    15
100
AcDbLine
 10
597.2731090021
 20
106.9509083308
 30
0.0
 11
592.013747884
 21
106.9509083308
 31
0.0
  0
LINE
  5
250
330
1F
100
AcDbEntity
  8
0
  6
Continuous
 62
     7
370
    15
100
AcDbLine
 10
592.013747884
 20
366.9509062447
 30
0.0
 11
597.2731090021
 21
366.9509062447
 31
0.0
  0
LINE
  5
251
330
1F
100
AcDbEntity
  8
0
  6
Continuous
 62
     7
370
    15
100
AcDbLine
 10
597.2731090021
 20
382.9509014167
 30
0.0
 11
592.013747884
 21
382.9509014167
 31
0.0
  0
ARC
  5
252
330
1F
100
AcDbEntity
  8
0
  6
Continuous
 62
     7
370
    15
100
AcDbCircle
 10
649.5148553383
 20
244.9509048738
 30
0.0
 40
30.00000000000001
100
AcDbArc
 50
330.7265053921
 51
209.4652784447
  0
CIRCLE
  5
253
330
1F
100
AcDbEntity
  8
0
  6
Continuous
 62
     7
370
    15
100
AcDbCircle
 10
649.5148553383
 20
339.9509048738
 30
0.0
 40
15.00000000000011
  0
LINE
  5
254
330
1F
100
AcDbEntity
  8
0
  6
Continuous
 62
     7
370
    15
100
AcDbLine
 10
652.5148553644
 20
325.253962902
 30
0.0
 11
652.5148553644
 21
274.8005272724
 31
0.0
  0
LINE
  5
255
330
1F
100
AcDbEntity
  8
0
  6
Continuous
 62
     7
370
    15
100
AcDbLine
 10
646.5148553122
 20
325.253962902
 30
0.0
 11
646.5148553122
 21
274.8005272724
 31
0.0
  0
ARC
  5
256
330
1F
100
AcDbEntity
  8
0
  6
Continuous
 62
     7
370
    15
100
AcDbCircle
 10
624.2611924647
 20
361.6886823157
 30
0.0
 40
5.264770368886202
100
AcDbArc
 50
4.8566222346
 51
91.7821002723
  0
LWPOLYLINE
  5
257
330
1F
100
AcDbEntity
  8
0
  6
Continuous
 62
     7
370
    15
100
AcDbPolyline
 90
        7
 70
   128
 43
0.0
 10
674.1323969197
 20
366.9509062447
 10
674.1255479735
 20
366.9508838929
 10
673.8160732072
 20
366.9061953105
 10
672.9989587199
 20
366.3794020094
 10
672.334255172
 20
365.4296168961
 10
671.8530668747
 20
364.1964042463
 10
671.5825158041
 20
362.7009013571
  0
LINE
  5
258
330
1F
100
AcDbEntity
  8
0
  6
Continuous
 62
     7
370
    15
100
AcDbLine
 10
671.5825158041
 20
362.7009013571
 30
0.0
 11
671.6693430077
 21
361.5150445976
 31
0.0
  0
ARC
  5
259
330
1F
100
AcDbEntity
  8
0
  6
Continuous
 62
     7
370
    15
100
AcDbCircle
 10
649.5148553383
 20
244.9509048738
 30
0.0
 40
55.1107621486895
100
AcDbArc
 50
296.7542832155
 51
86.8795143387
  0
ARC
  5
25A
330
1F
100
AcDbEntity
  8
0
  6
Continuous
 62
     7
370
    15
100
AcDbCircle
 10
649.5148553383
 20
244.9509048738
 30
0.0
 40
55.1107621486895
100
AcDbArc
 50
93.1204856613
 51
243.2250446514
  0
LWPOLYLINE
  5
25B
330
1F
100
AcDbEntity
  8
0
  6
Continuous
 62
     7
370
    15
100
AcDbPolyline
 90
        3
 70
   128
 43
0.0
 10
696.4994869065
 20
262.0519114562
 10
695.3761852216
 20
259.9340820588
 10
694.7991824579
 20
258.8462218546
  0
LWPOLYLINE
  5
25C
330
1F
100
AcDbEntity
  8
0
  6
Continuous
 62
     7
370
    15
100
AcDbPolyline
 90
        3
 70
   128
 43
0.0
 10
699.7051774394
 20
260.3516070076
 10
697.510947926
 20
261.5154305376
 10
696.4994869065
 20
262.0519114562
  0
LINE
  5
25D
330
1F
100
AcDbEntity
  8
0
  6
Continuous
 62
     7
370
    15
100
AcDbLine
 10
698.5101676416
 20
259.9849238895
 30
0.0
 11
699.7051774394
 21
260.3516070076
 31
0.0
  0
ARC
  5
25E
330
1F
100
AcDbEntity
  8
0
  6
Continuous
 62
     7
370
    15
100
AcDbCircle
 10
649.5148553383
 20
244.9509048738
 30
0.0
 40
51.25000000000009
100
AcDbArc
 50
1.3793586835
 51
17.0584250635
  0
LWPOLYLINE
  5
25F
330
1F
100
AcDbEntity
  8
0
  6
Continuous
 62
     7
370
    15
100
AcDbPolyline
 90
        3
 70
   128
 43
0.0
 10
702.0148536992
 20
244.9510076215
 10
701.3847692739
 20
245.5655191579
 10
700.7500058841
 20
246.184596107
  0
ARC
  5
260
330
1F
100
AcDbEntity
  8
0
  6
Continuous
 62
     7
370
    15
100
AcDbCircle
 10
649.5148553383
 20
244.9509048738
 30
0.0
 40
52.50000000000016
100
AcDbArc
 50
340.0
 51
0.0001121335
  0
LWPOLYLINE
  5
261
330
1F
100
AcDbEntity
  8
0
  6
Continuous
 62
     7
370
    15
100
AcDbPolyline
 90
        3
 70
   128
 43
0.0
 10
697.2955404651
 20
230.2197715171
 10
698.3905336689
 20
227.946195183
 10
698.8487182986
 20
226.9948473104
  0
LWPOLYLINE
  5
262
330
1F
100
AcDbEntity
  8
0
  6
Continuous
 62
     7
370
    15
100
AcDbPolyline
 90
        3
 70
   128
 43
0.0
 10
694.1502555143
 20
228.7049474098
 10
695.1948865187
 20
229.2080609031
 10
697.2955404651
 20
230.2197715171
  0
ARC
  5
263
330
1F
100
AcDbEntity
  8
0
  6
Continuous
 62
     7
370
    15
100
AcDbCircle
 10
649.5148553383
 20
244.9509048738
 30
0.0
 40
47.50000000000005
100
AcDbArc
 50
340.0
 51
0.0
  0
LWPOLYLINE
  5
264
330
1F
100
AcDbEntity
  8
0
  6
Continuous
 62
     7
370
    15
100
AcDbPolyline
 90
        3
 70
   128
 43
0.0
 10
698.2484436464
 20
246.2157557156
 10
697.576624794
 20
245.5269093761
 10
697.0148547422
 20
244.9509048738
  0
ARC
  5
265
330
1F
100
AcDbEntity
  8
0
  6
Continuous
 62
     7
370
    15
100
AcDbCircle
 10
649.5148553383
 20
244.9509048738
 30
0.0
 40
48.75000000000011
100
AcDbArc
 50
1.4867435953
 51
17.0584250635
  0
LINE
  5
266
330
1F
100
AcDbEntity
  8
0
  6
Continuous
 62
     7
370
    15
100
AcDbLine
 10
694.7991824579
 20
258.8462218546
 30
0.0
 11
696.1201554965
 21
259.2515567221
 31
0.0
  0
LWPOLYLINE
  5
267
330
1F
100
AcDbEntity
  8
0
  6
Continuous
 62
     7
370
    15
100
AcDbPolyline
 90
        8
 70
   128
 43
0.0
 10
629.7401613426
 20
356.636061696
 10
630.1975357216
 20
349.1545090355
 10
630.6551280301
 20
341.6729489245
 10
631.6466177684
 20
334.3023950137
 10
633.701346336
 20
327.2331351318
 10
636.9333914351
 20
320.2708581366
 10
641.2256979253
 20
313.8943159856
 10
646.5148553122
 20
308.2381853737
  0
LINE
  5
268
330
1F
100
AcDbEntity
  8
0
  6
Continuous
 62
     7
370
    15
100
AcDbLine
 10
629.7401613426
 20
356.636061696
 30
0.0
 11
629.5070606154
 21
362.1344113626
 31
0.0
  0
LINE
  5
269
330
1F
100
AcDbEntity
  8
0
  6
Continuous
 62
     7
370
    15
100
AcDbLine
 10
672.4619730246
 20
358.4125557818
 30
0.0
 11
671.6693430077
 21
361.5150445976
 31
0.0
  0
LINE
  5
26A
330
1F
100
AcDbEntity
  8
0
  6
Continuous
 62
     7
370
    15
100
AcDbLine
 10
672.5954091978
 20
357.8145572819
 30
0.0
 11
672.4619730246
 21
358.4125557818
 31
0.0
  0
LWPOLYLINE
  5
26B
330
1F
100
AcDbEntity
  8
0
  6
Continuous
 62
     7
370
    15
100
AcDbPolyline
 90
        6
 70
   128
 43
0.0
 10
672.5954091978
 20
357.8145572819
 10
673.9646303337
 20
335.0912997402
 10
674.6852672529
 20
330.7434910812
 10
676.4491288793
 20
326.782866744
 10
679.1501189452
 20
323.3941191711
 10
682.6737089884
 20
320.7603389301
  0
ARC
  5
26C
330
1F
100
AcDbEntity
  8
0
  6
Continuous
 62
     7
370
    15
100
AcDbCircle
 10
643.2603838436
 20
250.6330114839
 30
0.0
 40
80.44409616959209
100
AcDbArc
 50
24.2581989775
 51
60.6629167876
  0
ARC
  5
26D
330
1F
100
AcDbEntity
  8
0
  6
Continuous
 62
     7
370
    15
100
AcDbCircle
 10
651.5892383479
 20
248.4129147347
 30
0.0
 40
73.96354499756445
100
AcDbArc
 50
341.9922570399
 51
28.4807377974
  0
ARC
  5
26E
330
1F
100
AcDbEntity
  8
0
  6
Continuous
 62
     7
370
    15
100
AcDbCircle
 10
653.4293538523
 20
245.9274793839
 30
0.0
 40
71.46774772004841
100
AcDbArc
 50
296.8892000991
 51
343.4313194672
  0
LINE
  5
26F
330
1F
100
AcDbEntity
  8
0
  6
Continuous
 62
     7
370
    15
100
AcDbLine
 10
655.6022539605
 20
308.7947362937
 30
0.0
 11
652.5148553644
 21
307.430106578
 31
0.0
  0
ARC
  5
270
330
1F
100
AcDbEntity
  8
0
  6
Continuous
 62
     7
370
    15
100
AcDbCircle
 10
652.969598248
 20
242.8702134265
 30
0.0
 40
68.97225966575523
100
AcDbArc
 50
287.4739102359
 51
298.378616711
  0
ARC
  5
271
330
1F
100
AcDbEntity
  8
0
  6
Continuous
 62
     7
370
    15
100
AcDbCircle
 10
647.8545066717
 20
241.7672908992
 30
0.0
 40
66.47863932989114
100
AcDbArc
 50
208.3390208531
 51
250.1597990721
  0
ARC
  5
272
330
1F
100
AcDbEntity
  8
0
  6
Continuous
 62
     7
370
    15
100
AcDbCircle
 10
646.497417408
 20
238.9503697935
 30
0.0
 40
63.97336008466143
100
AcDbArc
 50
159.0990471722
 51
206.6952160527
  0
ARC
  5
273
330
1F
100
AcDbEntity
  8
0
  6
Continuous
 62
     7
370
    15
100
AcDbCircle
 10
645.6020296185
 20
243.9967502725
 30
0.0
 40
61.49382575295186
100
AcDbArc
 50
116.395841376
 51
163.1974004472
  0
ARC
  5
274
330
1F
100
AcDbEntity
  8
0
  6
Continuous
 62
     7
370
    15
100
AcDbCircle
 10
646.0786062591
 20
247.0474537202
 30
0.0
 40
59.00000000000002
100
AcDbArc
 50
89.5763481557
 51
118.1277412851
  0
ARC
  5
275
330
1F
100
AcDbEntity
  8
0
  6
Continuous
 62
     7
370
    15
100
AcDbCircle
 10
675.3572309659
 20
139.3140808992
 30
0.0
 40
3.189437308828155
100
AcDbArc
 50
187.929778215
 51
266.3140137833
  0
LINE
  5
276
330
1F
100
AcDbEntity
  8
0
  6
Continuous
 62
     7
370
    15
100
AcDbLine
 10
672.696668176
 20
356.233104495
 30
0.0
 11
672.5954091978
 21
357.8145572819
 31
0.0
  0
LWPOLYLINE
  5
277
330
1F
100
AcDbEntity
  8
0
  6
Continuous
 62
     7
370
    15
100
AcDbPolyline
 90
        3
 70
   128
 43
0.0
 10
672.696668176
 20
356.233104495
 10
672.982187463
 20
351.4686146654
 10
672.985709725
 20
351.3372236766
  0
LINE
  5
278
330
1F
100
AcDbEntity
  8
0
  6
Continuous
 62
     7
370
    15
100
AcDbLine
 10
680.0903710406
 20
322.6913059034
 30
0.0
 11
681.0785210561
 21
321.7779317774
 31
0.0
  0
LINE
  5
279
330
1F
100
AcDbEntity
  8
0
  6
Continuous
 62
     7
370
    15
100
AcDbLine
 10
684.6883646082
 20
136.1312413492
 30
0.0
 11
675.1521876883
 21
136.1312413492
 31
0.0
  0
ARC
  5
27A
330
1F
100
AcDbEntity
  8
0
  6
Continuous
 62
     7
370
    15
100
AcDbCircle
 10
707.0880521434
 20
335.3824919479
 30
0.0
 40
27.40647601695088
100
AcDbArc
 50
122.8266371367
 51
130.4659801263
  0
LWPOLYLINE
  5
27B
330
1F
100
AcDbEntity
  8
0
  6
Continuous
 62
     7
370
    15
100
AcDbPolyline
 90
        6
 70
   128
 43
0.0
 10
685.5167909395
 20
346.9486230888
 10
685.9393692445
 20
348.1544399537
 10
686.6542189252
 20
349.0368196644
 10
688.131892575
 20
349.8333910384
 10
690.2487515342
 20
350.0270241775
 10
690.2593499851
 20
350.0260928549
  0
ARC
  5
27C
330
1F
100
AcDbEntity
  8
0
  6
Continuous
 62
     7
370
    15
100
AcDbCircle
 10
695.8244996222
 20
348.9040303821
 30
0.0
 40
9.811567103854083
100
AcDbArc
 50
131.6702899844
 51
169.9248513493
  0
LINE
  5
27D
330
1F
100
AcDbEntity
  8
0
  6
Continuous
 62
     7
370
    15
100
AcDbLine
 10
686.1642352175
 20
350.620462922
 30
0.0
 11
681.0785210561
 21
321.7779317774
 31
0.0
  0
LINE
  5
27E
330
1F
100
AcDbEntity
  8
0
  6
Continuous
 62
     7
370
    15
100
AcDbLine
 10
612.743397696
 20
362.8191420712
 30
0.0
 11
623.5425933134
 21
301.5738533713
 31
0.0
  0
ARC
  5
27F
330
1F
100
AcDbEntity
  8
0
  6
Continuous
 62
     7
370
    15
100
AcDbCircle
 10
607.8193571824
 20
361.9509048738
 30
0.0
 40
5.0
100
AcDbArc
 50
10.0
 51
90.0
  0
LINE
  5
280
330
1F
100
AcDbEntity
  8
0
  6
Continuous
 62
     7
370
    15
100
AcDbLine
 10
684.6883646082
 20
136.1312413492
 30
0.0
 11
677.2505487185
 21
178.3132025875
 31
0.0
  0
LINE
  5
281
330
1F
100
AcDbEntity
  8
0
  6
Continuous
 62
     7
370
    15
100
AcDbLine
 10
622.1547587645
 20
180.4571593084
 30
0.0
 11
612.0148538482
 21
122.9509035029
 31
0.0
  0
ARC
  5
282
330
1F
100
AcDbEntity
  8
0
  6
Continuous
 62
     7
370
    15
100
AcDbCircle
 10
649.5148553383
 20
244.9509048738
 30
0.0
 40
66.49999999999991
100
AcDbArc
 50
170.0311008109
 51
178.1093364212
  0
LINE
  5
283
330
1F
100
AcDbEntity
  8
0
  6
Continuous
 62
     7
370
    15
100
AcDbLine
 10
584.0188800227
 20
256.4629580729
 30
0.0
 11
590.8754705321
 21
295.4724090077
 31
0.0
  0
ARC
  5
284
330
1F
100
AcDbEntity
  8
0
  6
Continuous
 62
     7
370
    15
100
AcDbCircle
 10
600.7244874364
 20
293.7412727757
 30
0.0
 40
9.999999999999936
100
AcDbArc
 50
99.9688991891
 51
170.0311008109
  0
LINE
  5
285
330
1F
100
AcDbEntity
  8
0
  6
Continuous
 62
     7
370
    15
100
AcDbLine
 10
598.9933512043
 20
303.5902896799
 30
0.0
 11
622.4597575944
 21
307.7149161972
 31
0.0
  0
ARC
  5
286
330
1F
100
AcDbEntity
  8
0
  6
Continuous
 62
     7
370
    15
100
AcDbCircle
 10
698.3052232402
 20
196.1605369719
 30
0.0
 40
10.00000000000002
100
AcDbArc
 50
279.9688991891
 51
350.0311008109
  0
LINE
  5
287
330
1F
100
AcDbEntity
  8
0
  6
Continuous
 62
     7
370
    15
100
AcDbLine
 10
700.0363594722
 20
186.3115200676
 30
0.0
 11
690.0526820552
 21
184.556714622
 31
0.0
  0
LINE
  5
288
330
1F
100
AcDbEntity
  8
0
  6
Continuous
 62
     7
370
    15
100
AcDbLine
 10
709.3933201265
 20
201.4789277591
 30
0.0
 11
708.1542401444
 21
194.4294007398
 31
0.0
  0
ARC
  5
289
330
1F
100
AcDbEntity
  8
0
  6
Continuous
 62
     7
370
    15
100
AcDbCircle
 10
600.7244874364
 20
196.1605369719
 30
0.0
 40
9.999999999999998
100
AcDbArc
 50
189.9688991891
 51
260.0311008109
  0
LINE
  5
28A
330
1F
100
AcDbEntity
  8
0
  6
Continuous
 62
     7
370
    15
100
AcDbLine
 10
590.8754705321
 20
194.4294007398
 30
0.0
 11
587.3230895829
 21
214.6400896736
 31
0.0
  0
LINE
  5
28B
330
1F
100
AcDbEntity
  8
0
  6
Continuous
 62
     7
370
    15
100
AcDbLine
 10
616.2591478657
 20
183.2767570295
 30
0.0
 11
598.9933512043
 21
186.3115200676
 31
0.0
  0
ARC
  5
28C
330
1F
100
AcDbEntity
  8
0
  6
Continuous
 62
     7
370
    15
100
AcDbCircle
 10
649.5148553383
 20
244.9509048738
 30
0.0
 40
69.99999999999993
100
AcDbArc
 50
164.9738862409
 51
195.0261137591
  0
ARC
  5
28D
330
1F
100
AcDbEntity
  8
0
  6
Continuous
 62
     7
370
    15
100
AcDbCircle
 10
584.3228312863
 20
227.4509048738
 30
0.0
 40
2.500000000000003
100
AcDbArc
 50
195.0261137591
 51
255.6753329502
  0
ARC
  5
28E
330
1F
100
AcDbEntity
  8
0
  6
Continuous
 62
     7
370
    15
100
AcDbCircle
 10
584.3228312863
 20
262.4509048738
 30
0.0
 40
2.499999999999976
100
AcDbArc
 50
104.3246670498
 51
164.9738862409
  0
ARC
  5
28F
330
1F
100
AcDbEntity
  8
0
  6
Continuous
 62
     7
370
    15
100
AcDbCircle
 10
582.9620423421
 20
267.7799060419
 30
0.0
 40
3.000000000000039
100
AcDbArc
 50
284.3246670498
 51
350.0311008109
  0
LINE
  5
290
330
1F
100
AcDbEntity
  8
0
  6
Continuous
 62
     7
370
    15
100
AcDbLine
 10
584.0852199923
 20
224.9037133433
 30
0.0
 11
583.7042941582
 21
225.0286316402
 31
0.0
  0
ARC
  5
291
330
1F
100
AcDbEntity
  8
0
  6
Continuous
 62
     7
370
    15
100
AcDbCircle
 10
649.5148553383
 20
244.9509048738
 30
0.0
 40
69.99999999999993
100
AcDbArc
 50
151.8362284722
 51
164.9738862409
  0
ARC
  5
292
330
1F
100
AcDbEntity
  8
0
  6
Continuous
 62
     7
370
    15
100
AcDbCircle
 10
649.5148553383
 20
244.9509048738
 30
0.0
 40
70.0
100
AcDbArc
 50
112.9988569235
 51
118.1637715278
  0
ARC
  5
293
330
1F
100
AcDbEntity
  8
0
  6
Continuous
 62
     7
370
    15
100
AcDbCircle
 10
649.5148553383
 20
244.9509048738
 30
0.0
 40
69.99999999999996
100
AcDbArc
 50
195.0261137591
 51
208.1637715278
  0
INSERT
  5
29F
330
1F
100
AcDbEntity
  8
SLD-0
100
AcDbBlockReference
  2
SW_CENTERMARKSYMBOL_0
 10
649.5148553383
 20
244.9509048738
 30
0.0
  0
LINE
  5
2A0
330
1F
100
AcDbEntity
  8
0
  6
Continuous
 62
     7
370
     0
100
AcDbLine
 10
582.5240553111
 20
452.7709091377
 30
0.0
 11
725.5527839751
 21
452.7709091377
 31
0.0
  0
ARC
  5
2A1
330
1F
100
AcDbEntity
  8
0
  6
Continuous
 62
     7
370
    15
100
AcDbCircle
 10
649.514855513
 20
452.803912123
 30
0.0
 40
39.96703273711383
100
AcDbArc
 50
359.9526877064
 51
180.0473122936
  0
ARC
  5
2A2
330
1F
100
AcDbEntity
  8
0
  6
Continuous
 62
     7
370
    15
100
AcDbCircle
 10
649.514855513
 20
452.770907275
 30
0.0
 40
17.50000007450591
100
AcDbArc
 50
359.9999939016
 51
179.9999939016
  0
CIRCLE
  5
2A3
330
1F
100
AcDbEntity
  8
0
  6
Continuous
 62
     7
370
    15
100
AcDbCircle
 10
614.1595149805
 20
488.126247399
 30
0.0
 40
7.500000116344983
  0
CIRCLE
  5
2A4
330
1F
100
AcDbEntity
  8
0
  6
Continuous
 62
     7
370
    15
100
AcDbCircle
 10
684.870195815
 20
488.1262482822
 30
0.0
 40
7.500000295075057
  0
ARC
  5
2A5
330
1F
100
AcDbEntity
  8
0
  6
Continuous
 62
     7
370
    15
100
AcDbCircle
 10
557.015955666
 20
453.3477159852
 30
0.0
 40
150.0000099145977
100
AcDbArc
 50
359.7796754852
 51
15.2172360699
  0
ARC
  5
2A6
330
1F
100
AcDbEntity
  8
0
  6
Continuous
 62
     7
370
    15
100
AcDbCircle
 10
742.0135539973
 20
453.3477284481
 30
0.0
 40
149.9998123408101
100
AcDbArc
 50
164.7827483351
 51
180.2203309885
  0
ARC
  5
2A7
330
1F
100
AcDbEntity
  8
0
  6
Continuous
 62
     7
370
    15
100
AcDbCircle
 10
614.159513744
 20
488.1262521297
 30
0.0
 40
17.49999604452208
100
AcDbArc
 50
105.2172241857
 51
164.7827736439
  0
ARC
  5
2A8
330
1F
100
AcDbEntity
  8
0
  6
Continuous
 62
     7
370
    15
100
AcDbCircle
 10
684.8701972821
 20
488.1262521297
 30
0.0
 40
17.49999604452202
100
AcDbArc
 50
15.2172263561
 51
74.7827758143
  0
ARC
  5
2A9
330
1F
100
AcDbEntity
  8
0
  6
Continuous
 62
     7
370
    15
100
AcDbCircle
 10
650.0916612682
 20
360.2719632014
 30
0.0
 40
150.000055533623
100
AcDbArc
 50
74.782768975
 51
90.2203240306
  0
ARC
  5
2AA
330
1F
100
AcDbEntity
  8
0
  6
Continuous
 62
     7
370
    15
100
AcDbCircle
 10
648.9380497578
 20
360.2719632014
 30
0.0
 40
150.000055533623
100
AcDbArc
 50
89.7796759694
 51
105.217231025
  0
ARC
  5
2AB
330
1F
100
AcDbEntity
  8
SLD-0
  6
CENTERX2
370
     0
100
AcDbCircle
 10
649.5148553383
 20
452.7709098055
 30
0.0
 40
50.00000000000068
100
AcDbArc
 50
0.0
 51
180.0
  0
ENDSEC
  0
SECTION
  2
OBJECTS
  0
DICTIONARY
  5
C
330
0
100
AcDbDictionary
281
     1
  3
ACAD_GROUP
350
D
  3
ACAD_LAYOUT
350
1A
  3
ACAD_MLEADERSTYLE
350
2AD
  3
ACAD_MLINESTYLE
350
17
  3
ACAD_PLOTSETTINGS
350
19
  3
ACAD_PLOTSTYLENAME
350
E
  3
ACAD_TABLESTYLE
350
2AC
  3
ACAD_VISUALSTYLE
350
2A
  3
AcDbVariableDictionary
350
2AE
  0
DICTIONARY
  5
D
102
{ACAD_REACTORS
330
C
102
}
330
C
100
AcDbDictionary
281
     1
  0
DICTIONARY
  5
1A
102
{ACAD_REACTORS
330
C
102
}
330
C
100
AcDbDictionary
281
     1
  3
Layout1
350
1E
  3
Layout2
350
26
  3
Model
350
22
  0
DICTIONARY
  5
2AD
102
{ACAD_REACTORS
330
C
102
}
330
C
100
AcDbDictionary
281
     1
  0
DICTIONARY
  5
17
102
{ACAD_REACTORS
330
C
102
}
330
C
100
AcDbDictionary
281
     1
  3
Standard
350
18
  0
DICTIONARY
  5
19
102
{ACAD_REACTORS
330
C
102
}
330
C
100
AcDbDictionary
281
     1
  0
ACDBDICTIONARYWDFLT
  5
E
102
{ACAD_REACTORS
330
C
102
}
330
C
100
AcDbDictionary
281
     1
  3
Normal
350
F
100
AcDbDictionaryWithDefault
340
F
  0
DICTIONARY
  5
2AC
102
{ACAD_REACTORS
330
C
102
}
330
C
100
AcDbDictionary
281
     1
  0
DICTIONARY
  5
2A
102
{ACAD_REACTORS
330
C
102
}
330
C
100
AcDbDictionary
281
     1
  3
2dWireframe
350
2F
  3
3D Hidden
350
31
  3
3dWireframe
350
30
  3
Basic
350
32
  3
Brighten
350
36
  3
ColorChange
350
3A
  3
Conceptual
350
34
  3
Dim
350
35
  3
Facepattern
350
39
  3
Flat
350
2B
  3
FlatWithEdges
350
2C
  3
Gouraud
350
2D
  3
GouraudWithEdges
350
2E
  3
Linepattern
350
38
  3
Realistic
350
33
  3
Thicken
350
37
  0
DICTIONARY
  5
2AE
102
{ACAD_REACTORS
330
C
102
}
330
C
100
AcDbDictionary
281
     1
  3
PSOLHEIGHT
350
2B0
  3
PSOLWIDTH
350
2AF
  0
LAYOUT
  5
1E
102
{ACAD_REACTORS
330
1A
102
}
330
1A
100
AcDbPlotSettings
  1

  2
none_device
  4

  6

 40
0.0
 41
0.0
 42
0.0
 43
0.0
 44
0.0
 45
0.0
 46
0.0
 47
0.0
 48
0.0
 49
0.0
140
0.0
141
0.0
142
1.0
143
1.0
 70
   688
 72
     0
 73
     0
 74
     5
  7

 75
    16
147
1.0
148
0.0
149
0.0
100
AcDbLayout
  1
Layout1
 70
     1
 71
     1
 10
0.0
 20
0.0
 11
420.0
 21
297.0
 12
0.0
 22
0.0
 32
0.0
 14
1.0000000000E+20
 24
1.0000000000E+20
 34
1.0000000000E+20
 15
-1.0000000000E+20
 25
-1.0000000000E+20
 35
-1.0000000000E+20
146
0.0
 13
0.0
 23
0.0
 33
0.0
 16
1.0
 26
0.0
 36
0.0
 17
0.0
 27
1.0
 37
0.0
 76
     0
330
1B
  0
LAYOUT
  5
26
102
{ACAD_REACTORS
330
1A
102
}
330
1A
100
AcDbPlotSettings
  1

  2
none_device
  4

  6

 40
0.0
 41
0.0
 42
0.0
 43
0.0
 44
0.0
 45
0.0
 46
0.0
 47
0.0
 48
0.0
 49
0.0
140
0.0
141
0.0
142
1.0
143
1.0
 70
   688
 72
     0
 73
     0
 74
     5
  7

 75
    16
147
1.0
148
0.0
149
0.0
100
AcDbLayout
  1
Layout2
 70
     1
 71
     2
 10
0.0
 20
0.0
 11
0.0
 21
0.0
 12
0.0
 22
0.0
 32
0.0
 14
0.0
 24
0.0
 34
0.0
 15
0.0
 25
0.0
 35
0.0
146
0.0
 13
0.0
 23
0.0
 33
0.0
 16
1.0
 26
0.0
 36
0.0
 17
0.0
 27
1.0
 37
0.0
 76
     0
330
23
  0
LAYOUT
  5
22
102
{ACAD_REACTORS
330
1A
102
}
330
1A
100
AcDbPlotSettings
  1

  2
none_device
  4

  6

 40
0.0
 41
0.0
 42
0.0
 43
0.0
 44
0.0
 45
0.0
 46
0.0
 47
0.0
 48
0.0
 49
0.0
140
0.0
141
0.0
142
1.0
143
1.0
 70
  1712
 72
     0
 73
     0
 74
     0
  7

 75
     0
147
1.0
148
0.0
149
0.0
100
AcDbLayout
  1
Model
 70
     1
 71
     0
 10
0.0
 20
0.0
 11
841.0
 21
594.0
 12
0.0
 22
0.0
 32
0.0
 14
0.0
 24
0.0
 34
0.0
 15
841.0
 25
594.0
 35
0.0
146
0.0
 13
0.0
 23
0.0
 33
0.0
 16
1.0
 26
0.0
 36
0.0
 17
0.0
 27
1.0
 37
0.0
 76
     0
330
1F
331
29
  0
MLINESTYLE
  5
18
102
{ACAD_REACTORS
330
17
102
}
330
17
100
AcDbMlineStyle
  2
Standard
 70
     0
  3

 62
   256
 51
90.0
 52
90.0
 71
     2
 49
0.5
 62
   256
  6
BYLAYER
 49
-0.5
 62
   256
  6
BYLAYER
  0
ACDBPLACEHOLDER
  5
F
102
{ACAD_REACTORS
330
E
102
}
330
E
  0
VISUALSTYLE
  5
2F
102
{ACAD_REACTORS
330
2A
102
}
330
2A
100
AcDbVisualStyle
  2
2dWireframe
 70
     4
 71
     0
 72
     2
 73
     0
 90
        0
 40
-0.6
 41
-30.0
 62
     5
 63
     7
 74
     1
 91
        4
 64
     7
 65
   257
 75
     1
175
     1
 42
1.0
 92
        0
 66
   257
 43
1.0
 76
     1
 77
     6
 78
     2
 67
     7
 79
     5
170
     0
171
     0
290
     0
174
     0
 93
        1
 44
0.0
173
     0
291
     0
 45
0.0
1001
ACAD
1000
AcDbSavedByObjectVersion
1070
     0
  0
VISUALSTYLE
  5
31
102
{ACAD_REACTORS
330
2A
102
}
330
2A
100
AcDbVisualStyle
  2
3D Hidden
 70
     6
 71
     1
 72
     2
 73
     2
 90
        0
 40
-0.6
 41
-30.0
 62
     5
 63
     7
 74
     2
 91
        2
 64
     7
 65
   257
 75
     2
175
     1
 42
40.0
 92
        0
 66
   257
 43
1.0
 76
     1
 77
     6
 78
     2
 67
     7
 79
     3
170
     0
171
     0
290
     0
174
     0
 93
        1
 44
0.0
173
     0
291
     0
 45
0.0
1001
ACAD
1000
AcDbSavedByObjectVersion
1070
     0
  0
VISUALSTYLE
  5
30
102
{ACAD_REACTORS
330
2A
102
}
330
2A
100
AcDbVisualStyle
  2
3dWireframe
 70
     5
 71
     0
 72
     2
 73
     0
 90
        0
 40
-0.6
 41
-30.0
 62
     5
 63
     7
 74
     1
 91
        4
 64
     7
 65
   257
 75
     1
175
     1
 42
1.0
 92
        0
 66
   257
 43
1.0
 76
     1
 77
     6
 78
     2
 67
     7
 79
     5
170
     0
171
     0
290
     0
174
     0
 93
        1
 44
0.0
173
     0
291
     0
 45
0.0
1001
ACAD
1000
AcDbSavedByObjectVersion
1070
     0
  0
VISUALSTYLE
  5
32
102
{ACAD_REACTORS
330
2A
102
}
330
2A
100
AcDbVisualStyle
  2
Basic
 70
     7
 71
     1
 72
     0
 73
     1
 90
        0
 40
-0.6
 41
-30.0
 62
     5
 63
     7
 74
     0
 91
        4
 64
     7
 65
   257
 75
     1
175
     1
 42
1.0
 92
        8
 66
     7
 43
1.0
 76
     1
 77
     6
 78
     2
 67
     7
 79
     5
170
     0
171
     0
290
     0
174
     0
 93
        1
 44
0.0
173
     0
291
     1
 45
0.0
1001
ACAD
1000
AcDbSavedByObjectVersion
1070
     0
  0
VISUALSTYLE
  5
36
102
{ACAD_REACTORS
330
2A
102
}
330
2A
100
AcDbVisualStyle
  2
Brighten
 70
    12
 71
     2
 72
     2
 73
     0
 90
        0
 40
-0.6
 41
-30.0
 62
     5
 63
     7
 74
     1
 91
        4
 64
     7
 65
   257
 75
     1
175
     1
 42
1.0
 92
        8
 66
     7
 43
1.0
 76
     1
 77
     6
 78
     2
 67
     7
 79
     5
170
     0
171
     0
290
     0
174
     0
 93
        1
 44
50.0
173
     0
291
     1
 45
0.0
1001
ACAD
1000
AcDbSavedByObjectVersion
1070
     0
  0
VISUALSTYLE
  5
3A
102
{ACAD_REACTORS
330
2A
102
}
330
2A
100
AcDbVisualStyle
  2
ColorChange
 70
    16
 71
     2
 72
     2
 73
     3
 90
        0
 40
-0.6
 41
-30.0
 62
     5
 63
     8
 74
     1
 91
        4
 64
     7
 65
   257
 75
     1
175
     1
 42
1.0
 92
        8
 66
     8
 43
1.0
 76
     1
 77
     6
 78
     2
 67
     7
 79
     5
170
     0
171
     0
290
     0
174
     0
 93
        1
 44
0.0
173
     0
291
     1
 45
0.0
1001
ACAD
1000
AcDbSavedByObjectVersion
1070
     0
  0
VISUALSTYLE
  5
34
102
{ACAD_REACTORS
330
2A
102
}
330
2A
100
AcDbVisualStyle
  2
Conceptual
 70
     9
 71
     3
 72
     2
 73
     0
 90
        0
 40
-0.6
 41
-30.0
 62
     5
 63
     7
 74
     2
 91
        2
 64
     7
 65
   257
 75
     1
175
     1
 42
40.0
 92
        8
 66
     7
 43
1.0
 76
     1
 77
     6
 78
     2
 67
     7
 79
     3
170
     0
171
     0
290
     0
174
     0
 93
        1
 44
0.0
173
     0
291
     0
 45
0.0
1001
ACAD
1000
AcDbSavedByObjectVersion
1070
     0
  0
VISUALSTYLE
  5
35
102
{ACAD_REACTORS
330
2A
102
}
330
2A
100
AcDbVisualStyle
  2
Dim
 70
    11
 71
     2
 72
     2
 73
     0
 90
        0
 40
-0.6
 41
-30.0
 62
     5
 63
     7
 74
     1
 91
        4
 64
     7
 65
   257
 75
     1
175
     1
 42
1.0
 92
        8
 66
     7
 43
1.0
 76
     1
 77
     6
 78
     2
 67
     7
 79
     5
170
     0
171
     0
290
     0
174
     0
 93
        1
 44
-50.0
173
     0
291
     1
 45
0.0
1001
ACAD
1000
AcDbSavedByObjectVersion
1070
     0
  0
VISUALSTYLE
  5
39
102
{ACAD_REACTORS
330
2A
102
}
330
2A
100
AcDbVisualStyle
  2
Facepattern
 70
    15
 71
     2
 72
     2
 73
     0
 90
        0
 40
-0.6
 41
-30.0
 62
     5
 63
     7
 74
     1
 91
        4
 64
     7
 65
   257
 75
     1
175
     1
 42
1.0
 92
        8
 66
     7
 43
1.0
 76
     1
 77
     6
 78
     2
 67
     7
 79
     5
170
     0
171
     0
290
     0
174
     0
 93
        1
 44
0.0
173
     0
291
     1
 45
0.0
1001
ACAD
1000
AcDbSavedByObjectVersion
1070
     0
  0
VISUALSTYLE
  5
2B
102
{ACAD_REACTORS
330
2A
102
}
330
2A
100
AcDbVisualStyle
  2
Flat
 70
     0
 71
     2
 72
     1
 73
     1
 90
        2
 40
-0.6
 41
30.0
 62
     5
 63
     7
 74
     0
 91
        4
 64
     7
 65
   257
 75
     1
175
     1
 42
1.0
 92
        8
 66
     7
 43
1.0
 76
     1
 77
     6
 78
     2
 67
     7
 79
     5
170
     0
171
     0
290
     0
174
     0
 93
       13
 44
0.0
173
     0
291
     1
 45
0.0
1001
ACAD
1000
AcDbSavedByObjectVersion
1070
     0
  0
VISUALSTYLE
  5
2C
102
{ACAD_REACTORS
330
2A
102
}
330
2A
100
AcDbVisualStyle
  2
FlatWithEdges
 70
     1
 71
     2
 72
     1
 73
     1
 90
        2
 40
-0.6
 41
30.0
 62
     5
 63
     7
 74
     1
 91
        4
 64
     7
 65
   257
 75
     1
175
     1
 42
1.0
 92
        0
 66
   257
 43
1.0
 76
     1
 77
     6
 78
     2
 67
     7
 79
     5
170
     0
171
     0
290
     0
174
     0
 93
       13
 44
0.0
173
     0
291
     1
 45
0.0
1001
ACAD
1000
AcDbSavedByObjectVersion
1070
     0
  0
VISUALSTYLE
  5
2D
102
{ACAD_REACTORS
330
2A
102
}
330
2A
100
AcDbVisualStyle
  2
Gouraud
 70
     2
 71
     2
 72
     2
 73
     1
 90
        2
 40
-0.6
 41
30.0
 62
     5
 63
     7
 74
     0
 91
        4
 64
     7
 65
   257
 75
     1
175
     1
 42
1.0
 92
        0
 66
     7
 43
1.0
 76
     1
 77
     6
 78
     2
 67
     7
 79
     5
170
     0
171
     0
290
     0
174
     0
 93
       13
 44
0.0
173
     0
291
     1
 45
0.0
1001
ACAD
1000
AcDbSavedByObjectVersion
1070
     0
  0
VISUALSTYLE
  5
2E
102
{ACAD_REACTORS
330
2A
102
}
330
2A
100
AcDbVisualStyle
  2
GouraudWithEdges
 70
     3
 71
     2
 72
     2
 73
     1
 90
        2
 40
-0.6
 41
30.0
 62
     5
 63
     7
 74
     1
 91
        4
 64
     7
 65
   257
 75
     1
175
     1
 42
1.0
 92
        0
 66
   257
 43
1.0
 76
     1
 77
     6
 78
     2
 67
     7
 79
     5
170
     0
171
     0
290
     0
174
     0
 93
       13
 44
0.0
173
     0
291
     1
 45
0.0
1001
ACAD
1000
AcDbSavedByObjectVersion
1070
     0
  0
VISUALSTYLE
  5
38
102
{ACAD_REACTORS
330
2A
102
}
330
2A
100
AcDbVisualStyle
  2
Linepattern
 70
    14
 71
     2
 72
     2
 73
     0
 90
        0
 40
-0.6
 41
-30.0
 62
     5
 63
     7
 74
     1
 91
        4
 64
     7
 65
   257
 75
     7
175
     7
 42
1.0
 92
        8
 66
     7
 43
1.0
 76
     1
 77
     6
 78
     2
 67
     7
 79
     5
170
     0
171
     0
290
     0
174
     0
 93
        1
 44
0.0
173
     0
291
     1
 45
0.0
1001
ACAD
1000
AcDbSavedByObjectVersion
1070
     0
  0
VISUALSTYLE
  5
33
102
{ACAD_REACTORS
330
2A
102
}
330
2A
100
AcDbVisualStyle
  2
Realistic
 70
     8
 71
     2
 72
     2
 73
     0
 90
        0
 40
-0.6
 41
-30.0
 62
     5
 63
     7
 74
     1
 91
        0
 64
     7
 65
   257
 75
     1
175
     1
 42
1.0
 92
        8
 66
     8
 43
1.0
 76
     1
 77
     6
 78
     2
 67
     7
 79
     5
170
     0
171
     0
290
     0
174
     0
 93
       13
 44
0.0
173
     0
291
     0
 45
0.0
1001
ACAD
1000
AcDbSavedByObjectVersion
1070
     0
  0
VISUALSTYLE
  5
37
102
{ACAD_REACTORS
330
2A
102
}
330
2A
100
AcDbVisualStyle
  2
Thicken
 70
    13
 71
     2
 72
     2
 73
     0
 90
        0
 40
-0.6
 41
-30.0
 62
     5
 63
     7
 74
     1
 91
        4
 64
     7
 65
   257
 75
     1
175
     1
 42
1.0
 92
       12
 66
     7
 43
1.0
 76
     1
 77
     6
 78
     2
 67
     7
 79
     5
170
     0
171
     0
290
     0
174
     0
 93
        1
 44
0.0
173
     0
291
     1
 45
0.0
1001
ACAD
1000
AcDbSavedByObjectVersion
1070
     0
  0
DICTIONARYVAR
  5
2B0
102
{ACAD_REACTORS
330
2AE
102
}
330
2AE
100
DictionaryVariables
280
     0
  1
80.000000
  0
DICTIONARYVAR
  5
2AF
102
{ACAD_REACTORS
330
2AE
102
}
330
2AE
100
DictionaryVariables
280
     0
  1
5.000000
  0
ENDSEC
  0
EOF
