  0
SECTION
  2
HEADER
  9
$ACADVER
  1
AC1015
  9
$ACADMAINTVER
 70
     6
  9
$DWGCODEPAGE
  3
DOS932
  9
$INSBASE
 10
0.0
 20
0.0
 30
0.0
  9
$EXTMIN
 10
0.0
 20
0.0
 30
0.0
  9
$EXTMAX
 10
841.0
 20
594.0
 30
0.0
  9
$LIMMIN
 10
0.0
 20
0.0
  9
$LIMMAX
 10
841.0
 20
594.0
  9
$ORTHOMODE
 70
     0
  9
$REGENMODE
 70
     1
  9
$FILLMODE
 70
     1
  9
$QTEXTMODE
 70
     0
  9
$MIRRTEXT
 70
     1
  9
$LTSCALE
 40
1.0
  9
$ATTMODE
 70
     1
  9
$TEXTSIZE
 40
3.5
  9
$TRACEWID
 40
1.0
  9
$TEXTSTYLE
  7
Standard
  9
$CLAYER
  8
0
  9
$CELTYPE
  6
ByLayer
  9
$CECOLOR
 62
   256
  9
$CELTSCALE
 40
1.0
  9
$DISPSILH
 70
     0
  9
$DIMSCALE
 40
1.0
  9
$DIMASZ
 40
3.8637032976
  9
$DIMEXO
 40
1.0
  9
$DIMDLI
 40
3.75
  9
$DIMRND
 40
0.0
  9
$DIMDLE
 40
0.0
  9
$DIMEXE
 40
1.0
  9
$DIMTP
 40
0.0
  9
$DIMTM
 40
0.0
  9
$DIMTXT
 40
2.7999999523
  9
$DIMCEN
 40
2.5
  9
$DIMTSZ
 40
0.0
  9
$DIMTOL
 70
     0
  9
$DIMLIM
 70
     0
  9
$DIMTIH
 70
     1
  9
$DIMTOH
 70
     1
  9
$DIMSE1
 70
     0
  9
$DIMSE2
 70
     0
  9
$DIMTAD
 70
     1
  9
$DIMZIN
 70
     1
  9
$DIMBLK
  1

  9
$DIMASO
 70
     1
  9
$DIMSHO
 70
     1
  9
$DIMPOST
  1

  9
$DIMAPOST
  1

  9
$DIMALT
 70
     0
  9
$DIMALTD
 70
     3
  9
$DIMALTF
 40
0.0393700787
  9
$DIMLFAC
 40
1.0
  9
$DIMTOFL
 70
     1
  9
$DIMTVP
 40
0.0
  9
$DIMTIX
 70
     0
  9
$DIMSOXD
 70
     0
  9
$DIMSAH
 70
     0
  9
$DIMBLK1
  1

  9
$DIMBLK2
  1

  9
$DIMSTYLE
  2
ISO-25
  9
$DIMCLRD
 70
     0
  9
$DIMCLRE
 70
     0
  9
$DIMCLRT
 70
     0
  9
$DIMTFAC
 40
1.0
  9
$DIMGAP
 40
1.524
  9
$DIMJUST
 70
     0
  9
$DIMSD1
 70
     0
  9
$DIMSD2
 70
     0
  9
$DIMTOLJ
 70
     0
  9
$DIMTZIN
 70
     1
  9
$DIMALTZ
 70
     0
  9
$DIMALTTZ
 70
     0
  9
$DIMUPT
 70
     0
  9
$DIMDEC
 70
     2
  9
$DIMTDEC
 70
     2
  9
$DIMALTU
 70
     2
  9
$DIMALTTD
 70
     3
  9
$DIMTXSTY
  7
Standard
  9
$DIMAUNIT
 70
     0
  9
$DIMADEC
 70
     0
  9
$DIMALTRND
 40
0.0
  9
$DIMAZIN
 70
     0
  9
$DIMDSEP
 70
    44
  9
$DIMATFIT
 70
     3
  9
$DIMFRAC
 70
     0
  9
$DIMLDRBLK
  1

  9
$DIMLUNIT
 70
     2
  9
$DIMLWD
 70
    -2
  9
$DIMLWE
 70
    -2
  9
$DIMTMOVE
 70
     0
  9
$LUNITS
 70
     2
  9
$LUPREC
 70
     3
  9
$SKETCHINC
 40
1.0
  9
$FILLETRAD
 40
10.0
  9
$AUNITS
 70
     0
  9
$AUPREC
 70
     0
  9
$MENU
  1
.
  9
$ELEVATION
 40
0.0
  9
$PELEVATION
 40
0.0
  9
$THICKNESS
 40
0.0
  9
$LIMCHECK
 70
     0
  9
$CHAMFERA
 40
10.0
  9
$CHAMFERB
 40
10.0
  9
$CHAMFERC
 40
20.0
  9
$CHAMFERD
 40
0.0
  9
$SKPOLY
 70
     0
  9
$TDCREATE
 40
2456413.916316724
  9
$TDUCREATE
 40
2456413.541316724
  9
$TDUPDATE
 40
2456413.916316736
  9
$TDUUPDATE
 40
2456413.541316736
  9
$TDINDWG
 40
0.0000000116
  9
$TDUSRTIMER
 40
0.0000000116
  9
$USRTIMER
 70
     1
  9
$ANGBASE
 50
0.0
  9
$ANGDIR
 70
     0
  9
$PDMODE
 70
     0
  9
$PDSIZE
 40
-1.0
  9
$PLINEWID
 40
0.0
  9
$SPLFRAME
 70
     0
  9
$SPLINETYPE
 70
     6
  9
$SPLINESEGS
 70
     8
  9
$HANDSEED
  5
2CE
  9
$SURFTAB1
 70
     6
  9
$SURFTAB2
 70
     6
  9
$SURFTYPE
 70
     6
  9
$SURFU
 70
     6
  9
$SURFV
 70
     6
  9
$UCSBASE
  2

  9
$UCSNAME
  2

  9
$UCSORG
 10
0.0
 20
0.0
 30
0.0
  9
$UCSXDIR
 10
1.0
 20
0.0
 30
0.0
  9
$UCSYDIR
 10
0.0
 20
1.0
 30
0.0
  9
$UCSORTHOREF
  2

  9
$UCSORTHOVIEW
 70
     0
  9
$UCSORGTOP
 10
0.0
 20
0.0
 30
0.0
  9
$UCSORGBOTTOM
 10
0.0
 20
0.0
 30
0.0
  9
$UCSORGLEFT
 10
0.0
 20
0.0
 30
0.0
  9
$UCSORGRIGHT
 10
0.0
 20
0.0
 30
0.0
  9
$UCSORGFRONT
 10
0.0
 20
0.0
 30
0.0
  9
$UCSORGBACK
 10
0.0
 20
0.0
 30
0.0
  9
$PUCSBASE
  2

  9
$PUCSNAME
  2

  9
$PUCSORG
 10
0.0
 20
0.0
 30
0.0
  9
$PUCSXDIR
 10
1.0
 20
0.0
 30
0.0
  9
$PUCSYDIR
 10
0.0
 20
1.0
 30
0.0
  9
$PUCSORTHOREF
  2

  9
$PUCSORTHOVIEW
 70
     0
  9
$PUCSORGTOP
 10
0.0
 20
0.0
 30
0.0
  9
$PUCSORGBOTTOM
 10
0.0
 20
0.0
 30
0.0
  9
$PUCSORGLEFT
 10
0.0
 20
0.0
 30
0.0
  9
$PUCSORGRIGHT
 10
0.0
 20
0.0
 30
0.0
  9
$PUCSORGFRONT
 10
0.0
 20
0.0
 30
0.0
  9
$PUCSORGBACK
 10
0.0
 20
0.0
 30
0.0
  9
$USERI1
 70
     0
  9
$USERI2
 70
     0
  9
$USERI3
 70
     0
  9
$USERI4
 70
     0
  9
$USERI5
 70
     0
  9
$USERR1
 40
0.0
  9
$USERR2
 40
0.0
  9
$USERR3
 40
0.0
  9
$USERR4
 40
0.0
  9
$USERR5
 40
0.0
  9
$WORLDVIEW
 70
     1
  9
$SHADEDGE
 70
     3
  9
$SHADEDIF
 70
    70
  9
$TILEMODE
 70
     1
  9
$MAXACTVP
 70
    64
  9
$PINSBASE
 10
0.0
 20
0.0
 30
0.0
  9
$PLIMCHECK
 70
     0
  9
$PEXTMIN
 10
1.0000000000E+20
 20
1.0000000000E+20
 30
1.0000000000E+20
  9
$PEXTMAX
 10
-1.0000000000E+20
 20
-1.0000000000E+20
 30
-1.0000000000E+20
  9
$PLIMMIN
 10
0.0
 20
0.0
  9
$PLIMMAX
 10
420.0
 20
297.0
  9
$UNITMODE
 70
     0
  9
$VISRETAIN
 70
     1
  9
$PLINEGEN
 70
     0
  9
$PSLTSCALE
 70
     1
  9
$TREEDEPTH
 70
  3020
  9
$CMLSTYLE
  2
Standard
  9
$CMLJUST
 70
     0
  9
$CMLSCALE
 40
20.0
  9
$PROXYGRAPHICS
 70
     1
  9
$MEASUREMENT
 70
     1
  9
$CELWEIGHT
370
    -1
  9
$ENDCAPS
280
     0
  9
$JOINSTYLE
280
     0
  9
$LWDISPLAY
290
     1
  9
$INSUNITS
 70
     4
  9
$HYPERLINKBASE
  1

  9
$STYLESHEET
  1

  9
$XEDIT
290
     1
  9
$CEPSNTYPE
380
     0
  9
$PSTYLEMODE
290
     1
  9
$FINGERPRINTGUID
  2
{EE1D8CAE-F5E9-4E7C-A777-F8EF3421562B}
  9
$VERSIONGUID
  2
{FAEB1C32-E019-11D5-929B-00C0DF256EC4}
  9
$EXTNAMES
290
     1
  9
$PSVPSCALE
 40
0.0
  9
$OLESTARTUP
290
     0
  0
ENDSEC
  0
SECTION
  2
CLASSES
  0
CLASS
  1
ACDBDICTIONARYWDFLT
  2
AcDbDictionaryWithDefault
  3
ObjectDBX Classes
 90
        0
280
     0
281
     0
  0
CLASS
  1
VISUALSTYLE
  2
AcDbVisualStyle
  3
ObjectDBX Classes
 90
     4095
280
     0
281
     0
  0
CLASS
  1
DICTIONARYVAR
  2
AcDbDictionaryVar
  3
ObjectDBX Classes
 90
        0
280
     0
281
     0
  0
CLASS
  1
ACDBPLACEHOLDER
  2
AcDbPlaceHolder
  3
ObjectDBX Classes
 90
        0
280
     0
281
     0
  0
CLASS
  1
LAYOUT
  2
AcDbLayout
  3
ObjectDBX Classes
 90
        0
280
     0
281
     0
  0
ENDSEC
  0
SECTION
  2
TABLES
  0
TABLE
  2
VPORT
  5
8
330
0
100
AcDbSymbolTable
 70
     1
  0
VPORT
  5
29
330
8
100
AcDbSymbolTableRecord
100
AcDbViewportTableRecord
  2
*Active
 70
     0
 10
0.0
 20
0.0
 11
1.0
 21
1.0
 12
420.5
 22
297.0
 13
0.0
 23
0.0
 14
10.0
 24
10.0
 15
10.0
 25
10.0
 16
0.0
 26
0.0
 36
1.0
 17
0.0
 27
0.0
 37
0.0
 40
594.0
 41
1.4158249158
 42
50.0
 43
0.0
 44
0.0
 50
0.0
 51
0.0
 71
     0
 72
  2000
 73
     1
 74
     3
 75
     0
 76
     0
 77
     0
 78
     0
281
     0
 65
     1
110
0.0
120
0.0
130
0.0
111
1.0
121
0.0
131
0.0
112
0.0
122
1.0
132
0.0
 79
     0
146
0.0
  0
ENDTAB
  0
TABLE
  2
LTYPE
  5
5
330
0
100
AcDbSymbolTable
 70
     6
  0
LTYPE
  5
14
330
5
100
AcDbSymbolTableRecord
100
AcDbLinetypeTableRecord
  2
ByBlock
 70
     0
  3

 72
    65
 73
     0
 40
0.0
  0
LTYPE
  5
15
330
5
100
AcDbSymbolTableRecord
100
AcDbLinetypeTableRecord
  2
ByLayer
 70
     0
  3

 72
    65
 73
     0
 40
0.0
  0
LTYPE
  5
16
330
5
100
AcDbSymbolTableRecord
100
AcDbLinetypeTableRecord
  2
Continuous
 70
     0
  3
Solid line
 72
    65
 73
     0
 40
0.0
  0
LTYPE
  5
3B
330
5
100
AcDbSymbolTableRecord
100
AcDbLinetypeTableRecord
  2
HIDDEN
 70
     0
  3
Hidden __ __ __ __ __ __ __ __ __ __ __ __ __ __
 72
    65
 73
     2
 40
1.905
 49
1.27
 74
     0
 49
-0.635
 74
     0
  0
LTYPE
  5
3C
330
5
100
AcDbSymbolTableRecord
100
AcDbLinetypeTableRecord
  2
PHANTOM
 70
     0
  3
Phantom ______  __  __  ______  __  __  ______
 72
    65
 73
     6
 40
12.7
 49
6.35
 74
     0
 49
-1.27
 74
     0
 49
1.27
 74
     0
 49
-1.27
 74
     0
 49
1.27
 74
     0
 49
-1.27
 74
     0
  0
LTYPE
  5
3D
330
5
100
AcDbSymbolTableRecord
100
AcDbLinetypeTableRecord
  2
CENTER
 70
     0
  3
Center ____ _ ____ _ ____ _ ____ _ ____ _ ____
 72
    65
 73
     4
 40
10.16
 49
6.35
 74
     0
 49
-1.27
 74
     0
 49
1.27
 74
     0
 49
-1.27
 74
     0
  0
LTYPE
  5
3E
330
5
100
AcDbSymbolTableRecord
100
AcDbLinetypeTableRecord
  2
CENTERX2
 70
     0
  3
Center (2x) ________  __  ________  __  _____
 72
    65
 73
     4
 40
20.32
 49
12.7
 74
     0
 49
-2.54
 74
     0
 49
2.54
 74
     0
 49
-2.54
 74
     0
  0
LTYPE
  5
3F
330
5
100
AcDbSymbolTableRecord
100
AcDbLinetypeTableRecord
  2
DOT2
 70
     0
  3
Dot (.5x) ........................................
 72
    65
 73
     2
 40
0.635
 49
0.0
 74
     0
 49
-0.635
 74
     0
  0
ENDTAB
  0
TABLE
  2
LAYER
  5
2
330
0
100
AcDbSymbolTable
 70
     4
  0
LAYER
  5
10
330
2
100
AcDbSymbolTableRecord
100
AcDbLayerTableRecord
  2
0
 70
     0
 62
     7
  6
Continuous
370
    -3
390
F
  0
LAYER
  5
40
330
2
100
AcDbSymbolTableRecord
100
AcDbLayerTableRecord
  2
SLD-0
 70
     0
 62
     3
  6
Continuous
370
    -3
390
F
  0
LAYER
  5
41
330
2
100
AcDbSymbolTableRecord
100
AcDbLayerTableRecord
  2
SLD-DEFPOINTS
 70
     0
 62
   179
  6
Continuous
370
    -3
390
F
  0
LAYER
  5
42
330
2
100
AcDbSymbolTableRecord
100
AcDbLayerTableRecord
  2
AM_REFDIM
 70
     0
 62
     4
  6
Continuous
370
    15
390
F
  0
ENDTAB
  0
TABLE
  2
STYLE
  5
3
330
0
100
AcDbSymbolTable
 70
     1
  0
STYLE
  5
11
330
3
100
AcDbSymbolTableRecord
100
AcDbTextStyleTableRecord
  2
Standard
 70
     0
 40
0.0
 41
1.0
 50
0.0
 71
     0
 42
2.5
  3
txt
  4
bigfont
  0
ENDTAB
  0
TABLE
  2
VIEW
  5
6
330
0
100
AcDbSymbolTable
 70
     0
  0
ENDTAB
  0
TABLE
  2
UCS
  5
7
330
0
100
AcDbSymbolTable
 70
     0
  0
ENDTAB
  0
TABLE
  2
APPID
  5
9
330
0
100
AcDbSymbolTable
 70
     1
  0
APPID
  5
12
330
9
100
AcDbSymbolTableRecord
100
AcDbRegAppTableRecord
  2
ACAD
 70
     0
  0
ENDTAB
  0
TABLE
  2
DIMSTYLE
  5
A
330
0
100
AcDbSymbolTable
 70
     1
100
AcDbDimStyleTable
  0
DIMSTYLE
105
27
330
A
100
AcDbSymbolTableRecord
100
AcDbDimStyleTableRecord
  2
ISO-25
 70
     0
 41
2.5
 42
0.625
 43
3.75
 44
1.25
 73
     0
 74
     0
 77
     1
 78
     8
140
2.5
141
2.5
143
0.0393700787
147
0.625
171
     3
172
     1
271
     2
272
     2
274
     3
278
    44
283
     0
284
     8
340
11
  0
ENDTAB
  0
TABLE
  2
BLOCK_RECORD
  5
1
330
0
100
AcDbSymbolTable
 70
     1
  0
BLOCK_RECORD
  5
1F
330
1
100
AcDbSymbolTableRecord
100
AcDbBlockTableRecord
  2
*Model_Space
340
22
  0
BLOCK_RECORD
  5
1B
330
1
100
AcDbSymbolTableRecord
100
AcDbBlockTableRecord
  2
*Paper_Space
340
1E
  0
BLOCK_RECORD
  5
23
330
1
100
AcDbSymbolTableRecord
100
AcDbBlockTableRecord
  2
*Paper_Space0
340
26
  0
ENDTAB
  0
ENDSEC
  0
SECTION
  2
BLOCKS
  0
BLOCK
  5
20
330
1F
100
AcDbEntity
  8
0
100
AcDbBlockBegin
  2
*Model_Space
 70
     0
 10
0.0
 20
0.0
 30
0.0
  3
*Model_Space
  1

  0
ENDBLK
  5
21
330
1F
100
AcDbEntity
  8
0
100
AcDbBlockEnd
  0
BLOCK
  5
1C
330
1B
100
AcDbEntity
 67
     1
  8
0
100
AcDbBlockBegin
  2
*Paper_Space
 70
     0
 10
0.0
 20
0.0
 30
0.0
  3
*Paper_Space
  1

  0
ENDBLK
  5
1D
330
1B
100
AcDbEntity
 67
     1
  8
0
100
AcDbBlockEnd
  0
BLOCK
  5
24
330
23
100
AcDbEntity
  8
0
100
AcDbBlockBegin
  2
*Paper_Space0
 70
     0
 10
0.0
 20
0.0
 30
0.0
  3
*Paper_Space0
  1

  0
ENDBLK
  5
25
330
23
100
AcDbEntity
  8
0
100
AcDbBlockEnd
  0
ENDSEC
  0
SECTION
  2
ENTITIES
  0
LINE
  5
43
330
1F
100
AcDbEntity
  8
0
  6
Continuous
 62
     7
370
    15
100
AcDbLine
 10
212.4005316687
 20
208.5442053057
 30
0.0
 11
212.4005316687
 21
211.4979470052
 31
0.0
  0
LINE
  5
44
330
1F
100
AcDbEntity
  8
0
  6
Continuous
 62
     7
370
    15
100
AcDbLine
 10
192.400535841
 20
211.4979470052
 30
0.0
 11
192.400535841
 21
208.5442053057
 31
0.0
  0
ARC
  5
45
330
1F
100
AcDbEntity
  8
0
  6
Continuous
 62
     7
370
    15
100
AcDbCircle
 10
210.8660616854
 20
205.8080101545
 30
0.0
 40
2.210970144531347
100
AcDbArc
 50
119.4475602042
 51
185.5246818373
  0
ARC
  5
46
330
1F
100
AcDbEntity
  8
0
  6
Continuous
 62
     7
370
    15
100
AcDbCircle
 10
193.7264039532
 20
205.6812149598
 30
0.0
 40
2.425826571493478
100
AcDbArc
 50
357.8559486396
 51
58.1202446073
  0
LWPOLYLINE
  5
47
330
1F
100
AcDbEntity
  8
0
  6
Continuous
 62
     7
370
    15
100
AcDbPolyline
 90
        6
 70
   128
 43
0.0
 10
206.800533731
 20
203.0763583161
 10
207.6076178742
 20
203.3197725095
 10
208.0816089106
 20
203.5740682759
 10
208.4312125039
 20
203.921321211
 10
208.635790546
 20
204.4213892795
 10
208.6217983556
 20
204.6035038211
  0
LWPOLYLINE
  5
48
330
1F
100
AcDbEntity
  8
0
  6
Continuous
 62
     7
370
    15
100
AcDbPolyline
 90
        6
 70
   128
 43
0.0
 10
196.1505322647
 20
204.605876831
 10
196.2945892406
 20
204.0430823244
 10
196.5616776538
 20
203.7022815921
 10
196.9180985284
 20
203.4499229767
 10
197.4541752529
 20
203.2242821433
 10
198.0005337787
 20
203.0875937917
  0
LINE
  5
49
330
1F
100
AcDbEntity
  8
0
  6
Continuous
 62
     7
370
    15
100
AcDbLine
 10
208.650535245
 20
204.605876831
 30
0.0
 11
208.650535245
 21
205.590459881
 31
0.0
  0
LINE
  5
4A
330
1F
100
AcDbEntity
  8
0
  6
Continuous
 62
     7
370
    15
100
AcDbLine
 10
196.1505322647
 20
205.590459881
 30
0.0
 11
196.1505322647
 21
204.605876831
 31
0.0
  0
LINE
  5
4B
330
1F
100
AcDbEntity
  8
0
  6
Continuous
 62
     7
370
    15
100
AcDbLine
 10
206.800533731
 20
198.6983897068
 30
0.0
 11
206.800533731
 21
203.6212975063
 31
0.0
  0
LINE
  5
4C
330
1F
100
AcDbEntity
  8
0
  6
Continuous
 62
     7
370
    15
100
AcDbLine
 10
198.0005337787
 20
203.6212975063
 30
0.0
 11
198.0005337787
 21
198.6983897068
 31
0.0
  0
ARC
  5
4D
330
1F
100
AcDbEntity
  8
0
  6
Continuous
 62
     7
370
    15
100
AcDbCircle
 10
171.4005325628
 20
260.2681549658
 30
0.0
 40
5.600000000000023
100
AcDbArc
 50
90.0
 51
180.0
  0
ARC
  5
4E
330
1F
100
AcDbEntity
  8
0
  6
Continuous
 62
     7
370
    15
100
AcDbCircle
 10
217.4005325628
 20
260.2681549658
 30
0.0
 40
5.599999999999994
100
AcDbArc
 50
0.0
 51
90.0
  0
LINE
  5
4F
330
1F
100
AcDbEntity
  8
0
  6
Continuous
 62
     7
370
    15
100
AcDbLine
 10
217.4005343509
 20
265.8681547173
 30
0.0
 11
171.4005305362
 21
265.8681547173
 31
0.0
  0
LINE
  5
50
330
1F
100
AcDbEntity
  8
0
  6
Continuous
 62
     7
370
    15
100
AcDbLine
 10
242.4005328608
 20
371.4868420638
 30
0.0
 11
237.4005339039
 21
371.4868420638
 31
0.0
  0
LINE
  5
51
330
1F
100
AcDbEntity
  8
0
  6
Continuous
 62
     7
370
    15
100
AcDbLine
 10
217.4005343509
 20
371.4868420638
 30
0.0
 11
182.4005304766
 21
371.4868420638
 31
0.0
  0
LINE
  5
52
330
1F
100
AcDbEntity
  8
0
  6
Continuous
 62
     7
370
    15
100
AcDbLine
 10
182.4005304766
 20
323.4868490972
 30
0.0
 11
217.4005343509
 21
323.4868490972
 31
0.0
  0
LINE
  5
53
330
1F
100
AcDbEntity
  8
0
  6
Continuous
 62
     7
370
    15
100
AcDbLine
 10
237.4005339039
 20
323.4868490972
 30
0.0
 11
242.4005328608
 21
323.4868490972
 31
0.0
  0
LINE
  5
54
330
1F
100
AcDbEntity
  8
0
  6
Continuous
 62
     7
370
    15
100
AcDbLine
 10
277.4005330098
 20
369.9868464746
 30
0.0
 11
242.4005328608
 21
369.9868464746
 31
0.0
  0
LINE
  5
55
330
1F
100
AcDbEntity
  8
0
  6
Continuous
 62
     7
370
    15
100
AcDbLine
 10
242.4005328608
 20
324.986852137
 30
0.0
 11
277.4005330098
 21
324.986852137
 31
0.0
  0
LINE
  5
56
330
1F
100
AcDbEntity
  8
0
  6
Continuous
 62
     7
370
    15
100
AcDbLine
 10
237.4005339039
 20
371.9368422307
 30
0.0
 11
217.4005343509
 21
371.9368422307
 31
0.0
  0
ARC
  5
57
330
1F
100
AcDbEntity
  8
0
  6
Continuous
 62
     7
370
    15
100
AcDbCircle
 10
439.9005325628
 20
399.9509048738
 30
0.0
 40
2.0
100
AcDbArc
 50
180.0
 51
270.0
  0
ARC
  5
58
330
1F
100
AcDbEntity
  8
0
  6
Continuous
 62
     7
370
    15
100
AcDbCircle
 10
335.9005325628
 20
399.9509048738
 30
0.0
 40
2.0
100
AcDbArc
 50
270.0
 51
0.0
  0
ARC
  5
59
330
1F
100
AcDbEntity
  8
0
  6
Continuous
 62
     7
370
    15
100
AcDbCircle
 10
335.9005325628
 20
89.9509048738
 30
0.0
 40
2.0
100
AcDbArc
 50
0.0
 51
90.0
  0
ARC
  5
5A
330
1F
100
AcDbEntity
  8
0
  6
Continuous
 62
     7
370
    15
100
AcDbCircle
 10
439.9005325628
 20
89.9509048738
 30
0.0
 40
2.0
100
AcDbArc
 50
90.0
 51
180.0
  0
ARC
  5
5B
330
1F
100
AcDbEntity
  8
0
  6
Continuous
 62
     7
370
    15
100
AcDbCircle
 10
452.4108286232
 20
384.9509048738
 30
0.0
 40
3.0
100
AcDbArc
 50
270.0
 51
350.826673742
  0
ARC
  5
5C
330
1F
100
AcDbEntity
  8
0
  6
Continuous
 62
     7
370
    15
100
AcDbCircle
 10
422.2050174167
 20
112.9508871726
 30
0.0
 40
4.999975831642673
100
AcDbArc
 50
170.2369626866
 51
269.8648125905
  0
ARC
  5
5D
330
1F
100
AcDbEntity
  8
0
  6
Continuous
 62
     7
370
    15
100
AcDbCircle
 10
417.9017326747
 20
232.8348172238
 30
0.0
 40
44.08823145062619
100
AcDbArc
 50
356.1909647553
 51
89.9995090972
  0
LWPOLYLINE
  5
5E
330
1F
100
AcDbEntity
  8
0
  6
Continuous
 62
     7
370
    15
100
AcDbPolyline
 90
        4
 70
   128
 43
0.0
 10
461.8990852428
 20
191.9452393331
 10
461.8991895509
 20
192.0227141954
 10
461.8992044521
 20
198.2533330001
 10
461.8992342544
 20
199.9919520594
  0
LWPOLYLINE
  5
5F
330
1F
100
AcDbEntity
  8
0
  6
Continuous
 62
     7
370
    15
100
AcDbPolyline
 90
       14
 70
   128
 43
0.0
 10
417.3621221376
 20
113.7812578954
 10
418.1431292486
 20
117.3267954864
 10
419.9307172489
 20
121.5665483751
 10
422.6151390863
 20
125.6488406934
 10
425.7936312747
 20
129.0266806163
 10
428.8964106632
 20
132.0746311821
 10
431.7785783601
 20
134.9058741607
 10
434.4400747609
 20
137.5203946509
 10
436.9517250848
 20
139.9877512731
 10
439.4418283296
 20
142.433955697
 10
443.9580275607
 20
146.8705231227
 10
448.3097030711
 20
151.3257169999
 10
452.083288033
 20
156.0997286715
 10
452.6156469178
 20
156.9509053506
  0
LWPOLYLINE
  5
60
330
1F
100
AcDbEntity
  8
0
  6
Continuous
 62
     7
370
    15
100
AcDbPolyline
 90
       10
 70
   128
 43
0.0
 10
363.9047949505
 20
348.1002071776
 10
364.2504497361
 20
346.1660588064
 10
364.712139864
 20
343.7192657866
 10
364.9064808083
 20
342.5266364493
 10
365.0677337241
 20
341.3664394893
 10
365.1971354079
 20
340.249664513
 10
365.3766944003
 20
338.4760389008
 10
365.589184959
 20
336.7116296567
 10
365.8306210232
 20
334.9238628425
 10
366.0715802503
 20
333.2358891048
  0
LINE
  5
61
330
1F
100
AcDbEntity
  8
0
  6
Continuous
 62
     7
370
    15
100
AcDbLine
 10
427.8005345655
 20
339.9509036817
 30
0.0
 11
427.9005362582
 21
339.9509036817
 31
0.0
  0
ARC
  5
62
330
1F
100
AcDbEntity
  8
0
  6
Continuous
 62
     7
370
    15
100
AcDbCircle
 10
463.8467732796
 20
200.0202896055
 30
0.0
 40
1.927353699127448
100
AcDbArc
 50
88.9027368191
 51
181.2213585786
  0
ARC
  5
63
330
1F
100
AcDbEntity
  8
0
  6
Continuous
 62
     7
370
    15
100
AcDbCircle
 10
463.7901651874
 20
229.8537944556
 30
0.0
 40
1.884255335984054
100
AcDbArc
 50
178.2055954924
 51
272.5685279461
  0
LINE
  5
64
330
1F
100
AcDbEntity
  8
0
  6
Continuous
 62
     7
370
    15
100
AcDbLine
 10
463.8790323329
 20
201.9509034135
 30
0.0
 11
465.9005387616
 21
201.9509034135
 31
0.0
  0
LINE
  5
65
330
1F
100
AcDbEntity
  8
0
  6
Continuous
 62
     7
370
    15
100
AcDbLine
 10
465.9005387616
 20
227.9509039499
 30
0.0
 11
463.8784213853
 21
227.9509039499
 31
0.0
  0
ARC
  5
66
330
1F
100
AcDbEntity
  8
0
  6
Continuous
 62
     7
370
    15
100
AcDbCircle
 10
465.9005325628
 20
225.9509048738
 30
0.0
 40
2.0
100
AcDbArc
 50
0.0
 51
90.0
  0
ARC
  5
67
330
1F
100
AcDbEntity
  8
0
  6
Continuous
 62
     7
370
    15
100
AcDbCircle
 10
465.9005325628
 20
203.9509048738
 30
0.0
 40
2.0
100
AcDbArc
 50
270.0
 51
0.0
  0
LINE
  5
68
330
1F
100
AcDbEntity
  8
0
  6
Continuous
 62
     7
370
    15
100
AcDbLine
 10
352.4005322647
 20
178.4509042181
 30
0.0
 11
355.4267941904
 21
178.4509042181
 31
0.0
  0
LINE
  5
69
330
1F
100
AcDbEntity
  8
0
  6
Continuous
 62
     7
370
    15
100
AcDbLine
 10
355.4267941904
 20
311.4509055294
 30
0.0
 11
352.4005322647
 21
311.4509055294
 31
0.0
  0
ARC
  5
6A
330
1F
100
AcDbEntity
  8
0
  6
Continuous
 62
     7
370
    15
100
AcDbCircle
 10
355.4267945771
 20
316.4509048738
 30
0.0
 40
4.999999999999988
100
AcDbArc
 50
270.5201924075
 51
25.0
  0
ARC
  5
6B
330
1F
100
AcDbEntity
  8
0
  6
Continuous
 62
     7
370
    15
100
AcDbCircle
 10
418.2366768151
 20
284.9395927816
 30
0.0
 40
5.000000000000013
100
AcDbArc
 50
165.0
 51
266.1751138275
  0
ARC
  5
6C
330
1F
100
AcDbEntity
  8
0
  6
Continuous
 62
     7
370
    15
100
AcDbCircle
 10
355.4267945771
 20
173.4509048738
 30
0.0
 40
4.999999999999982
100
AcDbArc
 50
335.0
 51
89.7718696738
  0
LWPOLYLINE
  5
6D
330
1F
100
AcDbEntity
  8
0
  6
Continuous
 62
     7
370
    15
100
AcDbPolyline
 90
       11
 70
   128
 43
0.0
 10
455.2149309707
 20
159.4730609931
 10
456.0880049062
 20
160.8900794663
 10
457.924543221
 20
164.5040059366
 10
459.2207952333
 20
167.5531411447
 10
460.0978924823
 20
169.9750268735
 10
460.7086910796
 20
171.91668543
 10
461.3809420657
 20
174.4247073211
 10
462.0658590389
 20
177.6867056169
 10
462.6281692577
 20
181.7271033205
 10
462.897388537
 20
186.5625524797
 10
462.900532682
 20
192.1746203579
  0
LINE
  5
6E
330
1F
100
AcDbEntity
  8
0
  6
Continuous
 62
     7
370
    15
100
AcDbLine
 10
157.4005319667
 20
313.9509031452
 30
0.0
 11
128.4005328012
 21
313.9509031452
 31
0.0
  0
LINE
  5
6F
330
1F
100
AcDbEntity
  8
0
  6
Continuous
 62
     7
370
    15
100
AcDbLine
 10
153.3472075057
 20
175.9509066023
 30
0.0
 11
157.4005319667
 21
175.9509066023
 31
0.0
  0
ARC
  5
70
330
1F
100
AcDbEntity
  8
0
  6
Continuous
 62
     7
370
    15
100
AcDbCircle
 10
153.3472132808
 20
183.9509048738
 30
0.0
 40
8.000000000000028
100
AcDbArc
 50
195.2555633432
 51
270.0
  0
ARC
  5
71
330
1F
100
AcDbEntity
  8
0
  6
Continuous
 62
     7
370
    15
100
AcDbCircle
 10
261.4005325628
 20
213.4208928642
 30
0.0
 40
120.0
100
AcDbArc
 50
180.0
 51
195.2555633432
  0
ARC
  5
72
330
1F
100
AcDbEntity
  8
0
  6
Continuous
 62
     7
370
    15
100
AcDbCircle
 10
128.4005325628
 20
310.9509048738
 30
0.0
 40
3.0
100
AcDbArc
 50
90.0
 51
180.0
  0
LINE
  5
73
330
1F
100
AcDbEntity
  8
0
  6
Continuous
 62
     7
370
    15
100
AcDbLine
 10
130.4005368543
 20
221.9509048291
 30
0.0
 11
141.4005293441
 21
221.9509048291
 31
0.0
  0
LINE
  5
74
330
1F
100
AcDbEntity
  8
0
  6
Continuous
 62
     7
370
    15
100
AcDbLine
 10
297.4005325628
 20
313.5509038247
 30
0.0
 11
237.4005339039
 21
313.5509038247
 31
0.0
  0
LINE
  5
75
330
1F
100
AcDbEntity
  8
0
  6
Continuous
 62
     7
370
    15
100
AcDbLine
 10
217.4005343509
 20
313.5509038247
 30
0.0
 11
157.4005319667
 21
313.5509038247
 31
0.0
  0
LINE
  5
76
330
1F
100
AcDbEntity
  8
0
  6
Continuous
 62
     7
370
    15
100
AcDbLine
 10
157.4005319667
 20
176.3509059228
 30
0.0
 11
297.4005325628
 21
176.3509059228
 31
0.0
  0
LINE
  5
77
330
1F
100
AcDbEntity
  8
0
  6
Continuous
 62
     7
370
    15
100
AcDbLine
 10
297.4005325628
 20
174.9509045758
 30
0.0
 11
347.9005343211
 21
174.9509045758
 31
0.0
  0
LINE
  5
78
330
1F
100
AcDbEntity
  8
0
  6
Continuous
 62
     7
370
    15
100
AcDbLine
 10
347.9005343211
 20
314.9509051718
 30
0.0
 11
297.4005325628
 21
314.9509051718
 31
0.0
  0
LINE
  5
79
330
1F
100
AcDbEntity
  8
0
  6
Continuous
 62
     7
370
    15
100
AcDbLine
 10
313.4005333227
 20
224.9509053208
 30
0.0
 11
344.4005309534
 21
224.9509053208
 31
0.0
  0
LINE
  5
7A
330
1F
100
AcDbEntity
  8
0
  6
Continuous
 62
     7
370
    15
100
AcDbLine
 10
344.4005309534
 20
264.9509044267
 30
0.0
 11
313.4005333227
 21
264.9509044267
 31
0.0
  0
LINE
  5
7B
330
1F
100
AcDbEntity
  8
0
  6
Continuous
 62
     7
370
    15
100
AcDbLine
 10
344.4005309534
 20
272.3486324676
 30
0.0
 11
340.9005313111
 21
271.9509055741
 31
0.0
  0
LINE
  5
7C
330
1F
100
AcDbEntity
  8
0
  6
Continuous
 62
     7
370
    15
100
AcDbLine
 10
340.9005313111
 20
217.9509041734
 30
0.0
 11
344.4005309534
 21
217.55317728
 31
0.0
  0
LINE
  5
7D
330
1F
100
AcDbEntity
  8
0
  6
Continuous
 62
     7
370
    15
100
AcDbLine
 10
344.4005309534
 20
182.2588810601
 30
0.0
 11
313.4005333227
 21
182.2588810601
 31
0.0
  0
LINE
  5
7E
330
1F
100
AcDbEntity
  8
0
  6
Continuous
 62
     7
370
    15
100
AcDbLine
 10
313.4005333227
 20
307.6429286875
 30
0.0
 11
344.4005309534
 21
307.6429286875
 31
0.0
  0
ARC
  5
7F
330
1F
100
AcDbEntity
  8
0
  6
Continuous
 62
     7
370
    15
100
AcDbCircle
 10
347.9005325628
 20
311.9509048738
 30
0.0
 40
3.000000000001473
100
AcDbArc
 50
12.8395884068
 51
90.0
  0
ARC
  5
80
330
1F
100
AcDbEntity
  8
0
  6
Continuous
 62
     7
370
    15
100
AcDbCircle
 10
347.9005325628
 20
177.9509048738
 30
0.0
 40
3.000000000002906
100
AcDbArc
 50
270.0
 51
347.1604115933
  0
ARC
  5
81
330
1F
100
AcDbEntity
  8
0
  6
Continuous
 62
     7
370
    15
100
AcDbCircle
 10
352.2880147565
 20
312.9509048738
 30
0.0
 40
1.500000000000057
100
AcDbArc
 50
192.8395884071
 51
270.0
  0
ARC
  5
82
330
1F
100
AcDbEntity
  8
0
  6
Continuous
 62
     7
370
    15
100
AcDbCircle
 10
352.2880147565
 20
176.9509048738
 30
0.0
 40
1.5
100
AcDbArc
 50
90.0
 51
167.1604115926
  0
LINE
  5
83
330
1F
100
AcDbEntity
  8
0
  6
Continuous
 62
     7
370
    15
100
AcDbLine
 10
352.4005322647
 20
311.4509055294
 30
0.0
 11
352.2880135966
 21
311.4509055294
 31
0.0
  0
LINE
  5
84
330
1F
100
AcDbEntity
  8
0
  6
Continuous
 62
     7
370
    15
100
AcDbLine
 10
352.2880135966
 20
178.4509042181
 30
0.0
 11
352.4005322647
 21
178.4509042181
 31
0.0
  0
LINE
  5
85
330
1F
100
AcDbEntity
  8
0
  6
Continuous
 62
     7
370
    15
100
AcDbLine
 10
329.8371306551
 20
295.2508920707
 30
0.0
 11
340.9005313111
 21
267.7023554124
 31
0.0
  0
LINE
  5
86
330
1F
100
AcDbEntity
  8
0
  6
Continuous
 62
     7
370
    15
100
AcDbLine
 10
325.7943673921
 20
299.9509045758
 30
0.0
 11
327.9812003416
 21
294.5055583395
 31
0.0
  0
LWPOLYLINE
  5
87
330
1F
100
AcDbEntity
  8
0
  6
Continuous
 62
     7
370
    15
100
AcDbPolyline
 90
       18
 70
   128
 43
0.0
 10
212.4005316687
 20
211.4979470052
 10
212.2198178363
 20
211.8289986529
 10
211.6842104984
 20
212.1480883934
 10
210.8130662632
 20
212.4436752774
 10
209.6378712845
 20
212.7050826229
 10
208.2011013222
 20
212.9228630938
 10
206.5546794725
 20
213.0891414263
 10
204.7581209731
 20
213.1979087271
 10
202.8763501835
 20
213.2452385403
 10
200.9773834539
 20
213.2294135072
 10
199.1298555327
 20
213.1510110475
 10
197.4005310726
 20
213.0128623821
 10
195.8519278956
 20
212.8199593999
 10
194.5399998617
 20
212.5792758443
 10
193.5121773672
 20
212.2995102681
 10
192.8056015563
 20
211.9907731094
 10
192.4458130193
 20
211.6642253377
 10
192.400535841
 20
211.4979470052
  0
LWPOLYLINE
  5
88
330
1F
100
AcDbEntity
  8
0
  6
Continuous
 62
     7
370
    15
100
AcDbPolyline
 90
       22
 70
   128
 43
0.0
 10
212.4005316687
 20
208.5442053057
 10
212.2198178363
 20
208.8752569534
 10
211.6842104984
 20
209.1943429686
 10
210.8130662632
 20
209.4899298527
 10
209.6378712845
 20
209.7513409235
 10
208.2011013222
 20
209.969117669
 10
206.5546794725
 20
210.1353960015
 10
204.7581209731
 20
210.2441670276
 10
202.8763501835
 20
210.2914931156
 10
200.9773834539
 20
210.2756718077
 10
199.1298555327
 20
210.1972656228
 10
197.4005310726
 20
210.0591169574
 10
195.8519278956
 20
209.8662139751
 10
194.5399998617
 20
209.6255304195
 10
193.5121773672
 20
209.3457648434
 10
192.8056015563
 20
209.0370314099
 10
192.4458130193
 20
208.7104836382
 10
192.4458130193
 20
208.3779269733
 10
192.8056015563
 20
208.0513792016
 10
193.5121773672
 20
207.7426420428
 10
194.5399998617
 20
207.4628764667
 10
195.3720807028
 20
207.2998726644
  0
LWPOLYLINE
  5
89
330
1F
100
AcDbEntity
  8
0
  6
Continuous
 62
     7
370
    15
100
AcDbPolyline
 90
        6
 70
   128
 43
0.0
 10
209.4065754605
 20
207.2960095383
 10
209.6378712845
 20
207.337069688
 10
210.8130662632
 20
207.5984770335
 10
211.6842104984
 20
207.8940639176
 10
212.2198178363
 20
208.2131536581
 10
212.4005316687
 20
208.5442053057
  0
LWPOLYLINE
  5
8A
330
1F
100
AcDbEntity
  8
0
  6
Continuous
 62
     7
370
    15
100
AcDbPolyline
 90
       23
 70
   128
 43
0.0
 10
206.800533731
 20
198.6983897068
 10
206.622300942
 20
198.9152351298
 10
206.1020492506
 20
199.1145083584
 10
205.2819191408
 20
199.2800751604
 10
204.228362341
 20
199.3985133149
 10
203.0267178011
 20
199.4602339246
 10
201.7743497086
 20
199.4602339246
 10
200.5727051687
 20
199.3985133149
 10
199.5191483689
 20
199.2800751604
 10
198.6990182591
 20
199.1145083584
 10
198.1787665677
 20
198.9152351298
 10
198.0005337787
 20
198.6983897068
 10
198.1787665677
 20
198.4815480091
 10
198.6990182591
 20
198.2822710552
 10
199.5191483689
 20
198.1167042531
 10
200.5727051687
 20
197.9982660987
 10
201.7743497086
 20
197.936545489
 10
203.0267178011
 20
197.936545489
 10
204.228362341
 20
197.9982660987
 10
205.2819191408
 20
198.1167042531
 10
206.1020492506
 20
198.2822710552
 10
206.622300942
 20
198.4815480091
 10
206.800533731
 20
198.6983897068
  0
LWPOLYLINE
  5
8B
330
1F
100
AcDbEntity
  8
0
  6
Continuous
 62
     7
370
    15
100
AcDbPolyline
 90
       12
 70
   128
 43
0.0
 10
206.800533731
 20
203.6212975063
 10
206.622300942
 20
203.838139204
 10
206.1020492506
 20
204.0374161579
 10
205.2819191408
 20
204.2029829599
 10
204.228362341
 20
204.3214211144
 10
203.0267178011
 20
204.383141724
 10
201.7743497086
 20
204.383141724
 10
200.5727051687
 20
204.3214211144
 10
199.5191483689
 20
204.2029829599
 10
198.6990182591
 20
204.0374161579
 10
198.1787665677
 20
203.838139204
 10
198.0005337787
 20
203.6212975063
  0
LINE
  5
8C
330
1F
100
AcDbEntity
  8
0
  6
Continuous
 62
     7
370
    15
100
AcDbLine
 10
223.0005322886
 20
260.2681549169
 30
0.0
 11
223.0005322886
 21
219.7886681088
 31
0.0
  0
LINE
  5
8D
330
1F
100
AcDbEntity
  8
0
  6
Continuous
 62
     7
370
    15
100
AcDbLine
 10
165.8005251479
 20
219.7886681088
 30
0.0
 11
165.8005251479
 21
260.2681549169
 31
0.0
  0
LWPOLYLINE
  5
8E
330
1F
100
AcDbEntity
  8
0
  6
Continuous
 62
     7
370
    15
100
AcDbPolyline
 90
       28
 70
   128
 43
0.0
 10
186.9005321455
 20
211.4979470052
 10
186.7253242922
 20
211.2357312717
 10
186.2091480685
 20
210.9876530148
 10
185.3798239422
 20
210.7670823015
 10
184.2820628476
 20
210.5859139838
 10
182.975052197
 20
210.4539120473
 10
181.5292446804
 20
210.378195522
 10
180.0225882721
 20
210.362847326
 10
178.5363092017
 20
210.4086907484
 10
177.150531013
 20
210.5132559218
 10
175.9399606776
 20
210.6709064819
 10
174.9698652816
 20
210.8731413163
 10
174.2925329995
 20
211.1090639509
 10
173.9444865775
 20
211.3659487941
 10
173.9444865775
 20
211.6299489416
 10
174.2925329995
 20
211.8868337848
 10
174.9698652816
 20
212.1227526941
 10
175.9399606776
 20
212.3249912538
 10
177.150531013
 20
212.4826418139
 10
178.5363092017
 20
212.5872069873
 10
180.0225882721
 20
212.6330504097
 10
181.5292446804
 20
212.6177022137
 10
182.975052197
 20
212.5419856884
 10
184.2820628476
 20
212.4099837519
 10
185.3798239422
 20
212.2288154342
 10
186.2091480685
 20
212.0082447209
 10
186.7253242922
 20
211.7601627387
 10
186.9005321455
 20
211.4979470052
  0
LWPOLYLINE
  5
8F
330
1F
100
AcDbEntity
  8
0
  6
Continuous
 62
     7
370
    15
100
AcDbPolyline
 90
        3
 70
   128
 43
0.0
 10
165.8005251479
 20
215.1505792417
 10
166.0630091024
 20
213.2223578073
 10
166.202841599
 20
212.7819539882
  0
LINE
  5
90
330
1F
100
AcDbEntity
  8
0
  6
Continuous
 62
     7
370
    15
100
AcDbLine
 10
165.8005251479
 20
215.1505792417
 30
0.0
 11
165.8005251479
 21
219.7886681088
 31
0.0
  0
LINE
  5
91
330
1F
100
AcDbEntity
  8
0
  6
Continuous
 62
     7
370
    15
100
AcDbLine
 10
223.0005322886
 20
219.7886681088
 30
0.0
 11
223.0005322886
 21
215.1505792417
 31
0.0
  0
ARC
  5
92
330
1F
100
AcDbEntity
  8
0
  6
Continuous
 62
     7
370
    15
100
AcDbCircle
 10
194.4005361688
 20
258.0628214985
 30
0.0
 40
4.641680039442875
100
AcDbArc
 50
178.0086177875
 51
1.9913822125
  0
ARC
  5
93
330
1F
100
AcDbEntity
  8
0
  6
Continuous
 62
     7
370
    15
100
AcDbCircle
 10
194.4005324435
 20
258.162805663
 30
0.0
 40
3.500241624587679
100
AcDbArc
 50
180.6737252808
 51
359.3262747192
  0
ARC
  5
94
330
1F
100
AcDbEntity
  8
0
  6
Continuous
 62
     7
370
    15
100
AcDbCircle
 10
197.999400853
 20
263.4030604695
 30
0.0
 40
5.282337572052832
100
AcDbArc
 50
268.9275403543
 51
281.3548506067
  0
ARC
  5
95
330
1F
100
AcDbEntity
  8
0
  6
Continuous
 62
     7
370
    15
100
AcDbCircle
 10
190.8016556991
 20
263.4028922111
 30
0.0
 40
5.282169499146473
100
AcDbArc
 50
258.6449579326
 51
271.0725841989
  0
CIRCLE
  5
96
330
1F
100
AcDbEntity
  8
0
  6
Continuous
 62
     7
370
    15
100
AcDbCircle
 10
194.4240802654
 20
258.112116638
 30
0.0
 40
2.376474666531443
  0
ARC
  5
97
330
1F
100
AcDbEntity
  8
0
  6
Continuous
 62
     7
370
    15
100
AcDbCircle
 10
194.4005324435
 20
257.9858525862
 30
0.0
 40
2.400853457604118
100
AcDbArc
 50
1.9887506657
 51
178.0112493343
  0
LWPOLYLINE
  5
98
330
1F
100
AcDbEntity
  8
0
  6
Continuous
 62
     7
370
    15
100
AcDbPolyline
 90
       13
 70
   128
 43
0.0
 10
186.6773798061
 20
211.7933215477
 10
186.2091480685
 20
211.5784020998
 10
185.3798239422
 20
211.3578313865
 10
184.2820628476
 20
211.1766630687
 10
182.975052197
 20
211.0446611323
 10
181.5292446804
 20
210.968944607
 10
180.0225882721
 20
210.9535926856
 10
178.5363092017
 20
210.999436108
 10
177.150531013
 20
211.1040050067
 10
175.9399606776
 20
211.2616555669
 10
174.9698652816
 20
211.4638904013
 10
174.2925329995
 20
211.6998093106
 10
174.1236879421
 20
211.7933215477
  0
LINE
  5
99
330
1F
100
AcDbEntity
  8
0
  6
Continuous
 62
     7
370
    15
100
AcDbLine
 10
224.4005336356
 20
257.5117800288
 30
0.0
 11
224.4005336356
 21
216.1187393494
 31
0.0
  0
LINE
  5
9A
330
1F
100
AcDbEntity
  8
0
  6
Continuous
 62
     7
370
    15
100
AcDbLine
 10
164.4005312515
 20
257.5117800288
 30
0.0
 11
164.4005312515
 21
216.1187393494
 31
0.0
  0
ARC
  5
9B
330
1F
100
AcDbEntity
  8
0
  6
Continuous
 62
     7
370
    15
100
AcDbCircle
 10
169.8907127123
 20
258.092214509
 30
0.0
 40
5.495032350277421
100
AcDbArc
 50
132.8517772643
 51
182.4076599388
  0
ARC
  5
9C
330
1F
100
AcDbEntity
  8
0
  6
Continuous
 62
     7
370
    15
100
AcDbCircle
 10
219.0129624041
 20
258.2020146201
 30
0.0
 40
5.398329451352041
100
AcDbArc
 50
356.3821521727
 51
48.8145939533
  0
LINE
  5
9D
330
1F
100
AcDbEntity
  8
0
  6
Continuous
 62
     7
370
    15
100
AcDbLine
 10
224.4005336356
 20
257.8613724463
 30
0.0
 11
224.4005336356
 21
257.5117800288
 31
0.0
  0
LINE
  5
9E
330
1F
100
AcDbEntity
  8
0
  6
Continuous
 62
     7
370
    15
100
AcDbLine
 10
164.4005312515
 20
257.8613724463
 30
0.0
 11
164.4005312515
 21
257.5117800288
 31
0.0
  0
LINE
  5
9F
330
1F
100
AcDbEntity
  8
0
  6
Continuous
 62
     7
370
    15
100
AcDbLine
 10
164.4005312515
 20
216.1187393494
 30
0.0
 11
164.4005312515
 21
212.9093887188
 31
0.0
  0
LINE
  5
A0
330
1F
100
AcDbEntity
  8
0
  6
Continuous
 62
     7
370
    15
100
AcDbLine
 10
224.4005336356
 20
216.1187393494
 30
0.0
 11
224.4005336356
 21
212.9093887188
 31
0.0
  0
LWPOLYLINE
  5
A1
330
1F
100
AcDbEntity
  8
0
  6
Continuous
 62
     7
370
    15
100
AcDbPolyline
 90
        3
 70
   128
 43
0.0
 10
223.7047686172
 20
210.1890960612
 10
224.2265253258
 20
211.5126283743
 10
224.4005336356
 20
212.9093887188
  0
LWPOLYLINE
  5
A2
330
1F
100
AcDbEntity
  8
0
  6
Continuous
 62
     7
370
    15
100
AcDbPolyline
 90
        3
 70
   128
 43
0.0
 10
164.4005312515
 20
212.9093887188
 10
164.7913887096
 20
210.8399862327
 10
165.0962962699
 20
210.1890960612
  0
ARC
  5
A3
330
1F
100
AcDbEntity
  8
0
  6
Continuous
 62
     7
370
    15
100
AcDbCircle
 10
217.6909661709
 20
213.753542772
 30
0.0
 40
6.990786809624749
100
AcDbArc
 50
267.6189649937
 51
329.3443123377
  0
ARC
  5
A4
330
1F
100
AcDbEntity
  8
0
  6
Continuous
 62
     7
370
    15
100
AcDbCircle
 10
171.1618962932
 20
213.8490149906
 30
0.0
 40
7.084243799637602
100
AcDbArc
 50
211.1063370965
 51
271.9303855721
  0
LINE
  5
A5
330
1F
100
AcDbEntity
  8
0
  6
Continuous
 62
     7
370
    15
100
AcDbLine
 10
217.4005343509
 20
206.7687915541
 30
0.0
 11
208.9440955711
 21
206.7687915541
 31
0.0
  0
LINE
  5
A6
330
1F
100
AcDbEntity
  8
0
  6
Continuous
 62
     7
370
    15
100
AcDbLine
 10
195.853127439
 20
206.7687915541
 30
0.0
 11
171.4005305362
 21
206.7687915541
 31
0.0
  0
LINE
  5
A7
330
1F
100
AcDbEntity
  8
0
  6
Continuous
 62
     7
370
    15
100
AcDbLine
 10
182.4005304766
 20
371.4868420638
 30
0.0
 11
182.4005304766
 21
323.4868490972
 31
0.0
  0
LINE
  5
A8
330
1F
100
AcDbEntity
  8
0
  6
Continuous
 62
     7
370
    15
100
AcDbLine
 10
242.4005328608
 20
371.4868420638
 30
0.0
 11
242.4005328608
 21
323.4868490972
 31
0.0
  0
LINE
  5
A9
330
1F
100
AcDbEntity
  8
0
  6
Continuous
 62
     7
370
    15
100
AcDbLine
 10
277.4005330098
 20
369.9868464746
 30
0.0
 11
277.4005330098
 21
324.986852137
 31
0.0
  0
LINE
  5
AA
330
1F
100
AcDbEntity
  8
0
  6
Continuous
 62
     7
370
    15
100
AcDbLine
 10
237.4005339039
 20
325.1931959667
 30
0.0
 11
237.4005339039
 21
371.9368422307
 31
0.0
  0
LINE
  5
AB
330
1F
100
AcDbEntity
  8
0
  6
Continuous
 62
     7
370
    15
100
AcDbLine
 10
217.4005343509
 20
325.1931959667
 30
0.0
 11
217.4005343509
 21
371.9368422307
 31
0.0
  0
LINE
  5
AC
330
1F
100
AcDbEntity
  8
0
  6
Continuous
 62
     7
370
    15
100
AcDbLine
 10
229.8005356384
 20
305.0796272136
 30
0.0
 11
237.4005339039
 21
305.0796272136
 31
0.0
  0
LINE
  5
AD
330
1F
100
AcDbEntity
  8
0
  6
Continuous
 62
     7
370
    15
100
AcDbLine
 10
229.8005356384
 20
305.0796272136
 30
0.0
 11
229.8005356384
 21
307.9884866156
 31
0.0
  0
LWPOLYLINE
  5
AE
330
1F
100
AcDbEntity
  8
0
  6
Continuous
 62
     7
370
    15
100
AcDbPolyline
 90
        9
 70
   128
 43
0.0
 10
229.8005356384
 20
307.9884866156
 10
229.6178399515
 20
308.4337556638
 10
229.0975882602
 20
308.8112318792
 10
228.3189727855
 20
309.0634563841
 10
227.4005322647
 20
309.1520288863
 10
226.482091744
 20
309.0634563841
 10
225.7034762693
 20
308.8112318792
 10
225.1832245779
 20
308.4337556638
 10
225.0005288911
 20
307.9884866156
  0
LINE
  5
AF
330
1F
100
AcDbEntity
  8
0
  6
Continuous
 62
     7
370
    15
100
AcDbLine
 10
225.0005288911
 20
307.9884866156
 30
0.0
 11
225.0005288911
 21
305.0796272136
 31
0.0
  0
LINE
  5
B0
330
1F
100
AcDbEntity
  8
0
  6
Continuous
 62
     7
370
    15
100
AcDbLine
 10
217.4005343509
 20
305.0796272136
 30
0.0
 11
225.0005288911
 21
305.0796272136
 31
0.0
  0
LINE
  5
B1
330
1F
100
AcDbEntity
  8
0
  6
Continuous
 62
     7
370
    15
100
AcDbLine
 10
237.4005339039
 20
305.0796272136
 30
0.0
 11
237.4005339039
 21
311.1880266942
 31
0.0
  0
LINE
  5
B2
330
1F
100
AcDbEntity
  8
0
  6
Continuous
 62
     7
370
    15
100
AcDbLine
 10
217.4005343509
 20
305.0796272136
 30
0.0
 11
217.4005343509
 21
311.1880266942
 31
0.0
  0
LINE
  5
B3
330
1F
100
AcDbEntity
  8
0
  6
Continuous
 62
     7
370
    15
100
AcDbLine
 10
217.4005343509
 20
304.0300862767
 30
0.0
 11
225.0005288911
 21
304.0300862767
 31
0.0
  0
LINE
  5
B4
330
1F
100
AcDbEntity
  8
0
  6
Continuous
 62
     7
370
    15
100
AcDbLine
 10
225.0005288911
 20
304.0300862767
 30
0.0
 11
225.0005288911
 21
305.0796272136
 31
0.0
  0
LINE
  5
B5
330
1F
100
AcDbEntity
  8
0
  6
Continuous
 62
     7
370
    15
100
AcDbLine
 10
217.4005343509
 20
304.0300862767
 30
0.0
 11
217.4005343509
 21
305.0796272136
 31
0.0
  0
LINE
  5
B6
330
1F
100
AcDbEntity
  8
0
  6
Continuous
 62
     7
370
    15
100
AcDbLine
 10
229.8005356384
 20
304.0300862767
 30
0.0
 11
237.4005339039
 21
304.0300862767
 31
0.0
  0
LINE
  5
B7
330
1F
100
AcDbEntity
  8
0
  6
Continuous
 62
     7
370
    15
100
AcDbLine
 10
229.8005356384
 20
305.0796272136
 30
0.0
 11
229.8005356384
 21
304.0300862767
 31
0.0
  0
LINE
  5
B8
330
1F
100
AcDbEntity
  8
0
  6
Continuous
 62
     7
370
    15
100
AcDbLine
 10
237.4005339039
 20
304.0300862767
 30
0.0
 11
237.4005339039
 21
305.0796272136
 31
0.0
  0
LWPOLYLINE
  5
B9
330
1F
100
AcDbEntity
  8
0
  6
Continuous
 62
     7
370
    15
100
AcDbPolyline
 90
        9
 70
   128
 43
0.0
 10
229.8005356384
 20
306.9389419534
 10
229.6178399515
 20
307.3842110016
 10
229.0975882602
 20
307.7616909422
 10
228.3189727855
 20
308.0139154472
 10
227.4005322647
 20
308.1024879493
 10
226.482091744
 20
308.0139154472
 10
225.7034762693
 20
307.7616909422
 10
225.1832245779
 20
307.3842110016
 10
225.0005288911
 20
306.9389419534
  0
LINE
  5
BA
330
1F
100
AcDbEntity
  8
0
  6
Continuous
 62
     7
370
    15
100
AcDbLine
 10
237.4005339039
 20
325.1931959667
 30
0.0
 11
237.4005339039
 21
323.6824566402
 31
0.0
  0
LINE
  5
BB
330
1F
100
AcDbEntity
  8
0
  6
Continuous
 62
     7
370
    15
100
AcDbLine
 10
217.4005343509
 20
323.6824566402
 30
0.0
 11
217.4005343509
 21
325.1931959667
 31
0.0
  0
ARC
  5
BC
330
1F
100
AcDbEntity
  8
0
  6
Continuous
 62
     7
370
    15
100
AcDbCircle
 10
227.4005322647
 20
316.9123875285
 30
0.0
 40
2.400122662240325
100
AcDbArc
 50
180.5712447382
 51
359.4287552618
  0
LINE
  5
BD
330
1F
100
AcDbEntity
  8
0
  6
Continuous
 62
     7
370
    15
100
AcDbLine
 10
229.8005356384
 20
318.863830892
 30
0.0
 11
229.8005356384
 21
316.8884584584
 31
0.0
  0
ARC
  5
BE
330
1F
100
AcDbEntity
  8
0
  6
Continuous
 62
     7
370
    15
100
AcDbCircle
 10
227.4005322647
 20
318.8399018219
 30
0.0
 40
2.400122662240326
100
AcDbArc
 50
0.5712447382
 51
179.4287552618
  0
LINE
  5
BF
330
1F
100
AcDbEntity
  8
0
  6
Continuous
 62
     7
370
    15
100
AcDbLine
 10
225.0005288911
 20
316.8884584584
 30
0.0
 11
225.0005288911
 21
318.863830892
 31
0.0
  0
LINE
  5
C0
330
1F
100
AcDbEntity
  8
0
  6
Continuous
 62
     7
370
    15
100
AcDbLine
 10
237.4005339039
 20
313.2501387872
 30
0.0
 11
237.4005339039
 21
323.6824566402
 31
0.0
  0
LINE
  5
C1
330
1F
100
AcDbEntity
  8
0
  6
Continuous
 62
     7
370
    15
100
AcDbLine
 10
217.4005343509
 20
313.2501387872
 30
0.0
 11
217.4005343509
 21
323.6824566402
 31
0.0
  0
LINE
  5
C2
330
1F
100
AcDbEntity
  8
0
  6
Continuous
 62
     7
370
    15
100
AcDbLine
 10
237.4005339039
 20
313.2501387872
 30
0.0
 11
237.4005339039
 21
311.1880266942
 31
0.0
  0
LINE
  5
C3
330
1F
100
AcDbEntity
  8
0
  6
Continuous
 62
     7
370
    15
100
AcDbLine
 10
217.4005343509
 20
311.1880266942
 30
0.0
 11
217.4005343509
 21
313.2501387872
 31
0.0
  0
ARC
  5
C4
330
1F
100
AcDbEntity
  8
0
  6
Continuous
 62
     7
370
    15
100
AcDbCircle
 10
227.4005322647
 20
317.1001074213
 30
0.0
 40
2.400122687312865
100
AcDbArc
 50
180.5713047657
 51
359.4286952343
  0
ARC
  5
C5
330
1F
100
AcDbEntity
  8
0
  6
Continuous
 62
     7
370
    15
100
AcDbCircle
 10
227.4005322647
 20
320.6464745387
 30
0.0
 40
2.408943789061758
100
AcDbArc
 50
202.1630226289
 51
337.8369773711
  0
ARC
  5
C6
330
1F
100
AcDbEntity
  8
0
  6
Continuous
 62
     7
370
    15
100
AcDbCircle
 10
227.4005322647
 20
320.8353934803
 30
0.0
 40
2.409906153554994
100
AcDbArc
 50
204.6163159355
 51
335.3836840645
  0
LWPOLYLINE
  5
C7
330
1F
100
AcDbEntity
  8
0
  6
Continuous
 62
     7
370
    15
100
AcDbPolyline
 90
        3
 70
   128
 43
0.0
 10
332.0324516785
 20
315.8674606957
 10
330.8216541004
 20
315.3897592701
 10
329.9715614808
 20
314.9509051718
  0
ARC
  5
C8
330
1F
100
AcDbEntity
  8
0
  6
Continuous
 62
     7
370
    15
100
AcDbCircle
 10
334.1660951101
 20
311.4704516939
 30
0.0
 40
4.887343087514236
100
AcDbArc
 50
68.543494663
 51
115.8849256083
  0
LINE
  5
C9
330
1F
100
AcDbEntity
  8
0
  6
Continuous
 62
     7
370
    15
100
AcDbLine
 10
335.5589083326
 20
317.8449043907
 30
0.0
 11
328.5059950245
 21
315.5183637418
 31
0.0
  0
LINE
  5
CA
330
1F
100
AcDbEntity
  8
0
  6
Continuous
 62
     7
370
    15
100
AcDbLine
 10
338.0700408411
 20
316.7171398081
 30
0.0
 11
335.5589083326
 21
317.8449043907
 31
0.0
  0
LINE
  5
CB
330
1F
100
AcDbEntity
  8
0
  6
Continuous
 62
     7
370
    15
100
AcDbLine
 10
328.5059950245
 20
315.5183637418
 30
0.0
 11
327.994236995
 21
314.9509051718
 31
0.0
  0
LINE
  5
CC
330
1F
100
AcDbEntity
  8
0
  6
Continuous
 62
     7
370
    15
100
AcDbLine
 10
323.6370704067
 20
314.9509051718
 30
0.0
 11
321.2173174066
 21
320.976234404
 31
0.0
  0
LINE
  5
CD
330
1F
100
AcDbEntity
  8
0
  6
Continuous
 62
     7
370
    15
100
AcDbLine
 10
324.7437740606
 20
324.8865226187
 30
0.0
 11
321.2173174066
 21
320.976234404
 31
0.0
  0
LINE
  5
CE
330
1F
100
AcDbEntity
  8
0
  6
Continuous
 62
     7
370
    15
100
AcDbLine
 10
328.5059950245
 20
315.5183637418
 30
0.0
 11
324.7437740606
 21
324.8865226187
 31
0.0
  0
LINE
  5
CF
330
1F
100
AcDbEntity
  8
0
  6
Continuous
 62
     7
370
    15
100
AcDbLine
 10
331.7966855061
 20
327.2130632676
 30
0.0
 11
324.7437740606
 21
324.8865226187
 31
0.0
  0
LINE
  5
D0
330
1F
100
AcDbEntity
  8
0
  6
Continuous
 62
     7
370
    15
100
AcDbLine
 10
335.5589083326
 20
317.8449043907
 30
0.0
 11
331.7966855061
 21
327.2130632676
 31
0.0
  0
LINE
  5
D1
330
1F
100
AcDbEntity
  8
0
  6
Continuous
 62
     7
370
    15
100
AcDbLine
 10
335.3231421602
 20
325.6293082513
 30
0.0
 11
331.7966855061
 21
327.2130632676
 31
0.0
  0
LINE
  5
D2
330
1F
100
AcDbEntity
  8
0
  6
Continuous
 62
     7
370
    15
100
AcDbLine
 10
338.8048953307
 20
316.9595444478
 30
0.0
 11
335.3231421602
 21
325.6293082513
 31
0.0
  0
LINE
  5
D3
330
1F
100
AcDbEntity
  8
0
  6
Continuous
 62
     7
370
    15
100
AcDbLine
 10
322.007613529
 20
331.6997283973
 30
0.0
 11
318.4811568749
 21
327.7894401826
 31
0.0
  0
LINE
  5
D4
330
1F
100
AcDbEntity
  8
0
  6
Continuous
 62
     7
370
    15
100
AcDbLine
 10
324.0597343934
 20
326.5898222007
 30
0.0
 11
322.007613529
 21
331.6997283973
 31
0.0
  0
LINE
  5
D5
330
1F
100
AcDbEntity
  8
0
  6
Continuous
 62
     7
370
    15
100
AcDbLine
 10
320.5332777393
 20
322.679533986
 30
0.0
 11
324.0597343934
 21
326.5898222007
 31
0.0
  0
LINE
  5
D6
330
1F
100
AcDbEntity
  8
0
  6
Continuous
 62
     7
370
    15
100
AcDbLine
 10
320.5332777393
 20
322.679533986
 30
0.0
 11
318.4811568749
 21
327.7894401826
 31
0.0
  0
LINE
  5
D7
330
1F
100
AcDbEntity
  8
0
  6
Continuous
 62
     7
370
    15
100
AcDbLine
 10
324.0597343934
 20
326.5898222007
 30
0.0
 11
331.1126477015
 21
328.9163628496
 31
0.0
  0
LINE
  5
D8
330
1F
100
AcDbEntity
  8
0
  6
Continuous
 62
     7
370
    15
100
AcDbLine
 10
331.1126477015
 20
328.9163628496
 30
0.0
 11
334.6391043556
 21
327.3326152839
 31
0.0
  0
LINE
  5
D9
330
1F
100
AcDbEntity
  8
0
  6
Continuous
 62
     7
370
    15
100
AcDbLine
 10
334.6391043556
 20
327.3326152839
 30
0.0
 11
333.7429932249
 21
326.3389686026
 31
0.0
  0
LINE
  5
DA
330
1F
100
AcDbEntity
  8
0
  6
Continuous
 62
     7
370
    15
100
AcDbLine
 10
322.1134285373
 20
321.9698810853
 30
0.0
 11
320.5332777393
 21
322.679533986
 31
0.0
  0
LWPOLYLINE
  5
DB
330
1F
100
AcDbEntity
  8
0
  6
Continuous
 62
     7
370
    15
100
AcDbPolyline
 90
       11
 70
   128
 43
0.0
 10
323.8354607415
 20
323.879345683
 10
323.9216602338
 20
324.1734275498
 10
324.330998857
 20
324.7775206246
 10
325.0295764697
 20
325.4019314327
 10
325.9553204221
 20
325.9911680497
 10
327.0259744418
 20
326.4928677954
 10
328.1464057905
 20
326.8624612965
 10
329.2170598102
 20
327.0671138443
 10
330.1428018999
 20
327.0886236705
 10
330.8413795126
 20
326.9250983276
 10
330.8755106223
 20
326.909191338
  0
LINE
  5
DC
330
1F
100
AcDbEntity
  8
0
  6
Continuous
 62
     7
370
    15
100
AcDbLine
 10
329.0605268371
 20
334.0262690462
 30
0.0
 11
322.007613529
 21
331.6997283973
 31
0.0
  0
LINE
  5
DD
330
1F
100
AcDbEntity
  8
0
  6
Continuous
 62
     7
370
    15
100
AcDbLine
 10
331.1126477015
 20
328.9163628496
 30
0.0
 11
329.0605268371
 21
334.0262690462
 31
0.0
  0
LINE
  5
DE
330
1F
100
AcDbEntity
  8
0
  6
Continuous
 62
     7
370
    15
100
AcDbLine
 10
332.5869834912
 20
332.4425140299
 30
0.0
 11
329.0605268371
 21
334.0262690462
 31
0.0
  0
LINE
  5
DF
330
1F
100
AcDbEntity
  8
0
  6
Continuous
 62
     7
370
    15
100
AcDbLine
 10
334.6391043556
 20
327.3326152839
 30
0.0
 11
332.5869834912
 21
332.4425140299
 31
0.0
  0
LINE
  5
E0
330
1F
100
AcDbEntity
  8
0
  6
Continuous
 62
     7
370
    15
100
AcDbLine
 10
395.900531013
 20
209.2045688905
 30
0.0
 11
379.900535841
 21
209.2045688905
 31
0.0
  0
LINE
  5
E1
330
1F
100
AcDbEntity
  8
0
  6
Continuous
 62
     7
370
    15
100
AcDbLine
 10
395.900531013
 20
262.165754465
 30
0.0
 11
379.900535841
 21
262.165754465
 31
0.0
  0
LWPOLYLINE
  5
E2
330
1F
100
AcDbEntity
  8
0
  6
Continuous
 62
     7
370
    15
100
AcDbPolyline
 90
        7
 70
   128
 43
0.0
 10
379.900535841
 20
209.2045688905
 10
376.2610315275
 20
209.4635920502
 10
373.0318604899
 20
210.2114142753
 10
370.5761789274
 20
211.3639855661
 10
369.1703437758
 20
212.7921538331
 10
368.9007892204
 20
213.7739745803
 10
368.9005359006
 20
213.8051906504
  0
LWPOLYLINE
  5
E3
330
1F
100
AcDbEntity
  8
0
  6
Continuous
 62
     7
370
    15
100
AcDbPolyline
 90
        7
 70
   128
 43
0.0
 10
379.900535841
 20
262.165754465
 10
376.2599437428
 20
261.9485383757
 10
373.0298115802
 20
261.3214267321
 10
370.5740257097
 20
260.355171179
 10
369.1693006945
 20
259.1586666085
 10
368.9009829355
 20
258.347112117
 10
368.9005359006
 20
258.3121893831
  0
LWPOLYLINE
  5
E4
330
1F
100
AcDbEntity
  8
0
  6
Continuous
 62
     7
370
    15
100
AcDbPolyline
 90
        7
 70
   128
 43
0.0
 10
395.900531013
 20
262.165754465
 10
399.5411231113
 20
261.9485383757
 10
402.7712552738
 20
261.3214267321
 10
405.2270411444
 20
260.355171179
 10
406.6317661596
 20
259.1586666085
 10
406.9000839186
 20
258.347112117
 10
406.9005309534
 20
258.3121893831
  0
LINE
  5
E5
330
1F
100
AcDbEntity
  8
0
  6
Continuous
 62
     7
370
    15
100
AcDbLine
 10
406.9005309534
 20
258.3121893831
 30
0.0
 11
406.9005309534
 21
213.8051906504
 31
0.0
  0
LWPOLYLINE
  5
E6
330
1F
100
AcDbEntity
  8
0
  6
Continuous
 62
     7
370
    15
100
AcDbPolyline
 90
        7
 70
   128
 43
0.0
 10
395.900531013
 20
209.2045688905
 10
399.5400353265
 20
209.4635920502
 10
402.7692063642
 20
210.2114142753
 10
405.2248879266
 20
211.3639855661
 10
406.6307230783
 20
212.7921538331
 10
406.9002776337
 20
213.7739745803
 10
406.9005309534
 20
213.8051906504
  0
LINE
  5
E7
330
1F
100
AcDbEntity
  8
0
  6
Continuous
 62
     7
370
    15
100
AcDbLine
 10
387.9005297017
 20
381.9508993902
 30
0.0
 11
340.6389078987
 21
381.9508993902
 31
0.0
  0
LINE
  5
E8
330
1F
100
AcDbEntity
  8
0
  6
Continuous
 62
     7
370
    15
100
AcDbLine
 10
387.9005297017
 20
381.9508993902
 30
0.0
 11
387.9005297017
 21
384.9509054698
 31
0.0
  0
LINE
  5
E9
330
1F
100
AcDbEntity
  8
0
  6
Continuous
 62
     7
370
    15
100
AcDbLine
 10
340.6389078987
 20
107.9509103574
 30
0.0
 11
387.9005297017
 21
107.9509103574
 31
0.0
  0
LINE
  5
EA
330
1F
100
AcDbEntity
  8
0
  6
Continuous
 62
     7
370
    15
100
AcDbLine
 10
387.9005297017
 20
107.9509103574
 30
0.0
 11
387.9005297017
 21
104.9509042777
 31
0.0
  0
LINE
  5
EB
330
1F
100
AcDbEntity
  8
0
  6
Continuous
 62
     7
370
    15
100
AcDbLine
 10
387.9005297017
 20
107.9509103574
 30
0.0
 11
435.1621552301
 21
107.9509103574
 31
0.0
  0
LINE
  5
EC
330
1F
100
AcDbEntity
  8
0
  6
Continuous
 62
     7
370
    15
100
AcDbLine
 10
435.1621552301
 20
381.9508993902
 30
0.0
 11
387.9005297017
 21
381.9508993902
 31
0.0
  0
LINE
  5
ED
330
1F
100
AcDbEntity
  8
0
  6
Continuous
 62
     7
370
    15
100
AcDbLine
 10
387.9005297017
 20
91.9509077348
 30
0.0
 11
436.1625446868
 21
91.9509077348
 31
0.0
  0
LINE
  5
EE
330
1F
100
AcDbEntity
  8
0
  6
Continuous
 62
     7
370
    15
100
AcDbLine
 10
387.9005297017
 20
104.9509042777
 30
0.0
 11
387.9005297017
 21
91.9509077348
 31
0.0
  0
LINE
  5
EF
330
1F
100
AcDbEntity
  8
0
  6
Continuous
 62
     7
370
    15
100
AcDbLine
 10
339.6385184419
 20
91.9509077348
 30
0.0
 11
387.9005297017
 21
91.9509077348
 31
0.0
  0
LINE
  5
F0
330
1F
100
AcDbEntity
  8
0
  6
Continuous
 62
     7
370
    15
100
AcDbLine
 10
387.9005297017
 20
384.9509054698
 30
0.0
 11
387.9005297017
 21
397.9509020128
 31
0.0
  0
LINE
  5
F1
330
1F
100
AcDbEntity
  8
0
  6
Continuous
 62
     7
370
    15
100
AcDbLine
 10
387.9005297017
 20
397.9509020128
 30
0.0
 11
436.1625446868
 21
397.9509020128
 31
0.0
  0
LINE
  5
F2
330
1F
100
AcDbEntity
  8
0
  6
Continuous
 62
     7
370
    15
100
AcDbLine
 10
339.6385184419
 20
397.9509020128
 30
0.0
 11
387.9005297017
 21
397.9509020128
 31
0.0
  0
LINE
  5
F3
330
1F
100
AcDbEntity
  8
0
  6
Continuous
 62
     7
370
    15
100
AcDbLine
 10
368.9005359006
 20
233.4388516747
 30
0.0
 11
368.9005359006
 21
256.4629580729
 31
0.0
  0
LINE
  5
F4
330
1F
100
AcDbEntity
  8
0
  6
Continuous
 62
     7
370
    15
100
AcDbLine
 10
352.4005322647
 20
256.4629580729
 30
0.0
 11
352.4005322647
 21
233.4388516747
 31
0.0
  0
LINE
  5
F5
330
1F
100
AcDbEntity
  8
0
  6
Continuous
 62
     7
370
    15
100
AcDbLine
 10
368.9005359006
 20
194.4294007398
 30
0.0
 11
368.9005359006
 21
233.4388516747
 31
0.0
  0
LINE
  5
F6
330
1F
100
AcDbEntity
  8
0
  6
Continuous
 62
     7
370
    15
100
AcDbLine
 10
352.4005322647
 20
233.4388516747
 30
0.0
 11
352.4005322647
 21
194.4294007398
 31
0.0
  0
LINE
  5
F7
330
1F
100
AcDbEntity
  8
0
  6
Continuous
 62
     7
370
    15
100
AcDbLine
 10
368.9005359006
 20
256.4629580729
 30
0.0
 11
368.9005359006
 21
295.4724090077
 31
0.0
  0
LINE
  5
F8
330
1F
100
AcDbEntity
  8
0
  6
Continuous
 62
     7
370
    15
100
AcDbLine
 10
352.4005322647
 20
295.4724090077
 30
0.0
 11
352.4005322647
 21
256.4629580729
 31
0.0
  0
LINE
  5
F9
330
1F
100
AcDbEntity
  8
0
  6
Continuous
 62
     7
370
    15
100
AcDbLine
 10
406.9005309534
 20
284.7033696152
 30
0.0
 11
406.9005309534
 21
258.3121893831
 31
0.0
  0
LINE
  5
FA
330
1F
100
AcDbEntity
  8
0
  6
Continuous
 62
     7
370
    15
100
AcDbLine
 10
406.8423121166
 20
288.3982354678
 30
0.0
 11
406.9005309534
 21
284.7033696152
 31
0.0
  0
LINE
  5
FB
330
1F
100
AcDbEntity
  8
0
  6
Continuous
 62
     7
370
    15
100
AcDbLine
 10
406.9005309534
 20
213.8051906504
 30
0.0
 11
406.9005309534
 21
187.5567430534
 31
0.0
  0
LWPOLYLINE
  5
FC
330
1F
100
AcDbEntity
  8
0
  6
Continuous
 62
     7
370
    15
100
AcDbPolyline
 90
        7
 70
   128
 43
0.0
 10
395.900531013
 20
174.5695913114
 10
398.5651417566
 20
174.9450260677
 10
401.5453367424
 20
176.3610238113
 10
404.02521034
 20
178.7094989695
 10
405.8893232537
 20
182.009145049
 10
406.8476690841
 20
186.2423563279
 10
406.9005309534
 20
187.5567430534
  0
ARC
  5
FD
330
1F
100
AcDbEntity
  8
0
  6
Continuous
 62
     7
370
    15
100
AcDbCircle
 10
379.4963325027
 20
180.7131312373
 30
0.0
 40
10.59918695276191
100
AcDbArc
 50
181.4492230783
 51
272.1855225811
  0
LINE
  5
FE
330
1F
100
AcDbEntity
  8
0
  6
Continuous
 62
     7
370
    15
100
AcDbLine
 10
407.3826952768
 20
174.5695913114
 30
0.0
 11
395.900531013
 21
174.5695913114
 31
0.0
  0
LINE
  5
FF
330
1F
100
AcDbEntity
  8
0
  6
Continuous
 62
     7
370
    15
100
AcDbLine
 10
392.1069263411
 20
170.1216542997
 30
0.0
 11
390.9005357814
 21
170.1216542997
 31
0.0
  0
LINE
  5
100
330
1F
100
AcDbEntity
  8
0
  6
Continuous
 62
     7
370
    15
100
AcDbLine
 10
384.9005310726
 20
172.9992920436
 30
0.0
 11
390.9005357814
 21
172.9992920436
 31
0.0
  0
LINE
  5
101
330
1F
100
AcDbEntity
  8
0
  6
Continuous
 62
     7
370
    15
100
AcDbLine
 10
384.9005310726
 20
170.1216542997
 30
0.0
 11
379.900535841
 21
170.1216542997
 31
0.0
  0
LINE
  5
102
330
1F
100
AcDbEntity
  8
0
  6
Continuous
 62
     7
370
    15
100
AcDbLine
 10
390.9005357814
 20
381.9508993902
 30
0.0
 11
390.9005357814
 21
379.0639931239
 31
0.0
  0
LINE
  5
103
330
1F
100
AcDbEntity
  8
0
  6
Continuous
 62
     7
370
    15
100
AcDbLine
 10
384.9005310726
 20
379.0639931239
 30
0.0
 11
384.9005310726
 21
381.9508993902
 31
0.0
  0
LINE
  5
104
330
1F
100
AcDbEntity
  8
0
  6
Continuous
 62
     7
370
    15
100
AcDbLine
 10
390.9005357814
 20
110.8378166236
 30
0.0
 11
390.9005357814
 21
107.9509103574
 31
0.0
  0
LINE
  5
105
330
1F
100
AcDbEntity
  8
0
  6
Continuous
 62
     7
370
    15
100
AcDbLine
 10
384.9005310726
 20
107.9509103574
 30
0.0
 11
384.9005310726
 21
110.8378166236
 31
0.0
  0
LINE
  5
106
330
1F
100
AcDbEntity
  8
0
  6
Continuous
 62
     7
370
    15
100
AcDbLine
 10
328.9757727576
 20
397.9509020128
 30
0.0
 11
339.6385184419
 21
397.9509020128
 31
0.0
  0
LINE
  5
107
330
1F
100
AcDbEntity
  8
0
  6
Continuous
 62
     7
370
    15
100
AcDbLine
 10
340.6389078987
 20
381.9508993902
 30
0.0
 11
331.8040615809
 21
381.9508993902
 31
0.0
  0
LINE
  5
108
330
1F
100
AcDbEntity
  8
0
  6
Continuous
 62
     7
370
    15
100
AcDbLine
 10
328.9757727576
 20
91.9509077348
 30
0.0
 11
339.6385184419
 21
91.9509077348
 31
0.0
  0
LINE
  5
109
330
1F
100
AcDbEntity
  8
0
  6
Continuous
 62
     7
370
    15
100
AcDbLine
 10
331.8040615809
 20
107.9509103574
 30
0.0
 11
340.6389078987
 21
107.9509103574
 31
0.0
  0
LINE
  5
10A
330
1F
100
AcDbEntity
  8
0
  6
Continuous
 62
     7
370
    15
100
AcDbLine
 10
443.9970089984
 20
381.9508993902
 30
0.0
 11
435.1621552301
 21
381.9508993902
 31
0.0
  0
LINE
  5
10B
330
1F
100
AcDbEntity
  8
0
  6
Continuous
 62
     7
370
    15
100
AcDbLine
 10
436.1625446868
 20
397.9509020128
 30
0.0
 11
446.8252940965
 21
397.9509020128
 31
0.0
  0
LINE
  5
10C
330
1F
100
AcDbEntity
  8
0
  6
Continuous
 62
     7
370
    15
100
AcDbLine
 10
436.1625446868
 20
91.9509077348
 30
0.0
 11
446.8252940965
 21
91.9509077348
 31
0.0
  0
LINE
  5
10D
330
1F
100
AcDbEntity
  8
0
  6
Continuous
 62
     7
370
    15
100
AcDbLine
 10
435.1621552301
 20
107.9509103574
 30
0.0
 11
443.9970089984
 21
107.9509103574
 31
0.0
  0
LINE
  5
10E
330
1F
100
AcDbEntity
  8
0
  6
Continuous
 62
     7
370
    15
100
AcDbLine
 10
368.9005359006
 20
186.3115200676
 30
0.0
 11
368.9005359006
 21
194.4294007398
 31
0.0
  0
LINE
  5
10F
330
1F
100
AcDbEntity
  8
0
  6
Continuous
 62
     7
370
    15
100
AcDbLine
 10
352.4005322647
 20
194.4294007398
 30
0.0
 11
352.4005322647
 21
186.3115200676
 31
0.0
  0
LINE
  5
110
330
1F
100
AcDbEntity
  8
0
  6
Continuous
 62
     7
370
    15
100
AcDbLine
 10
368.9005359006
 20
295.4724090077
 30
0.0
 11
368.9005359006
 21
303.5902896799
 31
0.0
  0
LINE
  5
111
330
1F
100
AcDbEntity
  8
0
  6
Continuous
 62
     7
370
    15
100
AcDbLine
 10
352.4005322647
 20
303.5902896799
 30
0.0
 11
352.4005322647
 21
295.4724090077
 31
0.0
  0
LINE
  5
112
330
1F
100
AcDbEntity
  8
0
  6
Continuous
 62
     7
370
    15
100
AcDbLine
 10
390.9005357814
 20
379.0639931239
 30
0.0
 11
390.9005357814
 21
306.0372689642
 31
0.0
  0
LINE
  5
113
330
1F
100
AcDbEntity
  8
0
  6
Continuous
 62
     7
370
    15
100
AcDbLine
 10
384.9005310726
 20
379.0639931239
 30
0.0
 11
384.9005310726
 21
306.0372689642
 31
0.0
  0
LINE
  5
114
330
1F
100
AcDbEntity
  8
0
  6
Continuous
 62
     7
370
    15
100
AcDbLine
 10
390.9005357814
 20
110.8378166236
 30
0.0
 11
390.9005357814
 21
172.9992920436
 31
0.0
  0
LINE
  5
115
330
1F
100
AcDbEntity
  8
0
  6
Continuous
 62
     7
370
    15
100
AcDbLine
 10
384.9005310726
 20
110.8378166236
 30
0.0
 11
384.9005310726
 21
172.9992920436
 31
0.0
  0
LINE
  5
116
330
1F
100
AcDbEntity
  8
0
  6
Continuous
 62
     7
370
    15
100
AcDbLine
 10
337.900532682
 20
399.9509060659
 30
0.0
 11
437.9005267215
 21
399.9509060659
 31
0.0
  0
LINE
  5
117
330
1F
100
AcDbEntity
  8
0
  6
Continuous
 62
     7
370
    15
100
AcDbLine
 10
337.900532682
 20
89.9509036817
 30
0.0
 11
437.9005267215
 21
89.9509036817
 31
0.0
  0
LINE
  5
118
330
1F
100
AcDbEntity
  8
0
  6
Continuous
 62
     7
370
    15
100
AcDbLine
 10
406.9005309534
 20
284.7033696152
 30
0.0
 11
406.9005309534
 21
293.8204513766
 31
0.0
  0
LINE
  5
119
330
1F
100
AcDbEntity
  8
0
  6
Continuous
 62
     7
370
    15
100
AcDbLine
 10
408.5995166493
 20
279.8220956601
 30
0.0
 11
406.9005309534
 21
295.5776857116
 31
0.0
  0
LINE
  5
11A
330
1F
100
AcDbEntity
  8
0
  6
Continuous
 62
     7
370
    15
100
AcDbLine
 10
408.5995166493
 20
229.4986968763
 30
0.0
 11
408.5995166493
 21
279.8220956601
 31
0.0
  0
LWPOLYLINE
  5
11B
330
1F
100
AcDbEntity
  8
0
  6
Continuous
 62
     7
370
    15
100
AcDbPolyline
 90
        3
 70
   128
 43
0.0
 10
406.9005309534
 20
204.7420659937
 10
407.8662603092
 20
217.1105774023
 10
408.5995166493
 20
229.4986968763
  0
LINE
  5
11C
330
1F
100
AcDbEntity
  8
0
  6
Continuous
 62
     7
370
    15
100
AcDbLine
 10
368.9005359006
 20
180.1585698404
 30
0.0
 11
368.9005359006
 21
186.3115200676
 31
0.0
  0
LINE
  5
11D
330
1F
100
AcDbEntity
  8
0
  6
Continuous
 62
     7
370
    15
100
AcDbLine
 10
352.4005322647
 20
186.3115200676
 30
0.0
 11
352.4005322647
 21
179.4549295582
 31
0.0
  0
LINE
  5
11E
330
1F
100
AcDbEntity
  8
0
  6
Continuous
 62
     7
370
    15
100
AcDbLine
 10
368.9005359006
 20
303.5902896799
 30
0.0
 11
368.9005359006
 21
310.4468801894
 31
0.0
  0
LINE
  5
11F
330
1F
100
AcDbEntity
  8
0
  6
Continuous
 62
     7
370
    15
100
AcDbLine
 10
352.4005322647
 20
310.4468801894
 30
0.0
 11
352.4005322647
 21
303.5902896799
 31
0.0
  0
LINE
  5
120
330
1F
100
AcDbEntity
  8
0
  6
Continuous
 62
     7
370
    15
100
AcDbLine
 10
368.9005359006
 20
292.7304686882
 30
0.0
 11
369.1957577062
 21
292.7304686882
 31
0.0
  0
LWPOLYLINE
  5
121
330
1F
100
AcDbEntity
  8
0
  6
Continuous
 62
     7
370
    15
100
AcDbPolyline
 90
        3
 70
   128
 43
0.0
 10
368.9080386353
 20
287.7220058717
 10
369.000455637
 20
290.5500786282
 10
369.1957577062
 20
292.7304686882
  0
LINE
  5
122
330
1F
100
AcDbEntity
  8
0
  6
Continuous
 62
     7
370
    15
100
AcDbLine
 10
320.4005326075
 20
384.9509054698
 30
0.0
 11
320.4005326075
 21
397.9509020128
 31
0.0
  0
LINE
  5
123
330
1F
100
AcDbEntity
  8
0
  6
Continuous
 62
     7
370
    15
100
AcDbLine
 10
320.4005326075
 20
397.9509020128
 30
0.0
 11
328.9757727576
 21
397.9509020128
 31
0.0
  0
ARC
  5
124
330
1F
100
AcDbEntity
  8
0
  6
Continuous
 62
     7
370
    15
100
AcDbCircle
 10
323.4008546317
 20
384.951221429
 30
0.0
 40
3.000322040872661
100
AcDbArc
 50
180.0060337275
 51
269.9978792602
  0
LINE
  5
125
330
1F
100
AcDbEntity
  8
0
  6
Continuous
 62
     7
370
    15
100
AcDbLine
 10
331.8040615809
 20
381.9508993902
 30
0.0
 11
323.4007435781
 21
381.9508993902
 31
0.0
  0
ARC
  5
126
330
1F
100
AcDbEntity
  8
0
  6
Continuous
 62
     7
370
    15
100
AcDbCircle
 10
323.4008546317
 20
104.9505883186
 30
0.0
 40
3.000322040872661
100
AcDbArc
 50
90.0021207398
 51
179.9939662725
  0
LINE
  5
127
330
1F
100
AcDbEntity
  8
0
  6
Continuous
 62
     7
370
    15
100
AcDbLine
 10
323.4007435781
 20
107.9509103574
 30
0.0
 11
331.8040615809
 21
107.9509103574
 31
0.0
  0
LINE
  5
128
330
1F
100
AcDbEntity
  8
0
  6
Continuous
 62
     7
370
    15
100
AcDbLine
 10
320.4005326075
 20
104.9509042777
 30
0.0
 11
320.4005326075
 21
91.9509077348
 31
0.0
  0
LINE
  5
129
330
1F
100
AcDbEntity
  8
0
  6
Continuous
 62
     7
370
    15
100
AcDbLine
 10
320.4005326075
 20
91.9509077348
 30
0.0
 11
328.9757727576
 21
91.9509077348
 31
0.0
  0
LINE
  5
12A
330
1F
100
AcDbEntity
  8
0
  6
Continuous
 62
     7
370
    15
100
AcDbLine
 10
455.4005398345
 20
384.9509054698
 30
0.0
 11
455.4005398345
 21
397.9509020128
 31
0.0
  0
LINE
  5
12B
330
1F
100
AcDbEntity
  8
0
  6
Continuous
 62
     7
370
    15
100
AcDbLine
 10
446.8252940965
 20
397.9509020128
 30
0.0
 11
455.4005398345
 21
397.9509020128
 31
0.0
  0
ARC
  5
12C
330
1F
100
AcDbEntity
  8
0
  6
Continuous
 62
     7
370
    15
100
AcDbCircle
 10
452.4002030297
 20
104.9505735368
 30
0.0
 40
3.000336823059145
100
AcDbArc
 50
0.0063159768
 51
89.9976681536
  0
LINE
  5
12D
330
1F
100
AcDbEntity
  8
0
  6
Continuous
 62
     7
370
    15
100
AcDbLine
 10
443.9970089984
 20
107.9509103574
 30
0.0
 11
452.4003251386
 21
107.9509103574
 31
0.0
  0
ARC
  5
12E
330
1F
100
AcDbEntity
  8
0
  6
Continuous
 62
     7
370
    15
100
AcDbCircle
 10
453.127595038
 20
384.8831026111
 30
0.0
 40
2.273955864888857
100
AcDbArc
 50
349.6316295116
 51
1.708649483
  0
LINE
  5
12F
330
1F
100
AcDbEntity
  8
0
  6
Continuous
 62
     7
370
    15
100
AcDbLine
 10
452.4108304572
 20
381.9508993902
 30
0.0
 11
443.9970089984
 21
381.9508993902
 31
0.0
  0
LINE
  5
130
330
1F
100
AcDbEntity
  8
0
  6
Continuous
 62
     7
370
    15
100
AcDbLine
 10
455.4005398345
 20
104.9509042777
 30
0.0
 11
455.4005398345
 21
91.9509077348
 31
0.0
  0
LINE
  5
131
330
1F
100
AcDbEntity
  8
0
  6
Continuous
 62
     7
370
    15
100
AcDbLine
 10
446.8252940965
 20
91.9509077348
 30
0.0
 11
455.4005398345
 21
91.9509077348
 31
0.0
  0
ARC
  5
132
330
1F
100
AcDbEntity
  8
0
  6
Continuous
 62
     7
370
    15
100
AcDbCircle
 10
354.2676521933
 20
112.9650762205
 30
0.0
 40
5.014183373868959
100
AcDbArc
 50
269.8485776302
 51
354.914806308
  0
ARC
  5
133
330
1F
100
AcDbEntity
  8
0
  6
Continuous
 62
     7
370
    15
100
AcDbCircle
 10
354.7061528675
 20
376.9355139162
 30
0.0
 40
5.015387896766932
100
AcDbArc
 50
8.2404548356
 51
90.0563173834
  0
ARC
  5
134
330
1F
100
AcDbEntity
  8
0
  6
Continuous
 62
     7
370
    15
100
AcDbCircle
 10
421.0908897056
 20
376.9401676008
 30
0.0
 40
5.010739782927226
100
AcDbArc
 50
89.8976569043
 51
171.8056133861
  0
LINE
  5
135
330
1F
100
AcDbEntity
  8
0
  6
Continuous
 62
     7
370
    15
100
AcDbLine
 10
417.9005308938
 20
279.8220956601
 30
0.0
 11
408.5995166493
 21
279.8220956601
 31
0.0
  0
LINE
  5
136
330
1F
100
AcDbEntity
  8
0
  6
Continuous
 62
     7
370
    15
100
AcDbLine
 10
417.9005308938
 20
279.8220956601
 30
0.0
 11
417.9005308938
 21
229.4986968763
 31
0.0
  0
LINE
  5
137
330
1F
100
AcDbEntity
  8
0
  6
Continuous
 62
     7
370
    15
100
AcDbLine
 10
417.9005308938
 20
229.4986968763
 30
0.0
 11
408.5995166493
 21
229.4986968763
 31
0.0
  0
LWPOLYLINE
  5
138
330
1F
100
AcDbEntity
  8
0
  6
Continuous
 62
     7
370
    15
100
AcDbPolyline
 90
       15
 70
   128
 43
0.0
 10
417.9005308938
 20
238.8872736037
 10
421.279130776
 20
235.8385775142
 10
425.7235958171
 20
230.4529281236
 10
429.2580171418
 20
224.4233949013
 10
430.4227664066
 20
221.9196198412
 10
431.3598706317
 20
219.3229248651
 10
431.8397327256
 20
216.637351913
 10
431.7741527152
 20
212.985142497
 10
431.2423600745
 20
209.3478063025
 10
430.4425104451
 20
205.7602623381
 10
428.1130566192
 20
198.2670532443
 10
425.3460003925
 20
190.9082153715
 10
420.0875594211
 20
176.8942618646
 10
419.2076235008
 20
174.5695913114
 10
418.031169374
 20
171.4700380244
  0
LWPOLYLINE
  5
139
330
1F
100
AcDbEntity
  8
0
  6
Continuous
 62
     7
370
    15
100
AcDbPolyline
 90
       11
 70
   128
 43
0.0
 10
407.3826952768
 20
174.5695913114
 10
411.2995176506
 20
174.2964083232
 10
415.1307105017
 20
173.4507525243
 10
416.1842300487
 20
173.091075746
 10
416.8868645025
 20
172.7924341239
 10
417.3570557428
 20
172.5423255839
 10
417.8119509411
 20
172.2031975068
 10
417.9729952407
 20
172.007373897
 10
418.0581032229
 20
171.8104848542
 10
418.0652855826
 20
171.5942541041
 10
418.031169374
 20
171.4700380244
  0
ARC
  5
13A
330
1F
100
AcDbEntity
  8
0
  6
Continuous
 62
     7
370
    15
100
AcDbCircle
 10
402.4165006623
 20
187.8716099958
 30
0.0
 40
59.46709614729977
100
AcDbArc
 50
346.9569618984
 51
1.5218084635
  0
LINE
  5
13B
330
1F
100
AcDbEntity
  8
0
  6
Continuous
 62
     7
370
    15
100
AcDbLine
 10
459.9185421062
 20
173.2009047546
 30
0.0
 11
460.3493942809
 21
174.4509035625
 31
0.0
  0
ARC
  5
13C
330
1F
100
AcDbEntity
  8
0
  6
Continuous
 62
     7
370
    15
100
AcDbCircle
 10
407.6390401558
 20
187.1697160575
 30
0.0
 40
54.11352893131024
100
AcDbArc
 50
326.0524628134
 51
345.0403354367
  0
LINE
  5
13D
330
1F
100
AcDbEntity
  8
0
  6
Continuous
 62
     7
370
    15
100
AcDbLine
 10
461.749626596
 20
189.4509041585
 30
0.0
 11
461.9005306554
 21
191.9509054996
 31
0.0
  0
LINE
  5
13E
330
1F
100
AcDbEntity
  8
0
  6
Continuous
 62
     7
370
    15
100
AcDbLine
 10
461.8811293435
 20
229.910603156
 30
0.0
 11
461.8788941694
 21
229.9059446804
 31
0.0
  0
LWPOLYLINE
  5
13F
330
1F
100
AcDbEntity
  8
0
  6
Continuous
 62
     7
370
    15
100
AcDbPolyline
 90
       13
 70
   128
 43
0.0
 10
390.9005357814
 20
168.8711637534
 10
391.2951557827
 20
169.129683999
 10
391.8058856321
 20
169.4823199786
 10
392.0894100261
 20
169.7023877777
 10
392.237125237
 20
169.8398137368
 10
392.3086508107
 20
169.9274698176
 10
392.3448010278
 20
170.0164297499
 10
392.3382966709
 20
170.0521925368
 10
392.3055290175
 20
170.0864503063
 10
392.2655641031
 20
170.1037878074
 10
392.2121210885
 20
170.1152468004
 10
392.1277432633
 20
170.121453134
 10
392.1069263411
 20
170.1216542997
  0
LWPOLYLINE
  5
140
330
1F
100
AcDbEntity
  8
0
  6
Continuous
 62
     7
370
    15
100
AcDbPolyline
 90
        3
 70
   128
 43
0.0
 10
406.3505737972
 20
293.7765004017
 10
406.6715001059
 20
291.3364725091
 10
406.8423121166
 20
288.3982354678
  0
LINE
  5
141
330
1F
100
AcDbEntity
  8
0
  6
Continuous
 62
     7
370
    15
100
AcDbLine
 10
406.3505737972
 20
293.7765004017
 30
0.0
 11
406.9005309534
 21
293.8204513766
 31
0.0
  0
LWPOLYLINE
  5
142
330
1F
100
AcDbEntity
  8
0
  6
Continuous
 62
     7
370
    15
100
AcDbPolyline
 90
       10
 70
   128
 43
0.0
 10
384.9005310726
 20
156.0335302629
 10
384.5951615763
 20
155.7316550888
 10
378.8966893149
 20
150.1929009237
 10
373.342989285
 20
144.5149252095
 10
368.3646603418
 20
138.1856718935
 10
364.3639071775
 20
131.1972880639
 10
362.0357348514
 20
125.5121895947
 10
360.3559045983
 20
119.5823842563
 10
359.3585102749
 20
113.5208154001
 10
359.262099762
 20
112.5206345596
  0
ARC
  5
143
330
1F
100
AcDbEntity
  8
0
  6
Continuous
 62
     7
370
    15
100
AcDbCircle
 10
379.9006319462
 20
290.8286868208
 30
0.0
 40
10.87249312556171
100
AcDbArc
 50
132.3459512132
 51
169.9261827137
  0
ARC
  5
144
330
1F
100
AcDbEntity
  8
0
  6
Continuous
 62
     7
370
    15
100
AcDbCircle
 10
395.9812218525
 20
290.9093910909
 30
0.0
 40
10.75842811729389
100
AcDbArc
 50
15.4560370066
 51
47.6825201803
  0
LWPOLYLINE
  5
145
330
1F
100
AcDbEntity
  8
0
  6
Continuous
 62
     7
370
    15
100
AcDbPolyline
 90
        7
 70
   128
 43
0.0
 10
409.7874148679
 20
351.6457671203
 10
408.7672217679
 20
350.9224424042
 10
407.4866606784
 20
350.204839734
 10
404.3045773101
 20
349.0049460806
 10
400.2637847257
 20
348.1942186035
 10
395.6977783633
 20
347.9185620226
 10
390.9005357814
 20
347.8782767333
  0
LWPOLYLINE
  5
146
330
1F
100
AcDbEntity
  8
0
  6
Continuous
 62
     7
370
    15
100
AcDbPolyline
 90
        8
 70
   128
 43
0.0
 10
403.9809166384
 20
304.3047482051
 10
405.2233233047
 20
306.2433892764
 10
406.1651362968
 20
308.4146225728
 10
406.9814815116
 20
311.8487441816
 10
407.3810859514
 20
315.3737926759
 10
408.1968798232
 20
322.4726760663
 10
410.1782797766
 20
336.2742731251
 10
410.3800564003
 20
337.6440623678
  0
LINE
  5
147
330
1F
100
AcDbEntity
  8
0
  6
Continuous
 62
     7
370
    15
100
AcDbLine
 10
368.8672765088
 20
311.3832021035
 30
0.0
 11
368.9005359006
 21
311.3711768665
 31
0.0
  0
LINE
  5
148
330
1F
100
AcDbEntity
  8
0
  6
Continuous
 62
     7
370
    15
100
AcDbLine
 10
362.8097533179
 20
355.6125456371
 30
0.0
 11
363.9041840029
 21
348.1001177706
 31
0.0
  0
LWPOLYLINE
  5
149
330
1F
100
AcDbEntity
  8
0
  6
Continuous
 62
     7
370
    15
100
AcDbPolyline
 90
        4
 70
   128
 43
0.0
 10
366.0639508558
 20
333.2348385729
 10
368.0781631661
 20
318.6370575704
 10
368.4539108467
 20
315.0079766192
 10
368.8672765088
 20
311.3832021035
  0
LWPOLYLINE
  5
14A
330
1F
100
AcDbEntity
  8
0
  6
Continuous
 62
     7
370
    15
100
AcDbPolyline
 90
       10
 70
   128
 43
0.0
 10
384.9005310726
 20
347.8782767333
 10
381.0490130377
 20
347.907825736
 10
377.321666379
 20
348.0177814044
 10
373.8372160983
 20
348.4593251623
 10
370.7831411553
 20
349.2209458627
 10
368.3143987251
 20
350.204839734
 10
366.1378978682
 20
351.5522176303
 10
364.5418493939
 20
352.9049450435
 10
363.4163721395
 20
354.2584175147
 10
362.8097533179
 20
355.6125456371
  0
ARC
  5
14B
330
1F
100
AcDbEntity
  8
0
  6
Continuous
 62
     7
370
    15
100
AcDbCircle
 10
375.3475868239
 20
309.4206835551
 30
0.0
 40
6.456097432579659
100
AcDbArc
 50
183.0334988512
 51
235.7628566889
  0
LWPOLYLINE
  5
14C
330
1F
100
AcDbEntity
  8
0
  6
Continuous
 62
     7
370
    15
100
AcDbPolyline
 90
        3
 70
   128
 43
0.0
 10
415.4786675167
 20
373.0796122827
 10
415.4884501291
 20
373.1482023277
 10
416.1313085747
 20
377.6543581762
  0
LWPOLYLINE
  5
14D
330
1F
100
AcDbEntity
  8
0
  6
Continuous
 62
     7
370
    15
100
AcDbPolyline
 90
        4
 70
   128
 43
0.0
 10
359.6697582793
 20
377.6543581762
 10
360.3025584412
 20
373.2187146224
 10
361.5570648504
 20
364.4157567896
 10
362.8097533179
 20
355.6125456371
  0
LINE
  5
14E
330
1F
100
AcDbEntity
  8
0
  6
Continuous
 62
     7
370
    15
100
AcDbLine
 10
390.9005357814
 20
306.0372689642
 30
0.0
 11
390.9005357814
 21
299.130223123
 31
0.0
  0
LINE
  5
14F
330
1F
100
AcDbEntity
  8
0
  6
Continuous
 62
     7
370
    15
100
AcDbLine
 10
384.9005310726
 20
299.130223123
 30
0.0
 11
384.9005310726
 21
306.0372689642
 31
0.0
  0
ARC
  5
150
330
1F
100
AcDbEntity
  8
0
  6
Continuous
 62
     7
370
    15
100
AcDbCircle
 10
379.9574131228
 20
176.6180073277
 30
0.0
 40
11.05716361150556
100
AcDbArc
 50
179.5876223691
 51
269.7052731891
  0
LINE
  5
151
330
1F
100
AcDbEntity
  8
0
  6
Continuous
 62
     7
370
    15
100
AcDbLine
 10
368.9005359006
 20
176.6975888886
 30
0.0
 11
368.9005359006
 21
180.1585698404
 31
0.0
  0
LINE
  5
152
330
1F
100
AcDbEntity
  8
0
  6
Continuous
 62
     7
370
    15
100
AcDbLine
 10
384.9005310726
 20
165.5609900035
 30
0.0
 11
379.900535841
 21
165.5609900035
 31
0.0
  0
ARC
  5
153
330
1F
100
AcDbEntity
  8
0
  6
Continuous
 62
     7
370
    15
100
AcDbCircle
 10
418.4130481874
 20
372.6182390748
 30
0.0
 40
2.9704301300638
100
AcDbArc
 50
171.0645271759
 51
269.7174742262
  0
LINE
  5
154
330
1F
100
AcDbEntity
  8
0
  6
Continuous
 62
     7
370
    15
100
AcDbLine
 10
403.9809166384
 20
304.3047482051
 30
0.0
 11
403.5334273172
 21
303.6062599994
 31
0.0
  0
ARC
  5
155
330
1F
100
AcDbEntity
  8
0
  6
Continuous
 62
     7
370
    15
100
AcDbCircle
 10
405.3670608032
 20
301.1056981093
 30
0.0
 40
3.100809818016291
100
AcDbArc
 50
126.2521703718
 51
226.2856865296
  0
LWPOLYLINE
  5
156
330
1F
100
AcDbEntity
  8
0
  6
Continuous
 62
     7
370
    15
100
AcDbPolyline
 90
        6
 70
   128
 43
0.0
 10
372.5768609834
 20
298.8644497372
 10
373.304119606
 20
299.8496288337
 10
373.52976789
 20
300.9352454819
 10
373.2638566685
 20
302.1769145407
 10
372.3289056611
 20
303.5448560395
 10
371.715260942
 20
304.0833244004
  0
ARC
  5
157
330
1F
100
AcDbEntity
  8
0
  6
Continuous
 62
     7
370
    15
100
AcDbCircle
 10
413.3867768655
 20
337.2172576571
 30
0.0
 40
3.036861902800891
100
AcDbArc
 50
90.5808652317
 51
171.9208262143
  0
LINE
  5
158
330
1F
100
AcDbEntity
  8
0
  6
Continuous
 62
     7
370
    15
100
AcDbLine
 10
418.3984010411
 20
369.6478450574
 30
0.0
 11
427.9005362582
 21
369.6478450574
 31
0.0
  0
LINE
  5
159
330
1F
100
AcDbEntity
  8
0
  6
Continuous
 62
     7
370
    15
100
AcDbLine
 10
427.9005362582
 20
369.6478450574
 30
0.0
 11
427.9005362582
 21
339.9509036817
 31
0.0
  0
LINE
  5
15A
330
1F
100
AcDbEntity
  8
0
  6
Continuous
 62
     7
370
    15
100
AcDbLine
 10
427.8817309928
 20
340.253963498
 30
0.0
 11
413.3559896541
 21
340.253963498
 31
0.0
  0
LINE
  5
15B
330
1F
100
AcDbEntity
  8
0
  6
Continuous
 62
     7
370
    15
100
AcDbLine
 10
406.9005309534
 20
303.6062599994
 30
0.0
 11
406.9005309534
 21
293.8204513766
 31
0.0
  0
LINE
  5
15C
330
1F
100
AcDbEntity
  8
0
  6
Continuous
 62
     7
370
    15
100
AcDbLine
 10
403.5334273172
 20
303.6062599994
 30
0.0
 11
406.9005309534
 21
303.6062599994
 31
0.0
  0
LINE
  5
15D
330
1F
100
AcDbEntity
  8
0
  6
Continuous
 62
     7
370
    15
100
AcDbLine
 10
467.9005279136
 20
225.9509054847
 30
0.0
 11
467.9005279136
 21
203.9509037413
 31
0.0
  0
LINE
  5
15E
330
1F
100
AcDbEntity
  8
0
  6
Continuous
 62
     7
370
    15
100
AcDbLine
 10
368.9005359006
 20
178.518607644
 30
0.0
 11
355.4607390356
 21
178.518607644
 31
0.0
  0
LINE
  5
15F
330
1F
100
AcDbEntity
  8
0
  6
Continuous
 62
     7
370
    15
100
AcDbLine
 10
352.4005322647
 20
179.4549295582
 30
0.0
 11
352.4005322647
 21
178.4509042181
 31
0.0
  0
LINE
  5
160
330
1F
100
AcDbEntity
  8
0
  6
Continuous
 62
     7
370
    15
100
AcDbLine
 10
355.4607390356
 20
311.3832021035
 30
0.0
 11
368.8672765088
 21
311.3832021035
 31
0.0
  0
LINE
  5
161
330
1F
100
AcDbEntity
  8
0
  6
Continuous
 62
     7
370
    15
100
AcDbLine
 10
368.9005359006
 20
310.4468801894
 30
0.0
 11
368.9005359006
 21
311.3711768665
 31
0.0
  0
LINE
  5
162
330
1F
100
AcDbEntity
  8
0
  6
Continuous
 62
     7
370
    15
100
AcDbLine
 10
352.4005322647
 20
311.4509055294
 30
0.0
 11
352.4005322647
 21
310.4468801894
 31
0.0
  0
LINE
  5
163
330
1F
100
AcDbEntity
  8
0
  6
Continuous
 62
     7
370
    15
100
AcDbLine
 10
427.8817309928
 20
340.253963498
 30
0.0
 11
413.3773653698
 21
286.1229138352
 31
0.0
  0
ARC
  5
164
330
1F
100
AcDbEntity
  8
0
  6
Continuous
 62
     7
370
    15
100
AcDbCircle
 10
418.2107390499
 20
284.8187151433
 30
0.0
 40
5.00623964263481
100
AcDbArc
 50
164.8993990679
 51
266.4474310186
  0
ARC
  5
165
330
1F
100
AcDbEntity
  8
0
  6
Continuous
 62
     7
370
    15
100
AcDbCircle
 10
355.4575438647
 20
316.3837276281
 30
0.0
 40
5.000526545324352
100
AcDbArc
 50
270.0366101092
 51
25.05046456
  0
LINE
  5
166
330
1F
100
AcDbEntity
  8
0
  6
Continuous
 62
     7
370
    15
100
AcDbLine
 10
330.4005323839
 20
381.9508993902
 30
0.0
 11
359.9876969052
 21
318.5010323204
 31
0.0
  0
LINE
  5
167
330
1F
100
AcDbEntity
  8
0
  6
Continuous
 62
     7
370
    15
100
AcDbLine
 10
427.9005362582
 20
369.6478450574
 30
0.0
 11
427.9005362582
 21
381.9508993902
 31
0.0
  0
ARC
  5
168
330
1F
100
AcDbEntity
  8
0
  6
Continuous
 62
     7
370
    15
100
AcDbCircle
 10
355.4574709487
 20
173.5180357447
 30
0.0
 40
5.000572967190858
100
AcDbArc
 50
334.9503705603
 51
89.9625547705
  0
ARC
  5
169
330
1F
100
AcDbEntity
  8
0
  6
Continuous
 62
     7
370
    15
100
AcDbCircle
 10
327.2151812587
 20
112.9509048738
 30
0.0
 40
5.000000000000016
100
AcDbArc
 50
270.0
 51
335.0
  0
LINE
  5
16A
330
1F
100
AcDbEntity
  8
0
  6
Continuous
 62
     7
370
    15
100
AcDbLine
 10
331.7467219126
 20
110.8378166236
 30
0.0
 11
359.9876969052
 21
171.4007774271
 31
0.0
  0
LINE
  5
16B
330
1F
100
AcDbEntity
  8
0
  6
Continuous
 62
     7
370
    15
100
AcDbLine
 10
453.5288794828
 20
156.9509053506
 30
0.0
 11
455.2580698323
 21
159.4509029664
 31
0.0
  0
ARC
  5
16C
330
1F
100
AcDbEntity
  8
0
  6
Continuous
 62
     7
370
    15
100
AcDbCircle
 10
408.6386433445
 20
187.1698974285
 30
0.0
 40
54.11396107056703
100
AcDbArc
 50
326.0525393309
 51
345.0402589192
  0
LINE
  5
16D
330
1F
100
AcDbEntity
  8
0
  6
Continuous
 62
     7
370
    15
100
AcDbLine
 10
461.3493963075
 20
174.4509035625
 30
0.0
 11
460.9185441327
 21
173.2009047546
 31
0.0
  0
LWPOLYLINE
  5
16E
330
1F
100
AcDbEntity
  8
0
  6
Continuous
 62
     7
370
    15
100
AcDbPolyline
 90
        3
 70
   128
 43
0.0
 10
462.8626241279
 20
189.4509041585
 10
462.6120163989
 20
181.9507846512
 10
461.3493963075
 20
174.4509035625
  0
LINE
  5
16F
330
1F
100
AcDbEntity
  8
0
  6
Continuous
 62
     7
370
    15
100
AcDbLine
 10
462.7496286226
 20
189.4509041585
 30
0.0
 11
462.8626241279
 21
189.4509041585
 31
0.0
  0
LINE
  5
170
330
1F
100
AcDbEntity
  8
0
  6
Continuous
 62
     7
370
    15
100
AcDbLine
 10
462.900532682
 20
191.9509054996
 30
0.0
 11
462.7496286226
 21
189.4509041585
 31
0.0
  0
LINE
  5
171
330
1F
100
AcDbEntity
  8
0
  6
Continuous
 62
     7
370
    15
100
AcDbLine
 10
462.900532682
 20
191.9509054996
 30
0.0
 11
461.9005306554
 21
191.9509054996
 31
0.0
  0
LINE
  5
172
330
1F
100
AcDbEntity
  8
0
  6
Continuous
 62
     7
370
    15
100
AcDbLine
 10
462.7496286226
 20
189.4509041585
 30
0.0
 11
461.749626596
 21
189.4509041585
 31
0.0
  0
LINE
  5
173
330
1F
100
AcDbEntity
  8
0
  6
Continuous
 62
     7
370
    15
100
AcDbLine
 10
461.3493963075
 20
174.4509035625
 30
0.0
 11
460.3493942809
 21
174.4509035625
 31
0.0
  0
LINE
  5
174
330
1F
100
AcDbEntity
  8
0
  6
Continuous
 62
     7
370
    15
100
AcDbLine
 10
460.9185441327
 20
173.2009047546
 30
0.0
 11
459.9185421062
 21
173.2009047546
 31
0.0
  0
LINE
  5
175
330
1F
100
AcDbEntity
  8
0
  6
Continuous
 62
     7
370
    15
100
AcDbLine
 10
453.5288794828
 20
156.9509053506
 30
0.0
 11
452.5288774562
 21
156.9509053506
 31
0.0
  0
LINE
  5
176
330
1F
100
AcDbEntity
  8
0
  6
Continuous
 62
     7
370
    15
100
AcDbLine
 10
153.3472075057
 20
307.3267819263
 30
0.0
 11
128.4005328012
 21
307.3267819263
 31
0.0
  0
LINE
  5
177
330
1F
100
AcDbEntity
  8
0
  6
Continuous
 62
     7
370
    15
100
AcDbLine
 10
157.4005319667
 20
313.9509031452
 30
0.0
 11
157.4005319667
 21
175.9509066023
 31
0.0
  0
ARC
  5
178
330
1F
100
AcDbEntity
  8
0
  6
Continuous
 62
     7
370
    15
100
AcDbCircle
 10
153.6131678091
 20
299.2008072129
 30
0.0
 40
8.130325942198978
100
AcDbArc
 50
91.8746015899
 51
169.1149974348
  0
LINE
  5
179
330
1F
100
AcDbEntity
  8
0
  6
Continuous
 62
     7
370
    15
100
AcDbLine
 10
141.4005293441
 20
265.9509045907
 30
0.0
 11
141.4005293441
 21
213.4208934285
 31
0.0
  0
ARC
  5
17A
330
1F
100
AcDbEntity
  8
0
  6
Continuous
 62
     7
370
    15
100
AcDbCircle
 10
300.6769008604
 20
264.6565699506
 30
0.0
 40
159.1902894335348
100
AcDbArc
 50
166.9004183863
 51
179.5341378576
  0
LINE
  5
17B
330
1F
100
AcDbEntity
  8
0
  6
Continuous
 62
     7
370
    15
100
AcDbLine
 10
125.4005267215
 20
268.9509050824
 30
0.0
 11
125.4005267215
 21
305.3971635081
 31
0.0
  0
LWPOLYLINE
  5
17C
330
1F
100
AcDbEntity
  8
0
  6
Continuous
 62
     7
370
    15
100
AcDbPolyline
 90
        7
 70
   128
 43
0.0
 10
128.4005328012
 20
307.3267819263
 10
127.5212450814
 20
307.2432907202
 10
126.7437471938
 20
307.0099869646
 10
126.0973795247
 20
306.6405834533
 10
125.6127490592
 20
306.1171093859
 10
125.4005416227
 20
305.4034219958
 10
125.4005267215
 20
305.3971635081
  0
ARC
  5
17D
330
1F
100
AcDbEntity
  8
0
  6
Continuous
 62
     7
370
    15
100
AcDbCircle
 10
128.4005325628
 20
268.9509048738
 30
0.0
 40
3.0
100
AcDbArc
 50
180.0
 51
270.0000000022
  0
LINE
  5
17E
330
1F
100
AcDbEntity
  8
0
  6
Continuous
 62
     7
370
    15
100
AcDbLine
 10
125.4005267215
 20
305.3971635081
 30
0.0
 11
125.4005267215
 21
310.9509045162
 31
0.0
  0
LINE
  5
17F
330
1F
100
AcDbEntity
  8
0
  6
Continuous
 62
     7
370
    15
100
AcDbLine
 10
141.4918734622
 20
265.9509045907
 30
0.0
 11
128.4005328012
 21
265.9509045907
 31
0.0
  0
LINE
  5
180
330
1F
100
AcDbEntity
  8
0
  6
Continuous
 62
     7
370
    15
100
AcDbLine
 10
133.4005280328
 20
244.9509048738
 30
0.0
 11
133.4005280328
 21
265.9509045907
 31
0.0
  0
LINE
  5
181
330
1F
100
AcDbEntity
  8
0
  6
Continuous
 62
     7
370
    15
100
AcDbLine
 10
130.4005368543
 20
221.9509048291
 30
0.0
 11
130.4005368543
 21
244.9509048738
 31
0.0
  0
LINE
  5
182
330
1F
100
AcDbEntity
  8
0
  6
Continuous
 62
     7
370
    15
100
AcDbLine
 10
130.4005368543
 20
244.9509048738
 30
0.0
 11
133.4005280328
 21
244.9509048738
 31
0.0
  0
LWPOLYLINE
  5
183
330
1F
100
AcDbEntity
  8
0
  6
Continuous
 62
     7
370
    15
100
AcDbPolyline
 90
       20
 70
   128
 43
0.0
 10
229.4005288673
 20
306.608177153
 10
229.2878462863
 20
306.3151681699
 10
228.9625166846
 20
306.0503931619
 10
228.4610553575
 20
305.8460051097
 10
227.8399079037
 20
305.727909682
 10
227.1693631006
 20
305.7114513494
 10
226.525081594
 20
305.7987013735
 10
225.9793712688
 20
305.97831252
 10
225.5936696124
 20
306.227471111
 10
225.4116891814
 20
306.5153987982
 10
225.4539339733
 20
306.8080427028
 10
225.7154568029
 20
307.0728177108
 10
226.1669172836
 20
307.2820374646
 10
226.7576142144
 20
307.4148850419
 10
227.4207456899
 20
307.4586683788
 10
228.0813588691
 20
307.4093865134
 10
228.6652310682
 20
307.2716476299
 10
229.1067599249
 20
307.058460442
 10
229.3559892965
 20
306.7910330273
 10
229.4005288673
 20
306.608177153
  0
ARC
  5
184
330
1F
100
AcDbEntity
  8
0
  6
Continuous
 62
     7
370
    15
100
AcDbCircle
 10
179.5527319587
 20
207.0998374618
 30
0.0
 40
3.165183610486293
100
AcDbArc
 50
185.1916518999
 51
276.3085898628
  0
LINE
  5
185
330
1F
100
AcDbEntity
  8
0
  6
Continuous
 62
     7
370
    15
100
AcDbLine
 10
196.3645427418
 20
203.9538206436
 30
0.0
 11
179.9005328608
 21
203.9538206436
 31
0.0
  0
LWPOLYLINE
  5
186
330
1F
100
AcDbEntity
  8
0
  6
Continuous
 62
     7
370
    15
100
AcDbPolyline
 90
        6
 70
   128
 43
0.0
 10
176.4005332184
 20
184.3108491875
 10
176.597444613
 20
184.8611155428
 10
177.1664976073
 20
185.3638397433
 10
178.0431329203
 20
185.7548573889
 10
179.1292487574
 20
185.9822453834
 10
179.9005328608
 20
186.026255963
  0
LINE
  5
187
330
1F
100
AcDbEntity
  8
0
  6
Continuous
 62
     7
370
    15
100
AcDbLine
 10
176.4005332184
 20
184.2823507168
 30
0.0
 11
176.4005332184
 21
184.3108491875
 31
0.0
  0
LWPOLYLINE
  5
188
330
1F
100
AcDbEntity
  8
0
  6
Continuous
 62
     7
370
    15
100
AcDbPolyline
 90
        6
 70
   128
 43
0.0
 10
179.9005328608
 20
182.7276864924
 10
178.7420420838
 20
182.8110100605
 10
177.714152534
 20
183.0544726826
 10
176.9328772021
 20
183.4379428901
 10
176.4862446976
 20
183.9264849104
 10
176.4005332184
 20
184.2823507168
  0
LINE
  5
189
330
1F
100
AcDbEntity
  8
0
  6
Continuous
 62
     7
370
    15
100
AcDbLine
 10
185.900530119
 20
182.7276864924
 30
0.0
 11
179.9005328608
 21
182.7276864924
 31
0.0
  0
LWPOLYLINE
  5
18A
330
1F
100
AcDbEntity
  8
0
  6
Continuous
 62
     7
370
    15
100
AcDbPolyline
 90
        6
 70
   128
 43
0.0
 10
189.4005297613
 20
184.2823507168
 10
189.2036258173
 20
183.7502898552
 10
188.6345653725
 20
183.2926975467
 10
187.7579300595
 20
182.9541915931
 10
186.6718142224
 20
182.763959644
 10
185.900530119
 20
182.7276864924
  0
LINE
  5
18B
330
1F
100
AcDbEntity
  8
0
  6
Continuous
 62
     7
370
    15
100
AcDbLine
 10
189.4005297613
 20
184.2823507168
 30
0.0
 11
189.4005297613
 21
184.3108491875
 31
0.0
  0
LWPOLYLINE
  5
18C
330
1F
100
AcDbEntity
  8
0
  6
Continuous
 62
     7
370
    15
100
AcDbPolyline
 90
        6
 70
   128
 43
0.0
 10
185.900530119
 20
186.026255963
 10
187.0590283466
 20
185.9254794099
 10
188.0869104457
 20
185.6372462489
 10
188.8681857777
 20
185.2011525907
 10
189.3148257327
 20
184.6749739625
 10
189.4005297613
 20
184.3108491875
  0
LINE
  5
18D
330
1F
100
AcDbEntity
  8
0
  6
Continuous
 62
     7
370
    15
100
AcDbLine
 10
185.900530119
 20
186.026255963
 30
0.0
 11
179.9005328608
 21
186.026255963
 31
0.0
  0
LWPOLYLINE
  5
18E
330
1F
100
AcDbEntity
  8
0
  6
Continuous
 62
     7
370
    15
100
AcDbPolyline
 90
        6
 70
   128
 43
0.0
 10
176.4005332184
 20
178.2815599717
 10
176.597444613
 20
178.5639593281
 10
177.1664976073
 20
178.8304516949
 10
178.0431329203
 20
179.0429199018
 10
179.1292487574
 20
179.1684398331
 10
179.9005328608
 20
179.1929000892
  0
LINE
  5
18F
330
1F
100
AcDbEntity
  8
0
  6
Continuous
 62
     7
370
    15
100
AcDbLine
 10
176.4005332184
 20
178.2672176041
 30
0.0
 11
176.4005332184
 21
178.2815599717
 31
0.0
  0
LWPOLYLINE
  5
190
330
1F
100
AcDbEntity
  8
0
  6
Continuous
 62
     7
370
    15
100
AcDbPolyline
 90
        6
 70
   128
 43
0.0
 10
179.9005328608
 20
177.5325754561
 10
178.7420420838
 20
177.569314269
 10
177.714152534
 20
177.6785248794
 10
176.9328772021
 20
177.8558635988
 10
176.4862446976
 20
178.0905568876
 10
176.4005332184
 20
178.2672176041
  0
LINE
  5
191
330
1F
100
AcDbEntity
  8
0
  6
Continuous
 62
     7
370
    15
100
AcDbLine
 10
185.900530119
 20
177.5325754561
 30
0.0
 11
179.9005328608
 21
177.5325754561
 31
0.0
  0
LWPOLYLINE
  5
192
330
1F
100
AcDbEntity
  8
0
  6
Continuous
 62
     7
370
    15
100
AcDbPolyline
 90
        6
 70
   128
 43
0.0
 10
189.4005297613
 20
178.2672176041
 10
189.2036258173
 20
178.0048305072
 10
188.6345653725
 20
177.7879515566
 10
187.7579300595
 20
177.6332104482
 10
186.6718142224
 20
177.5485345997
 10
185.900530119
 20
177.5325754561
  0
LINE
  5
193
330
1F
100
AcDbEntity
  8
0
  6
Continuous
 62
     7
370
    15
100
AcDbLine
 10
189.4005297613
 20
178.2672176041
 30
0.0
 11
189.4005297613
 21
178.2815599717
 31
0.0
  0
LWPOLYLINE
  5
194
330
1F
100
AcDbEntity
  8
0
  6
Continuous
 62
     7
370
    15
100
AcDbPolyline
 90
        6
 70
   128
 43
0.0
 10
185.900530119
 20
179.1929000892
 10
187.0590283466
 20
179.1369685807
 10
188.0869104457
 20
178.9785468854
 10
188.8681857777
 20
178.7433693089
 10
189.3148257327
 20
178.467302946
 10
189.4005297613
 20
178.2815599717
  0
LINE
  5
195
330
1F
100
AcDbEntity
  8
0
  6
Continuous
 62
     7
370
    15
100
AcDbLine
 10
185.900530119
 20
179.1929000892
 30
0.0
 11
179.9005328608
 21
179.1929000892
 31
0.0
  0
LWPOLYLINE
  5
196
330
1F
100
AcDbEntity
  8
0
  6
Continuous
 62
     7
370
    15
100
AcDbPolyline
 90
        6
 70
   128
 43
0.0
 10
278.4005331737
 20
184.2823507168
 10
278.2036217791
 20
183.7502898552
 10
277.6345669222
 20
183.2926975467
 10
276.7579297465
 20
182.9541915931
 10
275.6718176347
 20
182.763959644
 10
274.9005316687
 20
182.7276864924
  0
LINE
  5
197
330
1F
100
AcDbEntity
  8
0
  6
Continuous
 62
     7
370
    15
100
AcDbLine
 10
278.4005331737
 20
184.2823507168
 30
0.0
 11
278.4005331737
 21
184.3108491875
 31
0.0
  0
LWPOLYLINE
  5
198
330
1F
100
AcDbEntity
  8
0
  6
Continuous
 62
     7
370
    15
100
AcDbPolyline
 90
        6
 70
   128
 43
0.0
 10
274.9005316687
 20
186.026255963
 10
276.059026171
 20
185.9254794099
 10
277.0869119954
 20
185.6372462489
 10
277.8681873274
 20
185.2011525907
 10
278.3148216945
 20
184.6749739625
 10
278.4005331737
 20
184.3108491875
  0
LINE
  5
199
330
1F
100
AcDbEntity
  8
0
  6
Continuous
 62
     7
370
    15
100
AcDbLine
 10
268.9005325479
 20
186.026255963
 30
0.0
 11
274.9005316687
 21
186.026255963
 31
0.0
  0
LWPOLYLINE
  5
19A
330
1F
100
AcDbEntity
  8
0
  6
Continuous
 62
     7
370
    15
100
AcDbPolyline
 90
        6
 70
   128
 43
0.0
 10
265.4005310428
 20
184.3108491875
 10
265.5974424374
 20
184.8611155428
 10
266.166499157
 20
185.3638397433
 10
267.04313447
 20
185.7548573889
 10
268.1292465818
 20
185.9822453834
 10
268.9005325479
 20
186.026255963
  0
LINE
  5
19B
330
1F
100
AcDbEntity
  8
0
  6
Continuous
 62
     7
370
    15
100
AcDbLine
 10
265.4005310428
 20
184.2823507168
 30
0.0
 11
265.4005310428
 21
184.3108491875
 31
0.0
  0
LWPOLYLINE
  5
19C
330
1F
100
AcDbEntity
  8
0
  6
Continuous
 62
     7
370
    15
100
AcDbPolyline
 90
        6
 70
   128
 43
0.0
 10
268.9005325479
 20
182.7276864924
 10
267.7420399082
 20
182.8110100605
 10
266.7141540838
 20
183.0544726826
 10
265.9328787518
 20
183.4379428901
 10
265.486242522
 20
183.9264849104
 10
265.4005310428
 20
184.2823507168
  0
LINE
  5
19D
330
1F
100
AcDbEntity
  8
0
  6
Continuous
 62
     7
370
    15
100
AcDbLine
 10
268.9005325479
 20
182.7276864924
 30
0.0
 11
274.9005316687
 21
182.7276864924
 31
0.0
  0
LWPOLYLINE
  5
19E
330
1F
100
AcDbEntity
  8
0
  6
Continuous
 62
     7
370
    15
100
AcDbPolyline
 90
        6
 70
   128
 43
0.0
 10
256.9005324435
 20
191.714122323
 10
255.7420379412
 20
191.8387668111
 10
254.7141521168
 20
192.2011220731
 10
253.9328767848
 20
192.7665429093
 10
253.4862442804
 20
193.4781553127
 10
253.4005328012
 20
193.990822313
  0
LINE
  5
19F
330
1F
100
AcDbEntity
  8
0
  6
Continuous
 62
     7
370
    15
100
AcDbLine
 10
256.9005324435
 20
191.714122323
 30
0.0
 11
274.9005316687
 21
191.714122323
 31
0.0
  0
LWPOLYLINE
  5
1A0
330
1F
100
AcDbEntity
  8
0
  6
Continuous
 62
     7
370
    15
100
AcDbPolyline
 90
        6
 70
   128
 43
0.0
 10
278.4005331737
 20
193.990822313
 10
278.2036217791
 20
193.2225854971
 10
277.6345669222
 20
192.5531173028
 10
276.7579297465
 20
192.0522035934
 10
275.6718176347
 20
191.7684258796
 10
274.9005316687
 20
191.714122323
  0
LINE
  5
1A1
330
1F
100
AcDbEntity
  8
0
  6
Continuous
 62
     7
370
    15
100
AcDbLine
 10
278.4005331737
 20
193.990822313
 30
0.0
 11
278.4005331737
 21
194.031681297
 31
0.0
  0
LWPOLYLINE
  5
1A2
330
1F
100
AcDbEntity
  8
0
  6
Continuous
 62
     7
370
    15
100
AcDbPolyline
 90
        6
 70
   128
 43
0.0
 10
274.9005316687
 20
196.4433783569
 10
276.059026171
 20
196.3040748514
 10
277.0869119954
 20
195.9041202344
 10
277.8681873274
 20
195.2945100047
 10
278.3148216945
 20
194.5512847878
 10
278.4005331737
 20
194.031681297
  0
LINE
  5
1A3
330
1F
100
AcDbEntity
  8
0
  6
Continuous
 62
     7
370
    15
100
AcDbLine
 10
256.9005324435
 20
196.4433783569
 30
0.0
 11
274.9005316687
 21
196.4433783569
 31
0.0
  0
LWPOLYLINE
  5
1A4
330
1F
100
AcDbEntity
  8
0
  6
Continuous
 62
     7
370
    15
100
AcDbPolyline
 90
        6
 70
   128
 43
0.0
 10
253.4005328012
 20
194.031681297
 10
253.5974441958
 20
194.8152104296
 10
254.16649719
 20
195.5225797273
 10
255.0431362283
 20
196.0676008739
 10
256.1292483402
 20
196.3825778939
 10
256.9005324435
 20
196.4433783569
  0
LINE
  5
1A5
330
1F
100
AcDbEntity
  8
0
  6
Continuous
 62
     7
370
    15
100
AcDbLine
 10
253.4005328012
 20
194.031681297
 30
0.0
 11
253.4005328012
 21
193.990822313
 31
0.0
  0
ARC
  5
1A6
330
1F
100
AcDbEntity
  8
0
  6
Continuous
 62
     7
370
    15
100
AcDbCircle
 10
256.5527302077
 20
207.0998358294
 30
0.0
 40
3.165182134459292
100
AcDbArc
 50
185.191624655
 51
276.3086171077
  0
LINE
  5
1A7
330
1F
100
AcDbEntity
  8
0
  6
Continuous
 62
     7
370
    15
100
AcDbLine
 10
256.9005324435
 20
203.9538206436
 30
0.0
 11
274.9005316687
 21
203.9538206436
 31
0.0
  0
ARC
  5
1A8
330
1F
100
AcDbEntity
  8
0
  6
Continuous
 62
     7
370
    15
100
AcDbCircle
 10
275.1584615305
 20
207.2098367066
 30
0.0
 40
3.266216223129081
100
AcDbArc
 50
265.4706931277
 51
353.0290352298
  0
LINE
  5
1A9
330
1F
100
AcDbEntity
  8
0
  6
Continuous
 62
     7
370
    15
100
AcDbLine
 10
278.4005331737
 20
206.8134279825
 30
0.0
 11
278.4005331737
 21
206.8641515352
 31
0.0
  0
ARC
  5
1AA
330
1F
100
AcDbEntity
  8
0
  6
Continuous
 62
     7
370
    15
100
AcDbCircle
 10
275.1769917149
 20
206.6024536935
 30
0.0
 40
3.234146764878369
100
AcDbArc
 50
4.6412837536
 51
94.9037194238
  0
LINE
  5
1AB
330
1F
100
AcDbEntity
  8
0
  6
Continuous
 62
     7
370
    15
100
AcDbLine
 10
256.9005324435
 20
209.82476267
 30
0.0
 11
274.9005316687
 21
209.82476267
 31
0.0
  0
ARC
  5
1AC
330
1F
100
AcDbEntity
  8
0
  6
Continuous
 62
     7
370
    15
100
AcDbCircle
 10
256.6997149479
 20
206.5130319884
 30
0.0
 40
3.317813703870166
100
AcDbArc
 50
86.5299341669
 51
173.9250927255
  0
LINE
  5
1AD
330
1F
100
AcDbEntity
  8
0
  6
Continuous
 62
     7
370
    15
100
AcDbLine
 10
253.4005328012
 20
206.8641515352
 30
0.0
 11
253.4005328012
 21
206.8134279825
 31
0.0
  0
ARC
  5
1AE
330
1F
100
AcDbEntity
  8
0
  6
Continuous
 62
     7
370
    15
100
AcDbCircle
 10
256.7629620476
 20
222.0597258979
 30
0.0
 40
3.363718879762029
100
AcDbArc
 50
181.5866268095
 51
272.3439539394
  0
LINE
  5
1AF
330
1F
100
AcDbEntity
  8
0
  6
Continuous
 62
     7
370
    15
100
AcDbLine
 10
256.9005324435
 20
218.6988213934
 30
0.0
 11
274.9005316687
 21
218.6988213934
 31
0.0
  0
ARC
  5
1B0
330
1F
100
AcDbEntity
  8
0
  6
Continuous
 62
     7
370
    15
100
AcDbCircle
 10
275.0031707295
 20
222.0971416385
 30
0.0
 40
3.399869889411775
100
AcDbArc
 50
268.2700283161
 51
357.7993605148
  0
LINE
  5
1B1
330
1F
100
AcDbEntity
  8
0
  6
Continuous
 62
     7
370
    15
100
AcDbLine
 10
278.4005331737
 20
221.9665901639
 30
0.0
 11
278.4005331737
 21
222.0240788438
 31
0.0
  0
ARC
  5
1B2
330
1F
100
AcDbEntity
  8
0
  6
Continuous
 62
     7
370
    15
100
AcDbCircle
 10
274.9908680278
 20
221.9432571377
 30
0.0
 40
3.410622898453192
100
AcDbArc
 50
1.3578681358
 51
91.5177572098
  0
LINE
  5
1B3
330
1F
100
AcDbEntity
  8
0
  6
Continuous
 62
     7
370
    15
100
AcDbLine
 10
256.9005324435
 20
225.3526834674
 30
0.0
 11
274.9005316687
 21
225.3526834674
 31
0.0
  0
ARC
  5
1B4
330
1F
100
AcDbEntity
  8
0
  6
Continuous
 62
     7
370
    15
100
AcDbCircle
 10
256.8354186389
 20
221.9167377428
 30
0.0
 40
3.436562647471714
100
AcDbArc
 50
88.9143310223
 51
178.2100740856
  0
LINE
  5
1B5
330
1F
100
AcDbEntity
  8
0
  6
Continuous
 62
     7
370
    15
100
AcDbLine
 10
253.4005328012
 20
222.0240788438
 30
0.0
 11
253.4005328012
 21
221.9665901639
 31
0.0
  0
LWPOLYLINE
  5
1B6
330
1F
100
AcDbEntity
  8
0
  6
Continuous
 62
     7
370
    15
100
AcDbPolyline
 90
        6
 70
   128
 43
0.0
 10
278.4005331737
 20
178.2672176041
 10
278.2036217791
 20
178.0048305072
 10
277.6345669222
 20
177.7879515566
 10
276.7579297465
 20
177.6332104482
 10
275.6718176347
 20
177.5485345997
 10
274.9005316687
 20
177.5325754561
  0
LINE
  5
1B7
330
1F
100
AcDbEntity
  8
0
  6
Continuous
 62
     7
370
    15
100
AcDbLine
 10
278.4005331737
 20
178.2672176041
 30
0.0
 11
278.4005331737
 21
178.2815599717
 31
0.0
  0
LWPOLYLINE
  5
1B8
330
1F
100
AcDbEntity
  8
0
  6
Continuous
 62
     7
370
    15
100
AcDbPolyline
 90
        6
 70
   128
 43
0.0
 10
274.9005316687
 20
179.1929000892
 10
276.059026171
 20
179.1369685807
 10
277.0869119954
 20
178.9785468854
 10
277.8681873274
 20
178.7433693089
 10
278.3148216945
 20
178.467302946
 10
278.4005331737
 20
178.2815599717
  0
LINE
  5
1B9
330
1F
100
AcDbEntity
  8
0
  6
Continuous
 62
     7
370
    15
100
AcDbLine
 10
268.9005325479
 20
179.1929000892
 30
0.0
 11
274.9005316687
 21
179.1929000892
 31
0.0
  0
LWPOLYLINE
  5
1BA
330
1F
100
AcDbEntity
  8
0
  6
Continuous
 62
     7
370
    15
100
AcDbPolyline
 90
        6
 70
   128
 43
0.0
 10
265.4005310428
 20
178.2815599717
 10
265.5974424374
 20
178.5639593281
 10
266.166499157
 20
178.8304516949
 10
267.04313447
 20
179.0429199018
 10
268.1292465818
 20
179.1684398331
 10
268.9005325479
 20
179.1929000892
  0
LINE
  5
1BB
330
1F
100
AcDbEntity
  8
0
  6
Continuous
 62
     7
370
    15
100
AcDbLine
 10
265.4005310428
 20
178.2672176041
 30
0.0
 11
265.4005310428
 21
178.2815599717
 31
0.0
  0
LWPOLYLINE
  5
1BC
330
1F
100
AcDbEntity
  8
0
  6
Continuous
 62
     7
370
    15
100
AcDbPolyline
 90
        6
 70
   128
 43
0.0
 10
268.9005325479
 20
177.5325754561
 10
267.7420399082
 20
177.569314269
 10
266.7141540838
 20
177.6785248794
 10
265.9328787518
 20
177.8558635988
 10
265.486242522
 20
178.0905568876
 10
265.4005310428
 20
178.2672176041
  0
LINE
  5
1BD
330
1F
100
AcDbEntity
  8
0
  6
Continuous
 62
     7
370
    15
100
AcDbLine
 10
268.9005325479
 20
177.5325754561
 30
0.0
 11
274.9005316687
 21
177.5325754561
 31
0.0
  0
LWPOLYLINE
  5
1BE
330
1F
100
AcDbEntity
  8
0
  6
Continuous
 62
     7
370
    15
100
AcDbPolyline
 90
        6
 70
   128
 43
0.0
 10
176.4005332184
 20
194.031681297
 10
176.597444613
 20
194.8152104296
 10
177.1664976073
 20
195.5225797273
 10
178.0431329203
 20
196.0676008739
 10
179.1292487574
 20
196.3825778939
 10
179.9005328608
 20
196.4433783569
  0
LINE
  5
1BF
330
1F
100
AcDbEntity
  8
0
  6
Continuous
 62
     7
370
    15
100
AcDbLine
 10
176.4005332184
 20
193.990822313
 30
0.0
 11
176.4005332184
 21
194.031681297
 31
0.0
  0
LWPOLYLINE
  5
1C0
330
1F
100
AcDbEntity
  8
0
  6
Continuous
 62
     7
370
    15
100
AcDbPolyline
 90
        6
 70
   128
 43
0.0
 10
179.9005328608
 20
191.714122323
 10
178.7420420838
 20
191.8387668111
 10
177.714152534
 20
192.2011220731
 10
176.9328772021
 20
192.7665429093
 10
176.4862446976
 20
193.4781553127
 10
176.4005332184
 20
193.990822313
  0
LINE
  5
1C1
330
1F
100
AcDbEntity
  8
0
  6
Continuous
 62
     7
370
    15
100
AcDbLine
 10
197.9005320859
 20
191.714122323
 30
0.0
 11
179.9005328608
 21
191.714122323
 31
0.0
  0
LWPOLYLINE
  5
1C2
330
1F
100
AcDbEntity
  8
0
  6
Continuous
 62
     7
370
    15
100
AcDbPolyline
 90
        6
 70
   128
 43
0.0
 10
201.4005317283
 20
193.990822313
 10
201.2036203337
 20
193.2225854971
 10
200.6345673394
 20
192.5531173028
 10
199.7579320264
 20
192.0522035934
 10
198.6718161893
 20
191.7684258796
 10
197.9005320859
 20
191.714122323
  0
LINE
  5
1C3
330
1F
100
AcDbEntity
  8
0
  6
Continuous
 62
     7
370
    15
100
AcDbLine
 10
201.4005317283
 20
194.031681297
 30
0.0
 11
201.4005317283
 21
193.990822313
 31
0.0
  0
LWPOLYLINE
  5
1C4
330
1F
100
AcDbEntity
  8
0
  6
Continuous
 62
     7
370
    15
100
AcDbPolyline
 90
        6
 70
   128
 43
0.0
 10
197.9005320859
 20
196.4433783569
 10
199.0590228629
 20
196.3040748514
 10
200.0869124127
 20
195.9041202344
 10
200.8681877446
 20
195.2945100047
 10
201.3148202491
 20
194.5512847878
 10
201.4005317283
 20
194.031681297
  0
LINE
  5
1C5
330
1F
100
AcDbEntity
  8
0
  6
Continuous
 62
     7
370
    15
100
AcDbLine
 10
197.9005320859
 20
196.4433783569
 30
0.0
 11
179.9005328608
 21
196.4433783569
 31
0.0
  0
ARC
  5
1C6
330
1F
100
AcDbEntity
  8
0
  6
Continuous
 62
     7
370
    15
100
AcDbCircle
 10
179.5831259325
 20
208.1263206657
 30
0.0
 40
3.231923975545416
100
AcDbArc
 50
202.4784111261
 51
275.636097821
  0
LINE
  5
1C7
330
1F
100
AcDbEntity
  8
0
  6
Continuous
 62
     7
370
    15
100
AcDbLine
 10
196.1505322647
 20
204.9100207068
 30
0.0
 11
179.9005328608
 21
204.9100207068
 31
0.0
  0
ARC
  5
1C8
330
1F
100
AcDbEntity
  8
0
  6
Continuous
 62
     7
370
    15
100
AcDbCircle
 10
179.5375461585
 20
188.9186974828
 30
0.0
 40
4.753621298769552
100
AcDbArc
 50
234.7432444458
 51
274.3793708577
  0
ARC
  5
1C9
330
1F
100
AcDbEntity
  8
0
  6
Continuous
 62
     7
370
    15
100
AcDbCircle
 10
186.4294748388
 20
188.302463933
 30
0.0
 40
4.157295526044342
100
AcDbArc
 50
262.6902793523
 51
308.2550330289
  0
LINE
  5
1CA
330
1F
100
AcDbEntity
  8
0
  6
Continuous
 62
     7
370
    15
100
AcDbLine
 10
185.900530119
 20
184.1789552845
 30
0.0
 11
179.9005328608
 21
184.1789552845
 31
0.0
  0
LINE
  5
1CB
330
1F
100
AcDbEntity
  8
0
  6
Continuous
 62
     7
370
    15
100
AcDbLine
 10
185.900530119
 20
179.1050204911
 30
0.0
 11
179.9005328608
 21
179.1050204911
 31
0.0
  0
LWPOLYLINE
  5
1CC
330
1F
100
AcDbEntity
  8
0
  6
Continuous
 62
     7
370
    15
100
AcDbPolyline
 90
        3
 70
   128
 43
0.0
 10
178.8679792476
 20
179.1430482544
 10
179.2467816663
 20
179.1164273299
 10
179.9005328608
 20
179.1050204911
  0
LINE
  5
1CD
330
1F
100
AcDbEntity
  8
0
  6
Continuous
 62
     7
370
    15
100
AcDbLine
 10
185.900530119
 20
179.1050204911
 30
0.0
 11
186.9363247347
 21
179.1378701009
 31
0.0
  0
ARC
  5
1CE
330
1F
100
AcDbEntity
  8
0
  6
Continuous
 62
     7
370
    15
100
AcDbCircle
 10
275.2938675102
 20
208.0229902963
 30
0.0
 40
3.137720948312623
100
AcDbArc
 50
262.7986172148
 51
345.2171885019
  0
LINE
  5
1CF
330
1F
100
AcDbEntity
  8
0
  6
Continuous
 62
     7
370
    15
100
AcDbLine
 10
256.9005324435
 20
204.9100207068
 30
0.0
 11
274.9005316687
 21
204.9100207068
 31
0.0
  0
ARC
  5
1D0
330
1F
100
AcDbEntity
  8
0
  6
Continuous
 62
     7
370
    15
100
AcDbCircle
 10
256.6193174912
 20
208.1300613145
 30
0.0
 40
3.232296917720768
100
AcDbArc
 50
194.6326057983
 51
274.9911336842
  0
ARC
  5
1D1
330
1F
100
AcDbEntity
  8
0
  6
Continuous
 62
     7
370
    15
100
AcDbCircle
 10
275.29263595
 20
196.3723101846
 30
0.0
 40
3.438941849196068
100
AcDbArc
 50
263.4529614853
 51
329.3900208993
  0
LINE
  5
1D2
330
1F
100
AcDbEntity
  8
0
  6
Continuous
 62
     7
370
    15
100
AcDbLine
 10
256.9005324435
 20
192.9557951071
 30
0.0
 11
274.9005316687
 21
192.9557951071
 31
0.0
  0
ARC
  5
1D3
330
1F
100
AcDbEntity
  8
0
  6
Continuous
 62
     7
370
    15
100
AcDbCircle
 10
256.4589966694
 20
196.221645572
 30
0.0
 40
3.295562637676563
100
AcDbArc
 50
208.1925029153
 51
277.6995773228
  0
ARC
  5
1D4
330
1F
100
AcDbEntity
  8
0
  6
Continuous
 62
     7
370
    15
100
AcDbCircle
 10
275.0368677519
 20
222.6747138674
 30
0.0
 40
3.366360080892869
100
AcDbArc
 50
267.6789116523
 51
357.5487827594
  0
LINE
  5
1D5
330
1F
100
AcDbEntity
  8
0
  6
Continuous
 62
     7
370
    15
100
AcDbLine
 10
256.9005324435
 20
219.3111156948
 30
0.0
 11
274.9005316687
 21
219.3111156948
 31
0.0
  0
ARC
  5
1D6
330
1F
100
AcDbEntity
  8
0
  6
Continuous
 62
     7
370
    15
100
AcDbCircle
 10
256.7734527307
 20
222.6847752131
 30
0.0
 40
3.376052102480009
100
AcDbArc
 50
182.6150960712
 51
272.1572095171
  0
ARC
  5
1D7
330
1F
100
AcDbEntity
  8
0
  6
Continuous
 62
     7
370
    15
100
AcDbCircle
 10
275.4294758124
 20
188.3024604323
 30
0.0
 40
4.1572919804333
100
AcDbArc
 50
262.6902810887
 51
308.2550489782
  0
LINE
  5
1D8
330
1F
100
AcDbEntity
  8
0
  6
Continuous
 62
     7
370
    15
100
AcDbLine
 10
268.9005325479
 20
184.1789552845
 30
0.0
 11
274.9005316687
 21
184.1789552845
 31
0.0
  0
ARC
  5
1D9
330
1F
100
AcDbEntity
  8
0
  6
Continuous
 62
     7
370
    15
100
AcDbCircle
 10
268.5375505001
 20
188.9187202931
 30
0.0
 40
4.753643687096266
100
AcDbArc
 50
234.7433390054
 51
274.3792939261
  0
LINE
  5
1DA
330
1F
100
AcDbEntity
  8
0
  6
Continuous
 62
     7
370
    15
100
AcDbLine
 10
274.9005316687
 20
179.1050204911
 30
0.0
 11
275.9363262844
 21
179.1378701009
 31
0.0
  0
LINE
  5
1DB
330
1F
100
AcDbEntity
  8
0
  6
Continuous
 62
     7
370
    15
100
AcDbLine
 10
268.9005325479
 20
179.1050204911
 30
0.0
 11
274.9005316687
 21
179.1050204911
 31
0.0
  0
LWPOLYLINE
  5
1DC
330
1F
100
AcDbEntity
  8
0
  6
Continuous
 62
     7
370
    15
100
AcDbPolyline
 90
        3
 70
   128
 43
0.0
 10
267.867977072
 20
179.1430482544
 10
268.2467850787
 20
179.1164273299
 10
268.9005325479
 20
179.1050204911
  0
LINE
  5
1DD
330
1F
100
AcDbEntity
  8
0
  6
Continuous
 62
     7
370
    15
100
AcDbLine
 10
197.9005320859
 20
192.9557951071
 30
0.0
 11
179.9005328608
 21
192.9557951071
 31
0.0
  0
ARC
  5
1DE
330
1F
100
AcDbEntity
  8
0
  6
Continuous
 62
     7
370
    15
100
AcDbCircle
 10
179.4589879239
 20
196.2216276309
 30
0.0
 40
3.295546085988479
100
AcDbArc
 50
208.1923032592
 51
277.6997769789
  0
ARC
  5
1DF
330
1F
100
AcDbEntity
  8
0
  6
Continuous
 62
     7
370
    15
100
AcDbCircle
 10
198.2926412917
 20
196.3722936531
 30
0.0
 40
3.438925987006603
100
AcDbArc
 50
263.4528485685
 51
329.3901845676
  0
LINE
  5
1E0
330
1F
100
AcDbEntity
  8
0
  6
Continuous
 62
     7
370
    15
100
AcDbLine
 10
297.4005325628
 20
244.9509048738
 30
0.0
 11
297.4005325628
 21
314.9509051718
 31
0.0
  0
LINE
  5
1E1
330
1F
100
AcDbEntity
  8
0
  6
Continuous
 62
     7
370
    15
100
AcDbLine
 10
297.4005325628
 20
174.9509045758
 30
0.0
 11
297.4005325628
 21
244.9509048738
 31
0.0
  0
LINE
  5
1E2
330
1F
100
AcDbEntity
  8
0
  6
Continuous
 62
     7
370
    15
100
AcDbLine
 10
313.4005333227
 20
263.0990533062
 30
0.0
 11
313.4005333227
 21
312.5574508585
 31
0.0
  0
LINE
  5
1E3
330
1F
100
AcDbEntity
  8
0
  6
Continuous
 62
     7
370
    15
100
AcDbLine
 10
313.4005333227
 20
177.344358889
 30
0.0
 11
313.4005333227
 21
226.8027564414
 31
0.0
  0
LINE
  5
1E4
330
1F
100
AcDbEntity
  8
0
  6
Continuous
 62
     7
370
    15
100
AcDbLine
 10
352.4005322647
 20
233.4388516747
 30
0.0
 11
352.4005322647
 21
256.4629580729
 31
0.0
  0
LINE
  5
1E5
330
1F
100
AcDbEntity
  8
0
  6
Continuous
 62
     7
370
    15
100
AcDbLine
 10
344.4005309534
 20
264.8731781073
 30
0.0
 11
344.4005309534
 21
267.2605657853
 31
0.0
  0
LINE
  5
1E6
330
1F
100
AcDbEntity
  8
0
  6
Continuous
 62
     7
370
    15
100
AcDbLine
 10
344.4005309534
 20
222.6412439622
 30
0.0
 11
344.4005309534
 21
225.0286316402
 31
0.0
  0
LINE
  5
1E7
330
1F
100
AcDbEntity
  8
0
  6
Continuous
 62
     7
370
    15
100
AcDbLine
 10
344.4005309534
 20
267.2605657853
 30
0.0
 11
344.4005309534
 21
295.4724090077
 31
0.0
  0
LINE
  5
1E8
330
1F
100
AcDbEntity
  8
0
  6
Continuous
 62
     7
370
    15
100
AcDbLine
 10
352.4005322647
 20
295.4724090077
 30
0.0
 11
352.4005322647
 21
256.4629580729
 31
0.0
  0
LINE
  5
1E9
330
1F
100
AcDbEntity
  8
0
  6
Continuous
 62
     7
370
    15
100
AcDbLine
 10
344.4005309534
 20
194.4294007398
 30
0.0
 11
344.4005309534
 21
222.6412439622
 31
0.0
  0
LINE
  5
1EA
330
1F
100
AcDbEntity
  8
0
  6
Continuous
 62
     7
370
    15
100
AcDbLine
 10
352.4005322647
 20
233.4388516747
 30
0.0
 11
352.4005322647
 21
194.4294007398
 31
0.0
  0
LINE
  5
1EB
330
1F
100
AcDbEntity
  8
0
  6
Continuous
 62
     7
370
    15
100
AcDbLine
 10
344.4005309534
 20
295.4724090077
 30
0.0
 11
344.4005309534
 21
303.5902896799
 31
0.0
  0
LINE
  5
1EC
330
1F
100
AcDbEntity
  8
0
  6
Continuous
 62
     7
370
    15
100
AcDbLine
 10
352.4005322647
 20
303.5902896799
 30
0.0
 11
352.4005322647
 21
295.4724090077
 31
0.0
  0
LINE
  5
1ED
330
1F
100
AcDbEntity
  8
0
  6
Continuous
 62
     7
370
    15
100
AcDbLine
 10
344.4005309534
 20
186.3115200676
 30
0.0
 11
344.4005309534
 21
194.4294007398
 31
0.0
  0
LINE
  5
1EE
330
1F
100
AcDbEntity
  8
0
  6
Continuous
 62
     7
370
    15
100
AcDbLine
 10
352.4005322647
 20
194.4294007398
 30
0.0
 11
352.4005322647
 21
186.3115200676
 31
0.0
  0
LINE
  5
1EF
330
1F
100
AcDbEntity
  8
0
  6
Continuous
 62
     7
370
    15
100
AcDbLine
 10
344.4005309534
 20
303.5902896799
 30
0.0
 11
344.4005309534
 21
308.5490086951
 31
0.0
  0
LINE
  5
1F0
330
1F
100
AcDbEntity
  8
0
  6
Continuous
 62
     7
370
    15
100
AcDbLine
 10
352.4005322647
 20
310.4468801894
 30
0.0
 11
352.4005322647
 21
303.5902896799
 31
0.0
  0
LINE
  5
1F1
330
1F
100
AcDbEntity
  8
0
  6
Continuous
 62
     7
370
    15
100
AcDbLine
 10
344.4005309534
 20
181.3528010525
 30
0.0
 11
344.4005309534
 21
186.3115200676
 31
0.0
  0
LINE
  5
1F2
330
1F
100
AcDbEntity
  8
0
  6
Continuous
 62
     7
370
    15
100
AcDbLine
 10
352.4005322647
 20
186.3115200676
 30
0.0
 11
352.4005322647
 21
179.4549295582
 31
0.0
  0
LINE
  5
1F3
330
1F
100
AcDbEntity
  8
0
  6
Continuous
 62
     7
370
    15
100
AcDbLine
 10
340.9005313111
 20
217.9509041734
 30
0.0
 11
340.9005313111
 21
224.9509053208
 31
0.0
  0
LINE
  5
1F4
330
1F
100
AcDbEntity
  8
0
  6
Continuous
 62
     7
370
    15
100
AcDbLine
 10
340.9005313111
 20
264.9509044267
 30
0.0
 11
340.9005313111
 21
271.9509055741
 31
0.0
  0
LINE
  5
1F5
330
1F
100
AcDbEntity
  8
0
  6
Continuous
 62
     7
370
    15
100
AcDbLine
 10
344.4005309534
 20
308.5490086951
 30
0.0
 11
344.4005309534
 21
310.7614660539
 31
0.0
  0
LINE
  5
1F6
330
1F
100
AcDbEntity
  8
0
  6
Continuous
 62
     7
370
    15
100
AcDbLine
 10
344.4005309534
 20
179.1403436937
 30
0.0
 11
344.4005309534
 21
181.3528010525
 31
0.0
  0
LINE
  5
1F7
330
1F
100
AcDbEntity
  8
0
  6
Continuous
 62
     7
370
    15
100
AcDbLine
 10
352.4005322647
 20
310.4468801894
 30
0.0
 11
352.4005322647
 21
311.4509055294
 31
0.0
  0
LINE
  5
1F8
330
1F
100
AcDbEntity
  8
0
  6
Continuous
 62
     7
370
    15
100
AcDbLine
 10
352.4005322647
 20
178.4509042181
 30
0.0
 11
352.4005322647
 21
179.4549295582
 31
0.0
  0
LINE
  5
1F9
330
1F
100
AcDbEntity
  8
0
  6
Continuous
 62
     7
370
    15
100
AcDbLine
 10
344.4005309534
 20
189.9509051718
 30
0.0
 11
313.4005333227
 21
189.9509051718
 31
0.0
  0
LINE
  5
1FA
330
1F
100
AcDbEntity
  8
0
  6
Continuous
 62
     7
370
    15
100
AcDbLine
 10
344.4005309534
 20
299.9509045758
 30
0.0
 11
313.4005333227
 21
299.9509045758
 31
0.0
  0
LWPOLYLINE
  5
1FB
330
1F
100
AcDbEntity
  8
0
  6
Continuous
 62
     7
370
    15
100
AcDbPolyline
 90
        7
 70
   128
 43
0.0
 10
329.8371306551
 20
295.2508920707
 10
329.7779097152
 20
295.432824073
 10
329.7779097152
 20
296.2279835619
 10
330.1455064607
 20
297.1270302214
 10
330.8646364999
 20
298.0906622388
 10
331.9038658333
 20
299.0767726578
 10
333.0801225198
 20
299.9509045758
  0
LWPOLYLINE
  5
1FC
330
1F
100
AcDbEntity
  8
0
  6
Continuous
 62
     7
370
    15
100
AcDbPolyline
 90
       11
 70
   128
 43
0.0
 10
330.7731508208
 20
292.9201418437
 10
329.9400157225
 20
293.0823484339
 10
328.9358525467
 20
293.4804851093
 10
328.2467893255
 20
294.0531292834
 10
327.8962897998
 20
294.7807790615
 10
327.8962897998
 20
295.6386538126
 10
328.2467893255
 20
296.5975398101
 10
328.9358525467
 20
297.6247848846
 10
329.9400157225
 20
298.6854048349
 10
331.225080688
 20
299.7432866968
 10
331.5114810062
 20
299.9509045758
  0
LINE
  5
1FD
330
1F
100
AcDbEntity
  8
0
  6
Continuous
 62
     7
370
    15
100
AcDbLine
 10
332.7441348624
 20
314.9509051718
 30
0.0
 11
333.400531013
 21
315.1768142261
 31
0.0
  0
LINE
  5
1FE
330
1F
100
AcDbEntity
  8
0
  6
Continuous
 62
     7
370
    15
100
AcDbLine
 10
344.4005309534
 20
318.8053736367
 30
0.0
 11
333.400531013
 21
315.1768142261
 31
0.0
  0
LINE
  5
1FF
330
1F
100
AcDbEntity
  8
0
  6
Continuous
 62
     7
370
    15
100
AcDbLine
 10
344.4005309534
 20
318.8053736367
 30
0.0
 11
344.4005309534
 21
314.9509051718
 31
0.0
  0
LINE
  5
200
330
1F
100
AcDbEntity
  8
SLD-0
  6
CENTERX2
370
     0
100
AcDbLine
 10
456.9240135572
 20
244.9509048738
 30
0.0
 11
123.820421208
 21
244.9509048738
 31
0.0
  0
LINE
  5
201
330
1F
100
AcDbEntity
  8
SLD-0
  6
CENTERX2
370
     0
100
AcDbLine
 10
387.9005325628
 20
328.6967201586
 30
0.0
 11
387.9005325628
 21
413.6187979496
 31
0.0
  0
LINE
  5
202
330
1F
100
AcDbEntity
  8
SLD-0
  6
CENTERX2
370
     0
100
AcDbLine
 10
387.9005325628
 20
147.1858391049
 30
0.0
 11
387.9005325628
 21
69.8904751472
 31
0.0
  0
LINE
  5
203
330
1F
100
AcDbEntity
  8
0
  6
Continuous
 62
     7
370
    15
100
AcDbLine
 10
578.4433125388
 20
206.7949319162
 30
0.0
 11
578.9680941832
 21
209.7486773409
 31
0.0
  0
LINE
  5
204
330
1F
100
AcDbEntity
  8
0
  6
Continuous
 62
     7
370
    15
100
AcDbLine
 10
559.2764629852
 20
213.2472203948
 30
0.0
 11
558.7516813409
 21
210.29347497
 31
0.0
  0
ARC
  5
205
330
1F
100
AcDbEntity
  8
0
  6
Continuous
 62
     7
370
    15
100
AcDbCircle
 10
558.9653375679
 20
207.208535627
 30
0.0
 40
3.000000000000024
100
AcDbArc
 50
349.925583395
 51
79.925583395
  0
ARC
  5
206
330
1F
100
AcDbEntity
  8
0
  6
Continuous
 62
     7
370
    15
100
AcDbCircle
 10
577.1800932017
 20
203.9723840235
 30
0.0
 40
2.999999999999996
100
AcDbArc
 50
79.925583395
 51
169.925583395
  0
LINE
  5
207
330
1F
100
AcDbEntity
  8
0
  6
Continuous
 62
     7
370
    15
100
AcDbLine
 10
574.0514187943
 20
203.5125823595
 30
0.0
 11
574.2263509762
 21
204.4971654095
 31
0.0
  0
LINE
  5
208
330
1F
100
AcDbEntity
  8
0
  6
Continuous
 62
     7
370
    15
100
AcDbLine
 10
561.9190796148
 20
206.6837543525
 30
0.0
 11
561.7441548836
 21
205.6991713025
 31
0.0
  0
ARC
  5
209
330
1F
100
AcDbEntity
  8
0
  6
Continuous
 62
     7
370
    15
100
AcDbCircle
 10
562.7287359966
 20
205.5242457866
 30
0.0
 40
1.00000000000014
100
AcDbArc
 50
169.925583395
 51
259.925583395
  0
ARC
  5
20A
330
1F
100
AcDbEntity
  8
0
  6
Continuous
 62
     7
370
    15
100
AcDbCircle
 10
573.0668405455
 20
203.6875110927
 30
0.0
 40
1.000000000000028
100
AcDbArc
 50
259.925583395
 51
349.925583395
  0
LINE
  5
20B
330
1F
100
AcDbEntity
  8
0
  6
Continuous
 62
     7
370
    15
100
AcDbLine
 10
571.1803822648
 20
197.9287112035
 30
0.0
 11
572.0550208222
 21
202.851619003
 31
0.0
  0
LINE
  5
20C
330
1F
100
AcDbEntity
  8
0
  6
Continuous
 62
     7
370
    15
100
AcDbLine
 10
563.3907033932
 20
204.3909760095
 30
0.0
 11
562.5160648357
 21
199.4680682101
 31
0.0
  0
LWPOLYLINE
  5
20D
330
1F
100
AcDbEntity
  8
0
  6
Continuous
 62
     7
370
    15
100
AcDbPolyline
 90
        4
 70
   128
 43
0.0
 10
556.3425137531
 20
251.7518772647
 10
556.2620996367
 20
251.5583093181
 10
556.1580671799
 20
251.3047902748
 10
556.1537458431
 20
251.2942174353
  0
LWPOLYLINE
  5
20E
330
1F
100
AcDbEntity
  8
0
  6
Continuous
 62
     7
370
    15
100
AcDbPolyline
 90
       26
 70
   128
 43
0.0
 10
679.148114739
 20
128.1922453918
 10
679.2170251589
 20
131.7514473476
 10
679.3051245492
 20
136.2450117149
 10
679.389368264
 20
140.4813149847
 10
679.469758166
 20
144.5918003001
 10
679.5882913154
 20
150.9036937632
 10
679.6973044854
 20
156.8784484543
 10
679.7967958134
 20
162.4054232516
 10
679.892830072
 20
167.847319869
 10
679.9779343289
 20
172.7244401254
 10
680.0585049074
 20
177.343151895
 10
680.1408878397
 20
182.0640707292
 10
680.2250831258
 20
186.8869172313
 10
680.3295607548
 20
192.8690442719
 10
680.4366907906
 20
198.9999966599
 10
680.5464639198
 20
205.252602128
 10
680.6581574362
 20
211.3881142713
 10
680.7674257886
 20
217.0650003381
 10
680.8341084849
 20
220.4484561362
 10
680.8995506596
 20
223.9375835188
 10
680.9637523126
 20
227.2481428363
 10
681.0266985428
 20
230.312977349
 10
681.0938767027
 20
233.3681726732
 10
681.1773194801
 20
236.8253361337
 10
681.2772205901
 20
240.4225006603
 10
681.3297397327
 20
241.9422386583
  0
LWPOLYLINE
  5
20F
330
1F
100
AcDbEntity
  8
0
  6
Continuous
 62
     7
370
    15
100
AcDbPolyline
 90
       26
 70
   128
 43
0.0
 10
617.6996282172
 20
241.9488647856
 10
617.7538125646
 20
240.3790130183
 10
617.8549951744
 20
236.7233982213
 10
617.939108504
 20
233.2248439916
 10
618.0066219401
 20
230.1427055054
 10
618.1355430614
 20
223.6528390922
 10
618.2019128334
 20
220.1171511688
 10
618.2695492041
 20
216.698241783
 10
618.3803989422
 20
210.9130876042
 10
618.4934112113
 20
204.6807477154
 10
618.6039480251
 20
198.3750568606
 10
618.7114673536
 20
192.2214100041
 10
618.8159617465
 20
186.23802009
 10
618.9007251393
 20
181.3823202528
 10
618.9833800178
 20
176.6455465831
 10
619.0642244052
 20
172.0107564606
 10
619.1517631393
 20
166.9979536809
 10
619.2498798352
 20
161.4554146208
 10
619.3585744929
 20
155.4346153416
 10
619.4778452497
 20
148.9379549302
 10
619.6076939684
 20
142.1308064737
 10
619.7481169235
 20
135.0507730521
 10
619.8603748214
 20
129.2952665962
 10
619.9785801452
 20
123.1466451563
 10
620.0399151873
 20
119.8994064607
 10
620.04736018
 20
119.4757366456
  0
ARC
  5
210
330
1F
100
AcDbEntity
  8
0
  6
Continuous
 62
     7
370
    15
100
AcDbCircle
 10
597.5148553383
 20
89.9509048738
 30
0.0
 40
2.0
100
AcDbArc
 50
0.0
 51
90.0
  0
ARC
  5
211
330
1F
100
AcDbEntity
  8
0
  6
Continuous
 62
     7
370
    15
100
AcDbCircle
 10
701.5148553383
 20
89.9509048738
 30
0.0
 40
2.0
100
AcDbArc
 50
90.0
 51
180.0
  0
ARC
  5
212
330
1F
100
AcDbEntity
  8
0
  6
Continuous
 62
     7
370
    15
100
AcDbCircle
 10
701.5148553383
 20
399.9509048738
 30
0.0
 40
2.0
100
AcDbArc
 50
180.0
 51
270.0
  0
ARC
  5
213
330
1F
100
AcDbEntity
  8
0
  6
Continuous
 62
     7
370
    15
100
AcDbCircle
 10
597.5148553383
 20
399.9509048738
 30
0.0
 40
2.0
100
AcDbArc
 50
270.0
 51
0.0
  0
LWPOLYLINE
  5
214
330
1F
100
AcDbEntity
  8
0
  6
Continuous
 62
     7
370
    15
100
AcDbPolyline
 90
        7
 70
   128
 43
0.0
 10
680.4105373901
 20
125.9756604113
 10
680.0899240058
 20
126.2346500434
 10
679.5329968315
 20
126.9935587324
 10
679.2596480679
 20
127.6209348716
 10
679.1645618957
 20
128.0271777787
 10
679.148287965
 20
128.2173165955
 10
679.1476434898
 20
128.2116243519
  0
LINE
  5
215
330
1F
100
AcDbEntity
  8
0
  6
Continuous
 62
     7
370
    15
100
AcDbLine
 10
705.2002078723
 20
364.9509021916
 30
0.0
 11
714.0146433246
 21
364.9509021916
 31
0.0
  0
LINE
  5
216
330
1F
100
AcDbEntity
  8
0
  6
Continuous
 62
     7
370
    15
100
AcDbLine
 10
714.0144645106
 20
124.950907556
 30
0.0
 11
705.2105008494
 21
124.950907556
 31
0.0
  0
ARC
  5
217
330
1F
100
AcDbEntity
  8
0
  6
Continuous
 62
     7
370
    15
100
AcDbCircle
 10
631.7069798242
 20
305.6413600995
 30
0.0
 40
4.74609635432911
100
AcDbArc
 50
279.6822184235
 51
288.1146930167
  0
ARC
  5
218
330
1F
100
AcDbEntity
  8
0
  6
Continuous
 62
     7
370
    15
100
AcDbCircle
 10
705.2002066423
 20
359.9509048738
 30
0.0
 40
5.000000000000044
100
AcDbArc
 50
89.3051220617
 51
155.0
  0
ARC
  5
219
330
1F
100
AcDbEntity
  8
0
  6
Continuous
 62
     7
370
    15
100
AcDbCircle
 10
705.2105027027
 20
129.9509048738
 30
0.0
 40
5.000000000000008
100
AcDbArc
 50
205.0
 51
271.0725394976
  0
LWPOLYLINE
  5
21A
330
1F
100
AcDbEntity
  8
0
  6
Continuous
 62
     7
370
    15
100
AcDbPolyline
 90
       10
 70
   128
 43
0.0
 10
568.5974969398
 20
208.5442053057
 10
566.7341663372
 20
208.8752569534
 10
564.938174082
 20
209.1943429686
 10
563.2744445335
 20
209.4899298527
 10
561.8031038773
 20
209.7513409235
 10
560.5773343574
 20
209.969117669
 10
559.6414296758
 20
210.1353960015
 10
559.0292229187
 20
210.2441670276
 10
558.76283486
 20
210.2914931156
 10
558.7516813409
 20
210.29347497
  0
LWPOLYLINE
  5
21B
330
1F
100
AcDbEntity
  8
0
  6
Continuous
 62
     7
370
    15
100
AcDbPolyline
 90
       10
 70
   128
 43
0.0
 10
578.4433125388
 20
206.7949319162
 10
578.4321590197
 20
206.7969137706
 10
578.165770961
 20
206.8442435839
 10
577.5535642039
 20
206.9530108847
 10
576.6176595222
 20
207.1192892172
 10
575.3918825519
 20
207.337069688
 10
573.9205418956
 20
207.5984770335
 10
572.2568197977
 20
207.8940639176
 10
570.4608275425
 20
208.2131536581
 10
568.5974969398
 20
208.5442053057
  0
LWPOLYLINE
  5
21C
330
1F
100
AcDbEntity
  8
0
  6
Continuous
 62
     7
370
    15
100
AcDbPolyline
 90
       13
 70
   128
 43
0.0
 10
572.8919147384
 20
202.7029314913
 10
572.7157830131
 20
202.7342239298
 10
572.1993907225
 20
202.825966654
 10
571.3779344093
 20
202.971912352
 10
570.3073902857
 20
203.1621144988
 10
569.0607069861
 20
203.3836053588
 10
567.7228583824
 20
203.6212975063
 10
566.3850097787
 20
203.8589896538
 10
565.1383339297
 20
204.0804805137
 10
564.0677898061
 20
204.2706826605
 10
563.2463334929
 20
204.4166283585
 10
562.7299412023
 20
204.5083710827
 10
562.553809477
 20
204.5396635212
  0
LWPOLYLINE
  5
21D
330
1F
100
AcDbEntity
  8
0
  6
Continuous
 62
     7
370
    15
100
AcDbPolyline
 90
        7
 70
   128
 43
0.0
 10
566.8482272756
 20
198.6983897068
 10
565.6277178657
 20
198.9152351298
 10
564.5060851108
 20
199.1145083584
 10
563.5741962921
 20
199.2800751604
 10
562.9075555932
 20
199.3985133149
 10
562.5601648223
 20
199.4602339246
 10
562.5160648357
 20
199.4680682101
  0
LWPOLYLINE
  5
21E
330
1F
100
AcDbEntity
  8
0
  6
Continuous
 62
     7
370
    15
100
AcDbPolyline
 90
        7
 70
   128
 43
0.0
 10
571.1803822648
 20
197.9287112035
 10
571.1362897288
 20
197.936545489
 10
570.7888915073
 20
197.9982660987
 10
570.1222508084
 20
198.1167042531
 10
569.1903694403
 20
198.2822710552
 10
568.0687366855
 20
198.4815480091
 10
566.8482272756
 20
198.6983897068
  0
ARC
  5
21F
330
1F
100
AcDbEntity
  8
0
  6
Continuous
 62
     7
370
    15
100
AcDbCircle
 10
580.9443383668
 20
266.4776602326
 30
0.0
 40
2.999999999999982
100
AcDbArc
 50
259.925583395
 51
292.0756648412
  0
LINE
  5
220
330
1F
100
AcDbEntity
  8
0
  6
Continuous
 62
     7
370
    15
100
AcDbLine
 10
588.2455943953
 20
207.0873113252
 30
0.0
 11
587.7371220719
 21
206.7687915541
 31
0.0
  0
ARC
  5
221
330
1F
100
AcDbEntity
  8
0
  6
Continuous
 62
     7
370
    15
100
AcDbCircle
 10
640.7882524624
 20
240.0015827263
 30
0.0
 40
62.60064572193308
100
AcDbArc
 50
208.4396540116
 51
212.0642413743
  0
LWPOLYLINE
  5
222
330
1F
100
AcDbEntity
  8
0
  6
Continuous
 62
     7
370
    15
100
AcDbPolyline
 90
        3
 70
   128
 43
0.0
 10
585.7423036229
 20
210.1890960612
 10
585.0458084475
 20
211.5126283743
 10
584.3537538182
 20
212.9093887188
  0
LINE
  5
223
330
1F
100
AcDbEntity
  8
0
  6
Continuous
 62
     7
370
    15
100
AcDbLine
 10
585.5241953265
 20
211.8952901937
 30
0.0
 11
584.8383395802
 21
213.212947724
 31
0.0
  0
ARC
  5
224
330
1F
100
AcDbEntity
  8
0
  6
Continuous
 62
     7
370
    15
100
AcDbCircle
 10
640.7886726199
 20
240.0017698386
 30
0.0
 40
62.00110199458815
100
AcDbArc
 50
206.9570373079
 51
212.0641835685
  0
LINE
  5
225
330
1F
100
AcDbEntity
  8
0
  6
Continuous
 62
     7
370
    15
100
AcDbLine
 10
584.8383395802
 20
213.212947724
 30
0.0
 11
583.3505778443
 21
216.2046017029
 31
0.0
  0
ARC
  5
226
330
1F
100
AcDbEntity
  8
0
  6
Continuous
 62
     7
370
    15
100
AcDbCircle
 10
640.7877294844
 20
240.0011981916
 30
0.0
 40
62.6
100
AcDbArc
 50
202.4271801237
 51
205.6438937209
  0
ARC
  5
227
330
1F
100
AcDbEntity
  8
0
  6
Continuous
 62
     7
370
    15
100
AcDbCircle
 10
640.7877294844
 20
240.0011981916
 30
0.0
 40
62.6
100
AcDbArc
 50
164.0691487281
 51
202.4271801237
  0
ARC
  5
228
330
1F
100
AcDbEntity
  8
0
  6
Continuous
 62
     7
370
    15
100
AcDbCircle
 10
640.7877294844
 20
240.0011981916
 30
0.0
 40
62.17157287525379
100
AcDbArc
 50
168.0380900979
 51
202.5045537878
  0
ARC
  5
229
330
1F
100
AcDbEntity
  8
0
  6
Continuous
 62
     7
370
    15
100
AcDbCircle
 10
584.9023560335
 20
205.647376945
 30
0.0
 40
2.999999999999996
100
AcDbArc
 50
31.5798476138
 51
79.925583395
  0
LINE
  5
22A
330
1F
100
AcDbEntity
  8
0
  6
Continuous
 62
     7
370
    15
100
AcDbLine
 10
567.710944904
 20
265.7818099387
 30
0.0
 11
580.4195566904
 21
263.5239152141
 31
0.0
  0
LINE
  5
22B
330
1F
100
AcDbEntity
  8
0
  6
Continuous
 62
     7
370
    15
100
AcDbLine
 10
585.4271366131
 20
208.6011202909
 30
0.0
 11
553.4915118348
 21
214.2750112243
 31
0.0
  0
ARC
  5
22C
330
1F
100
AcDbEntity
  8
0
  6
Continuous
 62
     7
370
    15
100
AcDbCircle
 10
649.8299867811
 20
213.0031903492
 30
0.0
 40
101.2000000000001
100
AcDbArc
 50
150.3695827411
 51
175.9298493727
  0
ARC
  5
22D
330
1F
100
AcDbEntity
  8
0
  6
Continuous
 62
     7
370
    15
100
AcDbCircle
 10
566.7313518959
 20
260.2681549658
 30
0.0
 40
5.600000000000054
100
AcDbArc
 50
79.925583395
 51
150.3695827411
  0
ARC
  5
22E
330
1F
100
AcDbEntity
  8
0
  6
Continuous
 62
     7
370
    15
100
AcDbCircle
 10
554.4710999634
 20
219.7886678471
 30
0.0
 40
5.599999999999989
100
AcDbArc
 50
175.9298493727
 51
259.925583395
  0
ARC
  5
22F
330
1F
100
AcDbEntity
  8
0
  6
Continuous
 62
     7
370
    15
100
AcDbCircle
 10
633.2747572348
 20
347.486848873
 30
0.0
 40
24.00000000000005
100
AcDbArc
 50
187.0284095773
 51
222.9715904227
  0
LINE
  5
230
330
1F
100
AcDbEntity
  8
0
  6
Continuous
 62
     7
370
    15
100
AcDbLine
 10
620.2998901587
 20
308.5628965773
 30
0.0
 11
625.0169775319
 21
311.1776256837
 31
0.0
  0
ARC
  5
231
330
1F
100
AcDbEntity
  8
0
  6
Continuous
 62
     7
370
    15
100
AcDbCircle
 10
633.2747572348
 20
347.486848873
 30
0.0
 40
24.45000000000003
100
AcDbArc
 50
184.0195572734
 51
225.9804427266
  0
CIRCLE
  5
232
330
1F
100
AcDbEntity
  8
0
  6
Continuous
 62
     7
370
    15
100
AcDbCircle
 10
649.5148553383
 20
214.9509048738
 30
0.0
 40
13.00000000000011
  0
LINE
  5
233
330
1F
100
AcDbEntity
  8
0
  6
Continuous
 62
     7
370
    15
100
AcDbLine
 10
650.7648553103
 20
174.4509035625
 30
0.0
 11
650.7648553103
 21
189.4509041585
 31
0.0
  0
LINE
  5
234
330
1F
100
AcDbEntity
  8
0
  6
Continuous
 62
     7
370
    15
100
AcDbLine
 10
652.0148552824
 20
173.2009047546
 30
0.0
 11
650.7648553103
 21
174.4509035625
 31
0.0
  0
LINE
  5
235
330
1F
100
AcDbEntity
  8
0
  6
Continuous
 62
     7
370
    15
100
AcDbLine
 10
652.0148552824
 20
156.9509053506
 30
0.0
 11
652.0148552824
 21
173.2009047546
 31
0.0
  0
LINE
  5
236
330
1F
100
AcDbEntity
  8
0
  6
Continuous
 62
     7
370
    15
100
AcDbLine
 10
649.5148553383
 20
159.4509029664
 30
0.0
 11
652.0148552824
 21
156.9509053506
 31
0.0
  0
LINE
  5
237
330
1F
100
AcDbEntity
  8
0
  6
Continuous
 62
     7
370
    15
100
AcDbLine
 10
647.0148553942
 20
156.9509053506
 30
0.0
 11
649.5148553383
 21
159.4509029664
 31
0.0
  0
LINE
  5
238
330
1F
100
AcDbEntity
  8
0
  6
Continuous
 62
     7
370
    15
100
AcDbLine
 10
647.0148553942
 20
173.2009047546
 30
0.0
 11
647.0148553942
 21
156.9509053506
 31
0.0
  0
LINE
  5
239
330
1F
100
AcDbEntity
  8
0
  6
Continuous
 62
     7
370
    15
100
AcDbLine
 10
648.2648553662
 20
174.4509035625
 30
0.0
 11
647.0148553942
 21
173.2009047546
 31
0.0
  0
LINE
  5
23A
330
1F
100
AcDbEntity
  8
0
  6
Continuous
 62
     7
370
    15
100
AcDbLine
 10
647.0148553942
 20
189.4509041585
 30
0.0
 11
648.2648553662
 21
189.4509041585
 31
0.0
  0
LINE
  5
23B
330
1F
100
AcDbEntity
  8
0
  6
Continuous
 62
     7
370
    15
100
AcDbLine
 10
650.7648553103
 20
189.4509041585
 30
0.0
 11
652.0148552824
 21
189.4509041585
 31
0.0
  0
LINE
  5
23C
330
1F
100
AcDbEntity
  8
0
  6
Continuous
 62
     7
370
    15
100
AcDbLine
 10
648.2648553662
 20
189.4509041585
 30
0.0
 11
648.2648553662
 21
174.4509035625
 31
0.0
  0
LINE
  5
23D
330
1F
100
AcDbEntity
  8
0
  6
Continuous
 62
     7
370
    15
100
AcDbLine
 10
652.0148552824
 20
189.4509041585
 30
0.0
 11
649.5148553383
 21
191.9509054996
 31
0.0
  0
LINE
  5
23E
330
1F
100
AcDbEntity
  8
0
  6
Continuous
 62
     7
370
    15
100
AcDbLine
 10
649.5148553383
 20
191.9509054996
 30
0.0
 11
647.0148553942
 21
189.4509041585
 31
0.0
  0
LWPOLYLINE
  5
23F
330
1F
100
AcDbEntity
  8
0
  6
Continuous
 62
     7
370
    15
100
AcDbPolyline
 90
       21
 70
   128
 43
0.0
 10
681.2444231343
 20
241.9427534469
 10
681.2690212261
 20
246.0198111503
 10
680.4287317079
 20
251.809560591
 10
678.6888479125
 20
257.270223824
 10
675.9446593803
 20
262.5007493325
 10
672.5369780194
 20
266.8836763032
 10
668.2743518483
 20
270.7136565723
 10
663.7948327568
 20
273.5040908583
 10
658.761553919
 20
275.5525218226
 10
653.6640776191
 20
276.6739906647
 10
648.298118134
 20
276.9271278657
 10
643.1405111086
 20
276.2939402737
 10
638.0180152934
 20
274.7620636501
 10
633.3509529811
 20
272.4567478426
 10
629.0138042402
 20
269.3152664133
 10
625.3538871985
 20
265.5874969341
 10
622.2773077768
 20
261.1836692222
 10
619.9962026309
 20
256.4056025721
 10
618.4652349781
 20
251.1917980291
 10
617.7382743787
 20
245.6509972244
 10
617.7932857406
 20
241.95025688
  0
LWPOLYLINE
  5
240
330
1F
100
AcDbEntity
  8
0
  6
Continuous
 62
     7
370
    15
100
AcDbPolyline
 90
        3
 70
   128
 43
0.0
 10
620.2490492594
 20
113.1208980359
 10
620.098055793
 20
117.5122702398
 10
620.095861597
 20
119.4757962503
  0
LINE
  5
241
330
1F
100
AcDbEntity
  8
0
  6
Continuous
 62
     7
370
    15
100
AcDbLine
 10
649.5148553383
 20
104.9509042777
 30
0.0
 11
649.5148553383
 21
107.9509103574
 31
0.0
  0
LINE
  5
242
330
1F
100
AcDbEntity
  8
0
  6
Continuous
 62
     7
370
    15
100
AcDbLine
 10
649.5148553383
 20
107.9509103574
 30
0.0
 11
696.7764808666
 21
107.9509103574
 31
0.0
  0
LINE
  5
243
330
1F
100
AcDbEntity
  8
0
  6
Continuous
 62
     7
370
    15
100
AcDbLine
 10
602.2532298099
 20
107.9509103574
 30
0.0
 11
649.5148553383
 21
107.9509103574
 31
0.0
  0
LWPOLYLINE
  5
244
330
1F
100
AcDbEntity
  8
0
  6
Continuous
 62
     7
370
    15
100
AcDbPolyline
 90
        4
 70
   128
 43
0.0
 10
697.7768703234
 20
382.6008880414
 10
700.1456557643
 20
382.4378395356
 10
702.3805840742
 20
382.1451360263
 10
704.6203589868
 20
381.9508993902
  0
LINE
  5
245
330
1F
100
AcDbEntity
  8
0
  6
Continuous
 62
     7
370
    15
100
AcDbLine
 10
704.6203589868
 20
381.9508993902
 30
0.0
 11
602.2532298099
 21
381.9508993902
 31
0.0
  0
LWPOLYLINE
  5
246
330
1F
100
AcDbEntity
  8
0
  6
Continuous
 62
     7
370
    15
100
AcDbPolyline
 90
       11
 70
   128
 43
0.0
 10
649.5148553383
 20
384.9509054698
 10
649.5194310802
 20
384.9255436935
 10
649.5362832499
 20
384.8960244932
 10
649.582501546
 20
384.853392271
 10
649.8261994436
 20
384.741812376
 10
650.8601533584
 20
384.5171177663
 10
655.0489286762
 20
384.0782189645
 10
663.4298949372
 20
383.5900271215
 10
671.799828751
 20
383.2582676687
 10
684.8832643461
 20
382.8782731571
 10
697.7768703234
 20
382.6008880414
  0
LINE
  5
247
330
1F
100
AcDbEntity
  8
0
  6
Continuous
 62
     7
370
    15
100
AcDbLine
 10
649.5148553383
 20
397.9509020128
 30
0.0
 11
697.7768703234
 21
397.9509020128
 31
0.0
  0
LINE
  5
248
330
1F
100
AcDbEntity
  8
0
  6
Continuous
 62
     7
370
    15
100
AcDbLine
 10
649.5148553383
 20
384.9509054698
 30
0.0
 11
649.5148553383
 21
397.9509020128
 31
0.0
  0
LINE
  5
249
330
1F
100
AcDbEntity
  8
0
  6
Continuous
 62
     7
370
    15
100
AcDbLine
 10
649.5148553383
 20
104.9509042777
 30
0.0
 11
649.5148553383
 21
91.9509077348
 31
0.0
  0
LINE
  5
24A
330
1F
100
AcDbEntity
  8
0
  6
Continuous
 62
     7
370
    15
100
AcDbLine
 10
649.5148553383
 20
91.9509077348
 30
0.0
 11
697.7768703234
 21
91.9509077348
 31
0.0
  0
LINE
  5
24B
330
1F
100
AcDbEntity
  8
0
  6
Continuous
 62
     7
370
    15
100
AcDbLine
 10
601.2528403532
 20
397.9509020128
 30
0.0
 11
649.5148553383
 21
397.9509020128
 31
0.0
  0
LINE
  5
24C
330
1F
100
AcDbEntity
  8
0
  6
Continuous
 62
     7
370
    15
100
AcDbLine
 10
601.2528403532
 20
91.9509077348
 30
0.0
 11
649.5148553383
 21
91.9509077348
 31
0.0
  0
LINE
  5
24D
330
1F
100
AcDbEntity
  8
0
  6
Continuous
 62
     7
370
    15
100
AcDbLine
 10
697.7768703234
 20
91.9509077348
 30
0.0
 11
708.4396160077
 21
91.9509077348
 31
0.0
  0
LINE
  5
24E
330
1F
100
AcDbEntity
  8
0
  6
Continuous
 62
     7
370
    15
100
AcDbLine
 10
696.7764808666
 20
107.9509103574
 30
0.0
 11
705.6113271844
 21
107.9509103574
 31
0.0
  0
LINE
  5
24F
330
1F
100
AcDbEntity
  8
0
  6
Continuous
 62
     7
370
    15
100
AcDbLine
 10
704.6203589868
 20
381.9508993902
 30
0.0
 11
708.4396160077
 21
381.9508993902
 31
0.0
  0
LINE
  5
250
330
1F
100
AcDbEntity
  8
0
  6
Continuous
 62
     7
370
    15
100
AcDbLine
 10
697.7768703234
 20
397.9509020128
 30
0.0
 11
708.4396160077
 21
397.9509020128
 31
0.0
  0
LINE
  5
251
330
1F
100
AcDbEntity
  8
0
  6
Continuous
 62
     7
370
    15
100
AcDbLine
 10
593.4183834922
 20
107.9509103574
 30
0.0
 11
602.2532298099
 21
107.9509103574
 31
0.0
  0
LINE
  5
252
330
1F
100
AcDbEntity
  8
0
  6
Continuous
 62
     7
370
    15
100
AcDbLine
 10
590.5900946688
 20
91.9509077348
 30
0.0
 11
601.2528403532
 21
91.9509077348
 31
0.0
  0
LINE
  5
253
330
1F
100
AcDbEntity
  8
0
  6
Continuous
 62
     7
370
    15
100
AcDbLine
 10
590.5900946688
 20
397.9509020128
 30
0.0
 11
601.2528403532
 21
397.9509020128
 31
0.0
  0
LINE
  5
254
330
1F
100
AcDbEntity
  8
0
  6
Continuous
 62
     7
370
    15
100
AcDbLine
 10
602.2532298099
 20
381.9508993902
 30
0.0
 11
593.4183834922
 21
381.9508993902
 31
0.0
  0
LINE
  5
255
330
1F
100
AcDbEntity
  8
0
  6
Continuous
 62
     7
370
    15
100
AcDbLine
 10
649.5148553383
 20
89.9509036817
 30
0.0
 11
699.5148560833
 21
89.9509036817
 31
0.0
  0
LINE
  5
256
330
1F
100
AcDbEntity
  8
0
  6
Continuous
 62
     7
370
    15
100
AcDbLine
 10
599.5148545932
 20
89.9509036817
 30
0.0
 11
649.5148553383
 21
89.9509036817
 31
0.0
  0
LINE
  5
257
330
1F
100
AcDbEntity
  8
0
  6
Continuous
 62
     7
370
    15
100
AcDbLine
 10
649.5148553383
 20
399.9509060659
 30
0.0
 11
699.5148560833
 21
399.9509060659
 31
0.0
  0
LINE
  5
258
330
1F
100
AcDbEntity
  8
0
  6
Continuous
 62
     7
370
    15
100
AcDbLine
 10
599.5148545932
 20
399.9509060659
 30
0.0
 11
649.5148553383
 21
399.9509060659
 31
0.0
  0
LINE
  5
259
330
1F
100
AcDbEntity
  8
0
  6
Continuous
 62
     7
370
    15
100
AcDbLine
 10
717.0148580205
 20
367.9509529747
 30
0.0
 11
717.0148580205
 21
397.9509020128
 31
0.0
  0
LINE
  5
25A
330
1F
100
AcDbEntity
  8
0
  6
Continuous
 62
     7
370
    15
100
AcDbLine
 10
708.4396160077
 20
381.9508993902
 30
0.0
 11
716.3828029167
 21
381.9508993902
 31
0.0
  0
LINE
  5
25B
330
1F
100
AcDbEntity
  8
0
  6
Continuous
 62
     7
370
    15
100
AcDbLine
 10
708.4396160077
 20
397.9509020128
 30
0.0
 11
717.0148580205
 21
397.9509020128
 31
0.0
  0
LINE
  5
25C
330
1F
100
AcDbEntity
  8
0
  6
Continuous
 62
     7
370
    15
100
AcDbLine
 10
717.0148580205
 20
121.9508567728
 30
0.0
 11
717.0148580205
 21
91.9509077348
 31
0.0
  0
ARC
  5
25D
330
1F
100
AcDbEntity
  8
0
  6
Continuous
 62
     7
370
    15
100
AcDbCircle
 10
820.6784837566
 20
110.1747849327
 30
0.0
 40
104.3420400034419
100
AcDbArc
 50
173.6749168435
 51
182.8697109113
  0
LINE
  5
25E
330
1F
100
AcDbEntity
  8
0
  6
Continuous
 62
     7
370
    15
100
AcDbLine
 10
708.4396160077
 20
91.9509077348
 30
0.0
 11
717.0148580205
 21
91.9509077348
 31
0.0
  0
ARC
  5
25F
330
1F
100
AcDbEntity
  8
0
  6
Continuous
 62
     7
370
    15
100
AcDbCircle
 10
712.9919961534
 20
104.4461655368
 30
0.0
 40
3.511758234573796
100
AcDbArc
 50
8.2636398452
 51
83.4898264648
  0
LINE
  5
260
330
1F
100
AcDbEntity
  8
0
  6
Continuous
 62
     7
370
    15
100
AcDbLine
 10
713.0821882617
 20
107.9509103574
 30
0.0
 11
713.3901580107
 21
107.9352790393
 31
0.0
  0
LINE
  5
261
330
1F
100
AcDbEntity
  8
0
  6
Continuous
 62
     7
370
    15
100
AcDbLine
 10
705.6113271844
 20
107.9509103574
 30
0.0
 11
713.0821882617
 21
107.9509103574
 31
0.0
  0
LINE
  5
262
330
1F
100
AcDbEntity
  8
0
  6
Continuous
 62
     7
370
    15
100
AcDbLine
 10
582.0148526561
 20
384.9509054698
 30
0.0
 11
582.0148526561
 21
397.9509020128
 31
0.0
  0
LINE
  5
263
330
1F
100
AcDbEntity
  8
0
  6
Continuous
 62
     7
370
    15
100
AcDbLine
 10
582.0148526561
 20
397.9509020128
 30
0.0
 11
590.5900946688
 21
397.9509020128
 31
0.0
  0
ARC
  5
264
330
1F
100
AcDbEntity
  8
0
  6
Continuous
 62
     7
370
    15
100
AcDbCircle
 10
585.0151834452
 20
104.950579553
 30
0.0
 40
3.000330806663972
100
AcDbArc
 50
90.0022169716
 51
179.993798898
  0
LINE
  5
265
330
1F
100
AcDbEntity
  8
0
  6
Continuous
 62
     7
370
    15
100
AcDbLine
 10
585.015067352
 20
107.9509103574
 30
0.0
 11
593.4183834922
 21
107.9509103574
 31
0.0
  0
ARC
  5
266
330
1F
100
AcDbEntity
  8
0
  6
Continuous
 62
     7
370
    15
100
AcDbCircle
 10
585.0151834452
 20
384.9512301946
 30
0.0
 40
3.000330806663972
100
AcDbArc
 50
180.006201102
 51
269.9977830284
  0
LINE
  5
267
330
1F
100
AcDbEntity
  8
0
  6
Continuous
 62
     7
370
    15
100
AcDbLine
 10
593.4183834922
 20
381.9508993902
 30
0.0
 11
585.015067352
 21
381.9508993902
 31
0.0
  0
LINE
  5
268
330
1F
100
AcDbEntity
  8
0
  6
Continuous
 62
     7
370
    15
100
AcDbLine
 10
582.0148526561
 20
104.9509042777
 30
0.0
 11
582.0148526561
 21
91.9509077348
 31
0.0
  0
LINE
  5
269
330
1F
100
AcDbEntity
  8
0
  6
Continuous
 62
     7
370
    15
100
AcDbLine
 10
582.0148526561
 20
91.9509077348
 30
0.0
 11
590.5900946688
 21
91.9509077348
 31
0.0
  0
LINE
  5
26A
330
1F
100
AcDbEntity
  8
0
  6
Continuous
 62
     7
370
    15
100
AcDbLine
 10
646.5148553122
 20
369.6478450574
 30
0.0
 11
646.5148553122
 21
381.9508993902
 31
0.0
  0
ARC
  5
26B
330
1F
100
AcDbEntity
  8
0
  6
Continuous
 62
     7
370
    15
100
AcDbCircle
 10
649.5148553383
 20
354.9509048738
 30
0.0
 40
15.0000000000001
100
AcDbArc
 50
101.5369590328
 51
78.4630409672
  0
LINE
  5
26C
330
1F
100
AcDbEntity
  8
0
  6
Continuous
 62
     7
370
    15
100
AcDbLine
 10
652.5148553644
 20
369.6478450574
 30
0.0
 11
652.5148553644
 21
381.9508993902
 31
0.0
  0
LINE
  5
26D
330
1F
100
AcDbEntity
  8
0
  6
Continuous
 62
     7
370
    15
100
AcDbLine
 10
652.5148553644
 20
340.253963498
 30
0.0
 11
652.5148553644
 21
286.1229138352
 31
0.0
  0
LINE
  5
26E
330
1F
100
AcDbEntity
  8
0
  6
Continuous
 62
     7
370
    15
100
AcDbLine
 10
646.5148553122
 20
340.253963498
 30
0.0
 11
646.5148553122
 21
286.1229138352
 31
0.0
  0
LWPOLYLINE
  5
26F
330
1F
100
AcDbEntity
  8
0
  6
Continuous
 62
     7
370
    15
100
AcDbPolyline
 90
        3
 70
   128
 43
0.0
 10
677.2215957623
 20
108.9633399524
 10
679.1711798739
 20
108.1298136987
 10
680.6589714121
 20
107.9509103574
  0
ARC
  5
270
330
1F
100
AcDbEntity
  8
0
  6
Continuous
 62
     7
370
    15
100
AcDbCircle
 10
615.2455344861
 20
112.9570991854
 30
0.0
 40
5.0061951769259
100
AcDbArc
 50
269.9087494152
 51
1.8750084276
  0
ARC
  5
271
330
1F
100
AcDbEntity
  8
0
  6
Continuous
 62
     7
370
    15
100
AcDbCircle
 10
681.7786243493
 20
116.0311758009
 30
0.0
 40
8.409566761927788
100
AcDbArc
 50
196.8258217871
 51
237.1878634789
  0
ARC
  5
272
330
1F
100
AcDbEntity
  8
0
  6
Continuous
 62
     7
370
    15
100
AcDbCircle
 10
615.6527538612
 20
376.9375269433
 30
0.0
 40
5.013379574723336
100
AcDbArc
 50
0.1031552346
 51
90.0966170199
  0
ARC
  5
273
330
1F
100
AcDbEntity
  8
0
  6
Continuous
 62
     7
370
    15
100
AcDbCircle
 10
649.5148553383
 20
244.9509048738
 30
0.0
 40
35.0
100
AcDbArc
 50
85.0828996645
 51
94.9171003355
  0
LINE
  5
274
330
1F
100
AcDbEntity
  8
0
  6
Continuous
 62
     7
370
    15
100
AcDbLine
 10
646.5148553122
 20
279.8220956601
 30
0.0
 11
646.5148553122
 21
286.1229138352
 31
0.0
  0
LINE
  5
275
330
1F
100
AcDbEntity
  8
0
  6
Continuous
 62
     7
370
    15
100
AcDbLine
 10
652.5148553644
 20
286.1229138352
 30
0.0
 11
652.5148553644
 21
279.8220956601
 31
0.0
  0
ARC
  5
276
330
1F
100
AcDbEntity
  8
0
  6
Continuous
 62
     7
370
    15
100
AcDbCircle
 10
649.5148553383
 20
244.9509048738
 30
0.0
 40
35.0
100
AcDbArc
 50
94.9171003355
 51
206.1990926686
  0
ARC
  5
277
330
1F
100
AcDbEntity
  8
0
  6
Continuous
 62
     7
370
    15
100
AcDbCircle
 10
649.5148553383
 20
244.9509048738
 30
0.0
 40
35.00000000000006
100
AcDbArc
 50
334.300804874
 51
85.0828996645
  0
LWPOLYLINE
  5
278
330
1F
100
AcDbEntity
  8
0
  6
Continuous
 62
     7
370
    15
100
AcDbPolyline
 90
        7
 70
   128
 43
0.0
 10
632.9727279823
 20
351.6457671203
 10
630.7694404256
 20
350.9224424042
 10
628.7008705419
 20
350.204839734
 10
625.3311722409
 20
349.0049460806
 10
622.8225971442
 20
348.1942186035
 10
621.3492448311
 20
347.9185620226
 10
620.6386699211
 20
347.8782767333
  0
LWPOLYLINE
  5
279
330
1F
100
AcDbEntity
  8
0
  6
Continuous
 62
     7
370
    15
100
AcDbPolyline
 90
        4
 70
   128
 43
0.0
 10
620.6386699211
 20
347.8782767333
 10
620.6474392545
 20
356.6989445962
 10
620.6558174323
 20
365.5196050085
 10
620.6661253106
 20
376.9465530195
  0
LWPOLYLINE
  5
27A
330
1F
100
AcDbEntity
  8
0
  6
Continuous
 62
     7
370
    15
100
AcDbPolyline
 90
        6
 70
   128
 43
0.0
 10
686.7457455825
 20
340.8922845401
 10
686.2923405003
 20
340.4720717944
 10
684.9817014169
 20
339.2573663868
 10
682.9588129055
 20
337.3825469889
 10
680.4594392758
 20
335.066131679
 10
678.6778974217
 20
333.4149936117
  0
LINE
  5
27B
330
1F
100
AcDbEntity
  8
0
  6
Continuous
 62
     7
370
    15
100
AcDbLine
 10
678.6778974217
 20
333.4149936117
 30
0.0
 11
678.2020567786
 21
332.9739862956
 31
0.0
  0
LINE
  5
27C
330
1F
100
AcDbEntity
  8
0
  6
Continuous
 62
     7
370
    15
100
AcDbLine
 10
678.2020567786
 20
332.9739862956
 30
0.0
 11
652.5148553644
 21
309.1670641579
 31
0.0
  0
ARC
  5
27D
330
1F
100
AcDbEntity
  8
0
  6
Continuous
 62
     7
370
    15
100
AcDbCircle
 10
674.6962887263
 20
346.3507121894
 30
0.0
 40
54.07919751919869
100
AcDbArc
 50
178.3813619962
 51
223.2257334732
  0
LINE
  5
27E
330
1F
100
AcDbEntity
  8
0
  6
Continuous
 62
     7
370
    15
100
AcDbLine
 10
691.8010241222
 20
260.3418113567
 30
0.0
 11
690.07667665
 21
257.1364952155
 31
0.0
  0
LINE
  5
27F
330
1F
100
AcDbEntity
  8
0
  6
Continuous
 62
     7
370
    15
100
AcDbLine
 10
695.0063384008
 20
258.6174648158
 30
0.0
 11
691.8010241222
 21
260.3418113567
 31
0.0
  0
LINE
  5
280
330
1F
100
AcDbEntity
  8
0
  6
Continuous
 62
     7
370
    15
100
AcDbLine
 10
693.8091940116
 20
258.2578187712
 30
0.0
 11
695.0063384008
 21
258.6174648158
 31
0.0
  0
ARC
  5
281
330
1F
100
AcDbEntity
  8
0
  6
Continuous
 62
     7
370
    15
100
AcDbCircle
 10
649.5148553383
 20
244.9509048738
 30
0.0
 40
46.25
100
AcDbArc
 50
1.526179454
 51
16.7213289831
  0
LINE
  5
282
330
1F
100
AcDbEntity
  8
0
  6
Continuous
 62
     7
370
    15
100
AcDbLine
 10
697.0148547422
 20
244.9510466304
 30
0.0
 11
695.7484497559
 21
246.1827137877
 31
0.0
  0
ARC
  5
283
330
1F
100
AcDbEntity
  8
0
  6
Continuous
 62
     7
370
    15
100
AcDbCircle
 10
649.5148553383
 20
244.9509048738
 30
0.0
 40
47.50000000000006
100
AcDbArc
 50
340.0
 51
0.0001709907
  0
LINE
  5
284
330
1F
100
AcDbEntity
  8
0
  6
Continuous
 62
     7
370
    15
100
AcDbLine
 10
692.5904876422
 20
231.9320751257
 30
0.0
 11
694.1502555143
 21
228.7049474098
 31
0.0
  0
LINE
  5
285
330
1F
100
AcDbEntity
  8
0
  6
Continuous
 62
     7
370
    15
100
AcDbLine
 10
689.45179273
 20
230.4150484406
 30
0.0
 11
692.5904876422
 21
231.9320751257
 31
0.0
  0
ARC
  5
286
330
1F
100
AcDbEntity
  8
0
  6
Continuous
 62
     7
370
    15
100
AcDbCircle
 10
649.5148553383
 20
244.9509048738
 30
0.0
 40
42.5000000000001
100
AcDbArc
 50
340.0
 51
0.0
  0
LINE
  5
287
330
1F
100
AcDbEntity
  8
0
  6
Continuous
 62
     7
370
    15
100
AcDbLine
 10
693.2465224397
 20
246.2173116064
 30
0.0
 11
692.0148557853
 21
244.9509048738
 31
0.0
  0
ARC
  5
288
330
1F
100
AcDbEntity
  8
0
  6
Continuous
 62
     7
370
    15
100
AcDbCircle
 10
649.5148553383
 20
244.9509048738
 30
0.0
 40
43.75000000000011
100
AcDbArc
 50
1.6587405132
 51
16.7213289831
  0
LINE
  5
289
330
1F
100
AcDbEntity
  8
0
  6
Continuous
 62
     7
370
    15
100
AcDbLine
 10
690.07667665
 20
257.1364952155
 30
0.0
 11
691.4149052333
 21
257.5385266818
 31
0.0
  0
ARC
  5
28A
330
1F
100
AcDbEntity
  8
0
  6
Continuous
 62
     7
370
    15
100
AcDbCircle
 10
649.5148553383
 20
244.9509048738
 30
0.0
 40
50.71558813185686
100
AcDbArc
 50
307.5685243921
 51
86.6087795563
  0
ARC
  5
28B
330
1F
100
AcDbEntity
  8
0
  6
Continuous
 62
     7
370
    15
100
AcDbCircle
 10
649.5148553383
 20
244.9509048738
 30
0.0
 40
50.71558813185681
100
AcDbArc
 50
105.5064960085
 51
128.3872870819
  0
ARC
  5
28C
330
1F
100
AcDbEntity
  8
0
  6
Continuous
 62
     7
370
    15
100
AcDbCircle
 10
649.5148553383
 20
244.9509048738
 30
0.0
 40
50.71558813185684
100
AcDbArc
 50
93.3912204437
 51
105.5064960085
  0
ARC
  5
28D
330
1F
100
AcDbEntity
  8
0
  6
Continuous
 62
     7
370
    15
100
AcDbCircle
 10
649.5148553383
 20
244.9509048738
 30
0.0
 40
50.71558813185684
100
AcDbArc
 50
128.3872870819
 51
232.4507682066
  0
ARC
  5
28E
330
1F
100
AcDbEntity
  8
0
  6
Continuous
 62
     7
370
    15
100
AcDbCircle
 10
636.2972217901
 20
250.0669454449
 30
0.0
 40
103.8955999284619
100
AcDbArc
 50
56.5465206805
 51
60.9502158484
  0
ARC
  5
28F
330
1F
100
AcDbEntity
  8
0
  6
Continuous
 62
     7
370
    15
100
AcDbCircle
 10
636.2972217901
 20
250.0669454449
 30
0.0
 40
103.8955999284619
100
AcDbArc
 50
23.9005166606
 51
56.5465206805
  0
LWPOLYLINE
  5
290
330
1F
100
AcDbEntity
  8
0
  6
Continuous
 62
     7
370
    15
100
AcDbPolyline
 90
        7
 70
   128
 43
0.0
 10
731.2838076484
 20
292.1602310516
 10
730.7256772053
 20
291.8905125834
 10
729.114422096
 20
291.1117928006
 10
726.6314341556
 20
289.9115303435
 10
723.5553799998
 20
288.4241448619
 10
721.4435427319
 20
287.4026888885
 10
721.3744236957
 20
287.3692544081
  0
LWPOLYLINE
  5
291
330
1F
100
AcDbEntity
  8
0
  6
Continuous
 62
     7
370
    15
100
AcDbPolyline
 90
        7
 70
   128
 43
0.0
 10
587.6003815662
 20
209.2045688905
 10
588.1635486018
 20
209.4635920502
 10
589.7893584203
 20
210.2114142753
 10
592.2948024105
 20
211.3639855661
 10
595.3987478148
 20
212.7921538331
 10
597.5321805906
 20
213.7739745803
 10
597.6000032257
 20
213.8051906504
  0
ARC
  5
292
330
1F
100
AcDbEntity
  8
0
  6
Continuous
 62
     7
370
    15
100
AcDbCircle
 10
652.0907417292
 20
236.3210481319
 30
0.0
 40
69.95934509351626
100
AcDbArc
 50
202.8054586207
 51
241.9669070146
  0
LWPOLYLINE
  5
293
330
1F
100
AcDbEntity
  8
0
  6
Continuous
 62
     7
370
    15
100
AcDbPolyline
 90
        7
 70
   128
 43
0.0
 10
691.2393695545
 20
172.6819271125
 10
690.9762895536
 20
173.2433358111
 10
690.2167252135
 20
174.8641649164
 10
689.0461756718
 20
177.3618081488
 10
687.5962293577
 20
180.4552892126
 10
686.6086884272
 20
182.5619781293
 10
686.5697144401
 20
182.6451228835
  0
ARC
  5
294
330
1F
100
AcDbEntity
  8
0
  6
Continuous
 62
     7
370
    15
100
AcDbCircle
 10
657.4795696185
 20
240.7060307414
 30
0.0
 40
75.94078344029356
100
AcDbArc
 50
287.0908043784
 51
296.3948241598
  0
ARC
  5
295
330
1F
100
AcDbEntity
  8
0
  6
Continuous
 62
     7
370
    15
100
AcDbCircle
 10
654.3175078864
 20
251.7813045659
 30
0.0
 40
86.91529546599017
100
AcDbArc
 50
339.8242794773
 51
27.6829080215
  0
LWPOLYLINE
  5
296
330
1F
100
AcDbEntity
  8
0
  6
Continuous
 62
     7
370
    15
100
AcDbPolyline
 90
        7
 70
   128
 43
0.0
 10
735.8996136915
 20
221.8041786827
 10
735.3143333327
 20
222.0088479944
 10
733.6245044004
 20
222.5997591295
 10
731.0205637347
 20
223.5102834083
 10
727.7957289349
 20
224.6378412374
 10
725.6187065374
 20
225.3989795126
 10
725.5145921242
 20
225.4353811868
  0
ARC
  5
297
330
1F
100
AcDbEntity
  8
0
  6
Continuous
 62
     7
370
    15
100
AcDbCircle
 10
658.1510190822
 20
247.6276092708
 30
0.0
 40
81.92492919827666
100
AcDbArc
 50
293.8213504325
 51
341.6266007366
  0
LWPOLYLINE
  5
298
330
1F
100
AcDbEntity
  8
0
  6
Continuous
 62
     7
370
    15
100
AcDbPolyline
 90
        7
 70
   128
 43
0.0
 10
585.2681561243
 20
262.165754465
 10
585.8488841783
 20
261.9485383757
 10
587.5255479347
 20
261.3214267321
 10
590.109245373
 20
260.355171179
 10
593.3091803324
 20
259.1586666085
 10
595.4800150227
 20
258.347112117
 10
595.5734378528
 20
258.3121893831
  0
ARC
  5
299
330
1F
100
AcDbEntity
  8
0
  6
Continuous
 62
     7
370
    15
100
AcDbCircle
 10
640.8956230254
 20
242.5039817501
 30
0.0
 40
58.99999999999988
100
AcDbArc
 50
110.9113497193
 51
160.5338195448
  0
ARC
  5
29A
330
1F
100
AcDbEntity
  8
0
  6
Continuous
 62
     7
370
    15
100
AcDbCircle
 10
645.7105342851
 20
238.2954774412
 30
0.0
 40
64.98515825127808
100
AcDbArc
 50
158.4496376253
 51
206.5933098394
  0
ARC
  5
29B
330
1F
100
AcDbEntity
  8
0
  6
Continuous
 62
     7
370
    15
100
AcDbCircle
 10
641.7293521297
 20
240.3219581168
 30
0.0
 40
61.33587913977582
100
AcDbArc
 50
98.5722241544
 51
110.9113497193
  0
ARC
  5
29C
330
1F
100
AcDbEntity
  8
0
  6
Continuous
 62
     7
370
    15
100
AcDbCircle
 10
683.7665858361
 20
129.467448886
 30
0.0
 40
4.81996740922629
100
AcDbArc
 50
226.1008090281
 51
270.6991203238
  0
ARC
  5
29D
330
1F
100
AcDbEntity
  8
0
  6
Continuous
 62
     7
370
    15
100
AcDbCircle
 10
714.0143471606
 20
121.9503296794
 30
0.0
 40
3.000510906193144
100
AcDbArc
 50
0.0100650294
 51
89.9863774507
  0
ARC
  5
29E
330
1F
100
AcDbEntity
  8
0
  6
Continuous
 62
     7
370
    15
100
AcDbCircle
 10
714.0146352631
 20
367.9511249539
 30
0.0
 40
3.000222762354143
100
AcDbArc
 50
270.0001539518
 51
359.9967156834
  0
LINE
  5
29F
330
1F
100
AcDbEntity
  8
0
  6
Continuous
 62
     7
370
    15
100
AcDbLine
 10
705.398929758
 20
124.647840289
 30
0.0
 11
683.8253973853
 21
124.647840289
 31
0.0
  0
LWPOLYLINE
  5
2A0
330
1F
100
AcDbEntity
  8
0
  6
Continuous
 62
     7
370
    15
100
AcDbPolyline
 90
        7
 70
   128
 43
0.0
 10
689.1195564401
 20
345.2932679929
 10
689.0761121046
 20
345.2126974143
 10
688.598410679
 20
344.3268159308
 10
687.8612874877
 20
342.9600888767
 10
687.265960021
 20
341.8564865269
 10
686.8795803618
 20
341.1403292693
 10
686.7457455825
 20
340.8922845401
  0
ARC
  5
2A1
330
1F
100
AcDbEntity
  8
0
  6
Continuous
 62
     7
370
    15
100
AcDbCircle
 10
696.3264726225
 20
340.9220673006
 30
0.0
 40
4.999598645982793
100
AcDbArc
 50
154.9960358184
 51
236.5504643905
  0
LINE
  5
2A2
330
1F
100
AcDbEntity
  8
0
  6
Continuous
 62
     7
370
    15
100
AcDbLine
 10
692.0596822035
 20
343.6019638457
 30
0.0
 11
691.7954436373
 21
343.0353024878
 31
0.0
  0
LWPOLYLINE
  5
2A3
330
1F
100
AcDbEntity
  8
0
  6
Continuous
 62
     7
370
    15
100
AcDbPolyline
 90
        3
 70
   128
 43
0.0
 10
632.5868717265
 20
300.9726399459
 10
632.4850297403
 20
300.9571986176
 10
632.4077616316
 20
300.9453708209
  0
ARC
  5
2A4
330
1F
100
AcDbEntity
  8
0
  6
Continuous
 62
     7
370
    15
100
AcDbCircle
 10
631.649140875
 20
305.8873746784
 30
0.0
 40
4.999890756797514
100
AcDbArc
 50
278.7270490483
 51
43.2505856027
  0
ARC
  5
2A5
330
1F
100
AcDbEntity
  8
0
  6
Continuous
 62
     7
370
    15
100
AcDbCircle
 10
707.8828577944
 20
358.2514319997
 30
0.0
 40
8.176536094502255
100
AcDbArc
 50
103.4660049199
 51
150.3423984433
  0
LWPOLYLINE
  5
2A6
330
1F
100
AcDbEntity
  8
0
  6
Continuous
 62
     7
370
    15
100
AcDbPolyline
 90
        4
 70
   128
 43
0.0
 10
700.7774649989
 20
362.2973108568
 10
700.6726390552
 20
362.072511939
 10
700.5673809778
 20
361.8467891492
 10
700.4619105589
 20
361.6206044235
  0
ARC
  5
2A7
330
1F
100
AcDbEntity
  8
0
  6
Continuous
 62
     7
370
    15
100
AcDbCircle
 10
688.4379574462
 20
165.9197442509
 30
0.0
 40
4.999999999999976
100
AcDbArc
 50
112.4875046755
 51
205.0
  0
LINE
  5
2A8
330
1F
100
AcDbEntity
  8
0
  6
Continuous
 62
     7
370
    15
100
AcDbLine
 10
700.7844797205
 20
127.6115322389
 30
0.0
 11
683.906418724
 21
163.8066539444
 31
0.0
  0
ARC
  5
2A9
330
1F
100
AcDbEntity
  8
0
  6
Continuous
 62
     7
370
    15
100
AcDbCircle
 10
705.4275851252
 20
129.766637579
 30
0.0
 40
5.118877496664473
100
AcDbArc
 50
204.8984524321
 51
269.6792577716
  0
LINE
  5
2AA
330
1F
100
AcDbEntity
  8
0
  6
Continuous
 62
     7
370
    15
100
AcDbLine
 10
700.4619105589
 20
361.6206044235
 30
0.0
 11
692.0596822035
 21
343.6019638457
 31
0.0
  0
ARC
  5
2AB
330
1F
100
AcDbEntity
  8
0
  6
Continuous
 62
     7
370
    15
100
AcDbCircle
 10
588.8295040342
 20
112.9509048738
 30
0.0
 40
5.000000000000014
100
AcDbArc
 50
270.0
 51
335.0
  0
LINE
  5
2AC
330
1F
100
AcDbEntity
  8
0
  6
Continuous
 62
     7
370
    15
100
AcDbLine
 10
593.3610438239
 20
110.8378166236
 30
0.0
 11
619.1662899088
 21
166.177346734
 31
0.0
  0
ARC
  5
2AD
330
1F
100
AcDbEntity
  8
0
  6
Continuous
 62
     7
370
    15
100
AcDbCircle
 10
622.8824264648
 20
303.9241770579
 30
0.0
 40
5.000000000000034
100
AcDbArc
 50
286.5058716989
 51
25.0
  0
LINE
  5
2AE
330
1F
100
AcDbEntity
  8
0
  6
Continuous
 62
     7
370
    15
100
AcDbLine
 10
593.3610438239
 20
379.0639931239
 30
0.0
 11
627.413965283
 21
306.0372689642
 31
0.0
  0
ARC
  5
2AF
330
1F
100
AcDbEntity
  8
0
  6
Continuous
 62
     7
370
    15
100
AcDbCircle
 10
588.8295040342
 20
376.9509048738
 30
0.0
 40
5.0
100
AcDbArc
 50
25.0
 51
90.0
  0
LINE
  5
2B0
330
1F
100
AcDbEntity
  8
0
  6
Continuous
 62
     7
370
    15
100
AcDbLine
 10
604.1042967569
 20
185.4131812133
 30
0.0
 11
598.9933512043
 21
186.3115200676
 31
0.0
  0
ARC
  5
2B1
330
1F
100
AcDbEntity
  8
0
  6
Continuous
 62
     7
370
    15
100
AcDbCircle
 10
600.7244874364
 20
196.1605369719
 30
0.0
 40
9.999999999999998
100
AcDbArc
 50
189.9688991891
 51
260.0311008109
  0
LINE
  5
2B2
330
1F
100
AcDbEntity
  8
0
  6
Continuous
 62
     7
370
    15
100
AcDbLine
 10
590.8754705321
 20
194.4294007398
 30
0.0
 11
588.7229158413
 21
206.6760057487
 31
0.0
  0
LINE
  5
2B3
330
1F
100
AcDbEntity
  8
0
  6
Continuous
 62
     7
370
    15
100
AcDbLine
 10
584.8124860656
 20
260.9780294724
 30
0.0
 11
590.8754705321
 21
295.4724090077
 31
0.0
  0
ARC
  5
2B4
330
1F
100
AcDbEntity
  8
0
  6
Continuous
 62
     7
370
    15
100
AcDbCircle
 10
600.7244874364
 20
293.7412727757
 30
0.0
 40
9.999999999999936
100
AcDbArc
 50
99.9688991891
 51
170.0311008109
  0
LINE
  5
2B5
330
1F
100
AcDbEntity
  8
0
  6
Continuous
 62
     7
370
    15
100
AcDbLine
 10
598.9933512043
 20
303.5902896799
 30
0.0
 11
626.3156304937
 21
308.3926582612
 31
0.0
  0
ARC
  5
2B6
330
1F
100
AcDbEntity
  8
0
  6
Continuous
 62
     7
370
    15
100
AcDbCircle
 10
649.5148553383
 20
244.9509048738
 30
0.0
 40
69.99999999999997
100
AcDbArc
 50
164.9738862409
 51
193.5214606935
  0
ARC
  5
2B7
330
1F
100
AcDbEntity
  8
0
  6
Continuous
 62
     7
370
    15
100
AcDbCircle
 10
584.3228312863
 20
262.4509048738
 30
0.0
 40
2.499999999999976
100
AcDbArc
 50
104.3246670498
 51
164.9738862409
  0
ARC
  5
2B8
330
1F
100
AcDbEntity
  8
0
  6
Continuous
 62
     7
370
    15
100
AcDbCircle
 10
582.9620423421
 20
267.7799060419
 30
0.0
 40
3.000000000000039
100
AcDbArc
 50
284.3246670498
 51
350.0311008109
  0
ARC
  5
2B9
330
1F
100
AcDbEntity
  8
0
  6
Continuous
 62
     7
370
    15
100
AcDbCircle
 10
649.5148553383
 20
244.9509048738
 30
0.0
 40
69.99999999999993
100
AcDbArc
 50
151.8362284722
 51
164.9738862409
  0
ARC
  5
2BA
330
1F
100
AcDbEntity
  8
0
  6
Continuous
 62
     7
370
    15
100
AcDbCircle
 10
649.5148553383
 20
244.9509048738
 30
0.0
 40
70.00000000000003
100
AcDbArc
 50
110.2586817712
 51
118.1637715278
  0
LINE
  5
2BB
330
1F
100
AcDbEntity
  8
SLD-0
  6
CENTERX2
370
     0
100
AcDbLine
 10
544.5175608582
 20
244.9509048738
 30
0.0
 11
768.1563538324
 21
244.9509048738
 31
0.0
  0
LINE
  5
2BC
330
1F
100
AcDbEntity
  8
SLD-0
  6
CENTERX2
370
     0
100
AcDbLine
 10
649.5148553383
 20
74.8424693454
 30
0.0
 11
649.5148553383
 21
411.2662839923
 31
0.0
  0
LINE
  5
2BD
330
1F
100
AcDbEntity
  8
0
  6
Continuous
 62
     7
370
     0
100
AcDbLine
 10
580.7253733963
 20
437.2709075283
 30
0.0
 11
741.2328065128
 21
437.2709075283
 31
0.0
  0
ARC
  5
2BE
330
1F
100
AcDbEntity
  8
0
  6
Continuous
 62
     7
370
    15
100
AcDbCircle
 10
649.514855513
 20
437.3038298544
 30
0.0
 40
49.96710982707323
100
AcDbArc
 50
359.9622489578
 51
180.0377510422
  0
ARC
  5
2BF
330
1F
100
AcDbEntity
  8
0
  6
Continuous
 62
     7
370
    15
100
AcDbCircle
 10
649.5148545817
 20
437.303887903
 30
0.0
 40
24.96708034453733
100
AcDbArc
 50
359.9243148659
 51
180.0756851341
  0
CIRCLE
  5
2C0
330
1F
100
AcDbEntity
  8
0
  6
Continuous
 62
     7
370
    15
100
AcDbCircle
 10
691.9412639604
 20
479.6973154838
 30
0.0
 40
7.500001544709137
  0
CIRCLE
  5
2C1
330
1F
100
AcDbEntity
  8
0
  6
Continuous
 62
     7
370
    15
100
AcDbCircle
 10
607.0884457982
 20
479.6973164618
 30
0.0
 40
7.50000147349672
  0
ARC
  5
2C2
330
1F
100
AcDbEntity
  8
0
  6
Continuous
 62
     7
370
    15
100
AcDbCircle
 10
691.9412558033
 20
479.6973096812
 30
0.0
 40
17.50000840200624
100
AcDbArc
 50
19.4791334652
 51
70.5208665348
  0
ARC
  5
2C3
330
1F
100
AcDbEntity
  8
0
  6
Continuous
 62
     7
370
    15
100
AcDbCircle
 10
567.0252846487
 20
435.5134512866
 30
0.0
 40
149.9998695043172
100
AcDbArc
 50
0.6713176252
 51
19.4791278305
  0
ARC
  5
2C4
330
1F
100
AcDbEntity
  8
0
  6
Continuous
 62
     7
370
    15
100
AcDbCircle
 10
732.0045537588
 20
435.5134398402
 30
0.0
 40
149.9999969238061
100
AcDbArc
 50
160.5208847471
 51
179.3286814187
  0
ARC
  5
2C5
330
1F
100
AcDbEntity
  8
0
  6
Continuous
 62
     7
370
    15
100
AcDbCircle
 10
607.0884459768
 20
479.6973131631
 30
0.0
 40
17.50000203618177
100
AcDbArc
 50
109.4791087275
 51
160.5208712549
  0
ARC
  5
2C6
330
1F
100
AcDbEntity
  8
0
  6
Continuous
 62
     7
370
    15
100
AcDbCircle
 10
651.2723104575
 20
354.7813144414
 30
0.0
 40
149.9998911572222
100
AcDbArc
 50
90.6713141867
 51
109.4791236248
  0
ARC
  5
2C7
330
1F
100
AcDbEntity
  8
0
  6
Continuous
 62
     7
370
    15
100
AcDbCircle
 10
647.7573963268
 20
354.7812905685
 30
0.0
 40
149.9999150782304
100
AcDbArc
 50
70.5208778885
 51
89.3286843001
  0
ARC
  5
2C8
330
1F
100
AcDbEntity
  8
SLD-0
  6
CENTERX2
370
     0
100
AcDbCircle
 10
649.5148553383
 20
437.2709098055
 30
0.0
 40
60.0
100
AcDbArc
 50
0.0
 51
180.0
  0
ENDSEC
  0
SECTION
  2
OBJECTS
  0
DICTIONARY
  5
C
330
0
100
AcDbDictionary
281
     1
  3
ACAD_GROUP
350
D
  3
ACAD_LAYOUT
350
1A
  3
ACAD_MLEADERSTYLE
350
2CA
  3
ACAD_MLINESTYLE
350
17
  3
ACAD_PLOTSETTINGS
350
19
  3
ACAD_PLOTSTYLENAME
350
E
  3
ACAD_TABLESTYLE
350
2C9
  3
ACAD_VISUALSTYLE
350
2A
  3
AcDbVariableDictionary
350
2CB
  0
DICTIONARY
  5
D
102
{ACAD_REACTORS
330
C
102
}
330
C
100
AcDbDictionary
281
     1
  0
DICTIONARY
  5
1A
102
{ACAD_REACTORS
330
C
102
}
330
C
100
AcDbDictionary
281
     1
  3
Layout1
350
1E
  3
Layout2
350
26
  3
Model
350
22
  0
DICTIONARY
  5
2CA
102
{ACAD_REACTORS
330
C
102
}
330
C
100
AcDbDictionary
281
     1
  0
DICTIONARY
  5
17
102
{ACAD_REACTORS
330
C
102
}
330
C
100
AcDbDictionary
281
     1
  3
Standard
350
18
  0
DICTIONARY
  5
19
102
{ACAD_REACTORS
330
C
102
}
330
C
100
AcDbDictionary
281
     1
  0
ACDBDICTIONARYWDFLT
  5
E
102
{ACAD_REACTORS
330
C
102
}
330
C
100
AcDbDictionary
281
     1
  3
Normal
350
F
100
AcDbDictionaryWithDefault
340
F
  0
DICTIONARY
  5
2C9
102
{ACAD_REACTORS
330
C
102
}
330
C
100
AcDbDictionary
281
     1
  0
DICTIONARY
  5
2A
102
{ACAD_REACTORS
330
C
102
}
330
C
100
AcDbDictionary
281
     1
  3
2dWireframe
350
2F
  3
3D Hidden
350
31
  3
3dWireframe
350
30
  3
Basic
350
32
  3
Brighten
350
36
  3
ColorChange
350
3A
  3
Conceptual
350
34
  3
Dim
350
35
  3
Facepattern
350
39
  3
Flat
350
2B
  3
FlatWithEdges
350
2C
  3
Gouraud
350
2D
  3
GouraudWithEdges
350
2E
  3
Linepattern
350
38
  3
Realistic
350
33
  3
Thicken
350
37
  0
DICTIONARY
  5
2CB
102
{ACAD_REACTORS
330
C
102
}
330
C
100
AcDbDictionary
281
     1
  3
PSOLHEIGHT
350
2CD
  3
PSOLWIDTH
350
2CC
  0
LAYOUT
  5
1E
102
{ACAD_REACTORS
330
1A
102
}
330
1A
100
AcDbPlotSettings
  1

  2
none_device
  4

  6

 40
0.0
 41
0.0
 42
0.0
 43
0.0
 44
0.0
 45
0.0
 46
0.0
 47
0.0
 48
0.0
 49
0.0
140
0.0
141
0.0
142
1.0
143
1.0
 70
   688
 72
     0
 73
     0
 74
     5
  7

 75
    16
147
1.0
148
0.0
149
0.0
100
AcDbLayout
  1
Layout1
 70
     1
 71
     1
 10
0.0
 20
0.0
 11
420.0
 21
297.0
 12
0.0
 22
0.0
 32
0.0
 14
1.0000000000E+20
 24
1.0000000000E+20
 34
1.0000000000E+20
 15
-1.0000000000E+20
 25
-1.0000000000E+20
 35
-1.0000000000E+20
146
0.0
 13
0.0
 23
0.0
 33
0.0
 16
1.0
 26
0.0
 36
0.0
 17
0.0
 27
1.0
 37
0.0
 76
     0
330
1B
  0
LAYOUT
  5
26
102
{ACAD_REACTORS
330
1A
102
}
330
1A
100
AcDbPlotSettings
  1

  2
none_device
  4

  6

 40
0.0
 41
0.0
 42
0.0
 43
0.0
 44
0.0
 45
0.0
 46
0.0
 47
0.0
 48
0.0
 49
0.0
140
0.0
141
0.0
142
1.0
143
1.0
 70
   688
 72
     0
 73
     0
 74
     5
  7

 75
    16
147
1.0
148
0.0
149
0.0
100
AcDbLayout
  1
Layout2
 70
     1
 71
     2
 10
0.0
 20
0.0
 11
0.0
 21
0.0
 12
0.0
 22
0.0
 32
0.0
 14
0.0
 24
0.0
 34
0.0
 15
0.0
 25
0.0
 35
0.0
146
0.0
 13
0.0
 23
0.0
 33
0.0
 16
1.0
 26
0.0
 36
0.0
 17
0.0
 27
1.0
 37
0.0
 76
     0
330
23
  0
LAYOUT
  5
22
102
{ACAD_REACTORS
330
1A
102
}
330
1A
100
AcDbPlotSettings
  1

  2
none_device
  4

  6

 40
0.0
 41
0.0
 42
0.0
 43
0.0
 44
0.0
 45
0.0
 46
0.0
 47
0.0
 48
0.0
 49
0.0
140
0.0
141
0.0
142
1.0
143
1.0
 70
  1712
 72
     0
 73
     0
 74
     0
  7

 75
     0
147
1.0
148
0.0
149
0.0
100
AcDbLayout
  1
Model
 70
     1
 71
     0
 10
0.0
 20
0.0
 11
841.0
 21
594.0
 12
0.0
 22
0.0
 32
0.0
 14
0.0
 24
0.0
 34
0.0
 15
841.0
 25
594.0
 35
0.0
146
0.0
 13
0.0
 23
0.0
 33
0.0
 16
1.0
 26
0.0
 36
0.0
 17
0.0
 27
1.0
 37
0.0
 76
     0
330
1F
331
29
  0
MLINESTYLE
  5
18
102
{ACAD_REACTORS
330
17
102
}
330
17
100
AcDbMlineStyle
  2
Standard
 70
     0
  3

 62
   256
 51
90.0
 52
90.0
 71
     2
 49
0.5
 62
   256
  6
BYLAYER
 49
-0.5
 62
   256
  6
BYLAYER
  0
ACDBPLACEHOLDER
  5
F
102
{ACAD_REACTORS
330
E
102
}
330
E
  0
VISUALSTYLE
  5
2F
102
{ACAD_REACTORS
330
2A
102
}
330
2A
100
AcDbVisualStyle
  2
2dWireframe
 70
     4
 71
     0
 72
     2
 73
     0
 90
        0
 40
-0.6
 41
-30.0
 62
     5
 63
     7
 74
     1
 91
        4
 64
     7
 65
   257
 75
     1
175
     1
 42
1.0
 92
        0
 66
   257
 43
1.0
 76
     1
 77
     6
 78
     2
 67
     7
 79
     5
170
     0
171
     0
290
     0
174
     0
 93
        1
 44
0.0
173
     0
291
     0
 45
0.0
1001
ACAD
1000
AcDbSavedByObjectVersion
1070
     0
  0
VISUALSTYLE
  5
31
102
{ACAD_REACTORS
330
2A
102
}
330
2A
100
AcDbVisualStyle
  2
3D Hidden
 70
     6
 71
     1
 72
     2
 73
     2
 90
        0
 40
-0.6
 41
-30.0
 62
     5
 63
     7
 74
     2
 91
        2
 64
     7
 65
   257
 75
     2
175
     1
 42
40.0
 92
        0
 66
   257
 43
1.0
 76
     1
 77
     6
 78
     2
 67
     7
 79
     3
170
     0
171
     0
290
     0
174
     0
 93
        1
 44
0.0
173
     0
291
     0
 45
0.0
1001
ACAD
1000
AcDbSavedByObjectVersion
1070
     0
  0
VISUALSTYLE
  5
30
102
{ACAD_REACTORS
330
2A
102
}
330
2A
100
AcDbVisualStyle
  2
3dWireframe
 70
     5
 71
     0
 72
     2
 73
     0
 90
        0
 40
-0.6
 41
-30.0
 62
     5
 63
     7
 74
     1
 91
        4
 64
     7
 65
   257
 75
     1
175
     1
 42
1.0
 92
        0
 66
   257
 43
1.0
 76
     1
 77
     6
 78
     2
 67
     7
 79
     5
170
     0
171
     0
290
     0
174
     0
 93
        1
 44
0.0
173
     0
291
     0
 45
0.0
1001
ACAD
1000
AcDbSavedByObjectVersion
1070
     0
  0
VISUALSTYLE
  5
32
102
{ACAD_REACTORS
330
2A
102
}
330
2A
100
AcDbVisualStyle
  2
Basic
 70
     7
 71
     1
 72
     0
 73
     1
 90
        0
 40
-0.6
 41
-30.0
 62
     5
 63
     7
 74
     0
 91
        4
 64
     7
 65
   257
 75
     1
175
     1
 42
1.0
 92
        8
 66
     7
 43
1.0
 76
     1
 77
     6
 78
     2
 67
     7
 79
     5
170
     0
171
     0
290
     0
174
     0
 93
        1
 44
0.0
173
     0
291
     1
 45
0.0
1001
ACAD
1000
AcDbSavedByObjectVersion
1070
     0
  0
VISUALSTYLE
  5
36
102
{ACAD_REACTORS
330
2A
102
}
330
2A
100
AcDbVisualStyle
  2
Brighten
 70
    12
 71
     2
 72
     2
 73
     0
 90
        0
 40
-0.6
 41
-30.0
 62
     5
 63
     7
 74
     1
 91
        4
 64
     7
 65
   257
 75
     1
175
     1
 42
1.0
 92
        8
 66
     7
 43
1.0
 76
     1
 77
     6
 78
     2
 67
     7
 79
     5
170
     0
171
     0
290
     0
174
     0
 93
        1
 44
50.0
173
     0
291
     1
 45
0.0
1001
ACAD
1000
AcDbSavedByObjectVersion
1070
     0
  0
VISUALSTYLE
  5
3A
102
{ACAD_REACTORS
330
2A
102
}
330
2A
100
AcDbVisualStyle
  2
ColorChange
 70
    16
 71
     2
 72
     2
 73
     3
 90
        0
 40
-0.6
 41
-30.0
 62
     5
 63
     8
 74
     1
 91
        4
 64
     7
 65
   257
 75
     1
175
     1
 42
1.0
 92
        8
 66
     8
 43
1.0
 76
     1
 77
     6
 78
     2
 67
     7
 79
     5
170
     0
171
     0
290
     0
174
     0
 93
        1
 44
0.0
173
     0
291
     1
 45
0.0
1001
ACAD
1000
AcDbSavedByObjectVersion
1070
     0
  0
VISUALSTYLE
  5
34
102
{ACAD_REACTORS
330
2A
102
}
330
2A
100
AcDbVisualStyle
  2
Conceptual
 70
     9
 71
     3
 72
     2
 73
     0
 90
        0
 40
-0.6
 41
-30.0
 62
     5
 63
     7
 74
     2
 91
        2
 64
     7
 65
   257
 75
     1
175
     1
 42
40.0
 92
        8
 66
     7
 43
1.0
 76
     1
 77
     6
 78
     2
 67
     7
 79
     3
170
     0
171
     0
290
     0
174
     0
 93
        1
 44
0.0
173
     0
291
     0
 45
0.0
1001
ACAD
1000
AcDbSavedByObjectVersion
1070
     0
  0
VISUALSTYLE
  5
35
102
{ACAD_REACTORS
330
2A
102
}
330
2A
100
AcDbVisualStyle
  2
Dim
 70
    11
 71
     2
 72
     2
 73
     0
 90
        0
 40
-0.6
 41
-30.0
 62
     5
 63
     7
 74
     1
 91
        4
 64
     7
 65
   257
 75
     1
175
     1
 42
1.0
 92
        8
 66
     7
 43
1.0
 76
     1
 77
     6
 78
     2
 67
     7
 79
     5
170
     0
171
     0
290
     0
174
     0
 93
        1
 44
-50.0
173
     0
291
     1
 45
0.0
1001
ACAD
1000
AcDbSavedByObjectVersion
1070
     0
  0
VISUALSTYLE
  5
39
102
{ACAD_REACTORS
330
2A
102
}
330
2A
100
AcDbVisualStyle
  2
Facepattern
 70
    15
 71
     2
 72
     2
 73
     0
 90
        0
 40
-0.6
 41
-30.0
 62
     5
 63
     7
 74
     1
 91
        4
 64
     7
 65
   257
 75
     1
175
     1
 42
1.0
 92
        8
 66
     7
 43
1.0
 76
     1
 77
     6
 78
     2
 67
     7
 79
     5
170
     0
171
     0
290
     0
174
     0
 93
        1
 44
0.0
173
     0
291
     1
 45
0.0
1001
ACAD
1000
AcDbSavedByObjectVersion
1070
     0
  0
VISUALSTYLE
  5
2B
102
{ACAD_REACTORS
330
2A
102
}
330
2A
100
AcDbVisualStyle
  2
Flat
 70
     0
 71
     2
 72
     1
 73
     1
 90
        2
 40
-0.6
 41
30.0
 62
     5
 63
     7
 74
     0
 91
        4
 64
     7
 65
   257
 75
     1
175
     1
 42
1.0
 92
        8
 66
     7
 43
1.0
 76
     1
 77
     6
 78
     2
 67
     7
 79
     5
170
     0
171
     0
290
     0
174
     0
 93
       13
 44
0.0
173
     0
291
     1
 45
0.0
1001
ACAD
1000
AcDbSavedByObjectVersion
1070
     0
  0
VISUALSTYLE
  5
2C
102
{ACAD_REACTORS
330
2A
102
}
330
2A
100
AcDbVisualStyle
  2
FlatWithEdges
 70
     1
 71
     2
 72
     1
 73
     1
 90
        2
 40
-0.6
 41
30.0
 62
     5
 63
     7
 74
     1
 91
        4
 64
     7
 65
   257
 75
     1
175
     1
 42
1.0
 92
        0
 66
   257
 43
1.0
 76
     1
 77
     6
 78
     2
 67
     7
 79
     5
170
     0
171
     0
290
     0
174
     0
 93
       13
 44
0.0
173
     0
291
     1
 45
0.0
1001
ACAD
1000
AcDbSavedByObjectVersion
1070
     0
  0
VISUALSTYLE
  5
2D
102
{ACAD_REACTORS
330
2A
102
}
330
2A
100
AcDbVisualStyle
  2
Gouraud
 70
     2
 71
     2
 72
     2
 73
     1
 90
        2
 40
-0.6
 41
30.0
 62
     5
 63
     7
 74
     0
 91
        4
 64
     7
 65
   257
 75
     1
175
     1
 42
1.0
 92
        0
 66
     7
 43
1.0
 76
     1
 77
     6
 78
     2
 67
     7
 79
     5
170
     0
171
     0
290
     0
174
     0
 93
       13
 44
0.0
173
     0
291
     1
 45
0.0
1001
ACAD
1000
AcDbSavedByObjectVersion
1070
     0
  0
VISUALSTYLE
  5
2E
102
{ACAD_REACTORS
330
2A
102
}
330
2A
100
AcDbVisualStyle
  2
GouraudWithEdges
 70
     3
 71
     2
 72
     2
 73
     1
 90
        2
 40
-0.6
 41
30.0
 62
     5
 63
     7
 74
     1
 91
        4
 64
     7
 65
   257
 75
     1
175
     1
 42
1.0
 92
        0
 66
   257
 43
1.0
 76
     1
 77
     6
 78
     2
 67
     7
 79
     5
170
     0
171
     0
290
     0
174
     0
 93
       13
 44
0.0
173
     0
291
     1
 45
0.0
1001
ACAD
1000
AcDbSavedByObjectVersion
1070
     0
  0
VISUALSTYLE
  5
38
102
{ACAD_REACTORS
330
2A
102
}
330
2A
100
AcDbVisualStyle
  2
Linepattern
 70
    14
 71
     2
 72
     2
 73
     0
 90
        0
 40
-0.6
 41
-30.0
 62
     5
 63
     7
 74
     1
 91
        4
 64
     7
 65
   257
 75
     7
175
     7
 42
1.0
 92
        8
 66
     7
 43
1.0
 76
     1
 77
     6
 78
     2
 67
     7
 79
     5
170
     0
171
     0
290
     0
174
     0
 93
        1
 44
0.0
173
     0
291
     1
 45
0.0
1001
ACAD
1000
AcDbSavedByObjectVersion
1070
     0
  0
VISUALSTYLE
  5
33
102
{ACAD_REACTORS
330
2A
102
}
330
2A
100
AcDbVisualStyle
  2
Realistic
 70
     8
 71
     2
 72
     2
 73
     0
 90
        0
 40
-0.6
 41
-30.0
 62
     5
 63
     7
 74
     1
 91
        0
 64
     7
 65
   257
 75
     1
175
     1
 42
1.0
 92
        8
 66
     8
 43
1.0
 76
     1
 77
     6
 78
     2
 67
     7
 79
     5
170
     0
171
     0
290
     0
174
     0
 93
       13
 44
0.0
173
     0
291
     0
 45
0.0
1001
ACAD
1000
AcDbSavedByObjectVersion
1070
     0
  0
VISUALSTYLE
  5
37
102
{ACAD_REACTORS
330
2A
102
}
330
2A
100
AcDbVisualStyle
  2
Thicken
 70
    13
 71
     2
 72
     2
 73
     0
 90
        0
 40
-0.6
 41
-30.0
 62
     5
 63
     7
 74
     1
 91
        4
 64
     7
 65
   257
 75
     1
175
     1
 42
1.0
 92
       12
 66
     7
 43
1.0
 76
     1
 77
     6
 78
     2
 67
     7
 79
     5
170
     0
171
     0
290
     0
174
     0
 93
        1
 44
0.0
173
     0
291
     1
 45
0.0
1001
ACAD
1000
AcDbSavedByObjectVersion
1070
     0
  0
DICTIONARYVAR
  5
2CD
102
{ACAD_REACTORS
330
2CB
102
}
330
2CB
100
DictionaryVariables
280
     0
  1
80.000000
  0
DICTIONARYVAR
  5
2CC
102
{ACAD_REACTORS
330
2CB
102
}
330
2CB
100
DictionaryVariables
280
     0
  1
5.000000
  0
ENDSEC
  0
EOF
