  0
SECTION
  2
HEADER
  9
$ACADVER
  1
AC1014
  9
$ACADMAINTVER
 70
     9
  9
$DWGCODEPAGE
  3
DOS932
  9
$INSBASE
 10
0.0
 20
0.0
 30
0.0
  9
$EXTMIN
 10
0.0
 20
0.0
 30
0.0
  9
$EXTMAX
 10
210.0
 20
297.0
 30
0.0
  9
$LIMMIN
 10
0.0
 20
0.0
  9
$LIMMAX
 10
210.0
 20
297.0
  9
$ORTHOMODE
 70
     0
  9
$REGENMODE
 70
     1
  9
$FILLMODE
 70
     1
  9
$QTEXTMODE
 70
     0
  9
$MIRRTEXT
 70
     1
  9
$DRAGMODE
 70
     2
  9
$LTSCALE
 40
1.0
  9
$OSMODE
 70
    37
  9
$ATTMODE
 70
     1
  9
$TEXTSIZE
 40
3.5
  9
$TRACEWID
 40
1.0
  9
$TEXTSTYLE
  7
STANDARD
  9
$CLAYER
  8
0
  9
$CELTYPE
  6
BYLAYER
  9
$CECOLOR
 62
   256
  9
$CELTSCALE
 40
1.0
  9
$DELOBJ
 70
     1
  9
$DISPSILH
 70
     0
  9
$DIMSCALE
 40
1.0
  9
$DIMASZ
 40
2.0
  9
$DIMEXO
 40
1.0
  9
$DIMDLI
 40
3.75
  9
$DIMRND
 40
0.0
  9
$DIMDLE
 40
0.0
  9
$DIMEXE
 40
1.0
  9
$DIMTP
 40
0.0
  9
$DIMTM
 40
0.0
  9
$DIMTXT
 40
4.2333333333
  9
$DIMCEN
 40
2.5
  9
$DIMTSZ
 40
0.0
  9
$DIMTOL
 70
     0
  9
$DIMLIM
 70
     0
  9
$DIMTIH
 70
     1
  9
$DIMTOH
 70
     1
  9
$DIMSE1
 70
     0
  9
$DIMSE2
 70
     0
  9
$DIMTAD
 70
     1
  9
$DIMZIN
 70
     0
  9
$DIMBLK
  1

  9
$DIMASO
 70
     1
  9
$DIMSHO
 70
     1
  9
$DIMPOST
  1

  9
$DIMAPOST
  1

  9
$DIMALT
 70
     0
  9
$DIMALTD
 70
     3
  9
$DIMALTF
 40
0.0393700787
  9
$DIMLFAC
 40
1.0
  9
$DIMTOFL
 70
     1
  9
$DIMTVP
 40
0.0
  9
$DIMTIX
 70
     0
  9
$DIMSOXD
 70
     0
  9
$DIMSAH
 70
     0
  9
$DIMBLK1
  1

  9
$DIMBLK2
  1

  9
$DIMSTYLE
  2
ISO-25
  9
$DIMCLRD
 70
     0
  9
$DIMCLRE
 70
     0
  9
$DIMCLRT
 70
     0
  9
$DIMTFAC
 40
1.0
  9
$DIMGAP
 40
1.524
  9
$DIMJUST
 70
     0
  9
$DIMSD1
 70
     0
  9
$DIMSD2
 70
     0
  9
$DIMTOLJ
 70
     0
  9
$DIMTZIN
 70
     0
  9
$DIMALTZ
 70
     0
  9
$DIMALTTZ
 70
     0
  9
$DIMFIT
 70
     3
  9
$DIMUPT
 70
     0
  9
$DIMUNIT
 70
     2
  9
$DIMDEC
 70
     3
  9
$DIMTDEC
 70
     3
  9
$DIMALTU
 70
     2
  9
$DIMALTTD
 70
     3
  9
$DIMTXSTY
  7
STANDARD
  9
$DIMAUNIT
 70
     0
  9
$LUNITS
 70
     2
  9
$LUPREC
 70
     3
  9
$SKETCHINC
 40
1.0
  9
$FILLETRAD
 40
10.0
  9
$AUNITS
 70
     0
  9
$AUPREC
 70
     0
  9
$MENU
  1
.
  9
$ELEVATION
 40
0.0
  9
$PELEVATION
 40
0.0
  9
$THICKNESS
 40
0.0
  9
$LIMCHECK
 70
     0
  9
$CHAMFERA
 40
10.0
  9
$CHAMFERB
 40
10.0
  9
$CHAMFERC
 40
20.0
  9
$CHAMFERD
 40
0.0
  9
$SKPOLY
 70
     0
  9
$TDCREATE
 40
2456414.765092222
  9
$TDUPDATE
 40
2456414.765092234
  9
$TDINDWG
 40
0.0000000116
  9
$TDUSRTIMER
 40
0.0000000116
  9
$USRTIMER
 70
     1
  9
$ANGBASE
 50
0.0
  9
$ANGDIR
 70
     0
  9
$PDMODE
 70
     0
  9
$PDSIZE
 40
-1.0
  9
$PLINEWID
 40
0.0
  9
$COORDS
 70
     1
  9
$SPLFRAME
 70
     0
  9
$SPLINETYPE
 70
     6
  9
$SPLINESEGS
 70
     8
  9
$ATTDIA
 70
     0
  9
$ATTREQ
 70
     1
  9
$HANDLING
 70
     1
  9
$HANDSEED
  5
225
  9
$SURFTAB1
 70
     6
  9
$SURFTAB2
 70
     6
  9
$SURFTYPE
 70
     6
  9
$SURFU
 70
     6
  9
$SURFV
 70
     6
  9
$UCSNAME
  2

  9
$UCSORG
 10
0.0
 20
0.0
 30
0.0
  9
$UCSXDIR
 10
1.0
 20
0.0
 30
0.0
  9
$UCSYDIR
 10
0.0
 20
1.0
 30
0.0
  9
$PUCSNAME
  2

  9
$PUCSORG
 10
0.0
 20
0.0
 30
0.0
  9
$PUCSXDIR
 10
1.0
 20
0.0
 30
0.0
  9
$PUCSYDIR
 10
0.0
 20
1.0
 30
0.0
  9
$USERI1
 70
     0
  9
$USERI2
 70
     0
  9
$USERI3
 70
     0
  9
$USERI4
 70
     0
  9
$USERI5
 70
     0
  9
$USERR1
 40
0.0
  9
$USERR2
 40
0.0
  9
$USERR3
 40
0.0
  9
$USERR4
 40
0.0
  9
$USERR5
 40
0.0
  9
$WORLDVIEW
 70
     1
  9
$SHADEDGE
 70
     3
  9
$SHADEDIF
 70
    70
  9
$TILEMODE
 70
     1
  9
$MAXACTVP
 70
    64
  9
$PINSBASE
 10
0.0
 20
0.0
 30
0.0
  9
$PLIMCHECK
 70
     0
  9
$PEXTMIN
 10
1.0000000000E+20
 20
1.0000000000E+20
 30
1.0000000000E+20
  9
$PEXTMAX
 10
-1.0000000000E+20
 20
-1.0000000000E+20
 30
-1.0000000000E+20
  9
$PLIMMIN
 10
0.0
 20
0.0
  9
$PLIMMAX
 10
420.0
 20
297.0
  9
$UNITMODE
 70
     0
  9
$VISRETAIN
 70
     1
  9
$PLINEGEN
 70
     0
  9
$PSLTSCALE
 70
     1
  9
$TREEDEPTH
 70
  3020
  9
$PICKSTYLE
 70
     1
  9
$CMLSTYLE
  2
STANDARD
  9
$CMLJUST
 70
     0
  9
$CMLSCALE
 40
20.0
  9
$PROXYGRAPHICS
 70
     1
  9
$MEASUREMENT
 70
     1
  0
ENDSEC
  0
SECTION
  2
CLASSES
  0
CLASS
  1
ACDBDICTIONARYWDFLT
  2
AcDbDictionaryWithDefault
  3
ObjectDBX Classes
 90
        0
280
     0
281
     0
  0
CLASS
  1
VISUALSTYLE
  2
AcDbVisualStyle
  3
ObjectDBX Classes
 90
     4095
280
     0
281
     0
  0
CLASS
  1
MATERIAL
  2
AcDbMaterial
  3
ObjectDBX Classes
 90
     1153
280
     0
281
     0
  0
CLASS
  1
XRECORD
  2
AcDbXrecord
  3
AutoCAD 2000
 90
        0
280
     0
281
     0
  0
CLASS
  1
LWPOLYLINE
  2
AcDbPolyline
  3
AutoCAD 2000
 90
        0
280
     0
281
     1
  0
CLASS
  1
HATCH
  2
AcDbHatch
  3
AutoCAD 2000
 90
        0
280
     0
281
     1
  0
ENDSEC
  0
SECTION
  2
TABLES
  0
TABLE
  2
VPORT
  5
8
330
0
100
AcDbSymbolTable
 70
     1
  0
VPORT
  5
29
330
8
100
AcDbSymbolTableRecord
100
AcDbViewportTableRecord
  2
*ACTIVE
 70
     0
 10
0.0
 20
0.0
 11
1.0
 21
1.0
 12
105.0
 22
148.5
 13
0.0
 23
0.0
 14
10.0
 24
10.0
 15
10.0
 25
10.0
 16
0.0
 26
0.0
 36
1.0
 17
0.0
 27
0.0
 37
0.0
 40
297.0
 41
0.7070707071
 42
50.0
 43
0.0
 44
0.0
 50
0.0
 51
0.0
 71
     0
 72
  2000
 73
     1
 74
     3
 75
     0
 76
     0
 77
     0
 78
     0
  0
ENDTAB
  0
TABLE
  2
LTYPE
  5
5
330
0
100
AcDbSymbolTable
 70
     6
  0
LTYPE
  5
14
330
5
100
AcDbSymbolTableRecord
100
AcDbLinetypeTableRecord
  2
BYBLOCK
 70
     0
  3

 72
    65
 73
     0
 40
0.0
  0
LTYPE
  5
15
330
5
100
AcDbSymbolTableRecord
100
AcDbLinetypeTableRecord
  2
BYLAYER
 70
     0
  3

 72
    65
 73
     0
 40
0.0
  0
LTYPE
  5
16
330
5
100
AcDbSymbolTableRecord
100
AcDbLinetypeTableRecord
  2
CONTINUOUS
 70
     0
  3
Solid line
 72
    65
 73
     0
 40
0.0
  0
LTYPE
  5
3F
330
5
100
AcDbSymbolTableRecord
100
AcDbLinetypeTableRecord
  2
HIDDEN
 70
     0
  3
Hidden __ __ __ __ __ __ __ __ __ __ __ __ __ __
 72
    65
 73
     2
 40
1.905
 49
1.27
 74
     0
 49
-0.635
 74
     0
  0
LTYPE
  5
40
330
5
100
AcDbSymbolTableRecord
100
AcDbLinetypeTableRecord
  2
PHANTOM
 70
     0
  3
Phantom ______  __  __  ______  __  __  ______
 72
    65
 73
     6
 40
12.7
 49
6.35
 74
     0
 49
-1.27
 74
     0
 49
1.27
 74
     0
 49
-1.27
 74
     0
 49
1.27
 74
     0
 49
-1.27
 74
     0
  0
LTYPE
  5
41
330
5
100
AcDbSymbolTableRecord
100
AcDbLinetypeTableRecord
  2
CENTER
 70
     0
  3
Center ____ _ ____ _ ____ _ ____ _ ____ _ ____
 72
    65
 73
     4
 40
10.16
 49
6.35
 74
     0
 49
-1.27
 74
     0
 49
1.27
 74
     0
 49
-1.27
 74
     0
  0
LTYPE
  5
42
330
5
100
AcDbSymbolTableRecord
100
AcDbLinetypeTableRecord
  2
CENTERX2
 70
     0
  3
Center (2x) ________  __  ________  __  _____
 72
    65
 73
     4
 40
20.32
 49
12.7
 74
     0
 49
-2.54
 74
     0
 49
2.54
 74
     0
 49
-2.54
 74
     0
  0
LTYPE
  5
43
330
5
100
AcDbSymbolTableRecord
100
AcDbLinetypeTableRecord
  2
DOT2
 70
     0
  3
Dot (.5x) ........................................
 72
    65
 73
     2
 40
0.635
 49
0.0
 74
     0
 49
-0.635
 74
     0
  0
ENDTAB
  0
TABLE
  2
LAYER
  5
2
330
0
100
AcDbSymbolTable
 70
    11
  0
LAYER
  5
10
330
2
100
AcDbSymbolTableRecord
100
AcDbLayerTableRecord
  2
0
 70
     0
 62
     7
  6
CONTINUOUS
  0
LAYER
  5
44
330
2
100
AcDbSymbolTableRecord
100
AcDbLayerTableRecord
  2
SLD-0
 70
     0
 62
     3
  6
CONTINUOUS
  0
LAYER
  5
45
330
2
100
AcDbSymbolTableRecord
100
AcDbLayerTableRecord
  2
AM_6
 70
     0
 62
     2
  6
CONTINUOUS
  0
LAYER
  5
46
330
2
100
AcDbSymbolTableRecord
100
AcDbLayerTableRecord
  2
AM_5
 70
     0
 62
     3
  6
CONTINUOUS
  0
LAYER
  5
47
330
2
100
AcDbSymbolTableRecord
100
AcDbLayerTableRecord
  2
AM_7
 70
     0
 62
     4
  6
CONTINUOUS
  0
LAYER
  5
48
330
2
100
AcDbSymbolTableRecord
100
AcDbLayerTableRecord
  2
SLD-DEFPOINTS
 70
     0
 62
   179
  6
CONTINUOUS
  0
LAYER
  5
49
330
2
100
AcDbSymbolTableRecord
100
AcDbLayerTableRecord
  2
AM_0
 70
     0
 62
   179
  6
CONTINUOUS
  0
LAYER
  5
4A
330
2
100
AcDbSymbolTableRecord
100
AcDbLayerTableRecord
  2
AM_CL
 70
     0
 62
     1
  6
CONTINUOUS
  0
LAYER
  5
4B
330
2
100
AcDbSymbolTableRecord
100
AcDbLayerTableRecord
  2
6
 70
     0
 62
     2
  6
CONTINUOUS
  0
LAYER
  5
4C
330
2
100
AcDbSymbolTableRecord
100
AcDbLayerTableRecord
  2
AM_4
 70
     0
 62
     3
  6
CONTINUOUS
  0
LAYER
  5
4D
330
2
100
AcDbSymbolTableRecord
100
AcDbLayerTableRecord
  2
AM_8
 70
     0
 62
     1
  6
CONTINUOUS
  0
ENDTAB
  0
TABLE
  2
STYLE
  5
3
330
0
100
AcDbSymbolTable
 70
     1
  0
STYLE
  5
11
330
3
100
AcDbSymbolTableRecord
100
AcDbTextStyleTableRecord
  2
STANDARD
 70
     0
 40
0.0
 41
1.0
 50
0.0
 71
     0
 42
2.5
  3
txt
  4
bigfont
  0
ENDTAB
  0
TABLE
  2
VIEW
  5
6
330
0
100
AcDbSymbolTable
 70
     0
  0
ENDTAB
  0
TABLE
  2
UCS
  5
7
330
0
100
AcDbSymbolTable
 70
     0
  0
ENDTAB
  0
TABLE
  2
APPID
  5
9
330
0
100
AcDbSymbolTable
 70
     1
  0
APPID
  5
12
330
9
100
AcDbSymbolTableRecord
100
AcDbRegAppTableRecord
  2
ACAD
 70
     0
  0
ENDTAB
  0
TABLE
  2
DIMSTYLE
  5
A
330
0
100
AcDbSymbolTable
 70
     1
  0
DIMSTYLE
105
27
330
A
100
AcDbSymbolTableRecord
100
AcDbDimStyleTableRecord
  2
ISO-25
 70
     0
  3

  4

  5

  6

  7

 40
1.0
 41
2.5
 42
0.625
 43
3.75
 44
1.25
 45
0.0
 46
0.0
 47
0.0
 48
0.0
140
2.5
141
2.5
142
0.0
143
0.0393700787
144
1.0
145
0.0
146
1.0
147
0.625
 71
     0
 72
     0
 73
     0
 74
     0
 75
     0
 76
     0
 77
     1
 78
     8
170
     0
171
     3
172
     1
173
     0
174
     0
175
     0
176
     0
177
     0
178
     0
270
     2
271
     2
272
     2
273
     2
274
     3
340
11
275
     0
280
     0
281
     0
282
     0
283
     0
284
     8
285
     0
286
     0
287
     3
288
     0
  0
ENDTAB
  0
TABLE
  2
BLOCK_RECORD
  5
1
330
0
100
AcDbSymbolTable
 70
     3
  0
BLOCK_RECORD
  5
1F
330
1
100
AcDbSymbolTableRecord
100
AcDbBlockTableRecord
  2
*MODEL_SPACE
  0
BLOCK_RECORD
  5
1B
330
1
100
AcDbSymbolTableRecord
100
AcDbBlockTableRecord
  2
*PAPER_SPACE
  0
BLOCK_RECORD
  5
23
330
1
100
AcDbSymbolTableRecord
100
AcDbBlockTableRecord
  2
*PAPER_SPACE0
  0
BLOCK_RECORD
  5
20D
330
1
100
AcDbSymbolTableRecord
100
AcDbBlockTableRecord
  2
SW_CENTERMARKSYMBOL_0
  0
BLOCK_RECORD
  5
219
330
1
100
AcDbSymbolTableRecord
100
AcDbBlockTableRecord
  2
SW_CENTERMARKSYMBOL_1
  0
ENDTAB
  0
ENDSEC
  0
SECTION
  2
BLOCKS
  0
BLOCK
  5
20
330
1F
100
AcDbEntity
  8
0
100
AcDbBlockBegin
  2
*MODEL_SPACE
 70
     0
 10
0.0
 20
0.0
 30
0.0
  3
*MODEL_SPACE
  1

  0
ENDBLK
  5
21
330
1F
100
AcDbEntity
  8
0
100
AcDbBlockEnd
  0
BLOCK
  5
1C
330
1B
100
AcDbEntity
 67
     1
  8
0
100
AcDbBlockBegin
  2
*PAPER_SPACE
 70
     0
 10
0.0
 20
0.0
 30
0.0
  3
*PAPER_SPACE
  1

  0
ENDBLK
  5
1D
330
1B
100
AcDbEntity
 67
     1
  8
0
100
AcDbBlockEnd
  0
BLOCK
  5
24
330
23
100
AcDbEntity
  8
0
100
AcDbBlockBegin
  2
*PAPER_SPACE0
 70
     0
 10
0.0
 20
0.0
 30
0.0
  3
*PAPER_SPACE0
  1

  0
ENDBLK
  5
25
330
23
100
AcDbEntity
  8
0
100
AcDbBlockEnd
  0
BLOCK
  5
20E
330
20D
100
AcDbEntity
  8
0
100
AcDbBlockBegin
  2
SW_CENTERMARKSYMBOL_0
 70
     0
 10
0.0
 20
0.0
 30
0.0
  3
SW_CENTERMARKSYMBOL_0
  1

  0
LINE
  5
210
330
20D
100
AcDbEntity
  8
SLD-0
 62
     0
100
AcDbLine
 10
0.0
 20
0.0
 30
0.0
 11
0.0
 21
2.5
 31
0.0
  0
LINE
  5
211
330
20D
100
AcDbEntity
  8
SLD-0
 62
     0
100
AcDbLine
 10
0.0
 20
0.0
 30
0.0
 11
-2.5
 21
0.0
 31
0.0
  0
LINE
  5
212
330
20D
100
AcDbEntity
  8
SLD-0
 62
     0
100
AcDbLine
 10
0.0
 20
0.0
 30
0.0
 11
0.0
 21
-2.5
 31
0.0
  0
LINE
  5
213
330
20D
100
AcDbEntity
  8
SLD-0
 62
     0
100
AcDbLine
 10
0.0
 20
0.0
 30
0.0
 11
2.5
 21
0.0
 31
0.0
  0
LINE
  5
214
330
20D
100
AcDbEntity
  8
SLD-0
 62
     0
100
AcDbLine
 10
0.0
 20
5.0
 30
0.0
 11
0.0
 21
226.3756225652
 31
0.0
  0
LINE
  5
215
330
20D
100
AcDbEntity
  8
SLD-0
 62
     0
100
AcDbLine
 10
-5.0
 20
0.0
 30
0.0
 11
-226.3756225652
 21
0.0
 31
0.0
  0
LINE
  5
216
330
20D
100
AcDbEntity
  8
SLD-0
 62
     0
100
AcDbLine
 10
0.0
 20
-5.0
 30
0.0
 11
0.0
 21
-226.3756225652
 31
0.0
  0
LINE
  5
217
330
20D
100
AcDbEntity
  8
SLD-0
 62
     0
100
AcDbLine
 10
5.0
 20
0.0
 30
0.0
 11
226.3756225652
 21
0.0
 31
0.0
  0
ENDBLK
  5
20F
330
20D
100
AcDbEntity
  8
0
100
AcDbBlockEnd
  0
BLOCK
  5
21A
330
219
100
AcDbEntity
  8
0
100
AcDbBlockBegin
  2
SW_CENTERMARKSYMBOL_1
 70
     0
 10
0.0
 20
0.0
 30
0.0
  3
SW_CENTERMARKSYMBOL_1
  1

  0
LINE
  5
21C
330
219
100
AcDbEntity
  8
SLD-0
 62
     0
100
AcDbLine
 10
0.0
 20
0.0
 30
0.0
 11
-2.1650635095
 21
1.25
 31
0.0
  0
LINE
  5
21D
330
219
100
AcDbEntity
  8
SLD-0
 62
     0
100
AcDbLine
 10
0.0
 20
0.0
 30
0.0
 11
-1.25
 21
-2.1650635095
 31
0.0
  0
LINE
  5
21E
330
219
100
AcDbEntity
  8
SLD-0
 62
     0
100
AcDbLine
 10
0.0
 20
0.0
 30
0.0
 11
2.1650635095
 21
-1.25
 31
0.0
  0
LINE
  5
21F
330
219
100
AcDbEntity
  8
SLD-0
 62
     0
100
AcDbLine
 10
0.0
 20
0.0
 30
0.0
 11
1.25
 21
2.1650635095
 31
0.0
  0
LINE
  5
220
330
219
100
AcDbEntity
  8
SLD-0
 62
     0
100
AcDbLine
 10
-4.3301270189
 20
2.5
 30
0.0
 11
-6.9282032303
 21
4.0
 31
0.0
  0
LINE
  5
221
330
219
100
AcDbEntity
  8
SLD-0
 62
     0
100
AcDbLine
 10
-2.5
 20
-4.3301270189
 30
0.0
 11
-4.0
 21
-6.9282032303
 31
0.0
  0
LINE
  5
222
330
219
100
AcDbEntity
  8
SLD-0
 62
     0
100
AcDbLine
 10
4.3301270189
 20
-2.5
 30
0.0
 11
6.9282032303
 21
-4.0
 31
0.0
  0
LINE
  5
223
330
219
100
AcDbEntity
  8
SLD-0
 62
     0
100
AcDbLine
 10
2.5
 20
4.3301270189
 30
0.0
 11
4.0
 21
6.9282032303
 31
0.0
  0
ENDBLK
  5
21B
330
219
100
AcDbEntity
  8
0
100
AcDbBlockEnd
  0
ENDSEC
  0
SECTION
  2
ENTITIES
  0
LINE
  5
4E
330
1F
100
AcDbEntity
  8
0
  6
CONTINUOUS
 62
     7
100
AcDbLine
 10
-64.9729247001
 20
14.0598296105
 30
0.0
 11
-64.9729247001
 21
-254.4401706279
 31
0.0
  0
LINE
  5
4F
330
1F
100
AcDbEntity
  8
0
  6
CONTINUOUS
 62
     7
100
AcDbLine
 10
345.0270717236
 20
-144.7889850557
 30
0.0
 11
345.0270717236
 21
14.0598296105
 31
0.0
  0
LINE
  5
50
330
1F
100
AcDbEntity
  8
0
  6
CONTINUOUS
 62
     7
100
AcDbLine
 10
345.0270717236
 20
-254.4401706279
 30
0.0
 11
345.0270717236
 21
-224.0913518787
 31
0.0
  0
SPLINE
  5
51
330
1F
100
AcDbEntity
  8
0
  6
CONTINUOUS
 62
     7
100
AcDbSpline
210
0.0
220
0.0
230
1.0
 70
     8
 71
     3
 72
    13
 73
     9
 74
     0
 42
0.00000001
 43
0.00000001
 40
0.0
 40
0.0
 40
0.0
 40
0.0
 40
0.1197102921353043
 40
0.2754929286845155
 40
0.4509370512038204
 40
0.6538645392809854
 40
0.9274223498078515
 40
1.0
 40
1.0
 40
1.0
 40
1.0
 10
342.3591231199765
 20
-210.688018155155
 30
0.0
 10
342.3197732119672
 20
-210.3812959526997
 30
0.0
 10
342.2292160743347
 20
-209.6754268386937
 30
0.0
 10
342.1406919556458
 20
-208.5108090252026
 30
0.0
 10
342.0760964603298
 20
-207.1414608025261
 30
0.0
 10
342.0362543253863
 20
-205.4589877162621
 30
0.0
 10
342.0114729135549
 20
-204.0662422899322
 30
0.0
 10
342.008164355168
 20
-203.1975962942463
 30
0.0
 10
342.0074706169629
 20
-203.0154586852167
 30
0.0
  0
SPLINE
  5
52
330
1F
100
AcDbEntity
  8
0
  6
CONTINUOUS
 62
     7
100
AcDbSpline
210
0.0
220
0.0
230
1.0
 70
     8
 71
     3
 72
    13
 73
     9
 74
     0
 42
0.00000001
 43
0.00000001
 40
0.0
 40
0.0
 40
0.0
 40
0.0
 40
0.1000318132659615
 40
0.3871435951395289
 40
0.5903582664399665
 40
0.7632813502118698
 40
0.9138638178443058
 40
1.0
 40
1.0
 40
1.0
 40
1.0
 10
342.0279448124433
 20
-166.1132396281336
 30
0.0
 10
342.0282998311122
 20
-165.8516166495646
 30
0.0
 10
342.0296738260378
 20
-164.8390821649099
 30
0.0
 10
342.037393502984
 20
-163.2971579785252
 30
0.0
 10
342.0818843818403
 20
-161.5458269152845
 30
0.0
 10
342.1550210341555
 20
-160.1445069515485
 30
0.0
 10
342.243790100957
 20
-159.0507459045612
 30
0.0
 10
342.3293579569054
 20
-158.4235446909647
 30
0.0
 10
342.3604940268064
 20
-158.1953213632677
 30
0.0
  0
SPLINE
  5
53
330
1F
100
AcDbEntity
  8
0
  6
CONTINUOUS
 62
     7
100
AcDbSpline
210
0.0
220
0.0
230
1.0
 70
     8
 71
     3
 72
    22
 73
    18
 74
     0
 42
0.00000001
 43
0.00000001
 40
0.0
 40
0.0
 40
0.0
 40
0.0
 40
0.0190073083648383
 40
0.071739546896947
 40
0.1279213610964488
 40
0.1868080133558598
 40
0.2506190455858025
 40
0.3181138199631354
 40
0.3903490560242401
 40
0.4639238660950847
 40
0.5383862099830534
 40
0.6145921606994966
 40
0.6927251916856525
 40
0.7730135092800541
 40
0.8557375324904721
 40
0.938001703081492
 40
1.0
 40
1.0
 40
1.0
 40
1.0
 10
342.3528050276303
 20
-158.196386796293
 30
0.0
 10
342.365081925505
 20
-158.1056119034073
 30
0.0
 10
342.4114187909844
 20
-157.7629989694643
 30
0.0
 10
342.4994693179708
 20
-157.1808026041698
 30
0.0
 10
342.6150546679885
 20
-156.4351383430205
 30
0.0
 10
342.7398027324143
 20
-155.6833155661896
 30
0.0
 10
342.8732915282058
 20
-154.9201367282816
 30
0.0
 10
343.0161737002172
 20
-154.1436847893413
 30
0.0
 10
343.1645841145555
 20
-153.3691457791269
 30
0.0
 10
343.3147215398911
 20
-152.6153259581001
 30
0.0
 10
343.4637706198901
 20
-151.8934084074064
 30
0.0
 10
343.6112297286419
 20
-151.2030021150936
 30
0.0
 10
343.7568588379002
 20
-150.5418339221436
 30
0.0
 10
343.9000358950333
 20
-149.9094132771065
 30
0.0
 10
344.0380078454722
 20
-149.3136374378361
 30
0.0
 10
344.1580743533945
 20
-148.804421699836
 30
0.0
 10
344.2272817972664
 20
-148.5178661272144
 30
0.0
 10
344.2570244165921
 20
-148.3947158873651
 30
0.0
  0
SPLINE
  5
54
330
1F
100
AcDbEntity
  8
0
  6
CONTINUOUS
 62
     7
100
AcDbSpline
210
0.0
220
0.0
230
1.0
 70
     8
 71
     3
 72
    22
 73
    18
 74
     0
 42
0.00000001
 43
0.00000001
 40
0.0
 40
0.0
 40
0.0
 40
0.0
 40
0.0131556202638038
 40
0.097848783392386
 40
0.181111190232752
 40
0.262177109930932
 40
0.3465334398092524
 40
0.4276922490065326
 40
0.5063058877652742
 40
0.5829430203565487
 40
0.6580623243995835
 40
0.731973280476447
 40
0.7965599740683634
 40
0.857694389180218
 40
0.9108711462264092
 40
0.972643687863231
 40
1.0
 40
1.0
 40
1.0
 40
1.0
 10
344.2572032305264
 20
-220.4866492271993
 30
0.0
 10
344.2511507756145
 20
-220.4617928017968
 30
0.0
 10
344.2061338674194
 20
-220.276915849107
 30
0.0
 10
344.1129237357642
 20
-219.8851474639366
 30
0.0
 10
343.9785809600349
 20
-219.3116204379189
 30
0.0
 10
343.834805638478
 20
-218.685031907051
 30
0.0
 10
343.6853984536051
 20
-218.0172321990844
 30
0.0
 10
343.5307238972111
 20
-217.3040498794502
 30
0.0
 10
343.3755071012795
 20
-216.5632029258559
 30
0.0
 10
343.219832795099
 20
-215.792295284708
 30
0.0
 10
343.0637378236389
 20
-214.9886085941037
 30
0.0
 10
342.9139772595616
 20
-214.1853467617545
 30
0.0
 10
342.7737991634987
 20
-213.3948678183759
 30
0.0
 10
342.6485210942646
 20
-212.651059776515
 30
0.0
 10
342.5274446577554
 20
-211.883709802607
 30
0.0
 10
342.4285154405964
 20
-211.2370230261431
 30
0.0
 10
342.3706424774888
 20
-210.8136158860035
 30
0.0
 10
342.3528795334363
 20
-210.6836595655058
 30
0.0
  0
ARC
  5
55
330
1F
100
AcDbEntity
  8
0
  6
CONTINUOUS
 62
     7
100
AcDbCircle
 10
341.0270735117
 20
-144.7833163784
 30
0.0
 40
3.999999999999952
100
AcDbArc
 50
345.9257551479
 51
359.9144243274
  0
SPLINE
  5
56
330
1F
100
AcDbEntity
  8
0
  6
CONTINUOUS
 62
     7
100
AcDbSpline
210
0.0
220
0.0
230
1.0
 70
     8
 71
     3
 72
    18
 73
    14
 74
     0
 42
0.00000001
 43
0.00000001
 40
0.0
 40
0.0
 40
0.0
 40
0.0
 40
0.0497822920633876
 40
0.1520934403771136
 40
0.2539085794532613
 40
0.3552863722561742
 40
0.456287757749072
 40
0.5569765761824971
 40
0.6574199756423234
 40
0.7576882204753436
 40
0.8578563927486333
 40
0.9580154938822385
 40
1.0
 40
1.0
 40
1.0
 40
1.0
 10
344.2567561956906
 20
-148.3957589686487
 30
0.0
 10
344.2778696430948
 20
-148.3082739633298
 30
0.0
 10
344.3423748460661
 20
-148.0409922675928
 30
0.0
 10
344.4373605858104
 20
-147.6506425882748
 30
0.0
 10
344.5420062613898
 20
-147.2227482397641
 30
0.0
 10
344.6331547520216
 20
-146.8521771444123
 30
0.0
 10
344.7115826112262
 20
-146.5353387126854
 30
0.0
 10
344.7768341142447
 20
-146.2731175461345
 30
0.0
 10
344.8288832985248
 20
-146.0652471623153
 30
0.0
 10
344.8675676219969
 20
-145.9115302585294
 30
0.0
 10
344.8925770751283
 20
-145.8127619237758
 30
0.0
 10
344.902264995252
 20
-145.7747183355439
 30
0.0
 10
344.9025024002663
 20
-145.7737699857323
 30
0.0
 10
344.902572521832
 20
-145.7734898746584
 30
0.0
  0
SPLINE
  5
57
330
1F
100
AcDbEntity
  8
0
  6
CONTINUOUS
 62
     7
100
AcDbSpline
210
0.0
220
0.0
230
1.0
 70
     8
 71
     3
 72
    18
 73
    14
 74
     0
 42
0.00000001
 43
0.00000001
 40
0.0
 40
0.0
 40
0.0
 40
0.0
 40
0.0523949290647711
 40
0.1536911947613235
 40
0.2528607424655897
 40
0.3524486792447786
 40
0.4522484891564509
 40
0.5523066508150917
 40
0.6526759876124948
 40
0.7534078125614578
 40
0.854550681308287
 40
0.9561499711832918
 40
1.0
 40
1.0
 40
1.0
 40
1.0
 10
344.902572521832
 20
-223.1068470597837
 30
0.0
 10
344.9023928782286
 20
-223.1061287461593
 30
0.0
 10
344.901865925706
 20
-223.1040217010479
 30
0.0
 10
344.8904868743247
 20
-223.0593922005682
 30
0.0
 10
344.8640102802755
 20
-222.9546624897158
 30
0.0
 10
344.8242141525255
 20
-222.7965202766717
 30
0.0
 10
344.7712603812226
 20
-222.5848143191878
 30
0.0
 10
344.705254315659
 20
-222.3194807557304
 30
0.0
 10
344.6263049195393
 20
-222.0003227607745
 30
0.0
 10
344.5348104409915
 20
-221.6283018858571
 30
0.0
 10
344.4300552193581
 20
-221.1996645179732
 30
0.0
 10
344.3373266829536
 20
-220.8185867514392
 30
0.0
 10
344.2754656507936
 20
-220.5621780333257
 30
0.0
 10
344.2568158003354
 20
-220.4848759890173
 30
0.0
  0
ARC
  5
58
330
1F
100
AcDbEntity
  8
0
  6
CONTINUOUS
 62
     7
100
AcDbCircle
 10
341.0270735117
 20
-224.0970248774
 30
0.0
 40
3.999999999999952
100
AcDbArc
 50
0.0788333053
 51
14.0742448521
  0
LINE
  5
59
330
1F
100
AcDbEntity
  8
0
  6
CONTINUOUS
 62
     7
100
AcDbLine
 10
342.3599426838
 20
-210.6877015055
 30
0.0
 11
342.3422550055
 21
-210.5482340873
 31
0.0
  0
SPLINE
  5
5A
330
1F
100
AcDbEntity
  8
0
  6
CONTINUOUS
 62
     7
100
AcDbSpline
210
0.0
220
0.0
230
1.0
 70
     8
 71
     3
 72
    10
 73
     6
 74
     0
 42
0.00000001
 43
0.00000001
 40
0.0
 40
0.0
 40
0.0
 40
0.0
 40
0.2867124889473187
 40
0.6698601836021588
 40
1.0
 40
1.0
 40
1.0
 40
1.0
 10
342.0877878757977
 20
-207.2825477541063
 30
0.0
 10
342.0739594746426
 20
-206.8158124792785
 30
0.0
 10
342.0416515156462
 20
-205.7253563989114
 30
0.0
 10
342.0268157384812
 20
-204.1148308238644
 30
0.0
 10
342.025764200923
 20
-202.9771925024123
 30
0.0
 10
342.0252775045896
 20
-202.4506450713251
 30
0.0
  0
LINE
  5
5B
330
1F
100
AcDbEntity
  8
0
  6
CONTINUOUS
 62
     7
100
AcDbLine
 10
358.0270682665
 20
-174.3907601655
 30
0.0
 11
356.0270791146
 21
-174.3907601655
 31
0.0
  0
LINE
  5
5C
330
1F
100
AcDbEntity
  8
0
  6
CONTINUOUS
 62
     7
100
AcDbLine
 10
356.0270791146
 20
-194.3907559932
 30
0.0
 11
358.0270682665
 21
-194.3907559932
 31
0.0
  0
LINE
  5
5D
330
1F
100
AcDbEntity
  8
0
  6
CONTINUOUS
 62
     7
100
AcDbLine
 10
344.027069697
 20
-179.4401676477
 30
0.0
 11
342.0270805451
 21
-179.4401676477
 31
0.0
  0
LINE
  5
5E
330
1F
100
AcDbEntity
  8
0
  6
CONTINUOUS
 62
     7
100
AcDbLine
 10
342.0270805451
 20
-189.4401730121
 30
0.0
 11
344.027069697
 21
-189.4401730121
 31
0.0
  0
LINE
  5
5F
330
1F
100
AcDbEntity
  8
0
  6
CONTINUOUS
 62
     7
100
AcDbLine
 10
60.9591801855
 20
-209.8745078862
 30
0.0
 11
71.6191281768
 21
-216.4240115405
 31
0.0
  0
LINE
  5
60
330
1F
100
AcDbEntity
  8
0
  6
CONTINUOUS
 62
     7
100
AcDbLine
 10
71.6191281768
 20
-226.4563300729
 30
0.0
 11
60.9591801855
 21
-233.0058355898
 31
0.0
  0
ARC
  5
61
330
1F
100
AcDbEntity
  8
0
  6
CONTINUOUS
 62
     7
100
AcDbCircle
 10
61.0204204035
 20
-205.2743630906
 30
0.0
 40
1.0
100
AcDbArc
 50
90.0
 51
121.5667039661
  0
ARC
  5
62
330
1F
100
AcDbEntity
  8
0
  6
CONTINUOUS
 62
     7
100
AcDbCircle
 10
61.0204204035
 20
-237.6059781652
 30
0.0
 40
1.0
100
AcDbArc
 50
238.4332960339
 51
270.0
  0
LINE
  5
63
330
1F
100
AcDbEntity
  8
0
  6
CONTINUOUS
 62
     7
100
AcDbLine
 10
47.3412324878
 20
-230.3751063616
 30
0.0
 11
60.4969312641
 21
-238.4580102832
 31
0.0
  0
LINE
  5
64
330
1F
100
AcDbEntity
  8
0
  6
CONTINUOUS
 62
     7
100
AcDbLine
 10
60.4969312641
 20
-204.4223331929
 30
0.0
 11
47.3412324878
 21
-212.5052371145
 31
0.0
  0
LINE
  5
65
330
1F
100
AcDbEntity
  8
0
  6
CONTINUOUS
 62
     7
100
AcDbLine
 10
61.020423958
 20
-238.6059788138
 30
0.0
 11
67.5188054534
 21
-238.6059788138
 31
0.0
  0
LINE
  5
66
330
1F
100
AcDbEntity
  8
0
  6
CONTINUOUS
 62
     7
100
AcDbLine
 10
67.5188054534
 20
-204.2743646622
 30
0.0
 11
61.020423958
 21
-204.2743646622
 31
0.0
  0
ARC
  5
67
330
1F
100
AcDbEntity
  8
0
  6
CONTINUOUS
 62
     7
100
AcDbCircle
 10
47.8647237125
 20
-229.5230743965
 30
0.0
 40
1.000000000000012
100
AcDbArc
 50
180.0
 51
238.4332960339
  0
LINE
  5
68
330
1F
100
AcDbEntity
  8
0
  6
CONTINUOUS
 62
     7
100
AcDbLine
 10
46.8647231552
 20
-227.4401699275
 30
0.0
 11
46.8647231552
 21
-229.5230747283
 31
0.0
  0
ARC
  5
69
330
1F
100
AcDbEntity
  8
0
  6
CONTINUOUS
 62
     7
100
AcDbCircle
 10
47.8647237125
 20
-227.4401706279
 30
0.0
 40
1.0
100
AcDbArc
 50
90.0
 51
180.0
  0
ARC
  5
6A
330
1F
100
AcDbEntity
  8
0
  6
CONTINUOUS
 62
     7
100
AcDbCircle
 10
47.8647237125
 20
-213.3572668592
 30
0.0
 40
1.0
100
AcDbArc
 50
121.5667039661
 51
180.0
  0
ARC
  5
6B
330
1F
100
AcDbEntity
  8
0
  6
CONTINUOUS
 62
     7
100
AcDbCircle
 10
47.8647237125
 20
-215.4401706279
 30
0.0
 40
1.0
100
AcDbArc
 50
180.0
 51
270.0
  0
LINE
  5
6C
330
1F
100
AcDbEntity
  8
0
  6
CONTINUOUS
 62
     7
100
AcDbLine
 10
46.8647231552
 20
-213.3572668851
 30
0.0
 11
46.8647231552
 21
-215.4401698232
 31
0.0
  0
SPLINE
  5
6D
330
1F
100
AcDbEntity
  8
0
  6
CONTINUOUS
 62
     7
100
AcDbSpline
210
0.0
220
0.0
230
1.0
 70
     8
 71
     3
 72
    12
 73
     8
 74
     0
 42
0.00000001
 43
0.00000001
 40
0.0
 40
0.0
 40
0.0
 40
0.0
 40
0.1704416280483224
 40
0.3917694408660307
 40
0.6246509599729573
 40
0.865274424740352
 40
1.0
 40
1.0
 40
1.0
 40
1.0
 10
48.45541466202971
 20
-216.4401718497846
 30
0.0
 10
48.46703951678996
 20
-216.4829099266748
 30
0.0
 10
48.4937598837667
 20
-216.5811457431161
 30
0.0
 10
48.52978712219226
 20
-216.7799143264357
 30
0.0
 10
48.55883794146857
 20
-217.0214631889894
 30
0.0
 10
48.57300006926671
 20
-217.2477875572552
 30
0.0
 10
48.57434306887988
 20
-217.3893562998186
 30
0.0
 10
48.57482511725661
 20
-217.4401701510523
 30
0.0
  0
SPLINE
  5
6E
330
1F
100
AcDbEntity
  8
0
  6
CONTINUOUS
 62
     7
100
AcDbSpline
210
0.0
220
0.0
230
1.0
 70
     8
 71
     3
 72
    12
 73
     8
 74
     0
 42
0.00000001
 43
0.00000001
 40
0.0
 40
0.0
 40
0.0
 40
0.0
 40
0.1275790746391835
 40
0.3723333847893452
 40
0.6143845235478769
 40
0.8502323974000804
 40
1.0
 40
1.0
 40
1.0
 40
1.0
 10
48.57482511725661
 20
-225.4401714623544
 30
0.0
 10
48.57438988319374
 20
-225.488439674381
 30
0.0
 10
48.57311967354326
 20
-225.6293081264562
 30
0.0
 10
48.55900764460698
 20
-225.8590211521986
 30
0.0
 10
48.52846526691054
 20
-226.1103918076854
 30
0.0
 10
48.49154292847396
 20
-226.3107435338377
 30
0.0
 10
48.46494695155873
 20
-226.403964181289
 30
0.0
 10
48.45461744990584
 20
-226.4401697636221
 30
0.0
  0
LINE
  5
6F
330
1F
100
AcDbEntity
  8
0
  6
CONTINUOUS
 62
     7
100
AcDbLine
 10
48.5748251173
 20
-217.4401701511
 30
0.0
 11
48.5748251173
 21
-225.4401714624
 31
0.0
  0
LINE
  5
70
330
1F
100
AcDbEntity
  8
0
  6
CONTINUOUS
 62
     7
100
AcDbLine
 10
-19.6664656309
 20
87.5164746224
 30
0.0
 11
-22.8091652301
 21
87.0195805013
 31
0.0
  0
LINE
  5
71
330
1F
100
AcDbEntity
  8
0
  6
CONTINUOUS
 62
     7
100
AcDbLine
 10
-22.8091652301
 20
74.1000651299
 30
0.0
 11
-19.6664656309
 21
73.6031710088
 31
0.0
  0
LINE
  5
72
330
1F
100
AcDbEntity
  8
0
  6
CONTINUOUS
 62
     7
100
AcDbLine
 10
364.5898525807
 20
67.05983271
 30
0.0
 11
364.1954337451
 21
89.6558641374
 31
0.0
  0
ARC
  5
73
330
1F
100
AcDbEntity
  8
0
  6
CONTINUOUS
 62
     7
100
AcDbCircle
 10
363.1955892958
 20
89.638412275
 30
0.0
 40
0.9999999999999635
100
AcDbArc
 50
1.0
 51
45.0
  0
LINE
  5
74
330
1F
100
AcDbEntity
  8
0
  6
CONTINUOUS
 62
     7
100
AcDbLine
 10
363.9027004334
 20
90.3455196797
 30
0.0
 11
362.4740814063
 21
91.774153608
 31
0.0
  0
ARC
  5
75
330
1F
100
AcDbEntity
  8
0
  6
CONTINUOUS
 62
     7
100
AcDbCircle
 10
363.1811822263
 20
92.4812464692
 30
0.0
 40
1.000000000000069
100
AcDbArc
 50
181.0
 51
225.0
  0
LINE
  5
76
330
1F
100
AcDbEntity
  8
0
  6
CONTINUOUS
 62
     7
100
AcDbLine
 10
362.1813331934
 20
92.4637793481
 30
0.0
 11
361.0538070294
 21
157.0598362862
 31
0.0
  0
LINE
  5
77
330
1F
100
AcDbEntity
  8
0
  6
CONTINUOUS
 62
     7
100
AcDbLine
 10
361.0538070294
 20
157.0598362862
 30
0.0
 11
352.3541216942
 21
323.059815067
 31
0.0
  0
LINE
  5
78
330
1F
100
AcDbEntity
  8
0
  6
CONTINUOUS
 62
     7
100
AcDbLine
 10
-72.2999746707
 20
323.059815067
 30
0.0
 11
-80.8408881334
 21
160.089242357
 31
0.0
  0
LINE
  5
79
330
1F
100
AcDbEntity
  8
0
  6
CONTINUOUS
 62
     7
100
AcDbLine
 10
352.3541216942
 20
323.059815067
 30
0.0
 11
351.2532537076
 21
386.1278473317
 31
0.0
  0
LINE
  5
7A
330
1F
100
AcDbEntity
  8
0
  6
CONTINUOUS
 62
     7
100
AcDbLine
 10
-71.1991066841
 20
386.1278473317
 30
0.0
 11
-72.2999746707
 21
323.059815067
 31
0.0
  0
ARC
  5
7B
330
1F
100
AcDbEntity
  8
0
  6
CONTINUOUS
 62
     7
100
AcDbCircle
 10
336.255543712
 20
385.8660435901
 30
0.0
 40
15.00000000000018
100
AcDbArc
 50
1.0
 51
82.8883381435
  0
ARC
  5
7C
330
1F
100
AcDbEntity
  8
0
  6
CONTINUOUS
 62
     7
100
AcDbCircle
 10
-56.2013966885
 20
385.8660435901
 30
0.0
 40
15.00000000000018
100
AcDbArc
 50
97.1116618565
 51
179.0
  0
ARC
  5
7D
330
1F
100
AcDbEntity
  8
0
  6
CONTINUOUS
 62
     7
100
AcDbCircle
 10
140.0270735117
 20
-1186.9401706279
 30
0.0
 40
1600.0
100
AcDbArc
 50
90.2864800912
 51
97.1116618565
  0
ARC
  5
7E
330
1F
100
AcDbEntity
  8
0
  6
CONTINUOUS
 62
     7
100
AcDbCircle
 10
140.0270735117
 20
-1186.9401706279
 30
0.0
 40
1600.0
100
AcDbArc
 50
82.8883381435
 51
89.7135199088
  0
LINE
  5
7F
330
1F
100
AcDbEntity
  8
0
  6
CONTINUOUS
 62
     7
100
AcDbLine
 10
-18.4230531362
 20
90.0598346173
 30
0.0
 11
-18.762948623
 21
90.0598346173
 31
0.0
  0
LINE
  5
80
330
1F
100
AcDbEntity
  8
0
  6
CONTINUOUS
 62
     7
100
AcDbLine
 10
-78.9355511573
 20
132.9307733952
 30
0.0
 11
-79.6497638134
 21
92.463958162
 31
0.0
  0
LINE
  5
81
330
1F
100
AcDbEntity
  8
0
  6
CONTINUOUS
 62
     7
100
AcDbLine
 10
-81.6878850368
 20
89.6560429513
 30
0.0
 11
-82.0866699127
 21
67.0600711285
 31
0.0
  0
SPLINE
  5
82
330
1F
100
AcDbEntity
  8
0
  6
CONTINUOUS
 62
     7
100
AcDbSpline
210
0.0
220
0.0
230
1.0
 70
     8
 71
     3
 72
    11
 73
     7
 74
     0
 42
0.00000001
 43
0.00000001
 40
0.0
 40
0.0
 40
0.0
 40
0.0
 40
0.2754045160809314
 40
0.5768143616674848
 40
0.8860818273000415
 40
1.0
 40
1.0
 40
1.0
 40
1.0
 10
-79.65350400480989
 20
92.46604432457943
 30
0.0
 10
-79.65805405373408
 20
92.39552129884902
 30
0.0
 10
-79.66758379421582
 20
92.24781604459812
 30
0.0
 10
-79.75130225922244
 20
92.03559279336203
 30
0.0
 10
-79.84753873341226
 20
91.87386388437345
 30
0.0
 10
-79.92883757202571
 20
91.80241671538235
 30
0.0
 10
-79.9507225659824
 20
91.78318371171022
 30
0.0
  0
ARC
  5
83
330
1F
100
AcDbEntity
  8
0
  6
CONTINUOUS
 62
     7
100
AcDbCircle
 10
-80.6880968714
 20
89.638412275
 30
0.0
 40
1.000000000000004
100
AcDbArc
 50
134.6833294166
 51
178.9888868587
  0
LWPOLYLINE
  5
84
330
1F
100
AcDbEntity
  8
0
  6
CONTINUOUS
 62
     7
100
AcDbPolyline
 90
        3
 70
   128
 43
0.0
 10
-79.9466098455
 20
91.7780875146
 10
-80.9578920511
 20
90.7780407845
 10
-81.3912476209
 20
90.3493641793
  0
SPLINE
  5
85
330
1F
100
AcDbEntity
  8
0
  6
CONTINUOUS
 62
     7
100
AcDbSpline
210
0.0
220
0.0
230
1.0
 70
     8
 71
     3
 72
    32
 73
    28
 74
     0
 42
0.00000001
 43
0.00000001
 40
0.0
 40
0.0
 40
0.0
 40
0.0
 40
0.0215791426467932
 40
0.0633592252525961
 40
0.1051876342125557
 40
0.1469113645757197
 40
0.1886200599074556
 40
0.2303951988635322
 40
0.2722129332123321
 40
0.3140449365482871
 40
0.3558594055016994
 40
0.3976312467444836
 40
0.4393357066627634
 40
0.4809144369466088
 40
0.5223995759453056
 40
0.5639276198446306
 40
0.6055128982183419
 40
0.647127814158238
 40
0.6887371277777166
 40
0.7303124157118367
 40
0.7718270196965948
 40
0.8132586607607275
 40
0.8545411404697992
 40
0.8959303668926857
 40
0.9372975564816368
 40
0.9786588906532742
 40
1.0
 40
1.0
 40
1.0
 40
1.0
 10
-80.62970887694127
 20
156.9270669400123
 30
0.0
 10
-80.62049213867733
 20
156.8312671184081
 30
0.0
 10
-80.59343057254759
 20
156.5499861344726
 30
0.0
 10
-80.5450005002897
 20
156.0294901085135
 30
0.0
 10
-80.48525509216675
 20
155.371323931122
 30
0.0
 10
-80.42335794632521
 20
154.6644222443363
 30
0.0
 10
-80.36009893841062
 20
153.9135785653285
 30
0.0
 10
-80.29589316388672
 20
153.1185379464635
 30
0.0
 10
-80.23140295215495
 20
152.280810476561
 30
0.0
 10
-80.16719351956328
 20
151.4024513495634
 30
0.0
 10
-80.10394399948373
 20
150.4857247207717
 30
0.0
 10
-80.04226952073535
 20
149.5329858916364
 30
0.0
 10
-79.98281623176587
 20
148.5469830931183
 30
0.0
 10
-79.92619156225958
 20
147.5301617515805
 30
0.0
 10
-79.87304543824894
 20
146.4838085257475
 30
0.0
 10
-79.82362165746638
 20
145.4086552971184
 30
0.0
 10
-79.7783629159654
 20
144.3057235390352
 30
0.0
 10
-79.7377399070541
 20
143.1775948508017
 30
0.0
 10
-79.70222726467478
 20
142.0272903575827
 30
0.0
 10
-79.67226834248875
 20
140.8579234850579
 30
0.0
 10
-79.64830366731346
 20
139.6725756090874
 30
0.0
 10
-79.63072621921307
 20
138.4747189647073
 30
0.0
 10
-79.61993943787007
 20
137.265295874139
 30
0.0
 10
-79.61587003625468
 20
136.0462175421834
 30
0.0
 10
-79.61900134548813
 20
134.8183780934095
 30
0.0
 10
-79.62630682278024
 20
133.7845831241609
 30
0.0
 10
-79.63525817885636
 20
133.1601431618157
 30
0.0
 10
-79.63830482039216
 20
132.947611707392
 30
0.0
  0
SPLINE
  5
86
330
1F
100
AcDbEntity
  8
0
  6
CONTINUOUS
 62
     7
100
AcDbSpline
210
0.0
220
0.0
230
1.0
 70
     8
 71
     3
 72
    19
 73
    15
 74
     0
 42
0.00000001
 43
0.00000001
 40
0.0
 40
0.0
 40
0.0
 40
0.0
 40
0.0351324694924409
 40
0.1006579017620336
 40
0.1891569210377999
 40
0.286281411672332
 40
0.3855670913324001
 40
0.4854842878010847
 40
0.5856645289281245
 40
0.6859922878743657
 40
0.7864178442022629
 40
0.8869140722255369
 40
0.9874650897389614
 40
1.0
 40
1.0
 40
1.0
 40
1.0
 10
-80.8344657329059
 20
159.9499164997961
 30
0.0
 10
-80.8343218620804
 20
159.9484484180509
 30
0.0
 10
-80.83390965833753
 20
159.9442422227499
 30
0.0
 10
-80.83013875752899
 20
159.9017579190372
 30
0.0
 10
-80.82266762927378
 20
159.8122702553184
 30
0.0
 10
-80.81052341067254
 20
159.6595412930573
 30
0.0
 10
-80.79435836567112
 20
159.448010842977
 30
0.0
 10
-80.77462324616333
 20
159.1802144857339
 30
0.0
 10
-80.751750599598
 20
158.8580127716608
 30
0.0
 10
-80.72598715295062
 20
158.4816733945626
 30
0.0
 10
-80.69771779164236
 20
158.0537206502082
 30
0.0
 10
-80.66706064553131
 20
157.5687825364857
 30
0.0
 10
-80.64439032914794
 20
157.2022418793248
 30
0.0
 10
-80.63158968867923
 20
156.9831777870698
 30
0.0
 10
-80.63017081293825
 20
156.9588958203223
 30
0.0
  0
SPLINE
  5
87
330
1F
100
AcDbEntity
  8
0
  6
CONTINUOUS
 62
     7
100
AcDbSpline
210
0.0
220
0.0
230
1.0
 70
     8
 71
     3
 72
    21
 73
    17
 74
     0
 42
0.00000001
 43
0.00000001
 40
0.0
 40
0.0
 40
0.0
 40
0.0
 40
0.0003088551967018
 40
0.0051913338441949
 40
0.0117221018074382
 40
0.0239486629561886
 40
0.0438960875854827
 40
0.0829818094798086
 40
0.1819843956907211
 40
0.2975346021579515
 40
0.4195300422629596
 40
0.5393321511845663
 40
0.658636524084631
 40
0.7778131264655823
 40
0.8969736362784083
 40
1.0
 40
1.0
 40
1.0
 40
1.0
 10
-80.84023248228792
 20
160.0880502640631
 30
0.0
 10
-80.8402732176366
 20
160.0872187612349
 30
0.0
 10
-80.84095790999898
 20
160.0732426040589
 30
0.0
 10
-80.84059222671311
 20
160.0550270712013
 30
0.0
 10
-80.84042939301806
 20
160.0277803151653
 30
0.0
 10
-80.83944057167264
 20
160.0090641357716
 30
0.0
 10
-80.83851292781146
 20
159.9901729595823
 30
0.0
 10
-80.83669251661813
 20
159.9643310355736
 30
0.0
 10
-80.83282993503776
 20
159.9123178319836
 30
0.0
 10
-80.82417710857945
 20
159.802408315406
 30
0.0
 10
-80.810853066231
 20
159.6320711892838
 30
0.0
 10
-80.7933770822514
 20
159.4043799043626
 30
0.0
 10
-80.77248242285285
 20
159.1245138325998
 30
0.0
 10
-80.74833297417247
 20
158.7900145346531
 30
0.0
 10
-80.72275133664192
 20
158.4250486559837
 30
0.0
 10
-80.70419250137078
 20
158.1461444294584
 30
0.0
 10
-80.69558691057924
 20
158.0168186604407
 30
0.0
  0
LINE
  5
88
330
1F
100
AcDbEntity
  8
0
  6
CONTINUOUS
 62
     7
100
AcDbLine
 10
-78.9514059928
 20
132.0859967648
 30
0.0
 11
-79.6510155109
 21
92.4639879643
 31
0.0
  0
LINE
  5
89
330
1F
100
AcDbEntity
  8
0
  6
CONTINUOUS
 62
     7
100
AcDbLine
 10
351.0270689818
 20
-154.4401691378
 30
0.0
 11
344.027069697
 21
-154.4401691378
 31
0.0
  0
LINE
  5
8A
330
1F
100
AcDbEntity
  8
0
  6
CONTINUOUS
 62
     7
100
AcDbLine
 10
344.027069697
 20
-214.4411102951
 30
0.0
 11
351.0270689818
 21
-214.4411102951
 31
0.0
  0
LINE
  5
8B
330
1F
100
AcDbEntity
  8
0
  6
CONTINUOUS
 62
     7
100
AcDbLine
 10
343.6270778271
 20
-212.4401711941
 30
0.0
 11
344.027069697
 21
-212.4401711941
 31
0.0
  0
LINE
  5
8C
330
1F
100
AcDbEntity
  8
0
  6
CONTINUOUS
 62
     7
100
AcDbLine
 10
344.027069697
 20
-156.4401731909
 30
0.0
 11
343.6270778271
 21
-156.4401731909
 31
0.0
  0
ARC
  5
8D
330
1F
100
AcDbEntity
  8
0
  6
CONTINUOUS
 62
     7
100
AcDbCircle
 10
368.6270735117
 20
-158.9401706279
 30
0.0
 40
1.0
100
AcDbArc
 50
0.0
 51
90.0
  0
ARC
  5
8E
330
1F
100
AcDbEntity
  8
0
  6
CONTINUOUS
 62
     7
100
AcDbCircle
 10
368.6270735117
 20
-209.9401706279
 30
0.0
 40
1.0
100
AcDbArc
 50
270.0
 51
0.0
  0
LINE
  5
8F
330
1F
100
AcDbEntity
  8
0
  6
CONTINUOUS
 62
     7
100
AcDbLine
 10
351.0270689818
 20
-210.9401718796
 30
0.0
 11
368.6270688864
 21
-210.9401718796
 31
0.0
  0
LINE
  5
90
330
1F
100
AcDbEntity
  8
0
  6
CONTINUOUS
 62
     7
100
AcDbLine
 10
368.6270688864
 20
-157.9401687801
 30
0.0
 11
351.0270689818
 21
-157.9401687801
 31
0.0
  0
LINE
  5
91
330
1F
100
AcDbEntity
  8
0
  6
CONTINUOUS
 62
     7
100
AcDbLine
 10
-84.5229203609
 20
67.05983271
 30
0.0
 11
-84.418195
 21
61.0598205506
 31
0.0
  0
LINE
  5
92
330
1F
100
AcDbEntity
  8
0
  6
CONTINUOUS
 62
     7
100
AcDbLine
 10
364.4723420235
 20
61.0598205506
 30
0.0
 11
364.5770673844
 21
67.05983271
 31
0.0
  0
ARC
  5
93
330
1F
100
AcDbEntity
  8
0
  6
CONTINUOUS
 62
     7
100
AcDbCircle
 10
-120.2782492806
 20
43.3381876351
 30
0.0
 40
40.00000000037564
100
AcDbArc
 50
1.0
 51
26.2980732506
  0
ARC
  5
94
330
1F
100
AcDbEntity
  8
0
  6
CONTINUOUS
 62
     7
100
AcDbCircle
 10
400.3323963041
 20
43.3381876351
 30
0.0
 40
40.00000000037556
100
AcDbArc
 50
153.7019267494
 51
179.0
  0
LINE
  5
95
330
1F
100
AcDbEntity
  8
0
  6
CONTINUOUS
 62
     7
100
AcDbLine
 10
-80.284344664
 20
44.0362869679
 30
0.0
 11
-80.1086748746
 21
33.9725791394
 31
0.0
  0
LINE
  5
96
330
1F
100
AcDbEntity
  8
0
  6
CONTINUOUS
 62
     7
100
AcDbLine
 10
360.1628218981
 20
33.9725791394
 30
0.0
 11
360.3384916874
 21
44.0362869679
 31
0.0
  0
ARC
  5
97
330
1F
100
AcDbEntity
  8
0
  6
CONTINUOUS
 62
     7
100
AcDbCircle
 10
355.1635871962
 20
34.0598293721
 30
0.0
 40
5.00000000000001
100
AcDbArc
 50
329.9543375061
 51
359.0
  0
ARC
  5
98
330
1F
100
AcDbEntity
  8
0
  6
CONTINUOUS
 62
     7
100
AcDbCircle
 10
-75.1094401727
 20
34.0598293721
 30
0.0
 40
4.999999999999988
100
AcDbArc
 50
181.0
 51
210.0456624939
  0
LINE
  5
99
330
1F
100
AcDbEntity
  8
0
  6
CONTINUOUS
 62
     7
100
AcDbLine
 10
-79.4375712779
 20
31.5563856542
 30
0.0
 11
-69.6061427501
 21
14.5591377198
 31
0.0
  0
LINE
  5
9A
330
1F
100
AcDbEntity
  8
0
  6
CONTINUOUS
 62
     7
100
AcDbLine
 10
349.6602897736
 20
14.5591377198
 30
0.0
 11
359.4917183014
 21
31.5563856542
 31
0.0
  0
ARC
  5
9B
330
1F
100
AcDbEntity
  8
0
  6
CONTINUOUS
 62
     7
100
AcDbCircle
 10
348.7946629368
 20
15.0598293721
 30
0.0
 40
1.00000000000003
100
AcDbArc
 50
270.0
 51
329.9543375061
  0
ARC
  5
9C
330
1F
100
AcDbEntity
  8
0
  6
CONTINUOUS
 62
     7
100
AcDbCircle
 10
-68.7405159133
 20
15.0598293721
 30
0.0
 40
1.000000000000002
100
AcDbArc
 50
210.0456624939
 51
270.0
  0
LINE
  5
9D
330
1F
100
AcDbEntity
  8
0
  6
CONTINUOUS
 62
     7
100
AcDbLine
 10
-27.7812356857
 20
-281.6401709885
 30
0.0
 11
-27.7812356857
 21
-282.4401714922
 31
0.0
  0
LINE
  5
9E
330
1F
100
AcDbEntity
  8
0
  6
CONTINUOUS
 62
     7
100
AcDbLine
 10
-18.7812323478
 20
-282.4401714922
 30
0.0
 11
-18.7812323478
 21
-281.6401709885
 31
0.0
  0
LINE
  5
9F
330
1F
100
AcDbEntity
  8
0
  6
CONTINUOUS
 62
     7
100
AcDbLine
 10
-19.2812259105
 20
-281.6401709885
 30
0.0
 11
-19.2812259105
 21
-280.5401709945
 31
0.0
  0
LINE
  5
A0
330
1F
100
AcDbEntity
  8
0
  6
CONTINUOUS
 62
     7
100
AcDbLine
 10
-27.2812272218
 20
-280.5401709945
 30
0.0
 11
-27.2812272218
 21
-281.6401709885
 31
0.0
  0
ARC
  5
A1
330
1F
100
AcDbEntity
  8
0
  6
CONTINUOUS
 62
     7
100
AcDbCircle
 10
-21.2812289371
 20
-280.5401706279
 30
0.0
 40
2.000000000000139
100
AcDbArc
 50
0.0
 51
43.1906042441
  0
ARC
  5
A2
330
1F
100
AcDbEntity
  8
0
  6
CONTINUOUS
 62
     7
100
AcDbCircle
 10
-25.2812289371
 20
-280.5401706279
 30
0.0
 40
2.000000000000142
100
AcDbArc
 50
136.8048191464
 51
180.0
  0
LINE
  5
A3
330
1F
100
AcDbEntity
  8
0
  6
CONTINUOUS
 62
     7
100
AcDbLine
 10
-21.2812299636
 20
-282.5055112213
 30
0.0
 11
-21.2812299636
 21
-282.4401714922
 31
0.0
  0
LINE
  5
A4
330
1F
100
AcDbEntity
  8
0
  6
CONTINUOUS
 62
     7
100
AcDbLine
 10
-25.2812231687
 20
-282.4401714922
 30
0.0
 11
-25.2812231687
 21
-282.5922732324
 31
0.0
  0
LINE
  5
A5
330
1F
100
AcDbEntity
  8
0
  6
CONTINUOUS
 62
     7
100
AcDbLine
 10
348.8831942174
 20
-299.440172416
 30
0.0
 11
348.8831942174
 21
-287.3253495515
 31
0.0
  0
SPLINE
  5
A6
330
1F
100
AcDbEntity
  8
0
  6
CONTINUOUS
 62
     7
100
AcDbSpline
210
0.0
220
0.0
230
1.0
 70
     8
 71
     3
 72
    15
 73
    11
 74
     0
 42
0.00000001
 43
0.00000001
 40
0.0
 40
0.0
 40
0.0
 40
0.0
 40
0.0602142132601133
 40
0.2080565070015949
 40
0.3520060028590296
 40
0.4922970080373924
 40
0.6290444368949328
 40
0.7622651569290857
 40
0.8918919069317657
 40
1.0
 40
1.0
 40
1.0
 40
1.0
 10
348.8763098808789
 20
-287.325558167753
 30
0.0
 10
348.8780337725041
 20
-287.2625973815873
 30
0.0
 10
348.8839902875959
 20
-287.0450507171291
 30
0.0
 10
348.837161054106
 20
-286.6782468311075
 30
0.0
 10
348.7411706157063
 20
-286.2364921847748
 30
0.0
 10
348.5970974851405
 20
-285.8195256742657
 30
0.0
 10
348.4145316132551
 20
-285.4305604328526
 30
0.0
 10
348.196715523326
 20
-285.0734791633356
 30
0.0
 10
347.9642426680276
 20
-284.7618316737708
 30
0.0
 10
347.7914896365675
 20
-284.5829926990788
 30
0.0
 10
347.7129315229917
 20
-284.5016670495842
 30
0.0
  0
SPLINE
  5
A7
330
1F
100
AcDbEntity
  8
0
  6
CONTINUOUS
 62
     7
100
AcDbSpline
210
0.0
220
0.0
230
1.0
 70
     8
 71
     3
 72
    20
 73
    16
 74
     0
 42
0.00000001
 43
0.00000001
 40
0.0
 40
0.0
 40
0.0
 40
0.0
 40
0.0311362245246883
 40
0.0773118317073388
 40
0.1167360355947196
 40
0.1555479749083
 40
0.1989712051640118
 40
0.2539209790923783
 40
0.3351050053085126
 40
0.4701525679634569
 40
0.5887587602194746
 40
0.7143400182760595
 40
0.8341818833742327
 40
0.9528345722627811
 40
1.0
 40
1.0
 40
1.0
 40
1.0
 10
345.8314662071729
 20
-283.4401697934244
 30
0.0
 10
345.7908737975691
 20
-283.4299209175633
 30
0.0
 10
345.6900820802756
 20
-283.4044727658411
 30
0.0
 10
345.5429327886488
 20
-283.3778730073021
 30
0.0
 10
345.4002691826961
 20
-283.3561505478164
 30
0.0
 10
345.2840548726618
 20
-283.34220754952
 30
0.0
 10
345.1804119676843
 20
-283.331986270876
 30
0.0
 10
345.0705962480874
 20
-283.3231187335576
 30
0.0
 10
344.9215739121279
 20
-283.3132957865076
 30
0.0
 10
344.7258565572944
 20
-283.3029775110322
 30
0.0
 10
344.4600287078607
 20
-283.2910509251367
 30
0.0
 10
344.1596158690407
 20
-283.2791060305844
 30
0.0
 10
343.8123782364868
 20
-283.2666272643016
 30
0.0
 10
343.5151059430259
 20
-283.2565518676778
 30
0.0
 10
343.3222265524248
 20
-283.2505570831551
 30
0.0
 10
343.2673637959027
 20
-283.2488519222114
 30
0.0
  0
LINE
  5
A8
330
1F
100
AcDbEntity
  8
0
  6
CONTINUOUS
 62
     7
100
AcDbLine
 10
-68.8290471939
 20
-287.3253383756
 30
0.0
 11
-68.8290471939
 21
-299.440172416
 31
0.0
  0
SPLINE
  5
A9
330
1F
100
AcDbEntity
  8
0
  6
CONTINUOUS
 62
     7
100
AcDbSpline
210
0.0
220
0.0
230
1.0
 70
     8
 71
     3
 72
    19
 73
    15
 74
     0
 42
0.00000001
 43
0.00000001
 40
0.0
 40
0.0
 40
0.0
 40
0.0
 40
0.047267414656879
 40
0.1664561433724641
 40
0.2875109095349347
 40
0.4107329695946944
 40
0.5373596327231245
 40
0.670359538076845
 40
0.7538347468294152
 40
0.8277065321993514
 40
0.8717886374559133
 40
0.9162452891112038
 40
0.9666678973601592
 40
1.0
 40
1.0
 40
1.0
 40
1.0
 10
-63.31943224940068
 20
-283.2522251725767
 30
0.0
 10
-63.37159290472352
 20
-283.2538716455439
 30
0.0
 10
-63.555281003255
 20
-283.259669837433
 30
0.0
 10
-63.83765957881968
 20
-283.2694122257489
 30
0.0
 10
-64.16398470483415
 20
-283.2813587569678
 30
0.0
 10
-64.45300747409583
 20
-283.2930461601072
 30
0.0
 10
-64.70572424814486
 20
-283.304652269578
 30
0.0
 10
-64.89444213930237
 20
-283.314920406453
 30
0.0
 10
-65.04968538037808
 20
-283.325489566624
 30
0.0
 10
-65.17840294039861
 20
-283.3365649478942
 30
0.0
 10
-65.32090119313708
 20
-283.3527141614982
 30
0.0
 10
-65.47223724793233
 20
-283.375027322113
 30
0.0
 10
-65.62807439522706
 20
-283.4025778537886
 30
0.0
 10
-65.73372384729825
 20
-283.4294681750901
 30
0.0
 10
-65.77576946291688
 20
-283.4401697934244
 30
0.0
  0
SPLINE
  5
AA
330
1F
100
AcDbEntity
  8
0
  6
CONTINUOUS
 62
     7
100
AcDbSpline
210
0.0
220
0.0
230
1.0
 70
     8
 71
     3
 72
    15
 73
    11
 74
     0
 42
0.00000001
 43
0.00000001
 40
0.0
 40
0.0
 40
0.0
 40
0.0
 40
0.0632761721221677
 40
0.2015274175450504
 40
0.341348716225148
 40
0.482225865543023
 40
0.6238219459111937
 40
0.7659059635232938
 40
0.92393033029271
 40
1.0
 40
1.0
 40
1.0
 40
1.0
 10
-67.65878449949983
 20
-284.5065471798752
 30
0.0
 10
-67.70626011847162
 20
-284.5525149311095
 30
0.0
 10
-67.85746456979754
 20
-284.6989169950448
 30
0.0
 10
-68.07745040678707
 20
-284.9810326256481
 30
0.0
 10
-68.31572299535144
 20
-285.3483457051478
 30
0.0
 10
-68.5116175640412
 20
-285.7444297788539
 30
0.0
 10
-68.66468558221584
 20
-286.1615211569386
 30
0.0
 10
-68.77187064591472
 20
-286.6104862651637
 30
0.0
 10
-68.8272095752668
 20
-287.0013463376248
 30
0.0
 10
-68.82287200977383
 20
-287.2458912756393
 30
0.0
 10
-68.82146250281099
 20
-287.3253570020769
 30
0.0
  0
LINE
  5
AB
330
1F
100
AcDbEntity
  8
0
  6
CONTINUOUS
 62
     7
100
AcDbLine
 10
-63.2134849933
 20
-283.2488537849
 30
0.0
 11
-63.3194322494
 21
-283.2522251726
 31
0.0
  0
LWPOLYLINE
  5
AC
330
1F
100
AcDbEntity
  8
0
  6
CONTINUOUS
 62
     7
100
AcDbPolyline
 90
        3
 70
   128
 43
0.0
 10
343.271074185
 20
-283.252506432
 10
313.640293965
 20
-282.317778942
 10
309.6625034901
 20
-282.1934213013
  0
LINE
  5
AD
330
1F
100
AcDbEntity
  8
0
  6
CONTINUOUS
 62
     7
100
AcDbLine
 10
-29.6083713678
 20
-282.1932518006
 30
0.0
 11
-63.2170314697
 21
-283.2499881358
 31
0.0
  0
SPLINE
  5
AE
330
1F
100
AcDbEntity
  8
0
  6
CONTINUOUS
 62
     7
100
AcDbSpline
210
0.0
220
0.0
230
1.0
 70
     8
 71
     3
 72
    19
 73
    15
 74
     0
 42
0.00000001
 43
0.00000001
 40
0.0
 40
0.0
 40
0.0
 40
0.0
 40
0.0845417911114651
 40
0.1709624404261349
 40
0.257683176939193
 40
0.3446335299363101
 40
0.4317619249344354
 40
0.519030519338678
 40
0.6064105531586415
 40
0.6938804058914513
 40
0.7902405446762992
 40
0.8856013170925388
 40
0.9797898549722027
 40
1.0
 40
1.0
 40
1.0
 40
1.0
 10
303.7969445082211
 20
-279.369569298682
 30
0.0
 10
303.6362751256303
 20
-279.2093298806687
 30
0.0
 10
303.311365641358
 20
-278.8852898810914
 30
0.0
 10
302.8660095157433
 20
-278.3551321035383
 30
0.0
 10
302.4521771969576
 20
-277.7924056791963
 30
0.0
 10
302.078347744127
 20
-277.1998061747952
 30
0.0
 10
301.7460521724616
 20
-276.5813086473526
 30
0.0
 10
301.4575769758105
 20
-275.9398828448703
 30
0.0
 10
301.2145012712525
 20
-275.2788809992409
 30
0.0
 10
301.0120673490532
 20
-274.5789526517275
 30
0.0
 10
300.856216984202
 20
-273.8447825518107
 30
0.0
 10
300.7600690893722
 20
-273.0830393710114
 30
0.0
 10
300.7189593798216
 20
-272.5200423655031
 30
0.0
 10
300.7272933095503
 20
-272.2129819171432
 30
0.0
 10
300.7287656160855
 20
-272.1587353468511
 30
0.0
  0
SPLINE
  5
AF
330
1F
100
AcDbEntity
  8
0
  6
CONTINUOUS
 62
     7
100
AcDbSpline
210
0.0
220
0.0
230
1.0
 70
     8
 71
     3
 72
    19
 73
    15
 74
     0
 42
0.00000001
 43
0.00000001
 40
0.0
 40
0.0
 40
0.0
 40
0.0
 40
0.0826397684961767
 40
0.1768934596679209
 40
0.2701317337538182
 40
0.3623734178917984
 40
0.4536272646100387
 40
0.5438892730740523
 40
0.633145165012831
 40
0.7213709595325287
 40
0.8085295184934734
 40
0.894568626688872
 40
0.9794210343659768
 40
0.9999999999999999
 40
0.9999999999999999
 40
0.9999999999999999
 40
0.9999999999999999
 10
-20.67253243002656
 20
-272.158359092531
 30
0.0
 10
-20.67523326716758
 20
-272.373493112496
 30
0.0
 10
-20.68101450826462
 20
-272.8339953836954
 30
0.0
 10
-20.75618012760289
 20
-273.5339826282499
 30
0.0
 10
-20.88157031874649
 20
-274.2515285298724
 30
0.0
 10
-21.05802863116041
 20
-274.9504344297061
 30
0.0
 10
-21.2812845336251
 20
-275.6275449257653
 30
0.0
 10
-21.54907562524108
 20
-276.2799000627568
 30
0.0
 10
-21.85830210798931
 20
-276.9048524598965
 30
0.0
 10
-22.20615802064599
 20
-277.4996744922105
 30
0.0
 10
-22.58849267307411
 20
-278.0630219992547
 30
0.0
 10
-23.00501279275438
 20
-278.589688592542
 30
0.0
 10
-23.33259723159598
 20
-278.9660451856128
 30
0.0
 10
-23.52989833706304
 20
-279.1564793942944
 30
0.0
 10
-23.56840919527772
 20
-279.1936499149177
 30
0.0
  0
SPLINE
  5
B0
330
1F
100
AcDbEntity
  8
0
  6
CONTINUOUS
 62
     7
100
AcDbSpline
210
0.0
220
0.0
230
1.0
 70
     8
 71
     3
 72
    18
 73
    14
 74
     0
 42
0.00000001
 43
0.00000001
 40
0.0
 40
0.0
 40
0.0
 40
0.0
 40
0.0266024861005355
 40
0.1279587742531695
 40
0.229153697037463
 40
0.3301397458508152
 40
0.428714934053588
 40
0.5281875485101402
 40
0.6288063813586924
 40
0.7306482708247115
 40
0.8336238254638245
 40
0.9375724615778769
 40
1.0
 40
1.0
 40
1.0
 40
1.0
 10
309.6421187016034
 20
-282.185661521611
 30
0.0
 10
309.5894465451594
 20
-282.1854931683793
 30
0.0
 10
309.3360918567901
 20
-282.1846833841701
 30
0.0
 10
308.8800932740402
 20
-282.1280640256185
 30
0.0
 10
308.2786819246051
 20
-282.0142931734209
 30
0.0
 10
307.6804331193096
 20
-281.8409510213982
 30
0.0
 10
307.0829347010934
 20
-281.6150856213289
 30
0.0
 10
306.4881288535813
 20
-281.337178716885
 30
0.0
 10
305.8922291741798
 20
-281.0051704418333
 30
0.0
 10
305.2984118276512
 20
-280.6199823889492
 30
0.0
 10
304.7115063938032
 20
-280.1801919342458
 30
0.0
 10
304.2114770030982
 20
-279.7619737017815
 30
0.0
 10
303.9135684140123
 20
-279.4721225505477
 30
0.0
 10
303.8017873856091
 20
-279.3633648276899
 30
0.0
  0
SPLINE
  5
B1
330
1F
100
AcDbEntity
  8
0
  6
CONTINUOUS
 62
     7
100
AcDbSpline
210
0.0
220
0.0
230
1.0
 70
     8
 71
     3
 72
    11
 73
     7
 74
     0
 42
0.00000001
 43
0.00000001
 40
0.0
 40
0.0
 40
0.0
 40
0.0
 40
0.1893156671474076
 40
0.5038426447323542
 40
0.8273928744671022
 40
1.0
 40
1.0
 40
1.0
 40
1.0
 10
-27.78123568567995
 20
-281.875817951617
 30
0.0
 10
-27.89686438826666
 20
-281.9123308044782
 30
0.0
 10
-28.20459735192515
 20
-282.0095057114974
 30
0.0
 10
-28.70645629851365
 20
-282.1081371894825
 30
0.0
 10
-29.2008912320624
 20
-282.1772824814875
 30
0.0
 10
-29.50221743389461
 20
-282.1828107179267
 30
0.0
 10
-29.60704516443971
 20
-282.1847339243267
 30
0.0
  0
LINE
  5
B2
330
1F
100
AcDbEntity
  8
0
  6
CONTINUOUS
 62
     7
100
AcDbLine
 10
300.7259641978
 20
-272.1586049617
 30
0.0
 11
300.7259641978
 21
-254.4401706279
 31
0.0
  0
LINE
  5
B3
330
1F
100
AcDbEntity
  8
0
  6
CONTINUOUS
 62
     7
100
AcDbLine
 10
-20.6718171743
 20
-254.4401706279
 30
0.0
 11
-20.6718171743
 21
-272.158435461
 31
0.0
  0
LINE
  5
B4
330
1F
100
AcDbEntity
  8
0
  6
CONTINUOUS
 62
     7
100
AcDbLine
 10
147.8270733001
 20
-299.440172416
 30
0.0
 11
147.8270733001
 21
-285.7401714743
 31
0.0
  0
LINE
  5
B5
330
1F
100
AcDbEntity
  8
0
  6
CONTINUOUS
 62
     7
100
AcDbLine
 10
132.2270737233
 20
-285.7401714743
 30
0.0
 11
132.2270737233
 21
-299.440172416
 31
0.0
  0
LINE
  5
B6
330
1F
100
AcDbEntity
  8
0
  6
CONTINUOUS
 62
     7
100
AcDbLine
 10
-64.9729247001
 20
-254.4401706279
 30
0.0
 11
345.0270717236
 21
-254.4401706279
 31
0.0
  0
LINE
  5
B7
330
1F
100
AcDbEntity
  8
0
  6
CONTINUOUS
 62
     7
100
AcDbLine
 10
342.0270805451
 20
-177.431006831
 30
0.0
 11
342.0270805451
 21
-191.4493338287
 31
0.0
  0
LINE
  5
B8
330
1F
100
AcDbEntity
  8
0
  6
CONTINUOUS
 62
     7
100
AcDbLine
 10
342.0270805451
 20
-191.4493338287
 30
0.0
 11
342.0270805451
 21
-200.0569039107
 31
0.0
  0
LINE
  5
B9
330
1F
100
AcDbEntity
  8
0
  6
CONTINUOUS
 62
     7
100
AcDbLine
 10
342.0270805451
 20
-168.8234404743
 30
0.0
 11
342.0270805451
 21
-177.431006831
 31
0.0
  0
SPLINE
  5
BA
330
1F
100
AcDbEntity
  8
0
  6
CONTINUOUS
 62
     7
100
AcDbSpline
210
0.0
220
0.0
230
1.0
 70
     8
 71
     3
 72
     9
 73
     5
 74
     0
 42
0.00000001
 43
0.00000001
 40
0.0
 40
0.0
 40
0.0
 40
0.0
 40
0.5914937653092817
 40
1.0
 40
1.0
 40
1.0
 40
1.0
 10
342.027080545094
 20
-200.0569039106939
 30
0.0
 10
342.0250266547426
 20
-201.2205083191376
 30
0.0
 10
342.0215542760435
 20
-203.1877385364083
 30
0.0
 10
342.0396118605816
 20
-205.0648453711156
 30
0.0
 10
342.046988496449
 20
-205.831655216274
 30
0.0
  0
LINE
  5
BB
330
1F
100
AcDbEntity
  8
0
  6
CONTINUOUS
 62
     7
100
AcDbLine
 10
342.0276616904
 20
-166.1576450885
 30
0.0
 11
342.0270805451
 21
-168.8234404743
 31
0.0
  0
LINE
  5
BC
330
1F
100
AcDbEntity
  8
0
  6
CONTINUOUS
 62
     7
100
AcDbLine
 10
171.5270740184
 20
-179.5326964081
 30
0.0
 11
171.5270740184
 21
-189.3476442516
 31
0.0
  0
LINE
  5
BD
330
1F
100
AcDbEntity
  8
0
  6
CONTINUOUS
 62
     7
100
AcDbLine
 10
180.0270726177
 20
-174.6252150357
 30
0.0
 11
171.5270740184
 21
-179.5326964081
 31
0.0
  0
LINE
  5
BE
330
1F
100
AcDbEntity
  8
0
  6
CONTINUOUS
 62
     7
100
AcDbLine
 10
171.5270740184
 20
-189.3476442516
 30
0.0
 11
180.0270726177
 21
-194.255125624
 31
0.0
  0
LINE
  5
BF
330
1F
100
AcDbEntity
  8
0
  6
CONTINUOUS
 62
     7
100
AcDbLine
 10
188.5270749423
 20
-189.3476442516
 30
0.0
 11
188.5270749423
 21
-179.5326964081
 31
0.0
  0
LINE
  5
C0
330
1F
100
AcDbEntity
  8
0
  6
CONTINUOUS
 62
     7
100
AcDbLine
 10
188.5270749423
 20
-179.5326964081
 30
0.0
 11
180.0270726177
 21
-174.6252150357
 31
0.0
  0
LINE
  5
C1
330
1F
100
AcDbEntity
  8
0
  6
CONTINUOUS
 62
     7
100
AcDbLine
 10
180.0270726177
 20
-194.255125624
 30
0.0
 11
188.5270749423
 21
-189.3476442516
 31
0.0
  0
CIRCLE
  5
C2
330
1F
100
AcDbEntity
  8
0
  6
CONTINUOUS
 62
     7
100
AcDbCircle
 10
180.0149562839
 20
-184.3917017164
 30
0.0
 40
10.00000000000003
  0
LINE
  5
C3
330
1F
100
AcDbEntity
  8
0
  6
CONTINUOUS
 62
     7
100
AcDbLine
 10
358.0270682665
 20
-180.5602655829
 30
0.0
 11
358.0270682665
 21
-174.3907601655
 31
0.0
  0
LINE
  5
C4
330
1F
100
AcDbEntity
  8
0
  6
CONTINUOUS
 62
     7
100
AcDbLine
 10
358.0270682665
 20
-180.5602655829
 30
0.0
 11
358.0270682665
 21
-194.3907559932
 31
0.0
  0
LINE
  5
C5
330
1F
100
AcDbEntity
  8
0
  6
CONTINUOUS
 62
     7
100
AcDbLine
 10
365.0270675513
 20
-185.7174308122
 30
0.0
 11
358.0270682665
 21
-185.7174308122
 31
0.0
  0
LINE
  5
C6
330
1F
100
AcDbEntity
  8
0
  6
CONTINUOUS
 62
     7
100
AcDbLine
 10
365.0270675513
 20
-193.5065173627
 30
0.0
 11
358.0270682665
 21
-193.5065173627
 31
0.0
  0
LINE
  5
C7
330
1F
100
AcDbEntity
  8
0
  6
CONTINUOUS
 62
     7
100
AcDbLine
 10
365.0270675513
 20
-185.7174308122
 30
0.0
 11
365.0270675513
 21
-193.5065173627
 31
0.0
  0
LINE
  5
C8
330
1F
100
AcDbEntity
  8
0
  6
CONTINUOUS
 62
     7
100
AcDbLine
 10
365.0270675513
 20
-176.6510800541
 30
0.0
 11
358.0270682665
 21
-176.6510800541
 31
0.0
  0
LINE
  5
C9
330
1F
100
AcDbEntity
  8
0
  6
CONTINUOUS
 62
     7
100
AcDbLine
 10
365.0270675513
 20
-176.6510800541
 30
0.0
 11
365.0270675513
 21
-185.7174308122
 31
0.0
  0
LINE
  5
CA
330
1F
100
AcDbEntity
  8
0
  6
CONTINUOUS
 62
     7
100
AcDbLine
 10
365.0270675513
 20
-175.3738195718
 30
0.0
 11
358.0270682665
 21
-175.3738195718
 31
0.0
  0
LINE
  5
CB
330
1F
100
AcDbEntity
  8
0
  6
CONTINUOUS
 62
     7
100
AcDbLine
 10
365.0270675513
 20
-175.3738195718
 30
0.0
 11
365.0270675513
 21
-176.6510800541
 31
0.0
  0
LINE
  5
CC
330
1F
100
AcDbEntity
  8
0
  6
CONTINUOUS
 62
     7
100
AcDbLine
 10
91.5270720812
 20
-179.5326964081
 30
0.0
 11
91.5270720812
 21
-189.3476442516
 31
0.0
  0
LINE
  5
CD
330
1F
100
AcDbEntity
  8
0
  6
CONTINUOUS
 62
     7
100
AcDbLine
 10
100.0270744058
 20
-174.6252150357
 30
0.0
 11
91.5270720812
 21
-179.5326964081
 31
0.0
  0
LINE
  5
CE
330
1F
100
AcDbEntity
  8
0
  6
CONTINUOUS
 62
     7
100
AcDbLine
 10
108.5270730051
 20
-179.5326964081
 30
0.0
 11
100.0270744058
 21
-174.6252150357
 31
0.0
  0
LINE
  5
CF
330
1F
100
AcDbEntity
  8
0
  6
CONTINUOUS
 62
     7
100
AcDbLine
 10
91.5270720812
 20
-189.3476442516
 30
0.0
 11
100.0270744058
 21
-194.255125624
 31
0.0
  0
LINE
  5
D0
330
1F
100
AcDbEntity
  8
0
  6
CONTINUOUS
 62
     7
100
AcDbLine
 10
108.5270730051
 20
-189.3476442516
 30
0.0
 11
108.5270730051
 21
-179.5326964081
 31
0.0
  0
LINE
  5
D1
330
1F
100
AcDbEntity
  8
0
  6
CONTINUOUS
 62
     7
100
AcDbLine
 10
100.0270744058
 20
-194.255125624
 30
0.0
 11
108.5270730051
 21
-189.3476442516
 31
0.0
  0
CIRCLE
  5
D2
330
1F
100
AcDbEntity
  8
0
  6
CONTINUOUS
 62
     7
100
AcDbCircle
 10
100.0149562839
 20
-184.3917017164
 30
0.0
 40
10.00000000000001
  0
ELLIPSE
  5
D3
330
1F
100
AcDbEntity
  8
0
  6
CONTINUOUS
 62
     7
100
AcDbEllipse
 10
71.9280858846
 20
-227.4401706279
 30
0.0
 11
-0.2815134913797408
 21
0.9959520549206502
 31
0.0
210
0.0
220
0.0
230
1.0
 40
0.3192957554
 41
6.193177762965508
 42
7.763974089760318
  0
LINE
  5
D4
330
1F
100
AcDbEntity
  8
0
  6
CONTINUOUS
 62
     7
100
AcDbLine
 10
71.6762964818
 20
-226.4401697636
 30
0.0
 11
74.1761152836
 21
-226.4401697636
 31
0.0
  0
LINE
  5
D5
330
1F
100
AcDbEntity
  8
0
  6
CONTINUOUS
 62
     7
100
AcDbLine
 10
74.1761152836
 20
-216.4401718498
 30
0.0
 11
71.6762964818
 21
-216.4401718498
 31
0.0
  0
ELLIPSE
  5
D6
330
1F
100
AcDbEntity
  8
0
  6
CONTINUOUS
 62
     7
100
AcDbEllipse
 10
71.9280858846
 20
-215.4401706279
 30
0.0
 11
0.2815134913797408
 21
0.9959520549206502
 31
0.0
210
0.0
220
0.0
230
1.0
 40
0.3192957554
 41
1.660803871009062
 42
3.231600197803957
  0
ARC
  5
D7
330
1F
100
AcDbEntity
  8
0
  6
CONTINUOUS
 62
     7
100
AcDbCircle
 10
80.6014758503
 20
-229.5341079244
 30
0.0
 40
1.012778055551699
100
AcDbArc
 50
302.4131217618
 51
0.6241921112
  0
LINE
  5
D8
330
1F
100
AcDbEntity
  8
0
  6
CONTINUOUS
 62
     7
100
AcDbLine
 10
75.2021794411
 20
-216.4401718498
 30
0.0
 11
74.1761152836
 21
-216.4401718498
 31
0.0
  0
LINE
  5
D9
330
1F
100
AcDbEntity
  8
0
  6
CONTINUOUS
 62
     7
100
AcDbLine
 10
74.1761152836
 20
-226.4401697636
 30
0.0
 11
75.2021794411
 21
-226.4401697636
 31
0.0
  0
ARC
  5
DA
330
1F
100
AcDbEntity
  8
0
  6
CONTINUOUS
 62
     7
100
AcDbCircle
 10
80.6014818886
 20
-213.3462304131
 30
0.0
 40
1.012772053330716
100
AcDbArc
 50
359.3756188462
 51
57.5870672808
  0
LINE
  5
DB
330
1F
100
AcDbEntity
  8
0
  6
CONTINUOUS
 62
     7
100
AcDbLine
 10
81.6141938063
 20
-229.5230747283
 30
0.0
 11
81.6141938063
 21
-213.3572668851
 31
0.0
  0
LINE
  5
DC
330
1F
100
AcDbEntity
  8
0
  6
CONTINUOUS
 62
     7
100
AcDbLine
 10
67.9886465165
 20
-238.4720043362
 30
0.0
 11
81.1443452927
 21
-230.3891004146
 31
0.0
  0
LINE
  5
DD
330
1F
100
AcDbEntity
  8
0
  6
CONTINUOUS
 62
     7
100
AcDbLine
 10
81.1443452927
 20
-212.4912411988
 30
0.0
 11
67.9886465165
 21
-204.4083372772
 31
0.0
  0
ELLIPSE
  5
DE
330
1F
100
AcDbEntity
  8
0
  6
CONTINUOUS
 62
     7
100
AcDbEllipse
 10
61.0204204035
 20
-208.7384647057
 30
0.0
 11
0.0
 21
1.154700538379245
 31
0.0
210
0.0
220
0.0
230
1.0
 40
0.2961981327
 41
1.570796326794897
 42
2.961577565161442
  0
ELLIPSE
  5
DF
330
1F
100
AcDbEntity
  8
0
  6
CONTINUOUS
 62
     7
100
AcDbEllipse
 10
61.0204204035
 20
-234.1418765501
 30
0.0
 11
0.0
 21
1.154700538379245
 31
0.0
210
0.0
220
0.0
230
1.0
 40
0.2961981327
 41
0.1800150884283512
 42
1.570796326794897
  0
ELLIPSE
  5
E0
330
1F
100
AcDbEntity
  8
0
  6
CONTINUOUS
 62
     7
100
AcDbEllipse
 10
72.4505665568
 20
-225.4401706279
 30
0.0
 11
-0.2815134913797408
 21
0.9959520549206502
 31
0.0
210
0.0
220
0.0
230
1.0
 40
0.3192957554
 41
3.051585109375587
 42
4.622381436170532
  0
ELLIPSE
  5
E1
330
1F
100
AcDbEntity
  8
0
  6
CONTINUOUS
 62
     7
100
AcDbEllipse
 10
72.4505665568
 20
-217.4401706279
 30
0.0
 11
0.2815134913797408
 21
0.9959520549206502
 31
0.0
210
0.0
220
0.0
230
1.0
 40
0.3192957554
 41
4.80239652459886
 42
6.373192851393749
  0
ELLIPSE
  5
E2
330
1F
100
AcDbEntity
  8
0
  6
CONTINUOUS
 62
     7
100
AcDbEllipse
 10
62.0464808335
 20
-231.8324754733
 30
0.0
 11
0.0
 21
1.154700538379245
 31
0.0
210
0.0
220
0.0
230
1.0
 40
0.2961981327
 41
4.447303415780469
 42
4.712388980384693
  0
ELLIPSE
  5
E3
330
1F
100
AcDbEntity
  8
0
  6
CONTINUOUS
 62
     7
100
AcDbEllipse
 10
62.0464808335
 20
-211.0478657825
 30
0.0
 11
0.0
 21
1.154700538379245
 31
0.0
210
0.0
220
0.0
230
1.0
 40
0.2961981327
 41
4.712388980384693
 42
4.977474544988972
  0
ELLIPSE
  5
E4
330
1F
100
AcDbEntity
  8
0
  6
CONTINUOUS
 62
     7
100
AcDbEllipse
 10
50.1127549224
 20
-227.4401706279
 30
0.0
 11
0.2815134913797408
 21
0.9959520549206502
 31
0.0
210
0.0
220
0.0
230
1.0
 40
0.3192957554
 41
0.0900075442141208
 42
1.660803871009062
  0
ELLIPSE
  5
E5
330
1F
100
AcDbEntity
  8
0
  6
CONTINUOUS
 62
     7
100
AcDbEllipse
 10
50.1127549224
 20
-215.4401706279
 30
0.0
 11
-0.2815134913797408
 21
0.9959520549206502
 31
0.0
210
0.0
220
0.0
230
1.0
 40
0.3192957554
 41
1.480788782580731
 42
3.051585109375631
  0
ARC
  5
E6
330
1F
100
AcDbEntity
  8
0
  6
CONTINUOUS
 62
     7
100
AcDbCircle
 10
67.5171150918
 20
-237.7092102948
 30
0.0
 40
0.8967701120995043
100
AcDbArc
 50
270.1079994138
 51
301.7228430609
  0
ARC
  5
E7
330
1F
100
AcDbEntity
  8
0
  6
CONTINUOUS
 62
     7
100
AcDbCircle
 10
67.517130984
 20
-205.1710880525
 30
0.0
 40
0.8967249536699977
100
AcDbArc
 50
58.2765670783
 51
89.8930105754
  0
LINE
  5
E8
330
1F
100
AcDbEntity
  8
0
  6
CONTINUOUS
 62
     7
100
AcDbLine
 10
51.3906081411
 20
-216.4401718498
 30
0.0
 11
50.3645439836
 21
-216.4401718498
 31
0.0
  0
LINE
  5
E9
330
1F
100
AcDbEntity
  8
0
  6
CONTINUOUS
 62
     7
100
AcDbLine
 10
51.3906081411
 20
-226.4401697636
 30
0.0
 11
50.3645439836
 21
-226.4401697636
 31
0.0
  0
ELLIPSE
  5
EA
330
1F
100
AcDbEntity
  8
0
  6
CONTINUOUS
 62
     7
100
AcDbEllipse
 10
51.6423951101
 20
-225.4401706279
 30
0.0
 11
0.2815134913797408
 21
0.9959520549206502
 31
0.0
210
0.0
220
0.0
230
1.0
 40
0.3192957554
 41
3.231600197803976
 42
4.802396524598862
  0
ELLIPSE
  5
EB
330
1F
100
AcDbEntity
  8
0
  6
CONTINUOUS
 62
     7
100
AcDbEllipse
 10
51.6423951101
 20
-217.4401706279
 30
0.0
 11
-0.2815134913797408
 21
0.9959520549206502
 31
0.0
210
0.0
220
0.0
230
1.0
 40
0.3192957554
 41
4.622381436170527
 42
6.19317776296549
  0
LINE
  5
EC
330
1F
100
AcDbEntity
  8
0
  6
CONTINUOUS
 62
     7
100
AcDbLine
 10
50.3645439836
 20
-216.4401718498
 30
0.0
 11
47.8647251817
 21
-216.4401718498
 31
0.0
  0
LINE
  5
ED
330
1F
100
AcDbEntity
  8
0
  6
CONTINUOUS
 62
     7
100
AcDbLine
 10
47.8647251817
 20
-226.4401697636
 30
0.0
 11
50.3645439836
 21
-226.4401697636
 31
0.0
  0
SPLINE
  5
EE
330
1F
100
AcDbEntity
  8
0
  6
CONTINUOUS
 62
     7
100
AcDbSpline
210
0.0
220
0.0
230
1.0
 70
     8
 71
     3
 72
    13
 73
     9
 74
     0
 42
0.00000001
 43
0.00000001
 40
0.0
 40
0.0
 40
0.0
 40
0.0
 40
0.0073908628829742
 40
0.1430078325754703
 40
0.3577113549967406
 40
0.5719444017790046
 40
0.7859671241312804
 40
1.0
 40
1.0
 40
1.0
 40
1.0
 10
92.36850712623831
 20
-175.9359286249254
 30
0.0
 10
92.36352654231747
 20
-175.9300352041676
 30
0.0
 10
92.26715585830442
 20
-175.8160017898854
 30
0.0
 10
92.02573690930532
 20
-175.5307976601534
 30
0.0
 10
91.66542405743492
 20
-175.1064388927148
 30
0.0
 10
91.33664289081239
 20
-174.7203930239279
 30
0.0
 10
91.11309047735305
 20
-174.4584554324612
 30
0.0
 10
91.08439688074176
 20
-174.4248739199377
 30
0.0
 10
91.07004974212882
 20
-174.4080827653978
 30
0.0
  0
ARC
  5
EF
330
1F
100
AcDbEntity
  8
0
  6
CONTINUOUS
 62
     7
100
AcDbCircle
 10
140.0270735117
 20
-224.4401706279
 30
0.0
 40
70.00000000000001
100
AcDbArc
 50
45.6222342113
 51
134.3777657887
  0
SPLINE
  5
F0
330
1F
100
AcDbEntity
  8
0
  6
CONTINUOUS
 62
     7
100
AcDbSpline
210
0.0
220
0.0
230
1.0
 70
     8
 71
     3
 72
    13
 73
     9
 74
     0
 42
0.00000001
 43
0.00000001
 40
0.0
 40
0.0
 40
0.0
 40
0.0
 40
0.2140328758687196
 40
0.4280555982209954
 40
0.6422886450032594
 40
0.8569921674245297
 40
0.9926091371170259
 40
1.0
 40
1.0
 40
1.0
 40
1.0
 10
188.984097281363
 20
-174.4080827653978
 30
0.0
 10
188.96975014275
 20
-174.4248739199377
 30
0.0
 10
188.9410565461388
 20
-174.4584554324611
 30
0.0
 10
188.7175041326794
 20
-174.720393023928
 30
0.0
 10
188.3887229660569
 20
-175.1064388927148
 30
0.0
 10
188.0284101141865
 20
-175.5307976601533
 30
0.0
 10
187.7869911651873
 20
-175.8160017898855
 30
0.0
 10
187.6906204811743
 20
-175.9300352041676
 30
0.0
 10
187.6856398972535
 20
-175.9359286249254
 30
0.0
  0
ARC
  5
F1
330
1F
100
AcDbEntity
  8
0
  6
CONTINUOUS
 62
     7
100
AcDbCircle
 10
181.5270735117
 20
-184.4401706279
 30
0.0
 40
12.50000000000001
100
AcDbArc
 50
306.6240470303
 51
53.3759529697
  0
SPLINE
  5
F2
330
1F
100
AcDbEntity
  8
0
  6
CONTINUOUS
 62
     7
100
AcDbSpline
210
0.0
220
0.0
230
1.0
 70
     8
 71
     3
 72
    13
 73
     9
 74
     0
 42
0.00000001
 43
0.00000001
 40
0.0
 40
0.0
 40
0.0
 40
0.0
 40
0.2140328022907161
 40
0.428055299160841
 40
0.6422881202393682
 40
0.8569914164612353
 40
0.9926091449036181
 40
1.0
 40
1.0
 40
1.0
 40
1.0
 10
188.984097281363
 20
-194.4722616196249
 30
0.0
 10
188.9697501671635
 20
-194.4554689001604
 30
0.0
 10
188.9410566295608
 20
-194.4218842697805
 30
0.0
 10
188.7175040196528
 20
-194.1599479996691
 30
0.0
 10
188.3887233884583
 20
-193.7739013310668
 30
0.0
 10
188.0284082046491
 20
-193.3495434807174
 30
0.0
 10
187.7869917960049
 20
-193.0643358429515
 30
0.0
 10
187.6906204823156
 20
-192.9503017292643
 30
0.0
 10
187.6856398972535
 20
-192.9444083095167
 30
0.0
  0
SPLINE
  5
F3
330
1F
100
AcDbEntity
  8
0
  6
CONTINUOUS
 62
     7
100
AcDbSpline
210
0.0
220
0.0
230
1.0
 70
     8
 71
     3
 72
    13
 73
     9
 74
     0
 42
0.00000001
 43
0.00000001
 40
0.0
 40
0.0
 40
0.0
 40
0.0
 40
0.007390855096382
 40
0.1430085835387648
 40
0.357711879760632
 40
0.5719447008391592
 40
0.7859671977092839
 40
1.0
 40
1.0
 40
1.0
 40
1.0
 10
92.36850712623831
 20
-192.9444083095167
 30
0.0
 10
92.3635265411762
 20
-192.9503017292643
 30
0.0
 10
92.2671552274868
 20
-193.0643358429515
 30
0.0
 10
92.02573881884284
 20
-193.3495434807174
 30
0.0
 10
91.66542363503348
 20
-193.7739013310668
 30
0.0
 10
91.33664300383896
 20
-194.1599479996691
 30
0.0
 10
91.11309039393097
 20
-194.4218842697805
 30
0.0
 10
91.08439685632825
 20
-194.4554689001604
 30
0.0
 10
91.07004974212882
 20
-194.4722616196249
 30
0.0
  0
ARC
  5
F4
330
1F
100
AcDbEntity
  8
0
  6
CONTINUOUS
 62
     7
100
AcDbCircle
 10
98.5270735117
 20
-184.4401706279
 30
0.0
 40
12.5
100
AcDbArc
 50
126.6240470303
 51
233.3759529697
  0
ARC
  5
F5
330
1F
100
AcDbEntity
  8
0
  6
CONTINUOUS
 62
     7
100
AcDbCircle
 10
140.0270735117
 20
-144.4401706279
 30
0.0
 40
70.00000000000001
100
AcDbArc
 50
225.6222342113
 51
314.3777657887
  0
LWPOLYLINE
  5
F6
330
1F
100
AcDbEntity
  8
0
  6
CONTINUOUS
 62
     7
100
AcDbPolyline
 90
       65
 70
   128
 43
0.0
 10
-25.5484754947
 20
75.9636341512
 10
-25.2142722515
 20
75.5352555692
 10
-24.8519952205
 20
75.1552759587
 10
-24.4651163724
 20
74.8273312032
 10
-24.0573609975
 20
74.554610151
 10
-23.6326779035
 20
74.3397056043
 10
-23.1951500085
 20
74.1847335278
 10
-22.7489794401
 20
74.0911244332
 10
-22.2984875349
 20
74.0598319947
 10
-21.8479807285
 20
74.0911244332
 10
-21.40181016
 20
74.1847335278
 10
-20.964282265
 20
74.3397056043
 10
-20.539599171
 20
74.554610151
 10
-20.1318437961
 20
74.8273312032
 10
-19.744964948
 20
75.1552759587
 10
-19.3826879171
 20
75.5352555692
 10
-19.0484846738
 20
75.9636341512
 10
-18.7455738691
 20
76.4362691819
 10
-18.4768910316
 20
76.9486307084
 10
-18.2449991611
 20
77.4957417428
 10
-18.0521483329
 20
78.0723868787
 10
-17.9002011922
 20
78.6729930818
 10
-17.7906031517
 20
79.2917488992
 10
-17.7244121936
 20
79.9227236688
 10
-17.7022839693
 20
80.5598377168
 10
-17.7244121936
 20
81.1969517648
 10
-17.7906031517
 20
81.8279265344
 10
-17.9002011922
 20
82.4466823518
 10
-18.0521483329
 20
83.0472587525
 10
-18.2449991611
 20
83.6239038884
 10
-18.4768910316
 20
84.1710447251
 10
-18.7455738691
 20
84.6833764493
 10
-19.0484846738
 20
85.15601148
 10
-19.3826879171
 20
85.584390062
 10
-19.744964948
 20
85.9643696725
 10
-20.1318437961
 20
86.292314428
 10
-20.539599171
 20
86.5650354802
 10
-20.964282265
 20
86.7799400269
 10
-21.40181016
 20
86.9349419057
 10
-21.8479807285
 20
87.028521198
 10
-22.2984875349
 20
87.0598434388
 10
-22.7489794401
 20
87.028521198
 10
-23.1951500085
 20
86.9349419057
 10
-23.6326779035
 20
86.7799400269
 10
-24.0573609975
 20
86.5650354802
 10
-24.4651163724
 20
86.292314428
 10
-24.8519952205
 20
85.9643696725
 10
-25.2142722515
 20
85.584390062
 10
-25.5484754947
 20
85.15601148
 10
-25.8513862995
 20
84.6833764493
 10
-26.120069137
 20
84.1710447251
 10
-26.3519610074
 20
83.6239038884
 10
-26.5448118356
 20
83.0472587525
 10
-26.6967589763
 20
82.4466823518
 10
-26.8063570169
 20
81.8279265344
 10
-26.8725479749
 20
81.1969517648
 10
-26.8946761993
 20
80.5598377168
 10
-26.8725479749
 20
79.9227236688
 10
-26.8063570169
 20
79.2917488992
 10
-26.6967589763
 20
78.6729930818
 10
-26.5448118356
 20
78.0723868787
 10
-26.3519610074
 20
77.4957417428
 10
-26.120069137
 20
76.9486307084
 10
-25.8513862995
 20
76.4362691819
 10
-25.5484754947
 20
75.9636341512
  0
LWPOLYLINE
  5
F7
330
1F
100
AcDbEntity
  8
0
  6
CONTINUOUS
 62
     7
100
AcDbPolyline
 90
       37
 70
   128
 43
0.0
 10
-19.6664656309
 20
73.6031710088
 10
-19.2342872528
 20
73.5618053853
 10
-18.7633956579
 20
73.5776602208
 10
-18.2956780103
 20
73.6567555844
 10
-17.8354109434
 20
73.7983464181
 10
-17.3867369798
 20
74.0011810243
 10
-16.9537390378
 20
74.2634116589
 10
-16.5403212217
 20
74.5826541364
 10
-16.1502237228
 20
74.9560474336
 10
-15.7870079187
 20
75.3801642835
 10
-15.4539222625
 20
75.8512197911
 10
-15.1540214923
 20
76.3648926198
 10
-14.8900027183
 20
76.9165634095
 10
-14.6642650274
 20
77.5012253701
 10
-14.4788349775
 20
78.1135736882
 10
-14.335411301
 20
78.7480949342
 10
-14.2352903989
 20
79.3990074574
 10
-14.179366341
 20
80.0604402005
 10
-14.1681606678
 20
80.7264028966
 10
-14.2017627862
 20
81.3908754765
 10
-14.2798746732
 20
82.0477782666
 10
-14.4017810729
 20
82.6912402093
 10
-14.5663942007
 20
83.315390247
 10
-14.7722090391
 20
83.9145659387
 10
-15.017362943
 20
84.4833730637
 10
-15.2996505407
 20
85.0166558206
 10
-15.6164939311
 20
85.5095862328
 10
-15.9650469926
 20
85.9576641499
 10
-16.3421357778
 20
86.3568662583
 10
-16.7443330196
 20
86.703586477
 10
-17.168032637
 20
86.9946657597
 10
-17.6093752292
 20
87.2274516999
 10
-18.0643523839
 20
87.3998581349
 10
-18.5288662818
 20
87.510335344
 10
-18.9987147954
 20
87.5578402459
 10
-19.4696063903
 20
87.5419854104
 10
-19.6664656309
 20
87.5164746224
  0
LINE
  5
F8
330
1F
100
AcDbEntity
  8
0
  6
CONTINUOUS
 62
     7
100
AcDbLine
 10
-13.7358779815
 20
67.05983271
 30
0.0
 11
-13.5383034852
 21
83.0598353326
 31
0.0
  0
SPLINE
  5
F9
330
1F
100
AcDbEntity
  8
0
  6
CONTINUOUS
 62
     7
100
AcDbSpline
210
0.0
220
0.0
230
1.0
 70
     8
 71
     3
 72
    15
 73
    11
 74
     0
 42
0.00000001
 43
0.00000001
 40
0.0
 40
0.0
 40
0.0
 40
0.0
 40
0.1371272660653229
 40
0.2742519652050169
 40
0.4113915034250525
 40
0.54852891182765
 40
0.6856740611290008
 40
0.8228198723576378
 40
0.9114107154432959
 40
1.0
 40
1.0
 40
1.0
 40
1.0
 10
-13.53830348524812
 20
83.05983533257503
 30
0.0
 10
-13.54773772554097
 20
83.45313452516005
 30
0.0
 10
-13.56660602952436
 20
84.23972554804692
 30
0.0
 10
-13.77530275052652
 20
85.38696455389842
 30
0.0
 10
-14.11363839380955
 20
86.46696986980372
 30
0.0
 10
-14.57920009957381
 20
87.45214087743668
 30
0.0
 10
-15.15878822713407
 20
88.31095133090243
 30
0.0
 10
-15.75327350143241
 20
88.9371830088355
 30
0.0
 10
-16.3138435601054
 20
89.37791328099507
 30
0.0
 10
-16.65000141657411
 20
89.56321439522223
 30
0.0
 10
-16.81807886633638
 20
89.65586413735409
 30
0.0
  0
LINE
  5
FA
330
1F
100
AcDbEntity
  8
0
  6
CONTINUOUS
 62
     7
100
AcDbLine
 10
364.5898525807
 20
67.05983271
 30
0.0
 11
-13.7358779815
 21
67.05983271
 31
0.0
  0
SPLINE
  5
FB
330
1F
100
AcDbEntity
  8
0
  6
CONTINUOUS
 62
     7
100
AcDbSpline
210
0.0
220
0.0
230
1.0
 70
     8
 71
     3
 72
    10
 73
     6
 74
     0
 42
0.00000001
 43
0.00000001
 40
0.0
 40
0.0
 40
0.0
 40
0.0
 40
0.419832245084745
 40
0.8487650654819614
 40
0.9999999999999999
 40
0.9999999999999999
 40
0.9999999999999999
 40
0.9999999999999999
 10
-16.81807886633641
 20
89.65586413735414
 30
0.0
 10
-17.03820825675881
 20
89.75297825369987
 30
0.0
 10
-17.4832387151474
 20
89.94931159942186
 30
0.0
 10
-18.00448742134938
 20
90.06397823309752
 30
0.0
 10
-18.3363274008562
 20
90.04754757858284
 30
0.0
 10
-18.42282961878541
 20
90.04326452607174
 30
0.0
  0
SPLINE
  5
FC
330
1F
100
AcDbEntity
  8
0
  6
CONTINUOUS
 62
     7
100
AcDbSpline
210
0.0
220
0.0
230
1.0
 70
     8
 71
     3
 72
    12
 73
     8
 74
     0
 42
0.00000001
 43
0.00000001
 40
0.0
 40
0.0
 40
0.0
 40
0.0
 40
0.338074470230817
 40
0.6778914795071894
 40
0.8345750388761197
 40
0.9629919995289595
 40
1.0
 40
1.0
 40
1.0
 40
1.0
 10
-80.63042413267854
 20
157.0598362862494
 30
0.0
 10
-80.63072769229201
 20
157.0597000572354
 30
0.0
 10
-80.63133637615796
 20
157.0594268970416
 30
0.0
 10
-80.63207729281963
 20
157.0568355005697
 30
0.0
 10
-80.63267802906127
 20
157.0522341753541
 30
0.0
 10
-80.63292747551188
 20
157.0486437634065
 30
0.0
 10
-80.63303711111139
 20
157.0464411590542
 30
0.0
 10
-80.63306163820985
 20
157.0459484040167
 30
0.0
  0
LINE
  5
FD
330
1F
100
AcDbEntity
  8
0
  6
CONTINUOUS
 62
     7
100
AcDbLine
 10
-18.66717886
 20
73.6160158097
 30
0.0
 11
-18.7359775213
 21
68.0423854768
 31
0.0
  0
LINE
  5
FE
330
1F
100
AcDbEntity
  8
0
  6
CONTINUOUS
 62
     7
100
AcDbLine
 10
132.0270731318
 20
413.039821285
 30
0.0
 11
148.0270738917
 21
413.039821285
 31
0.0
  0
LWPOLYLINE
  5
FF
330
1F
100
AcDbEntity
  8
0
  6
CONTINUOUS
 62
     7
100
AcDbPolyline
 90
       28
 70
   128
 43
0.0
 10
-13.813200107
 20
83.0598353326
 10
-13.8356114534
 20
83.7252317845
 10
-13.9026517776
 20
84.384578365
 10
-14.0136952308
 20
85.0319444119
 10
-14.1677583364
 20
85.6614588677
 10
-14.3634403852
 20
86.2674294888
 10
-14.5989532379
 20
86.8443130433
 10
-14.8721809295
 20
87.3869537293
 10
-15.1806498674
 20
87.8903745591
 10
-15.5215586332
 20
88.3500753819
 10
-15.8918077854
 20
88.7618540704
 10
-16.288074365
 20
89.1220151364
 10
-16.7067522911
 20
89.4272505223
 10
-17.1440417675
 20
89.6748482167
 10
-17.5959939865
 20
89.8625134408
 10
-18.0585260299
 20
89.9885772645
 10
-18.5274208692
 20
90.0519071996
 10
-18.9984614757
 20
90.0519071996
 10
-19.4673712162
 20
89.9885772645
 10
-19.9298883584
 20
89.8625134408
 10
-20.3818554786
 20
89.6748482167
 10
-20.819144955
 20
89.4272505223
 10
-21.2378228811
 20
89.1220151364
 10
-21.6340745595
 20
88.7618540704
 10
-22.0043386129
 20
88.3500753819
 10
-22.3452473787
 20
87.8903745591
 10
-22.6537163166
 20
87.3869537293
 10
-22.847699633
 20
87.0132624089
  0
LINE
  5
100
330
1F
100
AcDbEntity
  8
0
  6
CONTINUOUS
 62
     7
100
AcDbLine
 10
-13.813200107
 20
67.05983271
 30
0.0
 11
-13.813200107
 21
83.0598353326
 31
0.0
  0
LINE
  5
101
330
1F
100
AcDbEntity
  8
0
  6
CONTINUOUS
 62
     7
100
AcDbLine
 10
-13.7358779815
 20
67.05983271
 30
0.0
 11
-13.813200107
 21
67.05983271
 31
0.0
  0
LINE
  5
102
330
1F
100
AcDbEntity
  8
0
  6
CONTINUOUS
 62
     7
100
AcDbLine
 10
-16.6416193155
 20
74.4976579129
 30
0.0
 11
-16.6416193155
 21
67.05983271
 31
0.0
  0
LINE
  5
103
330
1F
100
AcDbEntity
  8
0
  6
CONTINUOUS
 62
     7
100
AcDbLine
 10
-20.8842630294
 20
67.05983271
 30
0.0
 11
-20.8842630294
 21
73.7957238137
 31
0.0
  0
LINE
  5
104
330
1F
100
AcDbEntity
  8
0
  6
CONTINUOUS
 62
     7
100
AcDbLine
 10
-23.7126971391
 20
67.05983271
 30
0.0
 11
-20.8842630294
 21
67.05983271
 31
0.0
  0
LINE
  5
105
330
1F
100
AcDbEntity
  8
0
  6
CONTINUOUS
 62
     7
100
AcDbLine
 10
-23.7126971391
 20
74.3751703679
 30
0.0
 11
-23.7126971391
 21
67.05983271
 31
0.0
  0
LINE
  5
106
330
1F
100
AcDbEntity
  8
0
  6
CONTINUOUS
 62
     7
100
AcDbLine
 10
-16.6416193155
 20
67.05983271
 30
0.0
 11
-13.813200107
 21
67.05983271
 31
0.0
  0
LINE
  5
107
330
1F
100
AcDbEntity
  8
0
  6
CONTINUOUS
 62
     7
100
AcDbLine
 10
-23.7126971391
 20
67.05983271
 30
0.0
 11
-82.0757771638
 21
67.05983271
 31
0.0
  0
SPLINE
  5
108
330
1F
100
AcDbEntity
  8
0
  6
CONTINUOUS
 62
     7
100
AcDbSpline
210
0.0
220
0.0
230
1.0
 70
     8
 71
     3
 72
    12
 73
     8
 74
     0
 42
0.00000001
 43
0.00000001
 40
0.0
 40
0.0
 40
0.0
 40
0.0
 40
0.2171252949561558
 40
0.434250996891922
 40
0.6513610802242764
 40
0.8684607535942259
 40
1.0
 40
1.0
 40
1.0
 40
1.0
 10
-19.44303761992219
 20
67.05983270997066
 30
0.0
 10
-19.36352600672023
 20
67.07089200575332
 30
0.0
 10
-19.20450263127973
 20
67.09301061804811
 30
0.0
 10
-18.99259821645976
 20
67.26543335659834
 30
0.0
 10
-18.83262609430506
 20
67.5192101706633
 30
0.0
 10
-18.74968081118203
 20
67.79488808412752
 30
0.0
 10
-18.73973137881016
 20
67.97458643298114
 30
0.0
 10
-18.73597752127412
 20
68.04238547677059
 30
0.0
  0
LINE
  5
109
330
1F
100
AcDbEntity
  8
0
  6
CONTINUOUS
 62
     7
100
AcDbLine
 10
-20.8608980087
 20
67.05983271
 30
0.0
 11
-20.8842630294
 21
67.05983271
 31
0.0
  0
SPLINE
  5
10A
330
1F
100
AcDbEntity
  8
0
  6
CONTINUOUS
 62
     7
100
AcDbSpline
210
0.0
220
0.0
230
1.0
 70
     8
 71
     3
 72
     9
 73
     5
 74
     0
 42
0.00000001
 43
0.00000001
 40
0.0
 40
0.0
 40
0.0
 40
0.0
 40
0.0302854389911399
 40
1.0
 40
1.0
 40
1.0
 40
1.0
 10
-78.92301928076509
 20
133.0772816121008
 30
0.0
 10
-78.9232668640117
 20
133.0757913650208
 30
0.0
 10
-78.93144185684142
 20
133.0265846462246
 30
0.0
 10
-78.92588730973357
 20
132.9778062730607
 30
0.0
 10
-78.92050098452333
 20
132.9305051743414
 30
0.0
  0
SPLINE
  5
10B
330
1F
100
AcDbEntity
  8
0
  6
CONTINUOUS
 62
     7
100
AcDbSpline
210
0.0
220
0.0
230
1.0
 70
     8
 71
     3
 72
    13
 73
     9
 74
     0
 42
0.00000001
 43
0.00000001
 40
0.0
 40
0.0
 40
0.0
 40
0.0
 40
0.0037106709551129
 40
0.298051172875905
 40
0.5945240763761591
 40
0.8093059058502275
 40
0.963023674732939
 40
1.0
 40
1.0
 40
1.0
 40
1.0
 10
-79.62702464136845
 20
133.0772816121009
 30
0.0
 10
-79.62723440237043
 20
133.075761693786
 30
0.0
 10
-79.64408297596012
 20
132.9536777251692
 30
0.0
 10
-79.63349464700318
 20
132.7101513588364
 30
0.0
 10
-79.4933448765936
 20
132.3994110338912
 30
0.0
 10
-79.26353135196995
 20
132.1983443466955
 30
0.0
 10
-79.07783127095439
 20
132.1002387557043
 30
0.0
 10
-78.97193892907909
 20
132.088309829876
 30
0.0
 10
-78.95140599283937
 20
132.0859967648413
 30
0.0
  0
LINE
  5
10C
330
1F
100
AcDbEntity
  8
0
  6
CONTINUOUS
 62
     7
100
AcDbLine
 10
-80.6207383779
 20
156.9600581109
 30
0.0
 11
-80.6162680295
 21
156.9288550794
 31
0.0
  0
LINE
  5
10D
330
1F
100
AcDbEntity
  8
0
  6
CONTINUOUS
 62
     7
100
AcDbLine
 10
344.027069697
 20
-193.3797084809
 30
0.0
 11
344.027069697
 21
-175.9886116803
 31
0.0
  0
LINE
  5
10E
330
1F
100
AcDbEntity
  8
0
  6
CONTINUOUS
 62
     7
100
AcDbLine
 10
356.0270791146
 20
-175.9886116803
 30
0.0
 11
356.0270791146
 21
-193.3797084809
 31
0.0
  0
LINE
  5
10F
330
1F
100
AcDbEntity
  8
0
  6
CONTINUOUS
 62
     7
100
AcDbLine
 10
351.0270689818
 20
-154.4401691378
 30
0.0
 11
351.0270689818
 21
-174.8133049429
 31
0.0
  0
LINE
  5
110
330
1F
100
AcDbEntity
  8
0
  6
CONTINUOUS
 62
     7
100
AcDbLine
 10
344.027069697
 20
-175.9886116803
 30
0.0
 11
344.027069697
 21
-154.4401691378
 31
0.0
  0
LINE
  5
111
330
1F
100
AcDbEntity
  8
0
  6
CONTINUOUS
 62
     7
100
AcDbLine
 10
356.0270791146
 20
-174.8133049429
 30
0.0
 11
356.0270791146
 21
-175.9886116803
 31
0.0
  0
LINE
  5
112
330
1F
100
AcDbEntity
  8
0
  6
CONTINUOUS
 62
     7
100
AcDbLine
 10
351.0270689818
 20
-194.0669947386
 30
0.0
 11
351.0270689818
 21
-214.4411102951
 31
0.0
  0
LINE
  5
113
330
1F
100
AcDbEntity
  8
0
  6
CONTINUOUS
 62
     7
100
AcDbLine
 10
344.027069697
 20
-214.4411102951
 30
0.0
 11
344.027069697
 21
-193.3797084809
 31
0.0
  0
LINE
  5
114
330
1F
100
AcDbEntity
  8
0
  6
CONTINUOUS
 62
     7
100
AcDbLine
 10
356.0270791146
 20
-193.3797084809
 30
0.0
 11
356.0270791146
 21
-194.0669947386
 31
0.0
  0
LINE
  5
115
330
1F
100
AcDbEntity
  8
0
  6
CONTINUOUS
 62
     7
100
AcDbLine
 10
356.0270791146
 20
-194.940169257
 30
0.0
 11
351.0270689818
 21
-194.940169257
 31
0.0
  0
LINE
  5
116
330
1F
100
AcDbEntity
  8
0
  6
CONTINUOUS
 62
     7
100
AcDbLine
 10
356.0270791146
 20
-194.0669947386
 30
0.0
 11
356.0270791146
 21
-194.940169257
 31
0.0
  0
LINE
  5
117
330
1F
100
AcDbEntity
  8
0
  6
CONTINUOUS
 62
     7
100
AcDbLine
 10
351.0270689818
 20
-173.9401714027
 30
0.0
 11
356.0270791146
 21
-173.9401714027
 31
0.0
  0
LINE
  5
118
330
1F
100
AcDbEntity
  8
0
  6
CONTINUOUS
 62
     7
100
AcDbLine
 10
356.0270791146
 20
-173.9401714027
 30
0.0
 11
356.0270791146
 21
-174.8133049429
 31
0.0
  0
LINE
  5
119
330
1F
100
AcDbEntity
  8
0
  6
CONTINUOUS
 62
     7
100
AcDbLine
 10
343.6270778271
 20
-179.4401676477
 30
0.0
 11
343.6270778271
 21
-156.4401731909
 31
0.0
  0
LINE
  5
11A
330
1F
100
AcDbEntity
  8
0
  6
CONTINUOUS
 62
     7
100
AcDbLine
 10
343.6270778271
 20
-212.4401711941
 30
0.0
 11
343.6270778271
 21
-189.4401730121
 31
0.0
  0
LINE
  5
11B
330
1F
100
AcDbEntity
  8
0
  6
CONTINUOUS
 62
     7
100
AcDbLine
 10
369.627070913
 20
-158.9401708067
 30
0.0
 11
369.627070913
 21
-209.940169853
 31
0.0
  0
LINE
  5
11C
330
1F
100
AcDbEntity
  8
0
  6
CONTINUOUS
 62
     7
100
AcDbLine
 10
356.0270791146
 20
-194.940169257
 30
0.0
 11
356.0270791146
 21
-196.5672903777
 31
0.0
  0
LINE
  5
11D
330
1F
100
AcDbEntity
  8
0
  6
CONTINUOUS
 62
     7
100
AcDbLine
 10
356.0270791146
 20
-172.3130540073
 30
0.0
 11
356.0270791146
 21
-173.9401714027
 31
0.0
  0
LINE
  5
11E
330
1F
100
AcDbEntity
  8
0
  6
CONTINUOUS
 62
     7
100
AcDbLine
 10
-16.6416193155
 20
67.05983271
 30
0.0
 11
-20.8608980087
 21
67.05983271
 31
0.0
  0
LINE
  5
11F
330
1F
100
AcDbEntity
  8
0
  6
CONTINUOUS
 62
     7
100
AcDbLine
 10
-82.0757771638
 20
67.05983271
 30
0.0
 11
-84.5229203609
 21
67.05983271
 31
0.0
  0
LINE
  5
120
330
1F
100
AcDbEntity
  8
0
  6
CONTINUOUS
 62
     7
100
AcDbLine
 10
348.7946664187
 20
14.0598296105
 30
0.0
 11
-68.7405193952
 21
14.0598296105
 31
0.0
  0
LINE
  5
121
330
1F
100
AcDbEntity
  8
0
  6
CONTINUOUS
 62
     7
100
AcDbLine
 10
-23.2812489179
 20
-281.6401709885
 30
0.0
 11
-27.7812356857
 21
-281.6401709885
 31
0.0
  0
LINE
  5
122
330
1F
100
AcDbEntity
  8
0
  6
CONTINUOUS
 62
     7
100
AcDbLine
 10
-18.7812323478
 20
-281.6401709885
 30
0.0
 11
-23.2812489179
 21
-281.6401709885
 31
0.0
  0
LINE
  5
123
330
1F
100
AcDbEntity
  8
0
  6
CONTINUOUS
 62
     7
100
AcDbLine
 10
-23.2812489179
 20
-282.4401714922
 30
0.0
 11
-27.7812356857
 21
-282.4401714922
 31
0.0
  0
LINE
  5
124
330
1F
100
AcDbEntity
  8
0
  6
CONTINUOUS
 62
     7
100
AcDbLine
 10
-18.7812323478
 20
-282.4401714922
 30
0.0
 11
-23.2812489179
 21
-282.4401714922
 31
0.0
  0
SPLINE
  5
125
330
1F
100
AcDbEntity
  8
0
  6
CONTINUOUS
 62
     7
100
AcDbSpline
210
0.0
220
0.0
230
1.0
 70
     8
 71
     3
 72
     9
 73
     5
 74
     0
 42
0.00000001
 43
0.00000001
 40
0.0
 40
0.0
 40
0.0
 40
0.0
 40
0.4937133842399607
 40
1.0
 40
1.0
 40
1.0
 40
1.0
 10
-23.78124248060945
 20
-279.2106074363563
 30
0.0
 10
-23.61669031516164
 20
-279.1911025766195
 30
0.0
 10
-23.28339539000746
 20
-279.1515961334898
 30
0.0
 10
-22.95002262369464
 20
-279.1907728095945
 30
0.0
 10
-22.78124045405153
 20
-279.2106074363563
 30
0.0
  0
SPLINE
  5
126
330
1F
100
AcDbEntity
  8
0
  6
CONTINUOUS
 62
     7
100
AcDbSpline
210
0.0
220
0.0
230
1.0
 70
    24
 71
     3
 72
    10
 73
     6
 74
     0
 42
0.00000001
 43
0.00000001
 40
0.0
 40
0.0
 40
0.0
 40
0.0
 40
0.3971570354344287
 40
0.7941277556705983
 40
1.0
 40
1.0
 40
1.0
 40
1.0
 10
-22.78124045405153
 20
-279.2106074363563
 30
0.0
 10
-22.78124045405153
 20
-279.0574695487323
 30
0.0
 10
-22.78124045405153
 20
-278.7512656138733
 30
0.0
 10
-22.78124045405153
 20
-278.5638482026835
 30
0.0
 10
-22.7812404540515
 20
-278.5461981871161
 30
0.0
 10
-22.78124045405153
 20
-278.5401706666324
 30
0.0
  0
LINE
  5
127
330
1F
100
AcDbEntity
  8
0
  6
CONTINUOUS
 62
     7
100
AcDbLine
 10
-22.7812404541
 20
-278.5401706666
 30
0.0
 11
-21.3447387126
 21
-278.5401706666
 31
0.0
  0
SPLINE
  5
128
330
1F
100
AcDbEntity
  8
0
  6
CONTINUOUS
 62
     7
100
AcDbSpline
210
0.0
220
0.0
230
1.0
 70
     8
 71
     3
 72
    12
 73
     8
 74
     0
 42
0.00000001
 43
0.00000001
 40
0.0
 40
0.0
 40
0.0
 40
0.0
 40
0.203133567872202
 40
0.4121880185215045
 40
0.6142510555763342
 40
0.8225155566013264
 40
0.9999999999999999
 40
0.9999999999999999
 40
0.9999999999999999
 40
0.9999999999999999
 10
-21.34473871264223
 20
-278.5401706666324
 30
0.0
 10
-21.22878421123928
 20
-278.5456678251874
 30
0.0
 10
-20.99349539771347
 20
-278.556822372001
 30
0.0
 10
-20.65234691487106
 20
-278.6476444955898
 30
0.0
 10
-20.32955118084526
 20
-278.7933522481743
 30
0.0
 10
-20.04866491311486
 20
-278.9811638083715
 30
0.0
 10
-19.89419410125787
 20
-279.1383058372596
 30
0.0
 10
-19.82312153849367
 20
-279.2106074363563
 30
0.0
  0
SPLINE
  5
129
330
1F
100
AcDbEntity
  8
0
  6
CONTINUOUS
 62
     7
100
AcDbSpline
210
0.0
220
0.0
230
1.0
 70
     8
 71
     3
 72
     9
 73
     5
 74
     0
 42
0.00000001
 43
0.00000001
 40
0.0
 40
0.0
 40
0.0
 40
0.0
 40
0.9844614322926668
 40
1.0
 40
1.0
 40
1.0
 40
1.0
 10
-19.82312153849367
 20
-279.2106074363563
 30
0.0
 10
-19.82311412650298
 20
-279.1847487667412
 30
0.0
 10
-19.82310659752273
 20
-279.1584819483906
 30
0.0
 10
-19.82310663672337
 20
-279.1716724935887
 30
0.0
 10
-19.82310663733247
 20
-279.1718774557684
 30
0.0
  0
LINE
  5
12A
330
1F
100
AcDbEntity
  8
0
  6
CONTINUOUS
 62
     7
100
AcDbLine
 10
-26.739346495
 20
-279.1718662799
 30
0.0
 11
-26.739346495
 21
-279.2106074364
 31
0.0
  0
SPLINE
  5
12B
330
1F
100
AcDbEntity
  8
0
  6
CONTINUOUS
 62
     7
100
AcDbSpline
210
0.0
220
0.0
230
1.0
 70
     8
 71
     3
 72
    10
 73
     6
 74
     0
 42
0.00000001
 43
0.00000001
 40
0.0
 40
0.0
 40
0.0
 40
0.0
 40
0.3971586749117897
 40
0.7941269058356216
 40
1.0
 40
1.0
 40
1.0
 40
1.0
 10
-26.73934649500612
 20
-279.2106074363563
 30
0.0
 10
-26.57099034965687
 20
-279.0574697511312
 30
0.0
 10
-26.23435878844446
 20
-278.7512678126701
 30
0.0
 10
-25.67696291257834
 20
-278.5638475976857
 30
0.0
 10
-25.33463565790439
 20
-278.5461980638696
 30
0.0
 10
-25.21772932085756
 20
-278.5401706666324
 30
0.0
  0
LINE
  5
12C
330
1F
100
AcDbEntity
  8
0
  6
CONTINUOUS
 62
     7
100
AcDbLine
 10
-25.2177293209
 20
-278.5401706666
 30
0.0
 11
-23.7812275794
 21
-278.5401706666
 31
0.0
  0
SPLINE
  5
12D
330
1F
100
AcDbEntity
  8
0
  6
CONTINUOUS
 62
     7
100
AcDbSpline
210
0.0
220
0.0
230
1.0
 70
     8
 71
     3
 72
    12
 73
     8
 74
     0
 42
0.00000001
 43
0.00000001
 40
0.0
 40
0.0
 40
0.0
 40
0.0
 40
0.2031329283009856
 40
0.4121867205448141
 40
0.6142491212132416
 40
0.8225129663206626
 40
1.0
 40
1.0
 40
1.0
 40
1.0
 10
-23.78122757944826
 20
-278.5401706666324
 30
0.0
 10
-23.78123386107464
 20
-278.5456678173906
 30
0.0
 10
-23.78124660742259
 20
-278.556822348378
 30
0.0
 10
-23.78124140405491
 20
-278.6476445918215
 30
0.0
 10
-23.78124277480961
 20
-278.7933518965962
 30
0.0
 10
-23.7812424188166
 20
-278.98116608846
 30
0.0
 10
-23.78124246113733
 20
-279.1383060813868
 30
0.0
 10
-23.78124248060945
 20
-279.2106074363563
 30
0.0
  0
LINE
  5
12E
330
1F
100
AcDbEntity
  8
0
  6
CONTINUOUS
 62
     7
100
AcDbLine
 10
-23.7812275794
 20
-278.5401706666
 30
0.0
 11
-23.7812275794
 21
-279.2106074364
 31
0.0
  0
LINE
  5
12F
330
1F
100
AcDbEntity
  8
0
  6
CONTINUOUS
 62
     7
100
AcDbLine
 10
332.9844002816
 20
-299.440172416
 30
0.0
 11
322.8788648936
 21
-299.440172416
 31
0.0
  0
LINE
  5
130
330
1F
100
AcDbEntity
  8
0
  6
CONTINUOUS
 62
     7
100
AcDbLine
 10
-42.8247178701
 20
-299.440172416
 30
0.0
 11
-52.9302532581
 21
-299.440172416
 31
0.0
  0
LINE
  5
131
330
1F
100
AcDbEntity
  8
0
  6
CONTINUOUS
 62
     7
100
AcDbLine
 10
205.0270711276
 20
-289.4401707769
 30
0.0
 11
205.0270711276
 21
-299.440172416
 31
0.0
  0
ARC
  5
132
330
1F
100
AcDbEntity
  8
0
  6
CONTINUOUS
 62
     7
100
AcDbCircle
 10
187.5270735117
 20
-289.4401706279
 30
0.0
 40
17.50000000000006
100
AcDbArc
 50
0.0
 51
90.0
  0
LINE
  5
133
330
1F
100
AcDbEntity
  8
0
  6
CONTINUOUS
 62
     7
100
AcDbLine
 10
140.0270735117
 20
-271.9401707024
 30
0.0
 11
187.5270729157
 21
-271.9401707024
 31
0.0
  0
LINE
  5
134
330
1F
100
AcDbEntity
  8
0
  6
CONTINUOUS
 62
     7
100
AcDbLine
 10
140.0270735117
 20
-254.4401706279
 30
0.0
 11
140.0270735117
 21
-271.9401707024
 31
0.0
  0
LINE
  5
135
330
1F
100
AcDbEntity
  8
0
  6
CONTINUOUS
 62
     7
100
AcDbLine
 10
322.8788648936
 20
-299.440172416
 30
0.0
 11
205.0270711276
 21
-299.440172416
 31
0.0
  0
LINE
  5
136
330
1F
100
AcDbEntity
  8
0
  6
CONTINUOUS
 62
     7
100
AcDbLine
 10
92.5270741078
 20
-271.9401707024
 30
0.0
 11
140.0270735117
 21
-271.9401707024
 31
0.0
  0
ARC
  5
137
330
1F
100
AcDbEntity
  8
0
  6
CONTINUOUS
 62
     7
100
AcDbCircle
 10
92.5270735117
 20
-289.4401706279
 30
0.0
 40
17.50000000000017
100
AcDbArc
 50
90.0
 51
180.0
  0
LINE
  5
138
330
1F
100
AcDbEntity
  8
0
  6
CONTINUOUS
 62
     7
100
AcDbLine
 10
75.0270758959
 20
-299.440172416
 30
0.0
 11
75.0270758959
 21
-289.4401707769
 31
0.0
  0
LINE
  5
139
330
1F
100
AcDbEntity
  8
0
  6
CONTINUOUS
 62
     7
100
AcDbLine
 10
75.0270758959
 20
-299.440172416
 30
0.0
 11
-42.8247178701
 21
-299.440172416
 31
0.0
  0
SPLINE
  5
13A
330
1F
100
AcDbEntity
  8
0
  6
CONTINUOUS
 62
     7
100
AcDbSpline
210
0.0
220
0.0
230
1.0
 70
     8
 71
     3
 72
     9
 73
     5
 74
     0
 42
0.00000001
 43
0.00000001
 40
0.0
 40
0.0
 40
0.0
 40
0.0
 40
0.4113635563060592
 40
1.0
 40
1.0
 40
1.0
 40
1.0
 10
331.9926087948346
 20
-283.4401697934244
 30
0.0
 10
331.8984706872623
 20
-283.417309009783
 30
0.0
 10
331.6696266243181
 20
-283.3617358232648
 30
0.0
 10
331.4359837892874
 20
-283.3465907962716
 30
0.0
 10
331.2984531017804
 20
-283.3376758814428
 30
0.0
  0
SPLINE
  5
13B
330
1F
100
AcDbEntity
  8
0
  6
CONTINUOUS
 62
     7
100
AcDbSpline
210
0.0
220
0.0
230
1.0
 70
     8
 71
     3
 72
    13
 73
     9
 74
     0
 42
0.00000001
 43
0.00000001
 40
0.0
 40
0.0
 40
0.0
 40
0.0
 40
0.1785314271135362
 40
0.3622237671265338
 40
0.5408698563840348
 40
0.7247085843742739
 40
0.8612158231621712
 40
0.9999999999999999
 40
0.9999999999999999
 40
0.9999999999999999
 40
0.9999999999999999
 10
330.7279919477963
 20
-283.4401697934244
 30
0.0
 10
330.9132772410116
 20
-283.5007696693953
 30
0.0
 10
331.2892039783187
 20
-283.6237212175707
 30
0.0
 10
331.8068584606483
 20
-283.9416443660262
 30
0.0
 10
332.2782375826299
 20
-284.351386718355
 30
0.0
 10
332.6464425116066
 20
-284.8068432013724
 30
0.0
 10
332.9310933805368
 20
-285.2758484980731
 30
0.0
 10
333.0597763546115
 20
-285.5845460686442
 30
0.0
 10
333.1246500107312
 20
-285.7401714742754
 30
0.0
  0
SPLINE
  5
13C
330
1F
100
AcDbEntity
  8
0
  6
CONTINUOUS
 62
     7
100
AcDbSpline
210
0.0
220
0.0
230
1.0
 70
     8
 71
     3
 72
    11
 73
     7
 74
     0
 42
0.00000001
 43
0.00000001
 40
0.0
 40
0.0
 40
0.0
 40
0.0
 40
0.2814029959718113
 40
0.5632523484471186
 40
0.7815291042768596
 40
0.9999999999999999
 40
0.9999999999999999
 40
0.9999999999999999
 40
0.9999999999999999
 10
337.0119904371762
 20
-285.7401714742754
 30
0.0
 10
337.677672342377
 20
-285.6661321319889
 30
0.0
 10
339.0100920457576
 20
-285.5179360075081
 30
0.0
 10
340.8619721785863
 20
-285.497917755161
 30
0.0
 10
342.5642510060598
 20
-285.5580589974217
 30
0.0
 10
343.597186525798
 20
-285.6794493288081
 30
0.0
 10
344.113883862164
 20
-285.7401714742754
 30
0.0
  0
LINE
  5
13D
330
1F
100
AcDbEntity
  8
0
  6
CONTINUOUS
 62
     7
100
AcDbLine
 10
343.2984476182
 20
-283.3376758814
 30
0.0
 11
343.9926033112
 21
-283.4401697934
 31
0.0
  0
LINE
  5
13E
330
1F
100
AcDbEntity
  8
0
  6
CONTINUOUS
 62
     7
100
AcDbLine
 10
348.0566268059
 20
-299.440172416
 30
0.0
 11
332.9844002816
 21
-299.440172416
 31
0.0
  0
SPLINE
  5
13F
330
1F
100
AcDbEntity
  8
0
  6
CONTINUOUS
 62
     7
100
AcDbSpline
210
0.0
220
0.0
230
1.0
 70
     8
 71
     3
 72
     9
 73
     5
 74
     0
 42
0.00000001
 43
0.00000001
 40
0.0
 40
0.0
 40
0.0
 40
0.0
 40
0.3586640936939061
 40
1.0
 40
1.0
 40
1.0
 40
1.0
 10
-63.93845628771547
 20
-283.4401697934244
 30
0.0
 10
-63.85644558226775
 20
-283.419989376185
 30
0.0
 10
-63.6277895587358
 20
-283.3637238687249
 30
0.0
 10
-63.39414514591263
 20
-283.347853876981
 30
0.0
 10
-63.24430059466127
 20
-283.3376758814428
 30
0.0
  0
SPLINE
  5
140
330
1F
100
AcDbEntity
  8
0
  6
CONTINUOUS
 62
     7
100
AcDbSpline
210
0.0
220
0.0
230
1.0
 70
     8
 71
     3
 72
    11
 73
     7
 74
     0
 42
0.00000001
 43
0.00000001
 40
0.0
 40
0.0
 40
0.0
 40
0.0
 40
0.281402995948796
 40
0.5632528023505514
 40
0.7815291042947279
 40
1.0
 40
1.0
 40
1.0
 40
1.0
 10
-64.0597368386722
 20
-285.7401714742754
 30
0.0
 10
-63.39405441785739
 20
-285.6661321421188
 30
0.0
 10
-62.06163260857544
 20
-285.5179359184762
 30
0.0
 10
-60.20975963983671
 20
-285.4979176749159
 30
0.0
 10
-58.50747394239716
 20
-285.5580591372576
 30
0.0
 10
-57.47454033193763
 20
-285.6794493333718
 30
0.0
 10
-56.95784341368443
 20
-285.7401714742754
 30
0.0
  0
SPLINE
  5
141
330
1F
100
AcDbEntity
  8
0
  6
CONTINUOUS
 62
     7
100
AcDbSpline
210
0.0
220
0.0
230
1.0
 70
     8
 71
     3
 72
    13
 73
     9
 74
     0
 42
0.00000001
 43
0.00000001
 40
0.0
 40
0.0
 40
0.0
 40
0.0
 40
0.1782179229113501
 40
0.3616109663324822
 40
0.5398544047181484
 40
0.7232532548369771
 40
0.860476332830185
 40
1.0
 40
1.0
 40
1.0
 40
1.0
 10
-53.07050298723939
 20
-285.7401714742754
 30
0.0
 10
-52.98527262258029
 20
-285.5412015003404
 30
0.0
 10
-52.81233696032037
 20
-285.1374838305888
 30
0.0
 10
-52.44774692143306
 20
-284.6088799055082
 30
0.0
 10
-52.01371184695908
 20
-284.1495143390626
 30
0.0
 10
-51.55895022780557
 20
-283.8145011798157
 30
0.0
 10
-51.10676791269633
 20
-283.5760664477025
 30
0.0
 10
-50.81895012792451
 20
-283.4857190301687
 30
0.0
 10
-50.67384492430452
 20
-283.4401697934244
 30
0.0
  0
LINE
  5
142
330
1F
100
AcDbEntity
  8
0
  6
CONTINUOUS
 62
     7
100
AcDbLine
 10
-51.2443060783
 20
-283.3376758814
 30
0.0
 11
-51.9384617713
 21
-283.4401697934
 31
0.0
  0
LINE
  5
143
330
1F
100
AcDbEntity
  8
0
  6
CONTINUOUS
 62
     7
100
AcDbLine
 10
-52.9302532581
 20
-299.440172416
 30
0.0
 11
-68.0024797824
 21
-299.440172416
 31
0.0
  0
SPLINE
  5
144
330
1F
100
AcDbEntity
  8
0
  6
CONTINUOUS
 62
     7
100
AcDbSpline
210
0.0
220
0.0
230
1.0
 70
     8
 71
     3
 72
    35
 73
    31
 74
     0
 42
0.00000001
 43
0.00000001
 40
0.0
 40
0.0
 40
0.0
 40
0.0
 40
0.0357717379349143
 40
0.071657402773422
 40
0.1074290762939566
 40
0.1432029607998137
 40
0.1790910593090591
 40
0.2148649436921259
 40
0.2506340749296125
 40
0.2865170746488214
 40
0.3222859684516282
 40
0.3580426845798727
 40
0.3939137269660913
 40
0.4296702709734128
 40
0.4654146694192017
 40
0.5012727942156043
 40
0.537017094681424
 40
0.5727550063743282
 40
0.6086069127296867
 40
0.6443448875821742
 40
0.680085703573175
 40
0.7159404576608143
 40
0.7516813698949495
 40
0.7874330099575422
 40
0.8232986650382864
 40
0.8590502755893304
 40
0.8948150346509343
 40
0.9306938185099229
 40
0.9664584724851982
 40
1.0
 40
1.0
 40
1.0
 40
1.0
 10
332.2225337120557
 20
-283.0016081303928
 30
0.0
 10
331.825850111813
 20
-282.9897777447676
 30
0.0
 10
331.0312195415029
 20
-282.9660792957501
 30
0.0
 10
329.7593119877158
 20
-282.9307204678236
 30
0.0
 10
328.4485038714737
 20
-282.8960475754404
 30
0.0
 10
327.1073266745263
 20
-282.8625264133962
 30
0.0
 10
325.7557273753553
 20
-282.8305822675712
 30
0.0
 10
324.4095725863793
 20
-282.8006329838354
 30
0.0
 10
323.0869223921025
 20
-282.7731731286433
 30
0.0
 10
321.8037244220464
 20
-282.7485101140137
 30
0.0
 10
320.575532729203
 20
-282.7269786832984
 30
0.0
 10
319.4205138859764
 20
-282.7090268895785
 30
0.0
 10
318.350745444597
 20
-282.6947761218811
 30
0.0
 10
317.3791148563776
 20
-282.6844384449067
 30
0.0
 10
316.5219706957242
 20
-282.6783159431858
 30
0.0
 10
315.7861244096878
 20
-282.6763479043927
 30
0.0
 10
315.1803765675701
 20
-282.6785537839392
 30
0.0
 10
314.7174099636352
 20
-282.6850705209761
 30
0.0
 10
314.3980791267143
 20
-282.6956270631878
 30
0.0
 10
314.2261325563076
 20
-282.7100846054308
 30
0.0
 10
314.2092787643946
 20
-282.7283658081385
 30
0.0
 10
314.3422097017209
 20
-282.7500570730171
 30
0.0
 10
314.6233710357005
 20
-282.7748695507166
 30
0.0
 10
315.0545024620321
 20
-282.8025460266625
 30
0.0
 10
315.6248772332007
 20
-282.8325944937012
 30
0.0
 10
316.3277233264744
 20
-282.8646217925854
 30
0.0
 10
317.1582901706324
 20
-282.8982433064239
 30
0.0
 10
318.1032054365476
 20
-282.9329528410113
 30
0.0
 10
319.1231823536446
 20
-282.9676006413293
 30
0.0
 10
319.8640080419742
 20
-282.9905173327351
 30
0.0
 10
320.222539195683
 20
-283.0016081303928
 30
0.0
  0
LINE
  5
145
330
1F
100
AcDbEntity
  8
0
  6
CONTINUOUS
 62
     7
100
AcDbLine
 10
320.2225391957
 20
-283.0016081304
 30
0.0
 11
331.2984531018
 21
-283.3376758814
 31
0.0
  0
LWPOLYLINE
  5
146
330
1F
100
AcDbEntity
  8
0
  6
CONTINUOUS
 62
     7
100
AcDbPolyline
 90
        3
 70
   128
 43
0.0
 10
343.2404522988
 20
-283.2482782275
 10
336.6451536509
 20
-283.0406175078
 10
309.6340571734
 20
-282.192635265
  0
LINE
  5
147
330
1F
100
AcDbEntity
  8
0
  6
CONTINUOUS
 62
     7
100
AcDbLine
 10
343.2984476182
 20
-283.3376758814
 30
0.0
 11
332.2225337121
 21
-283.0016081304
 31
0.0
  0
SPLINE
  5
148
330
1F
100
AcDbEntity
  8
0
  6
CONTINUOUS
 62
     7
100
AcDbSpline
210
0.0
220
0.0
230
1.0
 70
     8
 71
     3
 72
    35
 73
    31
 74
     0
 42
0.00000001
 43
0.00000001
 40
0.0
 40
0.0
 40
0.0
 40
0.0
 40
0.0357701626035638
 40
0.071654653528246
 40
0.1074247081872059
 40
0.1431986467846398
 40
0.1790866055526177
 40
0.2148606834152316
 40
0.2506296094799899
 40
0.2865127365340644
 40
0.3222815567897539
 40
0.3580383659519497
 40
0.393909245485021
 40
0.4296659281414485
 40
0.4654100172934363
 40
0.5012683426010355
 40
0.5370128247686095
 40
0.5727507877556905
 40
0.6086026755926016
 40
0.644340489788118
 40
0.680081209949839
 40
0.7159359302338839
 40
0.751677240024267
 40
0.7874285696577069
 40
0.8232943303450859
 40
0.8590461452041038
 40
0.8948105550232375
 40
0.9306893504199394
 40
0.9664542585792435
 40
1.0
 40
1.0
 40
1.0
 40
1.0
 10
-40.16839217219118
 20
-283.0016081303928
 30
0.0
 10
-39.78668880333519
 20
-282.9897775394763
 30
0.0
 10
-39.02206206822454
 20
-282.9660785447988
 30
0.0
 10
-37.986000111073
 20
-282.9307226869449
 30
0.0
 10
-37.0462767624756
 20
-282.8960509637593
 30
0.0
 10
-36.22605362366379
 20
-282.862529478793
 30
0.0
 10
-35.52972834251389
 20
-282.8305887677304
 30
0.0
 10
-34.96624127372647
 20
-282.8006369428526
 30
0.0
 10
-34.54777103368226
 20
-282.7731737120724
 30
0.0
 10
-34.27451424277131
 20
-282.7485145783691
 30
0.0
 10
-34.14975664385459
 20
-282.7269827778736
 30
0.0
 10
-34.18057212144213
 20
-282.7090282660321
 30
0.0
 10
-34.36100093555461
 20
-282.694777889273
 30
0.0
 10
-34.68885972061722
 20
-282.6844410062635
 30
0.0
 10
-35.16515856067257
 20
-282.6783152852564
 30
0.0
 10
-35.77859105038281
 20
-282.6763478560928
 30
0.0
 10
-36.52175638796407
 20
-282.6785546179786
 30
0.0
 10
-37.38957661302334
 20
-282.685067186739
 30
0.0
 10
-38.36661686871179
 20
-282.6956283263976
 30
0.0
 10
-39.44116936301562
 20
-282.7100827717895
 30
0.0
 10
-40.6026693175289
 20
-282.7283607635542
 30
0.0
 10
-41.83331845064528
 20
-282.7500569132986
 30
0.0
 10
-43.11838051839973
 20
-282.7748645660501
 30
0.0
 10
-44.44294027960063
 20
-282.8025427745822
 30
0.0
 10
-45.78884689039131
 20
-282.8325907680846
 30
0.0
 10
-47.13980061805812
 20
-282.8646177488009
 30
0.0
 10
-48.47868124577118
 20
-282.898239814516
 30
0.0
 10
-49.7872132596357
 20
-282.932949211146
 30
0.0
 10
-51.02969794977458
 20
-282.967598281479
 30
0.0
 10
-51.79701299346845
 20
-282.990516106005
 30
0.0
 10
-52.16838668856386
 20
-283.0016081303928
 30
0.0
  0
LINE
  5
149
330
1F
100
AcDbEntity
  8
0
  6
CONTINUOUS
 62
     7
100
AcDbLine
 10
-52.1683866886
 20
-283.0016081304
 30
0.0
 11
-63.2443005947
 21
-283.3376758814
 31
0.0
  0
LWPOLYLINE
  5
14A
330
1F
100
AcDbEntity
  8
0
  6
CONTINUOUS
 62
     7
100
AcDbPolyline
 90
        3
 70
   128
 43
0.0
 10
-29.5799101499
 20
-282.192635265
 10
-36.1750895885
 20
-282.3992510409
 10
-63.1863052753
 20
-283.2482782275
  0
LINE
  5
14B
330
1F
100
AcDbEntity
  8
0
  6
CONTINUOUS
 62
     7
100
AcDbLine
 10
-51.2443060783
 20
-283.3376758814
 30
0.0
 11
-40.1683921722
 21
-283.0016081304
 31
0.0
  0
LINE
  5
14C
330
1F
100
AcDbEntity
  8
0
  6
CONTINUOUS
 62
     7
100
AcDbLine
 10
333.4129427763
 20
-285.7401714743
 30
0.0
 11
333.4129427763
 21
-283.4401697934
 31
0.0
  0
LINE
  5
14D
330
1F
100
AcDbEntity
  8
0
  6
CONTINUOUS
 62
     7
100
AcDbLine
 10
333.1246500107
 20
-285.7401714743
 30
0.0
 11
333.4129427763
 21
-285.7401714743
 31
0.0
  0
LINE
  5
14E
330
1F
100
AcDbEntity
  8
0
  6
CONTINUOUS
 62
     7
100
AcDbLine
 10
330.7279919478
 20
-283.4401697934
 30
0.0
 11
333.4129427763
 21
-283.4401697934
 31
0.0
  0
LINE
  5
14F
330
1F
100
AcDbEntity
  8
0
  6
CONTINUOUS
 62
     7
100
AcDbLine
 10
-53.3587957529
 20
-285.7401714743
 30
0.0
 11
-53.3587957529
 21
-283.4401697934
 31
0.0
  0
LINE
  5
150
330
1F
100
AcDbEntity
  8
0
  6
CONTINUOUS
 62
     7
100
AcDbLine
 10
-53.3587957529
 20
-283.4401697934
 30
0.0
 11
-50.6738449243
 21
-283.4401697934
 31
0.0
  0
LINE
  5
151
330
1F
100
AcDbEntity
  8
0
  6
CONTINUOUS
 62
     7
100
AcDbLine
 10
-53.3587957529
 20
-285.7401714743
 30
0.0
 11
-53.0705029872
 21
-285.7401714743
 31
0.0
  0
LINE
  5
152
330
1F
100
AcDbEntity
  8
0
  6
CONTINUOUS
 62
     7
100
AcDbLine
 10
347.712931523
 20
-285.7401714743
 30
0.0
 11
347.712931523
 21
-283.4401697934
 31
0.0
  0
LINE
  5
153
330
1F
100
AcDbEntity
  8
0
  6
CONTINUOUS
 62
     7
100
AcDbLine
 10
344.1138838622
 20
-285.7401714743
 30
0.0
 11
347.712931523
 21
-285.7401714743
 31
0.0
  0
LINE
  5
154
330
1F
100
AcDbEntity
  8
0
  6
CONTINUOUS
 62
     7
100
AcDbLine
 10
333.4129427763
 20
-283.4401697934
 30
0.0
 11
347.712931523
 21
-283.4401697934
 31
0.0
  0
LINE
  5
155
330
1F
100
AcDbEntity
  8
0
  6
CONTINUOUS
 62
     7
100
AcDbLine
 10
333.4129427763
 20
-285.7401714743
 30
0.0
 11
337.0119904372
 21
-285.7401714743
 31
0.0
  0
LINE
  5
156
330
1F
100
AcDbEntity
  8
0
  6
CONTINUOUS
 62
     7
100
AcDbLine
 10
-67.6587844995
 20
-285.7401714743
 30
0.0
 11
-67.6587844995
 21
-283.4401697934
 31
0.0
  0
LINE
  5
157
330
1F
100
AcDbEntity
  8
0
  6
CONTINUOUS
 62
     7
100
AcDbLine
 10
-67.6587844995
 20
-283.4401697934
 30
0.0
 11
-53.3587957529
 21
-283.4401697934
 31
0.0
  0
LINE
  5
158
330
1F
100
AcDbEntity
  8
0
  6
CONTINUOUS
 62
     7
100
AcDbLine
 10
-56.9578434137
 20
-285.7401714743
 30
0.0
 11
-53.3587957529
 21
-285.7401714743
 31
0.0
  0
LINE
  5
159
330
1F
100
AcDbEntity
  8
0
  6
CONTINUOUS
 62
     7
100
AcDbLine
 10
-67.6587844995
 20
-285.7401714743
 30
0.0
 11
-64.0597368387
 21
-285.7401714743
 31
0.0
  0
LINE
  5
15A
330
1F
100
AcDbEntity
  8
0
  6
CONTINUOUS
 62
     7
100
AcDbLine
 10
348.8831942174
 20
-299.440172416
 30
0.0
 11
348.0566268059
 21
-299.440172416
 31
0.0
  0
LINE
  5
15B
330
1F
100
AcDbEntity
  8
0
  6
CONTINUOUS
 62
     7
100
AcDbLine
 10
-68.0024797824
 20
-299.440172416
 30
0.0
 11
-68.8290471939
 21
-299.440172416
 31
0.0
  0
ELLIPSE
  5
15C
330
1F
100
AcDbEntity
  8
0
  6
CONTINUOUS
 62
     7
100
AcDbEllipse
 10
171.9589813731
 20
-289.4401706279
 30
0.0
 11
0.0
 21
17.50000000000006
 31
0.0
210
0.0
220
0.0
230
1.0
 40
0.085786593
 41
0.0
 42
1.570796326794897
  0
LINE
  5
15D
330
1F
100
AcDbEntity
  8
0
  6
CONTINUOUS
 62
     7
100
AcDbLine
 10
170.4577163997
 20
-289.4401707769
 30
0.0
 11
170.4577163997
 21
-299.440172416
 31
0.0
  0
LINE
  5
15E
330
1F
100
AcDbEntity
  8
0
  6
CONTINUOUS
 62
     7
100
AcDbLine
 10
160.262477884
 20
-299.440172416
 30
0.0
 11
170.4577163997
 21
-299.440172416
 31
0.0
  0
LINE
  5
15F
330
1F
100
AcDbEntity
  8
0
  6
CONTINUOUS
 62
     7
100
AcDbLine
 10
109.5964306238
 20
-299.440172416
 30
0.0
 11
119.7916691395
 21
-299.440172416
 31
0.0
  0
LINE
  5
160
330
1F
100
AcDbEntity
  8
0
  6
CONTINUOUS
 62
     7
100
AcDbLine
 10
109.5964306238
 20
-299.440172416
 30
0.0
 11
109.5964306238
 21
-289.4401707769
 31
0.0
  0
ELLIPSE
  5
161
330
1F
100
AcDbEntity
  8
0
  6
CONTINUOUS
 62
     7
100
AcDbEllipse
 10
108.0951656504
 20
-289.4401706279
 30
0.0
 11
0.0
 21
17.5
 31
0.0
210
0.0
220
0.0
230
1.0
 40
0.085786593
 41
4.712388980384691
 42
6.283185307179586
  0
ELLIPSE
  5
162
330
1F
100
AcDbEntity
  8
0
  6
CONTINUOUS
 62
     7
100
AcDbEllipse
 10
174.1669487255
 20
-289.4401706279
 30
0.0
 11
0.0
 21
17.50000000000006
 31
0.0
210
0.0
220
0.0
230
1.0
 40
0.085786593
 41
0.0
 42
1.570796326794897
  0
ELLIPSE
  5
163
330
1F
100
AcDbEntity
  8
0
  6
CONTINUOUS
 62
     7
100
AcDbEllipse
 10
105.887198298
 20
-289.4401706279
 30
0.0
 11
0.0
 21
17.5
 31
0.0
210
0.0
220
0.0
230
1.0
 40
0.085786593
 41
4.712388980384691
 42
6.283185307179586
  0
LINE
  5
164
330
1F
100
AcDbEntity
  8
0
  6
CONTINUOUS
 62
     7
100
AcDbLine
 10
172.6656829211
 20
-299.440172416
 30
0.0
 11
170.4577163997
 21
-299.440172416
 31
0.0
  0
LINE
  5
165
330
1F
100
AcDbEntity
  8
0
  6
CONTINUOUS
 62
     7
100
AcDbLine
 10
172.6656829211
 20
-289.4401707769
 30
0.0
 11
172.6656829211
 21
-299.440172416
 31
0.0
  0
LINE
  5
166
330
1F
100
AcDbEntity
  8
0
  6
CONTINUOUS
 62
     7
100
AcDbLine
 10
107.3884641024
 20
-299.440172416
 30
0.0
 11
109.5964306238
 21
-299.440172416
 31
0.0
  0
LINE
  5
167
330
1F
100
AcDbEntity
  8
0
  6
CONTINUOUS
 62
     7
100
AcDbLine
 10
107.3884641024
 20
-299.440172416
 30
0.0
 11
107.3884641024
 21
-289.4401707769
 31
0.0
  0
SPLINE
  5
168
330
1F
100
AcDbEntity
  8
0
  6
CONTINUOUS
 62
     7
100
AcDbSpline
210
0.0
220
0.0
230
1.0
 70
     8
 71
     3
 72
    35
 73
    31
 74
     0
 42
0.00000001
 43
0.00000001
 40
0.0
 40
0.0
 40
0.0
 40
0.0
 40
0.0357739231285583
 40
0.0716619261363986
 40
0.1074356364302912
 40
0.1432096991849976
 40
0.1790977160149762
 40
0.2148718314206089
 40
0.2506409416054665
 40
0.2865243202733575
 40
0.3222933604604034
 40
0.3580502673618419
 40
0.393921180743629
 40
0.4296779738961048
 40
0.4654221279997386
 40
0.5012802924450448
 40
0.5370244414297024
 40
0.5727619687243769
 40
0.6086134175819868
 40
0.6443509995458182
 40
0.6800916621719032
 40
0.7159462074652383
 40
0.7516867116337647
 40
0.7874384387781136
 40
0.8233039703200644
 40
0.859055865986426
 40
0.8948208724226819
 40
0.9306996068000961
 40
0.9664644262066759
 40
1.0
 40
1.0
 40
1.0
 40
1.0
 10
125.7270735892319
 20
-285.3060987860534
 30
0.0
 10
125.744906576419
 20
-285.2920036450996
 30
0.0
 10
125.7806294186131
 20
-285.2637684150331
 30
0.0
 10
126.06167454751
 20
-285.2215817108028
 30
0.0
 10
126.5039126500455
 20
-285.1801615972302
 30
0.0
 10
127.1247537217998
 20
-285.140072168317
 30
0.0
 10
127.9056767216259
 20
-285.1018206702111
 30
0.0
 10
128.8384189542187
 20
-285.0659174307291
 30
0.0
 10
129.9159380310193
 20
-285.0329607916906
 30
0.0
 10
131.1194904223637
 20
-285.0033340498386
 30
0.0
 10
132.4344876179777
 20
-284.9774459414693
 30
0.0
 10
133.8476281417799
 20
-284.9558409449426
 30
0.0
 10
135.3374927260669
 20
-284.9386862806973
 30
0.0
 10
136.886088231898
 20
-284.9262304302895
 30
0.0
 10
138.4751535442365
 20
-284.9188538497647
 30
0.0
 10
140.0830634542441
 20
-284.9164796039468
 30
0.0
 10
141.6905233149191
 20
-284.9191441952527
 30
0.0
 10
143.2763593753567
 20
-284.926993867198
 30
0.0
 10
144.8212073875995
 20
-284.939716103551
 30
0.0
 10
146.3065938230104
 20
-284.957126007038
 30
0.0
 10
147.7108069662371
 20
-284.9791193995427
 30
0.0
 10
149.018882783746
 20
-285.005206212984
 30
0.0
 10
150.2151863918764
 20
-285.0350104402318
 30
0.0
 10
151.2798252186723
 20
-285.0682213807284
 30
0.0
 10
152.2040069807504
 20
-285.1042412695282
 30
0.0
 10
152.9762805018137
 20
-285.1425926081018
 30
0.0
 10
153.5820155743159
 20
-285.1827979410186
 30
0.0
 10
154.0152900976894
 20
-285.2242574666489
 30
0.0
 10
154.2803345835753
 20
-285.2655936917308
 30
0.0
 10
154.3118315473795
 20
-285.2928897734931
 30
0.0
 10
154.3270734342599
 20
-285.3060987860534
 30
0.0
  0
LINE
  5
169
330
1F
100
AcDbEntity
  8
0
  6
CONTINUOUS
 62
     7
100
AcDbLine
 10
154.3270734343
 20
-285.3060987861
 30
0.0
 11
154.3270734343
 21
-285.7401714743
 31
0.0
  0
LINE
  5
16A
330
1F
100
AcDbEntity
  8
0
  6
CONTINUOUS
 62
     7
100
AcDbLine
 10
125.7270735892
 20
-285.7401714743
 30
0.0
 11
154.3270734343
 21
-285.7401714743
 31
0.0
  0
LINE
  5
16B
330
1F
100
AcDbEntity
  8
0
  6
CONTINUOUS
 62
     7
100
AcDbLine
 10
125.7270735892
 20
-285.3060987861
 30
0.0
 11
125.7270735892
 21
-285.7401714743
 31
0.0
  0
LINE
  5
16C
330
1F
100
AcDbEntity
  8
0
  6
CONTINUOUS
 62
     7
100
AcDbLine
 10
132.2270737233
 20
-299.440172416
 30
0.0
 11
147.8270733001
 21
-299.440172416
 31
0.0
  0
LINE
  5
16D
330
1F
100
AcDbEntity
  8
0
  6
CONTINUOUS
 62
     7
100
AcDbLine
 10
119.7916691395
 20
-299.440172416
 30
0.0
 11
125.1042655873
 21
-299.440172416
 31
0.0
  0
LINE
  5
16E
330
1F
100
AcDbEntity
  8
0
  6
CONTINUOUS
 62
     7
100
AcDbLine
 10
154.9498814362
 20
-299.440172416
 30
0.0
 11
160.262477884
 21
-299.440172416
 31
0.0
  0
LINE
  5
16F
330
1F
100
AcDbEntity
  8
0
  6
CONTINUOUS
 62
     7
100
AcDbLine
 10
125.1042655873
 20
-299.440172416
 30
0.0
 11
132.2270737233
 21
-299.440172416
 31
0.0
  0
LINE
  5
170
330
1F
100
AcDbEntity
  8
0
  6
CONTINUOUS
 62
     7
100
AcDbLine
 10
147.8270733001
 20
-299.440172416
 30
0.0
 11
154.9498814362
 21
-299.440172416
 31
0.0
  0
LINE
  5
171
330
1F
100
AcDbEntity
  8
SLD-0
100
AcDbLine
 10
130.2060315985
 20
187.5598293721
 30
0.0
 11
373.8690942632
 21
187.5598293721
 31
0.0
  0
LINE
  5
172
330
1F
100
AcDbEntity
  8
SLD-0
100
AcDbLine
 10
-32.8338263174
 20
130.5598293721
 30
0.0
 11
-99.9452235092
 21
130.5598293721
 31
0.0
  0
LINE
  5
173
330
1F
100
AcDbEntity
  8
SLD-0
100
AcDbLine
 10
140.0270735117
 20
426.1574356591
 30
0.0
 11
140.0270735118
 21
-314.2043353766
 31
0.0
  0
LINE
  5
174
330
1F
100
AcDbEntity
  8
SLD-0
  6
CENTERX2
100
AcDbLine
 10
349.0270735117
 20
-184.4401706279
 30
0.0
 11
370.6270735117
 21
-184.4401706279
 31
0.0
  0
LINE
  5
175
330
1F
100
AcDbEntity
  8
0
  6
CONTINUOUS
 62
     7
100
AcDbLine
 10
304.1203891131
 20
893.7595878637
 30
0.0
 11
306.9488232228
 21
897.2951118743
 31
0.0
  0
LINE
  5
176
330
1F
100
AcDbEntity
  8
0
  6
CONTINUOUS
 62
     7
100
AcDbLine
 10
297.7564309927
 20
906.4875041044
 30
0.0
 11
294.2209069821
 21
903.6590699947
 31
0.0
  0
ARC
  5
177
330
1F
100
AcDbEntity
  8
0
  6
CONTINUOUS
 62
     7
100
AcDbCircle
 10
287.7685501592
 20
887.307231041
 30
0.0
 40
21.62500000000009
100
AcDbArc
 50
27.5076754749
 51
62.4923245251
  0
LINE
  5
178
330
1F
100
AcDbEntity
  8
0
  6
CONTINUOUS
 62
     7
100
AcDbLine
 10
295.2815567347
 20
902.5984202421
 30
0.0
 11
294.9280117842
 21
902.2448603904
 31
0.0
  0
LINE
  5
179
330
1F
100
AcDbEntity
  8
0
  6
CONTINUOUS
 62
     7
100
AcDbLine
 10
302.7061795088
 20
894.4666926658
 30
0.0
 11
303.0597393605
 21
894.8202376163
 31
0.0
  0
LINE
  5
17A
330
1F
100
AcDbEntity
  8
0
  6
CONTINUOUS
 62
     7
100
AcDbLine
 10
-24.0662420896
 20
585.371920923
 30
0.0
 11
-26.8946761993
 21
581.8363969123
 31
0.0
  0
LINE
  5
17B
330
1F
100
AcDbEntity
  8
0
  6
CONTINUOUS
 62
     7
100
AcDbLine
 10
-17.7022839693
 20
572.6440046823
 30
0.0
 11
-14.1667599586
 21
575.472438792
 31
0.0
  0
ARC
  5
17C
330
1F
100
AcDbEntity
  8
0
  6
CONTINUOUS
 62
     7
100
AcDbCircle
 10
-7.7144031363
 20
591.8242777463
 30
0.0
 40
21.62500000000004
100
AcDbArc
 50
207.5076754749
 51
242.4923245251
  0
LINE
  5
17D
330
1F
100
AcDbEntity
  8
0
  6
CONTINUOUS
 62
     7
100
AcDbLine
 10
-15.2274097112
 20
576.5330885446
 30
0.0
 11
-14.8738647607
 21
576.8866483962
 31
0.0
  0
LINE
  5
17E
330
1F
100
AcDbEntity
  8
0
  6
CONTINUOUS
 62
     7
100
AcDbLine
 10
-22.6520324853
 20
584.6648161209
 30
0.0
 11
-23.005592337
 21
584.3112711704
 31
0.0
  0
SPLINE
  5
17F
330
1F
100
AcDbEntity
  8
0
  6
CONTINUOUS
 62
     7
100
AcDbSpline
210
0.0
220
0.0
230
1.0
 70
     8
 71
     3
 72
    12
 73
     8
 74
     0
 42
0.00000001
 43
0.00000001
 40
0.0
 40
0.0
 40
0.0
 40
0.0
 40
0.1792485552972357
 40
0.4574342492844957
 40
0.7083701447351798
 40
0.9165703953714668
 40
0.9999999999999999
 40
0.9999999999999999
 40
0.9999999999999999
 40
0.9999999999999999
 10
-79.6281124261356
 20
712.2003753578589
 30
0.0
 10
-79.62587992954052
 20
712.1532320887462
 30
0.0
 10
-79.62018269866286
 20
712.0329245867997
 30
0.0
 10
-79.61713998552045
 20
711.8978187262612
 30
0.0
 10
-79.61669252942033
 20
711.7960580815202
 30
0.0
 10
-79.61890502374494
 20
711.7473042031088
 30
0.0
 10
-79.61868370221994
 20
711.7499658000174
 30
0.0
 10
-79.61862038645509
 20
711.7507272308991
 30
0.0
  0
SPLINE
  5
180
330
1F
100
AcDbEntity
  8
0
  6
CONTINUOUS
 62
     7
100
AcDbSpline
210
0.0
220
0.0
230
1.0
 70
     8
 71
     3
 72
    12
 73
     8
 74
     0
 42
0.00000001
 43
0.00000001
 40
0.0
 40
0.0
 40
0.0
 40
0.0
 40
0.0425934946170059
 40
0.2235059097298366
 40
0.4476997309263644
 40
0.7118084908599213
 40
1.0
 40
1.0
 40
1.0
 40
1.0
 10
-79.61838196787599
 20
767.3814763224051
 30
0.0
 10
-79.61847472551727
 20
767.3823812089479
 30
0.0
 10
-79.6189614637196
 20
767.3871295277173
 30
0.0
 10
-79.61691636763338
 20
767.3549896764287
 30
0.0
 10
-79.6164621010296
 20
767.281286348698
 30
0.0
 10
-79.61841045567914
 20
767.1519145243271
 30
0.0
 10
-79.6238457605086
 20
767.0227597110849
 30
0.0
 10
-79.62668191466096
 20
766.9553664421961
 30
0.0
  0
SPLINE
  5
181
330
1F
100
AcDbEntity
  8
0
  6
CONTINUOUS
 62
     7
100
AcDbSpline
210
0.0
220
0.0
230
1.0
 70
     8
 71
     3
 72
    11
 73
     7
 74
     0
 42
0.00000001
 43
0.00000001
 40
0.0
 40
0.0
 40
0.0
 40
0.0
 40
0.0113479189404517
 40
0.4683973218675263
 40
0.8393004772066358
 40
1.0
 40
1.0
 40
1.0
 40
1.0
 10
-14.77580021891359
 20
901.9067381417677
 30
0.0
 10
-14.77675707087336
 20
901.9059156396709
 30
0.0
 10
-14.81625214461704
 20
901.8719659982065
 30
0.0
 10
-14.85791942235404
 20
901.8380426977674
 30
0.0
 10
-14.90052377388443
 20
901.8044322110997
 30
0.0
 10
-14.89980227014692
 20
901.804977260409
 30
0.0
 10
-14.89958416495088
 20
901.8051420247481
 30
0.0
  0
SPLINE
  5
182
330
1F
100
AcDbEntity
  8
0
  6
CONTINUOUS
 62
     7
100
AcDbSpline
210
0.0
220
0.0
230
1.0
 70
     8
 71
     3
 72
    10
 73
     6
 74
     0
 42
0.00000001
 43
0.00000001
 40
0.0
 40
0.0
 40
0.0
 40
0.0
 40
0.1371970534511626
 40
0.5756153425825878
 40
1.0
 40
1.0
 40
1.0
 40
1.0
 10
-5.12652348551515
 20
910.6047545468733
 30
0.0
 10
-5.126022940592945
 20
910.6053195576656
 30
0.0
 10
-5.123922885747422
 20
910.6076900814672
 30
0.0
 10
-5.142955236374619
 20
910.5873145852809
 30
0.0
 10
-5.1731326082817
 20
910.5577630765811
 30
0.0
 10
-5.187975874278605
 20
910.543227652304
 30
0.0
  0
LINE
  5
183
330
1F
100
AcDbEntity
  8
0
  6
CONTINUOUS
 62
     7
100
AcDbLine
 10
-24.7729296592
 20
767.5657552576
 30
0.0
 11
-25.1729215291
 21
767.5657552576
 31
0.0
  0
LINE
  5
184
330
1F
100
AcDbEntity
  8
0
  6
CONTINUOUS
 62
     7
100
AcDbLine
 10
-25.1729215291
 20
711.5657535291
 30
0.0
 11
-24.7729296592
 21
711.5657535291
 31
0.0
  0
ARC
  5
185
330
1F
100
AcDbEntity
  8
0
  6
CONTINUOUS
 62
     7
100
AcDbCircle
 10
-49.7729264883
 20
714.0657543933
 30
0.0
 40
1.0
100
AcDbArc
 50
180.0
 51
270.0
  0
ARC
  5
186
330
1F
100
AcDbEntity
  8
0
  6
CONTINUOUS
 62
     7
100
AcDbCircle
 10
-49.7729264883
 20
765.0657543933
 30
0.0
 40
1.0
100
AcDbArc
 50
90.0
 51
180.0
  0
LINE
  5
187
330
1F
100
AcDbEntity
  8
0
  6
CONTINUOUS
 62
     7
100
AcDbLine
 10
-37.1729309467
 20
766.0657540804
 30
0.0
 11
-49.7729207185
 21
766.0657540804
 31
0.0
  0
LINE
  5
188
330
1F
100
AcDbEntity
  8
0
  6
CONTINUOUS
 62
     7
100
AcDbLine
 10
-49.7729207185
 20
713.0657547063
 30
0.0
 11
-37.1729309467
 21
713.0657547063
 31
0.0
  0
LINE
  5
189
330
1F
100
AcDbEntity
  8
0
  6
CONTINUOUS
 62
     7
100
AcDbLine
 10
-25.1729215291
 20
793.565755794
 30
0.0
 11
-37.1729309467
 21
793.565755794
 31
0.0
  0
LINE
  5
18A
330
1F
100
AcDbEntity
  8
0
  6
CONTINUOUS
 62
     7
100
AcDbLine
 10
-37.1729309467
 20
685.5657529926
 30
0.0
 11
-25.1729215291
 21
685.5657529926
 31
0.0
  0
LINE
  5
18B
330
1F
100
AcDbEntity
  8
0
  6
CONTINUOUS
 62
     7
100
AcDbLine
 10
363.0207752081
 20
713.0657547063
 30
0.0
 11
368.6270688864
 21
713.0657547063
 31
0.0
  0
LINE
  5
18C
330
1F
100
AcDbEntity
  8
0
  6
CONTINUOUS
 62
     7
100
AcDbLine
 10
368.6270688864
 20
766.0657540804
 30
0.0
 11
363.0207752081
 21
766.0657540804
 31
0.0
  0
ARC
  5
18D
330
1F
100
AcDbEntity
  8
0
  6
CONTINUOUS
 62
     7
100
AcDbCircle
 10
368.6270735117
 20
765.0657543933
 30
0.0
 40
1.0
100
AcDbArc
 50
0.0
 51
90.0
  0
ARC
  5
18E
330
1F
100
AcDbEntity
  8
0
  6
CONTINUOUS
 62
     7
100
AcDbCircle
 10
368.6270735117
 20
714.0657543933
 30
0.0
 40
1.0
100
AcDbArc
 50
270.0
 51
0.0
  0
LINE
  5
18F
330
1F
100
AcDbEntity
  8
0
  6
CONTINUOUS
 62
     7
100
AcDbLine
 10
365.0270675513
 20
783.325361172
 30
0.0
 11
360.2849667164
 21
783.325361172
 31
0.0
  0
LINE
  5
190
330
1F
100
AcDbEntity
  8
0
  6
CONTINUOUS
 62
     7
100
AcDbLine
 10
365.0270675513
 20
783.325361172
 30
0.0
 11
365.0270675513
 21
773.593871007
 31
0.0
  0
LINE
  5
191
330
1F
100
AcDbEntity
  8
0
  6
CONTINUOUS
 62
     7
100
AcDbLine
 10
365.0270675513
 20
773.593871007
 30
0.0
 11
361.9967376086
 21
773.593871007
 31
0.0
  0
LINE
  5
192
330
1F
100
AcDbEntity
  8
0
  6
CONTINUOUS
 62
     7
100
AcDbLine
 10
365.0270675513
 20
789.2972473895
 30
0.0
 11
359.0138827654
 21
789.2972473895
 31
0.0
  0
LINE
  5
193
330
1F
100
AcDbEntity
  8
0
  6
CONTINUOUS
 62
     7
100
AcDbLine
 10
365.0270675513
 20
789.2972473895
 30
0.0
 11
365.0270675513
 21
783.325361172
 31
0.0
  0
LINE
  5
194
330
1F
100
AcDbEntity
  8
0
  6
CONTINUOUS
 62
     7
100
AcDbLine
 10
365.0270675513
 20
769.8342614716
 30
0.0
 11
362.5405703875
 21
769.8342614716
 31
0.0
  0
LINE
  5
195
330
1F
100
AcDbEntity
  8
0
  6
CONTINUOUS
 62
     7
100
AcDbLine
 10
365.0270675513
 20
773.593871007
 30
0.0
 11
365.0270675513
 21
769.8342614716
 31
0.0
  0
LINE
  5
196
330
1F
100
AcDbEntity
  8
0
  6
CONTINUOUS
 62
     7
100
AcDbLine
 10
365.0270675513
 20
703.3253629601
 30
0.0
 11
361.6462920996
 21
703.3253629601
 31
0.0
  0
LINE
  5
197
330
1F
100
AcDbEntity
  8
0
  6
CONTINUOUS
 62
     7
100
AcDbLine
 10
365.0270675513
 20
703.3253629601
 30
0.0
 11
365.0270675513
 21
693.5938690698
 31
0.0
  0
LINE
  5
198
330
1F
100
AcDbEntity
  8
0
  6
CONTINUOUS
 62
     7
100
AcDbLine
 10
365.0270675513
 20
693.5938690698
 30
0.0
 11
359.8338638636
 21
693.5938690698
 31
0.0
  0
LINE
  5
199
330
1F
100
AcDbEntity
  8
0
  6
CONTINUOUS
 62
     7
100
AcDbLine
 10
365.0270675513
 20
709.297247315
 30
0.0
 11
362.5405703875
 21
709.297247315
 31
0.0
  0
LINE
  5
19A
330
1F
100
AcDbEntity
  8
0
  6
CONTINUOUS
 62
     7
100
AcDbLine
 10
365.0270675513
 20
709.297247315
 30
0.0
 11
365.0270675513
 21
703.3253629601
 31
0.0
  0
LINE
  5
19B
330
1F
100
AcDbEntity
  8
0
  6
CONTINUOUS
 62
     7
100
AcDbLine
 10
365.0270675513
 20
689.8342613971
 30
0.0
 11
359.0138827654
 21
689.8342613971
 31
0.0
  0
LINE
  5
19C
330
1F
100
AcDbEntity
  8
0
  6
CONTINUOUS
 62
     7
100
AcDbLine
 10
365.0270675513
 20
693.5938690698
 30
0.0
 11
365.0270675513
 21
689.8342613971
 31
0.0
  0
LINE
  5
19D
330
1F
100
AcDbEntity
  8
0
  6
CONTINUOUS
 62
     7
100
AcDbLine
 10
60.6783976051
 20
521.5570722616
 30
0.0
 11
47.5227062794
 21
526.345351795
 31
0.0
  0
LINE
  5
19E
330
1F
100
AcDbEntity
  8
0
  6
CONTINUOUS
 62
     7
100
AcDbLine
 10
73.8340963813
 20
516.768777827
 30
0.0
 11
60.6783976051
 21
521.5570722616
 31
0.0
  0
LINE
  5
19F
330
1F
100
AcDbEntity
  8
0
  6
CONTINUOUS
 62
     7
100
AcDbLine
 10
46.9250281545
 20
527.6270602739
 30
0.0
 11
49.2982243392
 21
534.1473613775
 31
0.0
  0
LINE
  5
1A0
330
1F
100
AcDbEntity
  8
0
  6
CONTINUOUS
 62
     7
100
AcDbLine
 10
77.4890010449
 20
523.8867496049
 30
0.0
 11
75.1158123108
 21
517.3664634025
 31
0.0
  0
ARC
  5
1A1
330
1F
100
AcDbEntity
  8
0
  6
CONTINUOUS
 62
     7
100
AcDbCircle
 10
47.8647237125
 20
527.2850409983
 30
0.0
 40
1.000000000000023
100
AcDbArc
 50
160.0
 51
250.0
  0
ARC
  5
1A2
330
1F
100
AcDbEntity
  8
0
  6
CONTINUOUS
 62
     7
100
AcDbCircle
 10
74.1761170945
 20
517.7084769852
 30
0.0
 40
1.00000000000003
100
AcDbArc
 50
250.0
 51
340.0
  0
LWPOLYLINE
  5
1A3
330
1F
100
AcDbEntity
  8
0
  6
CONTINUOUS
 62
     7
100
AcDbPolyline
 90
       25
 70
   128
 43
0.0
 10
299.1026316973
 20
905.1413033998
 10
299.4368349406
 20
904.8071001565
 10
299.7991119715
 20
904.4448231256
 10
300.1859908196
 20
904.0579442775
 10
300.5937461945
 20
903.6501889026
 10
301.0184292885
 20
903.2255058086
 10
301.4559571835
 20
902.7879779136
 10
301.902127752
 20
902.3418073451
 10
302.3526345583
 20
901.8913154399
 10
302.8031264636
 20
901.4408086336
 10
303.249297032
 20
900.9946380651
 10
303.686824927
 20
900.5571101701
 10
304.111508021
 20
900.1324270761
 10
304.5192633959
 20
899.7246717012
 10
304.906142244
 20
899.3377928531
 10
305.268419275
 20
898.9755158222
 10
305.6026225182
 20
898.6413125789
 10
305.905533323
 20
898.3384017742
 10
306.1742161604
 20
898.0697189367
 10
306.4061080309
 20
897.8378270662
 10
306.5989588591
 20
897.644976238
 10
306.7509059998
 20
897.4930290973
 10
306.8605040404
 20
897.3834310567
 10
306.9266949984
 20
897.3172400987
 10
306.9488232228
 20
897.2951118743
  0
LINE
  5
1A4
330
1F
100
AcDbEntity
  8
0
  6
CONTINUOUS
 62
     7
100
AcDbLine
 10
297.7564309927
 20
906.4875041044
 30
0.0
 11
299.1026316973
 21
905.1413033998
 31
0.0
  0
LWPOLYLINE
  5
1A5
330
1F
100
AcDbEntity
  8
0
  6
CONTINUOUS
 62
     7
100
AcDbPolyline
 90
       26
 70
   128
 43
0.0
 10
295.6706409546
 20
902.209321121
 10
296.0191940161
 20
901.8607829606
 10
296.3962828013
 20
901.4836941755
 10
296.7984800431
 20
901.0814820325
 10
297.2221796605
 20
900.6577973163
 10
297.6635222527
 20
900.2164547241
 10
298.1184994074
 20
899.7614775693
 10
298.5830133053
 20
899.2969636714
 10
299.0528618189
 20
898.8271151578
 10
299.5237534138
 20
898.3562235629
 10
299.9914710614
 20
897.8885059154
 10
300.4517381283
 20
897.4282388484
 10
300.9004120919
 20
896.9795648849
 10
301.3334100338
 20
896.5465669429
 10
301.74682785
 20
896.1331491268
 10
302.1369253489
 20
895.7430516279
 10
302.500141153
 20
895.3798358238
 10
302.8332268092
 20
895.0467501676
 10
303.1331275794
 20
894.7468493974
 10
303.3971463534
 20
894.4828306234
 10
303.6228840443
 20
894.2570929325
 10
303.8083140942
 20
894.0716628826
 10
303.9517377707
 20
893.9282392061
 10
304.0518586728
 20
893.828118304
 10
304.1077827307
 20
893.772194246
 10
304.1203891131
 20
893.7595878637
  0
LWPOLYLINE
  5
1A6
330
1F
100
AcDbEntity
  8
0
  6
CONTINUOUS
 62
     7
100
AcDbPolyline
 90
       10
 70
   128
 43
0.0
 10
294.2209069821
 20
903.6590699947
 10
294.2223076912
 20
903.6576692855
 10
294.2559098097
 20
903.624067167
 10
294.3340216967
 20
903.5459552801
 10
294.4559280964
 20
903.4240488803
 10
294.6205412241
 20
903.2594357526
 10
294.8263560626
 20
903.0536209142
 10
295.0715099665
 20
902.8084521091
 10
295.3537975642
 20
902.5261794126
 10
295.6706409546
 20
902.209321121
  0
LWPOLYLINE
  5
1A7
330
1F
100
AcDbEntity
  8
0
  6
CONTINUOUS
 62
     7
100
AcDbPolyline
 90
       33
 70
   128
 43
0.0
 10
-17.7022839693
 20
572.6440046823
 10
-17.7244121936
 20
572.6661329067
 10
-17.7906031517
 20
572.7323238647
 10
-17.9002011922
 20
572.8419219053
 10
-18.0521483329
 20
572.993869046
 10
-18.2449991611
 20
573.1867198741
 10
-18.4768910316
 20
573.4186117446
 10
-18.7455738691
 20
573.6872945821
 10
-19.0484846738
 20
573.9902053869
 10
-19.3826879171
 20
574.3244086301
 10
-19.744964948
 20
574.6866856611
 10
-20.1318437961
 20
575.0735645091
 10
-20.539599171
 20
575.4813198841
 10
-20.964282265
 20
575.9060029781
 10
-21.40181016
 20
576.3435308731
 10
-21.8479807285
 20
576.7897014415
 10
-22.2984875349
 20
577.2401933467
 10
-22.7489794401
 20
577.6907001531
 10
-23.1951500085
 20
578.1368707216
 10
-23.6326779035
 20
578.5743986165
 10
-24.0573609975
 20
578.9990817106
 10
-24.4651163724
 20
579.4068370855
 10
-24.8519952205
 20
579.7937159336
 10
-25.2142722515
 20
580.1559929645
 10
-25.5484754947
 20
580.4901962078
 10
-25.8513862995
 20
580.7931070125
 10
-26.120069137
 20
581.06178985
 10
-26.3519610074
 20
581.2936817205
 10
-26.5448118356
 20
581.4865325487
 10
-26.6967589763
 20
581.6384796894
 10
-26.8063570169
 20
581.7480777299
 10
-26.8725479749
 20
581.814268688
 10
-26.8946761993
 20
581.8363969123
  0
LWPOLYLINE
  5
1A8
330
1F
100
AcDbEntity
  8
0
  6
CONTINUOUS
 62
     7
100
AcDbPolyline
 90
       35
 70
   128
 43
0.0
 10
-14.1667599586
 20
575.472438792
 10
-14.1681606678
 20
575.4738395011
 10
-14.2017627862
 20
575.5074416196
 10
-14.2798746732
 20
575.5855535066
 10
-14.4017810729
 20
575.7074599063
 10
-14.5663942007
 20
575.872073034
 10
-14.7722090391
 20
576.0778878725
 10
-15.017362943
 20
576.3230566776
 10
-15.2996505407
 20
576.6053293741
 10
-15.6164939311
 20
576.9221876657
 10
-15.9650469926
 20
577.270725826
 10
-16.3421357778
 20
577.6478146112
 10
-16.7443330196
 20
578.0500267541
 10
-17.168032637
 20
578.4737114704
 10
-17.6093752292
 20
578.9150540626
 10
-18.0643523839
 20
579.3700312173
 10
-18.5288662818
 20
579.8345451152
 10
-18.9987147954
 20
580.3043936288
 10
-19.4696063903
 20
580.7752852237
 10
-19.9373240379
 20
581.2430028713
 10
-20.3975911048
 20
581.7032699382
 10
-20.8462650684
 20
582.1519439018
 10
-21.2792630104
 20
582.5849418437
 10
-21.6926808265
 20
582.9983596599
 10
-22.0827783254
 20
583.3884571588
 10
-22.4459941295
 20
583.7516729629
 10
-22.7790797857
 20
584.0847586191
 10
-23.0789805559
 20
584.3846593893
 10
-23.3429993299
 20
584.6486781633
 10
-23.5687370208
 20
584.8744158542
 10
-23.7541670707
 20
585.0598459041
 10
-23.8975907472
 20
585.2032695806
 10
-23.9977116493
 20
585.3033904827
 10
-24.0536357072
 20
585.3593145406
 10
-24.0662420896
 20
585.371920923
  0
CIRCLE
  5
1A9
330
1F
100
AcDbEntity
  8
0
  6
CONTINUOUS
 62
     7
100
AcDbCircle
 10
140.0270735117
 20
739.5657543933
 30
0.0
 40
212.3270416679744
  0
SPLINE
  5
1AA
330
1F
100
AcDbEntity
  8
0
  6
CONTINUOUS
 62
     7
100
AcDbSpline
210
0.0
220
0.0
230
1.0
 70
     8
 71
     3
 72
    18
 73
    14
 74
     0
 42
0.00000001
 43
0.00000001
 40
0.0
 40
0.0
 40
0.0
 40
0.0
 40
0.0819579569762517
 40
0.1728456423277115
 40
0.264063757633643
 40
0.3552817788855658
 40
0.4461692522933587
 40
0.5359674152812266
 40
0.6260842575339807
 40
0.7162011642156809
 40
0.8059995599733101
 40
0.9047531869314707
 40
1.0
 40
1.0
 40
1.0
 40
1.0
 10
-80.63276361498598
 20
752.2562482303307
 30
0.0
 10
-80.65233005420846
 20
751.60755705602
 30
0.0
 10
-80.69359479384138
 20
750.2394965670485
 30
0.0
 10
-80.74668923105085
 20
748.0532144591704
 30
0.0
 10
-80.79096454522491
 20
745.7362619032729
 30
0.0
 10
-80.82249815095788
 20
743.3735056672612
 30
0.0
 10
-80.83964208644659
 20
740.9958891342261
 30
0.0
 10
-80.84065339066649
 20
738.6173835134988
 30
0.0
 10
-80.8268335472512
 20
736.2528242353212
 30
0.0
 10
-80.7992779361969
 20
733.9107394044732
 30
0.0
 10
-80.757096399822
 20
731.5366797887298
 30
0.0
 10
-80.70150098777093
 20
729.1733966249703
 30
0.0
 10
-80.65545824948015
 20
727.6348193414362
 30
0.0
 10
-80.63285302195314
 20
726.8794366067574
 30
0.0
  0
ARC
  5
1AB
330
1F
100
AcDbEntity
  8
0
  6
CONTINUOUS
 62
     7
100
AcDbCircle
 10
140.0270735117
 20
739.5657543933
 30
0.0
 40
221.0267330289587
100
AcDbArc
 50
183.3122718579
 51
176.6877281421
  0
SPLINE
  5
1AC
330
1F
100
AcDbEntity
  8
0
  6
CONTINUOUS
 62
     7
100
AcDbSpline
210
0.0
220
0.0
230
1.0
 70
     8
 71
     3
 72
    11
 73
     7
 74
     0
 42
0.00000001
 43
0.00000001
 40
0.0
 40
0.0
 40
0.0
 40
0.0
 40
0.1279655478520317
 40
0.2962948217671039
 40
0.6088132065860573
 40
1.0
 40
1.0
 40
1.0
 40
1.0
 10
-80.63306163820985
 20
752.2948003283069
 30
0.0
 10
-80.63297145856046
 20
752.2958800091595
 30
0.0
 10
-80.63276265420977
 20
752.2983799308272
 30
0.0
 10
-80.632194997491
 20
752.30659555057
 30
0.0
 10
-80.63141213334568
 20
752.3195514856328
 30
0.0
 10
-80.63077712897667
 20
752.330255018017
 30
0.0
 10
-80.63042413267854
 20
752.3362050673292
 30
0.0
  0
SPLINE
  5
1AD
330
1F
100
AcDbEntity
  8
0
  6
CONTINUOUS
 62
     7
100
AcDbSpline
210
0.0
220
0.0
230
1.0
 70
     8
 71
     3
 72
    12
 73
     8
 74
     0
 42
0.00000001
 43
0.00000001
 40
0.0
 40
0.0
 40
0.0
 40
0.0
 40
0.338074470230817
 40
0.6778914795071894
 40
0.8345750388761197
 40
0.9629919995289595
 40
1.0
 40
1.0
 40
1.0
 40
1.0
 10
-80.63042413267854
 20
726.7953037193344
 30
0.0
 10
-80.63072769229201
 20
726.800431453229
 30
0.0
 10
-80.63133637615796
 20
726.8107133509242
 30
0.0
 10
-80.63207729281963
 20
726.8233321553461
 30
0.0
 10
-80.63267802906127
 20
726.8317287364949
 30
0.0
 10
-80.63292747551188
 20
726.8352210245189
 30
0.0
 10
-80.63303711111139
 20
726.8364365315334
 30
0.0
 10
-80.63306163820985
 20
726.8367084583566
 30
0.0
  0
SPLINE
  5
1AE
330
1F
100
AcDbEntity
  8
0
  6
CONTINUOUS
 62
     7
100
AcDbSpline
210
0.0
220
0.0
230
1.0
 70
     8
 71
     3
 72
    20
 73
    16
 74
     0
 42
0.00000001
 43
0.00000001
 40
0.0
 40
0.0
 40
0.0
 40
0.0
 40
0.0261645331531652
 40
0.1202732523270023
 40
0.2143810765930386
 40
0.3111898887109407
 40
0.4079974211650911
 40
0.4734367609495901
 40
0.5388760395425083
 40
0.6052094829312079
 40
0.6715419655998323
 40
0.7651123510885944
 40
0.8586826493506825
 40
0.9549816702090831
 40
0.9999999999999999
 40
0.9999999999999999
 40
0.9999999999999999
 40
0.9999999999999999
 10
-80.63306163820988
 20
726.8367084583566
 30
0.0
 10
-80.62356702598896
 20
726.6450211993008
 30
0.0
 10
-80.57992214668944
 20
725.7638722813616
 30
0.0
 10
-80.49624434912548
 20
724.2420920997085
 30
0.0
 10
-80.37801314655549
 20
722.3214432616951
 30
0.0
 10
-80.25476453344014
 20
720.5054715462297
 30
0.0
 10
-80.14412528541223
 20
718.9923351620912
 30
0.0
 10
-80.04988013045372
 20
717.7617609519166
 30
0.0
 10
-79.97163050251207
 20
716.768033310367
 30
0.0
 10
-79.89775756286308
 20
715.8465445223774
 30
0.0
 10
-79.82024992728856
 20
714.8862441045641
 30
0.0
 10
-79.74434245068579
 20
713.9366532979058
 30
0.0
 10
-79.67823261119145
 20
713.0607110355592
 30
0.0
 10
-79.63663752936276
 20
712.4552859336007
 30
0.0
 10
-79.6267365487526
 20
712.2164928023025
 30
0.0
 10
-79.62358247313264
 20
712.1404223984406
 30
0.0
  0
SPLINE
  5
1AF
330
1F
100
AcDbEntity
  8
0
  6
CONTINUOUS
 62
     7
100
AcDbSpline
210
0.0
220
0.0
230
1.0
 70
     8
 71
     3
 72
     9
 73
     5
 74
     0
 42
0.00000001
 43
0.00000001
 40
0.0
 40
0.0
 40
0.0
 40
0.0
 40
0.0150353634555833
 40
1.0
 40
1.0
 40
1.0
 40
1.0
 10
-79.62702464136842
 20
711.4567012435124
 30
0.0
 10
-79.62723536344731
 20
711.4581569991419
 30
0.0
 10
-79.64125046055389
 20
711.5549791101527
 30
0.0
 10
-79.62731985196167
 20
711.6546145456574
 30
0.0
 10
-79.61359869513277
 20
711.7527519261763
 30
0.0
  0
SPLINE
  5
1B0
330
1F
100
AcDbEntity
  8
0
  6
CONTINUOUS
 62
     7
100
AcDbSpline
210
0.0
220
0.0
230
1.0
 70
     8
 71
     3
 72
     9
 73
     5
 74
     0
 42
0.00000001
 43
0.00000001
 40
0.0
 40
0.0
 40
0.0
 40
0.0
 40
0.0152444884338584
 40
1.0
 40
1.0
 40
1.0
 40
1.0
 10
-79.62702464136842
 20
767.6748075431511
 30
0.0
 10
-79.62723539281521
 20
767.6733517901762
 30
0.0
 10
-79.64106015628245
 20
767.5778580659177
 30
0.0
 10
-79.62732156435251
 20
767.4795934057906
 30
0.0
 10
-79.61379241022831
 20
767.3828267401383
 30
0.0
  0
SPLINE
  5
1B1
330
1F
100
AcDbEntity
  8
0
  6
CONTINUOUS
 62
     7
100
AcDbSpline
210
0.0
220
0.0
230
1.0
 70
     8
 71
     3
 72
    19
 73
    15
 74
     0
 42
0.00000001
 43
0.00000001
 40
0.0
 40
0.0
 40
0.0
 40
0.0
 40
0.0671754761703599
 40
0.1630445678247278
 40
0.2589144647478067
 40
0.3224891999671853
 40
0.386064529687242
 40
0.4504687372241512
 40
0.5148727370000806
 40
0.609034046334739
 40
0.7031953614578341
 40
0.8000869370508045
 40
0.8969789120627165
 40
1.0
 40
1.0
 40
1.0
 40
1.0
 10
-79.62201785120729
 20
767.0150586312935
 30
0.0
 10
-79.62772092427502
 20
766.893036901936
 30
0.0
 10
-79.64156310503215
 20
766.5968725684245
 30
0.0
 10
-79.69042343884827
 20
765.9031895427134
 30
0.0
 10
-79.75395323273696
 20
765.074752911568
 30
0.0
 10
-79.82170855950801
 20
764.2279286452558
 30
0.0
 10
-79.88654888737094
 20
763.4236804040465
 30
0.0
 10
-79.95761107500648
 20
762.5392045700157
 30
0.0
 10
-80.04540997180331
 20
761.4289563087626
 30
0.0
 10
-80.15068317576917
 20
760.0553152075415
 30
0.0
 10
-80.27326879329428
 20
758.3639761220268
 30
0.0
 10
-80.39647696118038
 20
756.5200390606308
 30
0.0
 10
-80.51991026539216
 20
754.5009292079476
 30
0.0
 10
-80.59458140250459
 20
753.0450551168323
 30
0.0
 10
-80.63306163820985
 20
752.2948003283069
 30
0.0
  0
ARC
  5
1B2
330
1F
100
AcDbEntity
  8
0
  6
CONTINUOUS
 62
     7
100
AcDbCircle
 10
140.0270735117
 20
739.5657543933
 30
0.0
 40
221.4453499543486
100
AcDbArc
 50
171.390640299
 51
172.7075161699
  0
ARC
  5
1B3
330
1F
100
AcDbEntity
  8
0
  6
CONTINUOUS
 62
     7
100
AcDbCircle
 10
140.0270735117
 20
739.5657543933
 30
0.0
 40
221.4453499543486
100
AcDbArc
 50
187.2924838301
 51
188.609359701
  0
ARC
  5
1B4
330
1F
100
AcDbEntity
  8
0
  6
CONTINUOUS
 62
     7
100
AcDbCircle
 10
-78.6512105802
 20
772.5657329017
 30
0.0
 40
1.000032601566402
100
AcDbArc
 50
171.4188175733
 51
244.6174972024
  0
ARC
  5
1B5
330
1F
100
AcDbEntity
  8
0
  6
CONTINUOUS
 62
     7
100
AcDbCircle
 10
-78.6512105802
 20
706.565775885
 30
0.0
 40
1.000032601566472
100
AcDbArc
 50
115.3825027976
 51
188.5811824267
  0
LINE
  5
1B6
330
1F
100
AcDbEntity
  8
0
  6
CONTINUOUS
 62
     7
100
AcDbLine
 10
-79.0835941938
 20
771.5657559133
 30
0.0
 11
-79.2434985546
 21
771.5657559133
 31
0.0
  0
SPLINE
  5
1B7
330
1F
100
AcDbEntity
  8
0
  6
CONTINUOUS
 62
     7
100
AcDbSpline
210
0.0
220
0.0
230
1.0
 70
    24
 71
     3
 72
     9
 73
     5
 74
     0
 42
0.00000001
 43
0.00000001
 40
0.0
 40
0.0
 40
0.0
 40
0.0
 40
0.8034126070244787
 40
1.0
 40
1.0
 40
1.0
 40
1.0
 10
-79.24349855456117
 20
707.5657528734133
 30
0.0
 10
-79.19366769523148
 20
707.5657528734133
 30
0.0
 10
-79.13164370046968
 20
707.5657528734133
 30
0.0
 10
-79.09148824925752
 20
707.5657528734133
 30
0.0
 10
-79.08359419378999
 20
707.5657528734133
 30
0.0
  0
LINE
  5
1B8
330
1F
100
AcDbEntity
  8
0
  6
CONTINUOUS
 62
     7
100
AcDbLine
 10
-79.2434985546
 20
771.5657559133
 30
0.0
 11
-80.6880916265
 21
771.5657559133
 31
0.0
  0
LINE
  5
1B9
330
1F
100
AcDbEntity
  8
0
  6
CONTINUOUS
 62
     7
100
AcDbLine
 10
-80.6880916265
 20
707.5657528734
 30
0.0
 11
-79.2434985546
 21
707.5657528734
 31
0.0
  0
SPLINE
  5
1BA
330
1F
100
AcDbEntity
  8
0
  6
CONTINUOUS
 62
     7
100
AcDbSpline
210
0.0
220
0.0
230
1.0
 70
     8
 71
     3
 72
    12
 73
     8
 74
     0
 42
0.00000001
 43
0.00000001
 40
0.0
 40
0.0
 40
0.0
 40
0.0
 40
0.2098947485288782
 40
0.4243393213960316
 40
0.6342414953303597
 40
0.8490552669235283
 40
1.0
 40
1.0
 40
1.0
 40
1.0
 10
300.1865421625638
 20
896.410906771414
 30
0.0
 10
299.9538164744696
 20
896.6304808924983
 30
0.0
 10
299.4833203746413
 20
897.0743887758069
 30
0.0
 10
298.7282823760567
 20
897.7441496563338
 30
0.0
 10
298.0139726935371
 20
898.4733903972377
 30
0.0
 10
297.4151409613968
 20
899.1592169724295
 30
0.0
 10
297.0308278968885
 20
899.5598754535516
 30
0.0
 10
296.8722258898282
 20
899.7252230441496
 30
0.0
  0
SPLINE
  5
1BB
330
1F
100
AcDbEntity
  8
0
  6
CONTINUOUS
 62
     7
100
AcDbSpline
210
0.0
220
0.0
230
1.0
 70
     8
 71
     3
 72
    12
 73
     8
 74
     0
 42
0.00000001
 43
0.00000001
 40
0.0
 40
0.0
 40
0.0
 40
0.0
 40
0.2098947485288782
 40
0.4243393213960316
 40
0.6342414953303597
 40
0.8490552669235283
 40
1.0
 40
1.0
 40
1.0
 40
1.0
 10
-16.81807886633638
 20
579.4062857425139
 30
0.0
 10
-17.03765298742071
 20
579.639011430608
 30
0.0
 10
-17.48156087072933
 20
580.1095075304363
 30
0.0
 10
-18.15132175125608
 20
580.8645455290209
 30
0.0
 10
-18.88056249216011
 20
581.5788552115405
 30
0.0
 10
-19.56638906735192
 20
582.1776869436809
 30
0.0
 10
-19.96704754847406
 20
582.5620000081891
 30
0.0
 10
-20.13239513907197
 20
582.7206020152495
 30
0.0
  0
LINE
  5
1BC
330
1F
100
AcDbEntity
  8
0
  6
CONTINUOUS
 62
     7
100
AcDbLine
 10
293.5924505087
 20
903.0306284225
 30
0.0
 11
293.8673471304
 21
903.3055250442
 31
0.0
  0
LWPOLYLINE
  5
1BD
330
1F
100
AcDbEntity
  8
0
  6
CONTINUOUS
 62
     7
100
AcDbPolyline
 90
       34
 70
   128
 43
0.0
 10
303.7668441626
 20
893.406028012
 10
303.7444328162
 20
893.4284393585
 10
303.677392492
 20
893.4954796827
 10
303.5663341376
 20
893.6065231359
 10
303.4122859332
 20
893.7605862415
 10
303.2166038844
 20
893.9562682903
 10
302.9810910317
 20
894.1917811429
 10
302.70786334
 20
894.4650088346
 10
302.3993944022
 20
894.7734777725
 10
302.0584856364
 20
895.1143865383
 10
301.688221583
 20
895.4846356904
 10
301.2919699046
 20
895.8809022701
 10
300.8732919785
 20
896.2995801961
 10
300.4360025021
 20
896.7368696725
 10
299.9840353819
 20
897.1888218915
 10
299.5215182396
 20
897.651353935
 10
299.0526084992
 20
898.1202487743
 10
298.5815678927
 20
898.5912893808
 10
298.1126730534
 20
899.0601991212
 10
297.65014101
 20
899.5227162635
 10
297.1981887909
 20
899.9746833837
 10
296.7608993145
 20
900.4119728601
 10
296.3422213885
 20
900.8306507862
 10
295.9459548089
 20
901.2269024646
 10
295.5757056567
 20
901.597166518
 10
295.2347968909
 20
901.9380752838
 10
294.926327953
 20
902.2465442216
 10
294.6531002614
 20
902.5197719133
 10
294.4175874087
 20
902.755284766
 10
294.2219053599
 20
902.9509668147
 10
294.0678422543
 20
903.1050150192
 10
293.9567988011
 20
903.2160733735
 10
293.8897584769
 20
903.2831136978
 10
293.8673471304
 20
903.3055250442
  0
LINE
  5
1BE
330
1F
100
AcDbEntity
  8
0
  6
CONTINUOUS
 62
     7
100
AcDbLine
 10
303.4919475409
 20
893.1311313903
 30
0.0
 11
303.7668441626
 21
893.406028012
 31
0.0
  0
SPLINE
  5
1BF
330
1F
100
AcDbEntity
  8
0
  6
CONTINUOUS
 62
     7
100
AcDbSpline
210
0.0
220
0.0
230
1.0
 70
     8
 71
     3
 72
    15
 73
    11
 74
     0
 42
0.00000001
 43
0.00000001
 40
0.0
 40
0.0
 40
0.0
 40
0.0
 40
0.1351665570978813
 40
0.2742539153472734
 40
0.4094354206749742
 40
0.5485329074084263
 40
0.6837202112725541
 40
0.8228259541012181
 40
0.9108869190003892
 40
1.0
 40
1.0
 40
1.0
 40
1.0
 10
303.4919475409055
 20
893.1311313903258
 30
0.0
 10
303.4743681131517
 20
893.1399615775019
 30
0.0
 10
303.4386993279541
 20
893.1578780907159
 30
0.0
 10
303.2155796453025
 20
893.3659849511173
 30
0.0
 10
302.8708152038081
 20
893.7035909416594
 30
0.0
 10
302.4070731600535
 20
894.1674607378975
 30
0.0
 10
301.8318143261439
 20
894.7478890225241
 30
0.0
 10
301.2447315515705
 20
895.3418673124581
 30
0.0
 10
300.6872147686256
 20
895.9056212801196
 30
0.0
 10
300.3540924268892
 20
896.2418128034175
 30
0.0
 10
300.1865421625638
 20
896.410906771414
 30
0.0
  0
SPLINE
  5
1C0
330
1F
100
AcDbEntity
  8
0
  6
CONTINUOUS
 62
     7
100
AcDbSpline
210
0.0
220
0.0
230
1.0
 70
     8
 71
     3
 72
    15
 73
    11
 74
     0
 42
0.00000001
 43
0.00000001
 40
0.0
 40
0.0
 40
0.0
 40
0.0
 40
0.1351929983817128
 40
0.2743065610350739
 40
0.4095327713837655
 40
0.5486836567465264
 40
0.683893490209993
 40
0.8230274009382424
 40
0.9109889229335534
 40
1.0
 40
1.0
 40
1.0
 40
1.0
 10
296.8722258898282
 20
899.7252230441496
 30
0.0
 10
296.6170240554126
 20
899.9780201801066
 30
0.0
 10
296.0992195950756
 20
900.4909455078522
 30
0.0
 10
295.4062820057398
 20
901.175603095122
 30
0.0
 10
294.7934012920284
 20
901.7822851771707
 30
0.0
 10
294.2944763471811
 20
902.279328944845
 30
0.0
 10
293.9138925795255
 20
902.664553851362
 30
0.0
 10
293.7009769886099
 20
902.8889240897157
 30
0.0
 10
293.6006420903717
 20
903.0046658121112
 30
0.0
 10
293.5951918104413
 20
903.0219400700818
 30
0.0
 10
293.5924505087399
 20
903.0306284224913
 30
0.0
  0
SPLINE
  5
1C1
330
1F
100
AcDbEntity
  8
0
  6
CONTINUOUS
 62
     7
100
AcDbSpline
210
0.0
220
0.0
230
1.0
 70
     8
 71
     3
 72
    15
 73
    11
 74
     0
 42
0.00000001
 43
0.00000001
 40
0.0
 40
0.0
 40
0.0
 40
0.0
 40
0.1351665570978813
 40
0.2742539153472734
 40
0.4094354206749742
 40
0.5485329074084263
 40
0.6837202112725541
 40
0.8228259541012181
 40
0.9108869190003892
 40
1.0
 40
1.0
 40
1.0
 40
1.0
 10
-13.53830348524812
 20
576.1008803641722
 30
0.0
 10
-13.5471336724243
 20
576.1184597919259
 30
0.0
 10
-13.56505018563825
 20
576.1541285771235
 30
0.0
 10
-13.77315704603971
 20
576.3772482597752
 30
0.0
 10
-14.11076303658179
 20
576.7220127012696
 30
0.0
 10
-14.57463283281987
 20
577.185754745024
 30
0.0
 10
-15.15506111744644
 20
577.7610135789337
 30
0.0
 10
-15.74903940738048
 20
578.3480963535071
 30
0.0
 10
-16.31279337504204
 20
578.9056131364521
 30
0.0
 10
-16.64898489833985
 20
579.2387354781885
 30
0.0
 10
-16.81807886633638
 20
579.4062857425139
 30
0.0
  0
LINE
  5
1C2
330
1F
100
AcDbEntity
  8
0
  6
CONTINUOUS
 62
     7
100
AcDbLine
 10
-13.5383034852
 20
576.1008803642
 30
0.0
 11
-13.813200107
 21
575.8259837425
 31
0.0
  0
LWPOLYLINE
  5
1C3
330
1F
100
AcDbEntity
  8
0
  6
CONTINUOUS
 62
     7
100
AcDbPolyline
 90
       34
 70
   128
 43
0.0
 10
-13.813200107
 20
575.8259837425
 10
-13.8356114534
 20
575.8483950889
 10
-13.9026517776
 20
575.9154354131
 10
-14.0136952308
 20
576.0264937675
 10
-14.1677583364
 20
576.1805419719
 10
-14.3634403852
 20
576.3762240207
 10
-14.5989532379
 20
576.6117368734
 10
-14.8721809295
 20
576.884964565
 10
-15.1806498674
 20
577.1934335029
 10
-15.5215586332
 20
577.5343422687
 10
-15.8918077854
 20
577.904606322
 10
-16.288074365
 20
578.3008580005
 10
-16.7067522911
 20
578.7195359266
 10
-17.1440417675
 20
579.156825403
 10
-17.5959939865
 20
579.6087925231
 10
-18.0585260299
 20
580.0713096654
 10
-18.5274208692
 20
580.5402194059
 10
-18.9984614757
 20
581.0112600124
 10
-19.4673712162
 20
581.4801548517
 10
-19.9298883584
 20
581.9426868951
 10
-20.3818554786
 20
582.3946391141
 10
-20.819144955
 20
582.8319285905
 10
-21.2378228811
 20
583.2506065166
 10
-21.6340745595
 20
583.6468730962
 10
-22.0043386129
 20
584.0171222484
 10
-22.3452473787
 20
584.3580310142
 10
-22.6537163166
 20
584.6664999521
 10
-22.9269440082
 20
584.9397276437
 10
-23.1624568609
 20
585.1752404964
 10
-23.3581389097
 20
585.3709225452
 10
-23.5121871141
 20
585.5249856508
 10
-23.6232454685
 20
585.636029104
 10
-23.6902857927
 20
585.7030694282
 10
-23.7126971391
 20
585.7254807746
  0
LINE
  5
1C4
330
1F
100
AcDbEntity
  8
0
  6
CONTINUOUS
 62
     7
100
AcDbLine
 10
-23.4378005174
 20
586.0003773963
 30
0.0
 11
-23.7126971391
 21
585.7254807746
 31
0.0
  0
SPLINE
  5
1C5
330
1F
100
AcDbEntity
  8
0
  6
CONTINUOUS
 62
     7
100
AcDbSpline
210
0.0
220
0.0
230
1.0
 70
     8
 71
     3
 72
    15
 73
    11
 74
     0
 42
0.00000001
 43
0.00000001
 40
0.0
 40
0.0
 40
0.0
 40
0.0
 40
0.1351929983817128
 40
0.2743065610350739
 40
0.4095327713837655
 40
0.5486836567465264
 40
0.683893490209993
 40
0.8230274009382424
 40
0.9109889229335534
 40
1.0
 40
1.0
 40
1.0
 40
1.0
 10
-20.13239513907197
 20
582.7206020152495
 30
0.0
 10
-20.38519227502888
 20
582.9758038496651
 30
0.0
 10
-20.89811760277449
 20
583.4936083100021
 30
0.0
 10
-21.58277519004442
 20
584.1865458993378
 30
0.0
 10
-22.18945727209307
 20
584.7994266130493
 30
0.0
 10
-22.68650103976735
 20
585.2983515578965
 30
0.0
 10
-23.07172594628434
 20
585.6789353255522
 30
0.0
 10
-23.29609618463799
 20
585.8918509164678
 30
0.0
 10
-23.41183790703349
 20
585.9921858147059
 30
0.0
 10
-23.4291121650041
 20
585.9976360946362
 30
0.0
 10
-23.43780051741365
 20
586.0003773963377
 30
0.0
  0
ARC
  5
1C6
330
1F
100
AcDbEntity
  8
0
  6
CONTINUOUS
 62
     7
100
AcDbCircle
 10
-80.6880178794
 20
772.5656865991
 30
0.0
 40
0.9999306885379784
100
AcDbArc
 50
171.4931767682
 51
269.9957743071
  0
SPLINE
  5
1C7
330
1F
100
AcDbEntity
  8
0
  6
CONTINUOUS
 62
     7
100
AcDbSpline
210
0.0
220
0.0
230
1.0
 70
     8
 71
     3
 72
    12
 73
     8
 74
     0
 42
0.00000001
 43
0.00000001
 40
0.0
 40
0.0
 40
0.0
 40
0.0
 40
0.1963503594603978
 40
0.3926936040792331
 40
0.5890273186928383
 40
0.7853316506517316
 40
1.0
 40
1.0
 40
1.0
 40
1.0
 10
-81.08657847914463
 20
771.5657559132502
 30
0.0
 10
-81.19902829344858
 20
771.57680891532
 30
0.0
 10
-81.42392384738795
 20
771.5989145189493
 30
0.0
 10
-81.72378802646475
 20
771.7714036176694
 30
0.0
 10
-81.94954203305579
 20
772.0250770494607
 30
0.0
 10
-82.09067041845775
 20
772.3528855568322
 30
0.0
 10
-82.08088729924884
 20
772.5896636105559
 30
0.0
 10
-82.07577716383699
 20
772.7133427655623
 30
0.0
  0
LINE
  5
1C8
330
1F
100
AcDbEntity
  8
0
  6
CONTINUOUS
 62
     7
100
AcDbLine
 10
-80.6880916265
 20
771.5657559133
 30
0.0
 11
-81.0865784791
 21
771.5657559133
 31
0.0
  0
SPLINE
  5
1C9
330
1F
100
AcDbEntity
  8
0
  6
CONTINUOUS
 62
     7
100
AcDbSpline
210
0.0
220
0.0
230
1.0
 70
     8
 71
     3
 72
    12
 73
     8
 74
     0
 42
0.00000001
 43
0.00000001
 40
0.0
 40
0.0
 40
0.0
 40
0.0
 40
0.1962668737213139
 40
0.392532357402846
 40
0.5888034035526049
 40
0.7851021511454684
 40
1.0
 40
1.0
 40
1.0
 40
1.0
 10
-82.07577716383699
 20
706.4181660211012
 30
0.0
 10
-82.08144391520244
 20
706.5309680806125
 30
0.0
 10
-82.09277737779932
 20
706.7565714007264
 30
0.0
 10
-81.96646999910287
 20
707.0784787264912
 30
0.0
 10
-81.74898909820833
 20
707.3391653983485
 30
0.0
 10
-81.44554299373458
 20
707.5272104698022
 30
0.0
 10
-81.20978784888
 20
707.5525237516923
 30
0.0
 10
-81.0865784791446
 20
707.5657528734133
 30
0.0
  0
LINE
  5
1CA
330
1F
100
AcDbEntity
  8
0
  6
CONTINUOUS
 62
     7
100
AcDbLine
 10
-81.0865784791
 20
707.5657528734
 30
0.0
 11
-80.6880916265
 21
707.5657528734
 31
0.0
  0
SPLINE
  5
1CB
330
1F
100
AcDbEntity
  8
0
  6
CONTINUOUS
 62
     7
100
AcDbSpline
210
0.0
220
0.0
230
1.0
 70
     8
 71
     3
 72
    23
 73
    19
 74
     0
 42
0.00000001
 43
0.00000001
 40
0.0
 40
0.0
 40
0.0
 40
0.0
 40
0.0344822325774133
 40
0.0993163879986813
 40
0.164152412946341
 40
0.2290820100921631
 40
0.2940122181528256
 40
0.359042662708957
 40
0.4240744075365542
 40
0.4891490417304761
 40
0.5542238745708149
 40
0.619271607468344
 40
0.6843195149423756
 40
0.7492964933720955
 40
0.8142723341354479
 40
0.8791571653997273
 40
0.9440395759412937
 40
1.0
 40
1.0
 40
1.0
 40
1.0
 10
-5.143481006953748
 20
910.582894543402
 30
0.0
 10
-5.175989435648981
 20
910.5508126518104
 30
0.0
 10
-5.269620835828021
 20
910.4584097719829
 30
0.0
 10
-5.58010261268771
 20
910.1740934360921
 30
0.0
 10
-6.047650110888647
 20
909.7522365006063
 30
0.0
 10
-6.638957840024523
 20
909.2240367596371
 30
0.0
 10
-7.323295351347181
 20
908.6143797668118
 30
0.0
 10
-8.085894420501422
 20
907.9346066523859
 30
0.0
 10
-8.901402709848933
 20
907.2058854161094
 30
0.0
 10
-9.74762318385361
 20
906.4465316742225
 30
0.0
 10
-10.59975105143213
 20
905.6787627967848
 30
0.0
 10
-11.43326186617327
 20
904.9243126782125
 30
0.0
 10
-12.22622567065893
 20
904.2041992563154
 30
0.0
 10
-12.95449060423476
 20
903.5414598283579
 30
0.0
 10
-13.6022318603827
 20
902.952279544126
 30
0.0
 10
-14.14411209223648
 20
902.4619613731826
 30
0.0
 10
-14.56608308504925
 20
902.0839131277412
 30
0.0
 10
-14.73821445849394
 20
901.9359284587053
 30
0.0
 10
-14.8179258016086
 20
901.867399076216
 30
0.0
  0
ARC
  5
1CC
330
1F
100
AcDbEntity
  8
0
  6
CONTINUOUS
 62
     7
100
AcDbCircle
 10
140.0270735117
 20
739.5657543933
 30
0.0
 40
224.5627787426425
100
AcDbArc
 50
46.7862953018
 51
130.2698147041
  0
ARC
  5
1CD
330
1F
100
AcDbEntity
  8
0
  6
CONTINUOUS
 62
     7
100
AcDbCircle
 10
140.0270735117
 20
739.5657543933
 30
0.0
 40
224.5627787426424
100
AcDbArc
 50
133.7301852959
 51
171.5115843308
  0
ARC
  5
1CE
330
1F
100
AcDbEntity
  8
0
  6
CONTINUOUS
 62
     7
100
AcDbCircle
 10
140.0270735117
 20
739.5657543933
 30
0.0
 40
224.5627787426425
100
AcDbArc
 50
226.7862953018
 51
43.2137046982
  0
ARC
  5
1CF
330
1F
100
AcDbEntity
  8
0
  6
CONTINUOUS
 62
     7
100
AcDbCircle
 10
140.0270735117
 20
739.5657543933
 30
0.0
 40
224.5627787426425
100
AcDbArc
 50
188.4884156692
 51
223.2137046982
  0
SPLINE
  5
1D0
330
1F
100
AcDbEntity
  8
0
  6
CONTINUOUS
 62
     7
100
AcDbSpline
210
0.0
220
0.0
230
1.0
 70
     8
 71
     3
 72
     9
 73
     5
 74
     0
 42
0.00000001
 43
0.00000001
 40
0.0
 40
0.0
 40
0.0
 40
0.0
 40
0.1054643146526523
 40
1.0
 40
1.0
 40
1.0
 40
1.0
 10
-5.309852471683057
 20
910.6977675950453
 30
0.0
 10
-5.305711982535765
 20
910.7067341207596
 30
0.0
 10
-5.266452360350532
 20
910.7917536436556
 30
0.0
 10
-5.193151607313984
 20
910.8537301617835
 30
0.0
 10
-5.12758146795994
 20
910.9091703689026
 30
0.0
  0
LINE
  5
1D1
330
1F
100
AcDbEntity
  8
0
  6
CONTINUOUS
 62
     7
100
AcDbLine
 10
-15.2049089578
 20
901.8355105913
 30
0.0
 11
-15.0135482458
 21
901.9648973739
 31
0.0
  0
LINE
  5
1D2
330
1F
100
AcDbEntity
  8
0
  6
CONTINUOUS
 62
     7
100
AcDbLine
 10
-37.1729309467
 20
788.9334988689
 30
0.0
 11
-37.1729309467
 21
790.0874932206
 31
0.0
  0
LINE
  5
1D3
330
1F
100
AcDbEntity
  8
0
  6
CONTINUOUS
 62
     7
100
AcDbLine
 10
-25.1729215291
 20
790.0874932206
 30
0.0
 11
-25.1729215291
 21
689.0440155661
 31
0.0
  0
LINE
  5
1D4
330
1F
100
AcDbEntity
  8
0
  6
CONTINUOUS
 62
     7
100
AcDbLine
 10
-37.1729309467
 20
689.0440155661
 30
0.0
 11
-37.1729309467
 21
690.1980099177
 31
0.0
  0
LINE
  5
1D5
330
1F
100
AcDbEntity
  8
0
  6
CONTINUOUS
 62
     7
100
AcDbLine
 10
-32.1729208139
 20
690.1980099177
 30
0.0
 11
-32.1729208139
 21
788.9334988689
 31
0.0
  0
LINE
  5
1D6
330
1F
100
AcDbEntity
  8
0
  6
CONTINUOUS
 62
     7
100
AcDbLine
 10
-24.7729296592
 20
767.5657552576
 30
0.0
 11
-24.7729296592
 21
711.5657535291
 31
0.0
  0
LINE
  5
1D7
330
1F
100
AcDbEntity
  8
0
  6
CONTINUOUS
 62
     7
100
AcDbLine
 10
-50.7729227451
 20
714.0657548702
 30
0.0
 11
-50.7729227451
 21
765.0657539165
 31
0.0
  0
LINE
  5
1D8
330
1F
100
AcDbEntity
  8
0
  6
CONTINUOUS
 62
     7
100
AcDbLine
 10
-37.1729309467
 20
763.1280758327
 30
0.0
 11
-37.1729309467
 21
765.7955084836
 31
0.0
  0
LINE
  5
1D9
330
1F
100
AcDbEntity
  8
0
  6
CONTINUOUS
 62
     7
100
AcDbLine
 10
-37.1729309467
 20
713.336000303
 30
0.0
 11
-37.1729309467
 21
716.0034329539
 31
0.0
  0
LINE
  5
1DA
330
1F
100
AcDbEntity
  8
0
  6
CONTINUOUS
 62
     7
100
AcDbLine
 10
-37.1729309467
 20
786.8177388704
 30
0.0
 11
-37.1729309467
 21
788.9334988689
 31
0.0
  0
LINE
  5
1DB
330
1F
100
AcDbEntity
  8
0
  6
CONTINUOUS
 62
     7
100
AcDbLine
 10
-37.1729309467
 20
786.8177388704
 30
0.0
 11
-37.1729309467
 21
765.7955084836
 31
0.0
  0
LINE
  5
1DC
330
1F
100
AcDbEntity
  8
0
  6
CONTINUOUS
 62
     7
100
AcDbLine
 10
-37.1729309467
 20
690.1980099177
 30
0.0
 11
-37.1729309467
 21
692.3137699163
 31
0.0
  0
LINE
  5
1DD
330
1F
100
AcDbEntity
  8
0
  6
CONTINUOUS
 62
     7
100
AcDbLine
 10
-37.1729309467
 20
713.336000303
 30
0.0
 11
-37.1729309467
 21
692.3137699163
 31
0.0
  0
LINE
  5
1DE
330
1F
100
AcDbEntity
  8
0
  6
CONTINUOUS
 62
     7
100
AcDbLine
 10
-37.1729309467
 20
790.0874932206
 30
0.0
 11
-37.1729309467
 21
793.565755794
 31
0.0
  0
LINE
  5
1DF
330
1F
100
AcDbEntity
  8
0
  6
CONTINUOUS
 62
     7
100
AcDbLine
 10
-25.1729215291
 20
793.565755794
 30
0.0
 11
-25.1729215291
 21
790.0874932206
 31
0.0
  0
LINE
  5
1E0
330
1F
100
AcDbEntity
  8
0
  6
CONTINUOUS
 62
     7
100
AcDbLine
 10
-37.1729309467
 20
685.5657529926
 30
0.0
 11
-37.1729309467
 21
689.0440155661
 31
0.0
  0
LINE
  5
1E1
330
1F
100
AcDbEntity
  8
0
  6
CONTINUOUS
 62
     7
100
AcDbLine
 10
-25.1729215291
 20
689.0440155661
 30
0.0
 11
-25.1729215291
 21
685.5657529926
 31
0.0
  0
LINE
  5
1E2
330
1F
100
AcDbEntity
  8
0
  6
CONTINUOUS
 62
     7
100
AcDbLine
 10
369.627070913
 20
765.0657539165
 30
0.0
 11
369.627070913
 21
714.0657548702
 31
0.0
  0
ARC
  5
1E3
330
1F
100
AcDbEntity
  8
0
  6
CONTINUOUS
 62
     7
100
AcDbCircle
 10
140.0270735117
 20
739.5657543933
 30
0.0
 40
224.5500000000001
100
AcDbArc
 50
188.4438604031
 51
223.2136030104
  0
LINE
  5
1E4
330
1F
100
AcDbEntity
  8
0
  6
CONTINUOUS
 62
     7
100
AcDbLine
 10
-82.0923323539
 20
772.5152802563
 30
0.0
 11
-82.0866550115
 21
772.5535017347
 31
0.0
  0
ARC
  5
1E5
330
1F
100
AcDbEntity
  8
0
  6
CONTINUOUS
 62
     7
100
AcDbCircle
 10
140.0270735117
 20
739.5657543933
 30
0.0
 40
224.55
100
AcDbArc
 50
130.3105621394
 51
133.6894378606
  0
LINE
  5
1E6
330
1F
100
AcDbEntity
  8
0
  6
CONTINUOUS
 62
     7
100
AcDbLine
 10
152.0270736161
 20
963.790813545
 30
0.0
 11
152.0270736161
 21
967.3551116979
 31
0.0
  0
LINE
  5
1E7
330
1F
100
AcDbEntity
  8
0
  6
CONTINUOUS
 62
     7
100
AcDbLine
 10
128.0270734074
 20
967.3551116979
 30
0.0
 11
128.0270734074
 21
963.7838249004
 31
0.0
  0
LINE
  5
1E8
330
1F
100
AcDbEntity
  8
0
  6
CONTINUOUS
 62
     7
100
AcDbLine
 10
-60.1522649435
 20
637.848565439
 30
0.0
 11
-63.2443005947
 21
636.0633765256
 31
0.0
  0
LINE
  5
1E9
330
1F
100
AcDbEntity
  8
0
  6
CONTINUOUS
 62
     7
100
AcDbLine
 10
-51.2443060783
 20
615.2787675059
 30
0.0
 11
-48.1483067182
 21
617.0662437475
 31
0.0
  0
LINE
  5
1EA
330
1F
100
AcDbEntity
  8
0
  6
CONTINUOUS
 62
     7
100
AcDbLine
 10
328.209323177
 20
617.062272588
 30
0.0
 11
331.2984531018
 21
615.2787675059
 31
0.0
  0
LINE
  5
1EB
330
1F
100
AcDbEntity
  8
0
  6
CONTINUOUS
 62
     7
100
AcDbLine
 10
343.2984476182
 20
636.0633765256
 30
0.0
 11
340.2230863663
 21
637.8389392888
 31
0.0
  0
LINE
  5
1EC
330
1F
100
AcDbEntity
  8
0
  6
CONTINUOUS
 62
     7
100
AcDbLine
 10
117.4411189946
 20
962.9715775049
 30
0.0
 11
117.498568559
 21
963.7116585767
 31
0.0
  0
LINE
  5
1ED
330
1F
100
AcDbEntity
  8
0
  6
CONTINUOUS
 62
     7
100
AcDbLine
 10
162.5555784645
 20
963.7116585767
 30
0.0
 11
162.6129945013
 21
962.9719798362
 31
0.0
  0
LINE
  5
1EE
330
1F
100
AcDbEntity
  8
0
  6
CONTINUOUS
 62
     7
100
AcDbLine
 10
-65.3532321361
 20
647.0030565655
 30
0.0
 11
-64.7556806711
 21
647.4128012454
 31
0.0
  0
LINE
  5
1EF
330
1F
100
AcDbEntity
  8
0
  6
CONTINUOUS
 62
     7
100
AcDbLine
 10
344.7834526392
 20
647.4308912551
 30
0.0
 11
345.4073791596
 21
647.0030565655
 31
0.0
  0
LINE
  5
1F0
330
1F
100
AcDbEntity
  8
0
  6
CONTINUOUS
 62
     7
100
AcDbLine
 10
322.8788648936
 20
607.9825405872
 30
0.0
 11
322.1994315478
 21
608.3075200117
 31
0.0
  0
LINE
  5
1F1
330
1F
100
AcDbEntity
  8
0
  6
CONTINUOUS
 62
     7
100
AcDbLine
 10
-42.1635533479
 20
608.29877303
 30
0.0
 11
-42.8247178701
 21
607.9825405872
 31
0.0
  0
SPLINE
  5
1F2
330
1F
100
AcDbEntity
  8
0
  6
CONTINUOUS
 62
     7
100
AcDbSpline
210
0.0
220
0.0
230
1.0
 70
     8
 71
     3
 72
    16
 73
    12
 74
     0
 42
0.00000001
 43
0.00000001
 40
0.0
 40
0.0
 40
0.0
 40
0.0
 40
0.116433833675319
 40
0.2362441971436502
 40
0.3526866553644512
 40
0.4725082650784687
 40
0.5889362946064614
 40
0.7087427288265191
 40
0.825140218748831
 40
0.9449137175924173
 40
1.0
 40
1.0
 40
1.0
 40
1.0
 10
117.4985685589575
 20
963.7116585767195
 30
0.0
 10
117.5541967875412
 20
964.1521286620954
 30
0.0
 10
117.6670664387881
 20
965.0458422709387
 30
0.0
 10
118.1160447996809
 20
966.3207735512457
 30
0.0
 10
118.7627346138705
 20
967.5165398446317
 30
0.0
 10
119.5976424757961
 20
968.5761526420306
 30
0.0
 10
120.6066372744397
 20
969.4888206497221
 30
0.0
 10
121.7443213639468
 20
970.2130777063068
 30
0.0
 10
122.998565258274
 20
970.7379621950864
 30
0.0
 10
124.083103508975
 20
970.9979362882701
 30
0.0
 10
124.7460077575385
 20
971.0570316459567
 30
0.0
 10
124.9548432621026
 20
971.0756485259459
 30
0.0
  0
SPLINE
  5
1F3
330
1F
100
AcDbEntity
  8
0
  6
CONTINUOUS
 62
     7
100
AcDbSpline
210
0.0
220
0.0
230
1.0
 70
     8
 71
     3
 72
    16
 73
    12
 74
     0
 42
0.00000001
 43
0.00000001
 40
0.0
 40
0.0
 40
0.0
 40
0.0
 40
0.116433658345965
 40
0.236244133637816
 40
0.3526863737348089
 40
0.4725072493723186
 40
0.5889362024746717
 40
0.7087427623371348
 40
0.8251404201475795
 40
0.9449137490239646
 40
1.0
 40
1.0
 40
1.0
 40
1.0
 10
345.407379159596
 20
647.0030565655157
 30
0.0
 10
345.7610231793131
 20
646.7346476247254
 30
0.0
 10
346.4785676268648
 20
646.1900453286331
 30
0.0
 10
347.3581964734497
 20
645.1637512691178
 30
0.0
 10
348.0704067300622
 20
644.0058188095817
 30
0.0
 10
348.5706051218467
 20
642.7529626302668
 30
0.0
 10
348.8564946739918
 20
641.4228129856212
 30
0.0
 10
348.9148953468127
 20
640.0754183644927
 30
0.0
 10
348.7423269369754
 20
638.726770921303
 30
0.0
 10
348.4252079805153
 20
637.6575453061652
 30
0.0
 10
348.1449247977427
 20
637.0539113278593
 30
0.0
 10
348.0566268059277
 20
636.863747695677
 30
0.0
  0
SPLINE
  5
1F4
330
1F
100
AcDbEntity
  8
0
  6
CONTINUOUS
 62
     7
100
AcDbSpline
210
0.0
220
0.0
230
1.0
 70
     8
 71
     3
 72
    16
 73
    12
 74
     0
 42
0.00000001
 43
0.00000001
 40
0.0
 40
0.0
 40
0.0
 40
0.0
 40
0.1164335626527948
 40
0.2362443365728453
 40
0.3526864647108793
 40
0.472507422269376
 40
0.5889360792937068
 40
0.708742409645833
 40
0.8251401952661438
 40
0.9449131003148297
 40
1.0
 40
1.0
 40
1.0
 40
1.0
 10
-42.82471787009004
 20
607.9825405871794
 30
0.0
 10
-43.23399007047171
 20
607.8104831706123
 30
0.0
 10
-44.06440560748667
 20
607.4613777296792
 30
0.0
 10
-45.39301580194161
 20
607.2127282165545
 30
0.0
 10
-46.75192419828556
 20
607.1749079034095
 30
0.0
 10
-48.08702773698836
 20
607.3681525863328
 30
0.0
 10
-49.38192296491395
 20
607.7856216168722
 30
0.0
 10
-50.57799447450456
 20
608.4087586804714
 30
0.0
 10
-51.65967105823735
 20
609.2325322173959
 30
0.0
 10
-52.42709131050579
 20
610.0417792847566
 30
0.0
 10
-52.80971388439801
 20
610.5863296261554
 30
0.0
 10
-52.9302532580829
 20
610.7578818595335
 30
0.0
  0
SPLINE
  5
1F5
330
1F
100
AcDbEntity
  8
0
  6
CONTINUOUS
 62
     7
100
AcDbSpline
210
0.0
220
0.0
230
1.0
 70
     8
 71
     3
 72
    16
 73
    12
 74
     0
 42
0.00000001
 43
0.00000001
 40
0.0
 40
0.0
 40
0.0
 40
0.0
 40
0.1163723888931123
 40
0.2361181856299858
 40
0.3524840410025459
 40
0.472222231975128
 40
0.5885966246802244
 40
0.7083428975452895
 40
0.8247443784887536
 40
0.9445204734126333
 40
1.0
 40
1.0
 40
1.0
 40
1.0
 10
155.0993037613892
 20
971.0756485259459
 30
0.0
 10
155.5402363412037
 20
971.0255377133972
 30
0.0
 10
156.4348832735321
 20
970.9238634738977
 30
0.0
 10
157.7147058820808
 20
970.4911797825944
 30
0.0
 10
158.9178542098152
 20
969.8600442632044
 30
0.0
 10
159.987409172126
 20
969.0392193453918
 30
0.0
 10
160.9124499861723
 20
968.042603279446
 30
0.0
 10
161.6511256268441
 20
966.914793833262
 30
0.0
 10
162.1921456401938
 20
965.6677374820958
 30
0.0
 10
162.4665844306356
 20
964.5852713257524
 30
0.0
 10
162.5341801344121
 20
963.9217159612854
 30
0.0
 10
162.5555784645342
 20
963.7116585767195
 30
0.0
  0
SPLINE
  5
1F6
330
1F
100
AcDbEntity
  8
0
  6
CONTINUOUS
 62
     7
100
AcDbSpline
210
0.0
220
0.0
230
1.0
 70
     8
 71
     3
 72
    16
 73
    12
 74
     0
 42
0.00000001
 43
0.00000001
 40
0.0
 40
0.0
 40
0.0
 40
0.0
 40
0.1163725795327542
 40
0.2361181750372612
 40
0.3524843014425577
 40
0.4722226633750106
 40
0.5885964071112119
 40
0.7083426983333837
 40
0.8247448721299026
 40
0.9445203020319892
 40
1.0
 40
1.0
 40
1.0
 40
1.0
 10
-68.00247978243593
 20
636.863747695677
 30
0.0
 10
-68.17955566820194
 20
637.2706598399155
 30
0.0
 10
-68.5388399184785
 20
638.0962783256779
 30
0.0
 10
-68.80402200626686
 20
639.4209832221668
 30
0.0
 10
-68.8590202209777
 20
640.7785069084553
 30
0.0
 10
-68.68294504879599
 20
642.1151805626282
 30
0.0
 10
-68.28236996234988
 20
643.4145939254106
 30
0.0
 10
-67.67500490990314
 20
644.6182149415594
 30
0.0
 10
-66.86552545970726
 20
645.7102739965821
 30
0.0
 10
-66.06530899756874
 20
646.4891858675895
 30
0.0
 10
-65.52444950244912
 20
646.8794974494958
 30
0.0
 10
-65.35323213610414
 20
647.0030565655157
 30
0.0
  0
SPLINE
  5
1F7
330
1F
100
AcDbEntity
  8
0
  6
CONTINUOUS
 62
     7
100
AcDbSpline
210
0.0
220
0.0
230
1.0
 70
     8
 71
     3
 72
    16
 73
    12
 74
     0
 42
0.00000001
 43
0.00000001
 40
0.0
 40
0.0
 40
0.0
 40
0.0
 40
0.1163723759178105
 40
0.2361177521321867
 40
0.3524836455047278
 40
0.472223222191095
 40
0.5885956988792886
 40
0.7083429994570524
 40
0.8247440533178007
 40
0.944519775448668
 40
1.0
 40
1.0
 40
1.0
 40
1.0
 10
332.9844002815747
 20
610.7578818595335
 30
0.0
 10
332.7205429189156
 20
610.4010731741728
 30
0.0
 10
332.1851804081545
 20
609.6771138662687
 30
0.0
 10
331.1705399211226
 20
608.7851136187878
 30
0.0
 10
330.022389591392
 20
608.0587119148454
 30
0.0
 10
328.7767520735879
 20
607.5428783294557
 30
0.0
 10
327.4511408340872
 20
607.240053666457
 30
0.0
 10
326.1050945020805
 20
607.1642513613855
 30
0.0
 10
324.7546003548615
 20
607.3192430481408
 30
0.0
 10
323.6799425302647
 20
607.6228176789208
 30
0.0
 10
323.0714830120529
 20
607.8960456626093
 30
0.0
 10
322.8788648935819
 20
607.9825405871794
 30
0.0
  0
ARC
  5
1F8
330
1F
100
AcDbEntity
  8
0
  6
CONTINUOUS
 62
     7
100
AcDbCircle
 10
140.0270735117
 20
739.5657543933
 30
0.0
 40
232.0
100
AcDbArc
 50
326.2750696944
 51
333.7249303056
  0
ARC
  5
1F9
330
1F
100
AcDbEntity
  8
0
  6
CONTINUOUS
 62
     7
100
AcDbCircle
 10
140.0270735117
 20
739.5657543933
 30
0.0
 40
228.9056688884839
100
AcDbArc
 50
326.4183346158
 51
326.9949863239
  0
ARC
  5
1FA
330
1F
100
AcDbEntity
  8
0
  6
CONTINUOUS
 62
     7
100
AcDbCircle
 10
140.0270735117
 20
739.5657543933
 30
0.0
 40
228.9056688884839
100
AcDbArc
 50
333.0050136761
 51
333.5816653842
  0
SPLINE
  5
1FB
330
1F
100
AcDbEntity
  8
0
  6
CONTINUOUS
 62
     7
100
AcDbSpline
210
0.0
220
0.0
230
1.0
 70
     8
 71
     3
 72
     9
 73
     5
 74
     0
 42
0.00000001
 43
0.00000001
 40
0.0
 40
0.0
 40
0.0
 40
0.0
 40
0.4113635563060592
 40
1.0
 40
1.0
 40
1.0
 40
1.0
 10
331.9926087948346
 20
614.8779933249876
 30
0.0
 10
331.8984706872623
 20
614.9323458669986
 30
0.0
 10
331.6696266243181
 20
615.0644736191482
 30
0.0
 10
331.4359837892874
 20
615.1993653293184
 30
0.0
 10
331.2984531017804
 20
615.2787675058768
 30
0.0
  0
LINE
  5
1FC
330
1F
100
AcDbEntity
  8
0
  6
CONTINUOUS
 62
     7
100
AcDbLine
 10
343.2984476182
 20
636.0633765256
 30
0.0
 11
343.9926033112
 21
635.6626023447
 31
0.0
  0
ARC
  5
1FD
330
1F
100
AcDbEntity
  8
0
  6
CONTINUOUS
 62
     7
100
AcDbCircle
 10
140.0270735117
 20
739.5657543933
 30
0.0
 40
232.0000000000001
100
AcDbArc
 50
206.2750696944
 51
213.7249303056
  0
ARC
  5
1FE
330
1F
100
AcDbEntity
  8
0
  6
CONTINUOUS
 62
     7
100
AcDbCircle
 10
140.0270735117
 20
739.5657543933
 30
0.0
 40
228.9056688884839
100
AcDbArc
 50
206.4183346158
 51
206.9949863239
  0
ARC
  5
1FF
330
1F
100
AcDbEntity
  8
0
  6
CONTINUOUS
 62
     7
100
AcDbCircle
 10
140.0270735117
 20
739.5657543933
 30
0.0
 40
228.9056688884839
100
AcDbArc
 50
213.0050136761
 51
213.5816653842
  0
LINE
  5
200
330
1F
100
AcDbEntity
  8
0
  6
CONTINUOUS
 62
     7
100
AcDbLine
 10
-51.2443060783
 20
615.2787675059
 30
0.0
 11
-51.9384617713
 21
614.877993325
 31
0.0
  0
SPLINE
  5
201
330
1F
100
AcDbEntity
  8
0
  6
CONTINUOUS
 62
     7
100
AcDbSpline
210
0.0
220
0.0
230
1.0
 70
     8
 71
     3
 72
     9
 73
     5
 74
     0
 42
0.00000001
 43
0.00000001
 40
0.0
 40
0.0
 40
0.0
 40
0.0
 40
0.3586640936939061
 40
1.0
 40
1.0
 40
1.0
 40
1.0
 10
-63.93845628771547
 20
635.662602344744
 30
0.0
 10
-63.85644558226775
 20
635.7099545958542
 30
0.0
 10
-63.6277895587358
 20
635.8419785479106
 30
0.0
 10
-63.39414514591263
 20
635.9768674374254
 30
0.0
 10
-63.24430059466127
 20
636.0633765256331
 30
0.0
  0
ARC
  5
202
330
1F
100
AcDbEntity
  8
0
  6
CONTINUOUS
 62
     7
100
AcDbCircle
 10
140.0270735117
 20
739.5657543933
 30
0.0
 40
232.0
100
AcDbArc
 50
86.2750696944
 51
93.7249303056
  0
ARC
  5
203
330
1F
100
AcDbEntity
  8
0
  6
CONTINUOUS
 62
     7
100
AcDbCircle
 10
140.0270735117
 20
739.5657543933
 30
0.0
 40
228.9056688884838
100
AcDbArc
 50
86.9949863239
 51
93.0050136761
  0
SPLINE
  5
204
330
1F
100
AcDbEntity
  8
0
  6
CONTINUOUS
 62
     7
100
AcDbSpline
210
0.0
220
0.0
230
1.0
 70
    24
 71
     3
 72
     9
 73
     5
 74
     0
 42
0.00000001
 43
0.00000001
 40
0.0
 40
0.0
 40
0.0
 40
0.0
 40
0.7060739760630009
 40
1.0
 40
1.0
 40
1.0
 40
1.0
 10
128.0270734074378
 20
967.3551116979048
 30
0.0
 10
128.0270734074378
 20
967.5455946095116
 30
0.0
 10
128.0270734074378
 20
967.8153721654965
 30
0.0
 10
128.0270734074378
 20
968.0791336849906
 30
0.0
 10
128.0270734074378
 20
968.1566600596831
 30
0.0
  0
SPLINE
  5
205
330
1F
100
AcDbEntity
  8
0
  6
CONTINUOUS
 62
     7
100
AcDbSpline
210
0.0
220
0.0
230
1.0
 70
    24
 71
     3
 72
     9
 73
     5
 74
     0
 42
0.00000001
 43
0.00000001
 40
0.0
 40
0.0
 40
0.0
 40
0.0
 40
0.9190665180134293
 40
1.0
 40
1.0
 40
1.0
 40
1.0
 10
152.027073616054
 20
968.1566600596831
 30
0.0
 10
152.027073616054
 20
967.9122458897929
 30
0.0
 10
152.0270736160541
 20
967.6463084792792
 30
0.0
 10
152.027073616054
 20
967.3769146763975
 30
0.0
 10
152.027073616054
 20
967.3551116979048
 30
0.0
  0
LINE
  5
206
330
1F
100
AcDbEntity
  8
0
  6
CONTINUOUS
 62
     7
100
AcDbLine
 10
-64.9738485721
 20
637.7206389701
 30
0.0
 11
-67.6587844995
 21
636.1704860723
 31
0.0
  0
LINE
  5
207
330
1F
100
AcDbEntity
  8
0
  6
CONTINUOUS
 62
     7
100
AcDbLine
 10
-53.3587957529
 20
611.4021633661
 30
0.0
 11
-50.6738449243
 21
612.9523162639
 31
0.0
  0
LINE
  5
208
330
1F
100
AcDbEntity
  8
0
  6
CONTINUOUS
 62
     7
100
AcDbLine
 10
-67.6587844995
 20
636.1704860723
 30
0.0
 11
-53.3587957529
 21
611.4021633661
 31
0.0
  0
LINE
  5
209
330
1F
100
AcDbEntity
  8
0
  6
CONTINUOUS
 62
     7
100
AcDbLine
 10
330.7279919478
 20
612.9523162639
 30
0.0
 11
333.4129427763
 21
611.4021633661
 31
0.0
  0
LINE
  5
20A
330
1F
100
AcDbEntity
  8
0
  6
CONTINUOUS
 62
     7
100
AcDbLine
 10
347.712931523
 20
636.1704860723
 30
0.0
 11
345.0279955956
 21
637.7206389701
 31
0.0
  0
LINE
  5
20B
330
1F
100
AcDbEntity
  8
0
  6
CONTINUOUS
 62
     7
100
AcDbLine
 10
333.4129427763
 20
611.4021633661
 30
0.0
 11
347.712931523
 21
636.1704860723
 31
0.0
  0
CIRCLE
  5
20C
330
1F
100
AcDbEntity
  8
SLD-0
  6
HIDDEN
100
AcDbCircle
 10
326.2225353254
 20
632.0657543933
 30
0.0
 40
5.500000000000044
  0
INSERT
  5
218
330
1F
100
AcDbEntity
  8
SLD-0
100
AcDbBlockReference
  2
SW_CENTERMARKSYMBOL_0
 10
140.0270735117
 20
739.5657543933
 30
0.0
  0
INSERT
  5
224
330
1F
100
AcDbEntity
  8
SLD-0
100
AcDbBlockReference
  2
SW_CENTERMARKSYMBOL_1
 10
326.2225353254
 20
632.0657543933
 30
0.0
  0
ENDSEC
  0
SECTION
  2
OBJECTS
  0
DICTIONARY
  5
C
330
0
100
AcDbDictionary
  3
ACAD_GROUP
350
D
  3
ACAD_MLINESTYLE
350
17
  0
DICTIONARY
  5
D
102
{ACAD_REACTORS
330
C
102
}
330
C
100
AcDbDictionary
  0
DICTIONARY
  5
17
102
{ACAD_REACTORS
330
C
102
}
330
C
100
AcDbDictionary
  3
STANDARD
350
18
  0
MLINESTYLE
  5
18
102
{ACAD_REACTORS
330
17
102
}
330
17
100
AcDbMlineStyle
  2
Standard
 70
     0
  3

 62
   256
 51
90.0
 52
90.0
 71
     2
 49
0.5
 62
   256
  6
BYLAYER
 49
-0.5
 62
   256
  6
BYLAYER
  0
ENDSEC
  0
EOF
