  0
SECTION
  2
HEADER
  9
$ACADVER
  1
AC1015
  9
$ACADMAINTVER
 70
     6
  9
$DWGCODEPAGE
  3
DOS932
  9
$INSBASE
 10
0.0
 20
0.0
 30
0.0
  9
$EXTMIN
 10
0.0
 20
0.0
 30
0.0
  9
$EXTMAX
 10
1189.0
 20
841.0
 30
0.0
  9
$LIMMIN
 10
0.0
 20
0.0
  9
$LIMMAX
 10
1189.0
 20
841.0
  9
$ORTHOMODE
 70
     0
  9
$REGENMODE
 70
     1
  9
$FILLMODE
 70
     1
  9
$QTEXTMODE
 70
     0
  9
$MIRRTEXT
 70
     1
  9
$LTSCALE
 40
1.0
  9
$ATTMODE
 70
     1
  9
$TEXTSIZE
 40
3.5
  9
$TRACEWID
 40
1.0
  9
$TEXTSTYLE
  7
Standard
  9
$CLAYER
  8
0
  9
$CELTYPE
  6
ByLayer
  9
$CECOLOR
 62
   256
  9
$CELTSCALE
 40
1.0
  9
$DISPSILH
 70
     0
  9
$DIMSCALE
 40
1.0
  9
$DIMASZ
 40
6.0
  9
$DIMEXO
 40
1.0
  9
$DIMDLI
 40
3.75
  9
$DIMRND
 40
0.0
  9
$DIMDLE
 40
0.0
  9
$DIMEXE
 40
1.0
  9
$DIMTP
 40
0.0
  9
$DIMTM
 40
0.0
  9
$DIMTXT
 40
3.5
  9
$DIMCEN
 40
2.5
  9
$DIMTSZ
 40
0.0
  9
$DIMTOL
 70
     0
  9
$DIMLIM
 70
     0
  9
$DIMTIH
 70
     1
  9
$DIMTOH
 70
     1
  9
$DIMSE1
 70
     0
  9
$DIMSE2
 70
     0
  9
$DIMTAD
 70
     1
  9
$DIMZIN
 70
     0
  9
$DIMBLK
  1

  9
$DIMASO
 70
     1
  9
$DIMSHO
 70
     1
  9
$DIMPOST
  1

  9
$DIMAPOST
  1

  9
$DIMALT
 70
     0
  9
$DIMALTD
 70
     3
  9
$DIMALTF
 40
0.0393700787
  9
$DIMLFAC
 40
1.0
  9
$DIMTOFL
 70
     1
  9
$DIMTVP
 40
0.0
  9
$DIMTIX
 70
     0
  9
$DIMSOXD
 70
     0
  9
$DIMSAH
 70
     0
  9
$DIMBLK1
  1

  9
$DIMBLK2
  1

  9
$DIMSTYLE
  2
ISO-25
  9
$DIMCLRD
 70
     0
  9
$DIMCLRE
 70
     0
  9
$DIMCLRT
 70
     0
  9
$DIMTFAC
 40
1.0
  9
$DIMGAP
 40
1.524
  9
$DIMJUST
 70
     0
  9
$DIMSD1
 70
     0
  9
$DIMSD2
 70
     0
  9
$DIMTOLJ
 70
     0
  9
$DIMTZIN
 70
     0
  9
$DIMALTZ
 70
     0
  9
$DIMALTTZ
 70
     0
  9
$DIMUPT
 70
     0
  9
$DIMDEC
 70
     2
  9
$DIMTDEC
 70
     2
  9
$DIMALTU
 70
     2
  9
$DIMALTTD
 70
     3
  9
$DIMTXSTY
  7
Standard
  9
$DIMAUNIT
 70
     0
  9
$DIMADEC
 70
     2
  9
$DIMALTRND
 40
0.0
  9
$DIMAZIN
 70
     0
  9
$DIMDSEP
 70
    44
  9
$DIMATFIT
 70
     3
  9
$DIMFRAC
 70
     0
  9
$DIMLDRBLK
  1

  9
$DIMLUNIT
 70
     2
  9
$DIMLWD
 70
    -2
  9
$DIMLWE
 70
    -2
  9
$DIMTMOVE
 70
     0
  9
$LUNITS
 70
     2
  9
$LUPREC
 70
     2
  9
$SKETCHINC
 40
1.0
  9
$FILLETRAD
 40
10.0
  9
$AUNITS
 70
     0
  9
$AUPREC
 70
     2
  9
$MENU
  1
.
  9
$ELEVATION
 40
0.0
  9
$PELEVATION
 40
0.0
  9
$THICKNESS
 40
0.0
  9
$LIMCHECK
 70
     0
  9
$CHAMFERA
 40
10.0
  9
$CHAMFERB
 40
10.0
  9
$CHAMFERC
 40
20.0
  9
$CHAMFERD
 40
0.0
  9
$SKPOLY
 70
     0
  9
$TDCREATE
 40
2456456.719792164
  9
$TDUCREATE
 40
2456456.344792164
  9
$TDUPDATE
 40
2456456.719792535
  9
$TDUUPDATE
 40
2456456.344792535
  9
$TDINDWG
 40
0.0000000116
  9
$TDUSRTIMER
 40
0.0000000116
  9
$USRTIMER
 70
     1
  9
$ANGBASE
 50
0.0
  9
$ANGDIR
 70
     0
  9
$PDMODE
 70
     0
  9
$PDSIZE
 40
-1.0
  9
$PLINEWID
 40
0.0
  9
$SPLFRAME
 70
     0
  9
$SPLINETYPE
 70
     6
  9
$SPLINESEGS
 70
     8
  9
$HANDSEED
  5
285
  9
$SURFTAB1
 70
     6
  9
$SURFTAB2
 70
     6
  9
$SURFTYPE
 70
     6
  9
$SURFU
 70
     6
  9
$SURFV
 70
     6
  9
$UCSBASE
  2

  9
$UCSNAME
  2

  9
$UCSORG
 10
0.0
 20
0.0
 30
0.0
  9
$UCSXDIR
 10
1.0
 20
0.0
 30
0.0
  9
$UCSYDIR
 10
0.0
 20
1.0
 30
0.0
  9
$UCSORTHOREF
  2

  9
$UCSORTHOVIEW
 70
     0
  9
$UCSORGTOP
 10
0.0
 20
0.0
 30
0.0
  9
$UCSORGBOTTOM
 10
0.0
 20
0.0
 30
0.0
  9
$UCSORGLEFT
 10
0.0
 20
0.0
 30
0.0
  9
$UCSORGRIGHT
 10
0.0
 20
0.0
 30
0.0
  9
$UCSORGFRONT
 10
0.0
 20
0.0
 30
0.0
  9
$UCSORGBACK
 10
0.0
 20
0.0
 30
0.0
  9
$PUCSBASE
  2

  9
$PUCSNAME
  2

  9
$PUCSORG
 10
0.0
 20
0.0
 30
0.0
  9
$PUCSXDIR
 10
1.0
 20
0.0
 30
0.0
  9
$PUCSYDIR
 10
0.0
 20
1.0
 30
0.0
  9
$PUCSORTHOREF
  2

  9
$PUCSORTHOVIEW
 70
     0
  9
$PUCSORGTOP
 10
0.0
 20
0.0
 30
0.0
  9
$PUCSORGBOTTOM
 10
0.0
 20
0.0
 30
0.0
  9
$PUCSORGLEFT
 10
0.0
 20
0.0
 30
0.0
  9
$PUCSORGRIGHT
 10
0.0
 20
0.0
 30
0.0
  9
$PUCSORGFRONT
 10
0.0
 20
0.0
 30
0.0
  9
$PUCSORGBACK
 10
0.0
 20
0.0
 30
0.0
  9
$USERI1
 70
     0
  9
$USERI2
 70
     0
  9
$USERI3
 70
     0
  9
$USERI4
 70
     0
  9
$USERI5
 70
     0
  9
$USERR1
 40
0.0
  9
$USERR2
 40
0.0
  9
$USERR3
 40
0.0
  9
$USERR4
 40
0.0
  9
$USERR5
 40
0.0
  9
$WORLDVIEW
 70
     1
  9
$SHADEDGE
 70
     3
  9
$SHADEDIF
 70
    70
  9
$TILEMODE
 70
     1
  9
$MAXACTVP
 70
    64
  9
$PINSBASE
 10
0.0
 20
0.0
 30
0.0
  9
$PLIMCHECK
 70
     0
  9
$PEXTMIN
 10
1.0000000000E+20
 20
1.0000000000E+20
 30
1.0000000000E+20
  9
$PEXTMAX
 10
-1.0000000000E+20
 20
-1.0000000000E+20
 30
-1.0000000000E+20
  9
$PLIMMIN
 10
0.0
 20
0.0
  9
$PLIMMAX
 10
420.0
 20
297.0
  9
$UNITMODE
 70
     0
  9
$VISRETAIN
 70
     1
  9
$PLINEGEN
 70
     0
  9
$PSLTSCALE
 70
     1
  9
$TREEDEPTH
 70
  3020
  9
$CMLSTYLE
  2
Standard
  9
$CMLJUST
 70
     0
  9
$CMLSCALE
 40
20.0
  9
$PROXYGRAPHICS
 70
     1
  9
$MEASUREMENT
 70
     1
  9
$CELWEIGHT
370
    -1
  9
$ENDCAPS
280
     0
  9
$JOINSTYLE
280
     0
  9
$LWDISPLAY
290
     1
  9
$INSUNITS
 70
     4
  9
$HYPERLINKBASE
  1

  9
$STYLESHEET
  1

  9
$XEDIT
290
     1
  9
$CEPSNTYPE
380
     0
  9
$PSTYLEMODE
290
     1
  9
$FINGERPRINTGUID
  2
{30B930B2-F21E-4FCD-8EBD-4205CEC40979}
  9
$VERSIONGUID
  2
{FAEB1C32-E019-11D5-929B-00C0DF256EC4}
  9
$EXTNAMES
290
     1
  9
$PSVPSCALE
 40
0.0
  9
$OLESTARTUP
290
     0
  0
ENDSEC
  0
SECTION
  2
CLASSES
  0
CLASS
  1
ACDBDICTIONARYWDFLT
  2
AcDbDictionaryWithDefault
  3
ObjectDBX Classes
 90
        0
280
     0
281
     0
  0
CLASS
  1
VISUALSTYLE
  2
AcDbVisualStyle
  3
ObjectDBX Classes
 90
     4095
280
     0
281
     0
  0
CLASS
  1
MATERIAL
  2
AcDbMaterial
  3
ObjectDBX Classes
 90
     1153
280
     0
281
     0
  0
CLASS
  1
ACDBPLACEHOLDER
  2
AcDbPlaceHolder
  3
ObjectDBX Classes
 90
        0
280
     0
281
     0
  0
CLASS
  1
LAYOUT
  2
AcDbLayout
  3
ObjectDBX Classes
 90
        0
280
     0
281
     0
  0
ENDSEC
  0
SECTION
  2
TABLES
  0
TABLE
  2
VPORT
  5
8
330
0
100
AcDbSymbolTable
 70
     1
  0
VPORT
  5
29
330
8
100
AcDbSymbolTableRecord
100
AcDbViewportTableRecord
  2
*Active
 70
     0
 10
0.0
 20
0.0
 11
1.0
 21
1.0
 12
594.5
 22
420.5
 13
0.0
 23
0.0
 14
10.0
 24
10.0
 15
10.0
 25
10.0
 16
0.0
 26
0.0
 36
1.0
 17
0.0
 27
0.0
 37
0.0
 40
841.0
 41
1.4137931034
 42
50.0
 43
0.0
 44
0.0
 50
0.0
 51
0.0
 71
     0
 72
  2000
 73
     1
 74
     3
 75
     0
 76
     0
 77
     0
 78
     0
281
     0
 65
     1
110
0.0
120
0.0
130
0.0
111
1.0
121
0.0
131
0.0
112
0.0
122
1.0
132
0.0
 79
     0
146
0.0
  0
ENDTAB
  0
TABLE
  2
LTYPE
  5
5
330
0
100
AcDbSymbolTable
 70
     6
  0
LTYPE
  5
14
330
5
100
AcDbSymbolTableRecord
100
AcDbLinetypeTableRecord
  2
ByBlock
 70
     0
  3

 72
    65
 73
     0
 40
0.0
  0
LTYPE
  5
15
330
5
100
AcDbSymbolTableRecord
100
AcDbLinetypeTableRecord
  2
ByLayer
 70
     0
  3

 72
    65
 73
     0
 40
0.0
  0
LTYPE
  5
16
330
5
100
AcDbSymbolTableRecord
100
AcDbLinetypeTableRecord
  2
Continuous
 70
     0
  3
Solid line
 72
    65
 73
     0
 40
0.0
  0
LTYPE
  5
3F
330
5
100
AcDbSymbolTableRecord
100
AcDbLinetypeTableRecord
  2
HIDDEN
 70
     0
  3
Hidden __ __ __ __ __ __ __ __ __ __ __ __ __ __
 72
    65
 73
     2
 40
1.905
 49
1.27
 74
     0
 49
-0.635
 74
     0
  0
LTYPE
  5
40
330
5
100
AcDbSymbolTableRecord
100
AcDbLinetypeTableRecord
  2
PHANTOM
 70
     0
  3
Phantom ______  __  __  ______  __  __  ______
 72
    65
 73
     6
 40
12.7
 49
6.35
 74
     0
 49
-1.27
 74
     0
 49
1.27
 74
     0
 49
-1.27
 74
     0
 49
1.27
 74
     0
 49
-1.27
 74
     0
  0
LTYPE
  5
41
330
5
100
AcDbSymbolTableRecord
100
AcDbLinetypeTableRecord
  2
CENTER
 70
     0
  3
Center ____ _ ____ _ ____ _ ____ _ ____ _ ____
 72
    65
 73
     4
 40
10.16
 49
6.35
 74
     0
 49
-1.27
 74
     0
 49
1.27
 74
     0
 49
-1.27
 74
     0
  0
LTYPE
  5
42
330
5
100
AcDbSymbolTableRecord
100
AcDbLinetypeTableRecord
  2
CENTERX2
 70
     0
  3
Center (2x) ________  __  ________  __  _____
 72
    65
 73
     4
 40
20.32
 49
12.7
 74
     0
 49
-2.54
 74
     0
 49
2.54
 74
     0
 49
-2.54
 74
     0
  0
LTYPE
  5
43
330
5
100
AcDbSymbolTableRecord
100
AcDbLinetypeTableRecord
  2
DOT2
 70
     0
  3
Dot (.5x) ........................................
 72
    65
 73
     2
 40
0.635
 49
0.0
 74
     0
 49
-0.635
 74
     0
  0
ENDTAB
  0
TABLE
  2
LAYER
  5
2
330
0
100
AcDbSymbolTable
 70
     2
  0
LAYER
  5
10
330
2
100
AcDbSymbolTableRecord
100
AcDbLayerTableRecord
  2
0
 70
     0
 62
     7
  6
Continuous
370
    -3
390
F
  0
LAYER
  5
44
330
2
100
AcDbSymbolTableRecord
100
AcDbLayerTableRecord
  2
FORMAT
 70
     0
 62
     7
  6
Continuous
370
    -3
390
F
  0
ENDTAB
  0
TABLE
  2
STYLE
  5
3
330
0
100
AcDbSymbolTable
 70
     1
  0
STYLE
  5
11
330
3
100
AcDbSymbolTableRecord
100
AcDbTextStyleTableRecord
  2
Standard
 70
     0
 40
0.0
 41
1.0
 50
0.0
 71
     0
 42
3.5
  3
txt
  4
bigfont
  0
ENDTAB
  0
TABLE
  2
VIEW
  5
6
330
0
100
AcDbSymbolTable
 70
     0
  0
ENDTAB
  0
TABLE
  2
UCS
  5
7
330
0
100
AcDbSymbolTable
 70
     0
  0
ENDTAB
  0
TABLE
  2
APPID
  5
9
330
0
100
AcDbSymbolTable
 70
     1
  0
APPID
  5
12
330
9
100
AcDbSymbolTableRecord
100
AcDbRegAppTableRecord
  2
ACAD
 70
     0
  0
ENDTAB
  0
TABLE
  2
DIMSTYLE
  5
A
330
0
100
AcDbSymbolTable
 70
     1
100
AcDbDimStyleTable
  0
DIMSTYLE
105
27
330
A
100
AcDbSymbolTableRecord
100
AcDbDimStyleTableRecord
  2
ISO-25
 70
     0
 41
2.5
 42
0.625
 43
3.75
 44
1.25
 73
     0
 74
     0
 77
     1
 78
     8
140
2.5
141
2.5
143
0.0393700787
147
0.625
171
     3
172
     1
178
     0
271
     2
272
     2
274
     3
278
    44
283
     0
284
     8
340
11
  0
ENDTAB
  0
TABLE
  2
BLOCK_RECORD
  5
1
330
0
100
AcDbSymbolTable
 70
     1
  0
BLOCK_RECORD
  5
1F
330
1
100
AcDbSymbolTableRecord
100
AcDbBlockTableRecord
  2
*Model_Space
340
22
  0
BLOCK_RECORD
  5
1B
330
1
100
AcDbSymbolTableRecord
100
AcDbBlockTableRecord
  2
*Paper_Space
340
1E
  0
BLOCK_RECORD
  5
23
330
1
100
AcDbSymbolTableRecord
100
AcDbBlockTableRecord
  2
*Paper_Space0
340
26
  0
ENDTAB
  0
ENDSEC
  0
SECTION
  2
BLOCKS
  0
BLOCK
  5
20
330
1F
100
AcDbEntity
  8
0
100
AcDbBlockBegin
  2
*Model_Space
 70
     0
 10
0.0
 20
0.0
 30
0.0
  3
*Model_Space
  1

  0
ENDBLK
  5
21
330
1F
100
AcDbEntity
  8
0
100
AcDbBlockEnd
  0
BLOCK
  5
1C
330
1B
100
AcDbEntity
 67
     1
  8
0
100
AcDbBlockBegin
  2
*Paper_Space
 70
     0
 10
0.0
 20
0.0
 30
0.0
  3
*Paper_Space
  1

  0
ENDBLK
  5
1D
330
1B
100
AcDbEntity
 67
     1
  8
0
100
AcDbBlockEnd
  0
BLOCK
  5
24
330
23
100
AcDbEntity
  8
0
100
AcDbBlockBegin
  2
*Paper_Space0
 70
     0
 10
0.0
 20
0.0
 30
0.0
  3
*Paper_Space0
  1

  0
ENDBLK
  5
25
330
23
100
AcDbEntity
  8
0
100
AcDbBlockEnd
  0
ENDSEC
  0
SECTION
  2
ENTITIES
  0
LINE
  5
45
330
1F
100
AcDbEntity
  8
0
  6
Continuous
 62
     7
370
    15
100
AcDbLine
 10
699.441076342
 20
-137.1991332098
 30
0.0
 11
699.441076342
 21
28.3008631842
 31
0.0
  0
LINE
  5
46
330
1F
100
AcDbEntity
  8
0
  6
Continuous
 62
     7
370
    15
100
AcDbLine
 10
699.441076342
 20
-218.6991270109
 30
0.0
 11
699.441076342
 21
-198.1991525217
 31
0.0
  0
LINE
  5
47
330
1F
100
AcDbEntity
  8
0
  6
Continuous
 62
     7
370
    15
100
AcDbLine
 10
359.4410727658
 20
-198.1991525217
 30
0.0
 11
359.4410727658
 21
-218.6991270109
 31
0.0
  0
LINE
  5
48
330
1F
100
AcDbEntity
  8
0
  6
Continuous
 62
     7
370
    15
100
AcDbLine
 10
359.4410727658
 20
28.3008631842
 30
0.0
 11
359.4410727658
 21
-137.1991332098
 31
0.0
  0
ARC
  5
49
330
1F
100
AcDbEntity
  8
0
  6
Continuous
 62
     7
370
    15
100
AcDbCircle
 10
357.4410745539
 20
-187.9127544725
 30
0.0
 40
2.000000000000002
100
AcDbArc
 50
0.0
 51
28.9550243719
  0
ARC
  5
4A
330
1F
100
AcDbEntity
  8
0
  6
Continuous
 62
     7
370
    15
100
AcDbCircle
 10
357.4410745539
 20
-147.4855224374
 30
0.0
 40
2.0
100
AcDbArc
 50
331.0449756281
 51
0.0
  0
ARC
  5
4B
330
1F
100
AcDbEntity
  8
0
  6
Continuous
 62
     7
370
    15
100
AcDbCircle
 10
701.4410745539
 20
-147.4855224374
 30
0.0
 40
2.0
100
AcDbArc
 50
180.0
 51
208.9550243719
  0
ARC
  5
4C
330
1F
100
AcDbEntity
  8
0
  6
Continuous
 62
     7
370
    15
100
AcDbCircle
 10
701.4410745539
 20
-187.9127544725
 30
0.0
 40
2.0
100
AcDbArc
 50
151.0449756281
 51
180.0
  0
ARC
  5
4D
330
1F
100
AcDbEntity
  8
0
  6
Continuous
 62
     7
370
    15
100
AcDbCircle
 10
360.9410745539
 20
-149.4220141105
 30
0.0
 40
2.000000000000002
100
AcDbArc
 50
151.0449756281
 51
180.0
  0
ARC
  5
4E
330
1F
100
AcDbEntity
  8
0
  6
Continuous
 62
     7
370
    15
100
AcDbCircle
 10
360.9410745539
 20
-185.9762627994
 30
0.0
 40
2.000000000000016
100
AcDbArc
 50
180.0
 51
208.9550243719
  0
ARC
  5
4F
330
1F
100
AcDbEntity
  8
0
  6
Continuous
 62
     7
370
    15
100
AcDbCircle
 10
697.9410745539
 20
-185.9762627994
 30
0.0
 40
2.000000000000087
100
AcDbArc
 50
331.0449756281
 51
0.0
  0
ARC
  5
50
330
1F
100
AcDbEntity
  8
0
  6
Continuous
 62
     7
370
    15
100
AcDbCircle
 10
697.9410745539
 20
-149.4220141105
 30
0.0
 40
2.000000000000074
100
AcDbArc
 50
0.0
 51
28.9550243719
  0
LINE
  5
51
330
1F
100
AcDbEntity
  8
0
  6
Continuous
 62
     7
370
    15
100
AcDbLine
 10
411.007323388
 20
-228.1991239114
 30
0.0
 11
411.007323388
 21
-228.9991374536
 31
0.0
  0
LINE
  5
52
330
1F
100
AcDbEntity
  8
0
  6
Continuous
 62
     7
370
    15
100
AcDbLine
 10
420.0073192753
 20
-228.9991374536
 30
0.0
 11
420.0073192753
 21
-228.1991239114
 31
0.0
  0
ARC
  5
53
330
1F
100
AcDbEntity
  8
0
  6
Continuous
 62
     7
370
    15
100
AcDbCircle
 10
417.5073211439
 20
-227.099138455
 30
0.0
 40
2.000000000000057
100
AcDbArc
 50
0.0
 51
42.3072493592
  0
ARC
  5
54
330
1F
100
AcDbEntity
  8
0
  6
Continuous
 62
     7
370
    15
100
AcDbCircle
 10
413.5073211439
 20
-227.099138455
 30
0.0
 40
2.000000000000057
100
AcDbArc
 50
137.7525973771
 51
180.0
  0
LINE
  5
55
330
1F
100
AcDbEntity
  8
0
  6
Continuous
 62
     7
370
    15
100
AcDbLine
 10
419.507318262
 20
-228.1991239114
 30
0.0
 11
419.507318262
 21
-227.0991499944
 31
0.0
  0
LINE
  5
56
330
1F
100
AcDbEntity
  8
0
  6
Continuous
 62
     7
370
    15
100
AcDbLine
 10
411.5073244013
 20
-227.0991499944
 30
0.0
 11
411.5073244013
 21
-228.1991239114
 31
0.0
  0
LINE
  5
57
330
1F
100
AcDbEntity
  8
0
  6
Continuous
 62
     7
370
    15
100
AcDbLine
 10
358.4342311062
 20
-171.6991360708
 30
0.0
 11
359.4410727658
 21
-171.6991360708
 31
0.0
  0
LINE
  5
58
330
1F
100
AcDbEntity
  8
0
  6
Continuous
 62
     7
370
    15
100
AcDbLine
 10
359.4410727658
 20
-163.6991347595
 30
0.0
 11
358.4342311062
 21
-163.6991347595
 31
0.0
  0
ARC
  5
59
330
1F
100
AcDbEntity
  8
0
  6
Continuous
 62
     7
370
    15
100
AcDbCircle
 10
541.0956536981
 20
-163.5956048743
 30
0.0
 40
1.0
100
AcDbArc
 50
90.0
 51
122.3097080207
  0
ARC
  5
5A
330
1F
100
AcDbEntity
  8
0
  6
Continuous
 62
     7
370
    15
100
AcDbCircle
 10
527.6469911354
 20
-182.6672422896
 30
0.0
 40
1.00000000000006
100
AcDbArc
 50
167.308253065
 51
270.0
  0
ARC
  5
5B
330
1F
100
AcDbEntity
  8
0
  6
Continuous
 62
     7
370
    15
100
AcDbCircle
 10
525.6918306697
 20
-152.7310346203
 30
0.0
 40
1.0
100
AcDbArc
 50
90.0
 51
93.7375288356
  0
ARC
  5
5C
330
1F
100
AcDbEntity
  8
0
  6
Continuous
 62
     7
370
    15
100
AcDbCircle
 10
512.243168107
 20
-171.8026720356
 30
0.0
 40
1.000000000000033
100
AcDbArc
 50
195.8751356976
 51
270.0
  0
LINE
  5
5D
330
1F
100
AcDbEntity
  8
0
  6
Continuous
 62
     7
370
    15
100
AcDbLine
 10
526.7672507018
 20
-183.6991305871
 30
0.0
 11
526.8376121223
 21
-183.6991305871
 31
0.0
  0
LINE
  5
5E
330
1F
100
AcDbEntity
  8
0
  6
Continuous
 62
     7
370
    15
100
AcDbLine
 10
526.8376121223
 20
-151.6991402431
 30
0.0
 11
526.7672507018
 21
-151.6991402431
 31
0.0
  0
LINE
  5
5F
330
1F
100
AcDbEntity
  8
0
  6
Continuous
 62
     7
370
    15
100
AcDbLine
 10
541.1687848084
 20
-162.5955994649
 30
0.0
 11
541.0956536345
 21
-162.5955994649
 31
0.0
  0
LINE
  5
60
330
1F
100
AcDbEntity
  8
0
  6
Continuous
 62
     7
370
    15
100
AcDbLine
 10
527.6469911607
 20
-183.6672421022
 30
0.0
 11
527.7201221017
 21
-183.6672421022
 31
0.0
  0
LINE
  5
61
330
1F
100
AcDbEntity
  8
0
  6
Continuous
 62
     7
370
    15
100
AcDbLine
 10
525.7649615798
 20
-151.7310287281
 30
0.0
 11
525.6918306388
 21
-151.7310287281
 31
0.0
  0
LINE
  5
62
330
1F
100
AcDbEntity
  8
0
  6
Continuous
 62
     7
370
    15
100
AcDbLine
 10
512.2431675829
 20
-172.8026862665
 30
0.0
 11
512.3162987568
 21
-172.8026862665
 31
0.0
  0
SPLINE
  5
63
330
1F
100
AcDbEntity
  8
0
  6
Continuous
 62
     7
370
    15
100
AcDbSpline
210
0.0
220
0.0
230
1.0
 70
     8
 71
     3
 72
    12
 73
     8
 74
     0
 42
0.00000001
 43
0.00000001
 12
1.0
 22
0.0
 32
0.0
 13
1.0
 23
0.0
 33
0.0
 40
0.0
 40
0.0
 40
0.0
 40
0.0
 40
0.0646640849867689
 40
0.4205447380760962
 40
0.7147358059367296
 40
0.9348383081363606
 40
1.0
 40
1.0
 40
1.0
 40
1.0
 10
541.6502171121838
 20
-162.7240921779154
 30
0.0
 10
541.6625584156018
 20
-162.7292675133189
 30
0.0
 10
541.7428204376265
 20
-162.7629254560887
 30
0.0
 10
541.8563925176657
 20
-162.864118166544
 30
0.0
 10
541.9736095680869
 20
-162.9946311690592
 30
0.0
 10
542.0376993708164
 20
-163.0988169502554
 30
0.0
 10
542.0562292178445
 20
-163.137144376219
 30
0.0
 10
542.0604619123342
 20
-163.1458993478296
 30
0.0
  0
SPLINE
  5
64
330
1F
100
AcDbEntity
  8
0
  6
Continuous
 62
     7
370
    15
100
AcDbSpline
210
0.0
220
0.0
230
1.0
 70
     8
 71
     3
 72
    19
 73
    15
 74
     0
 42
0.00000001
 43
0.00000001
 12
1.0
 22
0.0
 32
0.0
 13
1.0
 23
0.0
 33
0.0
 40
0.0
 40
0.0
 40
0.0
 40
0.0
 40
0.06525856483358
 40
0.3130199485733963
 40
0.5584815581750513
 40
0.7607430623332018
 40
0.8668218100770047
 40
0.9149962256427665
 40
0.9406353421000404
 40
0.9516854769049296
 40
0.9577949464185357
 40
0.9656385351422827
 40
0.9873861867034891
 40
0.9999999999999999
 40
0.9999999999999999
 40
0.9999999999999999
 40
0.9999999999999999
 10
527.9138094904201
 20
-151.7414595408915
 30
0.0
 10
527.8398975716791
 20
-151.7359527448911
 30
0.0
 10
527.4853708507454
 20
-151.7095387867349
 30
0.0
 10
526.857725805151
 20
-151.6940139750352
 30
0.0
 10
526.2047306811152
 20
-151.7059322871326
 30
0.0
 10
525.8573827733279
 20
-151.7240391416579
 30
0.0
 10
525.7439958870639
 20
-151.7306113301912
 30
0.0
 10
525.7169522377274
 20
-151.7322510788317
 30
0.0
 10
525.7147334342926
 20
-151.732308076901
 30
0.0
 10
525.7253503555588
 20
-151.7318202306765
 30
0.0
 10
525.7422748135692
 20
-151.7312034070752
 30
0.0
 10
525.7786749094496
 20
-151.7310001226802
 30
0.0
 10
525.8276246782063
 20
-151.7297333046197
 30
0.0
 10
525.8654885456234
 20
-151.7392046006426
 30
0.0
 10
525.8793880623134
 20
-151.7426814361094
 30
0.0
  0
SPLINE
  5
65
330
1F
100
AcDbEntity
  8
0
  6
Continuous
 62
     7
370
    15
100
AcDbSpline
210
0.0
220
0.0
230
1.0
 70
     8
 71
     3
 72
     9
 73
     5
 74
     0
 42
0.00000001
 43
0.00000001
 12
1.0
 22
0.0
 32
0.0
 13
1.0
 23
0.0
 33
0.0
 40
0.0
 40
0.0
 40
0.0
 40
0.0
 40
0.7090255676150022
 40
1.0
 40
1.0
 40
1.0
 40
1.0
 10
510.7690236456992
 20
-167.5723488851069
 30
0.0
 10
510.7679059077399
 20
-167.7899185114157
 30
0.0
 10
510.7663294653513
 20
-168.0967757479477
 30
0.0
 10
510.7700078325043
 20
-168.2738769473806
 30
0.0
 10
510.7710781432988
 20
-168.3254088683603
 30
0.0
  0
LINE
  5
66
330
1F
100
AcDbEntity
  8
0
  6
Continuous
 62
     7
370
    15
100
AcDbLine
 10
526.9180562739
 20
-144.1991324945
 30
0.0
 11
526.871252425
 21
-144.1991324945
 31
0.0
  0
LINE
  5
67
330
1F
100
AcDbEntity
  8
0
  6
Continuous
 62
     7
370
    15
100
AcDbLine
 10
526.871252425
 20
-191.1991532369
 30
0.0
 11
526.9180562739
 21
-191.1991532369
 31
0.0
  0
LINE
  5
68
330
1F
100
AcDbEntity
  8
0
  6
Continuous
 62
     7
370
    15
100
AcDbLine
 10
335.9617750086
 20
-185.1991410776
 30
0.0
 11
348.6775319018
 21
-185.1991410776
 31
0.0
  0
LINE
  5
69
330
1F
100
AcDbEntity
  8
0
  6
Continuous
 62
     7
370
    15
100
AcDbLine
 10
348.6775319018
 20
-150.1991446538
 30
0.0
 11
335.9617750086
 21
-150.1991446538
 31
0.0
  0
LINE
  5
6A
330
1F
100
AcDbEntity
  8
0
  6
Continuous
 62
     7
370
    15
100
AcDbLine
 10
348.9603857436
 20
-191.1991532369
 30
0.0
 11
356.9595227875
 21
-191.1991532369
 31
0.0
  0
LINE
  5
6B
330
1F
100
AcDbEntity
  8
0
  6
Continuous
 62
     7
370
    15
100
AcDbLine
 10
356.9595227875
 20
-144.1991324945
 30
0.0
 11
348.9603857436
 21
-144.1991324945
 31
0.0
  0
LINE
  5
6C
330
1F
100
AcDbEntity
  8
0
  6
Continuous
 62
     7
370
    15
100
AcDbLine
 10
722.9203740992
 20
-150.1991446538
 30
0.0
 11
709.9217633643
 21
-150.1991446538
 31
0.0
  0
LINE
  5
6D
330
1F
100
AcDbEntity
  8
0
  6
Continuous
 62
     7
370
    15
100
AcDbLine
 10
709.9217633643
 20
-185.1991410776
 30
0.0
 11
722.9203740992
 21
-185.1991410776
 31
0.0
  0
LINE
  5
6E
330
1F
100
AcDbEntity
  8
0
  6
Continuous
 62
     7
370
    15
100
AcDbLine
 10
701.9226263203
 20
-191.1991532369
 30
0.0
 11
709.9217633643
 21
-191.1991532369
 31
0.0
  0
LINE
  5
6F
330
1F
100
AcDbEntity
  8
0
  6
Continuous
 62
     7
370
    15
100
AcDbLine
 10
709.9217633643
 20
-144.1991324945
 30
0.0
 11
701.9226263203
 21
-144.1991324945
 31
0.0
  0
LINE
  5
70
330
1F
100
AcDbEntity
  8
0
  6
Continuous
 62
     7
370
    15
100
AcDbLine
 10
356.9595227875
 20
-191.1991532369
 30
0.0
 11
358.9593182244
 21
-191.1991532369
 31
0.0
  0
LINE
  5
71
330
1F
100
AcDbEntity
  8
0
  6
Continuous
 62
     7
370
    15
100
AcDbLine
 10
358.9593182244
 20
-144.1991324945
 30
0.0
 11
356.9595227875
 21
-144.1991324945
 31
0.0
  0
LINE
  5
72
330
1F
100
AcDbEntity
  8
0
  6
Continuous
 62
     7
370
    15
100
AcDbLine
 10
355.6410680451
 20
28.5008628444
 30
0.0
 11
355.8410714306
 21
28.3008631842
 31
0.0
  0
LINE
  5
73
330
1F
100
AcDbEntity
  8
0
  6
Continuous
 62
     7
370
    15
100
AcDbLine
 10
703.0410776772
 20
28.3008631842
 30
0.0
 11
703.2410810627
 21
28.5008628444
 31
0.0
  0
ARC
  5
74
330
1F
100
AcDbEntity
  8
0
  6
Continuous
 62
     7
370
    15
100
AcDbCircle
 10
701.9910745539
 20
51.3820003751
 30
0.0
 40
1.250000000034723
100
AcDbArc
 50
295.3769335218
 51
0.0
  0
ARC
  5
75
330
1F
100
AcDbEntity
  8
0
  6
Continuous
 62
     7
370
    15
100
AcDbCircle
 10
356.8910745539
 20
51.3820003751
 30
0.0
 40
1.250000000034699
100
AcDbArc
 50
180.0
 51
244.6230664782
  0
LINE
  5
76
330
1F
100
AcDbEntity
  8
0
  6
Continuous
 62
     7
370
    15
100
AcDbLine
 10
355.6410680451
 20
29.6517242269
 30
0.0
 11
355.6410680451
 21
28.5008628444
 31
0.0
  0
LINE
  5
77
330
1F
100
AcDbEntity
  8
0
  6
Continuous
 62
     7
370
    15
100
AcDbLine
 10
703.2410810627
 20
28.5008628444
 30
0.0
 11
703.2410810627
 21
29.6517242269
 31
0.0
  0
LINE
  5
78
330
1F
100
AcDbEntity
  8
0
  6
Continuous
 62
     7
370
    15
100
AcDbLine
 10
355.6410680451
 20
52.0508610235
 30
0.0
 11
355.6410680451
 21
51.3820000516
 31
0.0
  0
LINE
  5
79
330
1F
100
AcDbEntity
  8
0
  6
Continuous
 62
     7
370
    15
100
AcDbLine
 10
703.2410810627
 20
51.3820000516
 30
0.0
 11
703.2410810627
 21
52.0508610235
 31
0.0
  0
ARC
  5
7A
330
1F
100
AcDbEntity
  8
0
  6
Continuous
 62
     7
370
    15
100
AcDbCircle
 10
701.9910745539
 20
52.050861545
 30
0.0
 40
1.250000000026415
100
AcDbArc
 50
0.0
 51
78.4630409731
  0
ARC
  5
7B
330
1F
100
AcDbEntity
  8
0
  6
Continuous
 62
     7
370
    15
100
AcDbCircle
 10
356.8910745539
 20
52.050861545
 30
0.0
 40
1.250000000026415
100
AcDbArc
 50
101.5369590269
 51
180.0
  0
ARC
  5
7C
330
1F
100
AcDbEntity
  8
0
  6
Continuous
 62
     7
370
    15
100
AcDbCircle
 10
701.9910745539
 20
29.6517238704
 30
0.0
 40
1.250000000000114
100
AcDbArc
 50
0.0
 51
69.2164403995
  0
ARC
  5
7D
330
1F
100
AcDbEntity
  8
0
  6
Continuous
 62
     7
370
    15
100
AcDbCircle
 10
356.8910745539
 20
29.6517238704
 30
0.0
 40
1.250000000000057
100
AcDbArc
 50
110.7835596005
 51
180.0
  0
ARC
  5
7E
330
1F
100
AcDbEntity
  8
0
  6
Continuous
 62
     7
370
    15
100
AcDbCircle
 10
356.1410745539
 20
49.800861545
 30
0.0
 40
0.5000000000000568
100
AcDbArc
 50
0.0
 51
64.6230664665
  0
ARC
  5
7F
330
1F
100
AcDbEntity
  8
0
  6
Continuous
 62
     7
370
    15
100
AcDbCircle
 10
702.7410745539
 20
49.800861545
 30
0.0
 40
0.5
100
AcDbArc
 50
115.3769335335
 51
180.0
  0
ARC
  5
80
330
1F
100
AcDbEntity
  8
0
  6
Continuous
 62
     7
370
    15
100
AcDbCircle
 10
702.5410745539
 20
31.100861545
 30
0.0
 40
0.3000000000385181
100
AcDbArc
 50
180.0
 51
249.2164404236
  0
ARC
  5
81
330
1F
100
AcDbEntity
  8
0
  6
Continuous
 62
     7
370
    15
100
AcDbCircle
 10
356.3410745539
 20
31.100861545
 30
0.0
 40
0.3000000000385383
100
AcDbArc
 50
290.7835595764
 51
0.0
  0
ARC
  5
82
330
1F
100
AcDbEntity
  8
0
  6
Continuous
 62
     7
370
    15
100
AcDbCircle
 10
702.9410745539
 20
56.7048920563
 30
0.0
 40
3.5
100
AcDbArc
 50
180.0
 51
258.4630409651
  0
ARC
  5
83
330
1F
100
AcDbEntity
  8
0
  6
Continuous
 62
     7
370
    15
100
AcDbCircle
 10
355.9410745539
 20
56.7048920563
 30
0.0
 40
3.499999999999943
100
AcDbArc
 50
281.5369590349
 51
0.0
  0
LINE
  5
84
330
1F
100
AcDbEntity
  8
0
  6
Continuous
 62
     7
370
    15
100
AcDbLine
 10
356.6410700716
 20
49.8008620517
 30
0.0
 11
356.6410700716
 21
31.100862153
 31
0.0
  0
LINE
  5
85
330
1F
100
AcDbEntity
  8
0
  6
Continuous
 62
     7
370
    15
100
AcDbLine
 10
702.2410790362
 20
31.100862153
 30
0.0
 11
702.2410790362
 21
49.8008620517
 31
0.0
  0
LINE
  5
86
330
1F
100
AcDbEntity
  8
0
  6
Continuous
 62
     7
370
    15
100
AcDbLine
 10
359.4410727658
 20
310.8722273783
 30
0.0
 11
359.4410727658
 21
56.7048922704
 31
0.0
  0
LINE
  5
87
330
1F
100
AcDbEntity
  8
0
  6
Continuous
 62
     7
370
    15
100
AcDbLine
 10
699.441076342
 20
56.7048922704
 30
0.0
 11
699.441076342
 21
310.8722273783
 31
0.0
  0
ARC
  5
88
330
1F
100
AcDbEntity
  8
0
  6
Continuous
 62
     7
370
    15
100
AcDbCircle
 10
384.4410745539
 20
310.8722222186
 30
0.0
 40
25.00000000000003
100
AcDbArc
 50
101.3653465436
 51
180.0
  0
ARC
  5
89
330
1F
100
AcDbEntity
  8
0
  6
Continuous
 62
     7
370
    15
100
AcDbCircle
 10
674.4410745539
 20
310.8722222186
 30
0.0
 40
25.00000000000003
100
AcDbArc
 50
0.0
 51
78.6346534564
  0
ARC
  5
8A
330
1F
100
AcDbEntity
  8
0
  6
Continuous
 62
     7
370
    15
100
AcDbCircle
 10
529.4410745539
 20
-410.499138455
 30
0.0
 40
760.8000000000001
100
AcDbArc
 50
78.6346534564
 51
101.3653465436
  0
LINE
  5
8B
330
1F
100
AcDbEntity
  8
0
  6
Continuous
 62
     7
370
    15
100
AcDbLine
 10
352.4307916798
 20
-241.1991353555
 30
0.0
 11
352.4307916798
 21
-243.1991394086
 31
0.0
  0
LINE
  5
8C
330
1F
100
AcDbEntity
  8
0
  6
Continuous
 62
     7
370
    15
100
AcDbLine
 10
706.451357428
 20
-243.1991394086
 30
0.0
 11
706.451357428
 21
-241.1991353555
 31
0.0
  0
ARC
  5
8D
330
1F
100
AcDbEntity
  8
0
  6
Continuous
 62
     7
370
    15
100
AcDbCircle
 10
353.4307901358
 20
-239.199138455
 30
0.0
 40
2.0
100
AcDbArc
 50
270.0
 51
0.0
  0
ARC
  5
8E
330
1F
100
AcDbEntity
  8
0
  6
Continuous
 62
     7
370
    15
100
AcDbCircle
 10
705.451358972
 20
-239.199138455
 30
0.0
 40
2.0
100
AcDbArc
 50
180.0
 51
270.0
  0
LINE
  5
8F
330
1F
100
AcDbEntity
  8
0
  6
Continuous
 62
     7
370
    15
100
AcDbLine
 10
355.4307828583
 20
-222.0411296411
 30
0.0
 11
355.4307828583
 21
-239.1991313024
 31
0.0
  0
LINE
  5
90
330
1F
100
AcDbEntity
  8
0
  6
Continuous
 62
     7
370
    15
100
AcDbLine
 10
703.4513662495
 20
-239.1991313024
 30
0.0
 11
703.4513662495
 21
-222.0411296411
 31
0.0
  0
SPLINE
  5
91
330
1F
100
AcDbEntity
  8
0
  6
Continuous
 62
     7
370
    15
100
AcDbSpline
210
0.0
220
0.0
230
1.0
 70
     8
 71
     3
 72
    11
 73
     7
 74
     0
 42
0.00000001
 43
0.00000001
 12
1.0
 22
0.0
 32
0.0
 13
1.0
 23
0.0
 33
0.0
 40
0.0
 40
0.0
 40
0.0
 40
0.0
 40
0.2407142534914086
 40
0.5283151594948723
 40
0.8222013817658925
 40
1.0
 40
1.0
 40
1.0
 40
1.0
 10
703.4408311285379
 20
-222.0417852921961
 30
0.0
 10
703.426964916097
 20
-221.7490886476429
 30
0.0
 10
703.3965316113339
 20
-221.1066835045829
 30
0.0
 10
703.028524093023
 20
-220.1681010260165
 30
0.0
 10
702.5171621361711
 20
-219.3832115394398
 30
0.0
 10
702.0592370722936
 20
-219.0376881146428
 30
0.0
 10
701.8866251148584
 20
-218.9074452443598
 30
0.0
  0
SPLINE
  5
92
330
1F
100
AcDbEntity
  8
0
  6
Continuous
 62
     7
370
    15
100
AcDbSpline
210
0.0
220
0.0
230
1.0
 70
     8
 71
     3
 72
    11
 73
     7
 74
     0
 42
0.00000001
 43
0.00000001
 12
1.0
 22
0.0
 32
0.0
 13
1.0
 23
0.0
 33
0.0
 40
0.0
 40
0.0
 40
0.0
 40
0.0
 40
0.2528255458472302
 40
0.5672549493448749
 40
0.8387068489786621
 40
0.9999999999999999
 40
0.9999999999999999
 40
0.9999999999999999
 40
0.9999999999999999
 10
356.9831262268426
 20
-218.8949580712793
 30
0.0
 10
356.749060867017
 20
-219.0947121112135
 30
0.0
 10
356.2238974252202
 20
-219.5428925647534
 30
0.0
 10
355.7204358303379
 20
-220.4449072256081
 30
0.0
 10
355.4514508230458
 20
-221.3207139276472
 30
0.0
 10
355.4517764396067
 20
-221.8460218288975
 30
0.0
 10
355.451897803724
 20
-222.0418150945185
 30
0.0
  0
ARC
  5
93
330
1F
100
AcDbEntity
  8
0
  6
Continuous
 62
     7
370
    15
100
AcDbCircle
 10
701.3301273489
 20
-219.699138455
 30
0.0
 40
1.000000000000032
100
AcDbArc
 50
54.9410027925
 51
89.9999999962
  0
ARC
  5
94
330
1F
100
AcDbEntity
  8
0
  6
Continuous
 62
     7
370
    15
100
AcDbCircle
 10
357.5520217589
 20
-219.699138455
 30
0.0
 40
1.0
100
AcDbArc
 50
90.0000000038
 51
124.9407088748
  0
LINE
  5
95
330
1F
100
AcDbEntity
  8
0
  6
Continuous
 62
     7
370
    15
100
AcDbLine
 10
674.2981831469
 20
-218.6991270109
 30
0.0
 11
618.4153268971
 21
-218.6991270109
 31
0.0
  0
LINE
  5
96
330
1F
100
AcDbEntity
  8
0
  6
Continuous
 62
     7
370
    15
100
AcDbLine
 10
440.4668222107
 20
-218.6991270109
 30
0.0
 11
384.5839659609
 21
-218.6991270109
 31
0.0
  0
LINE
  5
97
330
1F
100
AcDbEntity
  8
0
  6
Continuous
 62
     7
370
    15
100
AcDbLine
 10
359.4410727658
 20
-183.306604199
 30
0.0
 11
359.4410727658
 21
-152.0916666313
 31
0.0
  0
LINE
  5
98
330
1F
100
AcDbEntity
  8
0
  6
Continuous
 62
     7
370
    15
100
AcDbLine
 10
699.441076342
 20
-152.0916666313
 30
0.0
 11
699.441076342
 21
-183.306604199
 31
0.0
  0
LINE
  5
99
330
1F
100
AcDbEntity
  8
0
  6
Continuous
 62
     7
370
    15
100
AcDbLine
 10
359.4410727658
 20
-152.0916666313
 30
0.0
 11
359.4410727658
 21
-141.9612761064
 31
0.0
  0
LINE
  5
9A
330
1F
100
AcDbEntity
  8
0
  6
Continuous
 62
     7
370
    15
100
AcDbLine
 10
359.4410727658
 20
-193.437009625
 30
0.0
 11
359.4410727658
 21
-183.306604199
 31
0.0
  0
LINE
  5
9B
330
1F
100
AcDbEntity
  8
0
  6
Continuous
 62
     7
370
    15
100
AcDbLine
 10
699.441076342
 20
-148.2301499172
 30
0.0
 11
699.441076342
 21
-152.0916666313
 31
0.0
  0
LINE
  5
9C
330
1F
100
AcDbEntity
  8
0
  6
Continuous
 62
     7
370
    15
100
AcDbLine
 10
699.441076342
 20
-183.306604199
 30
0.0
 11
699.441076342
 21
-187.1681209131
 31
0.0
  0
LINE
  5
9D
330
1F
100
AcDbEntity
  8
0
  6
Continuous
 62
     7
370
    15
100
AcDbLine
 10
699.441076342
 20
-187.1681209131
 30
0.0
 11
699.441076342
 21
-188.9014537855
 31
0.0
  0
SPLINE
  5
9E
330
1F
100
AcDbEntity
  8
0
  6
Continuous
 62
     7
370
    15
100
AcDbSpline
210
0.0
220
0.0
230
1.0
 70
    24
 71
     3
 72
     8
 73
     4
 74
     0
 42
0.00000001
 43
0.00000001
 12
1.0
 22
0.0
 32
0.0
 13
1.0
 23
0.0
 33
0.0
 40
0.0
 40
0.0
 40
0.0
 40
0.0
 40
1.0
 40
1.0
 40
1.0
 40
1.0
 10
699.4410745539072
 20
-146.496810937565
 30
0.0
 10
699.4410745539072
 20
-147.1001281087012
 30
0.0
 10
699.4410745539072
 20
-147.6784397068405
 30
0.0
 10
699.4410745539072
 20
-148.2301432539506
 30
0.0
  0
SPLINE
  5
9F
330
1F
100
AcDbEntity
  8
0
  6
Continuous
 62
     7
370
    15
100
AcDbSpline
210
0.0
220
0.0
230
1.0
 70
    24
 71
     3
 72
     8
 73
     4
 74
     0
 42
0.00000001
 43
0.00000001
 12
1.0
 22
0.0
 32
0.0
 13
1.0
 23
0.0
 33
0.0
 40
0.0
 40
0.0
 40
0.0
 40
0.0
 40
1.0
 40
1.0
 40
1.0
 40
1.0
 10
699.4410745539072
 20
-139.8948827517458
 30
0.0
 10
699.4410745539072
 20
-142.0862356915247
 30
0.0
 10
699.4410745539072
 20
-144.2833056735731
 30
0.0
 10
699.4410745539072
 20
-146.496810937565
 30
0.0
  0
SPLINE
  5
A0
330
1F
100
AcDbEntity
  8
0
  6
Continuous
 62
     7
370
    15
100
AcDbSpline
210
0.0
220
0.0
230
1.0
 70
    24
 71
     3
 72
     9
 73
     5
 74
     0
 42
0.00000001
 43
0.00000001
 12
1.0
 22
0.0
 32
0.0
 13
1.0
 23
0.0
 33
0.0
 40
0.0
 40
0.0
 40
0.0
 40
0.0
 40
0.5321149378085709
 40
1.0
 40
1.0
 40
1.0
 40
1.0
 10
699.4410763420465
 20
-188.901453785467
 30
0.0
 10
699.4410763420465
 20
-190.0766839228179
 30
0.0
 10
699.4410763420465
 20
-192.2852859631796
 30
0.0
 10
699.4410763420465
 20
-194.4776221138689
 30
0.0
 10
699.4410763420465
 20
-195.5033834500788
 30
0.0
  0
LINE
  5
A1
330
1F
100
AcDbEntity
  8
0
  6
Continuous
 62
     7
370
    15
100
AcDbLine
 10
358.9410792031
 20
-163.6991347595
 30
0.0
 11
358.9410792031
 21
-149.4220192953
 31
0.0
  0
LINE
  5
A2
330
1F
100
AcDbEntity
  8
0
  6
Continuous
 62
     7
370
    15
100
AcDbLine
 10
358.9410792031
 20
-185.9762664361
 30
0.0
 11
358.9410792031
 21
-171.6991360708
 31
0.0
  0
LINE
  5
A3
330
1F
100
AcDbEntity
  8
0
  6
Continuous
 62
     7
370
    15
100
AcDbLine
 10
699.9410699047
 20
-149.4220192953
 30
0.0
 11
699.9410699047
 21
-185.9762664361
 31
0.0
  0
LINE
  5
A4
330
1F
100
AcDbEntity
  8
0
  6
Continuous
 62
     7
370
    15
100
AcDbLine
 10
359.4410727658
 20
-194.9229534193
 30
0.0
 11
359.4410727658
 21
-193.437009625
 31
0.0
  0
SPLINE
  5
A5
330
1F
100
AcDbEntity
  8
0
  6
Continuous
 62
     7
370
    15
100
AcDbSpline
210
0.0
220
0.0
230
1.0
 70
    24
 71
     3
 72
     8
 73
     4
 74
     0
 42
0.00000001
 43
0.00000001
 12
1.0
 22
0.0
 32
0.0
 13
1.0
 23
0.0
 33
0.0
 40
0.0
 40
0.0
 40
0.0
 40
0.0
 40
1.0
 40
1.0
 40
1.0
 40
1.0
 10
359.4410745539072
 20
-141.961280811448
 30
0.0
 10
359.4410745539072
 20
-141.4852455112514
 30
0.0
 10
359.4410745539072
 20
-140.9892306754437
 30
0.0
 10
359.4410745539072
 20
-140.4753328613938
 30
0.0
  0
SPLINE
  5
A6
330
1F
100
AcDbEntity
  8
0
  6
Continuous
 62
     7
370
    15
100
AcDbSpline
210
0.0
220
0.0
230
1.0
 70
    24
 71
     3
 72
    15
 73
    11
 74
     0
 42
0.00000001
 43
0.00000001
 12
1.0
 22
0.0
 32
0.0
 13
1.0
 23
0.0
 33
0.0
 40
0.0
 40
0.0
 40
0.0
 40
0.0
 40
0.3951398061738064
 40
0.6088879725918087
 40
0.8488088914887875
 40
0.8981506882325372
 40
0.9703388478554614
 40
0.9883841457532142
 40
0.9928954408652544
 40
0.9999999999999999
 40
0.9999999999999999
 40
0.9999999999999999
 40
0.9999999999999999
 10
699.4410763420466
 20
-195.5033834500788
 30
0.0
 10
699.4410763420466
 20
-196.0916569277674
 30
0.0
 10
699.4410763420466
 20
-196.9981529060588
 30
0.0
 10
699.4410763420465
 20
-197.7442662560942
 30
0.0
 10
699.4410763420466
 20
-198.0260147341955
 30
0.0
 10
699.4410763420466
 20
-198.1442788175921
 30
0.0
 10
699.4410763420465
 20
-198.1768822526345
 30
0.0
 10
699.4410763420466
 20
-198.1923103236019
 30
0.0
 10
699.4410763420465
 20
-198.1966282059299
 30
0.0
 10
699.4410763420465
 20
-198.1981945219599
 30
0.0
 10
699.4410763420465
 20
-198.1991525216578
 30
0.0
  0
SPLINE
  5
A7
330
1F
100
AcDbEntity
  8
0
  6
Continuous
 62
     7
370
    15
100
AcDbSpline
210
0.0
220
0.0
230
1.0
 70
    24
 71
     3
 72
    16
 73
    12
 74
     0
 42
0.00000001
 43
0.00000001
 12
1.0
 22
0.0
 32
0.0
 13
1.0
 23
0.0
 33
0.0
 40
0.0
 40
0.0
 40
0.0
 40
0.0
 40
0.2500000000000002
 40
0.2500000000000002
 40
0.5000000000000002
 40
0.5000000000000002
 40
0.7500000000000002
 40
0.7500000000000002
 40
0.8750000000000001
 40
0.8750000000000001
 40
1.0
 40
1.0
 40
1.0
 40
1.0
 10
699.4410745539072
 20
-139.8948827517468
 30
0.0
 10
699.4410745539072
 20
-139.483269439715
 30
0.0
 10
699.4410745539072
 20
-139.1178478860655
 30
0.0
 10
699.4410745539071
 20
-138.4785307899632
 30
0.0
 10
699.4410745539072
 20
-138.2042540801715
 30
0.0
 10
699.4410745539071
 20
-137.752193148262
 30
0.0
 10
699.4410745539072
 20
-137.5737031286078
 30
0.0
 10
699.4410745539072
 20
-137.3785527654551
 30
0.0
 10
699.4410745539072
 20
-137.3256494968377
 30
0.0
 10
699.4410745539072
 20
-137.2441207132649
 30
0.0
 10
699.4410745539072
 20
-137.216180008764
 30
0.0
 10
699.4410745539072
 20
-137.1991384549616
 30
0.0
  0
SPLINE
  5
A8
330
1F
100
AcDbEntity
  8
0
  6
Continuous
 62
     7
370
    15
100
AcDbSpline
210
0.0
220
0.0
230
1.0
 70
    24
 71
     3
 72
    14
 73
    10
 74
     0
 42
0.00000001
 43
0.00000001
 12
1.0
 22
0.0
 32
0.0
 13
1.0
 23
0.0
 33
0.0
 40
0.0
 40
0.0
 40
0.0
 40
0.0
 40
0.2499999999999998
 40
0.2499999999999998
 40
0.4999999999999999
 40
0.4999999999999999
 40
0.7499999999999999
 40
0.7499999999999999
 40
1.0
 40
1.0
 40
1.0
 40
1.0
 10
359.4410745539072
 20
-140.4753328613921
 30
0.0
 10
359.4410745539072
 20
-140.066997736959
 30
0.0
 10
359.4410745539072
 20
-139.6913001015428
 30
0.0
 10
359.4410745539072
 20
-139.0057655824066
 30
0.0
 10
359.4410745539072
 20
-138.6959606447207
 30
0.0
 10
359.4410745539071
 20
-138.1460626999222
 30
0.0
 10
359.4410745539071
 20
-137.9060320813057
 30
0.0
 10
359.4410745539071
 20
-137.4977724333924
 30
0.0
 10
359.4410745539073
 20
-137.330668174641
 30
0.0
 10
359.4410745539071
 20
-137.1991384549616
 30
0.0
  0
SPLINE
  5
A9
330
1F
100
AcDbEntity
  8
0
  6
Continuous
 62
     7
370
    15
100
AcDbSpline
210
0.0
220
0.0
230
1.0
 70
    24
 71
     3
 72
    15
 73
    11
 74
     0
 42
0.00000001
 43
0.00000001
 12
1.0
 22
0.0
 32
0.0
 13
1.0
 23
0.0
 33
0.0
 40
0.0
 40
0.0
 40
0.0
 40
0.0
 40
0.0069300231531248
 40
0.055701906068561
 40
0.10446322551873
 40
0.2728009925105948
 40
0.5146910884199477
 40
0.5465695701115862
 40
0.8547042848394713
 40
1.0
 40
1.0
 40
1.0
 40
1.0
 10
359.4410727657677
 20
-198.1991525216578
 30
0.0
 10
359.4410727657677
 20
-198.195506402711
 30
0.0
 10
359.4410727657677
 20
-198.1661997509718
 30
0.0
 10
359.4410727657677
 20
-198.107736827902
 30
0.0
 10
359.4410727657678
 20
-197.9435422354739
 30
0.0
 10
359.4410727657677
 20
-197.6013302080052
 30
0.0
 10
359.4410727657678
 20
-197.1674665205845
 30
0.0
 10
359.4410727657678
 20
-196.5076486164884
 30
0.0
 10
359.4410727657678
 20
-195.8734730288507
 30
0.0
 10
359.4410727657678
 20
-195.1536205240621
 30
0.0
 10
359.4410727657678
 20
-194.922953419256
 30
0.0
  0
LINE
  5
AA
330
1F
100
AcDbEntity
  8
0
  6
Continuous
 62
     7
370
    15
100
AcDbLine
 10
420.0073192753
 20
-228.1991239114
 30
0.0
 11
411.007323388
 21
-228.1991239114
 31
0.0
  0
SPLINE
  5
AB
330
1F
100
AcDbEntity
  8
0
  6
Continuous
 62
     7
370
    15
100
AcDbSpline
210
0.0
220
0.0
230
1.0
 70
     8
 71
     3
 72
    10
 73
     6
 74
     0
 42
0.00000001
 43
0.00000001
 12
1.0
 22
0.0
 32
0.0
 13
1.0
 23
0.0
 33
0.0
 40
0.0
 40
0.0
 40
0.0
 40
0.0
 40
0.3971608446820787
 40
0.7941232618021328
 40
1.0
 40
1.0
 40
1.0
 40
1.0
 10
412.0492051281335
 20
-225.7695789857386
 30
0.0
 10
412.2175598179371
 20
-225.6164341591378
 30
0.0
 10
412.5541850849961
 20
-225.3102210194067
 30
0.0
 10
413.1115948927218
 20
-225.1228334500594
 30
0.0
 10
413.453921236744
 20
-225.1051761270322
 30
0.0
 10
413.5708297528627
 20
-225.099145941305
 30
0.0
  0
LINE
  5
AC
330
1F
100
AcDbEntity
  8
0
  6
Continuous
 62
     7
370
    15
100
AcDbLine
 10
413.5708297529
 20
-225.0991459413
 30
0.0
 11
415.0073240437
 21
-225.0991459413
 31
0.0
  0
SPLINE
  5
AD
330
1F
100
AcDbEntity
  8
0
  6
Continuous
 62
     7
370
    15
100
AcDbSpline
210
0.0
220
0.0
230
1.0
 70
    24
 71
     3
 72
    10
 73
     6
 74
     0
 42
0.00000001
 43
0.00000001
 12
1.0
 22
0.0
 32
0.0
 13
1.0
 23
0.0
 33
0.0
 40
0.0
 40
0.0
 40
0.0
 40
0.0
 40
0.4119546550284572
 40
0.8219642306047416
 40
1.0
 40
1.0
 40
1.0
 40
1.0
 10
415.0073240436914
 20
-225.099145941305
 30
0.0
 10
415.0073240436914
 20
-225.1221516791719
 30
0.0
 10
415.0073240436914
 20
-225.1680545313291
 30
0.0
 10
415.0073240436913
 20
-225.4600736490038
 30
0.0
 10
415.0073240436914
 20
-225.6976505440577
 30
0.0
 10
415.0073240436914
 20
-225.7695789857386
 30
0.0
  0
LINE
  5
AE
330
1F
100
AcDbEntity
  8
0
  6
Continuous
 62
     7
370
    15
100
AcDbLine
 10
415.0073240437
 20
-225.7695789857
 30
0.0
 11
416.0073186197
 21
-225.7695789857
 31
0.0
  0
SPLINE
  5
AF
330
1F
100
AcDbEntity
  8
0
  6
Continuous
 62
     7
370
    15
100
AcDbSpline
210
0.0
220
0.0
230
1.0
 70
    24
 71
     3
 72
    10
 73
     6
 74
     0
 42
0.00000001
 43
0.00000001
 12
1.0
 22
0.0
 32
0.0
 13
1.0
 23
0.0
 33
0.0
 40
0.0
 40
0.0
 40
0.0
 40
0.0
 40
0.3971591160950372
 40
0.7941198054916782
 40
1.0
 40
1.0
 40
1.0
 40
1.0
 10
416.0073186196687
 20
-225.7695789857386
 30
0.0
 10
416.0073186196687
 20
-225.6164341676434
 30
0.0
 10
416.0073186196687
 20
-225.3102210449194
 30
0.0
 10
416.0073186196686
 20
-225.122832552941
 30
0.0
 10
416.0073186196687
 20
-225.1051759612228
 30
0.0
 10
416.0073186196687
 20
-225.099145941305
 30
0.0
  0
LINE
  5
B0
330
1F
100
AcDbEntity
  8
0
  6
Continuous
 62
     7
370
    15
100
AcDbLine
 10
416.0073186197
 20
-225.0991459413
 30
0.0
 11
417.4438129105
 21
-225.0991459413
 31
0.0
  0
SPLINE
  5
B1
330
1F
100
AcDbEntity
  8
0
  6
Continuous
 62
     7
370
    15
100
AcDbSpline
210
0.0
220
0.0
230
1.0
 70
     8
 71
     3
 72
    10
 73
     6
 74
     0
 42
0.00000001
 43
0.00000001
 12
1.0
 22
0.0
 32
0.0
 13
1.0
 23
0.0
 33
0.0
 40
0.0
 40
0.0
 40
0.0
 40
0.0
 40
0.4119477543375938
 40
0.8219666491244644
 40
1.0
 40
1.0
 40
1.0
 40
1.0
 10
417.4438129104974
 20
-225.099145941305
 30
0.0
 10
417.6787133509043
 20
-225.1221536301416
 30
0.0
 10
418.1474143593359
 20
-225.1680612791049
 30
0.0
 10
418.6591924656104
 20
-225.4600663264397
 30
0.0
 10
418.8942681565315
 20
-225.6976502402793
 30
0.0
 10
418.9654375352266
 20
-225.7695789857386
 30
0.0
  0
LINE
  5
B2
330
1F
100
AcDbEntity
  8
0
  6
Continuous
 62
     7
370
    15
100
AcDbLine
 10
500.7716501989
 20
-171.4519258066
 30
0.0
 11
500.8740342148
 21
-171.4519258066
 31
0.0
  0
LINE
  5
B3
330
1F
100
AcDbEntity
  8
0
  6
Continuous
 62
     7
370
    15
100
AcDbLine
 10
500.7716501989
 20
-171.4519258066
 30
0.0
 11
500.7716501989
 21
-163.9463599248
 31
0.0
  0
LINE
  5
B4
330
1F
100
AcDbEntity
  8
0
  6
Continuous
 62
     7
370
    15
100
AcDbLine
 10
500.7716501989
 20
-163.9463599248
 30
0.0
 11
500.8740342148
 21
-163.9463599248
 31
0.0
  0
LINE
  5
B5
330
1F
100
AcDbEntity
  8
0
  6
Continuous
 62
     7
370
    15
100
AcDbLine
 10
500.8740342148
 20
-171.4519258066
 30
0.0
 11
500.8740342148
 21
-163.9463599248
 31
0.0
  0
LINE
  5
B6
330
1F
100
AcDbEntity
  8
0
  6
Continuous
 62
     7
370
    15
100
AcDbLine
 10
494.2723448314
 20
-175.2046938463
 30
0.0
 11
494.37473071
 21
-175.2046938463
 31
0.0
  0
LINE
  5
B7
330
1F
100
AcDbEntity
  8
0
  6
Continuous
 62
     7
370
    15
100
AcDbLine
 10
494.2723448314
 20
-175.2046938463
 30
0.0
 11
500.7716501989
 21
-171.4519258066
 31
0.0
  0
LINE
  5
B8
330
1F
100
AcDbEntity
  8
0
  6
Continuous
 62
     7
370
    15
100
AcDbLine
 10
494.37473071
 20
-175.2046938463
 30
0.0
 11
500.8740342148
 21
-171.4519258066
 31
0.0
  0
LINE
  5
B9
330
1F
100
AcDbEntity
  8
0
  6
Continuous
 62
     7
370
    15
100
AcDbLine
 10
500.7716501989
 20
-163.9463599248
 30
0.0
 11
494.2723448314
 21
-160.1935918851
 31
0.0
  0
LINE
  5
BA
330
1F
100
AcDbEntity
  8
0
  6
Continuous
 62
     7
370
    15
100
AcDbLine
 10
494.2723448314
 20
-160.1935918851
 30
0.0
 11
494.37473071
 21
-160.1935918851
 31
0.0
  0
LINE
  5
BB
330
1F
100
AcDbEntity
  8
0
  6
Continuous
 62
     7
370
    15
100
AcDbLine
 10
500.8740342148
 20
-163.9463599248
 30
0.0
 11
494.37473071
 21
-160.1935918851
 31
0.0
  0
LINE
  5
BC
330
1F
100
AcDbEntity
  8
0
  6
Continuous
 62
     7
370
    15
100
AcDbLine
 10
487.7730394639
 20
-163.9463599248
 30
0.0
 11
487.7730394639
 21
-171.4519258066
 31
0.0
  0
LINE
  5
BD
330
1F
100
AcDbEntity
  8
0
  6
Continuous
 62
     7
370
    15
100
AcDbLine
 10
494.2723448314
 20
-160.1935918851
 30
0.0
 11
487.7730394639
 21
-163.9463599248
 31
0.0
  0
LINE
  5
BE
330
1F
100
AcDbEntity
  8
0
  6
Continuous
 62
     7
370
    15
100
AcDbLine
 10
487.7730394639
 20
-171.4519258066
 30
0.0
 11
494.2723448314
 21
-175.2046938463
 31
0.0
  0
LINE
  5
BF
330
1F
100
AcDbEntity
  8
0
  6
Continuous
 62
     7
370
    15
100
AcDbLine
 10
341.3907150664
 20
-163.9463599248
 30
0.0
 11
348.3475754895
 21
-163.9463599248
 31
0.0
  0
LINE
  5
C0
330
1F
100
AcDbEntity
  8
0
  6
Continuous
 62
     7
370
    15
100
AcDbLine
 10
341.3907150664
 20
-163.9463599248
 30
0.0
 11
341.4857844748
 21
-160.1935918851
 31
0.0
  0
LINE
  5
C1
330
1F
100
AcDbEntity
  8
0
  6
Continuous
 62
     7
370
    15
100
AcDbLine
 10
341.4857844748
 20
-160.1935918851
 30
0.0
 11
348.3773331084
 21
-160.1935918851
 31
0.0
  0
LINE
  5
C2
330
1F
100
AcDbEntity
  8
0
  6
Continuous
 62
     7
370
    15
100
AcDbLine
 10
341.4857844748
 20
-175.2046938463
 30
0.0
 11
348.3773331084
 21
-175.2046938463
 31
0.0
  0
LINE
  5
C3
330
1F
100
AcDbEntity
  8
0
  6
Continuous
 62
     7
370
    15
100
AcDbLine
 10
341.4857844748
 20
-175.2046938463
 30
0.0
 11
341.3907150664
 21
-171.4519258066
 31
0.0
  0
LINE
  5
C4
330
1F
100
AcDbEntity
  8
0
  6
Continuous
 62
     7
370
    15
100
AcDbLine
 10
341.3907150664
 20
-171.4519258066
 30
0.0
 11
348.3475754895
 21
-171.4519258066
 31
0.0
  0
LINE
  5
C5
330
1F
100
AcDbEntity
  8
0
  6
Continuous
 62
     7
370
    15
100
AcDbLine
 10
341.3907150664
 20
-171.4519258066
 30
0.0
 11
341.3907150664
 21
-163.9463599248
 31
0.0
  0
LINE
  5
C6
330
1F
100
AcDbEntity
  8
0
  6
Continuous
 62
     7
370
    15
100
AcDbLine
 10
552.7660875507
 20
-163.9463599248
 30
0.0
 11
552.7660875507
 21
-171.4519258066
 31
0.0
  0
LINE
  5
C7
330
1F
100
AcDbEntity
  8
0
  6
Continuous
 62
     7
370
    15
100
AcDbLine
 10
559.2653929182
 20
-160.1935918851
 30
0.0
 11
552.7660875507
 21
-163.9463599248
 31
0.0
  0
LINE
  5
C8
330
1F
100
AcDbEntity
  8
0
  6
Continuous
 62
     7
370
    15
100
AcDbLine
 10
565.764696423
 20
-163.9463599248
 30
0.0
 11
559.2653929182
 21
-160.1935918851
 31
0.0
  0
LINE
  5
C9
330
1F
100
AcDbEntity
  8
0
  6
Continuous
 62
     7
370
    15
100
AcDbLine
 10
565.764696423
 20
-171.4519258066
 30
0.0
 11
565.764696423
 21
-163.9463599248
 31
0.0
  0
LINE
  5
CA
330
1F
100
AcDbEntity
  8
0
  6
Continuous
 62
     7
370
    15
100
AcDbLine
 10
559.2653929182
 20
-175.2046938463
 30
0.0
 11
565.764696423
 21
-171.4519258066
 31
0.0
  0
LINE
  5
CB
330
1F
100
AcDbEntity
  8
0
  6
Continuous
 62
     7
370
    15
100
AcDbLine
 10
552.7660875507
 20
-171.4519258066
 30
0.0
 11
559.2653929182
 21
-175.2046938463
 31
0.0
  0
LINE
  5
CC
330
1F
100
AcDbEntity
  8
0
  6
Continuous
 62
     7
370
    15
100
AcDbLine
 10
559.2653929182
 20
-175.2046938463
 30
0.0
 11
559.3677750714
 21
-175.2046938463
 31
0.0
  0
LINE
  5
CD
330
1F
100
AcDbEntity
  8
0
  6
Continuous
 62
     7
370
    15
100
AcDbLine
 10
565.764696423
 20
-171.4519258066
 30
0.0
 11
565.8670823016
 21
-171.4519258066
 31
0.0
  0
LINE
  5
CE
330
1F
100
AcDbEntity
  8
0
  6
Continuous
 62
     7
370
    15
100
AcDbLine
 10
559.3677750714
 20
-175.2046938463
 30
0.0
 11
565.8670823016
 21
-171.4519258066
 31
0.0
  0
LINE
  5
CF
330
1F
100
AcDbEntity
  8
0
  6
Continuous
 62
     7
370
    15
100
AcDbLine
 10
565.764696423
 20
-163.9463599248
 30
0.0
 11
565.8670823016
 21
-163.9463599248
 31
0.0
  0
LINE
  5
D0
330
1F
100
AcDbEntity
  8
0
  6
Continuous
 62
     7
370
    15
100
AcDbLine
 10
565.8670823016
 20
-171.4519258066
 30
0.0
 11
565.8670823016
 21
-163.9463599248
 31
0.0
  0
LINE
  5
D1
330
1F
100
AcDbEntity
  8
0
  6
Continuous
 62
     7
370
    15
100
AcDbLine
 10
559.2653929182
 20
-160.1935918851
 30
0.0
 11
559.3677750714
 21
-160.1935918851
 31
0.0
  0
LINE
  5
D2
330
1F
100
AcDbEntity
  8
0
  6
Continuous
 62
     7
370
    15
100
AcDbLine
 10
565.8670823016
 20
-163.9463599248
 30
0.0
 11
559.3677750714
 21
-160.1935918851
 31
0.0
  0
ARC
  5
D3
330
1F
100
AcDbEntity
  8
0
  6
Continuous
 62
     7
370
    15
100
AcDbCircle
 10
526.6657674647
 20
-167.6991820941
 30
0.0
 40
16.00193454968988
100
AcDbArc
 50
3.4351803996
 51
15.8749589929
  0
LINE
  5
D4
330
1F
100
AcDbEntity
  8
0
  6
Continuous
 62
     7
370
    15
100
AcDbLine
 10
534.7882472836
 20
-166.4013262315
 30
0.0
 11
540.5612560846
 21
-162.7504076286
 31
0.0
  0
ARC
  5
D5
330
1F
100
AcDbEntity
  8
0
  6
Continuous
 62
     7
370
    15
100
AcDbCircle
 10
542.8053849966
 20
-179.0789518411
 30
0.0
 40
10.00005611285426
100
AcDbArc
 50
122.3108223069
 51
167.308932398
  0
ARC
  5
D6
330
1F
100
AcDbEntity
  8
0
  6
Continuous
 62
     7
370
    15
100
AcDbCircle
 10
542.8057671234
 20
-179.0786709117
 30
0.0
 40
14.99985641675874
100
AcDbArc
 50
122.3104455172
 51
167.3092253695
  0
ARC
  5
D7
330
1F
100
AcDbEntity
  8
0
  6
Continuous
 62
     7
370
    15
100
AcDbCircle
 10
526.6693971437
 20
-167.7030027832
 30
0.0
 40
15.99614775138082
100
AcDbArc
 50
273.7376803507
 51
286.1807188126
  0
LINE
  5
D8
330
1F
100
AcDbEntity
  8
0
  6
Continuous
 62
     7
370
    15
100
AcDbLine
 10
526.671534257
 20
-182.4475224538
 30
0.0
 11
528.1723582577
 21
-175.7833655401
 31
0.0
  0
ARC
  5
D9
330
1F
100
AcDbEntity
  8
0
  6
Continuous
 62
     7
370
    15
100
AcDbCircle
 10
510.5329411426
 20
-156.3195348766
 30
0.0
 40
14.99998485295355
100
AcDbArc
 50
302.3106499473
 51
347.3090228388
  0
ARC
  5
DA
330
1F
100
AcDbEntity
  8
0
  6
Continuous
 62
     7
370
    15
100
AcDbCircle
 10
526.6694277749
 20
-167.6956831557
 30
0.0
 40
15.99654731853696
100
AcDbArc
 50
93.73759847
 51
106.1803156131
  0
LINE
  5
DB
330
1F
100
AcDbEntity
  8
0
  6
Continuous
 62
     7
370
    15
100
AcDbLine
 10
520.2891799547
 20
-158.5162724777
 30
0.0
 11
521.5149541311
 21
-153.0734296365
 31
0.0
  0
ARC
  5
DC
330
1F
100
AcDbEntity
  8
0
  6
Continuous
 62
     7
370
    15
100
AcDbCircle
 10
522.4904675864
 20
-153.2930955994
 30
0.0
 40
0.9999398165081758
100
AcDbArc
 50
106.1810350405
 51
167.309809371
  0
ARC
  5
DD
330
1F
100
AcDbEntity
  8
0
  6
Continuous
 62
     7
370
    15
100
AcDbCircle
 10
510.5334854482
 20
-156.3193530458
 30
0.0
 40
10.00000151476158
100
AcDbArc
 50
302.310692737
 51
347.3090619679
  0
LINE
  5
DE
330
1F
100
AcDbEntity
  8
0
  6
Continuous
 62
     7
370
    15
100
AcDbLine
 10
511.1635710039
 20
-167.7528019472
 30
0.0
 11
515.8785871156
 21
-164.7709752841
 31
0.0
  0
ARC
  5
DF
330
1F
100
AcDbEntity
  8
0
  6
Continuous
 62
     7
370
    15
100
AcDbCircle
 10
526.6731157915
 20
-167.6990930691
 30
0.0
 40
16.00199621731332
100
AcDbArc
 50
183.4351516029
 51
195.8749355398
  0
ARC
  5
E0
330
1F
100
AcDbEntity
  8
0
  6
Continuous
 62
     7
370
    15
100
AcDbCircle
 10
511.6981019729
 20
-168.5979842116
 30
0.0
 40
1.000028208053577
100
AcDbArc
 50
122.3110863157
 51
183.4356500294
  0
SPLINE
  5
E1
330
1F
100
AcDbEntity
  8
0
  6
Continuous
 62
     7
370
    15
100
AcDbSpline
210
0.0
220
0.0
230
1.0
 70
     8
 71
     3
 72
    10
 73
     6
 74
     0
 42
0.00000001
 43
0.00000001
 12
1.0
 22
0.0
 32
0.0
 13
1.0
 23
0.0
 33
0.0
 40
0.0
 40
0.0
 40
0.0
 40
0.0
 40
0.4133758766498371
 40
0.7236148046414433
 40
1.0
 40
1.0
 40
1.0
 40
1.0
 10
519.9235259481075
 20
-153.2391454501627
 30
0.0
 10
520.251983145714
 20
-153.0911315798995
 30
0.0
 10
520.8269477343719
 20
-152.8320331809247
 30
0.0
 10
521.5845325710835
 20
-152.5570211613458
 30
0.0
 10
521.8817744252154
 20
-152.4615110736776
 30
0.0
 10
522.0218185261192
 20
-152.4165119452952
 30
0.0
  0
ARC
  5
E2
330
1F
100
AcDbEntity
  8
0
  6
Continuous
 62
     7
370
    15
100
AcDbCircle
 10
526.7735055525
 20
-167.6986184563
 30
0.0
 40
15.99995563108146
100
AcDbArc
 50
115.3486211107
 51
174.2710768652
  0
SPLINE
  5
E3
330
1F
100
AcDbEntity
  8
0
  6
Continuous
 62
     7
370
    15
100
AcDbSpline
210
0.0
220
0.0
230
1.0
 70
     8
 71
     3
 72
    10
 73
     6
 74
     0
 42
0.00000001
 43
0.00000001
 12
1.0
 22
0.0
 32
0.0
 13
1.0
 23
0.0
 33
0.0
 40
0.0
 40
0.0
 40
0.0
 40
0.0
 40
0.369959192821222
 40
0.7351500517598676
 40
1.0
 40
1.0
 40
1.0
 40
1.0
 10
512.1236807592513
 20
-174.132406286764
 30
0.0
 10
512.028016789165
 20
-173.9070371281445
 30
0.0
 10
511.8379218437626
 20
-173.4592035512553
 30
0.0
 10
511.6258693985679
 20
-172.8776275122629
 30
0.0
 10
511.5392742622832
 20
-172.6178773892303
 30
0.0
 10
511.5028723068835
 20
-172.5086863561152
 30
0.0
  0
ARC
  5
E4
330
1F
100
AcDbEntity
  8
0
  6
Continuous
 62
     7
370
    15
100
AcDbCircle
 10
526.7723340616
 20
-167.7007595259
 30
0.0
 40
15.99841003445282
100
AcDbArc
 50
203.704386165
 51
265.9037709995
  0
SPLINE
  5
E5
330
1F
100
AcDbEntity
  8
0
  6
Continuous
 62
     7
370
    15
100
AcDbSpline
210
0.0
220
0.0
230
1.0
 70
     8
 71
     3
 72
    12
 73
     8
 74
     0
 42
0.00000001
 43
0.00000001
 12
1.0
 22
0.0
 32
0.0
 13
1.0
 23
0.0
 33
0.0
 40
0.0
 40
0.0
 40
0.0
 40
0.0
 40
0.2002147570772085
 40
0.4030765521431769
 40
0.6147435428084331
 40
0.8374316924611978
 40
1.0
 40
1.0
 40
1.0
 40
1.0
 10
527.7852940764578
 20
-183.6651261373041
 30
0.0
 10
527.7648687644546
 20
-183.6667458183023
 30
0.0
 10
527.7237480975323
 20
-183.6700065940904
 30
0.0
 10
527.367322186418
 20
-183.689893791942
 30
0.0
 10
526.8378985657043
 20
-183.7025682374154
 30
0.0
 10
526.2261505732556
 20
-183.6951261084824
 30
0.0
 10
525.8065848360827
 20
-183.6692292240584
 30
0.0
 10
525.6295388955923
 20
-183.6583014054773
 30
0.0
  0
SPLINE
  5
E6
330
1F
100
AcDbEntity
  8
0
  6
Continuous
 62
     7
370
    15
100
AcDbSpline
210
0.0
220
0.0
230
1.0
 70
     8
 71
     3
 72
    12
 73
     8
 74
     0
 42
0.00000001
 43
0.00000001
 12
1.0
 22
0.0
 32
0.0
 13
1.0
 23
0.0
 33
0.0
 40
0.0
 40
0.0
 40
0.0
 40
0.0
 40
0.3010825989940941
 40
0.5270477798948934
 40
0.7493234559404853
 40
0.9379657737402574
 40
1.0
 40
1.0
 40
1.0
 40
1.0
 10
533.6200628355446
 20
-182.1591253800867
 30
0.0
 10
533.2888630658264
 20
-182.307799992727
 30
0.0
 10
532.7090949094637
 20
-182.5680562306514
 30
0.0
 10
531.9369794483011
 20
-182.8439305315112
 30
0.0
 10
531.422783772657
 20
-183.0049559362241
 30
0.0
 10
531.2205916556351
 20
-183.0611480124536
 30
0.0
 10
531.2041984068807
 20
-183.0646394055397
 30
0.0
 10
531.2001416152643
 20
-183.0655034108637
 30
0.0
  0
ARC
  5
E7
330
1F
100
AcDbEntity
  8
0
  6
Continuous
 62
     7
370
    15
100
AcDbCircle
 10
526.7700812897
 20
-167.6996504285
 30
0.0
 40
15.99995822039507
100
AcDbArc
 50
295.3486244112
 51
354.2710707939
  0
ARC
  5
E8
330
1F
100
AcDbEntity
  8
0
  6
Continuous
 62
     7
370
    15
100
AcDbCircle
 10
526.7712632852
 20
-167.6974898465
 30
0.0
 40
15.99838800312291
100
AcDbArc
 50
23.7042785954
 51
85.9037969314
  0
ARC
  5
E9
330
1F
100
AcDbEntity
  8
0
  6
Continuous
 62
     7
370
    15
100
AcDbCircle
 10
526.8360946585
 20
-167.6992427756
 30
0.0
 40
16.00010260445391
100
AcDbArc
 50
279.8113309963
 51
89.9945660178
  0
LWPOLYLINE
  5
EA
330
1F
100
AcDbEntity
  8
0
  6
Continuous
 62
     7
370
    15
100
AcDbPolyline
 90
        3
 70
   128
 43
0.0
 10
526.8376121223
 20
-183.6991305871
 10
527.1825681832
 20
-183.6954052969
 10
529.5625821147
 20
-183.465331368
  0
LINE
  5
EB
330
1F
100
AcDbEntity
  8
0
  6
Continuous
 62
     7
370
    15
100
AcDbLine
 10
537.5333662071
 20
-170.6272955461
 30
0.0
 11
542.2483823188
 21
-167.6454837842
 31
0.0
  0
ARC
  5
EC
330
1F
100
AcDbEntity
  8
0
  6
Continuous
 62
     7
370
    15
100
AcDbCircle
 10
541.1687110383
 20
-163.5956873554
 30
0.0
 40
1.000087893168902
100
AcDbArc
 50
61.0350054221
 51
89.9957736564
  0
ARC
  5
ED
330
1F
100
AcDbEntity
  8
0
  6
Continuous
 62
     7
370
    15
100
AcDbCircle
 10
542.8785145951
 20
-179.0789510933
 30
0.0
 40
10.00005463878142
100
AcDbArc
 50
122.3108169682
 51
167.3089348877
  0
LINE
  5
EE
330
1F
100
AcDbEntity
  8
0
  6
Continuous
 62
     7
370
    15
100
AcDbLine
 10
531.896998493
 20
-182.3248560949
 30
0.0
 11
533.1227731351
 21
-176.8819983526
 31
0.0
  0
ARC
  5
EF
330
1F
100
AcDbEntity
  8
0
  6
Continuous
 62
     7
370
    15
100
AcDbCircle
 10
530.9214598451
 20
-182.1051506451
 30
0.0
 40
0.9999730687390459
100
AcDbArc
 50
317.1500864713
 51
347.3079192462
  0
LINE
  5
F0
330
1F
100
AcDbEntity
  8
0
  6
Continuous
 62
     7
370
    15
100
AcDbLine
 10
525.2395943664
 20
-159.6149201913
 30
0.0
 11
526.7404183671
 21
-152.9507632776
 31
0.0
  0
ARC
  5
F1
330
1F
100
AcDbEntity
  8
0
  6
Continuous
 62
     7
370
    15
100
AcDbCircle
 10
510.6060749621
 20
-156.3195374686
 30
0.0
 40
14.99998124816449
100
AcDbArc
 50
302.3106466982
 51
347.3090298865
  0
LINE
  5
F2
330
1F
100
AcDbEntity
  8
0
  6
Continuous
 62
     7
370
    15
100
AcDbLine
 10
512.850697238
 20
-172.6478632017
 30
0.0
 11
518.6237060391
 21
-168.9969594999
 31
0.0
  0
ARC
  5
F3
330
1F
100
AcDbEntity
  8
0
  6
Continuous
 62
     7
370
    15
100
AcDbCircle
 10
512.3162682779
 20
-171.8028853185
 30
0.0
 40
0.99980094847836
100
AcDbArc
 50
270.001746661
 51
302.3124061763
  0
LINE
  5
F4
330
1F
100
AcDbEntity
  8
0
  6
Continuous
 62
     7
370
    15
100
AcDbLine
 10
561.5444268026
 20
-179.8549588247
 30
0.0
 11
535.0767682232
 21
-189.7197063489
 31
0.0
  0
ARC
  5
F5
330
1F
100
AcDbEntity
  8
0
  6
Continuous
 62
     7
370
    15
100
AcDbCircle
 10
526.8712483473
 20
-167.7037052521
 30
0.0
 40
23.49542212285024
100
AcDbArc
 50
246.1346361292
 51
290.4407816187
  0
LINE
  5
F6
330
1F
100
AcDbEntity
  8
0
  6
Continuous
 62
     7
370
    15
100
AcDbLine
 10
517.3652629294
 20
-189.1902382894
 30
0.0
 11
491.5340068676
 21
-177.7620311304
 31
0.0
  0
ARC
  5
F7
330
1F
100
AcDbEntity
  8
0
  6
Continuous
 62
     7
370
    15
100
AcDbCircle
 10
496.3897177198
 20
-166.7878828563
 30
0.0
 40
12.00041075220685
100
AcDbArc
 50
110.4439628114
 51
246.1321370271
  0
LINE
  5
F8
330
1F
100
AcDbEntity
  8
0
  6
Continuous
 62
     7
370
    15
100
AcDbLine
 10
492.1980808415
 20
-155.5433269067
 30
0.0
 11
518.6657366269
 21
-145.6785793825
 31
0.0
  0
ARC
  5
F9
330
1F
100
AcDbEntity
  8
0
  6
Continuous
 62
     7
370
    15
100
AcDbCircle
 10
526.8712631724
 20
-167.6943573706
 30
0.0
 40
23.49521539192663
100
AcDbArc
 50
66.134430876
 51
110.4409868719
  0
LINE
  5
FA
330
1F
100
AcDbEntity
  8
0
  6
Continuous
 62
     7
370
    15
100
AcDbLine
 10
536.3772419207
 20
-146.208047442
 30
0.0
 11
562.2084970512
 21
-157.6362396999
 31
0.0
  0
ARC
  5
FB
330
1F
100
AcDbEntity
  8
0
  6
Continuous
 62
     7
370
    15
100
AcDbCircle
 10
557.3527767199
 20
-168.6103959347
 30
0.0
 40
12.00042186767172
100
AcDbArc
 50
290.4440103102
 51
66.1321110189
  0
ARC
  5
FC
330
1F
100
AcDbEntity
  8
0
  6
Continuous
 62
     7
370
    15
100
AcDbCircle
 10
557.3995773452
 20
-168.6103951147
 30
0.0
 40
12.00042270473598
100
AcDbArc
 50
290.4440098226
 51
66.1320923107
  0
LINE
  5
FD
330
1F
100
AcDbEntity
  8
0
  6
Continuous
 62
     7
370
    15
100
AcDbLine
 10
562.2553015985
 20
-157.6362396999
 30
0.0
 11
536.4240455367
 21
-146.208047442
 31
0.0
  0
LINE
  5
FE
330
1F
100
AcDbEntity
  8
0
  6
Continuous
 62
     7
370
    15
100
AcDbLine
 10
535.1235718392
 20
-189.7197063489
 30
0.0
 11
561.5912276246
 21
-179.8549588247
 31
0.0
  0
ARC
  5
FF
330
1F
100
AcDbEntity
  8
0
  6
Continuous
 62
     7
370
    15
100
AcDbCircle
 10
526.9179779418
 20
-167.6946668615
 30
0.0
 40
23.4955343671426
100
AcDbArc
 50
66.1345380947
 51
89.9998089808
  0
ARC
  5
100
330
1F
100
AcDbEntity
  8
0
  6
Continuous
 62
     7
370
    15
100
AcDbCircle
 10
526.9177202306
 20
-167.7022760695
 30
0.0
 40
23.49687716978486
100
AcDbArc
 50
270.0008194222
 51
290.4403225048
  0
LINE
  5
101
330
1F
100
AcDbEntity
  8
0
  6
Continuous
 62
     7
370
    15
100
AcDbLine
 10
356.447250668
 20
-156.5848137661
 30
0.0
 11
356.8299273886
 21
-145.9335978551
 31
0.0
  0
ARC
  5
102
330
1F
100
AcDbEntity
  8
0
  6
Continuous
 62
     7
370
    15
100
AcDbCircle
 10
365.9179347331
 20
-145.7405593558
 30
0.0
 40
9.090057280135973
100
AcDbArc
 50
170.2370157832
 51
181.216837523
  0
ARC
  5
103
330
1F
100
AcDbEntity
  8
0
  6
Continuous
 62
     7
370
    15
100
AcDbCircle
 10
365.9186952999
 20
-189.6576695477
 30
0.0
 40
9.090816468872646
100
AcDbArc
 50
178.7836223563
 51
189.7625243375
  0
LINE
  5
104
330
1F
100
AcDbEntity
  8
0
  6
Continuous
 62
     7
370
    15
100
AcDbLine
 10
356.8299273886
 20
-189.4646878763
 30
0.0
 11
356.447250668
 21
-178.8134570642
 31
0.0
  0
LWPOLYLINE
  5
105
330
1F
100
AcDbEntity
  8
0
  6
Continuous
 62
     7
370
    15
100
AcDbPolyline
 90
       14
 70
   128
 43
0.0
 10
356.447250668
 20
-178.8134570642
 10
356.4188937582
 20
-177.8097744508
 10
356.3936660923
 20
-176.4714415594
 10
356.3724021353
 20
-174.8427446409
 10
356.3558022417
 20
-172.9776258989
 10
356.3444326558
 20
-170.9377761407
 10
356.338636104
 20
-168.790727429
 10
356.338636104
 20
-166.6075583025
 10
356.3444326558
 20
-164.4605095907
 10
356.3558022417
 20
-162.4206598325
 10
356.3724021353
 20
-160.5555261894
 10
356.3936660923
 20
-158.926844172
 10
356.4188937582
 20
-157.5885112806
 10
356.447250668
 20
-156.5848137661
  0
LWPOLYLINE
  5
106
330
1F
100
AcDbEntity
  8
0
  6
Continuous
 62
     7
370
    15
100
AcDbPolyline
 90
       14
 70
   128
 43
0.0
 10
348.4480987229
 20
-156.5848137661
 10
348.4197418131
 20
-157.5885112806
 10
348.3945141472
 20
-158.926844172
 10
348.3732501902
 20
-160.5555261894
 10
348.3566651978
 20
-162.4206598325
 10
348.3452807106
 20
-164.4605095907
 10
348.3394990601
 20
-166.6075583025
 10
348.3394990601
 20
-168.790727429
 10
348.3452807106
 20
-170.9377761407
 10
348.3566651978
 20
-172.9776258989
 10
348.3732501902
 20
-174.8427446409
 10
348.3945141472
 20
-176.4714415594
 10
348.4197418131
 20
-177.8097744508
 10
348.4480987229
 20
-178.8134570642
  0
LINE
  5
107
330
1F
100
AcDbEntity
  8
0
  6
Continuous
 62
     7
370
    15
100
AcDbLine
 10
348.4480987229
 20
-178.8134570642
 30
0.0
 11
348.8307903447
 21
-189.4646878763
 31
0.0
  0
LINE
  5
108
330
1F
100
AcDbEntity
  8
0
  6
Continuous
 62
     7
370
    15
100
AcDbLine
 10
348.8307903447
 20
-145.9335978551
 30
0.0
 11
348.4480987229
 21
-156.5848137661
 31
0.0
  0
ARC
  5
109
330
1F
100
AcDbEntity
  8
0
  6
Continuous
 62
     7
370
    15
100
AcDbCircle
 10
606.6553531979
 20
-162.9102150098
 30
0.0
 40
270.991853350813
100
AcDbArc
 50
177.3115132502
 51
181.0125752293
  0
ARC
  5
10A
330
1F
100
AcDbEntity
  8
0
  6
Continuous
 62
     7
370
    15
100
AcDbCircle
 10
663.3712264235
 20
-171.6585369966
 30
0.0
 40
327.6893297540586
100
AcDbArc
 50
179.3076915456
 51
182.368219975
  0
ARC
  5
10B
330
1F
100
AcDbEntity
  8
0
  6
Continuous
 62
     7
370
    15
100
AcDbCircle
 10
357.9195582559
 20
-189.6576695477
 30
0.0
 40
9.090816468872646
100
AcDbArc
 50
178.7836223563
 51
189.7625243375
  0
ARC
  5
10C
330
1F
100
AcDbEntity
  8
0
  6
Continuous
 62
     7
370
    15
100
AcDbCircle
 10
357.9187976892
 20
-145.7405593558
 30
0.0
 40
9.090057280135978
100
AcDbArc
 50
170.2370157832
 51
181.216837523
  0
LWPOLYLINE
  5
10D
330
1F
100
AcDbEntity
  8
0
  6
Continuous
 62
     7
370
    15
100
AcDbPolyline
 90
       14
 70
   128
 43
0.0
 10
701.4103392996
 20
-156.5848137661
 10
701.3819823899
 20
-157.5885112806
 10
701.356754724
 20
-158.926844172
 10
701.3354907669
 20
-160.5555261894
 10
701.3189057745
 20
-162.4206598325
 10
701.3075212874
 20
-164.4605095907
 10
701.3017396368
 20
-166.6075583025
 10
701.3017396368
 20
-168.790727429
 10
701.3075212874
 20
-170.9377761407
 10
701.3189057745
 20
-172.9776258989
 10
701.3354907669
 20
-174.8427446409
 10
701.356754724
 20
-176.4714415594
 10
701.3819823899
 20
-177.8097744508
 10
701.4103392996
 20
-178.8134570642
  0
LWPOLYLINE
  5
10E
330
1F
100
AcDbEntity
  8
0
  6
Continuous
 62
     7
370
    15
100
AcDbPolyline
 90
       14
 70
   128
 43
0.0
 10
709.4094912447
 20
-178.8134570642
 10
709.381134335
 20
-177.8097744508
 10
709.3559066691
 20
-176.4714415594
 10
709.3346427121
 20
-174.8427446409
 10
709.3180428185
 20
-172.9776258989
 10
709.3066732325
 20
-170.9377761407
 10
709.3008766808
 20
-168.790727429
 10
709.3008766808
 20
-166.6075583025
 10
709.3066732325
 20
-164.4605095907
 10
709.3180428185
 20
-162.4206598325
 10
709.3346427121
 20
-160.5555261894
 10
709.3559066691
 20
-158.926844172
 10
709.381134335
 20
-157.5885112806
 10
709.4094912447
 20
-156.5848137661
  0
LINE
  5
10F
330
1F
100
AcDbEntity
  8
0
  6
Continuous
 62
     7
370
    15
100
AcDbLine
 10
710.204617206
 20
-185.1991410776
 30
0.0
 11
710.0513587632
 21
-189.4646878763
 31
0.0
  0
LWPOLYLINE
  5
110
330
1F
100
AcDbEntity
  8
0
  6
Continuous
 62
     7
370
    15
100
AcDbPolyline
 90
        9
 70
   128
 43
0.0
 10
710.0513587632
 20
-189.4646878763
 10
710.0200365223
 20
-190.2181501909
 10
709.9877904095
 20
-190.761446528
 10
709.9549333491
 20
-191.0894508882
 10
709.9217633643
 20
-191.1991532369
 10
709.8885933794
 20
-191.0894508882
 10
709.855736319
 20
-190.761446528
 10
709.8234902062
 20
-190.2181501909
 10
709.7921679654
 20
-189.4646878763
  0
LINE
  5
111
330
1F
100
AcDbEntity
  8
0
  6
Continuous
 62
     7
370
    15
100
AcDbLine
 10
709.7921679654
 20
-189.4646878763
 30
0.0
 11
709.4094912447
 21
-178.8134570642
 31
0.0
  0
LINE
  5
112
330
1F
100
AcDbEntity
  8
0
  6
Continuous
 62
     7
370
    15
100
AcDbLine
 10
709.4094912447
 20
-156.5848137661
 30
0.0
 11
709.7921679654
 21
-145.9335978551
 31
0.0
  0
LWPOLYLINE
  5
113
330
1F
100
AcDbEntity
  8
0
  6
Continuous
 62
     7
370
    15
100
AcDbPolyline
 90
        9
 70
   128
 43
0.0
 10
709.7921679654
 20
-145.9335978551
 10
709.8234902062
 20
-145.1801057382
 10
709.855736319
 20
-144.6368243022
 10
709.8885933794
 20
-144.308819942
 10
709.9217633643
 20
-144.1991324945
 10
709.9549333491
 20
-144.308819942
 10
709.9877904095
 20
-144.6368243022
 10
710.0200365223
 20
-145.1801057382
 10
710.0513587632
 20
-145.9335978551
  0
LINE
  5
114
330
1F
100
AcDbEntity
  8
0
  6
Continuous
 62
     7
370
    15
100
AcDbLine
 10
710.0513587632
 20
-145.9335978551
 30
0.0
 11
710.204617206
 21
-150.1991446538
 31
0.0
  0
LWPOLYLINE
  5
115
330
1F
100
AcDbEntity
  8
0
  6
Continuous
 62
     7
370
    15
100
AcDbPolyline
 90
       24
 70
   128
 43
0.0
 10
709.3769471087
 20
-167.6991428657
 10
709.3795101084
 20
-166.4175982996
 10
709.387050096
 20
-165.2311082407
 10
709.3990008273
 20
-164.2276640459
 10
709.4144533314
 20
-163.4816821142
 10
709.4322751202
 20
-163.0484904571
 10
709.4511548914
 20
-162.9602159782
 10
709.4696770348
 20
-163.2234002872
 10
709.4864855446
 20
-163.8185377641
 10
709.5003138222
 20
-164.7014762683
 10
709.5101336874
 20
-165.8067400976
 10
709.5152447857
 20
-167.0523430629
 10
709.5152447857
 20
-168.3459277673
 10
709.5101336874
 20
-169.5915456338
 10
709.5003138222
 20
-170.6967945619
 10
709.4864855446
 20
-171.5797479673
 10
709.4696770348
 20
-172.1748705431
 10
709.4511548914
 20
-172.4380548521
 10
709.4322751202
 20
-172.3497803731
 10
709.4144533314
 20
-171.9166036172
 10
709.3990008273
 20
-171.1706216856
 10
709.387050096
 20
-170.1671476884
 10
709.3795101084
 20
-168.9806725307
 10
709.3769471087
 20
-167.6991428657
  0
ARC
  5
116
330
1F
100
AcDbEntity
  8
0
  6
Continuous
 62
     7
370
    15
100
AcDbCircle
 10
1170.4288762439
 20
-167.6991428657
 30
0.0
 40
460.8395067158943
100
AcDbArc
 50
177.8237170128
 51
182.1762829872
  0
LINE
  5
117
330
1F
100
AcDbEntity
  8
0
  6
Continuous
 62
     7
370
    15
100
AcDbLine
 10
701.7930309214
 20
-145.9335978551
 30
0.0
 11
701.4103392996
 21
-156.5848137661
 31
0.0
  0
LINE
  5
118
330
1F
100
AcDbEntity
  8
0
  6
Continuous
 62
     7
370
    15
100
AcDbLine
 10
701.4103392996
 20
-178.8134570642
 30
0.0
 11
701.7930309214
 21
-189.4646878763
 31
0.0
  0
LWPOLYLINE
  5
119
330
1F
100
AcDbEntity
  8
0
  6
Continuous
 62
     7
370
    15
100
AcDbPolyline
 90
       45
 70
   128
 43
0.0
 10
723.176331345
 20
-167.6991428657
 10
723.1737236418
 20
-165.2086223884
 10
723.1659601368
 20
-162.7688254638
 10
723.1532047428
 20
-160.4293729587
 10
723.1356958784
 20
-158.2379187866
 10
723.1138209738
 20
-156.239077024
 10
723.0879972615
 20
-154.4735278411
 10
723.0587611832
 20
-152.9771979375
 10
723.0267087855
 20
-151.780575089
 10
722.9924808182
 20
-150.908007793
 10
722.9568074383
 20
-150.3772582336
 10
722.9203740992
 20
-150.1991446538
 10
722.8839556612
 20
-150.3772582336
 10
722.8482673802
 20
-150.908007793
 10
722.8140543141
 20
-151.780575089
 10
722.7820019163
 20
-152.9771979375
 10
722.7527658381
 20
-154.4735278411
 10
722.7269421257
 20
-156.239077024
 10
722.7050523199
 20
-158.2379187866
 10
722.6875434555
 20
-160.4293729587
 10
722.6747880616
 20
-162.7688254638
 10
722.6670245566
 20
-165.2086223884
 10
722.6644168534
 20
-167.6991428657
 10
722.6670245566
 20
-170.1896484418
 10
722.6747880616
 20
-172.6294453664
 10
722.6875434555
 20
-174.9688978715
 10
722.7050523199
 20
-177.1603520437
 10
722.7269421257
 20
-179.1591938062
 10
722.7527658381
 20
-180.9247429891
 10
722.7820019163
 20
-182.4210877939
 10
722.8140543141
 20
-183.6177106424
 10
722.8482673802
 20
-184.4902630373
 10
722.8839556612
 20
-185.0210125967
 10
722.9203740992
 20
-185.1991410776
 10
722.9568074383
 20
-185.0210125967
 10
722.9924808182
 20
-184.4902630373
 10
723.0267087855
 20
-183.6177106424
 10
723.0587611832
 20
-182.4210877939
 10
723.0879972615
 20
-180.9247429891
 10
723.1138209738
 20
-179.1591938062
 10
723.1356958784
 20
-177.1603520437
 10
723.1532047428
 20
-174.9688978715
 10
723.1659601368
 20
-172.6294453664
 10
723.1737236418
 20
-170.1896484418
 10
723.176331345
 20
-167.6991428657
  0
LWPOLYLINE
  5
11A
330
1F
100
AcDbEntity
  8
0
  6
Continuous
 62
     7
370
    15
100
AcDbPolyline
 90
       44
 70
   128
 43
0.0
 10
723.1711457409
 20
-167.6991428657
 10
723.1684784331
 20
-170.1955493017
 10
723.160521213
 20
-172.638743691
 10
723.1474379935
 20
-174.9766464754
 10
723.1295267977
 20
-177.159457974
 10
723.1071452536
 20
-179.1406567617
 10
723.0807850994
 20
-180.8779831453
 10
723.0510125794
 20
-182.3344226404
 10
723.0184535422
 20
-183.478921227
 10
722.9838083424
 20
-184.2871304079
 10
722.947807137
 20
-184.7417946382
 10
722.9112247862
 20
-184.833198361
 10
722.8748212494
 20
-184.5594342275
 10
722.8394011893
 20
-183.9263136907
 10
722.8057096638
 20
-182.9473670049
 10
722.7744619288
 20
-181.6433961912
 10
722.7463136353
 20
-180.0422366186
 10
722.7218906321
 20
-178.1780119462
 10
722.7016846575
 20
-176.09044867
 10
722.6861427464
 20
-173.824041657
 10
722.6756076254
 20
-171.427100472
 10
722.6702730097
 20
-168.9506764932
 10
722.6702730097
 20
-166.447594337
 10
722.6756076254
 20
-163.9711852594
 10
722.6861427464
 20
-161.5742291732
 10
722.7016846575
 20
-159.3078221603
 10
722.7218906321
 20
-157.220258884
 10
722.7463136353
 20
-155.3560342117
 10
722.7744619288
 20
-153.7548746391
 10
722.8057096638
 20
-152.4509187265
 10
722.8394011893
 20
-151.4719571395
 10
722.8748212494
 20
-150.8388366027
 10
722.9112247862
 20
-150.5650724693
 10
722.947807137
 20
-150.6564910932
 10
722.9838083424
 20
-151.1111404224
 10
723.0184535422
 20
-151.9193496032
 10
723.0510125794
 20
-153.063863091
 10
723.0807850994
 20
-154.5203025861
 10
723.1071452536
 20
-156.2576289697
 10
723.1295267977
 20
-158.2387979551
 10
723.1474379935
 20
-160.4216094537
 10
723.160521213
 20
-162.7595420404
 10
723.1684784331
 20
-165.2027364297
 10
723.1711457409
 20
-167.6991428657
  0
ARC
  5
11B
330
1F
100
AcDbEntity
  8
0
  6
Continuous
 62
     7
370
    15
100
AcDbCircle
 10
710.8817988327
 20
-189.6576695477
 30
0.0
 40
9.090816468872646
100
AcDbArc
 50
178.7836223563
 51
189.7625243375
  0
ARC
  5
11C
330
1F
100
AcDbEntity
  8
0
  6
Continuous
 62
     7
370
    15
100
AcDbCircle
 10
710.8810382659
 20
-145.7405593558
 30
0.0
 40
9.090057280135978
100
AcDbArc
 50
170.2370157832
 51
181.216837523
  0
LINE
  5
11D
330
1F
100
AcDbEntity
  8
0
  6
Continuous
 62
     7
370
    15
100
AcDbLine
 10
358.3742688336
 20
-160.3676970525
 30
0.0
 11
356.3744733967
 21
-160.3676970525
 31
0.0
  0
LINE
  5
11E
330
1F
100
AcDbEntity
  8
0
  6
Continuous
 62
     7
370
    15
100
AcDbLine
 10
358.3742688336
 20
-160.3676970525
 30
0.0
 11
358.3742688336
 21
-175.0305886789
 31
0.0
  0
LINE
  5
11F
330
1F
100
AcDbEntity
  8
0
  6
Continuous
 62
     7
370
    15
100
AcDbLine
 10
358.3742688336
 20
-175.0305886789
 30
0.0
 11
356.3744733967
 21
-175.0305886789
 31
0.0
  0
LINE
  5
120
330
1F
100
AcDbEntity
  8
0
  6
Continuous
 62
     7
370
    15
100
AcDbLine
 10
356.3744733967
 20
-160.3676970525
 30
0.0
 11
356.3744733967
 21
-175.0305886789
 31
0.0
  0
ARC
  5
121
330
1F
100
AcDbEntity
  8
0
  6
Continuous
 62
     7
370
    15
100
AcDbCircle
 10
532.3025678498
 20
-161.8210025575
 30
0.0
 40
173.9343706561716
100
AcDbArc
 50
178.2748846516
 51
179.5212605745
  0
ARC
  5
122
330
1F
100
AcDbEntity
  8
0
  6
Continuous
 62
     7
370
    15
100
AcDbCircle
 10
530.2268776698
 20
-161.8202272856
 30
0.0
 40
173.8584720846696
100
AcDbArc
 50
178.2743869282
 51
179.5213070771
  0
LWPOLYLINE
  5
123
330
1F
100
AcDbEntity
  8
0
  6
Continuous
 62
     7
370
    15
100
AcDbPolyline
 90
       19
 70
   128
 43
0.0
 10
358.5336963572
 20
-163.6991347595
 10
358.5223565735
 20
-163.1525005622
 10
358.5038344302
 20
-162.6280243917
 10
358.4839562811
 20
-162.4491359516
 10
358.4640930333
 20
-162.6280243917
 10
358.4455708899
 20
-163.1525005622
 10
358.4296713509
 20
-163.9868314786
 10
358.4174672999
 20
-165.0741394086
 10
358.4097932019
 20
-166.3403357788
 10
358.4071705975
 20
-167.6991428657
 10
358.4097932019
 20
-169.0579350515
 10
358.4174672999
 20
-170.3241463228
 10
358.4296713509
 20
-171.4114542528
 10
358.4455708899
 20
-172.245770268
 10
358.4640930333
 20
-172.7702613397
 10
358.4839562811
 20
-172.9491348787
 10
358.5038344302
 20
-172.7702613397
 10
358.5223565735
 20
-172.245770268
 10
358.5336963572
 20
-171.6991360708
  0
ARC
  5
124
330
1F
100
AcDbEntity
  8
0
  6
Continuous
 62
     7
370
    15
100
AcDbCircle
 10
551.1509847537
 20
-162.1689269177
 30
0.0
 40
192.3939852804316
100
AcDbArc
 50
177.493431935
 51
180.455707466
  0
ARC
  5
125
330
1F
100
AcDbEntity
  8
0
  6
Continuous
 62
     7
370
    15
100
AcDbCircle
 10
551.1517341837
 20
-173.2293304985
 30
0.0
 40
192.3947345800137
100
AcDbArc
 50
179.5442983038
 51
182.5065622953
  0
LINE
  5
126
330
1F
100
AcDbEntity
  8
0
  6
Continuous
 62
     7
370
    15
100
AcDbLine
 10
358.8297079243
 20
-145.9335978551
 30
0.0
 11
358.4470312037
 21
-156.5848137661
 31
0.0
  0
LWPOLYLINE
  5
127
330
1F
100
AcDbEntity
  8
0
  6
Continuous
 62
     7
370
    15
100
AcDbPolyline
 90
        9
 70
   128
 43
0.0
 10
359.0889136233
 20
-145.9335978551
 10
359.0575913824
 20
-145.1801057382
 10
359.0253452696
 20
-144.6368243022
 10
358.9924882092
 20
-144.308819942
 10
358.9593182244
 20
-144.1991324945
 10
358.9261482396
 20
-144.308819942
 10
358.8932911791
 20
-144.6368243022
 10
358.8610450663
 20
-145.1801057382
 10
358.8297079243
 20
-145.9335978551
  0
LINE
  5
128
330
1F
100
AcDbEntity
  8
0
  6
Continuous
 62
     7
370
    15
100
AcDbLine
 10
359.1801683344
 20
-148.4737391992
 30
0.0
 11
359.0889136233
 21
-145.9335978551
 31
0.0
  0
LINE
  5
129
330
1F
100
AcDbEntity
  8
0
  6
Continuous
 62
     7
370
    15
100
AcDbLine
 10
359.0889136233
 20
-189.4646878763
 30
0.0
 11
359.1801683344
 21
-186.9245465322
 31
0.0
  0
LWPOLYLINE
  5
12A
330
1F
100
AcDbEntity
  8
0
  6
Continuous
 62
     7
370
    15
100
AcDbPolyline
 90
        9
 70
   128
 43
0.0
 10
358.8297079243
 20
-189.4646878763
 10
358.8610450663
 20
-190.2181501909
 10
358.8932911791
 20
-190.761446528
 10
358.9261482396
 20
-191.0894508882
 10
358.9593182244
 20
-191.1991532369
 10
358.9924882092
 20
-191.0894508882
 10
359.0253452696
 20
-190.761446528
 10
359.0575913824
 20
-190.2181501909
 10
359.0889136233
 20
-189.4646878763
  0
LINE
  5
12B
330
1F
100
AcDbEntity
  8
0
  6
Continuous
 62
     7
370
    15
100
AcDbLine
 10
358.4470312037
 20
-178.8134570642
 30
0.0
 11
358.8297079243
 21
-189.4646878763
 31
0.0
  0
ARC
  5
12C
330
1F
100
AcDbEntity
  8
0
  6
Continuous
 62
     7
370
    15
100
AcDbCircle
 10
532.3020844042
 20
-173.577271847
 30
0.0
 40
173.9338873220722
100
AcDbArc
 50
180.4787444873
 51
181.7251189658
  0
ARC
  5
12D
330
1F
100
AcDbEntity
  8
0
  6
Continuous
 62
     7
370
    15
100
AcDbCircle
 10
530.2263951
 20
-173.5780471069
 30
0.0
 40
173.8579896264306
100
AcDbArc
 50
180.4786979883
 51
181.7256166874
  0
LINE
  5
12E
330
1F
100
AcDbEntity
  8
0
  6
Continuous
 62
     7
370
    15
100
AcDbLine
 10
355.6410680451
 20
28.5008628444
 30
0.0
 11
703.2410810627
 21
28.5008628444
 31
0.0
  0
LINE
  5
12F
330
1F
100
AcDbEntity
  8
0
  6
Continuous
 62
     7
370
    15
100
AcDbLine
 10
703.0410776772
 20
28.3008631842
 30
0.0
 11
355.8410714306
 21
28.3008631842
 31
0.0
  0
LINE
  5
130
330
1F
100
AcDbEntity
  8
0
  6
Continuous
 62
     7
370
    15
100
AcDbLine
 10
441.0527284183
 20
-241.1991353555
 30
0.0
 11
617.8294206895
 21
-241.1991353555
 31
0.0
  0
LINE
  5
131
330
1F
100
AcDbEntity
  8
0
  6
Continuous
 62
     7
370
    15
100
AcDbLine
 10
441.0527284183
 20
-243.1991394086
 30
0.0
 11
617.8294206895
 21
-243.1991394086
 31
0.0
  0
SPLINE
  5
132
330
1F
100
AcDbEntity
  8
0
  6
Continuous
 62
     7
370
    15
100
AcDbSpline
210
0.0
220
0.0
230
1.0
 70
    24
 71
     3
 72
    13
 73
     9
 74
     0
 42
0.00000001
 43
0.00000001
 12
1.0
 22
0.0
 32
0.0
 13
1.0
 23
0.0
 33
0.0
 40
0.0
 40
0.0
 40
0.0
 40
0.0
 40
0.1163831778228673
 40
0.3491371433359481
 40
0.5825794320610629
 40
0.7909414895254109
 40
0.8954894061196542
 40
1.0
 40
1.0
 40
1.0
 40
1.0
 10
503.7105056383015
 20
-218.6991270108698
 30
0.0
 10
505.6965939751252
 20
-218.6991270108697
 30
0.0
 10
511.6546475469809
 20
-218.6991270108698
 30
0.0
 10
521.6717885017558
 20
-218.6991270108697
 30
0.0
 10
533.2716543738867
 20
-218.6991270108697
 30
0.0
 10
542.6614803880044
 20
-218.6991270108697
 30
0.0
 10
549.8241406640232
 20
-218.6991270108699
 30
0.0
 10
553.3893546973832
 20
-218.6991270108698
 30
0.0
 10
555.1716434695127
 20
-218.6991270108698
 30
0.0
  0
LINE
  5
133
330
1F
100
AcDbEntity
  8
0
  6
Continuous
 62
     7
370
    15
100
AcDbLine
 10
447.4051753916
 20
-218.6991270109
 30
0.0
 11
503.7105056383
 21
-218.6991270109
 31
0.0
  0
LINE
  5
134
330
1F
100
AcDbEntity
  8
0
  6
Continuous
 62
     7
370
    15
100
AcDbLine
 10
555.1716434695
 20
-218.6991270109
 30
0.0
 11
611.4769737162
 21
-218.6991270109
 31
0.0
  0
LINE
  5
135
330
1F
100
AcDbEntity
  8
0
  6
Continuous
 62
     7
370
    15
100
AcDbLine
 10
360.3052954115
 20
-241.1991353555
 30
0.0
 11
441.0527284183
 21
-241.1991353555
 31
0.0
  0
LINE
  5
136
330
1F
100
AcDbEntity
  8
0
  6
Continuous
 62
     7
370
    15
100
AcDbLine
 10
360.3052954115
 20
-243.1991394086
 30
0.0
 11
441.0527284183
 21
-243.1991394086
 31
0.0
  0
LINE
  5
137
330
1F
100
AcDbEntity
  8
0
  6
Continuous
 62
     7
370
    15
100
AcDbLine
 10
617.8294206895
 20
-241.1991353555
 30
0.0
 11
698.5768536963
 21
-241.1991353555
 31
0.0
  0
LINE
  5
138
330
1F
100
AcDbEntity
  8
0
  6
Continuous
 62
     7
370
    15
100
AcDbLine
 10
617.8294206895
 20
-243.1991394086
 30
0.0
 11
698.5768536963
 21
-243.1991394086
 31
0.0
  0
LINE
  5
139
330
1F
100
AcDbEntity
  8
0
  6
Continuous
 62
     7
370
    15
100
AcDbLine
 10
442.0249993839
 20
-228.9991374536
 30
0.0
 11
447.5929747261
 21
-228.9991374536
 31
0.0
  0
LINE
  5
13A
330
1F
100
AcDbEntity
  8
0
  6
Continuous
 62
     7
370
    15
100
AcDbLine
 10
611.2891743817
 20
-228.9991374536
 30
0.0
 11
616.8571497239
 21
-228.9991374536
 31
0.0
  0
LINE
  5
13B
330
1F
100
AcDbEntity
  8
0
  6
Continuous
 62
     7
370
    15
100
AcDbLine
 10
365.718678657
 20
-228.9991374536
 30
0.0
 11
442.0249993839
 21
-228.9991374536
 31
0.0
  0
LINE
  5
13C
330
1F
100
AcDbEntity
  8
0
  6
Continuous
 62
     7
370
    15
100
AcDbLine
 10
616.8571497239
 20
-228.9991374536
 30
0.0
 11
693.1634704508
 21
-228.9991374536
 31
0.0
  0
LINE
  5
13D
330
1F
100
AcDbEntity
  8
0
  6
Continuous
 62
     7
370
    15
100
AcDbLine
 10
440.4668222107
 20
-218.6991270109
 30
0.0
 11
447.4051753916
 21
-218.6991270109
 31
0.0
  0
SPLINE
  5
13E
330
1F
100
AcDbEntity
  8
0
  6
Continuous
 62
     7
370
    15
100
AcDbSpline
210
0.0
220
0.0
230
1.0
 70
     8
 71
     3
 72
    11
 73
     7
 74
     0
 42
0.00000001
 43
0.00000001
 12
1.0
 22
0.0
 32
0.0
 13
1.0
 23
0.0
 33
0.0
 40
0.0
 40
0.0
 40
0.0
 40
0.0
 40
0.348683207609874
 40
0.6589511473904569
 40
0.846582280770051
 40
1.0
 40
1.0
 40
1.0
 40
1.0
 10
611.4769737161996
 20
-218.6991270108698
 30
0.0
 10
611.5856401131574
 20
-218.7009053389492
 30
0.0
 10
611.7910008686952
 20
-218.7042660724253
 30
0.0
 10
612.0623618536164
 20
-218.7360677377339
 30
0.0
 10
612.2625614249504
 20
-218.7792975864811
 30
0.0
 10
612.3525907735565
 20
-218.8117532435132
 30
0.0
 10
612.3930896558168
 20
-218.8263531251429
 30
0.0
  0
LINE
  5
13F
330
1F
100
AcDbEntity
  8
0
  6
Continuous
 62
     7
370
    15
100
AcDbLine
 10
611.4769737162
 20
-218.6991270109
 30
0.0
 11
618.4153268971
 21
-218.6991270109
 31
0.0
  0
LINE
  5
140
330
1F
100
AcDbEntity
  8
0
  6
Continuous
 62
     7
370
    15
100
AcDbLine
 10
377.9026131071
 20
-218.6991270109
 30
0.0
 11
384.5839659609
 21
-218.6991270109
 31
0.0
  0
LINE
  5
141
330
1F
100
AcDbEntity
  8
0
  6
Continuous
 62
     7
370
    15
100
AcDbLine
 10
674.2981831469
 20
-218.6991270109
 30
0.0
 11
680.9795360007
 21
-218.6991270109
 31
0.0
  0
LINE
  5
142
330
1F
100
AcDbEntity
  8
0
  6
Continuous
 62
     7
370
    15
100
AcDbLine
 10
352.4307916798
 20
-241.1991353555
 30
0.0
 11
360.3052954115
 21
-241.1991353555
 31
0.0
  0
LINE
  5
143
330
1F
100
AcDbEntity
  8
0
  6
Continuous
 62
     7
370
    15
100
AcDbLine
 10
352.4307916798
 20
-243.1991394086
 30
0.0
 11
360.3052954115
 21
-243.1991394086
 31
0.0
  0
LINE
  5
144
330
1F
100
AcDbEntity
  8
0
  6
Continuous
 62
     7
370
    15
100
AcDbLine
 10
698.5768536963
 20
-241.1991353555
 30
0.0
 11
706.451357428
 21
-241.1991353555
 31
0.0
  0
LINE
  5
145
330
1F
100
AcDbEntity
  8
0
  6
Continuous
 62
     7
370
    15
100
AcDbLine
 10
698.5768536963
 20
-243.1991394086
 30
0.0
 11
706.451357428
 21
-243.1991394086
 31
0.0
  0
LINE
  5
146
330
1F
100
AcDbEntity
  8
0
  6
Continuous
 62
     7
370
    15
100
AcDbLine
 10
364.7514442839
 20
-228.9991374536
 30
0.0
 11
365.718678657
 21
-228.9991374536
 31
0.0
  0
LINE
  5
147
330
1F
100
AcDbEntity
  8
0
  6
Continuous
 62
     7
370
    15
100
AcDbLine
 10
693.1634704508
 20
-228.9991374536
 30
0.0
 11
694.1307048239
 21
-228.9991374536
 31
0.0
  0
LINE
  5
148
330
1F
100
AcDbEntity
  8
0
  6
Continuous
 62
     7
370
    15
100
AcDbLine
 10
359.0540747084
 20
-218.6991270109
 30
0.0
 11
377.9026131071
 21
-218.6991270109
 31
0.0
  0
LINE
  5
149
330
1F
100
AcDbEntity
  8
0
  6
Continuous
 62
     7
370
    15
100
AcDbLine
 10
680.9795360007
 20
-218.6991270109
 30
0.0
 11
699.8280743994
 21
-218.6991270109
 31
0.0
  0
SPLINE
  5
14A
330
1F
100
AcDbEntity
  8
0
  6
Continuous
 62
     7
370
    15
100
AcDbSpline
210
0.0
220
0.0
230
1.0
 70
    24
 71
     3
 72
    10
 73
     6
 74
     0
 42
0.00000001
 43
0.00000001
 12
1.0
 22
0.0
 32
0.0
 13
1.0
 23
0.0
 33
0.0
 40
0.0
 40
0.0
 40
0.0
 40
0.0
 40
0.2327709637010267
 40
0.6982881103471995
 40
1.0
 40
1.0
 40
1.0
 40
1.0
 10
699.8280743994119
 20
-218.6991270108698
 30
0.0
 10
700.075034191743
 20
-218.6991270108698
 30
0.0
 10
700.81588727744
 20
-218.6991270108697
 30
0.0
 10
701.2677668621518
 20
-218.6991270108699
 30
0.0
 10
701.2669526779985
 20
-218.6991270108698
 30
0.0
 10
701.2666325010659
 20
-218.6991270108698
 30
0.0
  0
SPLINE
  5
14B
330
1F
100
AcDbEntity
  8
0
  6
Continuous
 62
     7
370
    15
100
AcDbSpline
210
0.0
220
0.0
230
1.0
 70
    24
 71
     3
 72
    11
 73
     7
 74
     0
 42
0.00000001
 43
0.00000001
 12
1.0
 22
0.0
 32
0.0
 13
1.0
 23
0.0
 33
0.0
 40
0.0
 40
0.0
 40
0.0
 40
0.0
 40
0.1651753907454737
 40
0.5818912561495697
 40
0.7909829500498372
 40
1.0
 40
1.0
 40
1.0
 40
1.0
 10
357.6155166067483
 20
-218.6991270108698
 30
0.0
 10
357.5976327158789
 20
-218.6991270108698
 30
0.0
 10
357.5346301119448
 20
-218.6991270108697
 30
0.0
 10
357.8664132605928
 20
-218.6991270108699
 30
0.0
 10
358.3537745934313
 20
-218.6991270108698
 30
0.0
 10
358.820669121265
 20
-218.6991270108697
 30
0.0
 10
359.0540747084024
 20
-218.6991270108698
 30
0.0
  0
LINE
  5
14C
330
1F
100
AcDbEntity
  8
0
  6
Continuous
 62
     7
370
    15
100
AcDbLine
 10
356.6410700716
 20
31.100862153
 30
0.0
 11
702.2410790362
 21
31.100862153
 31
0.0
  0
LINE
  5
14D
330
1F
100
AcDbEntity
  8
0
  6
Continuous
 62
     7
370
    15
100
AcDbLine
 10
702.2410790362
 20
49.8008620517
 30
0.0
 11
356.6410700716
 21
49.8008620517
 31
0.0
  0
LINE
  5
14E
330
1F
100
AcDbEntity
  8
0
  6
Continuous
 62
     7
370
    15
100
AcDbLine
 10
703.2410810627
 20
52.0508610235
 30
0.0
 11
355.6410680451
 21
52.0508610235
 31
0.0
  0
LINE
  5
14F
330
1F
100
AcDbEntity
  8
0
  6
CENTERX2
 62
     7
370
     0
100
AcDbLine
 10
325.6254961382
 20
-167.699138455
 30
0.0
 11
576.3574258627
 21
-167.699138455
 31
0.0
  0
LINE
  5
150
330
1F
100
AcDbEntity
  8
0
  6
CENTER
 62
     7
370
     0
100
AcDbLine
 10
527.177523644
 20
-259.6528787618
 30
0.0
 11
527.177523644
 21
370.1203332252
 31
0.0
  0
LINE
  5
151
330
1F
100
AcDbEntity
  8
0
  6
CENTERX2
 62
     7
370
     0
100
AcDbLine
 10
527.177523644
 20
150.5197337108
 30
0.0
 11
692.4070938862
 21
150.5197337108
 31
0.0
  0
LINE
  5
152
330
1F
100
AcDbEntity
  8
0
  6
CENTERX2
 62
     7
370
     0
100
AcDbLine
 10
529.4410745539
 20
350.300861545
 30
0.0
 11
527.177523644
 21
350.300861545
 31
0.0
  0
LINE
  5
153
330
1F
100
AcDbEntity
  8
0
  6
Continuous
 62
     7
370
    15
100
AcDbLine
 10
587.1738503613
 20
785.639470844
 30
0.0
 11
580.7775269188
 21
791.0066157862
 31
0.0
  0
LINE
  5
154
330
1F
100
AcDbEntity
  8
0
  6
Continuous
 62
     7
370
    15
100
AcDbLine
 10
478.104622189
 20
791.0066157862
 30
0.0
 11
471.7082987465
 21
785.639470844
 31
0.0
  0
LINE
  5
155
330
1F
100
AcDbEntity
  8
0
  6
Continuous
 62
     7
370
    15
100
AcDbLine
 10
698.7392018475
 20
673.0449408576
 30
0.0
 11
693.3720569052
 21
679.4412643
 31
0.0
  0
LINE
  5
156
330
1F
100
AcDbEntity
  8
0
  6
Continuous
 62
     7
370
    15
100
AcDbLine
 10
365.5100922026
 20
679.4412643
 30
0.0
 11
360.1429472603
 21
673.0449408576
 31
0.0
  0
LINE
  5
157
330
1F
100
AcDbEntity
  8
0
  6
Continuous
 62
     7
370
    15
100
AcDbLine
 10
693.3720569052
 20
563.9757126853
 30
0.0
 11
698.7392018475
 21
570.3720361277
 31
0.0
  0
LINE
  5
158
330
1F
100
AcDbEntity
  8
0
  6
Continuous
 62
     7
370
    15
100
AcDbLine
 10
360.1429472603
 20
570.3720361277
 30
0.0
 11
365.5100922026
 21
563.9757126853
 31
0.0
  0
LINE
  5
159
330
1F
100
AcDbEntity
  8
0
  6
Continuous
 62
     7
370
    15
100
AcDbLine
 10
580.7775269188
 20
452.4103611991
 30
0.0
 11
587.1738503613
 21
457.7775061413
 31
0.0
  0
LINE
  5
15A
330
1F
100
AcDbEntity
  8
0
  6
Continuous
 62
     7
370
    15
100
AcDbLine
 10
471.7082987465
 20
457.7775061413
 30
0.0
 11
478.104622189
 21
452.4103611991
 31
0.0
  0
ARC
  5
15B
330
1F
100
AcDbEntity
  8
0
  6
Continuous
 62
     7
370
    15
100
AcDbCircle
 10
480.0329852567
 20
788.7084884926
 30
0.0
 40
3.000000000000114
100
AcDbArc
 50
90.0
 51
130.0
  0
ARC
  5
15C
330
1F
100
AcDbEntity
  8
0
  6
Continuous
 62
     7
370
    15
100
AcDbCircle
 10
578.8491638511
 20
788.7084884926
 30
0.0
 40
3.000000000000016
100
AcDbArc
 50
50.0
 51
90.0
  0
ARC
  5
15D
330
1F
100
AcDbEntity
  8
0
  6
Continuous
 62
     7
370
    15
100
AcDbCircle
 10
696.4410745539
 20
671.1165777898
 30
0.0
 40
3.000000000000114
100
AcDbArc
 50
0.0
 51
40.0
  0
ARC
  5
15E
330
1F
100
AcDbEntity
  8
0
  6
Continuous
 62
     7
370
    15
100
AcDbCircle
 10
362.4410745539
 20
671.1165777898
 30
0.0
 40
3.0
100
AcDbArc
 50
140.0
 51
180.0
  0
ARC
  5
15F
330
1F
100
AcDbEntity
  8
0
  6
Continuous
 62
     7
370
    15
100
AcDbCircle
 10
362.4410745539
 20
572.3003991954
 30
0.0
 40
3.0
100
AcDbArc
 50
180.0
 51
220.0
  0
ARC
  5
160
330
1F
100
AcDbEntity
  8
0
  6
Continuous
 62
     7
370
    15
100
AcDbCircle
 10
696.4410745539
 20
572.3003991954
 30
0.0
 40
3.000000000000114
100
AcDbArc
 50
320.0
 51
0.0
  0
ARC
  5
161
330
1F
100
AcDbEntity
  8
0
  6
Continuous
 62
     7
370
    15
100
AcDbCircle
 10
578.8491638511
 20
454.7084884926
 30
0.0
 40
3.0
100
AcDbArc
 50
270.0
 51
310.0
  0
ARC
  5
162
330
1F
100
AcDbEntity
  8
0
  6
Continuous
 62
     7
370
    15
100
AcDbCircle
 10
480.0329852567
 20
454.7084884926
 30
0.0
 40
3.0
100
AcDbArc
 50
230.0
 51
270.0
  0
LINE
  5
163
330
1F
100
AcDbEntity
  8
0
  6
Continuous
 62
     7
370
    15
100
AcDbLine
 10
358.4254543223
 20
587.7061583385
 30
0.0
 11
359.0013245978
 21
587.6977354571
 31
0.0
  0
LINE
  5
164
330
1F
100
AcDbEntity
  8
0
  6
Continuous
 62
     7
370
    15
100
AcDbLine
 10
495.4679991044
 20
794.72388926
 30
0.0
 11
495.423887942
 21
791.7084902808
 31
0.0
  0
LINE
  5
165
330
1F
100
AcDbEntity
  8
0
  6
Continuous
 62
     7
370
    15
100
AcDbLine
 10
503.4517451115
 20
793.5543418214
 30
0.0
 11
503.4671417363
 21
794.6068853423
 31
0.0
  0
LINE
  5
166
330
1F
100
AcDbEntity
  8
0
  6
Continuous
 62
     7
370
    15
100
AcDbLine
 10
563.4141500034
 20
448.6930877253
 30
0.0
 11
563.4518275895
 21
451.2687385365
 31
0.0
  0
LINE
  5
167
330
1F
100
AcDbEntity
  8
0
  6
Continuous
 62
     7
370
    15
100
AcDbLine
 10
555.4304039963
 20
449.8626351639
 30
0.0
 11
555.4150073715
 21
448.810091643
 31
0.0
  0
LINE
  5
168
330
1F
100
AcDbEntity
  8
0
  6
Continuous
 62
     7
370
    15
100
AcDbLine
 10
560.4610434659
 20
793.7731951758
 30
0.0
 11
560.4456487038
 21
792.7206367537
 31
0.0
  0
LINE
  5
169
330
1F
100
AcDbEntity
  8
0
  6
Continuous
 62
     7
370
    15
100
AcDbLine
 10
568.4316988029
 20
791.7084902808
 30
0.0
 11
568.4601898231
 21
793.656176357
 31
0.0
  0
LINE
  5
16A
330
1F
100
AcDbEntity
  8
0
  6
Continuous
 62
     7
370
    15
100
AcDbLine
 10
498.4211056419
 20
449.6437818095
 30
0.0
 11
498.4365004041
 21
450.6963402316
 31
0.0
  0
LINE
  5
16B
330
1F
100
AcDbEntity
  8
0
  6
Continuous
 62
     7
370
    15
100
AcDbLine
 10
490.4504503049
 20
451.7084867045
 30
0.0
 11
490.4219592847
 21
449.7608006283
 31
0.0
  0
LINE
  5
16C
330
1F
100
AcDbEntity
  8
0
  6
Continuous
 62
     7
370
    15
100
AcDbLine
 10
489.5154434182
 20
798.0113089368
 30
0.0
 11
489.4686388709
 21
794.8116421982
 31
0.0
  0
LINE
  5
16D
330
1F
100
AcDbEntity
  8
0
  6
Continuous
 62
     7
370
    15
100
AcDbLine
 10
574.4595463313
 20
793.5684234187
 30
0.0
 11
574.5063508787
 21
796.768075256
 31
0.0
  0
LINE
  5
16E
330
1F
100
AcDbEntity
  8
0
  6
Continuous
 62
     7
370
    15
100
AcDbLine
 10
542.7638330423
 20
438.5667354151
 30
0.0
 11
542.8359006457
 21
443.4935063407
 31
0.0
  0
LINE
  5
16F
330
1F
100
AcDbEntity
  8
0
  6
Continuous
 62
     7
370
    15
100
AcDbLine
 10
510.8393235989
 20
443.9615518138
 30
0.0
 11
510.7672559955
 21
439.0347808882
 31
0.0
  0
SPLINE
  5
170
330
1F
100
AcDbEntity
  8
0
  6
Continuous
 62
     7
370
    15
100
AcDbSpline
210
0.0
220
0.0
230
1.0
 70
     8
 71
     3
 72
    13
 73
     9
 74
     0
 42
0.00000001
 43
0.00000001
 12
1.0
 22
0.0
 32
0.0
 13
1.0
 23
0.0
 33
0.0
 40
0.0
 40
0.0
 40
0.0
 40
0.0
 40
0.0172176927278916
 40
0.218413401591893
 40
0.4332249767267529
 40
0.6637567499706685
 40
0.8992012774062811
 40
1.0
 40
1.0
 40
1.0
 40
1.0
 10
526.7675275374504
 20
437.2294754072823
 30
0.0
 10
526.7668727944452
 20
437.2392058800752
 30
0.0
 10
526.7585671143992
 20
437.3626408661318
 30
0.0
 10
526.8324833679451
 20
437.60746137177
 30
0.0
 10
527.0382676342464
 20
437.9149231924808
 30
0.0
 10
527.3635251344452
 20
438.138422302009
 30
0.0
 10
527.6832136600426
 20
438.2208820097253
 30
0.0
 10
527.871379687991
 20
438.209541780055
 30
0.0
 10
527.9277879437732
 20
438.2061422154106
 30
0.0
  0
LINE
  5
171
330
1F
100
AcDbEntity
  8
0
  6
Continuous
 62
     7
370
    15
100
AcDbLine
 10
540.8361145221
 20
443.5227573201
 30
0.0
 11
540.8507409431
 21
444.5226550385
 31
0.0
  0
LINE
  5
172
330
1F
100
AcDbEntity
  8
0
  6
Continuous
 62
     7
370
    15
100
AcDbLine
 10
512.8537352123
 20
444.9321836516
 30
0.0
 11
512.8391097226
 21
443.9323008343
 31
0.0
  0
LINE
  5
173
330
1F
100
AcDbEntity
  8
0
  6
Continuous
 62
     7
370
    15
100
AcDbLine
 10
526.6917237006
 20
432.2284370944
 30
0.0
 11
526.7648546417
 21
437.2278958842
 31
0.0
  0
ARC
  5
174
330
1F
100
AcDbEntity
  8
0
  6
Continuous
 62
     7
370
    15
100
AcDbCircle
 10
525.6918306697
 20
432.2430588283
 30
0.0
 40
1.000000000000077
100
AcDbArc
 50
269.1619509654
 51
359.1619509654
  0
LINE
  5
175
330
1F
100
AcDbEntity
  8
0
  6
Continuous
 62
     7
370
    15
100
AcDbLine
 10
542.6407466568
 20
431.9951296136
 30
0.0
 11
542.7138778307
 21
436.9946033045
 31
0.0
  0
ARC
  5
176
330
1F
100
AcDbEntity
  8
0
  6
Continuous
 62
     7
370
    15
100
AcDbCircle
 10
511.6979681757
 20
432.447757664
 30
0.0
 40
1.00000000000002
100
AcDbArc
 50
179.1619509654
 51
269.1619509654
  0
LINE
  5
177
330
1F
100
AcDbEntity
  8
0
  6
Continuous
 62
     7
370
    15
100
AcDbLine
 10
510.7712066658
 20
437.4618441149
 30
0.0
 11
510.698075492
 21
432.4623853251
 31
0.0
  0
ARC
  5
178
330
1F
100
AcDbEntity
  8
0
  6
Continuous
 62
     7
370
    15
100
AcDbCircle
 10
527.6469911354
 20
432.2144592139
 30
0.0
 40
1.000000000000122
100
AcDbArc
 50
191.2888237298
 51
269.1619509654
  0
LINE
  5
179
330
1F
100
AcDbEntity
  8
0
  6
Continuous
 62
     7
370
    15
100
AcDbLine
 10
539.3509008847
 20
444.5445895478
 30
0.0
 11
539.3699156978
 21
445.8444625422
 31
0.0
  0
LINE
  5
17A
330
1F
100
AcDbEntity
  8
0
  6
Continuous
 62
     7
370
    15
100
AcDbLine
 10
514.3725891523
 20
446.2101072356
 30
0.0
 11
514.3535752707
 21
444.9102491423
 31
0.0
  0
LINE
  5
17B
330
1F
100
AcDbEntity
  8
0
  6
Continuous
 62
     7
370
    15
100
AcDbLine
 10
484.4362187125
 20
449.8483598515
 30
0.0
 11
484.3894141652
 21
446.648693113
 31
0.0
  0
LINE
  5
17C
330
1F
100
AcDbEntity
  8
0
  6
Continuous
 62
     7
370
    15
100
AcDbLine
 10
569.3530897536
 20
445.4058617636
 30
0.0
 11
569.3998943009
 21
448.6055285021
 31
0.0
  0
LINE
  5
17D
330
1F
100
AcDbEntity
  8
0
  6
Continuous
 62
     7
370
    15
100
AcDbLine
 10
335.7058177628
 20
607.0405286088
 30
0.0
 11
348.7044284977
 21
606.8503879294
 31
0.0
  0
LINE
  5
17E
330
1F
100
AcDbEntity
  8
0
  6
Continuous
 62
     7
370
    15
100
AcDbLine
 10
349.2163429894
 20
641.8466441616
 30
0.0
 11
336.2177322544
 21
642.0367848411
 31
0.0
  0
LINE
  5
17F
330
1F
100
AcDbEntity
  8
0
  6
Continuous
 62
     7
370
    15
100
AcDbLine
 10
357.5811396279
 20
666.7269602701
 30
0.0
 11
349.5820025839
 21
666.8439716384
 31
0.0
  0
LINE
  5
180
330
1F
100
AcDbEntity
  8
0
  6
Continuous
 62
     7
370
    15
100
AcDbLine
 10
348.3387689032
 20
581.8530641779
 30
0.0
 11
356.3379208483
 21
581.7360528096
 31
0.0
  0
LINE
  5
181
330
1F
100
AcDbEntity
  8
0
  6
Continuous
 62
     7
370
    15
100
AcDbLine
 10
723.176331345
 20
636.3764483765
 30
0.0
 11
710.1777206101
 21
636.5665890559
 31
0.0
  0
LINE
  5
182
330
1F
100
AcDbEntity
  8
0
  6
Continuous
 62
     7
370
    15
100
AcDbLine
 10
709.6658061184
 20
601.5703328237
 30
0.0
 11
722.6644168534
 21
601.3801921442
 31
0.0
  0
LINE
  5
183
330
1F
100
AcDbEntity
  8
0
  6
Continuous
 62
     7
370
    15
100
AcDbLine
 10
710.5433802046
 20
661.5639128074
 30
0.0
 11
702.5442282595
 21
661.6809241757
 31
0.0
  0
LINE
  5
184
330
1F
100
AcDbEntity
  8
0
  6
Continuous
 62
     7
370
    15
100
AcDbLine
 10
701.3010094799
 20
576.6900167152
 30
0.0
 11
709.3001465239
 21
576.5730053469
 31
0.0
  0
LINE
  5
185
330
1F
100
AcDbEntity
  8
0
  6
Continuous
 62
     7
370
    15
100
AcDbLine
 10
565.5857819058
 20
791.7084902808
 30
0.0
 11
568.444185976
 21
791.7084902808
 31
0.0
  0
LINE
  5
186
330
1F
100
AcDbEntity
  8
0
  6
Continuous
 62
     7
370
    15
100
AcDbLine
 10
490.4379631318
 20
791.7084902808
 30
0.0
 11
498.4039152898
 21
791.7084902808
 31
0.0
  0
LINE
  5
187
330
1F
100
AcDbEntity
  8
0
  6
Continuous
 62
     7
370
    15
100
AcDbLine
 10
359.4410727658
 20
657.8531958446
 30
0.0
 11
359.4410727658
 21
660.7115999147
 31
0.0
  0
LINE
  5
188
330
1F
100
AcDbEntity
  8
0
  6
Continuous
 62
     7
370
    15
100
AcDbLine
 10
359.4410727658
 20
582.7053770706
 30
0.0
 11
359.4410727658
 21
585.5637811407
 31
0.0
  0
LINE
  5
189
330
1F
100
AcDbEntity
  8
0
  6
Continuous
 62
     7
370
    15
100
AcDbLine
 10
493.296367202
 20
451.7084867045
 30
0.0
 11
490.4379631318
 21
451.7084867045
 31
0.0
  0
LINE
  5
18A
330
1F
100
AcDbEntity
  8
0
  6
Continuous
 62
     7
370
    15
100
AcDbLine
 10
568.444185976
 20
451.7084867045
 30
0.0
 11
565.5857819058
 21
451.7084867045
 31
0.0
  0
LINE
  5
18B
330
1F
100
AcDbEntity
  8
0
  6
Continuous
 62
     7
370
    15
100
AcDbLine
 10
699.441076342
 20
660.7115999147
 30
0.0
 11
699.441076342
 21
657.8531958446
 31
0.0
  0
LINE
  5
18C
330
1F
100
AcDbEntity
  8
0
  6
Continuous
 62
     7
370
    15
100
AcDbLine
 10
699.441076342
 20
585.5637811407
 30
0.0
 11
699.441076342
 21
582.7053770706
 31
0.0
  0
LINE
  5
18D
330
1F
100
AcDbEntity
  8
0
  6
Continuous
 62
     7
370
    15
100
AcDbLine
 10
480.0329851844
 20
791.7084902808
 30
0.0
 11
490.4379631318
 21
791.7084902808
 31
0.0
  0
LINE
  5
18E
330
1F
100
AcDbEntity
  8
0
  6
Continuous
 62
     7
370
    15
100
AcDbLine
 10
568.444185976
 20
791.7084902808
 30
0.0
 11
578.8491639234
 21
791.7084902808
 31
0.0
  0
LINE
  5
18F
330
1F
100
AcDbEntity
  8
0
  6
Continuous
 62
     7
370
    15
100
AcDbLine
 10
699.441076342
 20
671.1165778622
 30
0.0
 11
699.441076342
 21
660.7115999147
 31
0.0
  0
LINE
  5
190
330
1F
100
AcDbEntity
  8
0
  6
Continuous
 62
     7
370
    15
100
AcDbLine
 10
359.4410727658
 20
660.7115999147
 30
0.0
 11
359.4410727658
 21
671.1165778622
 31
0.0
  0
LINE
  5
191
330
1F
100
AcDbEntity
  8
0
  6
Continuous
 62
     7
370
    15
100
AcDbLine
 10
359.4410727658
 20
572.3003991231
 30
0.0
 11
359.4410727658
 21
582.7053770706
 31
0.0
  0
LINE
  5
192
330
1F
100
AcDbEntity
  8
0
  6
Continuous
 62
     7
370
    15
100
AcDbLine
 10
699.441076342
 20
582.7053770706
 30
0.0
 11
699.441076342
 21
572.3003991231
 31
0.0
  0
LINE
  5
193
330
1F
100
AcDbEntity
  8
0
  6
Continuous
 62
     7
370
    15
100
AcDbLine
 10
578.8491639234
 20
451.7084867045
 30
0.0
 11
568.444185976
 21
451.7084867045
 31
0.0
  0
LINE
  5
194
330
1F
100
AcDbEntity
  8
0
  6
Continuous
 62
     7
370
    15
100
AcDbLine
 10
490.4379631318
 20
451.7084867045
 30
0.0
 11
480.0329851844
 21
451.7084867045
 31
0.0
  0
CIRCLE
  5
195
330
1F
100
AcDbEntity
  8
0
  6
Continuous
 62
     7
370
    15
100
AcDbCircle
 10
415.5073211439
 20
475.9549299292
 30
0.0
 40
4.000000000000114
  0
LINE
  5
196
330
1F
100
AcDbEntity
  8
0
  6
Continuous
 62
     7
370
    15
100
AcDbLine
 10
416.0073186197
 20
479.4130385205
 30
0.0
 11
415.0073240437
 21
479.4130385205
 31
0.0
  0
SPLINE
  5
197
330
1F
100
AcDbEntity
  8
0
  6
Continuous
 62
     7
370
    15
100
AcDbSpline
210
0.0
220
0.0
230
1.0
 70
    24
 71
     3
 72
    10
 73
     6
 74
     0
 42
0.00000001
 43
0.00000001
 12
1.0
 22
0.0
 32
0.0
 13
1.0
 23
0.0
 33
0.0
 40
0.0
 40
0.0
 40
0.0
 40
0.0
 40
0.3971551627464459
 40
0.7941270068958134
 40
0.9999999999999999
 40
0.9999999999999999
 40
0.9999999999999999
 40
0.9999999999999999
 10
415.0073240436914
 20
479.4130385204949
 30
0.0
 10
415.0073240436914
 20
479.2446892037923
 30
0.0
 10
415.0073240436914
 20
478.9080682769448
 30
0.0
 10
415.0073240436914
 20
478.3506553508024
 30
0.0
 10
415.0073240436914
 20
478.0083272379733
 30
0.0
 10
415.0073240436914
 20
477.8914213463463
 30
0.0
  0
LINE
  5
198
330
1F
100
AcDbEntity
  8
0
  6
Continuous
 62
     7
370
    15
100
AcDbLine
 10
412.0492051281
 20
476.4549345061
 30
0.0
 11
412.0492051281
 21
475.4549324795
 31
0.0
  0
SPLINE
  5
199
330
1F
100
AcDbEntity
  8
0
  6
Continuous
 62
     7
370
    15
100
AcDbSpline
210
0.0
220
0.0
230
1.0
 70
    24
 71
     3
 72
    10
 73
     6
 74
     0
 42
0.00000001
 43
0.00000001
 12
1.0
 22
0.0
 32
0.0
 13
1.0
 23
0.0
 33
0.0
 40
0.0
 40
0.0
 40
0.0
 40
0.0
 40
0.3971608446820787
 40
0.7941232618021328
 40
1.0
 40
1.0
 40
1.0
 40
1.0
 10
412.0492051281335
 20
475.4549324795403
 30
0.0
 10
412.2175598179371
 20
475.4549324795403
 30
0.0
 10
412.5541850849961
 20
475.4549324795402
 30
0.0
 10
413.1115948927218
 20
475.4549324795403
 30
0.0
 10
413.453921236744
 20
475.4549324795403
 30
0.0
 10
413.5708297528627
 20
475.4549324795403
 30
0.0
  0
SPLINE
  5
19A
330
1F
100
AcDbEntity
  8
0
  6
Continuous
 62
     7
370
    15
100
AcDbSpline
210
0.0
220
0.0
230
1.0
 70
    24
 71
     3
 72
    10
 73
     6
 74
     0
 42
0.00000001
 43
0.00000001
 12
1.0
 22
0.0
 32
0.0
 13
1.0
 23
0.0
 33
0.0
 40
0.0
 40
0.0
 40
0.0
 40
0.0
 40
0.4119546550284572
 40
0.8219642306047416
 40
1.0
 40
1.0
 40
1.0
 40
1.0
 10
415.0073240436914
 20
474.0184456392922
 30
0.0
 10
415.0073240436914
 20
473.7835392988841
 30
0.0
 10
415.0073240436914
 20
473.3148357486248
 30
0.0
 10
415.0073240436913
 20
472.8030642983743
 30
0.0
 10
415.0073240436914
 20
472.5679856423731
 30
0.0
 10
415.0073240436914
 20
472.4968135639824
 30
0.0
  0
LINE
  5
19B
330
1F
100
AcDbEntity
  8
0
  6
Continuous
 62
     7
370
    15
100
AcDbLine
 10
415.0073240437
 20
472.496813564
 30
0.0
 11
416.0073186197
 21
472.496813564
 31
0.0
  0
SPLINE
  5
19C
330
1F
100
AcDbEntity
  8
0
  6
Continuous
 62
     7
370
    15
100
AcDbSpline
210
0.0
220
0.0
230
1.0
 70
    24
 71
     3
 72
    10
 73
     6
 74
     0
 42
0.00000001
 43
0.00000001
 12
1.0
 22
0.0
 32
0.0
 13
1.0
 23
0.0
 33
0.0
 40
0.0
 40
0.0
 40
0.0
 40
0.0
 40
0.3971591160950372
 40
0.7941198054916782
 40
1.0
 40
1.0
 40
1.0
 40
1.0
 10
416.0073186196687
 20
472.4968135639824
 30
0.0
 10
416.0073186196687
 20
472.6651682549667
 30
0.0
 10
416.0073186196687
 20
473.0017935243865
 30
0.0
 10
416.0073186196686
 20
473.5592057433112
 30
0.0
 10
416.0073186196687
 20
473.9015346280248
 30
0.0
 10
416.0073186196687
 20
474.0184456392922
 30
0.0
  0
SPLINE
  5
19D
330
1F
100
AcDbEntity
  8
0
  6
Continuous
 62
     7
370
    15
100
AcDbSpline
210
0.0
220
0.0
230
1.0
 70
    24
 71
     3
 72
    10
 73
     6
 74
     0
 42
0.00000001
 43
0.00000001
 12
1.0
 22
0.0
 32
0.0
 13
1.0
 23
0.0
 33
0.0
 40
0.0
 40
0.0
 40
0.0
 40
0.0
 40
0.4119477543375938
 40
0.8219666491244644
 40
1.0
 40
1.0
 40
1.0
 40
1.0
 10
417.4438129104974
 20
475.4549324795403
 30
0.0
 10
417.6787133509043
 20
475.4549324795403
 30
0.0
 10
418.1474143593359
 20
475.4549324795403
 30
0.0
 10
418.6591924656104
 20
475.4549324795402
 30
0.0
 10
418.8942681565315
 20
475.4549324795403
 30
0.0
 10
418.9654375352266
 20
475.4549324795403
 30
0.0
  0
LINE
  5
19E
330
1F
100
AcDbEntity
  8
0
  6
Continuous
 62
     7
370
    15
100
AcDbLine
 10
418.9654375352
 20
475.4549324795
 30
0.0
 11
418.9654375352
 21
476.4549345061
 31
0.0
  0
SPLINE
  5
19F
330
1F
100
AcDbEntity
  8
0
  6
Continuous
 62
     7
370
    15
100
AcDbSpline
210
0.0
220
0.0
230
1.0
 70
    24
 71
     3
 72
    10
 73
     6
 74
     0
 42
0.00000001
 43
0.00000001
 12
1.0
 22
0.0
 32
0.0
 13
1.0
 23
0.0
 33
0.0
 40
0.0
 40
0.0
 40
0.0
 40
0.0
 40
0.3971608446820787
 40
0.7941232618021328
 40
1.0
 40
1.0
 40
1.0
 40
1.0
 10
418.9654375352266
 20
476.4549345060982
 30
0.0
 10
418.797082845423
 20
476.4549345060982
 30
0.0
 10
418.460457578364
 20
476.4549345060982
 30
0.0
 10
417.9030477706384
 20
476.4549345060982
 30
0.0
 10
417.5607214266162
 20
476.4549345060982
 30
0.0
 10
417.4438129104974
 20
476.4549345060982
 30
0.0
  0
SPLINE
  5
1A0
330
1F
100
AcDbEntity
  8
0
  6
Continuous
 62
     7
370
    15
100
AcDbSpline
210
0.0
220
0.0
230
1.0
 70
    24
 71
     3
 72
    10
 73
     6
 74
     0
 42
0.00000001
 43
0.00000001
 12
1.0
 22
0.0
 32
0.0
 13
1.0
 23
0.0
 33
0.0
 40
0.0
 40
0.0
 40
0.0
 40
0.0
 40
0.4119490555545057
 40
0.821969245465611
 40
0.9999999999999999
 40
0.9999999999999999
 40
0.9999999999999999
 40
0.9999999999999999
 10
416.0073186196687
 20
477.8914213463463
 30
0.0
 10
416.0073186196687
 20
478.1263215085579
 30
0.0
 10
416.0073186196687
 20
478.5950219619011
 30
0.0
 10
416.0073186196686
 20
479.10680181872
 30
0.0
 10
416.0073186196687
 20
479.3418717622291
 30
0.0
 10
416.0073186196687
 20
479.4130385204949
 30
0.0
  0
SPLINE
  5
1A1
330
1F
100
AcDbEntity
  8
0
  6
Continuous
 62
     7
370
    15
100
AcDbSpline
210
0.0
220
0.0
230
1.0
 70
    24
 71
     3
 72
    10
 73
     6
 74
     0
 42
0.00000001
 43
0.00000001
 12
1.0
 22
0.0
 32
0.0
 13
1.0
 23
0.0
 33
0.0
 40
0.0
 40
0.0
 40
0.0
 40
0.0
 40
0.4119477543375938
 40
0.8219666491244644
 40
1.0
 40
1.0
 40
1.0
 40
1.0
 10
413.5708297528627
 20
476.4549345060982
 30
0.0
 10
413.3359293124558
 20
476.4549345060982
 30
0.0
 10
412.8672283040243
 20
476.4549345060982
 30
0.0
 10
412.3554501977497
 20
476.4549345060981
 30
0.0
 10
412.1203745068286
 20
476.4549345060982
 30
0.0
 10
412.0492051281335
 20
476.4549345060982
 30
0.0
  0
LINE
  5
1A2
330
1F
100
AcDbEntity
  8
0
  6
Continuous
 62
     7
370
    15
100
AcDbLine
 10
417.4438129105
 20
476.4549345061
 30
0.0
 11
416.0073186197
 21
476.4549345061
 31
0.0
  0
LINE
  5
1A3
330
1F
100
AcDbEntity
  8
0
  6
Continuous
 62
     7
370
    15
100
AcDbLine
 10
416.0073186197
 20
476.4549345061
 30
0.0
 11
416.0073186197
 21
477.8914213463
 31
0.0
  0
LINE
  5
1A4
330
1F
100
AcDbEntity
  8
0
  6
Continuous
 62
     7
370
    15
100
AcDbLine
 10
415.0073240437
 20
477.8914213463
 30
0.0
 11
415.0073240437
 21
476.4549345061
 31
0.0
  0
LINE
  5
1A5
330
1F
100
AcDbEntity
  8
0
  6
Continuous
 62
     7
370
    15
100
AcDbLine
 10
415.0073240437
 20
476.4549345061
 30
0.0
 11
413.5708297529
 21
476.4549345061
 31
0.0
  0
LINE
  5
1A6
330
1F
100
AcDbEntity
  8
0
  6
Continuous
 62
     7
370
    15
100
AcDbLine
 10
413.5708297529
 20
475.4549324795
 30
0.0
 11
415.0073240437
 21
475.4549324795
 31
0.0
  0
LINE
  5
1A7
330
1F
100
AcDbEntity
  8
0
  6
Continuous
 62
     7
370
    15
100
AcDbLine
 10
415.0073240437
 20
475.4549324795
 30
0.0
 11
415.0073240437
 21
474.0184456393
 31
0.0
  0
LINE
  5
1A8
330
1F
100
AcDbEntity
  8
0
  6
Continuous
 62
     7
370
    15
100
AcDbLine
 10
416.0073186197
 20
474.0184456393
 30
0.0
 11
416.0073186197
 21
475.4549324795
 31
0.0
  0
LINE
  5
1A9
330
1F
100
AcDbEntity
  8
0
  6
Continuous
 62
     7
370
    15
100
AcDbLine
 10
416.0073186197
 20
475.4549324795
 30
0.0
 11
417.4438129105
 21
475.4549324795
 31
0.0
  0
CIRCLE
  5
1AA
330
1F
100
AcDbEntity
  8
0
  6
Continuous
 62
     7
370
    15
100
AcDbCircle
 10
415.5073211439
 20
475.9549299292
 30
0.0
 40
4.500000000000114
  0
LINE
  5
1AB
330
1F
100
AcDbEntity
  8
0
  6
Continuous
 62
     7
370
    15
100
AcDbLine
 10
341.4857844748
 20
591.9543769493
 30
0.0
 11
348.4850238003
 21
591.8519929334
 31
0.0
  0
LINE
  5
1AC
330
1F
100
AcDbEntity
  8
0
  6
Continuous
 62
     7
370
    15
100
AcDbLine
 10
341.4857844748
 20
591.9543769493
 30
0.0
 11
341.5808538832
 21
598.4536804542
 31
0.0
  0
LINE
  5
1AD
330
1F
100
AcDbEntity
  8
0
  6
Continuous
 62
     7
370
    15
100
AcDbLine
 10
341.5808538832
 20
598.4536804542
 30
0.0
 11
348.5801081099
 21
598.3512983009
 31
0.0
  0
LINE
  5
1AE
330
1F
100
AcDbEntity
  8
0
  6
Continuous
 62
     7
370
    15
100
AcDbLine
 10
341.3907150664
 20
585.4550697192
 30
0.0
 11
348.3899543919
 21
585.352687566
 31
0.0
  0
LINE
  5
1AF
330
1F
100
AcDbEntity
  8
0
  6
Continuous
 62
     7
370
    15
100
AcDbLine
 10
341.3907150664
 20
585.4550697192
 30
0.0
 11
341.4857844748
 21
591.9543769493
 31
0.0
  0
LINE
  5
1B0
330
1F
100
AcDbEntity
  8
0
  6
Continuous
 62
     7
370
    15
100
AcDbLine
 10
499.6167561896
 20
804.8642933652
 30
0.0
 11
499.5143740364
 21
797.8650391385
 31
0.0
  0
LINE
  5
1B1
330
1F
100
AcDbEntity
  8
0
  6
Continuous
 62
     7
370
    15
100
AcDbLine
 10
499.6167561896
 20
804.8642933652
 30
0.0
 11
506.1160615571
 21
804.7692239567
 31
0.0
  0
LINE
  5
1B2
330
1F
100
AcDbEntity
  8
0
  6
Continuous
 62
     7
370
    15
100
AcDbLine
 10
506.1160615571
 20
804.7692239567
 30
0.0
 11
506.0136775412
 21
797.7699697301
 31
0.0
  0
LINE
  5
1B3
330
1F
100
AcDbEntity
  8
0
  6
Continuous
 62
     7
370
    15
100
AcDbLine
 10
493.1174526848
 20
804.9593627736
 30
0.0
 11
493.0150668063
 21
797.9601085469
 31
0.0
  0
LINE
  5
1B4
330
1F
100
AcDbEntity
  8
0
  6
Continuous
 62
     7
370
    15
100
AcDbLine
 10
493.1174526848
 20
804.9593627736
 30
0.0
 11
499.6167561896
 21
804.8642933652
 31
0.0
  0
LINE
  5
1B5
330
1F
100
AcDbEntity
  8
0
  6
Continuous
 62
     7
370
    15
100
AcDbLine
 10
559.2653929182
 20
438.5526836201
 30
0.0
 11
559.3677750714
 21
445.5519378468
 31
0.0
  0
LINE
  5
1B6
330
1F
100
AcDbEntity
  8
0
  6
Continuous
 62
     7
370
    15
100
AcDbLine
 10
559.2653929182
 20
438.5526836201
 30
0.0
 11
552.7660875507
 21
438.6477530286
 31
0.0
  0
LINE
  5
1B7
330
1F
100
AcDbEntity
  8
0
  6
Continuous
 62
     7
370
    15
100
AcDbLine
 10
552.7660875507
 20
438.6477530286
 30
0.0
 11
552.8684715666
 21
445.6470072552
 31
0.0
  0
LINE
  5
1B8
330
1F
100
AcDbEntity
  8
0
  6
Continuous
 62
     7
370
    15
100
AcDbLine
 10
565.764696423
 20
438.4576142117
 30
0.0
 11
565.8670823016
 21
445.4568684384
 31
0.0
  0
LINE
  5
1B9
330
1F
100
AcDbEntity
  8
0
  6
Continuous
 62
     7
370
    15
100
AcDbLine
 10
565.764696423
 20
438.4576142117
 30
0.0
 11
559.2653929182
 21
438.5526836201
 31
0.0
  0
LINE
  5
1BA
330
1F
100
AcDbEntity
  8
0
  6
Continuous
 62
     7
370
    15
100
AcDbLine
 10
564.6098042764
 20
803.913599281
 30
0.0
 11
564.5074183978
 21
796.9143450543
 31
0.0
  0
LINE
  5
1BB
330
1F
100
AcDbEntity
  8
0
  6
Continuous
 62
     7
370
    15
100
AcDbLine
 10
564.6098042764
 20
803.913599281
 30
0.0
 11
571.1091096439
 21
803.8185298726
 31
0.0
  0
LINE
  5
1BC
330
1F
100
AcDbEntity
  8
0
  6
Continuous
 62
     7
370
    15
100
AcDbLine
 10
571.1091096439
 20
803.8185298726
 30
0.0
 11
571.0067237653
 21
796.8192756459
 31
0.0
  0
LINE
  5
1BD
330
1F
100
AcDbEntity
  8
0
  6
Continuous
 62
     7
370
    15
100
AcDbLine
 10
558.1104989089
 20
804.0086686894
 30
0.0
 11
558.008114893
 21
797.0094144627
 31
0.0
  0
LINE
  5
1BE
330
1F
100
AcDbEntity
  8
0
  6
Continuous
 62
     7
370
    15
100
AcDbLine
 10
558.1104989089
 20
804.0086686894
 30
0.0
 11
564.6098042764
 21
803.913599281
 31
0.0
  0
LINE
  5
1BF
330
1F
100
AcDbEntity
  8
0
  6
Continuous
 62
     7
370
    15
100
AcDbLine
 10
500.7716501989
 20
439.4083082959
 30
0.0
 11
500.8740342148
 21
446.4075625226
 31
0.0
  0
LINE
  5
1C0
330
1F
100
AcDbEntity
  8
0
  6
Continuous
 62
     7
370
    15
100
AcDbLine
 10
500.7716501989
 20
439.4083082959
 30
0.0
 11
494.2723448314
 21
439.5033777043
 31
0.0
  0
LINE
  5
1C1
330
1F
100
AcDbEntity
  8
0
  6
Continuous
 62
     7
370
    15
100
AcDbLine
 10
494.2723448314
 20
439.5033777043
 30
0.0
 11
494.37473071
 21
446.502631931
 31
0.0
  0
LINE
  5
1C2
330
1F
100
AcDbEntity
  8
0
  6
Continuous
 62
     7
370
    15
100
AcDbLine
 10
494.2723448314
 20
439.5033777043
 30
0.0
 11
487.7730394639
 21
439.5984471127
 31
0.0
  0
LINE
  5
1C3
330
1F
100
AcDbEntity
  8
0
  6
Continuous
 62
     7
370
    15
100
AcDbLine
 10
487.7730394639
 20
439.5984471127
 30
0.0
 11
487.8754253425
 21
446.5977013394
 31
0.0
  0
LINE
  5
1C4
330
1F
100
AcDbEntity
  8
0
  6
Continuous
 62
     7
370
    15
100
AcDbLine
 10
342.436478559
 20
656.9474250361
 30
0.0
 11
349.4357327856
 21
656.8450391575
 31
0.0
  0
LINE
  5
1C5
330
1F
100
AcDbEntity
  8
0
  6
Continuous
 62
     7
370
    15
100
AcDbLine
 10
342.436478559
 20
656.9474250361
 30
0.0
 11
342.5315479674
 21
663.4467266783
 31
0.0
  0
LINE
  5
1C6
330
1F
100
AcDbEntity
  8
0
  6
Continuous
 62
     7
370
    15
100
AcDbLine
 10
342.5315479674
 20
663.4467266783
 30
0.0
 11
349.5308021941
 21
663.344344525
 31
0.0
  0
LINE
  5
1C7
330
1F
100
AcDbEntity
  8
0
  6
Continuous
 62
     7
370
    15
100
AcDbLine
 10
342.3414091505
 20
650.448117806
 30
0.0
 11
349.3406633772
 21
650.3457356527
 31
0.0
  0
LINE
  5
1C8
330
1F
100
AcDbEntity
  8
0
  6
Continuous
 62
     7
370
    15
100
AcDbLine
 10
342.3414091505
 20
650.448117806
 30
0.0
 11
342.436478559
 21
656.9474250361
 31
0.0
  0
LWPOLYLINE
  5
1C9
330
1F
100
AcDbEntity
  8
0
  6
Continuous
 62
     7
370
    15
100
AcDbPolyline
 90
        9
 70
   128
 43
0.0
 10
523.1511887089
 20
797.5192874953
 10
525.2927244567
 20
797.4879652545
 10
527.4969702279
 20
797.4557191416
 10
529.7433504586
 20
797.4228620812
 10
532.0108966828
 20
797.3896920964
 10
534.2784431689
 20
797.3565221116
 10
536.5248230212
 20
797.3236650511
 10
538.7290689089
 20
797.2914189383
 10
540.8706051223
 20
797.2600966975
  0
LINE
  5
1CA
330
1F
100
AcDbEntity
  8
0
  6
Continuous
 62
     7
370
    15
100
AcDbLine
 10
496.9432475902
 20
794.7023123786
 30
0.0
 11
510.748681698
 21
794.5003718421
 31
0.0
  0
LINE
  5
1CB
330
1F
100
AcDbEntity
  8
0
  6
Continuous
 62
     7
370
    15
100
AcDbLine
 10
496.9900521376
 20
797.9019642159
 30
0.0
 11
523.1511887089
 21
797.5192874953
 31
0.0
  0
LINE
  5
1CC
330
1F
100
AcDbEntity
  8
0
  6
Continuous
 62
     7
370
    15
100
AcDbLine
 10
553.1795053669
 20
793.879708676
 30
0.0
 11
566.984937612
 21
793.6777532384
 31
0.0
  0
LINE
  5
1CD
330
1F
100
AcDbEntity
  8
0
  6
Continuous
 62
     7
370
    15
100
AcDbLine
 10
540.8706051223
 20
797.2600966975
 30
0.0
 11
567.0317421593
 21
796.8774199769
 31
0.0
  0
LWPOLYLINE
  5
1CE
330
1F
100
AcDbEntity
  8
0
  6
Continuous
 62
     7
370
    15
100
AcDbPolyline
 90
        8
 70
   128
 43
0.0
 10
489.4686388709
 20
794.8116421982
 10
489.5183863975
 20
794.8109269425
 10
489.9138818421
 20
794.8051303908
 10
490.6917857863
 20
794.7937608048
 10
491.8263490238
 20
794.7771609112
 10
493.2800206282
 20
794.7558969542
 10
495.0046810247
 20
794.7306692883
 10
496.9432475902
 20
794.7023123786
  0
LWPOLYLINE
  5
1CF
330
1F
100
AcDbEntity
  8
0
  6
Continuous
 62
     7
370
    15
100
AcDbPolyline
 90
        8
 70
   128
 43
0.0
 10
489.5154434182
 20
798.0113089368
 10
489.5651872196
 20
798.0105787799
 10
489.9606863894
 20
798.0047971293
 10
490.7385903336
 20
797.9934126422
 10
491.8731535711
 20
797.9768127486
 10
493.3268251755
 20
797.9555487916
 10
495.051485572
 20
797.9303211257
 10
496.9900521376
 20
797.9019642159
  0
LWPOLYLINE
  5
1D0
330
1F
100
AcDbEntity
  8
0
  6
Continuous
 62
     7
370
    15
100
AcDbPolyline
 90
        8
 70
   128
 43
0.0
 10
566.984937612
 20
793.6777532384
 10
568.9235041775
 20
793.6493963286
 10
570.6481645741
 20
793.6241686627
 10
572.1018361785
 20
793.6029047057
 10
573.2363994159
 20
793.5863197133
 10
574.0143033602
 20
793.5749352261
 10
574.4097988047
 20
793.5691535756
 10
574.4595463313
 20
793.5684234187
  0
LWPOLYLINE
  5
1D1
330
1F
100
AcDbEntity
  8
0
  6
Continuous
 62
     7
370
    15
100
AcDbPolyline
 90
        8
 70
   128
 43
0.0
 10
567.0317421593
 20
796.8774199769
 10
568.9703087248
 20
796.8490630671
 10
570.6949691214
 20
796.8238354012
 10
572.1486407258
 20
796.8025714442
 10
573.2832039632
 20
796.7859715506
 10
574.0611079075
 20
796.7745870635
 10
574.456603352
 20
796.7688054129
 10
574.5063508787
 20
796.768075256
  0
SPLINE
  5
1D2
330
1F
100
AcDbEntity
  8
0
  6
Continuous
 62
     7
370
    15
100
AcDbSpline
210
0.0
220
0.0
230
1.0
 70
     8
 71
     3
 72
    11
 73
     7
 74
     0
 42
0.00000001
 43
0.00000001
 12
1.0
 22
0.0
 32
0.0
 13
1.0
 23
0.0
 33
0.0
 40
0.0
 40
0.0
 40
0.0
 40
0.0
 40
0.3159560236482257
 40
0.6359093908874106
 40
0.9747472349670875
 40
1.0
 40
1.0
 40
1.0
 40
1.0
 10
510.7730022557379
 20
437.4618292137779
 30
0.0
 10
510.7744482052874
 20
437.6659755617734
 30
0.0
 10
510.7773583979356
 20
438.076851032058
 30
0.0
 10
510.7701281092265
 20
438.6078335635868
 30
0.0
 10
510.7622404109857
 20
438.9329216160071
 30
0.0
 10
510.7677371544768
 20
439.0281603732591
 30
0.0
 10
510.7681184001567
 20
439.0347659870781
 30
0.0
  0
SPLINE
  5
1D3
330
1F
100
AcDbEntity
  8
0
  6
Continuous
 62
     7
370
    15
100
AcDbSpline
210
0.0
220
0.0
230
1.0
 70
     8
 71
     3
 72
    11
 73
     7
 74
     0
 42
0.00000001
 43
0.00000001
 12
1.0
 22
0.0
 32
0.0
 13
1.0
 23
0.0
 33
0.0
 40
0.0
 40
0.0
 40
0.0
 40
0.0
 40
0.3159623836168772
 40
0.6359134043648467
 40
0.974749384039431
 40
1.0
 40
1.0
 40
1.0
 40
1.0
 10
542.7120803781154
 20
436.994618205706
 30
0.0
 10
542.7166071267835
 20
437.1987283265354
 30
0.0
 10
542.7257177687632
 20
437.6095252078478
 30
0.0
 10
542.7484742221359
 20
438.1400448961858
 30
0.0
 10
542.7658655556587
 20
438.4648157399683
 30
0.0
 10
542.7631583885969
 20
438.5601393097926
 30
0.0
 10
542.7629706375601
 20
438.5667503163017
 30
0.0
  0
LWPOLYLINE
  5
1D4
330
1F
100
AcDbEntity
  8
0
  6
Continuous
 62
     7
370
    15
100
AcDbPolyline
 90
       23
 70
   128
 43
0.0
 10
542.8359006457
 20
443.4935063407
 10
542.7616788931
 20
443.4945941254
 10
542.3544040807
 20
443.5005545899
 10
541.6005096324
 20
443.5115814492
 10
540.5168375857
 20
443.5274362847
 10
539.1275930144
 20
443.5477465674
 10
537.4638113119
 20
443.5720950648
 10
535.5626578369
 20
443.5999006316
 10
533.4666008987
 20
443.6305672213
 10
531.2224635547
 20
443.6633944794
 10
528.8803758142
 20
443.697652249
 10
526.4926560615
 20
443.7325805709
 10
524.1126423627
 20
443.7673896834
 10
521.7934996747
 20
443.8013196274
 10
519.5870344453
 20
443.8335955426
 10
517.5425345935
 20
443.8635021731
 10
515.7056712471
 20
443.8903689667
 10
514.1174775474
 20
443.913599877
 10
512.8134312965
 20
443.9326733634
 10
511.8226605393
 20
443.947157292
 10
511.1673000194
 20
443.9567536399
 10
510.8619882651
 20
443.9612090871
 10
510.8393235989
 20
443.9615518138
  0
LWPOLYLINE
  5
1D5
330
1F
100
AcDbEntity
  8
0
  6
Continuous
 62
     7
370
    15
100
AcDbPolyline
 90
        9
 70
   128
 43
0.0
 10
540.4897752144
 20
438.0272388741
 10
539.5477424302
 20
438.0410224482
 10
538.3705609404
 20
438.0582332894
 10
536.9798723534
 20
438.0785882756
 10
535.4012433365
 20
438.1016701743
 10
533.6636966951
 20
438.1270915553
 10
531.7991763279
 20
438.1543606803
 10
529.8419607554
 20
438.1830007121
 10
527.8280324694
 20
438.2124603078
  0
LWPOLYLINE
  5
1D6
330
1F
100
AcDbEntity
  8
0
  6
Continuous
 62
     7
370
    15
100
AcDbPolyline
 90
       22
 70
   128
 43
0.0
 10
540.8507409431
 20
444.5226550385
 10
540.8330122866
 20
444.5229083583
 10
540.5389890932
 20
444.5272147938
 10
539.8904868327
 20
444.5367068335
 10
538.9043000453
 20
444.5511311576
 10
537.605972115
 20
444.5701152369
 10
536.0291270465
 20
444.5931822344
 10
534.2146061287
 20
444.6197212025
 10
532.2094032001
 20
444.6490615889
 10
530.0654528239
 20
444.6804136321
 10
527.8382817908
 20
444.7130024716
 10
525.5855727867
 20
444.745948939
 10
523.3656699695
 20
444.7784185692
 10
521.2360667922
 20
444.8095768973
 10
519.2519203686
 20
444.8386043593
 10
517.464617353
 20
444.864740996
 10
515.920449134
 20
444.8873311564
 10
514.6594085656
 20
444.905778794
 10
513.7141561993
 20
444.9196070716
 10
513.1091727801
 20
444.9284583613
 10
512.8601278104
 20
444.9320942446
 10
512.8537352123
 20
444.9321836516
  0
LWPOLYLINE
  5
1D7
330
1F
100
AcDbEntity
  8
0
  6
Continuous
 62
     7
370
    15
100
AcDbPolyline
 90
        9
 70
   128
 43
0.0
 10
525.6772044506
 20
431.2431723162
 10
525.2713827342
 20
431.2491029784
 10
524.8665801175
 20
431.2550187394
 10
524.463094391
 20
431.2609195992
 10
524.0612235777
 20
431.2668055579
 10
523.6612633728
 20
431.2726617142
 10
523.2635085397
 20
431.2784731671
 10
522.8682519794
 20
431.2842548176
 10
522.4757851959
 20
431.2899917647
  0
LINE
  5
1D8
330
1F
100
AcDbEntity
  8
0
  6
Continuous
 62
     7
370
    15
100
AcDbLine
 10
522.4757851959
 20
431.2899917647
 30
0.0
 11
521.2500105538
 21
431.3079327628
 31
0.0
  0
LWPOLYLINE
  5
1D9
330
1F
100
AcDbEntity
  8
0
  6
Continuous
 62
     7
370
    15
100
AcDbPolyline
 90
        9
 70
   128
 43
0.0
 10
520.3369167559
 20
438.322028546
 10
518.6521756389
 20
438.3466750666
 10
517.1011929326
 20
438.3693695351
 10
515.7095651068
 20
438.3897245213
 10
514.5002585762
 20
438.4074121997
 10
513.4932315834
 20
438.4221345469
 10
512.7050998546
 20
438.4336680457
 10
512.1488748975
 20
438.4418040797
 10
511.8337339647
 20
438.4464085385
  0
LWPOLYLINE
  5
1DA
330
1F
100
AcDbEntity
  8
0
  6
Continuous
 62
     7
370
    15
100
AcDbPolyline
 90
        9
 70
   128
 43
0.0
 10
521.2500105538
 20
431.3079327628
 10
520.9614588805
 20
431.3121497914
 10
520.5723513775
 20
431.317842035
 10
520.0864338242
 20
431.3249498889
 10
519.5083851852
 20
431.3333988473
 10
518.8437738382
 20
431.3431293055
 10
518.0990007632
 20
431.3540220544
 10
517.2812362127
 20
431.3659727856
 10
516.3983582445
 20
431.3788920924
  0
LINE
  5
1DB
330
1F
100
AcDbEntity
  8
0
  6
Continuous
 62
     7
370
    15
100
AcDbLine
 10
541.0810272135
 20
431.0178369567
 30
0.0
 11
535.3080184125
 21
431.1022818371
 31
0.0
  0
ARC
  5
1DC
330
1F
100
AcDbEntity
  8
0
  6
Continuous
 62
     7
370
    15
100
AcDbCircle
 10
541.6399366627
 20
432.0088784392
 30
0.0
 40
0.9991076671845215
100
AcDbArc
 50
269.2137779342
 51
359.2132311015
  0
LWPOLYLINE
  5
1DD
330
1F
100
AcDbEntity
  8
0
  6
Continuous
 62
     7
370
    15
100
AcDbPolyline
 90
        9
 70
   128
 43
0.0
 10
541.626227174
 20
431.0098648354
 10
541.5963214748
 20
431.0103118703
 10
541.5554075428
 20
431.0109079167
 10
541.5035170429
 20
431.0116678759
 10
541.440687228
 20
431.0125768468
 10
541.3669655957
 20
431.0136646315
 10
541.2824052312
 20
431.0149014279
 10
541.1870694645
 20
431.0162872359
 10
541.0810272135
 20
431.0178369567
  0
LINE
  5
1DE
330
1F
100
AcDbEntity
  8
0
  6
Continuous
 62
     7
370
    15
100
AcDbLine
 10
516.3983582445
 20
431.3788920924
 30
0.0
 11
511.6833421327
 21
431.4478695676
 31
0.0
  0
LWPOLYLINE
  5
1DF
330
1F
100
AcDbEntity
  8
0
  6
Continuous
 62
     7
370
    15
100
AcDbPolyline
 90
        9
 70
   128
 43
0.0
 10
535.3080184125
 20
431.1022818371
 10
534.1843549088
 20
431.1187178179
 10
533.1435646788
 20
431.1339468047
 10
532.1956708487
 20
431.1478197858
 10
531.3498021262
 20
431.1601877495
 10
530.6141047897
 20
431.1709463879
 10
529.9956638757
 20
431.1799913928
 10
529.5004354832
 20
431.1872333571
 10
529.1331888568
 20
431.1926126763
  0
LINE
  5
1E0
330
1F
100
AcDbEntity
  8
0
  6
Continuous
 62
     7
370
    15
100
AcDbLine
 10
542.7138778307
 20
436.9946033045
 30
0.0
 11
542.7120803781
 21
436.9946182057
 31
0.0
  0
LINE
  5
1E1
330
1F
100
AcDbEntity
  8
0
  6
Continuous
 62
     7
370
    15
100
AcDbLine
 10
542.6389501356
 20
431.9951594159
 30
0.0
 11
542.6407466568
 21
431.9951296136
 31
0.0
  0
LINE
  5
1E2
330
1F
100
AcDbEntity
  8
0
  6
Continuous
 62
     7
370
    15
100
AcDbLine
 10
529.1331888568
 20
431.1926126763
 30
0.0
 11
527.6323649725
 21
431.2145620867
 31
0.0
  0
LWPOLYLINE
  5
1E3
330
1F
100
AcDbEntity
  8
0
  6
Continuous
 62
     7
370
    15
100
AcDbPolyline
 90
        9
 70
   128
 43
0.0
 10
518.6657366269
 20
446.1473137423
 10
520.8288264387
 20
446.1156636759
 10
523.0483180769
 20
446.0832089469
 10
525.3034947366
 20
446.050217776
 10
527.5733053843
 20
446.0170179888
 10
529.8365626934
 20
445.9839076087
 10
532.0721406881
 20
445.9511995598
 10
534.2591717765
 20
445.9192067668
 10
536.3772419207
 20
445.8882272526
  0
LINE
  5
1E4
330
1F
100
AcDbEntity
  8
0
  6
Continuous
 62
     7
370
    15
100
AcDbLine
 10
492.1980808415
 20
446.5344757125
 30
0.0
 11
518.6657366269
 21
446.1473137423
 31
0.0
  0
LINE
  5
1E5
330
1F
100
AcDbEntity
  8
0
  6
Continuous
 62
     7
370
    15
100
AcDbLine
 10
505.702643741
 20
449.5372683093
 30
0.0
 11
492.2448816635
 21
449.7341275498
 31
0.0
  0
LINE
  5
1E6
330
1F
100
AcDbEntity
  8
0
  6
Continuous
 62
     7
370
    15
100
AcDbLine
 10
536.3772419207
 20
445.8882272526
 30
0.0
 11
562.2084970512
 21
445.5103785082
 31
0.0
  0
LINE
  5
1E7
330
1F
100
AcDbEntity
  8
0
  6
Continuous
 62
     7
370
    15
100
AcDbLine
 10
562.2553015985
 20
448.7100303456
 30
0.0
 11
548.1334674098
 21
448.9166051432
 31
0.0
  0
LWPOLYLINE
  5
1E8
330
1F
100
AcDbEntity
  8
0
  6
Continuous
 62
     7
370
    15
100
AcDbPolyline
 90
        8
 70
   128
 43
0.0
 10
484.3894141652
 20
446.648693113
 10
484.4771037735
 20
446.6474116131
 10
484.9365661778
 20
446.6406911894
 10
485.775065694
 20
446.6284275338
 10
486.964841459
 20
446.6110229775
 10
488.4665171542
 20
446.5890586659
 10
490.2303899564
 20
446.5632498547
 10
492.1980808415
 20
446.5344757125
  0
LWPOLYLINE
  5
1E9
330
1F
100
AcDbEntity
  8
0
  6
Continuous
 62
     7
370
    15
100
AcDbPolyline
 90
        8
 70
   128
 43
0.0
 10
492.2448816635
 20
449.7341275498
 10
490.2771945037
 20
449.7629165932
 10
488.5133217015
 20
449.7887105033
 10
487.0116460063
 20
449.8106748149
 10
485.8218665161
 20
449.8280793711
 10
484.9833707251
 20
449.840357928
 10
484.5239083208
 20
449.8470783517
 10
484.4362187125
 20
449.8483598515
  0
LWPOLYLINE
  5
1EA
330
1F
100
AcDbEntity
  8
0
  6
Continuous
 62
     7
370
    15
100
AcDbPolyline
 90
        8
 70
   128
 43
0.0
 10
562.2084970512
 20
445.5103785082
 10
564.1162144877
 20
445.4824686333
 10
565.8001239337
 20
445.4578370139
 10
567.2044875957
 20
445.4373032138
 10
568.2828250267
 20
445.4215228841
 10
568.9994442202
 20
445.4110473677
 10
569.3306225278
 20
445.4062044903
 10
569.3530897536
 20
445.4058617636
  0
LWPOLYLINE
  5
1EB
330
1F
100
AcDbEntity
  8
0
  6
Continuous
 62
     7
370
    15
100
AcDbPolyline
 90
        8
 70
   128
 43
0.0
 10
569.3998943009
 20
448.6055285021
 10
569.3774233498
 20
448.6058563277
 10
569.0462450423
 20
448.6106992051
 10
568.329629574
 20
448.6211747214
 10
567.251292143
 20
448.6369550511
 10
565.846928481
 20
448.6575037524
 10
564.163019035
 20
448.6821353718
 10
562.2553015985
 20
448.7100303456
  0
LWPOLYLINE
  5
1EC
330
1F
100
AcDbEntity
  8
0
  6
Continuous
 62
     7
370
    15
100
AcDbPolyline
 90
        9
 70
   128
 43
0.0
 10
349.0899811425
 20
633.2082240194
 10
349.0586589016
 20
631.0666887373
 10
349.0264127888
 20
628.8624428496
 10
348.9935557284
 20
626.6160625316
 10
348.9603857436
 20
624.3485165112
 10
348.9272157587
 20
622.0809701415
 10
348.8943586983
 20
619.8345899399
 10
348.8621125855
 20
617.6303442851
 10
348.8307903447
 20
615.4888085373
  0
LINE
  5
1ED
330
1F
100
AcDbEntity
  8
0
  6
Continuous
 62
     7
370
    15
100
AcDbLine
 10
349.4726578631
 20
659.3693591937
 30
0.0
 11
349.0899811425
 21
633.2082240194
 31
0.0
  0
LINE
  5
1EE
330
1F
100
AcDbEntity
  8
0
  6
Continuous
 62
     7
370
    15
100
AcDbLine
 10
357.2698543705
 20
645.4469193056
 30
0.0
 11
357.4718098082
 21
659.2523515507
 31
0.0
  0
LINE
  5
1EF
330
1F
100
AcDbEntity
  8
0
  6
Continuous
 62
     7
370
    15
100
AcDbLine
 10
348.8307903447
 20
615.4888085373
 30
0.0
 11
348.4480987229
 21
589.3276728973
 31
0.0
  0
LINE
  5
1F0
330
1F
100
AcDbEntity
  8
0
  6
Continuous
 62
     7
370
    15
100
AcDbLine
 10
356.447250668
 20
589.210661529
 30
0.0
 11
356.6491912045
 21
603.0160956368
 31
0.0
  0
LWPOLYLINE
  5
1F1
330
1F
100
AcDbEntity
  8
0
  6
Continuous
 62
     7
370
    15
100
AcDbPolyline
 90
       24
 70
   128
 43
0.0
 10
335.7058177628
 20
607.0405286088
 10
335.708425466
 20
607.218634738
 10
335.716188971
 20
607.7493256241
 10
335.728944365
 20
608.6217997879
 10
335.7464532294
 20
609.8182950452
 10
335.768328134
 20
611.3144545167
 10
335.7941518463
 20
613.0798202291
 10
335.8233879246
 20
615.0784547724
 10
335.8554403223
 20
617.2696719229
 10
335.8896682896
 20
619.608864589
 10
335.9253416695
 20
622.0484136654
 10
335.9617750086
 20
624.5386569578
 10
335.9981934466
 20
627.0289001338
 10
336.0338817276
 20
629.4684493266
 10
336.0680947937
 20
631.8076424584
 10
336.1001471915
 20
633.9988591432
 10
336.1293832697
 20
635.9974941522
 10
336.1552069821
 20
637.7628598645
 10
336.1770967879
 20
639.2590184048
 10
336.1946056523
 20
640.4555145934
 10
336.2073610463
 20
641.3279887572
 10
336.2151245512
 20
641.8586787119
 10
336.2177322544
 20
642.0367848411
 10
336.2177322544
 20
642.0367848411
  0
LWPOLYLINE
  5
1F2
330
1F
100
AcDbEntity
  8
0
  6
Continuous
 62
     7
370
    15
100
AcDbPolyline
 90
        8
 70
   128
 43
0.0
 10
349.5820025839
 20
666.8439716384
 10
349.581272427
 20
666.7942241117
 10
349.5754758753
 20
666.3987249419
 10
349.5641062893
 20
665.6208209976
 10
349.5475063958
 20
664.4862577602
 10
349.5262424387
 20
663.0325898811
 10
349.5010147728
 20
661.3079294845
 10
349.4726578631
 20
659.3693591937
  0
LWPOLYLINE
  5
1F3
330
1F
100
AcDbEntity
  8
0
  6
Continuous
 62
     7
370
    15
100
AcDbPolyline
 90
        8
 70
   128
 43
0.0
 10
357.4718098082
 20
659.2523515507
 10
357.5001667179
 20
661.1909181163
 10
357.5253943838
 20
662.9155785128
 10
357.5466583409
 20
664.3692501172
 10
357.5632433333
 20
665.5038133547
 10
357.5746278204
 20
666.2817172989
 10
357.580409471
 20
666.6772127434
 10
357.5811396279
 20
666.7269602701
  0
LWPOLYLINE
  5
1F4
330
1F
100
AcDbEntity
  8
0
  6
Continuous
 62
     7
370
    15
100
AcDbPolyline
 90
        8
 70
   128
 43
0.0
 10
348.4480987229
 20
589.3276728973
 10
348.4197418131
 20
587.3891026065
 10
348.3945141472
 20
585.6644422099
 10
348.3732501902
 20
584.2107743308
 10
348.3566651978
 20
583.0762110933
 10
348.3452807106
 20
582.2983071491
 10
348.3394990601
 20
581.9028079793
 10
348.3387689032
 20
581.8530641779
  0
LWPOLYLINE
  5
1F5
330
1F
100
AcDbEntity
  8
0
  6
Continuous
 62
     7
370
    15
100
AcDbPolyline
 90
        8
 70
   128
 43
0.0
 10
356.3379208483
 20
581.7360528096
 10
356.338636104
 20
581.7858003363
 10
356.3444326558
 20
582.1812957808
 10
356.3558022417
 20
582.9591997251
 10
356.3724021353
 20
584.0937629625
 10
356.3936660923
 20
585.5474345669
 10
356.4188937582
 20
587.2720949635
 10
356.447250668
 20
589.210661529
  0
LWPOLYLINE
  5
1F6
330
1F
100
AcDbEntity
  8
0
  6
Continuous
 62
     7
370
    15
100
AcDbPolyline
 90
        9
 70
   128
 43
0.0
 10
709.7921679654
 20
610.2087529659
 10
709.8234902062
 20
612.350288248
 10
709.855736319
 20
614.5545341357
 10
709.8885933794
 20
616.8009144537
 10
709.9217633643
 20
619.0684604741
 10
709.9549333491
 20
621.3360068438
 10
709.9877904095
 20
623.5823870454
 10
710.0200365223
 20
625.7866327002
 10
710.0513587632
 20
627.928168448
  0
LINE
  5
1F7
330
1F
100
AcDbEntity
  8
0
  6
Continuous
 62
     7
370
    15
100
AcDbLine
 10
710.0513587632
 20
627.928168448
 30
0.0
 11
710.4340503849
 21
654.089304088
 31
0.0
  0
LINE
  5
1F8
330
1F
100
AcDbEntity
  8
0
  6
Continuous
 62
     7
370
    15
100
AcDbLine
 10
702.4348984398
 20
654.2063154563
 30
0.0
 11
702.2329579033
 21
640.4008813485
 31
0.0
  0
LINE
  5
1F9
330
1F
100
AcDbEntity
  8
0
  6
Continuous
 62
     7
370
    15
100
AcDbLine
 10
709.4094912447
 20
584.0476177916
 30
0.0
 11
709.7921679654
 21
610.2087529659
 31
0.0
  0
LINE
  5
1FA
330
1F
100
AcDbEntity
  8
0
  6
Continuous
 62
     7
370
    15
100
AcDbLine
 10
701.6122947373
 20
597.9700576797
 30
0.0
 11
701.4103392996
 21
584.1646254346
 31
0.0
  0
LWPOLYLINE
  5
1FB
330
1F
100
AcDbEntity
  8
0
  6
Continuous
 62
     7
370
    15
100
AcDbPolyline
 90
       23
 70
   128
 43
0.0
 10
723.176331345
 20
636.3764483765
 10
723.1737236418
 20
636.1983422473
 10
723.1659601368
 20
635.6676513612
 10
723.1532047428
 20
634.7951771974
 10
723.1356958784
 20
633.5986819401
 10
723.1138209738
 20
632.1025224685
 10
723.0879972615
 20
630.3371567562
 10
723.0587611832
 20
628.3385222129
 10
723.0267087855
 20
626.1473050624
 10
722.9924808182
 20
623.8081123963
 10
722.9568074383
 20
621.3685633199
 10
722.9203740992
 20
618.8783200275
 10
722.8839556612
 20
616.3880768515
 10
722.8482673802
 20
613.9485276587
 10
722.8140543141
 20
611.6093345269
 10
722.7820019163
 20
609.4181178421
 10
722.7527658381
 20
607.4194828331
 10
722.7269421257
 20
605.6541171208
 10
722.7050523199
 20
604.1579585805
 10
722.6875434555
 20
602.9614623919
 10
722.6747880616
 20
602.0889882281
 10
722.6670245566
 20
601.5582982734
 10
722.6644168534
 20
601.3801921442
  0
LWPOLYLINE
  5
1FC
330
1F
100
AcDbEntity
  8
0
  6
Continuous
 62
     7
370
    15
100
AcDbPolyline
 90
        8
 70
   128
 43
0.0
 10
710.4340503849
 20
654.089304088
 10
710.4624072947
 20
656.0278743788
 10
710.4876349606
 20
657.7525347754
 10
710.5088989176
 20
659.2062026545
 10
710.52548391
 20
660.3407658919
 10
710.5368683972
 20
661.1186698362
 10
710.5426500477
 20
661.514169006
 10
710.5433802046
 20
661.5639128074
  0
LWPOLYLINE
  5
1FD
330
1F
100
AcDbEntity
  8
0
  6
Continuous
 62
     7
370
    15
100
AcDbPolyline
 90
        8
 70
   128
 43
0.0
 10
702.5442282595
 20
661.6809241757
 10
702.5435130038
 20
661.631176649
 10
702.5377164521
 20
661.2356812045
 10
702.5263468661
 20
660.4577772602
 10
702.5097469725
 20
659.3232140228
 10
702.4884830155
 20
657.8695424184
 10
702.4632553496
 20
656.1448820218
 10
702.4348984398
 20
654.2063154563
  0
LWPOLYLINE
  5
1FE
330
1F
100
AcDbEntity
  8
0
  6
Continuous
 62
     7
370
    15
100
AcDbPolyline
 90
        8
 70
   128
 43
0.0
 10
709.3001465239
 20
576.5730053469
 10
709.3008766808
 20
576.6227528736
 10
709.3066732325
 20
577.0182520434
 10
709.3180428185
 20
577.7961559877
 10
709.3346427121
 20
578.9307192251
 10
709.3559066691
 20
580.3843871042
 10
709.381134335
 20
582.1090475008
 10
709.4094912447
 20
584.0476177916
  0
LWPOLYLINE
  5
1FF
330
1F
100
AcDbEntity
  8
0
  6
Continuous
 62
     7
370
    15
100
AcDbPolyline
 90
        8
 70
   128
 43
0.0
 10
701.4103392996
 20
584.1646254346
 10
701.3819823899
 20
582.226058869
 10
701.356754724
 20
580.5013984725
 10
701.3354907669
 20
579.0477268681
 10
701.3189057745
 20
577.9131636306
 10
701.3075212874
 20
577.1352596864
 10
701.3017396368
 20
576.7397642419
 10
701.3010094799
 20
576.6900167152
  0
LINE
  5
200
330
1F
100
AcDbEntity
  8
0
  6
Continuous
 62
     7
370
    15
100
AcDbLine
 10
358.4662984051
 20
590.4984422311
 30
0.0
 11
358.4470312037
 21
589.1814105496
 31
0.0
  0
LINE
  5
201
330
1F
100
AcDbEntity
  8
0
  6
Continuous
 62
     7
370
    15
100
AcDbLine
 10
359.4410727658
 20
664.199484913
 30
0.0
 11
357.5445721783
 21
664.2272271499
 31
0.0
  0
LWPOLYLINE
  5
202
330
1F
100
AcDbEntity
  8
0
  6
Continuous
 62
     7
370
    15
100
AcDbPolyline
 90
        9
 70
   128
 43
0.0
 10
357.5445721783
 20
664.2272271499
 10
357.5372110047
 20
663.7241415962
 10
357.5292835869
 20
663.1820448026
 10
357.5208197274
 20
662.6032874271
 10
357.5118492283
 20
661.9903765902
 10
357.5024316944
 20
661.3459721491
 10
357.4925820269
 20
660.6728680715
 10
357.4823598303
 20
659.973984985
 10
357.4718098082
 20
659.2523515507
  0
LINE
  5
203
330
1F
100
AcDbEntity
  8
0
  6
Continuous
 62
     7
370
    15
100
AcDbLine
 10
358.3742688336
 20
584.2065349504
 30
0.0
 11
356.3744733967
 21
584.2357859298
 31
0.0
  0
LWPOLYLINE
  5
204
330
1F
100
AcDbEntity
  8
0
  6
Continuous
 62
     7
370
    15
100
AcDbPolyline
 90
        9
 70
   128
 43
0.0
 10
356.447250668
 20
589.210661529
 10
356.4367006459
 20
588.48903182
 10
356.4264784493
 20
587.7901450082
 10
356.4166287817
 20
587.117044656
 10
356.4071963467
 20
586.4726402148
 10
356.3982407488
 20
585.8597293779
 10
356.3897619881
 20
585.2809682771
 10
356.3818345703
 20
584.7388714835
 10
356.3744733967
 20
584.2357859298
  0
LWPOLYLINE
  5
205
330
1F
100
AcDbEntity
  8
0
  6
Continuous
 62
     7
370
    15
100
AcDbPolyline
 90
        9
 70
   128
 43
0.0
 10
358.4470312037
 20
589.1814105496
 10
358.4364811816
 20
588.4597771153
 10
358.426258985
 20
587.7608940288
 10
358.4164093174
 20
587.0877899512
 10
358.4069917836
 20
586.4433855101
 10
358.3980212845
 20
585.8304746732
 10
358.389557425
 20
585.2517172977
 10
358.3816300072
 20
584.7096167788
 10
358.3742688336
 20
584.2065349504
  0
CIRCLE
  5
206
330
1F
100
AcDbEntity
  8
0
  6
Continuous
 62
     7
370
    15
100
AcDbCircle
 10
529.4410745539
 20
621.7084884926
 30
0.0
 40
170.0000000000001
  0
SPLINE
  5
207
330
1F
100
AcDbEntity
  8
0
  6
Continuous
 62
     7
370
    15
100
AcDbSpline
210
0.0
220
0.0
230
1.0
 70
     8
 71
     3
 72
     9
 73
     5
 74
     0
 42
0.00000001
 43
0.00000001
 12
1.0
 22
0.0
 32
0.0
 13
1.0
 23
0.0
 33
0.0
 40
0.0
 40
0.0
 40
0.0
 40
0.0
 40
0.7406512019798315
 40
1.0
 40
1.0
 40
1.0
 40
1.0
 10
483.5664826371076
 20
785.4018718287148
 30
0.0
 10
483.5116111711868
 20
785.4151337181261
 30
0.0
 10
483.4375257369443
 20
785.4330394332263
 30
0.0
 10
483.3923246695764
 20
785.6093116648431
 30
0.0
 10
483.3806018270852
 20
785.655027656237
 30
0.0
  0
SPLINE
  5
208
330
1F
100
AcDbEntity
  8
0
  6
Continuous
 62
     7
370
    15
100
AcDbSpline
210
0.0
220
0.0
230
1.0
 70
     8
 71
     3
 72
     9
 73
     5
 74
     0
 42
0.00000001
 43
0.00000001
 12
1.0
 22
0.0
 32
0.0
 13
1.0
 23
0.0
 33
0.0
 40
0.0
 40
0.0
 40
0.0
 40
0.0
 40
0.7406436987479713
 40
1.0
 40
1.0
 40
1.0
 40
1.0
 10
498.9705226309898
 20
789.2542392298378
 30
0.0
 10
498.9868275886955
 20
789.1368917958852
 30
0.0
 10
499.0088421656549
 20
788.9784520033763
 30
0.0
 10
498.9338728394679
 20
788.9520630820333
 30
0.0
 10
498.9144290723207
 20
788.9452189489998
 30
0.0
  0
SPLINE
  5
209
330
1F
100
AcDbEntity
  8
0
  6
Continuous
 62
     7
370
    15
100
AcDbSpline
210
0.0
220
0.0
230
1.0
 70
     8
 71
     3
 72
    11
 73
     7
 74
     0
 42
0.00000001
 43
0.00000001
 12
1.0
 22
0.0
 32
0.0
 13
1.0
 23
0.0
 33
0.0
 40
0.0
 40
0.0
 40
0.0
 40
0.0
 40
0.2552657529678931
 40
0.4764538460528275
 40
0.8282857436561822
 40
1.0
 40
1.0
 40
1.0
 40
1.0
 10
498.4061728157403
 20
791.6987151190438
 30
0.0
 10
498.4681327700782
 20
791.4303336217904
 30
0.0
 10
498.5837811020707
 20
790.9293992226825
 30
0.0
 10
498.7607833528
 20
790.1627313403814
 30
0.0
 10
498.8927069272482
 20
789.5912876542403
 30
0.0
 10
498.951303838287
 20
789.3374828874537
 30
0.0
 10
498.9705226309898
 20
789.2542392298378
 30
0.0
  0
SPLINE
  5
20A
330
1F
100
AcDbEntity
  8
0
  6
Continuous
 62
     7
370
    15
100
AcDbSpline
210
0.0
220
0.0
230
1.0
 70
     8
 71
     3
 72
    11
 73
     7
 74
     0
 42
0.00000001
 43
0.00000001
 12
1.0
 22
0.0
 32
0.0
 13
1.0
 23
0.0
 33
0.0
 40
0.0
 40
0.0
 40
0.0
 40
0.0
 40
0.3044573539609555
 40
0.524094885013688
 40
0.8765635631166887
 40
0.9999999999999999
 40
0.9999999999999999
 40
0.9999999999999999
 40
0.9999999999999999
 10
483.3806018270852
 20
785.655027656237
 30
0.0
 10
483.3440150489844
 20
785.8135023792692
 30
0.0
 10
483.2810343293129
 20
786.0863018063959
 30
0.0
 10
483.1184911213153
 20
786.7903260576782
 30
0.0
 10
482.9622868421615
 20
787.4669520320522
 30
0.0
 10
482.8463269042201
 20
787.9692155714934
 30
0.0
 10
482.8162501491906
 20
788.0994886442818
 30
0.0
  0
ARC
  5
20B
330
1F
100
AcDbEntity
  8
0
  6
Continuous
 62
     7
370
    15
100
AcDbCircle
 10
529.4410745539
 20
621.7084884926
 30
0.0
 40
173.8000000000002
100
AcDbArc
 50
105.6382523099
 51
100.3617476901
  0
SPLINE
  5
20C
330
1F
100
AcDbEntity
  8
0
  6
Continuous
 62
     7
370
    15
100
AcDbSpline
210
0.0
220
0.0
230
1.0
 70
     8
 71
     3
 72
    12
 73
     8
 74
     0
 42
0.00000001
 43
0.00000001
 12
1.0
 22
0.0
 32
0.0
 13
1.0
 23
0.0
 33
0.0
 40
0.0
 40
0.0
 40
0.0
 40
0.0
 40
0.2268817229130385
 40
0.4733067331042154
 40
0.6277150846444977
 40
0.8735024078005119
 40
0.9999999999999999
 40
0.9999999999999999
 40
0.9999999999999999
 40
0.9999999999999999
 10
498.4061728157403
 20
791.6987151190438
 30
0.0
 10
498.3781564777763
 20
791.8200628596458
 30
0.0
 10
498.3197105120765
 20
792.0732110724524
 30
0.0
 10
498.2562537472527
 20
792.34809339231
 30
0.0
 10
498.2083221856331
 20
792.5556847578825
 30
0.0
 10
498.1842936717702
 20
792.6597582282371
 30
0.0
 10
498.1818224362945
 20
792.6704741851206
 30
0.0
 10
498.1809827424886
 20
792.6741153284706
 30
0.0
  0
SPLINE
  5
20D
330
1F
100
AcDbEntity
  8
0
  6
Continuous
 62
     7
370
    15
100
AcDbSpline
210
0.0
220
0.0
230
1.0
 70
     8
 71
     3
 72
    12
 73
     8
 74
     0
 42
0.00000001
 43
0.00000001
 12
1.0
 22
0.0
 32
0.0
 13
1.0
 23
0.0
 33
0.0
 40
0.0
 40
0.0
 40
0.0
 40
0.0
 40
0.2190575578814588
 40
0.372479037777768
 40
0.6185644803539023
 40
0.8646442679958631
 40
1.0
 40
1.0
 40
1.0
 40
1.0
 10
482.5910600759389
 20
789.0749037548699
 30
0.0
 10
482.593476439753
 20
789.06443807006
 30
0.0
 10
482.5975851538148
 20
789.0466425269827
 30
0.0
 10
482.6300236899795
 20
788.9061223483407
 30
0.0
 10
482.6825841245075
 20
788.678485344081
 30
0.0
 10
482.7521515806679
 20
788.3771437836814
 30
0.0
 10
482.7994617290402
 20
788.1722108788749
 30
0.0
 10
482.8162501491906
 20
788.0994886442818
 30
0.0
  0
SPLINE
  5
20E
330
1F
100
AcDbEntity
  8
0
  6
Continuous
 62
     7
370
    15
100
AcDbSpline
210
0.0
220
0.0
230
1.0
 70
     8
 71
     3
 72
    10
 73
     6
 74
     0
 42
0.00000001
 43
0.00000001
 12
1.0
 22
0.0
 32
0.0
 13
1.0
 23
0.0
 33
0.0
 40
0.0
 40
0.0
 40
0.0
 40
0.0
 40
0.447281286090153
 40
0.8945553939311838
 40
1.0
 40
1.0
 40
1.0
 40
1.0
 10
453.6763216294648
 20
789.9098754212059
 30
0.0
 10
459.8904113400967
 20
790.7876968659125
 30
0.0
 10
472.318491033772
 20
792.5433256674994
 30
0.0
 10
486.3158565702644
 20
793.9886663458404
 30
0.0
 10
494.0881544348849
 20
794.4161262968383
 30
0.0
 10
495.5709102489354
 20
794.4976747318901
 30
0.0
  0
SPLINE
  5
20F
330
1F
100
AcDbEntity
  8
0
  6
Continuous
 62
     7
370
    15
100
AcDbSpline
210
0.0
220
0.0
230
1.0
 70
     8
 71
     3
 72
     9
 73
     5
 74
     0
 42
0.00000001
 43
0.00000001
 12
1.0
 22
0.0
 32
0.0
 13
1.0
 23
0.0
 33
0.0
 40
0.0
 40
0.0
 40
0.0
 40
0.0
 40
0.3856668888497519
 40
0.9999999999999999
 40
0.9999999999999999
 40
0.9999999999999999
 40
0.9999999999999999
 10
574.2993961014154
 20
793.6035901590981
 30
0.0
 10
578.2928003880111
 20
793.2515288404207
 30
0.0
 10
588.6473431347478
 20
792.338665100089
 30
0.0
 10
598.9045101526524
 20
790.8341492959422
 30
0.0
 10
605.2058274783494
 20
789.9098754212059
 30
0.0
  0
SPLINE
  5
210
330
1F
100
AcDbEntity
  8
0
  6
Continuous
 62
     7
370
    15
100
AcDbSpline
210
0.0
220
0.0
230
1.0
 70
     8
 71
     3
 72
    10
 73
     6
 74
     0
 42
0.00000001
 43
0.00000001
 12
1.0
 22
0.0
 32
0.0
 13
1.0
 23
0.0
 33
0.0
 40
0.0
 40
0.0
 40
0.0
 40
0.0
 40
0.4891478048094977
 40
0.9782877594698618
 40
1.0
 40
1.0
 40
1.0
 40
1.0
 10
361.2396876253488
 20
545.9437355682053
 30
0.0
 10
360.3660859766978
 20
552.1582306922738
 30
0.0
 10
358.6188966995002
 20
564.5871212063164
 30
0.0
 10
357.2541300420703
 20
577.3822979398786
 30
0.0
 10
356.877452877762
 20
583.9495421543684
 30
0.0
 10
356.8614433445336
 20
584.2286631747879
 30
0.0
  0
SPLINE
  5
211
330
1F
100
AcDbEntity
  8
0
  6
Continuous
 62
     7
370
    15
100
AcDbSpline
210
0.0
220
0.0
230
1.0
 70
     8
 71
     3
 72
     9
 73
     5
 74
     0
 42
0.00000001
 43
0.00000001
 12
1.0
 22
0.0
 32
0.0
 13
1.0
 23
0.0
 33
0.0
 40
0.0
 40
0.0
 40
0.0
 40
0.0
 40
0.3856668888497519
 40
0.9999999999999999
 40
0.9999999999999999
 40
0.9999999999999999
 40
0.9999999999999999
 10
357.5459728874566
 20
666.5668100401558
 30
0.0
 10
357.8980342061341
 20
670.5602143267515
 30
0.0
 10
358.8108979464657
 20
680.9147570734882
 30
0.0
 10
360.3154137506126
 20
691.1719240913928
 30
0.0
 10
361.2396876253488
 20
697.4732414170899
 30
0.0
  0
SPLINE
  5
212
330
1F
100
AcDbEntity
  8
0
  6
Continuous
 62
     7
370
    15
100
AcDbSpline
210
0.0
220
0.0
230
1.0
 70
     8
 71
     3
 72
    10
 73
     6
 74
     0
 42
0.00000001
 43
0.00000001
 12
1.0
 22
0.0
 32
0.0
 13
1.0
 23
0.0
 33
0.0
 40
0.0
 40
0.0
 40
0.0
 40
0.0
 40
0.4167325877070381
 40
0.8334584874295239
 40
0.9999999999999999
 40
0.9999999999999999
 40
0.9999999999999999
 40
0.9999999999999999
 10
697.6424614824655
 20
697.4732414170899
 30
0.0
 10
698.5228897933832
 20
691.2594021683858
 30
0.0
 10
700.2837322855557
 20
678.8318233945463
 30
0.0
 10
701.8037469198478
 20
663.8053720410027
 30
0.0
 10
702.275145810287
 20
655.0010331340327
 30
0.0
 10
702.4097452797297
 20
652.487112610022
 30
0.0
  0
SPLINE
  5
213
330
1F
100
AcDbEntity
  8
0
  6
Continuous
 62
     7
370
    15
100
AcDbSpline
210
0.0
220
0.0
230
1.0
 70
     8
 71
     3
 72
     9
 73
     5
 74
     0
 42
0.00000001
 43
0.00000001
 12
1.0
 22
0.0
 32
0.0
 13
1.0
 23
0.0
 33
0.0
 40
0.0
 40
0.0
 40
0.0
 40
0.0
 40
0.3856668888497519
 40
0.9999999999999999
 40
0.9999999999999999
 40
0.9999999999999999
 40
0.9999999999999999
 10
701.3361762203576
 20
576.8501669451393
 30
0.0
 10
700.9841149016802
 20
572.8567626585436
 30
0.0
 10
700.0712511613486
 20
562.502219911807
 30
0.0
 10
698.5667353572017
 20
552.2450528939023
 30
0.0
 10
697.6424614824655
 20
545.9437355682053
 30
0.0
  0
SPLINE
  5
214
330
1F
100
AcDbEntity
  8
0
  6
Continuous
 62
     7
370
    15
100
AcDbSpline
210
0.0
220
0.0
230
1.0
 70
     8
 71
     3
 72
    10
 73
     6
 74
     0
 42
0.00000001
 43
0.00000001
 12
1.0
 22
0.0
 32
0.0
 13
1.0
 23
0.0
 33
0.0
 40
0.0
 40
0.0
 40
0.0
 40
0.0
 40
0.4489627836800971
 40
0.8979183621253496
 40
1.0
 40
1.0
 40
1.0
 40
1.0
 10
605.2058274783495
 20
453.5071015640892
 30
0.0
 10
598.9917229962455
 20
452.6294331656003
 30
0.0
 10
586.5636137598631
 20
450.8741104539924
 30
0.0
 10
572.6188369766542
 20
449.432478575597
 30
0.0
 10
564.8992690533111
 20
449.0072429125443
 30
0.0
 10
563.4691911675336
 20
448.9284664675392
 30
0.0
  0
SPLINE
  5
215
330
1F
100
AcDbEntity
  8
0
  6
Continuous
 62
     7
370
    15
100
AcDbSpline
210
0.0
220
0.0
230
1.0
 70
     8
 71
     3
 72
     9
 73
     5
 74
     0
 42
0.00000001
 43
0.00000001
 12
1.0
 22
0.0
 32
0.0
 13
1.0
 23
0.0
 33
0.0
 40
0.0
 40
0.0
 40
0.0
 40
0.0
 40
0.3827455018567494
 40
1.0
 40
1.0
 40
1.0
 40
1.0
 10
484.4359095134141
 20
449.8274237200417
 30
0.0
 10
480.4915484925575
 20
450.1753858163111
 30
0.0
 10
470.1861079276858
 20
451.0845071373492
 30
0.0
 10
459.9775808732392
 20
452.5824744823288
 30
0.0
 10
453.6763216294648
 20
453.5071015640892
 30
0.0
  0
LINE
  5
216
330
1F
100
AcDbEntity
  8
0
  6
Continuous
 62
     7
370
    15
100
AcDbLine
 10
611.9198585786
 20
777.6043921992
 30
0.0
 11
613.857538525
 21
774.1963178202
 31
0.0
  0
LINE
  5
217
330
1F
100
AcDbEntity
  8
0
  6
Continuous
 62
     7
370
    15
100
AcDbLine
 10
445.0246105828
 20
774.1963178202
 30
0.0
 11
446.9622905292
 21
777.6043921992
 31
0.0
  0
LINE
  5
218
330
1F
100
AcDbEntity
  8
0
  6
Continuous
 62
     7
370
    15
100
AcDbLine
 10
373.5451708474
 20
704.1872725174
 30
0.0
 11
376.9532452263
 21
706.1249524638
 31
0.0
  0
LINE
  5
219
330
1F
100
AcDbEntity
  8
0
  6
Continuous
 62
     7
370
    15
100
AcDbLine
 10
681.9289038815
 20
706.1249524638
 30
0.0
 11
685.3369782605
 21
704.1872725174
 31
0.0
  0
LINE
  5
21A
330
1F
100
AcDbEntity
  8
0
  6
Continuous
 62
     7
370
    15
100
AcDbLine
 10
685.3369782605
 20
539.2297044679
 30
0.0
 11
681.9289038815
 21
537.2920245215
 31
0.0
  0
LINE
  5
21B
330
1F
100
AcDbEntity
  8
0
  6
Continuous
 62
     7
370
    15
100
AcDbLine
 10
376.9532452263
 20
537.2920245215
 30
0.0
 11
373.5451708474
 21
539.2297044679
 31
0.0
  0
LINE
  5
21C
330
1F
100
AcDbEntity
  8
0
  6
Continuous
 62
     7
370
    15
100
AcDbLine
 10
446.9622905292
 20
465.8125847861
 30
0.0
 11
445.0246105828
 21
469.2206591651
 31
0.0
  0
LINE
  5
21D
330
1F
100
AcDbEntity
  8
0
  6
Continuous
 62
     7
370
    15
100
AcDbLine
 10
613.857538525
 20
469.2206591651
 30
0.0
 11
611.9198585786
 21
465.8125847861
 31
0.0
  0
LWPOLYLINE
  5
21E
330
1F
100
AcDbEntity
  8
0
  6
Continuous
 62
     7
370
    15
100
AcDbPolyline
 90
        3
 70
   128
 43
0.0
 10
613.857538525
 20
774.1963178202
 10
614.4622574486
 20
773.3848750874
 10
614.5939986147
 20
773.2189506575
  0
LWPOLYLINE
  5
21F
330
1F
100
AcDbEntity
  8
0
  6
Continuous
 62
     7
370
    15
100
AcDbPolyline
 90
        3
 70
   128
 43
0.0
 10
376.9532452263
 20
706.1249524638
 10
377.7646879591
 20
706.7296713874
 10
377.930612389
 20
706.8614125535
  0
LWPOLYLINE
  5
220
330
1F
100
AcDbEntity
  8
0
  6
Continuous
 62
     7
370
    15
100
AcDbPolyline
 90
        3
 70
   128
 43
0.0
 10
681.9289038815
 20
537.2920245215
 10
681.1174611487
 20
536.6873055979
 10
680.9515367188
 20
536.5555644318
  0
LWPOLYLINE
  5
221
330
1F
100
AcDbEntity
  8
0
  6
Continuous
 62
     7
370
    15
100
AcDbPolyline
 90
        3
 70
   128
 43
0.0
 10
445.0246105828
 20
469.2206591651
 10
444.4198916592
 20
470.0321018979
 10
444.2881504931
 20
470.1980263278
  0
LWPOLYLINE
  5
222
330
1F
100
AcDbEntity
  8
0
  6
Continuous
 62
     7
370
    15
100
AcDbPolyline
 90
        3
 70
   128
 43
0.0
 10
680.9515367188
 20
706.8614125535
 10
681.1174611487
 20
706.7296713874
 10
681.9289038815
 20
706.1249524638
  0
LWPOLYLINE
  5
223
330
1F
100
AcDbEntity
  8
0
  6
Continuous
 62
     7
370
    15
100
AcDbPolyline
 90
        3
 70
   128
 43
0.0
 10
444.2881504931
 20
773.2189506575
 10
444.4198916592
 20
773.3848750874
 10
445.0246105828
 20
774.1963178202
  0
LWPOLYLINE
  5
224
330
1F
100
AcDbEntity
  8
0
  6
Continuous
 62
     7
370
    15
100
AcDbPolyline
 90
        3
 70
   128
 43
0.0
 10
377.930612389
 20
536.5555644318
 10
377.7646879591
 20
536.6873055979
 10
376.9532452263
 20
537.2920245215
  0
LWPOLYLINE
  5
225
330
1F
100
AcDbEntity
  8
0
  6
Continuous
 62
     7
370
    15
100
AcDbPolyline
 90
        3
 70
   128
 43
0.0
 10
614.5939986147
 20
470.1980263278
 10
614.4622574486
 20
470.0321018979
 10
613.857538525
 20
469.2206591651
  0
LINE
  5
226
330
1F
100
AcDbEntity
  8
0
  6
Continuous
 62
     7
370
    15
100
AcDbLine
 10
446.9622905292
 20
777.6043921992
 30
0.0
 11
451.3132582344
 21
787.3786449715
 31
0.0
  0
LINE
  5
227
330
1F
100
AcDbEntity
  8
0
  6
Continuous
 62
     7
370
    15
100
AcDbLine
 10
607.5688908734
 20
787.3786449715
 30
0.0
 11
611.9198585786
 21
777.6043921992
 31
0.0
  0
LINE
  5
228
330
1F
100
AcDbEntity
  8
0
  6
Continuous
 62
     7
370
    15
100
AcDbLine
 10
685.3369782605
 20
704.1872725174
 30
0.0
 11
695.1112310328
 21
699.8363048121
 31
0.0
  0
LINE
  5
229
330
1F
100
AcDbEntity
  8
0
  6
Continuous
 62
     7
370
    15
100
AcDbLine
 10
363.770918075
 20
699.8363048121
 30
0.0
 11
373.5451708474
 21
704.1872725174
 31
0.0
  0
LINE
  5
22A
330
1F
100
AcDbEntity
  8
0
  6
Continuous
 62
     7
370
    15
100
AcDbLine
 10
373.5451708474
 20
539.2297044679
 30
0.0
 11
363.770918075
 21
543.5806721732
 31
0.0
  0
LINE
  5
22B
330
1F
100
AcDbEntity
  8
0
  6
Continuous
 62
     7
370
    15
100
AcDbLine
 10
695.1112310328
 20
543.5806721732
 30
0.0
 11
685.3369782605
 21
539.2297044679
 31
0.0
  0
LINE
  5
22C
330
1F
100
AcDbEntity
  8
0
  6
Continuous
 62
     7
370
    15
100
AcDbLine
 10
611.9198585786
 20
465.8125847861
 30
0.0
 11
607.5688908734
 21
456.0383320138
 31
0.0
  0
LINE
  5
22D
330
1F
100
AcDbEntity
  8
0
  6
Continuous
 62
     7
370
    15
100
AcDbLine
 10
451.3132582344
 20
456.0383320138
 30
0.0
 11
446.9622905292
 21
465.8125847861
 31
0.0
  0
SPLINE
  5
22E
330
1F
100
AcDbEntity
  8
0
  6
Continuous
 62
     7
370
    15
100
AcDbSpline
210
0.0
220
0.0
230
1.0
 70
     8
 71
     3
 72
     9
 73
     5
 74
     0
 42
0.00000001
 43
0.00000001
 12
1.0
 22
0.0
 32
0.0
 13
1.0
 23
0.0
 33
0.0
 40
0.0
 40
0.0
 40
0.0
 40
0.0
 40
0.7415168135553853
 40
1.0
 40
1.0
 40
1.0
 40
1.0
 10
451.3132582344415
 20
787.3786449715294
 30
0.0
 10
451.3885994620667
 20
787.5478803722658
 30
0.0
 10
451.490203668806
 20
787.7761090484636
 30
0.0
 10
451.5737672400084
 20
787.963860709499
 30
0.0
 10
451.5953670181634
 20
788.0123913571038
 30
0.0
  0
SPLINE
  5
22F
330
1F
100
AcDbEntity
  8
0
  6
Continuous
 62
     7
370
    15
100
AcDbSpline
210
0.0
220
0.0
230
1.0
 70
     8
 71
     3
 72
     9
 73
     5
 74
     0
 42
0.00000001
 43
0.00000001
 12
1.0
 22
0.0
 32
0.0
 13
1.0
 23
0.0
 33
0.0
 40
0.0
 40
0.0
 40
0.0
 40
0.0
 40
0.7415168135553853
 40
1.0
 40
1.0
 40
1.0
 40
1.0
 10
363.7709180750252
 20
543.5806721731819
 30
0.0
 10
363.6016826742891
 20
543.6560134008072
 30
0.0
 10
363.3734539980911
 20
543.7576176075465
 30
0.0
 10
363.1857023370556
 20
543.8411811787488
 30
0.0
 10
363.137171689451
 20
543.8627809569039
 30
0.0
  0
SPLINE
  5
230
330
1F
100
AcDbEntity
  8
0
  6
Continuous
 62
     7
370
    15
100
AcDbSpline
210
0.0
220
0.0
230
1.0
 70
     8
 71
     3
 72
     9
 73
     5
 74
     0
 42
0.00000001
 43
0.00000001
 12
1.0
 22
0.0
 32
0.0
 13
1.0
 23
0.0
 33
0.0
 40
0.0
 40
0.0
 40
0.0
 40
0.0
 40
0.7412699723273551
 40
1.0
 40
1.0
 40
1.0
 40
1.0
 10
607.2867820896508
 20
788.0123913571038
 30
0.0
 10
607.3521661786016
 20
787.8655037277998
 30
0.0
 10
607.4403716791498
 20
787.6673470038161
 30
0.0
 10
607.5424739500081
 20
787.4379872317128
 30
0.0
 10
607.5688908733728
 20
787.3786449715294
 30
0.0
  0
SPLINE
  5
231
330
1F
100
AcDbEntity
  8
0
  6
Continuous
 62
     7
370
    15
100
AcDbSpline
210
0.0
220
0.0
230
1.0
 70
     8
 71
     3
 72
     9
 73
     5
 74
     0
 42
0.00000001
 43
0.00000001
 12
1.0
 22
0.0
 32
0.0
 13
1.0
 23
0.0
 33
0.0
 40
0.0
 40
0.0
 40
0.0
 40
0.0
 40
0.7415168135553853
 40
1.0
 40
1.0
 40
1.0
 40
1.0
 10
695.1112310327891
 20
699.8363048121132
 30
0.0
 10
695.2804664335252
 20
699.7609635844881
 30
0.0
 10
695.5086951097232
 20
699.6593593777487
 30
0.0
 10
695.6964467707587
 20
699.5757958065464
 30
0.0
 10
695.7449774183633
 20
699.5541960283913
 30
0.0
  0
SPLINE
  5
232
330
1F
100
AcDbEntity
  8
0
  6
Continuous
 62
     7
370
    15
100
AcDbSpline
210
0.0
220
0.0
230
1.0
 70
     8
 71
     3
 72
     9
 73
     5
 74
     0
 42
0.00000001
 43
0.00000001
 12
1.0
 22
0.0
 32
0.0
 13
1.0
 23
0.0
 33
0.0
 40
0.0
 40
0.0
 40
0.0
 40
0.0
 40
0.7412699723273551
 40
1.0
 40
1.0
 40
1.0
 40
1.0
 10
363.137171689451
 20
699.5541960283913
 30
0.0
 10
363.2840593187549
 20
699.6195801173419
 30
0.0
 10
363.4822160427387
 20
699.7077856178904
 30
0.0
 10
363.711575814842
 20
699.8098878887487
 30
0.0
 10
363.7709180750253
 20
699.8363048121132
 30
0.0
  0
SPLINE
  5
233
330
1F
100
AcDbEntity
  8
0
  6
Continuous
 62
     7
370
    15
100
AcDbSpline
210
0.0
220
0.0
230
1.0
 70
     8
 71
     3
 72
     9
 73
     5
 74
     0
 42
0.00000001
 43
0.00000001
 12
1.0
 22
0.0
 32
0.0
 13
1.0
 23
0.0
 33
0.0
 40
0.0
 40
0.0
 40
0.0
 40
0.0
 40
0.7412699723273551
 40
1.0
 40
1.0
 40
1.0
 40
1.0
 10
695.7449774183633
 20
543.8627809569039
 30
0.0
 10
695.5980897890595
 20
543.7973968679532
 30
0.0
 10
695.3999330650756
 20
543.7091913674049
 30
0.0
 10
695.1705732929722
 20
543.6070890965466
 30
0.0
 10
695.111231032789
 20
543.5806721731819
 30
0.0
  0
SPLINE
  5
234
330
1F
100
AcDbEntity
  8
0
  6
Continuous
 62
     7
370
    15
100
AcDbSpline
210
0.0
220
0.0
230
1.0
 70
     8
 71
     3
 72
     9
 73
     5
 74
     0
 42
0.00000001
 43
0.00000001
 12
1.0
 22
0.0
 32
0.0
 13
1.0
 23
0.0
 33
0.0
 40
0.0
 40
0.0
 40
0.0
 40
0.0
 40
0.7415168135553853
 40
1.0
 40
1.0
 40
1.0
 40
1.0
 10
607.5688908733729
 20
456.0383320137657
 30
0.0
 10
607.4935496457476
 20
455.8690966130295
 30
0.0
 10
607.3919454390083
 20
455.6408679368315
 30
0.0
 10
607.308381867806
 20
455.4531162757961
 30
0.0
 10
607.2867820896508
 20
455.4045856281914
 30
0.0
  0
SPLINE
  5
235
330
1F
100
AcDbEntity
  8
0
  6
Continuous
 62
     7
370
    15
100
AcDbSpline
210
0.0
220
0.0
230
1.0
 70
     8
 71
     3
 72
     9
 73
     5
 74
     0
 42
0.00000001
 43
0.00000001
 12
1.0
 22
0.0
 32
0.0
 13
1.0
 23
0.0
 33
0.0
 40
0.0
 40
0.0
 40
0.0
 40
0.0
 40
0.7412699723273551
 40
1.0
 40
1.0
 40
1.0
 40
1.0
 10
451.5953670181634
 20
455.4045856281914
 30
0.0
 10
451.5299829292127
 20
455.5514732574953
 30
0.0
 10
451.4417774286644
 20
455.7496299814791
 30
0.0
 10
451.3396751578061
 20
455.9789897535825
 30
0.0
 10
451.3132582344415
 20
456.0383320137657
 30
0.0
  0
SPLINE
  5
236
330
1F
100
AcDbEntity
  8
0
  6
Continuous
 62
     7
370
    15
100
AcDbSpline
210
0.0
220
0.0
230
1.0
 70
     8
 71
     3
 72
    10
 73
     6
 74
     0
 42
0.00000001
 43
0.00000001
 12
1.0
 22
0.0
 32
0.0
 13
1.0
 23
0.0
 33
0.0
 40
0.0
 40
0.0
 40
0.0
 40
0.0
 40
0.3625000683546823
 40
0.7681747872906617
 40
1.0
 40
1.0
 40
1.0
 40
1.0
 10
451.5953670181634
 20
788.0123913571038
 30
0.0
 10
451.6209912768505
 20
788.072779781247
 30
0.0
 10
451.6752917065187
 20
788.2007490395197
 30
0.0
 10
451.7003911726582
 20
788.2728420956795
 30
0.0
 10
451.7037562559937
 20
788.2819058171929
 30
0.0
 10
451.7049799599054
 20
788.2852018162407
 30
0.0
  0
ARC
  5
237
330
1F
100
AcDbEntity
  8
0
  6
Continuous
 62
     7
370
    15
100
AcDbCircle
 10
454.0572360777
 20
787.4390500023
 30
0.0
 40
2.499816340417976
100
AcDbArc
 50
98.821724292
 51
160.2153650113
  0
SPLINE
  5
238
330
1F
100
AcDbEntity
  8
0
  6
Continuous
 62
     7
370
    15
100
AcDbSpline
210
0.0
220
0.0
230
1.0
 70
     8
 71
     3
 72
    10
 73
     6
 74
     0
 42
0.00000001
 43
0.00000001
 12
1.0
 22
0.0
 32
0.0
 13
1.0
 23
0.0
 33
0.0
 40
0.0
 40
0.0
 40
0.0
 40
0.0
 40
0.3625000683546823
 40
0.7681747872906617
 40
1.0
 40
1.0
 40
1.0
 40
1.0
 10
607.2867820896508
 20
455.4045856281914
 30
0.0
 10
607.2611578309638
 20
455.3441972040482
 30
0.0
 10
607.2068574012956
 20
455.2162279457755
 30
0.0
 10
607.1817579351562
 20
455.1441348896157
 30
0.0
 10
607.1783928518206
 20
455.1350711681023
 30
0.0
 10
607.177169147909
 20
455.1317751690544
 30
0.0
  0
ARC
  5
239
330
1F
100
AcDbEntity
  8
0
  6
Continuous
 62
     7
370
    15
100
AcDbCircle
 10
604.8249130302
 20
455.977926983
 30
0.0
 40
2.499816340418048
100
AcDbArc
 50
278.821724292
 51
340.2153650113
  0
SPLINE
  5
23A
330
1F
100
AcDbEntity
  8
0
  6
Continuous
 62
     7
370
    15
100
AcDbSpline
210
0.0
220
0.0
230
1.0
 70
     8
 71
     3
 72
    10
 73
     6
 74
     0
 42
0.00000001
 43
0.00000001
 12
1.0
 22
0.0
 32
0.0
 13
1.0
 23
0.0
 33
0.0
 40
0.0
 40
0.0
 40
0.0
 40
0.0
 40
0.4115584338952435
 40
0.7944357401752777
 40
1.0
 40
1.0
 40
1.0
 40
1.0
 10
607.177169147909
 20
788.2852018162407
 30
0.0
 10
607.1804253835135
 20
788.2762146072141
 30
0.0
 10
607.186710930667
 20
788.2588664994674
 30
0.0
 10
607.2262435108022
 20
788.1522083097487
 30
0.0
 10
607.2711089450146
 20
788.0485892884575
 30
0.0
 10
607.2867820896508
 20
788.0123913571038
 30
0.0
  0
ARC
  5
23B
330
1F
100
AcDbEntity
  8
0
  6
Continuous
 62
     7
370
    15
100
AcDbCircle
 10
604.8249130302
 20
787.4390500023
 30
0.0
 40
2.499816340418029
100
AcDbArc
 50
19.7846349887
 51
81.178275708
  0
SPLINE
  5
23C
330
1F
100
AcDbEntity
  8
0
  6
Continuous
 62
     7
370
    15
100
AcDbSpline
210
0.0
220
0.0
230
1.0
 70
     8
 71
     3
 72
    10
 73
     6
 74
     0
 42
0.00000001
 43
0.00000001
 12
1.0
 22
0.0
 32
0.0
 13
1.0
 23
0.0
 33
0.0
 40
0.0
 40
0.0
 40
0.0
 40
0.0
 40
0.3625000683546823
 40
0.7681747872906617
 40
1.0
 40
1.0
 40
1.0
 40
1.0
 10
363.137171689451
 20
543.8627809569039
 30
0.0
 10
363.0767832653077
 20
543.888405215591
 30
0.0
 10
362.9488140070351
 20
543.9427056452591
 30
0.0
 10
362.8767209508752
 20
543.9678051113985
 30
0.0
 10
362.867657229362
 20
543.9711701947341
 30
0.0
 10
362.8643612303139
 20
543.9723938986458
 30
0.0
  0
ARC
  5
23D
330
1F
100
AcDbEntity
  8
0
  6
Continuous
 62
     7
370
    15
100
AcDbCircle
 10
363.7105130443
 20
546.3246500164
 30
0.0
 40
2.499816340418048
100
AcDbArc
 50
188.821724292
 51
250.2153650113
  0
SPLINE
  5
23E
330
1F
100
AcDbEntity
  8
0
  6
Continuous
 62
     7
370
    15
100
AcDbSpline
210
0.0
220
0.0
230
1.0
 70
     8
 71
     3
 72
    10
 73
     6
 74
     0
 42
0.00000001
 43
0.00000001
 12
1.0
 22
0.0
 32
0.0
 13
1.0
 23
0.0
 33
0.0
 40
0.0
 40
0.0
 40
0.0
 40
0.0
 40
0.3625000683546823
 40
0.7681747872906617
 40
1.0
 40
1.0
 40
1.0
 40
1.0
 10
695.7449774183633
 20
699.5541960283913
 30
0.0
 10
695.8053658425066
 20
699.5285717697043
 30
0.0
 10
695.9333351007791
 20
699.474271340036
 30
0.0
 10
696.0054281569392
 20
699.4491718738966
 30
0.0
 10
696.0144918784523
 20
699.445806790561
 30
0.0
 10
696.0177878775004
 20
699.4445830866493
 30
0.0
  0
ARC
  5
23F
330
1F
100
AcDbEntity
  8
0
  6
Continuous
 62
     7
370
    15
100
AcDbCircle
 10
695.1716360635
 20
697.0923269689
 30
0.0
 40
2.499816340418068
100
AcDbArc
 50
8.821724292
 51
70.2153650113
  0
SPLINE
  5
240
330
1F
100
AcDbEntity
  8
0
  6
Continuous
 62
     7
370
    15
100
AcDbSpline
210
0.0
220
0.0
230
1.0
 70
     8
 71
     3
 72
    10
 73
     6
 74
     0
 42
0.00000001
 43
0.00000001
 12
1.0
 22
0.0
 32
0.0
 13
1.0
 23
0.0
 33
0.0
 40
0.0
 40
0.0
 40
0.0
 40
0.0
 40
0.4115584338952435
 40
0.7944357401752777
 40
1.0
 40
1.0
 40
1.0
 40
1.0
 10
362.8643612303139
 20
699.4445830866493
 30
0.0
 10
362.8733484393407
 20
699.4478393222539
 30
0.0
 10
362.8906965470874
 20
699.4541248694075
 30
0.0
 10
362.9973547368061
 20
699.4936574495428
 30
0.0
 10
363.1009737580974
 20
699.5385228837549
 30
0.0
 10
363.137171689451
 20
699.5541960283913
 30
0.0
  0
ARC
  5
241
330
1F
100
AcDbEntity
  8
0
  6
Continuous
 62
     7
370
    15
100
AcDbCircle
 10
363.7105130443
 20
697.0923269689
 30
0.0
 40
2.499816340418048
100
AcDbArc
 50
109.7846349887
 51
171.178275708
  0
SPLINE
  5
242
330
1F
100
AcDbEntity
  8
0
  6
Continuous
 62
     7
370
    15
100
AcDbSpline
210
0.0
220
0.0
230
1.0
 70
     8
 71
     3
 72
    10
 73
     6
 74
     0
 42
0.00000001
 43
0.00000001
 12
1.0
 22
0.0
 32
0.0
 13
1.0
 23
0.0
 33
0.0
 40
0.0
 40
0.0
 40
0.0
 40
0.0
 40
0.4115584338952435
 40
0.7944357401752777
 40
1.0
 40
1.0
 40
1.0
 40
1.0
 10
451.7049799599054
 20
455.1317751690544
 30
0.0
 10
451.7017237243008
 20
455.1407623780811
 30
0.0
 10
451.6954381771473
 20
455.1581104858278
 30
0.0
 10
451.6559055970121
 20
455.2647686755465
 30
0.0
 10
451.6110401627997
 20
455.3683876968378
 30
0.0
 10
451.5953670181634
 20
455.4045856281914
 30
0.0
  0
ARC
  5
243
330
1F
100
AcDbEntity
  8
0
  6
Continuous
 62
     7
370
    15
100
AcDbCircle
 10
454.0572360777
 20
455.977926983
 30
0.0
 40
2.499816340417995
100
AcDbArc
 50
199.7846349887
 51
261.178275708
  0
SPLINE
  5
244
330
1F
100
AcDbEntity
  8
0
  6
Continuous
 62
     7
370
    15
100
AcDbSpline
210
0.0
220
0.0
230
1.0
 70
     8
 71
     3
 72
    10
 73
     6
 74
     0
 42
0.00000001
 43
0.00000001
 12
1.0
 22
0.0
 32
0.0
 13
1.0
 23
0.0
 33
0.0
 40
0.0
 40
0.0
 40
0.0
 40
0.0
 40
0.4115584338952435
 40
0.7944357401752777
 40
1.0
 40
1.0
 40
1.0
 40
1.0
 10
696.0177878775004
 20
543.9723938986458
 30
0.0
 10
696.0088006684736
 20
543.9691376630414
 30
0.0
 10
695.9914525607269
 20
543.9628521158877
 30
0.0
 10
695.8847943710083
 20
543.9233195357525
 30
0.0
 10
695.7811753497169
 20
543.8784541015402
 30
0.0
 10
695.7449774183633
 20
543.8627809569039
 30
0.0
  0
ARC
  5
245
330
1F
100
AcDbEntity
  8
0
  6
Continuous
 62
     7
370
    15
100
AcDbCircle
 10
695.1716360635
 20
546.3246500164
 30
0.0
 40
2.499816340418068
100
AcDbArc
 50
289.7846349887
 51
351.178275708
  0
ARC
  5
246
330
1F
100
AcDbEntity
  8
0
  6
Continuous
 62
     7
370
    15
100
AcDbCircle
 10
604.8247319584
 20
787.4391231954
 30
0.0
 40
2.499970071137702
100
AcDbArc
 50
19.7826737025
 51
81.2316433875
  0
LINE
  5
247
330
1F
100
AcDbEntity
  8
0
  6
Continuous
 62
     7
370
    15
100
AcDbLine
 10
696.0177878775
 20
699.4445830866
 30
0.0
 11
696.017832581
 21
699.4445756361
 31
0.0
  0
ARC
  5
248
330
1F
100
AcDbEntity
  8
0
  6
Continuous
 62
     7
370
    15
100
AcDbCircle
 10
695.1717092567
 20
697.0921458971
 30
0.0
 40
2.499970071137796
100
AcDbArc
 50
8.7683566125
 51
70.2173262975
  0
ARC
  5
249
330
1F
100
AcDbEntity
  8
0
  6
Continuous
 62
     7
370
    15
100
AcDbCircle
 10
363.7104398511
 20
697.0921458971
 30
0.0
 40
2.499970071137702
100
AcDbArc
 50
109.7826737025
 51
171.2316433875
  0
LINE
  5
24A
330
1F
100
AcDbEntity
  8
0
  6
Continuous
 62
     7
370
    15
100
AcDbLine
 10
362.8643612303
 20
543.9723938986
 30
0.0
 11
362.8643165268
 21
543.9724013492
 31
0.0
  0
ARC
  5
24B
330
1F
100
AcDbEntity
  8
0
  6
Continuous
 62
     7
370
    15
100
AcDbCircle
 10
363.7104398511
 20
546.3248310882
 30
0.0
 40
2.499970071137702
100
AcDbArc
 50
188.7683566125
 51
250.2173262975
  0
ARC
  5
24C
330
1F
100
AcDbEntity
  8
0
  6
Continuous
 62
     7
370
    15
100
AcDbCircle
 10
604.8247319584
 20
455.9778537899
 30
0.0
 40
2.499970071137702
100
AcDbArc
 50
278.7683566125
 51
340.2173262975
  0
ARC
  5
24D
330
1F
100
AcDbEntity
  8
0
  6
Continuous
 62
     7
370
    15
100
AcDbCircle
 10
695.1717092567
 20
546.3248310882
 30
0.0
 40
2.499970071137702
100
AcDbArc
 50
289.7826737025
 51
351.2316433875
  0
ARC
  5
24E
330
1F
100
AcDbEntity
  8
0
  6
Continuous
 62
     7
370
    15
100
AcDbCircle
 10
454.0574171494
 20
787.4391231954
 30
0.0
 40
2.499970071137702
100
AcDbArc
 50
98.7683566125
 51
160.2173262975
  0
ARC
  5
24F
330
1F
100
AcDbEntity
  8
0
  6
Continuous
 62
     7
370
    15
100
AcDbCircle
 10
454.0574171494
 20
455.9778537899
 30
0.0
 40
2.499970071137702
100
AcDbArc
 50
199.7826737025
 51
261.2316433875
  0
SPLINE
  5
250
330
1F
100
AcDbEntity
  8
0
  6
Continuous
 62
     7
370
    15
100
AcDbSpline
210
0.0
220
0.0
230
1.0
 70
     8
 71
     3
 72
     9
 73
     5
 74
     0
 42
0.00000001
 43
0.00000001
 12
1.0
 22
0.0
 32
0.0
 13
1.0
 23
0.0
 33
0.0
 40
0.0
 40
0.0
 40
0.0
 40
0.0
 40
0.5546959762779875
 40
1.0
 40
1.0
 40
1.0
 40
1.0
 10
697.6424614824655
 20
545.9437355682053
 30
0.0
 10
697.6348105617308
 20
545.893794599963
 30
0.0
 10
697.6210175632922
 20
545.8037615541541
 30
0.0
 10
697.5419093204945
 20
545.2951253655774
 30
0.0
 10
697.5066821016671
 20
545.0686276241936
 30
0.0
  0
SPLINE
  5
251
330
1F
100
AcDbEntity
  8
0
  6
Continuous
 62
     7
370
    15
100
AcDbSpline
210
0.0
220
0.0
230
1.0
 70
     8
 71
     3
 72
     9
 73
     5
 74
     0
 42
0.00000001
 43
0.00000001
 12
1.0
 22
0.0
 32
0.0
 13
1.0
 23
0.0
 33
0.0
 40
0.0
 40
0.0
 40
0.0
 40
0.0
 40
0.5546959762779875
 40
1.0
 40
1.0
 40
1.0
 40
1.0
 10
605.2058274783494
 20
789.9098754212059
 30
0.0
 10
605.2557684465917
 20
789.9022245004712
 30
0.0
 10
605.3458014924006
 20
789.8884315020326
 30
0.0
 10
605.8544376809773
 20
789.8093232592349
 30
0.0
 10
606.0809354223611
 20
789.7740960404076
 30
0.0
  0
SPLINE
  5
252
330
1F
100
AcDbEntity
  8
0
  6
Continuous
 62
     7
370
    15
100
AcDbSpline
210
0.0
220
0.0
230
1.0
 70
     8
 71
     3
 72
     9
 73
     5
 74
     0
 42
0.00000001
 43
0.00000001
 12
1.0
 22
0.0
 32
0.0
 13
1.0
 23
0.0
 33
0.0
 40
0.0
 40
0.0
 40
0.0
 40
0.0
 40
0.5568919973007546
 40
1.0
 40
1.0
 40
1.0
 40
1.0
 10
452.8012136854531
 20
789.7740960404076
 30
0.0
 10
453.0771487287161
 20
789.8169786814251
 30
0.0
 10
453.5726398555422
 20
789.8939821959759
 30
0.0
 10
453.644486019328
 20
789.9049953877817
 30
0.0
 10
453.6763216294648
 20
789.9098754212059
 30
0.0
  0
SPLINE
  5
253
330
1F
100
AcDbEntity
  8
0
  6
Continuous
 62
     7
370
    15
100
AcDbSpline
210
0.0
220
0.0
230
1.0
 70
     8
 71
     3
 72
     9
 73
     5
 74
     0
 42
0.00000001
 43
0.00000001
 12
1.0
 22
0.0
 32
0.0
 13
1.0
 23
0.0
 33
0.0
 40
0.0
 40
0.0
 40
0.0
 40
0.0
 40
0.5568919973007546
 40
1.0
 40
1.0
 40
1.0
 40
1.0
 10
697.5066821016671
 20
698.3483493611016
 30
0.0
 10
697.5495647426845
 20
698.0724143178386
 30
0.0
 10
697.6265682572356
 20
697.5769231910126
 30
0.0
 10
697.6375814490412
 20
697.5050770272267
 30
0.0
 10
697.6424614824655
 20
697.4732414170899
 30
0.0
  0
SPLINE
  5
254
330
1F
100
AcDbEntity
  8
0
  6
Continuous
 62
     7
370
    15
100
AcDbSpline
210
0.0
220
0.0
230
1.0
 70
     8
 71
     3
 72
     9
 73
     5
 74
     0
 42
0.00000001
 43
0.00000001
 12
1.0
 22
0.0
 32
0.0
 13
1.0
 23
0.0
 33
0.0
 40
0.0
 40
0.0
 40
0.0
 40
0.0
 40
0.5546959762779875
 40
1.0
 40
1.0
 40
1.0
 40
1.0
 10
361.2396876253488
 20
697.4732414170899
 30
0.0
 10
361.2473385460835
 20
697.5231823853321
 30
0.0
 10
361.2611315445221
 20
697.613215431141
 30
0.0
 10
361.3402397873198
 20
698.1218516197177
 30
0.0
 10
361.3754670061471
 20
698.3483493611016
 30
0.0
  0
SPLINE
  5
255
330
1F
100
AcDbEntity
  8
0
  6
Continuous
 62
     7
370
    15
100
AcDbSpline
210
0.0
220
0.0
230
1.0
 70
     8
 71
     3
 72
     9
 73
     5
 74
     0
 42
0.00000001
 43
0.00000001
 12
1.0
 22
0.0
 32
0.0
 13
1.0
 23
0.0
 33
0.0
 40
0.0
 40
0.0
 40
0.0
 40
0.0
 40
0.5568919973007546
 40
1.0
 40
1.0
 40
1.0
 40
1.0
 10
361.3754670061471
 20
545.0686276241936
 30
0.0
 10
361.3325843651297
 20
545.3445626674566
 30
0.0
 10
361.2555808505787
 20
545.8400537942825
 30
0.0
 10
361.2445676587731
 20
545.9118999580686
 30
0.0
 10
361.2396876253488
 20
545.9437355682053
 30
0.0
  0
SPLINE
  5
256
330
1F
100
AcDbEntity
  8
0
  6
Continuous
 62
     7
370
    15
100
AcDbSpline
210
0.0
220
0.0
230
1.0
 70
     8
 71
     3
 72
     9
 73
     5
 74
     0
 42
0.00000001
 43
0.00000001
 12
1.0
 22
0.0
 32
0.0
 13
1.0
 23
0.0
 33
0.0
 40
0.0
 40
0.0
 40
0.0
 40
0.0
 40
0.5546959762779875
 40
1.0
 40
1.0
 40
1.0
 40
1.0
 10
453.6763216294648
 20
453.5071015640892
 30
0.0
 10
453.6263806612226
 20
453.514752484824
 30
0.0
 10
453.5363476154137
 20
453.5285454832626
 30
0.0
 10
453.027711426837
 20
453.6076537260603
 30
0.0
 10
452.8012136854531
 20
453.6428809448876
 30
0.0
  0
SPLINE
  5
257
330
1F
100
AcDbEntity
  8
0
  6
Continuous
 62
     7
370
    15
100
AcDbSpline
210
0.0
220
0.0
230
1.0
 70
     8
 71
     3
 72
     9
 73
     5
 74
     0
 42
0.00000001
 43
0.00000001
 12
1.0
 22
0.0
 32
0.0
 13
1.0
 23
0.0
 33
0.0
 40
0.0
 40
0.0
 40
0.0
 40
0.0
 40
0.5568919973007546
 40
1.0
 40
1.0
 40
1.0
 40
1.0
 10
606.0809354223611
 20
453.6428809448876
 30
0.0
 10
605.8050003790983
 20
453.5999983038701
 30
0.0
 10
605.3095092522722
 20
453.5229947893192
 30
0.0
 10
605.2376630884862
 20
453.5119815975136
 30
0.0
 10
605.2058274783494
 20
453.5071015640892
 30
0.0
  0
SPLINE
  5
258
330
1F
100
AcDbEntity
  8
0
  6
Continuous
 62
     7
370
    15
100
AcDbSpline
210
0.0
220
0.0
230
1.0
 70
     8
 71
     3
 72
    10
 73
     6
 74
     0
 42
0.00000001
 43
0.00000001
 12
1.0
 22
0.0
 32
0.0
 13
1.0
 23
0.0
 33
0.0
 40
0.0
 40
0.0
 40
0.0
 40
0.0
 40
0.4311094121184107
 40
0.8289212513178853
 40
1.0
 40
1.0
 40
1.0
 40
1.0
 10
447.1791769303682
 20
788.8636350914635
 30
0.0
 10
448.1054171361159
 20
789.0174869843304
 30
0.0
 10
449.8863575860042
 20
789.3133077202455
 30
0.0
 10
451.8044267210848
 20
789.6181124100402
 30
0.0
 10
452.5707594515538
 20
789.7380330807962
 30
0.0
 10
452.8012136854531
 20
789.7740960404076
 30
0.0
  0
SPLINE
  5
259
330
1F
100
AcDbEntity
  8
0
  6
Continuous
 62
     7
370
    15
100
AcDbSpline
210
0.0
220
0.0
230
1.0
 70
     8
 71
     3
 72
    10
 73
     6
 74
     0
 42
0.00000001
 43
0.00000001
 12
1.0
 22
0.0
 32
0.0
 13
1.0
 23
0.0
 33
0.0
 40
0.0
 40
0.0
 40
0.0
 40
0.0
 40
0.4311094121184107
 40
0.8289212513178853
 40
1.0
 40
1.0
 40
1.0
 40
1.0
 10
696.596221152723
 20
703.9703861161865
 30
0.0
 10
696.7500730455899
 20
703.0441459104388
 30
0.0
 10
697.0458937815049
 20
701.2632054605506
 30
0.0
 10
697.3506984712998
 20
699.3451363254699
 30
0.0
 10
697.4706191420557
 20
698.5788035950009
 30
0.0
 10
697.5066821016671
 20
698.3483493611016
 30
0.0
  0
SPLINE
  5
25A
330
1F
100
AcDbEntity
  8
0
  6
Continuous
 62
     7
370
    15
100
AcDbSpline
210
0.0
220
0.0
230
1.0
 70
     8
 71
     3
 72
    10
 73
     6
 74
     0
 42
0.00000001
 43
0.00000001
 12
1.0
 22
0.0
 32
0.0
 13
1.0
 23
0.0
 33
0.0
 40
0.0
 40
0.0
 40
0.0
 40
0.0
 40
0.4311094121184107
 40
0.8289212513178853
 40
1.0
 40
1.0
 40
1.0
 40
1.0
 10
362.2859279550912
 20
539.4465908691086
 30
0.0
 10
362.1320760622244
 20
540.3728310748563
 30
0.0
 10
361.8362553263094
 20
542.1537715247447
 30
0.0
 10
361.5314506365145
 20
544.0718406598253
 30
0.0
 10
361.4115299657585
 20
544.8381733902943
 30
0.0
 10
361.3754670061471
 20
545.0686276241936
 30
0.0
  0
SPLINE
  5
25B
330
1F
100
AcDbEntity
  8
0
  6
Continuous
 62
     7
370
    15
100
AcDbSpline
210
0.0
220
0.0
230
1.0
 70
     8
 71
     3
 72
    10
 73
     6
 74
     0
 42
0.00000001
 43
0.00000001
 12
1.0
 22
0.0
 32
0.0
 13
1.0
 23
0.0
 33
0.0
 40
0.0
 40
0.0
 40
0.0
 40
0.0
 40
0.4311094121184107
 40
0.8289212513178853
 40
1.0
 40
1.0
 40
1.0
 40
1.0
 10
611.7029721774461
 20
454.5533418938317
 30
0.0
 10
610.7767319716985
 20
454.3994900009648
 30
0.0
 10
608.99579152181
 20
454.1036692650497
 30
0.0
 10
607.0777223867295
 20
453.798864575255
 30
0.0
 10
606.3113896562604
 20
453.678943904499
 30
0.0
 10
606.0809354223611
 20
453.6428809448876
 30
0.0
  0
SPLINE
  5
25C
330
1F
100
AcDbEntity
  8
0
  6
Continuous
 62
     7
370
    15
100
AcDbSpline
210
0.0
220
0.0
230
1.0
 70
     8
 71
     3
 72
    10
 73
     6
 74
     0
 42
0.00000001
 43
0.00000001
 12
1.0
 22
0.0
 32
0.0
 13
1.0
 23
0.0
 33
0.0
 40
0.0
 40
0.0
 40
0.0
 40
0.0
 40
0.3127332807631187
 40
0.6244278319846872
 40
1.0
 40
1.0
 40
1.0
 40
1.0
 10
361.3754670061471
 20
698.3483493611016
 30
0.0
 10
361.4458969519529
 20
698.7975575120523
 30
0.0
 10
361.5865229136638
 20
699.6944817892623
 30
0.0
 10
361.9063529151373
 20
701.688570361049
 30
0.0
 10
362.1517986694677
 20
703.1640677734468
 30
0.0
 10
362.2859279550912
 20
703.9703861161865
 30
0.0
  0
SPLINE
  5
25D
330
1F
100
AcDbEntity
  8
0
  6
Continuous
 62
     7
370
    15
100
AcDbSpline
210
0.0
220
0.0
230
1.0
 70
     8
 71
     3
 72
    10
 73
     6
 74
     0
 42
0.00000001
 43
0.00000001
 12
1.0
 22
0.0
 32
0.0
 13
1.0
 23
0.0
 33
0.0
 40
0.0
 40
0.0
 40
0.0
 40
0.0
 40
0.3127332807631187
 40
0.6244278319846872
 40
1.0
 40
1.0
 40
1.0
 40
1.0
 10
606.0809354223611
 20
789.7740960404076
 30
0.0
 10
606.5301435733118
 20
789.7036660946019
 30
0.0
 10
607.4270678505219
 20
789.563040132891
 30
0.0
 10
609.4211564223085
 20
789.2432101314175
 30
0.0
 10
610.8966538347064
 20
788.997764377087
 30
0.0
 10
611.7029721774462
 20
788.8636350914635
 30
0.0
  0
SPLINE
  5
25E
330
1F
100
AcDbEntity
  8
0
  6
Continuous
 62
     7
370
    15
100
AcDbSpline
210
0.0
220
0.0
230
1.0
 70
     8
 71
     3
 72
    10
 73
     6
 74
     0
 42
0.00000001
 43
0.00000001
 12
1.0
 22
0.0
 32
0.0
 13
1.0
 23
0.0
 33
0.0
 40
0.0
 40
0.0
 40
0.0
 40
0.0
 40
0.3127332807631187
 40
0.6244278319846872
 40
1.0
 40
1.0
 40
1.0
 40
1.0
 10
697.5066821016671
 20
545.0686276241936
 30
0.0
 10
697.4362521558614
 20
544.6194194732428
 30
0.0
 10
697.2956261941505
 20
543.7224951960329
 30
0.0
 10
696.975796192677
 20
541.7284066242463
 30
0.0
 10
696.7303504383466
 20
540.2529092118483
 30
0.0
 10
696.5962211527232
 20
539.4465908691086
 30
0.0
  0
SPLINE
  5
25F
330
1F
100
AcDbEntity
  8
0
  6
Continuous
 62
     7
370
    15
100
AcDbSpline
210
0.0
220
0.0
230
1.0
 70
     8
 71
     3
 72
    10
 73
     6
 74
     0
 42
0.00000001
 43
0.00000001
 12
1.0
 22
0.0
 32
0.0
 13
1.0
 23
0.0
 33
0.0
 40
0.0
 40
0.0
 40
0.0
 40
0.0
 40
0.3127332807631187
 40
0.6244278319846872
 40
1.0
 40
1.0
 40
1.0
 40
1.0
 10
452.8012136854531
 20
453.6428809448876
 30
0.0
 10
452.3520055345024
 20
453.7133108906933
 30
0.0
 10
451.4550812572924
 20
453.8539368524042
 30
0.0
 10
449.4609926855057
 20
454.1737668538777
 30
0.0
 10
447.9854952731079
 20
454.4192126082082
 30
0.0
 10
447.1791769303682
 20
454.5533418938317
 30
0.0
  0
ARC
  5
260
330
1F
100
AcDbEntity
  8
0
  6
Continuous
 62
     7
370
    15
100
AcDbCircle
 10
529.4410745539
 20
298.7187729107
 30
0.0
 40
497.0000000000001
100
AcDbArc
 50
99.5272629363
 51
100.1820674032
  0
ARC
  5
261
330
1F
100
AcDbEntity
  8
0
  6
Continuous
 62
     7
370
    15
100
AcDbCircle
 10
529.4410745539
 20
298.7187729107
 30
0.0
 40
497.0000000000001
100
AcDbArc
 50
79.8179325968
 51
80.4727370637
  0
ARC
  5
262
330
1F
100
AcDbEntity
  8
0
  6
Continuous
 62
     7
370
    15
100
AcDbCircle
 10
458.7303964352
 20
692.4191666113
 30
0.0
 40
97.00000000000006
100
AcDbArc
 50
100.1820674032
 51
169.8179325968
  0
ARC
  5
263
330
1F
100
AcDbEntity
  8
0
  6
Continuous
 62
     7
370
    15
100
AcDbCircle
 10
600.1517526726
 20
692.4191666113
 30
0.0
 40
96.99999999999996
100
AcDbArc
 50
10.1820674032
 51
79.8179325968
  0
CIRCLE
  5
264
330
1F
100
AcDbEntity
  8
0
  6
Continuous
 62
     7
370
    15
100
AcDbCircle
 10
398.6263200344
 20
752.5232430122
 30
0.0
 40
6.0
  0
CIRCLE
  5
265
330
1F
100
AcDbEntity
  8
0
  6
Continuous
 62
     7
370
    15
100
AcDbCircle
 10
660.2558290734
 20
752.5232430122
 30
0.0
 40
6.0
  0
ARC
  5
266
330
1F
100
AcDbEntity
  8
0
  6
Continuous
 62
     7
370
    15
100
AcDbCircle
 10
206.451358972
 20
621.7084884926
 30
0.0
 40
496.9999999999999
100
AcDbArc
 50
9.5272629363
 51
10.1820674032
  0
ARC
  5
267
330
1F
100
AcDbEntity
  8
0
  6
Continuous
 62
     7
370
    15
100
AcDbCircle
 10
852.4307901358
 20
621.7084884926
 30
0.0
 40
497.0000000000002
100
AcDbArc
 50
169.8179325968
 51
170.4727370637
  0
ARC
  5
268
330
1F
100
AcDbEntity
  8
0
  6
Continuous
 62
     7
370
    15
100
AcDbCircle
 10
206.451358972
 20
621.7084884926
 30
0.0
 40
497.0
100
AcDbArc
 50
349.8179325968
 51
350.4727370637
  0
ARC
  5
269
330
1F
100
AcDbEntity
  8
0
  6
Continuous
 62
     7
370
    15
100
AcDbCircle
 10
458.7303964352
 20
550.997810374
 30
0.0
 40
97.00000000000007
100
AcDbArc
 50
190.1820674032
 51
259.8179325968
  0
CIRCLE
  5
26A
330
1F
100
AcDbEntity
  8
0
  6
Continuous
 62
     7
370
    15
100
AcDbCircle
 10
660.2558290734
 20
490.8937339731
 30
0.0
 40
6.0
  0
ARC
  5
26B
330
1F
100
AcDbEntity
  8
0
  6
Continuous
 62
     7
370
    15
100
AcDbCircle
 10
852.4307901358
 20
621.7084884926
 30
0.0
 40
497.0000000000002
100
AcDbArc
 50
189.5272629363
 51
190.1820674032
  0
CIRCLE
  5
26C
330
1F
100
AcDbEntity
  8
0
  6
Continuous
 62
     7
370
    15
100
AcDbCircle
 10
398.6263200344
 20
490.8937339731
 30
0.0
 40
6.0
  0
ARC
  5
26D
330
1F
100
AcDbEntity
  8
0
  6
Continuous
 62
     7
370
    15
100
AcDbCircle
 10
600.1517526726
 20
550.997810374
 30
0.0
 40
97.00000000000004
100
AcDbArc
 50
280.1820674032
 51
349.8179325968
  0
ARC
  5
26E
330
1F
100
AcDbEntity
  8
0
  6
Continuous
 62
     7
370
    15
100
AcDbCircle
 10
529.4410745539
 20
944.6982040746
 30
0.0
 40
496.9999999999999
100
AcDbArc
 50
259.8179325968
 51
260.4727370637
  0
ARC
  5
26F
330
1F
100
AcDbEntity
  8
0
  6
Continuous
 62
     7
370
    15
100
AcDbCircle
 10
529.4410745539
 20
944.6982040746
 30
0.0
 40
496.9999999999999
100
AcDbArc
 50
279.5272629363
 51
280.1820674032
  0
ARC
  5
270
330
1F
100
AcDbEntity
  8
0
  6
Continuous
 62
     7
370
    15
100
AcDbCircle
 10
600.1517526726
 20
550.997810374
 30
0.0
 40
100.0000000000001
100
AcDbArc
 50
280.1820674032
 51
349.8179325968
  0
ARC
  5
271
330
1F
100
AcDbEntity
  8
0
  6
Continuous
 62
     7
370
    15
100
AcDbCircle
 10
529.4410745539
 20
944.6982040746
 30
0.0
 40
500.0000000000001
100
AcDbArc
 50
259.8179325968
 51
264.8305888473
  0
LINE
  5
272
330
1F
100
AcDbEntity
  8
0
  6
Continuous
 62
     7
370
    15
100
AcDbLine
 10
485.5042557158
 20
446.6323912427
 30
0.0
 11
487.8729592003
 21
446.4291096017
 31
0.0
  0
LWPOLYLINE
  5
273
330
1F
100
AcDbEntity
  8
0
  6
Continuous
 62
     7
370
    15
100
AcDbPolyline
 90
        3
 70
   128
 43
0.0
 10
500.8609882482
 20
445.5156982228
 10
508.9417519905
 20
445.1185971781
 10
514.353804376
 20
444.9258804604
  0
LWPOLYLINE
  5
274
330
1F
100
AcDbEntity
  8
0
  6
Continuous
 62
     7
370
    15
100
AcDbPolyline
 90
        3
 70
   128
 43
0.0
 10
539.3545861282
 20
444.7964936778
 10
549.9403971173
 20
445.1185971781
 10
552.8626209982
 20
445.24707499
  0
ARC
  5
275
330
1F
100
AcDbEntity
  8
0
  6
Continuous
 62
     7
370
    15
100
AcDbCircle
 10
529.4410745539
 20
944.6982040746
 30
0.0
 40
499.9999999999999
100
AcDbArc
 50
274.5799459884
 51
280.1820674032
  0
ARC
  5
276
330
1F
100
AcDbEntity
  8
0
  6
Continuous
 62
     7
370
    15
100
AcDbCircle
 10
458.7303964352
 20
550.997810374
 30
0.0
 40
100.0000000000001
100
AcDbArc
 50
190.1820674032
 51
259.8179325968
  0
ARC
  5
277
330
1F
100
AcDbEntity
  8
0
  6
Continuous
 62
     7
370
    15
100
AcDbCircle
 10
852.4307901358
 20
621.7084884926
 30
0.0
 40
500.0000000000002
100
AcDbArc
 50
169.8179325968
 51
174.8290240467
  0
ARC
  5
278
330
1F
100
AcDbEntity
  8
0
  6
Continuous
 62
     7
370
    15
100
AcDbCircle
 10
852.4307901358
 20
621.7084884926
 30
0.0
 40
500.0000000000001
100
AcDbArc
 50
184.5815133225
 51
190.1820674032
  0
ARC
  5
279
330
1F
100
AcDbEntity
  8
0
  6
Continuous
 62
     7
370
    15
100
AcDbCircle
 10
458.7303964352
 20
692.4191666113
 30
0.0
 40
100.0
100
AcDbArc
 50
100.1820674032
 51
169.8179325968
  0
ARC
  5
27A
330
1F
100
AcDbEntity
  8
0
  6
Continuous
 62
     7
370
    15
100
AcDbCircle
 10
529.4410745539
 20
298.7187729107
 30
0.0
 40
500.0000000000001
100
AcDbArc
 50
79.8179325968
 51
84.8290240467
  0
LINE
  5
27B
330
1F
100
AcDbEntity
  8
0
  6
Continuous
 62
     7
370
    15
100
AcDbLine
 10
573.377893392
 20
796.7845857426
 30
0.0
 11
571.0091899075
 21
796.9878673836
 31
0.0
  0
ARC
  5
27C
330
1F
100
AcDbEntity
  8
0
  6
Continuous
 62
     7
370
    15
100
AcDbCircle
 10
529.4410745539
 20
298.7187729107
 30
0.0
 40
500.0000000000001
100
AcDbArc
 50
86.7231772259
 51
92.6848940494
  0
ARC
  5
27D
330
1F
100
AcDbEntity
  8
0
  6
Continuous
 62
     7
370
    15
100
AcDbCircle
 10
529.4410745539
 20
298.7187729107
 30
0.0
 40
500.0000000000001
100
AcDbArc
 50
94.5815133225
 51
100.1820674032
  0
ARC
  5
27E
330
1F
100
AcDbEntity
  8
0
  6
Continuous
 62
     7
370
    15
100
AcDbCircle
 10
600.1517526726
 20
692.4191666113
 30
0.0
 40
99.99999999999993
100
AcDbArc
 50
10.1820674032
 51
79.8179325968
  0
ARC
  5
27F
330
1F
100
AcDbEntity
  8
0
  6
Continuous
 62
     7
370
    15
100
AcDbCircle
 10
206.451358972
 20
621.7084884926
 30
0.0
 40
500.0000000000002
100
AcDbArc
 50
349.8179325968
 51
354.8290240467
  0
ARC
  5
280
330
1F
100
AcDbEntity
  8
0
  6
Continuous
 62
     7
370
    15
100
AcDbCircle
 10
206.451358972
 20
621.7084884926
 30
0.0
 40
500.0
100
AcDbArc
 50
4.5815133225
 51
10.1820674032
  0
LINE
  5
281
330
1F
100
AcDbEntity
  8
0
  6
CENTERX2
 62
     7
370
     0
100
AcDbLine
 10
326.1661500971
 20
621.7084884926
 30
0.0
 11
732.6957093796
 21
621.7084884926
 31
0.0
  0
LINE
  5
282
330
1F
100
AcDbEntity
  8
0
  6
CENTERX2
 62
     7
370
     0
100
AcDbLine
 10
529.4410745539
 20
815.3237019744
 30
0.0
 11
529.4410745539
 21
418.9573816739
 31
0.0
  0
ARC
  5
283
330
1F
100
AcDbEntity
  8
0
  6
CENTERX2
 62
     7
370
     0
100
AcDbCircle
 10
529.4410745539
 20
621.6983436771
 30
0.0
 40
185.0071736069277
100
AcDbArc
 50
38.7473478877
 51
51.9353785996
  0
ARC
  5
284
330
1F
100
AcDbEntity
  8
0
  6
CENTERX2
 62
     7
370
     0
100
AcDbCircle
 10
529.4410745539
 20
621.7084884926
 30
0.0
 40
185.0000000000002
100
AcDbArc
 50
216.8500644883
 51
234.5531623343
  0
ENDSEC
  0
SECTION
  2
OBJECTS
  0
DICTIONARY
  5
C
330
0
100
AcDbDictionary
281
     1
  3
ACAD_GROUP
350
D
  3
ACAD_LAYOUT
350
1A
  3
ACAD_MLINESTYLE
350
17
  3
ACAD_PLOTSETTINGS
350
19
  3
ACAD_PLOTSTYLENAME
350
E
  0
DICTIONARY
  5
D
102
{ACAD_REACTORS
330
C
102
}
330
C
100
AcDbDictionary
281
     1
  0
DICTIONARY
  5
1A
102
{ACAD_REACTORS
330
C
102
}
330
C
100
AcDbDictionary
281
     1
  3
Layout1
350
1E
  3
Layout2
350
26
  3
Model
350
22
  0
DICTIONARY
  5
17
102
{ACAD_REACTORS
330
C
102
}
330
C
100
AcDbDictionary
281
     1
  3
Standard
350
18
  0
DICTIONARY
  5
19
102
{ACAD_REACTORS
330
C
102
}
330
C
100
AcDbDictionary
281
     1
  0
ACDBDICTIONARYWDFLT
  5
E
102
{ACAD_REACTORS
330
C
102
}
330
C
100
AcDbDictionary
281
     1
  3
Normal
350
F
100
AcDbDictionaryWithDefault
340
F
  0
LAYOUT
  5
1E
102
{ACAD_REACTORS
330
1A
102
}
330
1A
100
AcDbPlotSettings
  1

  2
none_device
  4

  6

 40
0.0
 41
0.0
 42
0.0
 43
0.0
 44
0.0
 45
0.0
 46
0.0
 47
0.0
 48
0.0
 49
0.0
140
0.0
141
0.0
142
1.0
143
1.0
 70
   688
 72
     0
 73
     0
 74
     5
  7

 75
    16
147
1.0
148
0.0
149
0.0
100
AcDbLayout
  1
Layout1
 70
     1
 71
     1
 10
0.0
 20
0.0
 11
420.0
 21
297.0
 12
0.0
 22
0.0
 32
0.0
 14
1.0000000000E+20
 24
1.0000000000E+20
 34
1.0000000000E+20
 15
-1.0000000000E+20
 25
-1.0000000000E+20
 35
-1.0000000000E+20
146
0.0
 13
0.0
 23
0.0
 33
0.0
 16
1.0
 26
0.0
 36
0.0
 17
0.0
 27
1.0
 37
0.0
 76
     0
330
1B
  0
LAYOUT
  5
26
102
{ACAD_REACTORS
330
1A
102
}
330
1A
100
AcDbPlotSettings
  1

  2
none_device
  4

  6

 40
0.0
 41
0.0
 42
0.0
 43
0.0
 44
0.0
 45
0.0
 46
0.0
 47
0.0
 48
0.0
 49
0.0
140
0.0
141
0.0
142
1.0
143
1.0
 70
   688
 72
     0
 73
     0
 74
     5
  7

 75
    16
147
1.0
148
0.0
149
0.0
100
AcDbLayout
  1
Layout2
 70
     1
 71
     2
 10
0.0
 20
0.0
 11
0.0
 21
0.0
 12
0.0
 22
0.0
 32
0.0
 14
0.0
 24
0.0
 34
0.0
 15
0.0
 25
0.0
 35
0.0
146
0.0
 13
0.0
 23
0.0
 33
0.0
 16
1.0
 26
0.0
 36
0.0
 17
0.0
 27
1.0
 37
0.0
 76
     0
330
23
  0
LAYOUT
  5
22
102
{ACAD_REACTORS
330
1A
102
}
330
1A
100
AcDbPlotSettings
  1

  2
none_device
  4

  6

 40
0.0
 41
0.0
 42
0.0
 43
0.0
 44
0.0
 45
0.0
 46
0.0
 47
0.0
 48
0.0
 49
0.0
140
0.0
141
0.0
142
1.0
143
1.0
 70
  1712
 72
     0
 73
     0
 74
     0
  7

 75
     0
147
1.0
148
0.0
149
0.0
100
AcDbLayout
  1
Model
 70
     1
 71
     0
 10
0.0
 20
0.0
 11
1189.0
 21
841.0
 12
0.0
 22
0.0
 32
0.0
 14
0.0
 24
0.0
 34
0.0
 15
1189.0
 25
841.0
 35
0.0
146
0.0
 13
0.0
 23
0.0
 33
0.0
 16
1.0
 26
0.0
 36
0.0
 17
0.0
 27
1.0
 37
0.0
 76
     0
330
1F
331
29
  0
MLINESTYLE
  5
18
102
{ACAD_REACTORS
330
17
102
}
330
17
100
AcDbMlineStyle
  2
Standard
 70
     0
  3

 62
   256
 51
90.0
 52
90.0
 71
     2
 49
0.5
 62
   256
  6
BYLAYER
 49
-0.5
 62
   256
  6
BYLAYER
  0
ACDBPLACEHOLDER
  5
F
102
{ACAD_REACTORS
330
E
102
}
330
E
  0
ENDSEC
  0
EOF
