  0
SECTION
  2
HEADER
  9
$ACADVER
  1
AC1014
  9
$ACADMAINTVER
 70
     9
  9
$DWGCODEPAGE
  3
DOS932
  9
$INSBASE
 10
0.0
 20
0.0
 30
0.0
  9
$EXTMIN
 10
0.0
 20
0.0
 30
0.0
  9
$EXTMAX
 10
1189.0
 20
841.0
 30
0.0
  9
$LIMMIN
 10
0.0
 20
0.0
  9
$LIMMAX
 10
1189.0
 20
841.0
  9
$ORTHOMODE
 70
     0
  9
$REGENMODE
 70
     1
  9
$FILLMODE
 70
     1
  9
$QTEXTMODE
 70
     0
  9
$MIRRTEXT
 70
     1
  9
$DRAGMODE
 70
     2
  9
$LTSCALE
 40
1.0
  9
$OSMODE
 70
    37
  9
$ATTMODE
 70
     1
  9
$TEXTSIZE
 40
3.5
  9
$TRACEWID
 40
1.0
  9
$TEXTSTYLE
  7
STANDARD
  9
$CLAYER
  8
0
  9
$CELTYPE
  6
BYLAYER
  9
$CECOLOR
 62
   256
  9
$CELTSCALE
 40
1.0
  9
$DELOBJ
 70
     1
  9
$DISPSILH
 70
     0
  9
$DIMSCALE
 40
1.0
  9
$DIMASZ
 40
6.0
  9
$DIMEXO
 40
1.0
  9
$DIMDLI
 40
3.75
  9
$DIMRND
 40
0.0
  9
$DIMDLE
 40
0.0
  9
$DIMEXE
 40
1.0
  9
$DIMTP
 40
0.0
  9
$DIMTM
 40
0.0
  9
$DIMTXT
 40
3.5
  9
$DIMCEN
 40
2.5
  9
$DIMTSZ
 40
0.0
  9
$DIMTOL
 70
     0
  9
$DIMLIM
 70
     0
  9
$DIMTIH
 70
     1
  9
$DIMTOH
 70
     1
  9
$DIMSE1
 70
     0
  9
$DIMSE2
 70
     0
  9
$DIMTAD
 70
     1
  9
$DIMZIN
 70
     1
  9
$DIMBLK
  1

  9
$DIMASO
 70
     1
  9
$DIMSHO
 70
     1
  9
$DIMPOST
  1

  9
$DIMAPOST
  1

  9
$DIMALT
 70
     0
  9
$DIMALTD
 70
     3
  9
$DIMALTF
 40
0.0393700787
  9
$DIMLFAC
 40
1.0
  9
$DIMTOFL
 70
     1
  9
$DIMTVP
 40
0.0
  9
$DIMTIX
 70
     0
  9
$DIMSOXD
 70
     0
  9
$DIMSAH
 70
     0
  9
$DIMBLK1
  1

  9
$DIMBLK2
  1

  9
$DIMSTYLE
  2
ISO-25
  9
$DIMCLRD
 70
     0
  9
$DIMCLRE
 70
     0
  9
$DIMCLRT
 70
     0
  9
$DIMTFAC
 40
1.0
  9
$DIMGAP
 40
1.524
  9
$DIMJUST
 70
     0
  9
$DIMSD1
 70
     0
  9
$DIMSD2
 70
     0
  9
$DIMTOLJ
 70
     0
  9
$DIMTZIN
 70
     1
  9
$DIMALTZ
 70
     0
  9
$DIMALTTZ
 70
     0
  9
$DIMFIT
 70
     3
  9
$DIMUPT
 70
     0
  9
$DIMUNIT
 70
     2
  9
$DIMDEC
 70
     4
  9
$DIMTDEC
 70
     4
  9
$DIMALTU
 70
     2
  9
$DIMALTTD
 70
     3
  9
$DIMTXSTY
  7
STANDARD
  9
$DIMAUNIT
 70
     0
  9
$LUNITS
 70
     2
  9
$LUPREC
 70
     4
  9
$SKETCHINC
 40
1.0
  9
$FILLETRAD
 40
10.0
  9
$AUNITS
 70
     0
  9
$AUPREC
 70
     0
  9
$MENU
  1
.
  9
$ELEVATION
 40
0.0
  9
$PELEVATION
 40
0.0
  9
$THICKNESS
 40
0.0
  9
$LIMCHECK
 70
     0
  9
$CHAMFERA
 40
10.0
  9
$CHAMFERB
 40
10.0
  9
$CHAMFERC
 40
20.0
  9
$CHAMFERD
 40
0.0
  9
$SKPOLY
 70
     0
  9
$TDCREATE
 40
2456451.549555845
  9
$TDUPDATE
 40
2456451.549555856
  9
$TDINDWG
 40
0.0000000116
  9
$TDUSRTIMER
 40
0.0000000116
  9
$USRTIMER
 70
     1
  9
$ANGBASE
 50
0.0
  9
$ANGDIR
 70
     0
  9
$PDMODE
 70
     0
  9
$PDSIZE
 40
-1.0
  9
$PLINEWID
 40
0.0
  9
$COORDS
 70
     1
  9
$SPLFRAME
 70
     0
  9
$SPLINETYPE
 70
     6
  9
$SPLINESEGS
 70
     8
  9
$ATTDIA
 70
     0
  9
$ATTREQ
 70
     1
  9
$HANDLING
 70
     1
  9
$HANDSEED
  5
4D2
  9
$SURFTAB1
 70
     6
  9
$SURFTAB2
 70
     6
  9
$SURFTYPE
 70
     6
  9
$SURFU
 70
     6
  9
$SURFV
 70
     6
  9
$UCSNAME
  2

  9
$UCSORG
 10
0.0
 20
0.0
 30
0.0
  9
$UCSXDIR
 10
1.0
 20
0.0
 30
0.0
  9
$UCSYDIR
 10
0.0
 20
1.0
 30
0.0
  9
$PUCSNAME
  2

  9
$PUCSORG
 10
0.0
 20
0.0
 30
0.0
  9
$PUCSXDIR
 10
1.0
 20
0.0
 30
0.0
  9
$PUCSYDIR
 10
0.0
 20
1.0
 30
0.0
  9
$USERI1
 70
     0
  9
$USERI2
 70
     0
  9
$USERI3
 70
     0
  9
$USERI4
 70
     0
  9
$USERI5
 70
     0
  9
$USERR1
 40
0.0
  9
$USERR2
 40
0.0
  9
$USERR3
 40
0.0
  9
$USERR4
 40
0.0
  9
$USERR5
 40
0.0
  9
$WORLDVIEW
 70
     1
  9
$SHADEDGE
 70
     3
  9
$SHADEDIF
 70
    70
  9
$TILEMODE
 70
     1
  9
$MAXACTVP
 70
    64
  9
$PINSBASE
 10
0.0
 20
0.0
 30
0.0
  9
$PLIMCHECK
 70
     0
  9
$PEXTMIN
 10
1.0000000000E+20
 20
1.0000000000E+20
 30
1.0000000000E+20
  9
$PEXTMAX
 10
-1.0000000000E+20
 20
-1.0000000000E+20
 30
-1.0000000000E+20
  9
$PLIMMIN
 10
0.0
 20
0.0
  9
$PLIMMAX
 10
420.0
 20
297.0
  9
$UNITMODE
 70
     0
  9
$VISRETAIN
 70
     1
  9
$PLINEGEN
 70
     0
  9
$PSLTSCALE
 70
     1
  9
$TREEDEPTH
 70
  3020
  9
$PICKSTYLE
 70
     1
  9
$CMLSTYLE
  2
STANDARD
  9
$CMLJUST
 70
     0
  9
$CMLSCALE
 40
20.0
  9
$PROXYGRAPHICS
 70
     1
  9
$MEASUREMENT
 70
     1
  0
ENDSEC
  0
SECTION
  2
CLASSES
  0
CLASS
  1
ACDBDICTIONARYWDFLT
  2
AcDbDictionaryWithDefault
  3
ObjectDBX Classes
 90
        0
280
     0
281
     0
  0
CLASS
  1
VISUALSTYLE
  2
AcDbVisualStyle
  3
ObjectDBX Classes
 90
     4095
280
     0
281
     0
  0
CLASS
  1
MATERIAL
  2
AcDbMaterial
  3
ObjectDBX Classes
 90
     1153
280
     0
281
     0
  0
CLASS
  1
XRECORD
  2
AcDbXrecord
  3
AutoCAD 2000
 90
        0
280
     0
281
     0
  0
CLASS
  1
LWPOLYLINE
  2
AcDbPolyline
  3
AutoCAD 2000
 90
        0
280
     0
281
     1
  0
CLASS
  1
HATCH
  2
AcDbHatch
  3
AutoCAD 2000
 90
        0
280
     0
281
     1
  0
ENDSEC
  0
SECTION
  2
TABLES
  0
TABLE
  2
VPORT
  5
8
330
0
100
AcDbSymbolTable
 70
     1
  0
VPORT
  5
29
330
8
100
AcDbSymbolTableRecord
100
AcDbViewportTableRecord
  2
*ACTIVE
 70
     0
 10
0.0
 20
0.0
 11
1.0
 21
1.0
 12
594.5
 22
420.5
 13
0.0
 23
0.0
 14
10.0
 24
10.0
 15
10.0
 25
10.0
 16
0.0
 26
0.0
 36
1.0
 17
0.0
 27
0.0
 37
0.0
 40
841.0
 41
1.4137931034
 42
50.0
 43
0.0
 44
0.0
 50
0.0
 51
0.0
 71
     0
 72
  2000
 73
     1
 74
     3
 75
     0
 76
     0
 77
     0
 78
     0
  0
ENDTAB
  0
TABLE
  2
LTYPE
  5
5
330
0
100
AcDbSymbolTable
 70
     6
  0
LTYPE
  5
14
330
5
100
AcDbSymbolTableRecord
100
AcDbLinetypeTableRecord
  2
BYBLOCK
 70
     0
  3

 72
    65
 73
     0
 40
0.0
  0
LTYPE
  5
15
330
5
100
AcDbSymbolTableRecord
100
AcDbLinetypeTableRecord
  2
BYLAYER
 70
     0
  3

 72
    65
 73
     0
 40
0.0
  0
LTYPE
  5
16
330
5
100
AcDbSymbolTableRecord
100
AcDbLinetypeTableRecord
  2
CONTINUOUS
 70
     0
  3
Solid line
 72
    65
 73
     0
 40
0.0
  0
LTYPE
  5
3F
330
5
100
AcDbSymbolTableRecord
100
AcDbLinetypeTableRecord
  2
HIDDEN
 70
     0
  3
Hidden __ __ __ __ __ __ __ __ __ __ __ __ __ __
 72
    65
 73
     2
 40
1.905
 49
1.27
 74
     0
 49
-0.635
 74
     0
  0
LTYPE
  5
40
330
5
100
AcDbSymbolTableRecord
100
AcDbLinetypeTableRecord
  2
PHANTOM
 70
     0
  3
Phantom ______  __  __  ______  __  __  ______
 72
    65
 73
     6
 40
12.7
 49
6.35
 74
     0
 49
-1.27
 74
     0
 49
1.27
 74
     0
 49
-1.27
 74
     0
 49
1.27
 74
     0
 49
-1.27
 74
     0
  0
LTYPE
  5
41
330
5
100
AcDbSymbolTableRecord
100
AcDbLinetypeTableRecord
  2
CENTER
 70
     0
  3
Center ____ _ ____ _ ____ _ ____ _ ____ _ ____
 72
    65
 73
     4
 40
10.16
 49
6.35
 74
     0
 49
-1.27
 74
     0
 49
1.27
 74
     0
 49
-1.27
 74
     0
  0
LTYPE
  5
42
330
5
100
AcDbSymbolTableRecord
100
AcDbLinetypeTableRecord
  2
CENTERX2
 70
     0
  3
Center (2x) ________  __  ________  __  _____
 72
    65
 73
     4
 40
20.32
 49
12.7
 74
     0
 49
-2.54
 74
     0
 49
2.54
 74
     0
 49
-2.54
 74
     0
  0
LTYPE
  5
43
330
5
100
AcDbSymbolTableRecord
100
AcDbLinetypeTableRecord
  2
DOT2
 70
     0
  3
Dot (.5x) ........................................
 72
    65
 73
     2
 40
0.635
 49
0.0
 74
     0
 49
-0.635
 74
     0
  0
ENDTAB
  0
TABLE
  2
LAYER
  5
2
330
0
100
AcDbSymbolTable
 70
   233
  0
LAYER
  5
10
330
2
100
AcDbSymbolTableRecord
100
AcDbLayerTableRecord
  2
0
 70
     0
 62
     7
  6
CONTINUOUS
  0
LAYER
  5
44
330
2
100
AcDbSymbolTableRecord
100
AcDbLayerTableRecord
  2
SLD-0
 70
     0
 62
   179
  6
CONTINUOUS
  0
LAYER
  5
45
330
2
100
AcDbSymbolTableRecord
100
AcDbLayerTableRecord
  2
図面枠
 70
     0
 62
   255
  6
CONTINUOUS
  0
LAYER
  5
46
330
2
100
AcDbSymbolTableRecord
100
AcDbLayerTableRecord
  2
ベ_ス
 70
     0
 62
   254
  6
CONTINUOUS
  0
LAYER
  5
47
330
2
100
AcDbSymbolTableRecord
100
AcDbLayerTableRecord
  2
ケ_シングCV
 70
     0
 62
   250
  6
CONTINUOUS
  0
LAYER
  5
48
330
2
100
AcDbSymbolTableRecord
100
AcDbLayerTableRecord
  2
固定金具A
 70
     0
 62
     6
  6
CONTINUOUS
  0
LAYER
  5
49
330
2
100
AcDbSymbolTableRecord
100
AcDbLayerTableRecord
  2
固定金具B
 70
     0
 62
     6
  6
CONTINUOUS
  0
LAYER
  5
4A
330
2
100
AcDbSymbolTableRecord
100
AcDbLayerTableRecord
  2
水栓
 70
     0
 62
    32
  6
CONTINUOUS
  0
LAYER
  5
4B
330
2
100
AcDbSymbolTableRecord
100
AcDbLayerTableRecord
  2
制御箱
 70
     0
 62
   140
  6
CONTINUOUS
  0
LAYER
  5
4C
330
2
100
AcDbSymbolTableRecord
100
AcDbLayerTableRecord
  2
P板完成A
 70
     0
 62
     4
  6
CONTINUOUS
  0
LAYER
  5
4D
330
2
100
AcDbSymbolTableRecord
100
AcDbLayerTableRecord
  2
P板完成B
 70
     0
 62
     3
  6
CONTINUOUS
  0
LAYER
  5
4E
330
2
100
AcDbSymbolTableRecord
100
AcDbLayerTableRecord
  2
制御箱蓋
 70
     0
 62
    23
  6
CONTINUOUS
  0
LAYER
  5
4F
330
2
100
AcDbSymbolTableRecord
100
AcDbLayerTableRecord
  2
フランジ
 70
     0
 62
    28
  6
CONTINUOUS
  0
LAYER
  5
50
330
2
100
AcDbSymbolTableRecord
100
AcDbLayerTableRecord
  2
パッキン
 70
     0
 62
   110
  6
CONTINUOUS
  0
LAYER
  5
51
330
2
100
AcDbSymbolTableRecord
100
AcDbLayerTableRecord
  2
逆止弁弁体
 70
     0
 62
    21
  6
CONTINUOUS
  0
LAYER
  5
52
330
2
100
AcDbSymbolTableRecord
100
AcDbLayerTableRecord
  2
逆止弁弁座
 70
     0
 62
   168
  6
CONTINUOUS
  0
LAYER
  5
53
330
2
100
AcDbSymbolTableRecord
100
AcDbLayerTableRecord
  2
アキュムレ_タ
 70
     0
 62
    22
  6
CONTINUOUS
  0
LAYER
  5
54
330
2
100
AcDbSymbolTableRecord
100
AcDbLayerTableRecord
  2
固定金具C
 70
     0
 62
     6
  6
CONTINUOUS
  0
LAYER
  5
55
330
2
100
AcDbSymbolTableRecord
100
AcDbLayerTableRecord
  2
ボルト_ナット_ネジ
 70
     0
 62
     1
  6
CONTINUOUS
  0
LAYER
  5
56
330
2
100
AcDbSymbolTableRecord
100
AcDbLayerTableRecord
  2
Oリング
 70
     0
 62
   110
  6
CONTINUOUS
  0
LAYER
  5
57
330
2
100
AcDbSymbolTableRecord
100
AcDbLayerTableRecord
  2
ポンプカバ_
 70
     0
 62
   215
  6
CONTINUOUS
  0
LAYER
  5
58
330
2
100
AcDbSymbolTableRecord
100
AcDbLayerTableRecord
  2
補強板
 70
     0
 62
     6
  6
CONTINUOUS
  0
LAYER
  5
59
330
2
100
AcDbSymbolTableRecord
100
AcDbLayerTableRecord
  2
防振ゴム
 70
     0
 62
   252
  6
CONTINUOUS
  0
LAYER
  5
5A
330
2
100
AcDbSymbolTableRecord
100
AcDbLayerTableRecord
  2
キャップA
 70
     0
 62
   255
  6
CONTINUOUS
  0
LAYER
  5
5B
330
2
100
AcDbSymbolTableRecord
100
AcDbLayerTableRecord
  2
ア_スリ_ド線
 70
     0
 62
    40
  6
CONTINUOUS
  0
LAYER
  5
5C
330
2
100
AcDbSymbolTableRecord
100
AcDbLayerTableRecord
  2
表の文字
 70
     0
 62
   255
  6
CONTINUOUS
  0
LAYER
  5
5D
330
2
100
AcDbSymbolTableRecord
100
AcDbLayerTableRecord
  2
ボ_ドスペ_サ
 70
     0
 62
   219
  6
CONTINUOUS
  0
LAYER
  5
5E
330
2
100
AcDbSymbolTableRecord
100
AcDbLayerTableRecord
  2
LAYER060
 70
     0
 62
    31
  6
CONTINUOUS
  0
LAYER
  5
5F
330
2
100
AcDbSymbolTableRecord
100
AcDbLayerTableRecord
  2
LAYER061
 70
     0
 62
    71
  6
CONTINUOUS
  0
LAYER
  5
60
330
2
100
AcDbSymbolTableRecord
100
AcDbLayerTableRecord
  2
LAYER062
 70
     0
 62
    71
  6
CONTINUOUS
  0
LAYER
  5
61
330
2
100
AcDbSymbolTableRecord
100
AcDbLayerTableRecord
  2
LAYER063
 70
     0
 62
    71
  6
CONTINUOUS
  0
LAYER
  5
62
330
2
100
AcDbSymbolTableRecord
100
AcDbLayerTableRecord
  2
LAYER064
 70
     0
 62
    71
  6
CONTINUOUS
  0
LAYER
  5
63
330
2
100
AcDbSymbolTableRecord
100
AcDbLayerTableRecord
  2
LAYER065
 70
     0
 62
    71
  6
CONTINUOUS
  0
LAYER
  5
64
330
2
100
AcDbSymbolTableRecord
100
AcDbLayerTableRecord
  2
LAYER066
 70
     0
 62
    71
  6
CONTINUOUS
  0
LAYER
  5
65
330
2
100
AcDbSymbolTableRecord
100
AcDbLayerTableRecord
  2
LAYER067
 70
     0
 62
    71
  6
CONTINUOUS
  0
LAYER
  5
66
330
2
100
AcDbSymbolTableRecord
100
AcDbLayerTableRecord
  2
LAYER068
 70
     0
 62
    71
  6
CONTINUOUS
  0
LAYER
  5
67
330
2
100
AcDbSymbolTableRecord
100
AcDbLayerTableRecord
  2
LAYER069
 70
     0
 62
    71
  6
CONTINUOUS
  0
LAYER
  5
68
330
2
100
AcDbSymbolTableRecord
100
AcDbLayerTableRecord
  2
LAYER070
 70
     0
 62
    71
  6
CONTINUOUS
  0
LAYER
  5
69
330
2
100
AcDbSymbolTableRecord
100
AcDbLayerTableRecord
  2
LAYER071
 70
     0
 62
   241
  6
CONTINUOUS
  0
LAYER
  5
6A
330
2
100
AcDbSymbolTableRecord
100
AcDbLayerTableRecord
  2
LAYER072
 70
     0
 62
   241
  6
CONTINUOUS
  0
LAYER
  5
6B
330
2
100
AcDbSymbolTableRecord
100
AcDbLayerTableRecord
  2
LAYER073
 70
     0
 62
   241
  6
CONTINUOUS
  0
LAYER
  5
6C
330
2
100
AcDbSymbolTableRecord
100
AcDbLayerTableRecord
  2
LAYER074
 70
     0
 62
   241
  6
CONTINUOUS
  0
LAYER
  5
6D
330
2
100
AcDbSymbolTableRecord
100
AcDbLayerTableRecord
  2
LAYER075
 70
     0
 62
   241
  6
CONTINUOUS
  0
LAYER
  5
6E
330
2
100
AcDbSymbolTableRecord
100
AcDbLayerTableRecord
  2
LAYER076
 70
     0
 62
   241
  6
CONTINUOUS
  0
LAYER
  5
6F
330
2
100
AcDbSymbolTableRecord
100
AcDbLayerTableRecord
  2
LAYER077
 70
     0
 62
   241
  6
CONTINUOUS
  0
LAYER
  5
70
330
2
100
AcDbSymbolTableRecord
100
AcDbLayerTableRecord
  2
LAYER078
 70
     0
 62
   241
  6
CONTINUOUS
  0
LAYER
  5
71
330
2
100
AcDbSymbolTableRecord
100
AcDbLayerTableRecord
  2
LAYER079
 70
     0
 62
   241
  6
CONTINUOUS
  0
LAYER
  5
72
330
2
100
AcDbSymbolTableRecord
100
AcDbLayerTableRecord
  2
LAYER080
 70
     0
 62
   241
  6
CONTINUOUS
  0
LAYER
  5
73
330
2
100
AcDbSymbolTableRecord
100
AcDbLayerTableRecord
  2
LAYER081
 70
     0
 62
   191
  6
CONTINUOUS
  0
LAYER
  5
74
330
2
100
AcDbSymbolTableRecord
100
AcDbLayerTableRecord
  2
LAYER082
 70
     0
 62
   191
  6
CONTINUOUS
  0
LAYER
  5
75
330
2
100
AcDbSymbolTableRecord
100
AcDbLayerTableRecord
  2
LAYER083
 70
     0
 62
   191
  6
CONTINUOUS
  0
LAYER
  5
76
330
2
100
AcDbSymbolTableRecord
100
AcDbLayerTableRecord
  2
LAYER084
 70
     0
 62
   191
  6
CONTINUOUS
  0
LAYER
  5
77
330
2
100
AcDbSymbolTableRecord
100
AcDbLayerTableRecord
  2
LAYER085
 70
     0
 62
   191
  6
CONTINUOUS
  0
LAYER
  5
78
330
2
100
AcDbSymbolTableRecord
100
AcDbLayerTableRecord
  2
LAYER086
 70
     0
 62
   191
  6
CONTINUOUS
  0
LAYER
  5
79
330
2
100
AcDbSymbolTableRecord
100
AcDbLayerTableRecord
  2
LAYER087
 70
     0
 62
   191
  6
CONTINUOUS
  0
LAYER
  5
7A
330
2
100
AcDbSymbolTableRecord
100
AcDbLayerTableRecord
  2
LAYER088
 70
     0
 62
   191
  6
CONTINUOUS
  0
LAYER
  5
7B
330
2
100
AcDbSymbolTableRecord
100
AcDbLayerTableRecord
  2
LAYER089
 70
     0
 62
   191
  6
CONTINUOUS
  0
LAYER
  5
7C
330
2
100
AcDbSymbolTableRecord
100
AcDbLayerTableRecord
  2
LAYER090
 70
     0
 62
   191
  6
CONTINUOUS
  0
LAYER
  5
7D
330
2
100
AcDbSymbolTableRecord
100
AcDbLayerTableRecord
  2
LAYER091
 70
     0
 62
   215
  6
CONTINUOUS
  0
LAYER
  5
7E
330
2
100
AcDbSymbolTableRecord
100
AcDbLayerTableRecord
  2
LAYER092
 70
     0
 62
   215
  6
CONTINUOUS
  0
LAYER
  5
7F
330
2
100
AcDbSymbolTableRecord
100
AcDbLayerTableRecord
  2
LAYER093
 70
     0
 62
   215
  6
CONTINUOUS
  0
LAYER
  5
80
330
2
100
AcDbSymbolTableRecord
100
AcDbLayerTableRecord
  2
LAYER094
 70
     0
 62
   215
  6
CONTINUOUS
  0
LAYER
  5
81
330
2
100
AcDbSymbolTableRecord
100
AcDbLayerTableRecord
  2
LAYER095
 70
     0
 62
   215
  6
CONTINUOUS
  0
LAYER
  5
82
330
2
100
AcDbSymbolTableRecord
100
AcDbLayerTableRecord
  2
LAYER096
 70
     0
 62
   215
  6
CONTINUOUS
  0
LAYER
  5
83
330
2
100
AcDbSymbolTableRecord
100
AcDbLayerTableRecord
  2
LAYER097
 70
     0
 62
   215
  6
CONTINUOUS
  0
LAYER
  5
84
330
2
100
AcDbSymbolTableRecord
100
AcDbLayerTableRecord
  2
LAYER098
 70
     0
 62
   215
  6
CONTINUOUS
  0
LAYER
  5
85
330
2
100
AcDbSymbolTableRecord
100
AcDbLayerTableRecord
  2
LAYER099
 70
     0
 62
   215
  6
CONTINUOUS
  0
LAYER
  5
86
330
2
100
AcDbSymbolTableRecord
100
AcDbLayerTableRecord
  2
LAYER100
 70
     0
 62
   215
  6
CONTINUOUS
  0
LAYER
  5
87
330
2
100
AcDbSymbolTableRecord
100
AcDbLayerTableRecord
  2
LAYER101
 70
     0
 62
   155
  6
CONTINUOUS
  0
LAYER
  5
88
330
2
100
AcDbSymbolTableRecord
100
AcDbLayerTableRecord
  2
LAYER102
 70
     0
 62
   155
  6
CONTINUOUS
  0
LAYER
  5
89
330
2
100
AcDbSymbolTableRecord
100
AcDbLayerTableRecord
  2
LAYER103
 70
     0
 62
   155
  6
CONTINUOUS
  0
LAYER
  5
8A
330
2
100
AcDbSymbolTableRecord
100
AcDbLayerTableRecord
  2
LAYER104
 70
     0
 62
   155
  6
CONTINUOUS
  0
LAYER
  5
8B
330
2
100
AcDbSymbolTableRecord
100
AcDbLayerTableRecord
  2
LAYER105
 70
     0
 62
   155
  6
CONTINUOUS
  0
LAYER
  5
8C
330
2
100
AcDbSymbolTableRecord
100
AcDbLayerTableRecord
  2
LAYER106
 70
     0
 62
   155
  6
CONTINUOUS
  0
LAYER
  5
8D
330
2
100
AcDbSymbolTableRecord
100
AcDbLayerTableRecord
  2
LAYER107
 70
     0
 62
   155
  6
CONTINUOUS
  0
LAYER
  5
8E
330
2
100
AcDbSymbolTableRecord
100
AcDbLayerTableRecord
  2
LAYER108
 70
     0
 62
   155
  6
CONTINUOUS
  0
LAYER
  5
8F
330
2
100
AcDbSymbolTableRecord
100
AcDbLayerTableRecord
  2
LAYER109
 70
     0
 62
   155
  6
CONTINUOUS
  0
LAYER
  5
90
330
2
100
AcDbSymbolTableRecord
100
AcDbLayerTableRecord
  2
LAYER110
 70
     0
 62
   155
  6
CONTINUOUS
  0
LAYER
  5
91
330
2
100
AcDbSymbolTableRecord
100
AcDbLayerTableRecord
  2
LAYER111
 70
     0
 62
   232
  6
CONTINUOUS
  0
LAYER
  5
92
330
2
100
AcDbSymbolTableRecord
100
AcDbLayerTableRecord
  2
LAYER112
 70
     0
 62
   232
  6
CONTINUOUS
  0
LAYER
  5
93
330
2
100
AcDbSymbolTableRecord
100
AcDbLayerTableRecord
  2
LAYER113
 70
     0
 62
   232
  6
CONTINUOUS
  0
LAYER
  5
94
330
2
100
AcDbSymbolTableRecord
100
AcDbLayerTableRecord
  2
LAYER114
 70
     0
 62
   232
  6
CONTINUOUS
  0
LAYER
  5
95
330
2
100
AcDbSymbolTableRecord
100
AcDbLayerTableRecord
  2
LAYER115
 70
     0
 62
   232
  6
CONTINUOUS
  0
LAYER
  5
96
330
2
100
AcDbSymbolTableRecord
100
AcDbLayerTableRecord
  2
LAYER116
 70
     0
 62
   232
  6
CONTINUOUS
  0
LAYER
  5
97
330
2
100
AcDbSymbolTableRecord
100
AcDbLayerTableRecord
  2
LAYER117
 70
     0
 62
   232
  6
CONTINUOUS
  0
LAYER
  5
98
330
2
100
AcDbSymbolTableRecord
100
AcDbLayerTableRecord
  2
LAYER118
 70
     0
 62
   232
  6
CONTINUOUS
  0
LAYER
  5
99
330
2
100
AcDbSymbolTableRecord
100
AcDbLayerTableRecord
  2
LAYER119
 70
     0
 62
   232
  6
CONTINUOUS
  0
LAYER
  5
9A
330
2
100
AcDbSymbolTableRecord
100
AcDbLayerTableRecord
  2
LAYER120
 70
     0
 62
   232
  6
CONTINUOUS
  0
LAYER
  5
9B
330
2
100
AcDbSymbolTableRecord
100
AcDbLayerTableRecord
  2
LAYER121
 70
     0
 62
   254
  6
CONTINUOUS
  0
LAYER
  5
9C
330
2
100
AcDbSymbolTableRecord
100
AcDbLayerTableRecord
  2
LAYER122
 70
     0
 62
   254
  6
CONTINUOUS
  0
LAYER
  5
9D
330
2
100
AcDbSymbolTableRecord
100
AcDbLayerTableRecord
  2
LAYER123
 70
     0
 62
   254
  6
CONTINUOUS
  0
LAYER
  5
9E
330
2
100
AcDbSymbolTableRecord
100
AcDbLayerTableRecord
  2
LAYER124
 70
     0
 62
   254
  6
CONTINUOUS
  0
LAYER
  5
9F
330
2
100
AcDbSymbolTableRecord
100
AcDbLayerTableRecord
  2
LAYER125
 70
     0
 62
   254
  6
CONTINUOUS
  0
LAYER
  5
A0
330
2
100
AcDbSymbolTableRecord
100
AcDbLayerTableRecord
  2
LAYER126
 70
     0
 62
   254
  6
CONTINUOUS
  0
LAYER
  5
A1
330
2
100
AcDbSymbolTableRecord
100
AcDbLayerTableRecord
  2
LAYER127
 70
     0
 62
   254
  6
CONTINUOUS
  0
LAYER
  5
A2
330
2
100
AcDbSymbolTableRecord
100
AcDbLayerTableRecord
  2
LAYER128
 70
     0
 62
   254
  6
CONTINUOUS
  0
LAYER
  5
A3
330
2
100
AcDbSymbolTableRecord
100
AcDbLayerTableRecord
  2
LAYER129
 70
     0
 62
   254
  6
CONTINUOUS
  0
LAYER
  5
A4
330
2
100
AcDbSymbolTableRecord
100
AcDbLayerTableRecord
  2
LAYER130
 70
     0
 62
   254
  6
CONTINUOUS
  0
LAYER
  5
A5
330
2
100
AcDbSymbolTableRecord
100
AcDbLayerTableRecord
  2
LAYER131
 70
     0
 62
     2
  6
CONTINUOUS
  0
LAYER
  5
A6
330
2
100
AcDbSymbolTableRecord
100
AcDbLayerTableRecord
  2
LAYER132
 70
     0
 62
     2
  6
CONTINUOUS
  0
LAYER
  5
A7
330
2
100
AcDbSymbolTableRecord
100
AcDbLayerTableRecord
  2
LAYER133
 70
     0
 62
     2
  6
CONTINUOUS
  0
LAYER
  5
A8
330
2
100
AcDbSymbolTableRecord
100
AcDbLayerTableRecord
  2
LAYER134
 70
     0
 62
     2
  6
CONTINUOUS
  0
LAYER
  5
A9
330
2
100
AcDbSymbolTableRecord
100
AcDbLayerTableRecord
  2
LAYER135
 70
     0
 62
     2
  6
CONTINUOUS
  0
LAYER
  5
AA
330
2
100
AcDbSymbolTableRecord
100
AcDbLayerTableRecord
  2
LAYER136
 70
     0
 62
     2
  6
CONTINUOUS
  0
LAYER
  5
AB
330
2
100
AcDbSymbolTableRecord
100
AcDbLayerTableRecord
  2
LAYER137
 70
     0
 62
     2
  6
CONTINUOUS
  0
LAYER
  5
AC
330
2
100
AcDbSymbolTableRecord
100
AcDbLayerTableRecord
  2
LAYER138
 70
     0
 62
     2
  6
CONTINUOUS
  0
LAYER
  5
AD
330
2
100
AcDbSymbolTableRecord
100
AcDbLayerTableRecord
  2
LAYER139
 70
     0
 62
     2
  6
CONTINUOUS
  0
LAYER
  5
AE
330
2
100
AcDbSymbolTableRecord
100
AcDbLayerTableRecord
  2
LAYER140
 70
     0
 62
     2
  6
CONTINUOUS
  0
LAYER
  5
AF
330
2
100
AcDbSymbolTableRecord
100
AcDbLayerTableRecord
  2
LAYER141
 70
     0
 62
     3
  6
CONTINUOUS
  0
LAYER
  5
B0
330
2
100
AcDbSymbolTableRecord
100
AcDbLayerTableRecord
  2
LAYER142
 70
     0
 62
     3
  6
CONTINUOUS
  0
LAYER
  5
B1
330
2
100
AcDbSymbolTableRecord
100
AcDbLayerTableRecord
  2
LAYER143
 70
     0
 62
     3
  6
CONTINUOUS
  0
LAYER
  5
B2
330
2
100
AcDbSymbolTableRecord
100
AcDbLayerTableRecord
  2
LAYER144
 70
     0
 62
     3
  6
CONTINUOUS
  0
LAYER
  5
B3
330
2
100
AcDbSymbolTableRecord
100
AcDbLayerTableRecord
  2
LAYER145
 70
     0
 62
     3
  6
CONTINUOUS
  0
LAYER
  5
B4
330
2
100
AcDbSymbolTableRecord
100
AcDbLayerTableRecord
  2
LAYER146
 70
     0
 62
     3
  6
CONTINUOUS
  0
LAYER
  5
B5
330
2
100
AcDbSymbolTableRecord
100
AcDbLayerTableRecord
  2
LAYER147
 70
     0
 62
     3
  6
CONTINUOUS
  0
LAYER
  5
B6
330
2
100
AcDbSymbolTableRecord
100
AcDbLayerTableRecord
  2
LAYER148
 70
     0
 62
     3
  6
CONTINUOUS
  0
LAYER
  5
B7
330
2
100
AcDbSymbolTableRecord
100
AcDbLayerTableRecord
  2
LAYER149
 70
     0
 62
     3
  6
CONTINUOUS
  0
LAYER
  5
B8
330
2
100
AcDbSymbolTableRecord
100
AcDbLayerTableRecord
  2
LAYER150
 70
     0
 62
     3
  6
CONTINUOUS
  0
LAYER
  5
B9
330
2
100
AcDbSymbolTableRecord
100
AcDbLayerTableRecord
  2
LAYER151
 70
     0
 62
     5
  6
CONTINUOUS
  0
LAYER
  5
BA
330
2
100
AcDbSymbolTableRecord
100
AcDbLayerTableRecord
  2
LAYER152
 70
     0
 62
     5
  6
CONTINUOUS
  0
LAYER
  5
BB
330
2
100
AcDbSymbolTableRecord
100
AcDbLayerTableRecord
  2
LAYER153
 70
     0
 62
     5
  6
CONTINUOUS
  0
LAYER
  5
BC
330
2
100
AcDbSymbolTableRecord
100
AcDbLayerTableRecord
  2
LAYER154
 70
     0
 62
     5
  6
CONTINUOUS
  0
LAYER
  5
BD
330
2
100
AcDbSymbolTableRecord
100
AcDbLayerTableRecord
  2
LAYER155
 70
     0
 62
     5
  6
CONTINUOUS
  0
LAYER
  5
BE
330
2
100
AcDbSymbolTableRecord
100
AcDbLayerTableRecord
  2
LAYER156
 70
     0
 62
     5
  6
CONTINUOUS
  0
LAYER
  5
BF
330
2
100
AcDbSymbolTableRecord
100
AcDbLayerTableRecord
  2
LAYER157
 70
     0
 62
     5
  6
CONTINUOUS
  0
LAYER
  5
C0
330
2
100
AcDbSymbolTableRecord
100
AcDbLayerTableRecord
  2
LAYER158
 70
     0
 62
     5
  6
CONTINUOUS
  0
LAYER
  5
C1
330
2
100
AcDbSymbolTableRecord
100
AcDbLayerTableRecord
  2
LAYER159
 70
     0
 62
     5
  6
CONTINUOUS
  0
LAYER
  5
C2
330
2
100
AcDbSymbolTableRecord
100
AcDbLayerTableRecord
  2
LAYER160
 70
     0
 62
     5
  6
CONTINUOUS
  0
LAYER
  5
C3
330
2
100
AcDbSymbolTableRecord
100
AcDbLayerTableRecord
  2
LAYER161
 70
     0
 62
     4
  6
CONTINUOUS
  0
LAYER
  5
C4
330
2
100
AcDbSymbolTableRecord
100
AcDbLayerTableRecord
  2
LAYER162
 70
     0
 62
     4
  6
CONTINUOUS
  0
LAYER
  5
C5
330
2
100
AcDbSymbolTableRecord
100
AcDbLayerTableRecord
  2
LAYER163
 70
     0
 62
     4
  6
CONTINUOUS
  0
LAYER
  5
C6
330
2
100
AcDbSymbolTableRecord
100
AcDbLayerTableRecord
  2
LAYER164
 70
     0
 62
     4
  6
CONTINUOUS
  0
LAYER
  5
C7
330
2
100
AcDbSymbolTableRecord
100
AcDbLayerTableRecord
  2
LAYER165
 70
     0
 62
     4
  6
CONTINUOUS
  0
LAYER
  5
C8
330
2
100
AcDbSymbolTableRecord
100
AcDbLayerTableRecord
  2
LAYER166
 70
     0
 62
     4
  6
CONTINUOUS
  0
LAYER
  5
C9
330
2
100
AcDbSymbolTableRecord
100
AcDbLayerTableRecord
  2
LAYER167
 70
     0
 62
     4
  6
CONTINUOUS
  0
LAYER
  5
CA
330
2
100
AcDbSymbolTableRecord
100
AcDbLayerTableRecord
  2
LAYER168
 70
     0
 62
     4
  6
CONTINUOUS
  0
LAYER
  5
CB
330
2
100
AcDbSymbolTableRecord
100
AcDbLayerTableRecord
  2
LAYER169
 70
     0
 62
     4
  6
CONTINUOUS
  0
LAYER
  5
CC
330
2
100
AcDbSymbolTableRecord
100
AcDbLayerTableRecord
  2
LAYER170
 70
     0
 62
     4
  6
CONTINUOUS
  0
LAYER
  5
CD
330
2
100
AcDbSymbolTableRecord
100
AcDbLayerTableRecord
  2
LAYER171
 70
     0
 62
   163
  6
CONTINUOUS
  0
LAYER
  5
CE
330
2
100
AcDbSymbolTableRecord
100
AcDbLayerTableRecord
  2
LAYER172
 70
     0
 62
   163
  6
CONTINUOUS
  0
LAYER
  5
CF
330
2
100
AcDbSymbolTableRecord
100
AcDbLayerTableRecord
  2
LAYER173
 70
     0
 62
   163
  6
CONTINUOUS
  0
LAYER
  5
D0
330
2
100
AcDbSymbolTableRecord
100
AcDbLayerTableRecord
  2
LAYER174
 70
     0
 62
   163
  6
CONTINUOUS
  0
LAYER
  5
D1
330
2
100
AcDbSymbolTableRecord
100
AcDbLayerTableRecord
  2
LAYER175
 70
     0
 62
   163
  6
CONTINUOUS
  0
LAYER
  5
D2
330
2
100
AcDbSymbolTableRecord
100
AcDbLayerTableRecord
  2
LAYER176
 70
     0
 62
   163
  6
CONTINUOUS
  0
LAYER
  5
D3
330
2
100
AcDbSymbolTableRecord
100
AcDbLayerTableRecord
  2
LAYER177
 70
     0
 62
   163
  6
CONTINUOUS
  0
LAYER
  5
D4
330
2
100
AcDbSymbolTableRecord
100
AcDbLayerTableRecord
  2
LAYER178
 70
     0
 62
   163
  6
CONTINUOUS
  0
LAYER
  5
D5
330
2
100
AcDbSymbolTableRecord
100
AcDbLayerTableRecord
  2
LAYER179
 70
     0
 62
   163
  6
CONTINUOUS
  0
LAYER
  5
D6
330
2
100
AcDbSymbolTableRecord
100
AcDbLayerTableRecord
  2
LAYER180
 70
     0
 62
   163
  6
CONTINUOUS
  0
LAYER
  5
D7
330
2
100
AcDbSymbolTableRecord
100
AcDbLayerTableRecord
  2
LAYER181
 70
     0
 62
    31
  6
CONTINUOUS
  0
LAYER
  5
D8
330
2
100
AcDbSymbolTableRecord
100
AcDbLayerTableRecord
  2
LAYER182
 70
     0
 62
    31
  6
CONTINUOUS
  0
LAYER
  5
D9
330
2
100
AcDbSymbolTableRecord
100
AcDbLayerTableRecord
  2
LAYER183
 70
     0
 62
    31
  6
CONTINUOUS
  0
LAYER
  5
DA
330
2
100
AcDbSymbolTableRecord
100
AcDbLayerTableRecord
  2
LAYER184
 70
     0
 62
    31
  6
CONTINUOUS
  0
LAYER
  5
DB
330
2
100
AcDbSymbolTableRecord
100
AcDbLayerTableRecord
  2
LAYER185
 70
     0
 62
    31
  6
CONTINUOUS
  0
LAYER
  5
DC
330
2
100
AcDbSymbolTableRecord
100
AcDbLayerTableRecord
  2
LAYER186
 70
     0
 62
    31
  6
CONTINUOUS
  0
LAYER
  5
DD
330
2
100
AcDbSymbolTableRecord
100
AcDbLayerTableRecord
  2
LAYER187
 70
     0
 62
    31
  6
CONTINUOUS
  0
LAYER
  5
DE
330
2
100
AcDbSymbolTableRecord
100
AcDbLayerTableRecord
  2
LAYER188
 70
     0
 62
    31
  6
CONTINUOUS
  0
LAYER
  5
DF
330
2
100
AcDbSymbolTableRecord
100
AcDbLayerTableRecord
  2
LAYER189
 70
     0
 62
    31
  6
CONTINUOUS
  0
LAYER
  5
E0
330
2
100
AcDbSymbolTableRecord
100
AcDbLayerTableRecord
  2
LAYER190
 70
     0
 62
    31
  6
CONTINUOUS
  0
LAYER
  5
E1
330
2
100
AcDbSymbolTableRecord
100
AcDbLayerTableRecord
  2
LAYER191
 70
     0
 62
    71
  6
CONTINUOUS
  0
LAYER
  5
E2
330
2
100
AcDbSymbolTableRecord
100
AcDbLayerTableRecord
  2
LAYER192
 70
     0
 62
    71
  6
CONTINUOUS
  0
LAYER
  5
E3
330
2
100
AcDbSymbolTableRecord
100
AcDbLayerTableRecord
  2
LAYER193
 70
     0
 62
    71
  6
CONTINUOUS
  0
LAYER
  5
E4
330
2
100
AcDbSymbolTableRecord
100
AcDbLayerTableRecord
  2
LAYER194
 70
     0
 62
    71
  6
CONTINUOUS
  0
LAYER
  5
E5
330
2
100
AcDbSymbolTableRecord
100
AcDbLayerTableRecord
  2
LAYER195
 70
     0
 62
    71
  6
CONTINUOUS
  0
LAYER
  5
E6
330
2
100
AcDbSymbolTableRecord
100
AcDbLayerTableRecord
  2
LAYER196
 70
     0
 62
    71
  6
CONTINUOUS
  0
LAYER
  5
E7
330
2
100
AcDbSymbolTableRecord
100
AcDbLayerTableRecord
  2
LAYER197
 70
     0
 62
    71
  6
CONTINUOUS
  0
LAYER
  5
E8
330
2
100
AcDbSymbolTableRecord
100
AcDbLayerTableRecord
  2
LAYER198
 70
     0
 62
    71
  6
CONTINUOUS
  0
LAYER
  5
E9
330
2
100
AcDbSymbolTableRecord
100
AcDbLayerTableRecord
  2
LAYER199
 70
     0
 62
    71
  6
CONTINUOUS
  0
LAYER
  5
EA
330
2
100
AcDbSymbolTableRecord
100
AcDbLayerTableRecord
  2
LAYER200
 70
     0
 62
    71
  6
CONTINUOUS
  0
LAYER
  5
EB
330
2
100
AcDbSymbolTableRecord
100
AcDbLayerTableRecord
  2
LAYER201
 70
     0
 62
   241
  6
CONTINUOUS
  0
LAYER
  5
EC
330
2
100
AcDbSymbolTableRecord
100
AcDbLayerTableRecord
  2
LAYER202
 70
     0
 62
   241
  6
CONTINUOUS
  0
LAYER
  5
ED
330
2
100
AcDbSymbolTableRecord
100
AcDbLayerTableRecord
  2
LAYER203
 70
     0
 62
   241
  6
CONTINUOUS
  0
LAYER
  5
EE
330
2
100
AcDbSymbolTableRecord
100
AcDbLayerTableRecord
  2
LAYER204
 70
     0
 62
   241
  6
CONTINUOUS
  0
LAYER
  5
EF
330
2
100
AcDbSymbolTableRecord
100
AcDbLayerTableRecord
  2
LAYER205
 70
     0
 62
   241
  6
CONTINUOUS
  0
LAYER
  5
F0
330
2
100
AcDbSymbolTableRecord
100
AcDbLayerTableRecord
  2
LAYER206
 70
     0
 62
   241
  6
CONTINUOUS
  0
LAYER
  5
F1
330
2
100
AcDbSymbolTableRecord
100
AcDbLayerTableRecord
  2
LAYER207
 70
     0
 62
   241
  6
CONTINUOUS
  0
LAYER
  5
F2
330
2
100
AcDbSymbolTableRecord
100
AcDbLayerTableRecord
  2
LAYER208
 70
     0
 62
   241
  6
CONTINUOUS
  0
LAYER
  5
F3
330
2
100
AcDbSymbolTableRecord
100
AcDbLayerTableRecord
  2
LAYER209
 70
     0
 62
   241
  6
CONTINUOUS
  0
LAYER
  5
F4
330
2
100
AcDbSymbolTableRecord
100
AcDbLayerTableRecord
  2
LAYER210
 70
     0
 62
   241
  6
CONTINUOUS
  0
LAYER
  5
F5
330
2
100
AcDbSymbolTableRecord
100
AcDbLayerTableRecord
  2
LAYER211
 70
     0
 62
   191
  6
CONTINUOUS
  0
LAYER
  5
F6
330
2
100
AcDbSymbolTableRecord
100
AcDbLayerTableRecord
  2
LAYER212
 70
     0
 62
   191
  6
CONTINUOUS
  0
LAYER
  5
F7
330
2
100
AcDbSymbolTableRecord
100
AcDbLayerTableRecord
  2
LAYER213
 70
     0
 62
   191
  6
CONTINUOUS
  0
LAYER
  5
F8
330
2
100
AcDbSymbolTableRecord
100
AcDbLayerTableRecord
  2
LAYER214
 70
     0
 62
   191
  6
CONTINUOUS
  0
LAYER
  5
F9
330
2
100
AcDbSymbolTableRecord
100
AcDbLayerTableRecord
  2
LAYER215
 70
     0
 62
   191
  6
CONTINUOUS
  0
LAYER
  5
FA
330
2
100
AcDbSymbolTableRecord
100
AcDbLayerTableRecord
  2
LAYER216
 70
     0
 62
   191
  6
CONTINUOUS
  0
LAYER
  5
FB
330
2
100
AcDbSymbolTableRecord
100
AcDbLayerTableRecord
  2
LAYER217
 70
     0
 62
   191
  6
CONTINUOUS
  0
LAYER
  5
FC
330
2
100
AcDbSymbolTableRecord
100
AcDbLayerTableRecord
  2
LAYER218
 70
     0
 62
   191
  6
CONTINUOUS
  0
LAYER
  5
FD
330
2
100
AcDbSymbolTableRecord
100
AcDbLayerTableRecord
  2
LAYER219
 70
     0
 62
   191
  6
CONTINUOUS
  0
LAYER
  5
FE
330
2
100
AcDbSymbolTableRecord
100
AcDbLayerTableRecord
  2
LAYER220
 70
     0
 62
   191
  6
CONTINUOUS
  0
LAYER
  5
FF
330
2
100
AcDbSymbolTableRecord
100
AcDbLayerTableRecord
  2
LAYER221
 70
     0
 62
   215
  6
CONTINUOUS
  0
LAYER
  5
100
330
2
100
AcDbSymbolTableRecord
100
AcDbLayerTableRecord
  2
LAYER222
 70
     0
 62
   215
  6
CONTINUOUS
  0
LAYER
  5
101
330
2
100
AcDbSymbolTableRecord
100
AcDbLayerTableRecord
  2
LAYER223
 70
     0
 62
   215
  6
CONTINUOUS
  0
LAYER
  5
102
330
2
100
AcDbSymbolTableRecord
100
AcDbLayerTableRecord
  2
LAYER224
 70
     0
 62
   215
  6
CONTINUOUS
  0
LAYER
  5
103
330
2
100
AcDbSymbolTableRecord
100
AcDbLayerTableRecord
  2
LAYER225
 70
     0
 62
   215
  6
CONTINUOUS
  0
LAYER
  5
104
330
2
100
AcDbSymbolTableRecord
100
AcDbLayerTableRecord
  2
LAYER226
 70
     0
 62
   215
  6
CONTINUOUS
  0
LAYER
  5
105
330
2
100
AcDbSymbolTableRecord
100
AcDbLayerTableRecord
  2
LAYER227
 70
     0
 62
   215
  6
CONTINUOUS
  0
LAYER
  5
106
330
2
100
AcDbSymbolTableRecord
100
AcDbLayerTableRecord
  2
LAYER228
 70
     0
 62
   215
  6
CONTINUOUS
  0
LAYER
  5
107
330
2
100
AcDbSymbolTableRecord
100
AcDbLayerTableRecord
  2
LAYER229
 70
     0
 62
   215
  6
CONTINUOUS
  0
LAYER
  5
108
330
2
100
AcDbSymbolTableRecord
100
AcDbLayerTableRecord
  2
LAYER230
 70
     0
 62
   215
  6
CONTINUOUS
  0
LAYER
  5
109
330
2
100
AcDbSymbolTableRecord
100
AcDbLayerTableRecord
  2
LAYER231
 70
     0
 62
   155
  6
CONTINUOUS
  0
LAYER
  5
10A
330
2
100
AcDbSymbolTableRecord
100
AcDbLayerTableRecord
  2
LAYER232
 70
     0
 62
   155
  6
CONTINUOUS
  0
LAYER
  5
10B
330
2
100
AcDbSymbolTableRecord
100
AcDbLayerTableRecord
  2
LAYER233
 70
     0
 62
   155
  6
CONTINUOUS
  0
LAYER
  5
10C
330
2
100
AcDbSymbolTableRecord
100
AcDbLayerTableRecord
  2
LAYER234
 70
     0
 62
   155
  6
CONTINUOUS
  0
LAYER
  5
10D
330
2
100
AcDbSymbolTableRecord
100
AcDbLayerTableRecord
  2
LAYER235
 70
     0
 62
   155
  6
CONTINUOUS
  0
LAYER
  5
10E
330
2
100
AcDbSymbolTableRecord
100
AcDbLayerTableRecord
  2
LAYER236
 70
     0
 62
   155
  6
CONTINUOUS
  0
LAYER
  5
10F
330
2
100
AcDbSymbolTableRecord
100
AcDbLayerTableRecord
  2
LAYER237
 70
     0
 62
   155
  6
CONTINUOUS
  0
LAYER
  5
110
330
2
100
AcDbSymbolTableRecord
100
AcDbLayerTableRecord
  2
LAYER238
 70
     0
 62
   155
  6
CONTINUOUS
  0
LAYER
  5
111
330
2
100
AcDbSymbolTableRecord
100
AcDbLayerTableRecord
  2
LAYER239
 70
     0
 62
   155
  6
CONTINUOUS
  0
LAYER
  5
112
330
2
100
AcDbSymbolTableRecord
100
AcDbLayerTableRecord
  2
LAYER240
 70
     0
 62
   155
  6
CONTINUOUS
  0
LAYER
  5
113
330
2
100
AcDbSymbolTableRecord
100
AcDbLayerTableRecord
  2
LAYER241
 70
     0
 62
   232
  6
CONTINUOUS
  0
LAYER
  5
114
330
2
100
AcDbSymbolTableRecord
100
AcDbLayerTableRecord
  2
LAYER242
 70
     0
 62
   232
  6
CONTINUOUS
  0
LAYER
  5
115
330
2
100
AcDbSymbolTableRecord
100
AcDbLayerTableRecord
  2
LAYER243
 70
     0
 62
   232
  6
CONTINUOUS
  0
LAYER
  5
116
330
2
100
AcDbSymbolTableRecord
100
AcDbLayerTableRecord
  2
LAYER244
 70
     0
 62
   232
  6
CONTINUOUS
  0
LAYER
  5
117
330
2
100
AcDbSymbolTableRecord
100
AcDbLayerTableRecord
  2
LAYER245
 70
     0
 62
   232
  6
CONTINUOUS
  0
LAYER
  5
118
330
2
100
AcDbSymbolTableRecord
100
AcDbLayerTableRecord
  2
LAYER246
 70
     0
 62
   232
  6
CONTINUOUS
  0
LAYER
  5
119
330
2
100
AcDbSymbolTableRecord
100
AcDbLayerTableRecord
  2
LAYER247
 70
     0
 62
   232
  6
CONTINUOUS
  0
LAYER
  5
11A
330
2
100
AcDbSymbolTableRecord
100
AcDbLayerTableRecord
  2
LAYER248
 70
     0
 62
   232
  6
CONTINUOUS
  0
LAYER
  5
11B
330
2
100
AcDbSymbolTableRecord
100
AcDbLayerTableRecord
  2
LAYER249
 70
     0
 62
   232
  6
CONTINUOUS
  0
LAYER
  5
11C
330
2
100
AcDbSymbolTableRecord
100
AcDbLayerTableRecord
  2
LAYER250
 70
     0
 62
   232
  6
CONTINUOUS
  0
LAYER
  5
11D
330
2
100
AcDbSymbolTableRecord
100
AcDbLayerTableRecord
  2
LAYER251
 70
     0
 62
   254
  6
CONTINUOUS
  0
LAYER
  5
11E
330
2
100
AcDbSymbolTableRecord
100
AcDbLayerTableRecord
  2
LAYER252
 70
     0
 62
   254
  6
CONTINUOUS
  0
LAYER
  5
11F
330
2
100
AcDbSymbolTableRecord
100
AcDbLayerTableRecord
  2
LAYER253
 70
     0
 62
   254
  6
CONTINUOUS
  0
LAYER
  5
120
330
2
100
AcDbSymbolTableRecord
100
AcDbLayerTableRecord
  2
LAYER256
 70
     0
 62
   254
  6
CONTINUOUS
  0
LAYER
  5
121
330
2
100
AcDbSymbolTableRecord
100
AcDbLayerTableRecord
  2
ケ_シング
 70
     0
 62
    20
  6
CONTINUOUS
  0
LAYER
  5
122
330
2
100
AcDbSymbolTableRecord
100
AcDbLayerTableRecord
  2
羽根車
 70
     0
 62
    21
  6
CONTINUOUS
  0
LAYER
  5
123
330
2
100
AcDbSymbolTableRecord
100
AcDbLayerTableRecord
  2
LY_223
 70
     0
 62
   255
  6
CONTINUOUS
  0
LAYER
  5
124
330
2
100
AcDbSymbolTableRecord
100
AcDbLayerTableRecord
  2
ナット
 70
     0
 62
    33
  6
CONTINUOUS
  0
LAYER
  5
125
330
2
100
AcDbSymbolTableRecord
100
AcDbLayerTableRecord
  2
LAYER011
 70
     0
 62
     3
  6
CONTINUOUS
  0
LAYER
  5
126
330
2
100
AcDbSymbolTableRecord
100
AcDbLayerTableRecord
  2
ネジ
 70
     0
 62
     6
  6
CONTINUOUS
  0
LAYER
  5
127
330
2
100
AcDbSymbolTableRecord
100
AcDbLayerTableRecord
  2
エジェクタ_
 70
     0
 62
    51
  6
CONTINUOUS
  0
LAYER
  5
128
330
2
100
AcDbSymbolTableRecord
100
AcDbLayerTableRecord
  2
LAYER001
 70
     0
 62
     2
  6
CONTINUOUS
  0
LAYER
  5
129
330
2
100
AcDbSymbolTableRecord
100
AcDbLayerTableRecord
  2
LAYER004
 70
     0
 62
    91
  6
CONTINUOUS
  0
LAYER
  5
12A
330
2
100
AcDbSymbolTableRecord
100
AcDbLayerTableRecord
  2
技連03011
 70
     0
 62
     4
  6
CONTINUOUS
  0
LAYER
  5
12B
330
2
100
AcDbSymbolTableRecord
100
AcDbLayerTableRecord
  2
SLD-DEFPOINTS
 70
     0
 62
   179
  6
CONTINUOUS
  0
ENDTAB
  0
TABLE
  2
STYLE
  5
3
330
0
100
AcDbSymbolTable
 70
     2
  0
STYLE
  5
11
330
3
100
AcDbSymbolTableRecord
100
AcDbTextStyleTableRecord
  2
STANDARD
 70
     0
 40
0.0
 41
1.0
 50
0.0
 71
     0
 42
2.5
  3
txt
  4
bigfont
  0
STYLE
  5
4CF
330
3
100
AcDbSymbolTableRecord
100
AcDbTextStyleTableRecord
  2
SLDTEXTSTYLE0
 70
     0
 40
0.0
 41
0.5833331
 50
0.0
 71
     0
 42
0.2
  3
TXT
  4
bigfont
  0
ENDTAB
  0
TABLE
  2
VIEW
  5
6
330
0
100
AcDbSymbolTable
 70
     0
  0
ENDTAB
  0
TABLE
  2
UCS
  5
7
330
0
100
AcDbSymbolTable
 70
     0
  0
ENDTAB
  0
TABLE
  2
APPID
  5
9
330
0
100
AcDbSymbolTable
 70
     1
  0
APPID
  5
12
330
9
100
AcDbSymbolTableRecord
100
AcDbRegAppTableRecord
  2
ACAD
 70
     0
  0
ENDTAB
  0
TABLE
  2
DIMSTYLE
  5
A
330
0
100
AcDbSymbolTable
 70
     1
  0
DIMSTYLE
105
27
330
A
100
AcDbSymbolTableRecord
100
AcDbDimStyleTableRecord
  2
ISO-25
 70
     0
  3

  4

  5

  6

  7

 40
1.0
 41
2.5
 42
0.625
 43
3.75
 44
1.25
 45
0.0
 46
0.0
 47
0.0
 48
0.0
140
2.5
141
2.5
142
0.0
143
0.0393700787
144
1.0
145
0.0
146
1.0
147
0.625
 71
     0
 72
     0
 73
     0
 74
     0
 75
     0
 76
     0
 77
     1
 78
     8
170
     0
171
     3
172
     1
173
     0
174
     0
175
     0
176
     0
177
     0
178
     0
270
     2
271
     2
272
     2
273
     2
274
     3
340
11
275
     0
280
     0
281
     0
282
     0
283
     0
284
     8
285
     0
286
     0
287
     3
288
     0
  0
ENDTAB
  0
TABLE
  2
BLOCK_RECORD
  5
1
330
0
100
AcDbSymbolTable
 70
     2
  0
BLOCK_RECORD
  5
1F
330
1
100
AcDbSymbolTableRecord
100
AcDbBlockTableRecord
  2
*MODEL_SPACE
  0
BLOCK_RECORD
  5
1B
330
1
100
AcDbSymbolTableRecord
100
AcDbBlockTableRecord
  2
*PAPER_SPACE
  0
BLOCK_RECORD
  5
23
330
1
100
AcDbSymbolTableRecord
100
AcDbBlockTableRecord
  2
*PAPER_SPACE0
  0
BLOCK_RECORD
  5
12C
330
1
100
AcDbSymbolTableRecord
100
AcDbBlockTableRecord
  2
_OPEN30
  0
ENDTAB
  0
ENDSEC
  0
SECTION
  2
BLOCKS
  0
BLOCK
  5
20
330
1F
100
AcDbEntity
  8
0
100
AcDbBlockBegin
  2
*MODEL_SPACE
 70
     0
 10
0.0
 20
0.0
 30
0.0
  3
*MODEL_SPACE
  1

  0
ENDBLK
  5
21
330
1F
100
AcDbEntity
  8
0
100
AcDbBlockEnd
  0
BLOCK
  5
1C
330
1B
100
AcDbEntity
 67
     1
  8
0
100
AcDbBlockBegin
  2
*PAPER_SPACE
 70
     0
 10
0.0
 20
0.0
 30
0.0
  3
*PAPER_SPACE
  1

  0
ENDBLK
  5
1D
330
1B
100
AcDbEntity
 67
     1
  8
0
100
AcDbBlockEnd
  0
BLOCK
  5
24
330
23
100
AcDbEntity
  8
0
100
AcDbBlockBegin
  2
*PAPER_SPACE0
 70
     0
 10
0.0
 20
0.0
 30
0.0
  3
*PAPER_SPACE0
  1

  0
ENDBLK
  5
25
330
23
100
AcDbEntity
  8
0
100
AcDbBlockEnd
  0
BLOCK
  5
12D
330
12C
100
AcDbEntity
  8
0
100
AcDbBlockBegin
  2
_OPEN30
 70
     0
 10
0.0
 20
0.0
 30
0.0
  3
_OPEN30
  1

  0
LINE
  5
12F
330
12C
100
AcDbEntity
  8
SLD-0
  6
CONTINUOUS
 62
   179
100
AcDbLine
 10
-1.0
 20
0.267949
 30
0.0
 11
0.0
 21
0.0
 31
0.0
  0
LINE
  5
130
330
12C
100
AcDbEntity
  8
SLD-0
  6
CONTINUOUS
 62
   179
100
AcDbLine
 10
0.0
 20
0.0
 30
0.0
 11
-1.0
 21
-0.267949
 31
0.0
  0
LINE
  5
131
330
12C
100
AcDbEntity
  8
SLD-0
  6
CONTINUOUS
 62
   179
100
AcDbLine
 10
0.0
 20
0.0
 30
0.0
 11
-1.0
 21
0.0
 31
0.0
  0
ENDBLK
  5
12E
330
12C
100
AcDbEntity
  8
0
100
AcDbBlockEnd
  0
ENDSEC
  0
SECTION
  2
ENTITIES
  0
LINE
  5
132
330
1F
100
AcDbEntity
  8
図面枠
  6
PHANTOM
 62
   179
100
AcDbLine
 10
971.0232375
 20
289.0920925
 30
0.0
 11
1005.0232375
 21
289.0920925
 31
0.0
  0
LINE
  5
133
330
1F
100
AcDbEntity
  8
図面枠
  6
PHANTOM
 62
   179
100
AcDbLine
 10
951.7704617497
 20
300.17265
 30
0.0
 11
951.7704617497
 21
306.0920925
 31
0.0
  0
LINE
  5
134
330
1F
100
AcDbEntity
  8
図面枠
  6
PHANTOM
 62
   179
100
AcDbLine
 10
948.017685
 20
300.17265
 30
0.0
 11
948.017685
 21
306.0920925
 31
0.0
  0
LINE
  5
135
330
1F
100
AcDbEntity
  8
図面枠
  6
PHANTOM
 62
   179
100
AcDbLine
 10
945.5232375
 20
307.0920918717
 30
0.0
 11
945.5232375
 21
310.0920925
 31
0.0
  0
LINE
  5
136
330
1F
100
AcDbEntity
  8
図面枠
  6
PHANTOM
 62
   179
100
AcDbLine
 10
1030.5232375
 20
310.0920925
 30
0.0
 11
1030.5232375
 21
307.0920925
 31
0.0
  0
LINE
  5
137
330
1F
100
AcDbEntity
  8
図面枠
  6
PHANTOM
 62
   179
100
AcDbLine
 10
1024.2760152492
 20
300.17265
 30
0.0
 11
1024.2760152492
 21
306.0920925
 31
0.0
  0
LINE
  5
138
330
1F
100
AcDbEntity
  8
図面枠
  6
PHANTOM
 62
   179
100
AcDbLine
 10
1016.7704617497
 20
300.17265
 30
0.0
 11
1016.7704617497
 21
306.0920925
 31
0.0
  0
LINE
  5
139
330
1F
100
AcDbEntity
  8
図面枠
  6
PHANTOM
 62
   179
100
AcDbLine
 10
1014.8940725
 20
299.5920925
 30
0.0
 11
1026.1524025
 21
299.5920925
 31
0.0
  0
LINE
  5
13A
330
1F
100
AcDbEntity
  8
図面枠
  6
PHANTOM
 62
   179
100
AcDbLine
 10
1013.017685
 20
306.0920925
 30
0.0
 11
1028.0287919989
 21
306.0920925
 31
0.0
  0
LINE
  5
13B
330
1F
100
AcDbEntity
  8
図面枠
  6
PHANTOM
 62
   179
100
AcDbLine
 10
1028.0287919989
 20
300.17265
 30
0.0
 11
1028.0287919989
 21
306.0920925
 31
0.0
  0
LINE
  5
13C
330
1F
100
AcDbEntity
  8
図面枠
  6
PHANTOM
 62
   179
100
AcDbLine
 10
1013.017685
 20
300.17265
 30
0.0
 11
1013.017685
 21
306.0920925
 31
0.0
  0
LINE
  5
13D
330
1F
100
AcDbEntity
  8
図面枠
  6
PHANTOM
 62
   179
100
AcDbLine
 10
959.2760152492
 20
300.17265
 30
0.0
 11
959.2760152492
 21
306.0920925
 31
0.0
  0
LINE
  5
13E
330
1F
100
AcDbEntity
  8
図面枠
  6
PHANTOM
 62
   179
100
AcDbLine
 10
963.0287919989
 20
300.17265
 30
0.0
 11
963.0287919989
 21
306.0920925
 31
0.0
  0
LINE
  5
13F
330
1F
100
AcDbEntity
  8
図面枠
  6
PHANTOM
 62
   179
100
AcDbLine
 10
948.017685
 20
306.0920925
 30
0.0
 11
963.0287919989
 21
306.0920925
 31
0.0
  0
LINE
  5
140
330
1F
100
AcDbEntity
  8
図面枠
  6
PHANTOM
 62
   179
100
AcDbLine
 10
949.8940725
 20
299.5920925
 30
0.0
 11
961.1524025
 21
299.5920925
 31
0.0
  0
LINE
  5
141
330
1F
100
AcDbEntity
  8
図面枠
  6
PHANTOM
 62
   179
100
AcDbLine
 10
945.5232375
 20
310.0920925
 30
0.0
 11
1030.5232375
 21
310.0920925
 31
0.0
  0
LINE
  5
142
330
1F
100
AcDbEntity
  8
図面枠
  6
PHANTOM
 62
   179
100
AcDbLine
 10
946.5232378142
 20
306.0920925
 30
0.0
 11
1029.5232378142
 21
306.0920925
 31
0.0
  0
LINE
  5
143
330
1F
100
AcDbEntity
  8
図面枠
  6
PHANTOM
 62
   179
100
AcDbLine
 10
1030.5232375
 20
310.0920925
 30
0.0
 11
945.5232375
 21
310.0920925
 31
0.0
  0
LINE
  5
144
330
1F
100
AcDbEntity
  8
図面枠
  6
PHANTOM
 62
   179
100
AcDbLine
 10
1028.0232375
 20
310.0920925
 30
0.0
 11
948.0232375
 21
310.0920925
 31
0.0
  0
LINE
  5
145
330
1F
100
AcDbEntity
  8
図面枠
  6
PHANTOM
 62
   179
100
AcDbLine
 10
993.0232375
 20
310.0920925
 30
0.0
 11
993.0232375
 21
311.5920925
 31
0.0
  0
LINE
  5
146
330
1F
100
AcDbEntity
  8
図面枠
  6
PHANTOM
 62
   179
100
AcDbLine
 10
983.0232375
 20
310.0920925
 30
0.0
 11
983.0232375
 21
311.5920925
 31
0.0
  0
LINE
  5
147
330
1F
100
AcDbEntity
  8
図面枠
  6
PHANTOM
 62
   179
100
AcDbLine
 10
970.0232375
 20
290.0920925
 30
0.0
 11
970.0232375
 21
304.0920925
 31
0.0
  0
LINE
  5
148
330
1F
100
AcDbEntity
  8
図面枠
  6
PHANTOM
 62
   179
100
AcDbLine
 10
1006.0232375
 20
290.0920925
 30
0.0
 11
1006.0232375
 21
304.0920925
 31
0.0
  0
LINE
  5
149
330
1F
100
AcDbEntity
  8
図面枠
  6
PHANTOM
 62
   179
100
AcDbLine
 10
981.5232375
 20
603.08229
 30
0.0
 11
1015.5232375
 21
603.08229
 31
0.0
  0
LINE
  5
14A
330
1F
100
AcDbEntity
  8
図面枠
  6
PHANTOM
 62
   179
100
AcDbLine
 10
962.2704617497
 20
592.0017325
 30
0.0
 11
962.2704617497
 21
586.08229
 31
0.0
  0
LINE
  5
14B
330
1F
100
AcDbEntity
  8
図面枠
  6
PHANTOM
 62
   179
100
AcDbLine
 10
958.517685
 20
592.0017325
 30
0.0
 11
958.517685
 21
586.08229
 31
0.0
  0
LINE
  5
14C
330
1F
100
AcDbEntity
  8
図面枠
  6
PHANTOM
 62
   179
100
AcDbLine
 10
956.0232375
 20
585.0822906283
 30
0.0
 11
956.0232375
 21
582.08229
 31
0.0
  0
LINE
  5
14D
330
1F
100
AcDbEntity
  8
図面枠
  6
PHANTOM
 62
   179
100
AcDbLine
 10
1041.0232375
 20
582.08229
 30
0.0
 11
1041.0232375
 21
585.08229
 31
0.0
  0
LINE
  5
14E
330
1F
100
AcDbEntity
  8
図面枠
  6
PHANTOM
 62
   179
100
AcDbLine
 10
1034.7760152492
 20
592.0017325
 30
0.0
 11
1034.7760152492
 21
586.08229
 31
0.0
  0
LINE
  5
14F
330
1F
100
AcDbEntity
  8
図面枠
  6
PHANTOM
 62
   179
100
AcDbLine
 10
1027.2704617497
 20
592.0017325
 30
0.0
 11
1027.2704617497
 21
586.08229
 31
0.0
  0
LINE
  5
150
330
1F
100
AcDbEntity
  8
図面枠
  6
PHANTOM
 62
   179
100
AcDbLine
 10
1025.3940725
 20
592.58229
 30
0.0
 11
1036.6524025
 21
592.58229
 31
0.0
  0
LINE
  5
151
330
1F
100
AcDbEntity
  8
図面枠
  6
PHANTOM
 62
   179
100
AcDbLine
 10
1023.517685
 20
586.08229
 30
0.0
 11
1038.5287919989
 21
586.08229
 31
0.0
  0
LINE
  5
152
330
1F
100
AcDbEntity
  8
図面枠
  6
PHANTOM
 62
   179
100
AcDbLine
 10
1038.5287919989
 20
592.0017325
 30
0.0
 11
1038.5287919989
 21
586.08229
 31
0.0
  0
LINE
  5
153
330
1F
100
AcDbEntity
  8
図面枠
  6
PHANTOM
 62
   179
100
AcDbLine
 10
1023.517685
 20
592.0017325
 30
0.0
 11
1023.517685
 21
586.08229
 31
0.0
  0
LINE
  5
154
330
1F
100
AcDbEntity
  8
図面枠
  6
PHANTOM
 62
   179
100
AcDbLine
 10
969.7760152492
 20
592.0017325
 30
0.0
 11
969.7760152492
 21
586.08229
 31
0.0
  0
LINE
  5
155
330
1F
100
AcDbEntity
  8
図面枠
  6
PHANTOM
 62
   179
100
AcDbLine
 10
973.5287919989
 20
592.0017325
 30
0.0
 11
973.5287919989
 21
586.08229
 31
0.0
  0
LINE
  5
156
330
1F
100
AcDbEntity
  8
図面枠
  6
PHANTOM
 62
   179
100
AcDbLine
 10
958.517685
 20
586.08229
 30
0.0
 11
973.5287919989
 21
586.08229
 31
0.0
  0
LINE
  5
157
330
1F
100
AcDbEntity
  8
図面枠
  6
PHANTOM
 62
   179
100
AcDbLine
 10
960.3940725
 20
592.58229
 30
0.0
 11
971.6524025
 21
592.58229
 31
0.0
  0
LINE
  5
158
330
1F
100
AcDbEntity
  8
図面枠
  6
PHANTOM
 62
   179
100
AcDbLine
 10
956.0232375
 20
582.08229
 30
0.0
 11
1041.0232375
 21
582.08229
 31
0.0
  0
LINE
  5
159
330
1F
100
AcDbEntity
  8
図面枠
  6
PHANTOM
 62
   179
100
AcDbLine
 10
957.0232378142
 20
586.08229
 30
0.0
 11
1040.0232378142
 21
586.08229
 31
0.0
  0
LINE
  5
15A
330
1F
100
AcDbEntity
  8
図面枠
  6
PHANTOM
 62
   179
100
AcDbLine
 10
1041.0232375
 20
582.08229
 30
0.0
 11
956.0232375
 21
582.08229
 31
0.0
  0
LINE
  5
15B
330
1F
100
AcDbEntity
  8
図面枠
  6
PHANTOM
 62
   179
100
AcDbLine
 10
1038.5232375
 20
582.08229
 30
0.0
 11
958.5232375
 21
582.08229
 31
0.0
  0
LINE
  5
15C
330
1F
100
AcDbEntity
  8
図面枠
  6
PHANTOM
 62
   179
100
AcDbLine
 10
1003.5232375
 20
582.08229
 30
0.0
 11
1003.5232375
 21
580.58229
 31
0.0
  0
LINE
  5
15D
330
1F
100
AcDbEntity
  8
図面枠
  6
PHANTOM
 62
   179
100
AcDbLine
 10
993.5232375
 20
582.08229
 30
0.0
 11
993.5232375
 21
580.58229
 31
0.0
  0
LINE
  5
15E
330
1F
100
AcDbEntity
  8
図面枠
  6
PHANTOM
 62
   179
100
AcDbLine
 10
980.5232375
 20
602.08229
 30
0.0
 11
980.5232375
 21
588.08229
 31
0.0
  0
LINE
  5
15F
330
1F
100
AcDbEntity
  8
図面枠
  6
PHANTOM
 62
   179
100
AcDbLine
 10
1016.5232375
 20
602.08229
 30
0.0
 11
1016.5232375
 21
588.08229
 31
0.0
  0
LINE
  5
160
330
1F
100
AcDbEntity
  8
図面枠
  6
CONTINUOUS
 62
     3
100
AcDbLine
 10
1067.7283175
 20
675.7172575
 30
0.0
 11
1067.7283175
 21
607.614565
 31
0.0
  0
LINE
  5
161
330
1F
100
AcDbEntity
  8
図面枠
  6
CONTINUOUS
 62
     3
100
AcDbLine
 10
1077.6283175
 20
674.96519
 30
0.0
 11
1077.6283175
 21
571.6066075
 31
0.0
  0
LINE
  5
162
330
1F
100
AcDbEntity
  8
図面枠
  6
CONTINUOUS
 62
     3
100
AcDbLine
 10
990.06017
 20
704.5111025
 30
0.0
 11
990.4364775
 21
704.134795
 31
0.0
  0
LINE
  5
163
330
1F
100
AcDbEntity
  8
図面枠
  6
CONTINUOUS
 62
     3
100
AcDbLine
 10
989.641915
 20
704.092845
 30
0.0
 11
990.01822
 21
703.71654
 31
0.0
  0
LINE
  5
164
330
1F
100
AcDbEntity
  8
図面枠
  6
CONTINUOUS
 62
     3
100
AcDbLine
 10
989.64207
 20
702.503875
 30
0.0
 11
990.06017
 21
702.085775
 31
0.0
  0
LINE
  5
165
330
1F
100
AcDbEntity
  8
図面枠
  6
CONTINUOUS
 62
     3
100
AcDbLine
 10
990.06017
 20
704.5111025
 30
0.0
 11
989.641915
 21
704.092845
 31
0.0
  0
LINE
  5
166
330
1F
100
AcDbEntity
  8
図面枠
  6
CONTINUOUS
 62
     3
100
AcDbLine
 10
992.0672325
 20
702.50404
 30
0.0
 11
991.648975
 21
702.085785
 31
0.0
  0
LINE
  5
167
330
1F
100
AcDbEntity
  8
図面枠
  6
CONTINUOUS
 62
     3
100
AcDbLine
 10
991.64914
 20
704.5109475
 30
0.0
 11
991.272835
 21
704.13464
 31
0.0
  0
LINE
  5
168
330
1F
100
AcDbEntity
  8
図面枠
  6
CONTINUOUS
 62
     3
100
AcDbLine
 10
991.690925
 20
702.8803475
 30
0.0
 11
992.0672325
 21
702.50404
 31
0.0
  0
LINE
  5
169
330
1F
100
AcDbEntity
  8
図面枠
  6
CONTINUOUS
 62
     3
100
AcDbLine
 10
991.27267
 20
702.46209
 30
0.0
 11
991.648975
 21
702.085785
 31
0.0
  0
LINE
  5
16A
330
1F
100
AcDbEntity
  8
図面枠
  6
CONTINUOUS
 62
     3
100
AcDbLine
 10
990.018375
 20
702.8801825
 30
0.0
 11
989.64207
 21
702.503875
 31
0.0
  0
LINE
  5
16B
330
1F
100
AcDbEntity
  8
図面枠
  6
CONTINUOUS
 62
     3
100
AcDbLine
 10
990.3760375
 20
702.4016425
 30
0.0
 11
990.06017
 21
702.085775
 31
0.0
  0
LINE
  5
16C
330
1F
100
AcDbEntity
  8
図面枠
  6
CONTINUOUS
 62
     3
100
AcDbLine
 10
992.0672425
 20
704.092845
 30
0.0
 11
991.690935
 21
703.71654
 31
0.0
  0
LINE
  5
16D
330
1F
100
AcDbEntity
  8
図面枠
  6
CONTINUOUS
 62
     3
100
AcDbLine
 10
990.4364775
 20
702.46208
 30
0.0
 11
990.3884675
 21
702.4140725
 31
0.0
  0
LINE
  5
16E
330
1F
100
AcDbEntity
  8
図面枠
  6
CONTINUOUS
 62
     3
100
AcDbLine
 10
991.64914
 20
704.5109475
 30
0.0
 11
992.0672425
 21
704.092845
 31
0.0
  0
LINE
  5
16F
330
1F
100
AcDbEntity
  8
図面枠
  6
CONTINUOUS
 62
     3
100
AcDbLine
 10
990.06017
 20
704.5111025
 30
0.0
 11
990.4364775
 21
704.134795
 31
0.0
  0
LINE
  5
170
330
1F
100
AcDbEntity
  8
図面枠
  6
CONTINUOUS
 62
     3
100
AcDbLine
 10
989.641915
 20
704.092845
 30
0.0
 11
990.01822
 21
703.71654
 31
0.0
  0
LINE
  5
171
330
1F
100
AcDbEntity
  8
図面枠
  6
CONTINUOUS
 62
     3
100
AcDbLine
 10
989.64207
 20
702.503875
 30
0.0
 11
990.06017
 21
702.085775
 31
0.0
  0
LINE
  5
172
330
1F
100
AcDbEntity
  8
図面枠
  6
CONTINUOUS
 62
     3
100
AcDbLine
 10
990.06017
 20
704.5111025
 30
0.0
 11
989.641915
 21
704.092845
 31
0.0
  0
LINE
  5
173
330
1F
100
AcDbEntity
  8
図面枠
  6
CONTINUOUS
 62
     3
100
AcDbLine
 10
992.0672325
 20
702.50404
 30
0.0
 11
991.648975
 21
702.085785
 31
0.0
  0
LINE
  5
174
330
1F
100
AcDbEntity
  8
図面枠
  6
CONTINUOUS
 62
     3
100
AcDbLine
 10
991.64914
 20
704.5109475
 30
0.0
 11
991.272835
 21
704.13464
 31
0.0
  0
LINE
  5
175
330
1F
100
AcDbEntity
  8
図面枠
  6
CONTINUOUS
 62
     3
100
AcDbLine
 10
991.690925
 20
702.8803475
 30
0.0
 11
992.0672325
 21
702.50404
 31
0.0
  0
LINE
  5
176
330
1F
100
AcDbEntity
  8
図面枠
  6
CONTINUOUS
 62
     3
100
AcDbLine
 10
991.27267
 20
702.46209
 30
0.0
 11
991.648975
 21
702.085785
 31
0.0
  0
LINE
  5
177
330
1F
100
AcDbEntity
  8
図面枠
  6
CONTINUOUS
 62
     3
100
AcDbLine
 10
990.018375
 20
702.8801825
 30
0.0
 11
989.64207
 21
702.503875
 31
0.0
  0
LINE
  5
178
330
1F
100
AcDbEntity
  8
図面枠
  6
CONTINUOUS
 62
     3
100
AcDbLine
 10
990.3760375
 20
702.4016425
 30
0.0
 11
990.06017
 21
702.085775
 31
0.0
  0
LINE
  5
179
330
1F
100
AcDbEntity
  8
図面枠
  6
CONTINUOUS
 62
     3
100
AcDbLine
 10
992.0672425
 20
704.092845
 30
0.0
 11
991.690935
 21
703.71654
 31
0.0
  0
LINE
  5
17A
330
1F
100
AcDbEntity
  8
図面枠
  6
CONTINUOUS
 62
     3
100
AcDbLine
 10
990.4364775
 20
702.46208
 30
0.0
 11
990.3884675
 21
702.4140725
 31
0.0
  0
LINE
  5
17B
330
1F
100
AcDbEntity
  8
図面枠
  6
CONTINUOUS
 62
     3
100
AcDbLine
 10
991.64914
 20
704.5109475
 30
0.0
 11
992.0672425
 21
704.092845
 31
0.0
  0
LINE
  5
17C
330
1F
100
AcDbEntity
  8
図面枠
  6
CONTINUOUS
 62
     3
100
AcDbLine
 10
1040.804315
 20
709.6011675
 30
0.0
 11
1040.804315
 21
706.89875
 31
0.0
  0
LINE
  5
17D
330
1F
100
AcDbEntity
  8
図面枠
  6
CONTINUOUS
 62
     3
100
AcDbLine
 10
1040.804315
 20
710.9283175
 30
0.0
 11
1040.804315
 21
709.59875
 31
0.0
  0
LINE
  5
17E
330
1F
100
AcDbEntity
  8
図面枠
  6
CONTINUOUS
 62
     3
100
AcDbLine
 10
1012.004315
 20
719.49875
 30
0.0
 11
1012.004315
 21
712.7283175
 31
0.0
  0
LINE
  5
17F
330
1F
100
AcDbEntity
  8
図面枠
  6
CONTINUOUS
 62
   179
100
AcDbLine
 10
1040.05009
 20
711.6826375
 30
0.0
 11
1013.354315
 21
711.6826375
 31
0.0
  0
LINE
  5
180
330
1F
100
AcDbEntity
  8
図面枠
  6
CONTINUOUS
 62
     3
100
AcDbLine
 10
1039.004315
 20
712.7283175
 30
0.0
 11
1007.504315
 21
712.7283175
 31
0.0
  0
LINE
  5
181
330
1F
100
AcDbEntity
  8
図面枠
  6
CONTINUOUS
 62
   179
100
AcDbLine
 10
1013.35444
 20
711.68224
 30
0.0
 11
1012.00442
 21
712.728055
 31
0.0
  0
LINE
  5
182
330
1F
100
AcDbEntity
  8
図面枠
  6
CONTINUOUS
 62
     3
100
AcDbLine
 10
1039.0045
 20
712.7283275
 30
0.0
 11
1040.8046175
 21
710.9282075
 31
0.0
  0
LINE
  5
183
330
1F
100
AcDbEntity
  8
図面枠
  6
CONTINUOUS
 62
     3
100
AcDbLine
 10
1007.504315
 20
726.24875
 30
0.0
 11
1007.504315
 21
712.7283175
 31
0.0
  0
LINE
  5
184
330
1F
100
AcDbEntity
  8
図面枠
  6
CONTINUOUS
 62
     3
100
AcDbLine
 10
1007.504315
 20
726.24875
 30
0.0
 11
1006.154315
 21
726.24875
 31
0.0
  0
LINE
  5
185
330
1F
100
AcDbEntity
  8
図面枠
  6
CONTINUOUS
 62
     3
100
AcDbLine
 10
1011.104315
 20
720.39875
 30
0.0
 11
1007.504315
 21
720.39875
 31
0.0
  0
LINE
  5
186
330
1F
100
AcDbEntity
  8
図面枠
  6
CONTINUOUS
 62
     3
100
AcDbLine
 10
1006.154315
 20
726.69875
 30
0.0
 11
1006.154315
 21
724.89875
 31
0.0
  0
LINE
  5
187
330
1F
100
AcDbEntity
  8
図面枠
  6
CONTINUOUS
 62
     3
100
AcDbLine
 10
1012.004315
 20
693.868965
 30
0.0
 11
1012.004315
 21
687.09875
 31
0.0
  0
LINE
  5
188
330
1F
100
AcDbEntity
  8
図面枠
  6
CONTINUOUS
 62
   179
100
AcDbLine
 10
1013.354315
 20
694.914645
 30
0.0
 11
1040.05009
 21
694.914645
 31
0.0
  0
LINE
  5
189
330
1F
100
AcDbEntity
  8
図面枠
  6
CONTINUOUS
 62
     3
100
AcDbLine
 10
1007.504315
 20
693.868965
 30
0.0
 11
1039.004315
 21
693.868965
 31
0.0
  0
LINE
  5
18A
330
1F
100
AcDbEntity
  8
図面枠
  6
CONTINUOUS
 62
   179
100
AcDbLine
 10
1012.004405
 20
693.8685975
 30
0.0
 11
1013.3544275
 21
694.914415
 31
0.0
  0
LINE
  5
18B
330
1F
100
AcDbEntity
  8
図面枠
  6
CONTINUOUS
 62
     3
100
AcDbLine
 10
1040.8044625
 20
695.66884
 30
0.0
 11
1039.004345
 21
693.8687225
 31
0.0
  0
LINE
  5
18C
330
1F
100
AcDbEntity
  8
図面枠
  6
CONTINUOUS
 62
     3
100
AcDbLine
 10
1007.504315
 20
693.868965
 30
0.0
 11
1007.504315
 21
680.34875
 31
0.0
  0
LINE
  5
18D
330
1F
100
AcDbEntity
  8
図面枠
  6
CONTINUOUS
 62
     3
100
AcDbLine
 10
1006.154315
 20
680.34875
 30
0.0
 11
1007.504315
 21
680.34875
 31
0.0
  0
LINE
  5
18E
330
1F
100
AcDbEntity
  8
図面枠
  6
CONTINUOUS
 62
     3
100
AcDbLine
 10
1007.504315
 20
686.19875
 30
0.0
 11
1011.104315
 21
686.19875
 31
0.0
  0
LINE
  5
18F
330
1F
100
AcDbEntity
  8
図面枠
  6
CONTINUOUS
 62
     3
100
AcDbLine
 10
1006.154315
 20
726.69875
 30
0.0
 11
999.85433
 21
726.69875
 31
0.0
  0
LINE
  5
190
330
1F
100
AcDbEntity
  8
図面枠
  6
CONTINUOUS
 62
     3
100
AcDbLine
 10
1006.154315
 20
679.89875
 30
0.0
 11
999.85433
 21
679.89875
 31
0.0
  0
LINE
  5
191
330
1F
100
AcDbEntity
  8
図面枠
  6
CONTINUOUS
 62
     3
100
AcDbLine
 10
998.95433
 20
725.88862
 30
0.0
 11
961.397045
 21
725.88862
 31
0.0
  0
LINE
  5
192
330
1F
100
AcDbEntity
  8
図面枠
  6
CONTINUOUS
 62
     3
100
AcDbLine
 10
998.95433
 20
680.7086625
 30
0.0
 11
961.397045
 21
680.7086625
 31
0.0
  0
LINE
  5
193
330
1F
100
AcDbEntity
  8
図面枠
  6
CONTINUOUS
 62
     3
100
AcDbLine
 10
998.95444
 20
680.708295
 30
0.0
 11
999.8545025
 21
679.8982325
 31
0.0
  0
LINE
  5
194
330
1F
100
AcDbEntity
  8
図面枠
  6
CONTINUOUS
 62
     3
100
AcDbLine
 10
998.9543075
 20
725.8885225
 30
0.0
 11
999.8542025
 21
726.6984375
 31
0.0
  0
LINE
  5
195
330
1F
100
AcDbEntity
  8
図面枠
  6
CONTINUOUS
 62
     3
100
AcDbLine
 10
1006.154315
 20
726.69875
 30
0.0
 11
1006.154315
 21
679.89875
 31
0.0
  0
LINE
  5
196
330
1F
100
AcDbEntity
  8
図面枠
  6
CONTINUOUS
 62
     3
100
AcDbLine
 10
1007.504315
 20
712.7283175
 30
0.0
 11
1007.504315
 21
693.868965
 31
0.0
  0
LINE
  5
197
330
1F
100
AcDbEntity
  8
図面枠
  6
CONTINUOUS
 62
     3
100
AcDbLine
 10
1040.804315
 20
699.69875
 30
0.0
 11
1040.804315
 21
695.668965
 31
0.0
  0
LINE
  5
198
330
1F
100
AcDbEntity
  8
図面枠
  6
CONTINUOUS
 62
     3
100
AcDbLine
 10
1039.004315
 20
712.7283175
 30
0.0
 11
1039.004315
 21
706.89875
 31
0.0
  0
LINE
  5
199
330
1F
100
AcDbEntity
  8
図面枠
  6
CONTINUOUS
 62
     3
100
AcDbLine
 10
1039.004315
 20
699.69875
 30
0.0
 11
1039.004315
 21
693.868965
 31
0.0
  0
LINE
  5
19A
330
1F
100
AcDbEntity
  8
図面枠
  6
CENTER
 62
   179
100
AcDbLine
 10
990.854315
 20
708.969015
 30
0.0
 11
990.854315
 21
697.7174775
 31
0.0
  0
LINE
  5
19B
330
1F
100
AcDbEntity
  8
図面枠
  6
CONTINUOUS
 62
     3
100
AcDbLine
 10
1012.004315
 20
712.7283175
 30
0.0
 11
1012.004315
 21
706.89875
 31
0.0
  0
LINE
  5
19C
330
1F
100
AcDbEntity
  8
図面枠
  6
CONTINUOUS
 62
     3
100
AcDbLine
 10
1013.354315
 20
712.7283175
 30
0.0
 11
1013.354315
 21
706.89875
 31
0.0
  0
LINE
  5
19D
330
1F
100
AcDbEntity
  8
図面枠
  6
CONTINUOUS
 62
     3
100
AcDbLine
 10
1012.004315
 20
699.69875
 30
0.0
 11
1012.004315
 21
693.868965
 31
0.0
  0
LINE
  5
19E
330
1F
100
AcDbEntity
  8
図面枠
  6
CONTINUOUS
 62
     3
100
AcDbLine
 10
1013.354315
 20
699.69875
 30
0.0
 11
1013.354315
 21
693.868965
 31
0.0
  0
LINE
  5
19F
330
1F
100
AcDbEntity
  8
図面枠
  6
CONTINUOUS
 62
     3
100
AcDbLine
 10
1049.804315
 20
706.89875
 30
0.0
 11
1051.604315
 21
703.29875
 31
0.0
  0
LINE
  5
1A0
330
1F
100
AcDbEntity
  8
図面枠
  6
CONTINUOUS
 62
     3
100
AcDbLine
 10
1051.604315
 20
703.29875
 30
0.0
 11
1049.804315
 21
699.69875
 31
0.0
  0
LINE
  5
1A1
330
1F
100
AcDbEntity
  8
図面枠
  6
CONTINUOUS
 62
     3
100
AcDbLine
 10
1048.004315
 20
706.89875
 30
0.0
 11
1049.804315
 21
703.29875
 31
0.0
  0
LINE
  5
1A2
330
1F
100
AcDbEntity
  8
図面枠
  6
CONTINUOUS
 62
     3
100
AcDbLine
 10
1049.804315
 20
703.29875
 30
0.0
 11
1048.004315
 21
699.69875
 31
0.0
  0
LINE
  5
1A3
330
1F
100
AcDbEntity
  8
図面枠
  6
CONTINUOUS
 62
     3
100
AcDbLine
 10
1060.0783175
 20
706.89875
 30
0.0
 11
1007.504315
 21
706.89875
 31
0.0
  0
LINE
  5
1A4
330
1F
100
AcDbEntity
  8
図面枠
  6
CONTINUOUS
 62
     3
100
AcDbLine
 10
1060.0783175
 20
699.69875
 30
0.0
 11
1007.504315
 21
699.69875
 31
0.0
  0
LINE
  5
1A5
330
1F
100
AcDbEntity
  8
図面枠
  6
CONTINUOUS
 62
     3
100
AcDbLine
 10
1069.0783175
 20
690.69875
 30
0.0
 11
1069.0783175
 21
681.86746
 31
0.0
  0
LINE
  5
1A6
330
1F
100
AcDbEntity
  8
図面枠
  6
CONTINUOUS
 62
     3
100
AcDbLine
 10
1076.2783175
 20
690.69875
 30
0.0
 11
1076.2783175
 21
681.86746
 31
0.0
  0
LINE
  5
1A7
330
1F
100
AcDbEntity
  8
図面枠
  6
CONTINUOUS
 62
     3
100
AcDbLine
 10
1067.7283175
 20
681.86746
 30
0.0
 11
1077.6283175
 21
681.86746
 31
0.0
  0
LINE
  5
1A8
330
1F
100
AcDbEntity
  8
図面枠
  6
CONTINUOUS
 62
     3
100
AcDbLine
 10
1067.7283175
 20
681.86746
 30
0.0
 11
1067.7283175
 21
677.5350025
 31
0.0
  0
LINE
  5
1A9
330
1F
100
AcDbEntity
  8
図面枠
  6
CONTINUOUS
 62
     3
100
AcDbLine
 10
1077.6283175
 20
681.86746
 30
0.0
 11
1077.6283175
 21
676.914755
 31
0.0
  0
LINE
  5
1AA
330
1F
100
AcDbEntity
  8
図面枠
  6
CONTINUOUS
 62
     3
100
AcDbLine
 10
998.95448
 20
725.8885125
 30
0.0
 11
998.954575
 21
680.70835
 31
0.0
  0
LINE
  5
1AB
330
1F
100
AcDbEntity
  8
図面枠
  6
CONTINUOUS
 62
     3
100
AcDbLine
 10
999.8546375
 20
679.89823
 30
0.0
 11
999.854365
 21
726.6983675
 31
0.0
  0
LINE
  5
1AC
330
1F
100
AcDbEntity
  8
図面枠
  6
CENTER
 62
   179
100
AcDbLine
 10
950.1091425
 20
703.29875
 30
0.0
 11
1063.26372
 21
703.29875
 31
0.0
  0
LINE
  5
1AD
330
1F
100
AcDbEntity
  8
図面枠
  6
CONTINUOUS
 62
     3
100
AcDbLine
 10
805.4487325
 20
659.893615
 30
0.0
 11
821.4487325
 21
659.893605
 31
0.0
  0
LINE
  5
1AE
330
1F
100
AcDbEntity
  8
図面枠
  6
CONTINUOUS
 62
     3
100
AcDbLine
 10
805.4487325
 20
661.39363
 30
0.0
 11
821.4487325
 21
661.39362
 31
0.0
  0
LINE
  5
1AF
330
1F
100
AcDbEntity
  8
図面枠
  6
CONTINUOUS
 62
     3
100
AcDbLine
 10
805.44874
 20
672.1936175
 30
0.0
 11
821.44874
 21
672.1936075
 31
0.0
  0
LINE
  5
1B0
330
1F
100
AcDbEntity
  8
図面枠
  6
CONTINUOUS
 62
     3
100
AcDbLine
 10
805.44874
 20
673.6936175
 30
0.0
 11
821.44874
 21
673.6936075
 31
0.0
  0
LINE
  5
1B1
330
1F
100
AcDbEntity
  8
図面枠
  6
CONTINUOUS
 62
     3
100
AcDbLine
 10
805.4487
 20
659.893615
 30
0.0
 11
805.4487025
 21
661.393645
 31
0.0
  0
LINE
  5
1B2
330
1F
100
AcDbEntity
  8
図面枠
  6
CONTINUOUS
 62
     3
100
AcDbLine
 10
805.4487075
 20
672.1936325
 30
0.0
 11
805.44871
 21
673.6936175
 31
0.0
  0
LINE
  5
1B3
330
1F
100
AcDbEntity
  8
図面枠
  6
CONTINUOUS
 62
     3
100
AcDbLine
 10
804.44871
 20
672.6936175
 30
0.0
 11
804.44871
 21
673.1936175
 31
0.0
  0
LINE
  5
1B4
330
1F
100
AcDbEntity
  8
図面枠
  6
CONTINUOUS
 62
     3
100
AcDbLine
 10
804.44871
 20
672.6936175
 30
0.0
 11
805.44871
 21
672.1936125
 31
0.0
  0
LINE
  5
1B5
330
1F
100
AcDbEntity
  8
図面枠
  6
CONTINUOUS
 62
     3
100
AcDbLine
 10
804.44871
 20
673.1936175
 30
0.0
 11
805.44871
 21
673.6936325
 31
0.0
  0
LINE
  5
1B6
330
1F
100
AcDbEntity
  8
図面枠
  6
CONTINUOUS
 62
     3
100
AcDbLine
 10
804.448695
 20
660.8936425
 30
0.0
 11
805.4487025
 21
661.393645
 31
0.0
  0
LINE
  5
1B7
330
1F
100
AcDbEntity
  8
図面枠
  6
CONTINUOUS
 62
     3
100
AcDbLine
 10
804.4487
 20
660.393635
 30
0.0
 11
805.448705
 21
659.8936275
 31
0.0
  0
LINE
  5
1B8
330
1F
100
AcDbEntity
  8
図面枠
  6
CONTINUOUS
 62
     3
100
AcDbLine
 10
804.4487
 20
660.393635
 30
0.0
 11
804.4487025
 21
660.89363
 31
0.0
  0
LINE
  5
1B9
330
1F
100
AcDbEntity
  8
図面枠
  6
CONTINUOUS
 62
     3
100
AcDbLine
 10
821.4486975
 20
653.7936475
 30
0.0
 11
821.4487125
 21
679.7936475
 31
0.0
  0
LINE
  5
1BA
330
1F
100
AcDbEntity
  8
図面枠
  6
CONTINUOUS
 62
     3
100
AcDbLine
 10
856.4487008739
 20
657.293645754
 30
0.0
 11
856.4487108739
 21
676.293645754
 31
0.0
  0
LINE
  5
1BB
330
1F
100
AcDbEntity
  8
図面枠
  6
CONTINUOUS
 62
     3
100
AcDbLine
 10
826.4486975
 20
653.793645
 30
0.0
 11
826.4487125
 21
679.793645
 31
0.0
  0
LINE
  5
1BC
330
1F
100
AcDbEntity
  8
図面枠
  6
CONTINUOUS
 62
     3
100
AcDbLine
 10
821.9486975
 20
653.293645
 30
0.0
 11
825.9486975
 21
653.293645
 31
0.0
  0
LINE
  5
1BD
330
1F
100
AcDbEntity
  8
図面枠
  6
CONTINUOUS
 62
     3
100
AcDbLine
 10
821.9487125
 20
680.293645
 30
0.0
 11
825.9487125
 21
680.293645
 31
0.0
  0
LINE
  5
1BE
330
1F
100
AcDbEntity
  8
図面枠
  6
CONTINUOUS
 62
     3
100
AcDbLine
 10
853.7732683739
 20
656.793645754
 30
0.0
 11
855.9487008739
 21
656.793645754
 31
0.0
  0
LINE
  5
1BF
330
1F
100
AcDbEntity
  8
図面枠
  6
CONTINUOUS
 62
     3
100
AcDbLine
 10
853.7732674734
 20
676.7936454618
 30
0.0
 11
855.9487099734
 21
676.7936454618
 31
0.0
  0
LINE
  5
1C0
330
1F
100
AcDbEntity
  8
図面枠
  6
CONTINUOUS
 62
     3
100
AcDbLine
 10
853.4487
 20
657.2936475
 30
0.0
 11
853.44871
 21
676.293645
 31
0.0
  0
LINE
  5
1C1
330
1F
100
AcDbEntity
  8
図面枠
  6
CONTINUOUS
 62
     3
100
AcDbLine
 10
821.44871
 20
675.293645
 30
0.0
 11
826.44871
 21
675.293645
 31
0.0
  0
LINE
  5
1C2
330
1F
100
AcDbEntity
  8
図面枠
  6
CONTINUOUS
 62
     3
100
AcDbLine
 10
853.4487083242
 20
672.1445349123
 30
0.0
 11
856.448706888
 21
672.1445365916
 31
0.0
  0
LINE
  5
1C3
330
1F
100
AcDbEntity
  8
図面枠
  6
CONTINUOUS
 62
     3
100
AcDbLine
 10
853.4487087989
 20
661.4427586343
 30
0.0
 11
856.4487087989
 21
661.4427586343
 31
0.0
  0
LINE
  5
1C4
330
1F
100
AcDbEntity
  8
図面枠
  6
CONTINUOUS
 62
     3
100
AcDbLine
 10
821.44871
 20
658.2936475
 30
0.0
 11
826.44871
 21
658.2936475
 31
0.0
  0
LINE
  5
1C5
330
1F
100
AcDbEntity
  8
図面枠
  6
CONTINUOUS
 62
     3
100
AcDbLine
 10
859.4487
 20
659.293645
 30
0.0
 11
859.44871
 21
674.293645
 31
0.0
  0
LINE
  5
1C6
330
1F
100
AcDbEntity
  8
図面枠
  6
CONTINUOUS
 62
     3
100
AcDbLine
 10
858.3982
 20
658.7936475
 30
0.0
 11
858.9487
 21
658.7936475
 31
0.0
  0
LINE
  5
1C7
330
1F
100
AcDbEntity
  8
図面枠
  6
CONTINUOUS
 62
     3
100
AcDbLine
 10
858.3982
 20
674.7936475
 30
0.0
 11
858.94871
 21
674.7936475
 31
0.0
  0
LINE
  5
1C8
330
1F
100
AcDbEntity
  8
図面枠
  6
CONTINUOUS
 62
     3
100
AcDbLine
 10
858.3982
 20
658.7936475
 30
0.0
 11
858.9487
 21
658.7936475
 31
0.0
  0
LINE
  5
1C9
330
1F
100
AcDbEntity
  8
図面枠
  6
CONTINUOUS
 62
     3
100
AcDbLine
 10
860.9487
 20
659.353835
 30
0.0
 11
860.94871
 21
674.2334575
 31
0.0
  0
LINE
  5
1CA
330
1F
100
AcDbEntity
  8
図面枠
  6
CONTINUOUS
 62
     3
100
AcDbLine
 10
862.9487
 20
659.5515
 30
0.0
 11
862.94871
 21
674.0334575
 31
0.0
  0
LINE
  5
1CB
330
1F
100
AcDbEntity
  8
図面枠
  6
CONTINUOUS
 62
     3
100
AcDbLine
 10
866.1911349791
 20
673.830442524
 30
0.0
 11
864.7911349791
 21
674.030442524
 31
0.0
  0
LINE
  5
1CC
330
1F
100
AcDbEntity
  8
図面枠
  6
CONTINUOUS
 62
     3
100
AcDbLine
 10
864.4487
 20
659.853835
 30
0.0
 11
864.44871
 21
673.7334575
 31
0.0
  0
LINE
  5
1CD
330
1F
100
AcDbEntity
  8
図面枠
  6
CONTINUOUS
 62
     3
100
AcDbLine
 10
866.4486999514
 20
660.05158
 30
0.0
 11
866.4487099514
 21
673.5334575
 31
0.0
  0
LINE
  5
1CE
330
1F
100
AcDbEntity
  8
図面枠
  6
CONTINUOUS
 62
     3
100
AcDbLine
 10
861.2911364102
 20
674.5304423476
 30
0.0
 11
862.6911364102
 21
674.3304423476
 31
0.0
  0
LINE
  5
1CF
330
1F
100
AcDbEntity
  8
図面枠
  6
CONTINUOUS
 62
     3
100
AcDbLine
 10
867.9487
 20
660.353835
 30
0.0
 11
867.94871
 21
673.2334575
 31
0.0
  0
LINE
  5
1D0
330
1F
100
AcDbEntity
  8
図面枠
  6
CONTINUOUS
 62
     3
100
AcDbLine
 10
866.1911369965
 20
659.7568508284
 30
0.0
 11
864.7911355863
 21
659.556850676
 31
0.0
  0
LINE
  5
1D1
330
1F
100
AcDbEntity
  8
図面枠
  6
CONTINUOUS
 62
     3
100
AcDbLine
 10
861.2911345239
 20
659.056849451
 30
0.0
 11
862.6911359341
 21
659.2568496034
 31
0.0
  0
LINE
  5
1D2
330
1F
100
AcDbEntity
  8
図面枠
  6
CONTINUOUS
 62
     3
100
AcDbLine
 10
866.948705
 20
667.7936475
 30
0.0
 11
867.448705
 21
667.7936475
 31
0.0
  0
LINE
  5
1D3
330
1F
100
AcDbEntity
  8
図面枠
  6
CONTINUOUS
 62
     3
100
AcDbLine
 10
866.948705
 20
665.7936475
 30
0.0
 11
867.448705
 21
665.7936475
 31
0.0
  0
LINE
  5
1D4
330
1F
100
AcDbEntity
  8
図面枠
  6
CONTINUOUS
 62
     3
100
AcDbLine
 10
863.448705
 20
667.7936475
 30
0.0
 11
863.948705
 21
667.7936475
 31
0.0
  0
LINE
  5
1D5
330
1F
100
AcDbEntity
  8
図面枠
  6
CONTINUOUS
 62
     3
100
AcDbLine
 10
863.448705
 20
665.7936475
 30
0.0
 11
863.948705
 21
665.7936475
 31
0.0
  0
LINE
  5
1D6
330
1F
100
AcDbEntity
  8
図面枠
  6
CONTINUOUS
 62
     3
100
AcDbLine
 10
859.948705
 20
667.7936475
 30
0.0
 11
860.448705
 21
667.7936475
 31
0.0
  0
LINE
  5
1D7
330
1F
100
AcDbEntity
  8
図面枠
  6
CONTINUOUS
 62
     3
100
AcDbLine
 10
859.948705
 20
665.7936475
 30
0.0
 11
860.448705
 21
665.7936475
 31
0.0
  0
LINE
  5
1D8
330
1F
100
AcDbEntity
  8
図面枠
  6
CONTINUOUS
 62
     3
100
AcDbLine
 10
859.4487075
 20
673.293615
 30
0.0
 11
860.9487075
 21
673.293615
 31
0.0
  0
LINE
  5
1D9
330
1F
100
AcDbEntity
  8
図面枠
  6
CONTINUOUS
 62
     3
100
AcDbLine
 10
866.4487075
 20
671.293615
 30
0.0
 11
867.9487075
 21
671.293615
 31
0.0
  0
LINE
  5
1DA
330
1F
100
AcDbEntity
  8
図面枠
  6
CONTINUOUS
 62
     3
100
AcDbLine
 10
862.9487075
 20
671.293615
 30
0.0
 11
864.4487075
 21
671.293615
 31
0.0
  0
LINE
  5
1DB
330
1F
100
AcDbEntity
  8
図面枠
  6
CONTINUOUS
 62
     3
100
AcDbLine
 10
866.4487075
 20
662.2936775
 30
0.0
 11
867.9487075
 21
662.2936775
 31
0.0
  0
LINE
  5
1DC
330
1F
100
AcDbEntity
  8
図面枠
  6
CONTINUOUS
 62
     3
100
AcDbLine
 10
862.9487075
 20
662.2936775
 30
0.0
 11
864.4487075
 21
662.2936775
 31
0.0
  0
LINE
  5
1DD
330
1F
100
AcDbEntity
  8
図面枠
  6
CONTINUOUS
 62
     3
100
AcDbLine
 10
859.4487075
 20
660.2936775
 30
0.0
 11
860.9487075
 21
660.2936775
 31
0.0
  0
LINE
  5
1DE
330
1F
100
AcDbEntity
  8
図面枠
  6
CONTINUOUS
 62
     3
100
AcDbLine
 10
872.0194194593
 20
660.5894618766
 30
0.0
 11
872.5901219593
 21
660.6709918766
 31
0.0
  0
LINE
  5
1DF
330
1F
100
AcDbEntity
  8
図面枠
  6
CONTINUOUS
 62
     3
100
AcDbLine
 10
872.0194202182
 20
672.9978297484
 30
0.0
 11
872.5901302182
 21
672.9162997484
 31
0.0
  0
LINE
  5
1E0
330
1F
100
AcDbEntity
  8
図面枠
  6
CONTINUOUS
 62
     3
100
AcDbLine
 10
869.9487
 20
660.5516675
 30
0.0
 11
869.94871
 21
673.0334575
 31
0.0
  0
LINE
  5
1E1
330
1F
100
AcDbEntity
  8
図面枠
  6
CONTINUOUS
 62
     3
100
AcDbLine
 10
868.2911364102
 20
673.5304423476
 30
0.0
 11
869.6911364102
 21
673.3304423476
 31
0.0
  0
LINE
  5
1E2
330
1F
100
AcDbEntity
  8
図面枠
  6
CONTINUOUS
 62
     3
100
AcDbLine
 10
871.4487025
 20
661.084435
 30
0.0
 11
871.4487075
 21
672.502855
 31
0.0
  0
LINE
  5
1E3
330
1F
100
AcDbEntity
  8
図面枠
  6
CONTINUOUS
 62
     3
100
AcDbLine
 10
868.2911264102
 20
660.0568501524
 30
0.0
 11
869.6911364102
 21
660.2568501524
 31
0.0
  0
LINE
  5
1E4
330
1F
100
AcDbEntity
  8
図面枠
  6
CONTINUOUS
 62
     3
100
AcDbLine
 10
870.448705
 20
667.7936475
 30
0.0
 11
870.948705
 21
667.7936475
 31
0.0
  0
LINE
  5
1E5
330
1F
100
AcDbEntity
  8
図面枠
  6
CONTINUOUS
 62
     3
100
AcDbLine
 10
870.448705
 20
665.7936475
 30
0.0
 11
870.948705
 21
665.7936475
 31
0.0
  0
LINE
  5
1E6
330
1F
100
AcDbEntity
  8
図面枠
  6
CONTINUOUS
 62
     3
100
AcDbLine
 10
869.9487075
 20
671.293615
 30
0.0
 11
871.4487075
 21
671.293615
 31
0.0
  0
LINE
  5
1E7
330
1F
100
AcDbEntity
  8
図面枠
  6
CONTINUOUS
 62
     3
100
AcDbLine
 10
869.9487075
 20
662.2936775
 30
0.0
 11
871.4487075
 21
662.2936775
 31
0.0
  0
LINE
  5
1E8
330
1F
100
AcDbEntity
  8
図面枠
  6
CONTINUOUS
 62
     3
100
AcDbLine
 10
873.4487007235
 20
661.6609404484
 30
0.0
 11
873.4487057235
 21
671.9263504484
 31
0.0
  0
LINE
  5
1E9
330
1F
100
AcDbEntity
  8
図面枠
  6
CONTINUOUS
 62
     1
100
AcDbLine
 10
1060.5232375
 20
356.0920925
 30
0.0
 11
1056.1434725
 21
356.0920925
 31
0.0
  0
LINE
  5
1EA
330
1F
100
AcDbEntity
  8
図面枠
  6
CONTINUOUS
 62
     1
100
AcDbLine
 10
1060.5232375
 20
441.0920925
 30
0.0
 11
1058.5232375
 21
441.0920925
 31
0.0
  0
LINE
  5
1EB
330
1F
100
AcDbEntity
  8
図面枠
  6
CONTINUOUS
 62
     1
100
AcDbLine
 10
1060.5232375
 20
356.0920925
 30
0.0
 11
1060.5232375
 21
441.0920925
 31
0.0
  0
LINE
  5
1EC
330
1F
100
AcDbEntity
  8
図面枠
  6
CONTINUOUS
 62
     1
100
AcDbLine
 10
1058.5232375
 20
441.0920925
 30
0.0
 11
1058.5232375
 21
356.0920925
 31
0.0
  0
LINE
  5
1ED
330
1F
100
AcDbEntity
  8
図面枠
  6
CENTER
 62
   179
100
AcDbLine
 10
791.6926
 20
476.5920925
 30
0.0
 11
810.4023275
 21
476.5920925
 31
0.0
  0
LINE
  5
1EE
330
1F
100
AcDbEntity
  8
図面枠
  6
CONTINUOUS
 62
     3
100
AcDbLine
 10
1059.5232375
 20
465.287135
 30
0.0
 11
1059.5232375
 21
471.59357
 31
0.0
  0
LINE
  5
1EF
330
1F
100
AcDbEntity
  8
図面枠
  6
CONTINUOUS
 62
     3
100
AcDbLine
 10
796.5232375
 20
472.8970525
 30
0.0
 11
796.5232375
 21
441.0920925
 31
0.0
  0
LINE
  5
1F0
330
1F
100
AcDbEntity
  8
図面枠
  6
CONTINUOUS
 62
     1
100
AcDbLine
 10
798.5232375
 20
469.0920925
 30
0.0
 11
798.5232375
 21
441.550355
 31
0.0
  0
LINE
  5
1F1
330
1F
100
AcDbEntity
  8
図面枠
  6
CONTINUOUS
 62
     3
100
AcDbLine
 10
799.2959525
 20
482.4920925
 30
0.0
 11
799.2959525
 21
470.6920925
 31
0.0
  0
LINE
  5
1F2
330
1F
100
AcDbEntity
  8
図面枠
  6
CONTINUOUS
 62
     3
100
AcDbLine
 10
1056.8067275
 20
455.6920925
 30
0.0
 11
1056.8067275
 21
467.4920925
 31
0.0
  0
LINE
  5
1F3
330
1F
100
AcDbEntity
  8
図面枠
  6
CONTINUOUS
 62
     1
100
AcDbLine
 10
1056.95629
 20
541.5920925
 30
0.0
 11
1059.2521175
 21
541.5920925
 31
0.0
  0
LINE
  5
1F4
330
1F
100
AcDbEntity
  8
図面枠
  6
CONTINUOUS
 62
     1
100
AcDbLine
 10
1057.77751
 20
471.5920925
 30
0.0
 11
1059.71153
 21
471.5920925
 31
0.0
  0
LINE
  5
1F5
330
1F
100
AcDbEntity
  8
図面枠
  6
CONTINUOUS
 62
     1
100
AcDbLine
 10
1058.320135
 20
454.0920925
 30
0.0
 11
1056.82078
 21
454.0920925
 31
0.0
  0
LINE
  5
1F6
330
1F
100
AcDbEntity
  8
図面枠
  6
CENTER
 62
   179
100
AcDbLine
 10
1049.386885
 20
461.5920925
 30
0.0
 11
1069.459175
 21
461.5920925
 31
0.0
  0
LINE
  5
1F7
330
1F
100
AcDbEntity
  8
図面枠
  6
CENTER
 62
   179
100
AcDbLine
 10
998.5232375
 20
568.8807425
 30
0.0
 11
998.5232375
 21
587.72088
 31
0.0
  0
LINE
  5
1F8
330
1F
100
AcDbEntity
  8
図面枠
  6
CONTINUOUS
 62
     3
100
AcDbLine
 10
1076.7283175
 20
539.378535
 30
0.0
 11
1076.7283175
 21
576.2936475
 31
0.0
  0
LINE
  5
1F9
330
1F
100
AcDbEntity
  8
図面枠
  6
CONTINUOUS
 62
     3
100
AcDbLine
 10
1067.7283175
 20
539.378535
 30
0.0
 11
1067.7283175
 21
576.2936475
 31
0.0
  0
LINE
  5
1FA
330
1F
100
AcDbEntity
  8
図面枠
  6
CONTINUOUS
 62
     3
100
AcDbLine
 10
1017.7283175
 20
635.2936475
 30
0.0
 11
930.423325
 21
635.2936475
 31
0.0
  0
LINE
  5
1FB
330
1F
100
AcDbEntity
  8
図面枠
  6
CONTINUOUS
 62
     3
100
AcDbLine
 10
930.423325
 20
626.2936475
 30
0.0
 11
1017.7283175
 21
626.2936475
 31
0.0
  0
LINE
  5
1FC
330
1F
100
AcDbEntity
  8
図面枠
  6
CONTINUOUS
 62
     3
100
AcDbLine
 10
928.67325
 20
621.2333
 30
0.0
 11
939.545875
 21
614.955985
 31
0.0
  0
LINE
  5
1FD
330
1F
100
AcDbEntity
  8
図面枠
  6
CONTINUOUS
 62
     3
100
AcDbLine
 10
929.6732825
 20
617.7691825
 30
0.0
 11
938.29614
 21
612.7907725
 31
0.0
  0
LINE
  5
1FE
330
1F
100
AcDbEntity
  8
図面枠
  6
CONTINUOUS
 62
     3
100
AcDbLine
 10
928.4231025
 20
621.3777575
 30
0.0
 11
917.78312
 21
615.23476
 31
0.0
  0
LINE
  5
1FF
330
1F
100
AcDbEntity
  8
図面枠
  6
CONTINUOUS
 62
     3
100
AcDbLine
 10
919.033055
 20
613.0698875
 30
0.0
 11
917.7831425
 21
615.234915
 31
0.0
  0
LINE
  5
200
330
1F
100
AcDbEntity
  8
図面枠
  6
CONTINUOUS
 62
     3
100
AcDbLine
 10
928.758065
 20
618.6843975
 30
0.0
 11
919.033015
 21
613.069635
 31
0.0
  0
LINE
  5
201
330
1F
100
AcDbEntity
  8
図面枠
  6
CONTINUOUS
 62
     3
100
AcDbLine
 10
930.2640375
 20
624.8281875
 30
0.0
 11
929.923335
 21
623.5115375
 31
0.0
  0
LINE
  5
202
330
1F
100
AcDbEntity
  8
図面枠
  6
CONTINUOUS
 62
     3
100
AcDbLine
 10
929.923325
 20
623.2229223429
 30
0.0
 11
929.923325
 21
620.51174
 31
0.0
  0
LINE
  5
203
330
1F
100
AcDbEntity
  8
図面枠
  6
CONTINUOUS
 62
     3
100
AcDbLine
 10
928.6732475
 20
622.733235
 30
0.0
 11
929.673255
 21
622.15588
 31
0.0
  0
LINE
  5
204
330
1F
100
AcDbEntity
  8
図面枠
  6
CONTINUOUS
 62
     3
100
AcDbLine
 10
929.173345
 20
623.94443
 30
0.0
 11
929.67325
 21
623.65581
 31
0.0
  0
LINE
  5
205
330
1F
100
AcDbEntity
  8
図面枠
  6
CONTINUOUS
 62
     3
100
AcDbLine
 10
928.423325
 20
624.6097925
 30
0.0
 11
928.423325
 21
619.9343451002
 31
0.0
  0
LINE
  5
206
330
1F
100
AcDbEntity
  8
図面枠
  6
CONTINUOUS
 62
     3
100
AcDbLine
 10
930.423325
 20
672.49282
 30
0.0
 11
927.923325
 21
672.49282
 31
0.0
  0
LINE
  5
207
330
1F
100
AcDbEntity
  8
図面枠
  6
CONTINUOUS
 62
     3
100
AcDbLine
 10
927.923325
 20
626.1096526002
 30
0.0
 11
927.923325
 21
672.49282
 31
0.0
  0
LINE
  5
208
330
1F
100
AcDbEntity
  8
図面枠
  6
CONTINUOUS
 62
     3
100
AcDbLine
 10
930.423325
 20
626.0807384292
 30
0.0
 11
930.423325
 21
672.49282
 31
0.0
  0
LINE
  5
209
330
1F
100
AcDbEntity
  8
図面枠
  6
CONTINUOUS
 62
     3
100
AcDbLine
 10
938.2960075
 20
612.7911225
 30
0.0
 11
939.5458675
 21
614.9560025
 31
0.0
  0
LINE
  5
20A
330
1F
100
AcDbEntity
  8
図面枠
  6
CONTINUOUS
 62
     3
100
AcDbLine
 10
887.30203
 20
626.2936475
 30
0.0
 11
927.923325
 21
626.2936475
 31
0.0
  0
LINE
  5
20B
330
1F
100
AcDbEntity
  8
図面枠
  6
CONTINUOUS
 62
     3
100
AcDbLine
 10
887.30203
 20
635.2936475
 30
0.0
 11
927.923325
 21
635.2936475
 31
0.0
  0
LINE
  5
20C
330
1F
100
AcDbEntity
  8
図面枠
  6
CONTINUOUS
 62
     3
100
AcDbLine
 10
887.30203
 20
644.2936475
 30
0.0
 11
927.923325
 21
644.2936475
 31
0.0
  0
LINE
  5
20D
330
1F
100
AcDbEntity
  8
図面枠
  6
CONTINUOUS
 62
     3
100
AcDbLine
 10
887.30203
 20
653.2936475
 30
0.0
 11
927.923325
 21
653.2936475
 31
0.0
  0
LINE
  5
20E
330
1F
100
AcDbEntity
  8
図面枠
  6
CONTINUOUS
 62
     3
100
AcDbLine
 10
974.30203
 20
668.2936475
 30
0.0
 11
974.30203
 21
665.2936475
 31
0.0
  0
LINE
  5
20F
330
1F
100
AcDbEntity
  8
図面枠
  6
CONTINUOUS
 62
     3
100
AcDbLine
 10
974.30203
 20
659.2936475
 30
0.0
 11
974.30203
 21
656.2936475
 31
0.0
  0
LINE
  5
210
330
1F
100
AcDbEntity
  8
図面枠
  6
CONTINUOUS
 62
     3
100
AcDbLine
 10
974.30203
 20
650.2936475
 30
0.0
 11
974.30203
 21
647.2936475
 31
0.0
  0
LINE
  5
211
330
1F
100
AcDbEntity
  8
図面枠
  6
CONTINUOUS
 62
     3
100
AcDbLine
 10
974.30203
 20
641.2936475
 30
0.0
 11
974.30203
 21
638.2936475
 31
0.0
  0
LINE
  5
212
330
1F
100
AcDbEntity
  8
図面枠
  6
CONTINUOUS
 62
     3
100
AcDbLine
 10
884.30203
 20
650.2936475
 30
0.0
 11
884.30203
 21
647.2936475
 31
0.0
  0
LINE
  5
213
330
1F
100
AcDbEntity
  8
図面枠
  6
CONTINUOUS
 62
     3
100
AcDbLine
 10
884.30203
 20
641.2936475
 30
0.0
 11
884.30203
 21
638.2936475
 31
0.0
  0
LINE
  5
214
330
1F
100
AcDbEntity
  8
図面枠
  6
CONTINUOUS
 62
     3
100
AcDbLine
 10
884.30203
 20
659.2936475
 30
0.0
 11
884.30203
 21
656.2936475
 31
0.0
  0
LINE
  5
215
330
1F
100
AcDbEntity
  8
図面枠
  6
CONTINUOUS
 62
     3
100
AcDbLine
 10
884.30203
 20
632.2936475
 30
0.0
 11
884.30203
 21
629.2936475
 31
0.0
  0
LINE
  5
216
330
1F
100
AcDbEntity
  8
図面枠
  6
CONTINUOUS
 62
     3
100
AcDbLine
 10
930.423325
 20
671.2936475
 30
0.0
 11
971.30203
 21
671.2936475
 31
0.0
  0
LINE
  5
217
330
1F
100
AcDbEntity
  8
図面枠
  6
CONTINUOUS
 62
     3
100
AcDbLine
 10
930.423325
 20
662.2936475
 30
0.0
 11
971.30203
 21
662.2936475
 31
0.0
  0
LINE
  5
218
330
1F
100
AcDbEntity
  8
図面枠
  6
CONTINUOUS
 62
     3
100
AcDbLine
 10
930.423325
 20
653.2936475
 30
0.0
 11
971.30203
 21
653.2936475
 31
0.0
  0
LINE
  5
219
330
1F
100
AcDbEntity
  8
図面枠
  6
CONTINUOUS
 62
     3
100
AcDbLine
 10
930.423325
 20
644.2936475
 30
0.0
 11
971.30203
 21
644.2936475
 31
0.0
  0
LINE
  5
21A
330
1F
100
AcDbEntity
  8
図面枠
  6
CONTINUOUS
 62
     3
100
AcDbLine
 10
873.4487075
 20
671.2936475
 30
0.0
 11
927.923325
 21
671.2936475
 31
0.0
  0
LINE
  5
21B
330
1F
100
AcDbEntity
  8
図面枠
  6
CONTINUOUS
 62
     3
100
AcDbLine
 10
873.4487025
 20
662.2936475
 30
0.0
 11
927.923325
 21
662.2936475
 31
0.0
  0
LINE
  5
21C
330
1F
100
AcDbEntity
  8
図面枠
  6
CENTER
 62
   179
100
AcDbLine
 10
769.2079675
 20
366.0920925
 30
0.0
 11
779.6928825
 21
366.0920925
 31
0.0
  0
LINE
  5
21D
330
1F
100
AcDbEntity
  8
図面枠
  6
CONTINUOUS
 62
     3
100
AcDbLine
 10
772.0037950076
 20
362.3393165051
 30
0.0
 11
777.9232375
 21
362.3393175
 31
0.0
  0
LINE
  5
21E
330
1F
100
AcDbEntity
  8
図面枠
  6
CONTINUOUS
 62
     3
100
AcDbLine
 10
772.0037950076
 20
358.5865397554
 30
0.0
 11
777.9232375
 21
358.58654
 31
0.0
  0
LINE
  5
21F
330
1F
100
AcDbEntity
  8
図面枠
  6
CONTINUOUS
 62
     3
100
AcDbLine
 10
772.0037950076
 20
434.8448700046
 30
0.0
 11
777.9232375
 21
434.8448700046
 31
0.0
  0
LINE
  5
220
330
1F
100
AcDbEntity
  8
図面枠
  6
CONTINUOUS
 62
     3
100
AcDbLine
 10
772.0037950076
 20
427.3393165051
 30
0.0
 11
777.9232375
 21
427.3393175
 31
0.0
  0
LINE
  5
221
330
1F
100
AcDbEntity
  8
図面枠
  6
CONTINUOUS
 62
     3
100
AcDbLine
 10
771.4232375
 20
425.4629275
 30
0.0
 11
771.4232375
 21
436.7212575
 31
0.0
  0
LINE
  5
222
330
1F
100
AcDbEntity
  8
図面枠
  6
CONTINUOUS
 62
     3
100
AcDbLine
 10
772.0037950076
 20
438.5976467543
 30
0.0
 11
777.9232375
 21
438.5976475
 31
0.0
  0
LINE
  5
223
330
1F
100
AcDbEntity
  8
図面枠
  6
CONTINUOUS
 62
     3
100
AcDbLine
 10
772.0037950076
 20
423.5865397554
 30
0.0
 11
777.9232375
 21
423.58654
 31
0.0
  0
LINE
  5
224
330
1F
100
AcDbEntity
  8
図面枠
  6
CENTER
 62
   179
100
AcDbLine
 10
769.2079675
 20
431.0920925
 30
0.0
 11
779.6928825
 21
431.0920925
 31
0.0
  0
LINE
  5
225
330
1F
100
AcDbEntity
  8
図面枠
  6
CONTINUOUS
 62
     3
100
AcDbLine
 10
772.0037950076
 20
369.8448700046
 30
0.0
 11
777.9232375
 21
369.8448700046
 31
0.0
  0
LINE
  5
226
330
1F
100
AcDbEntity
  8
図面枠
  6
CONTINUOUS
 62
     3
100
AcDbLine
 10
772.0037950076
 20
373.5976467543
 30
0.0
 11
777.9232375
 21
373.5976475
 31
0.0
  0
LINE
  5
227
330
1F
100
AcDbEntity
  8
図面枠
  6
CONTINUOUS
 62
     3
100
AcDbLine
 10
777.9232375
 20
358.58654
 30
0.0
 11
777.9232375
 21
373.5976475
 31
0.0
  0
LINE
  5
228
330
1F
100
AcDbEntity
  8
図面枠
  6
CONTINUOUS
 62
     3
100
AcDbLine
 10
771.4232375
 20
360.4629275
 30
0.0
 11
771.4232375
 21
371.7212575
 31
0.0
  0
LINE
  5
229
330
1F
100
AcDbEntity
  8
図面枠
  6
CONTINUOUS
 62
     1
100
AcDbLine
 10
795.5232375
 20
356.0920925
 30
0.0
 11
795.5232375
 21
354.5920925
 31
0.0
  0
LINE
  5
22A
330
1F
100
AcDbEntity
  8
図面枠
  6
CENTER
 62
   179
100
AcDbLine
 10
705.224495
 20
398.5920925
 30
0.0
 11
928.0232375
 21
398.5920925
 31
0.0
  0
LINE
  5
22B
330
1F
100
AcDbEntity
  8
図面枠
  6
CONTINUOUS
 62
     1
100
AcDbLine
 10
796.5232375
 20
441.0920925
 30
0.0
 11
796.5232375
 21
356.0920925
 31
0.0
  0
LINE
  5
22C
330
1F
100
AcDbEntity
  8
図面枠
  6
CONTINUOUS
 62
     3
100
AcDbLine
 10
1059.5232375
 20
441.0920925
 30
0.0
 11
1059.5232375
 21
457.8970525
 31
0.0
  0
LINE
  5
22D
330
1F
100
AcDbEntity
  8
図面枠
  6
CONTINUOUS
 62
     1
100
AcDbLine
 10
1060.5232375
 20
441.0920925
 30
0.0
 11
1060.5232375
 21
471.6195775
 31
0.0
  0
LINE
  5
22E
330
1F
100
AcDbEntity
  8
図面枠
  6
CONTINUOUS
 62
     1
100
AcDbLine
 10
905.5232375
 20
309.5920925
 30
0.0
 11
820.5232375
 21
309.5920925
 31
0.0
  0
LINE
  5
22F
330
1F
100
AcDbEntity
  8
図面枠
  6
CONTINUOUS
 62
     1
100
AcDbLine
 10
820.5232375
 20
307.5920925
 30
0.0
 11
905.5232375
 21
307.5920925
 31
0.0
  0
LINE
  5
230
330
1F
100
AcDbEntity
  8
図面枠
  6
CONTINUOUS
 62
     1
100
AcDbLine
 10
905.5232375
 20
307.5920925
 30
0.0
 11
905.5232375
 21
309.5920925
 31
0.0
  0
LINE
  5
231
330
1F
100
AcDbEntity
  8
図面枠
  6
CONTINUOUS
 62
     1
100
AcDbLine
 10
820.5232375
 20
307.5920925
 30
0.0
 11
820.5232375
 21
309.5920925
 31
0.0
  0
LINE
  5
232
330
1F
100
AcDbEntity
  8
図面枠
  6
CENTER
 62
   179
100
AcDbLine
 10
830.5232375
 20
294.8768225
 30
0.0
 11
830.5232375
 21
305.3617375
 31
0.0
  0
LINE
  5
233
330
1F
100
AcDbEntity
  8
図面枠
  6
CONTINUOUS
 62
     3
100
AcDbLine
 10
838.0287919235
 20
300.1726498385
 30
0.0
 11
838.0287925
 21
306.0920925
 31
0.0
  0
LINE
  5
234
330
1F
100
AcDbEntity
  8
図面枠
  6
CONTINUOUS
 62
     3
100
AcDbLine
 10
823.0176849245
 20
300.1726498385
 30
0.0
 11
823.0176849245
 21
306.0920925
 31
0.0
  0
LINE
  5
235
330
1F
100
AcDbEntity
  8
図面枠
  6
CONTINUOUS
 62
     3
100
AcDbLine
 10
838.0287925
 20
306.0920925
 30
0.0
 11
823.0176849245
 21
306.0920925
 31
0.0
  0
LINE
  5
236
330
1F
100
AcDbEntity
  8
図面枠
  6
CONTINUOUS
 62
     3
100
AcDbLine
 10
836.1524025
 20
299.5920925
 30
0.0
 11
824.8940725
 21
299.5920925
 31
0.0
  0
LINE
  5
237
330
1F
100
AcDbEntity
  8
図面枠
  6
CONTINUOUS
 62
     3
100
AcDbLine
 10
834.2760151737
 20
300.1726498385
 30
0.0
 11
834.276015
 21
306.0920925
 31
0.0
  0
LINE
  5
238
330
1F
100
AcDbEntity
  8
図面枠
  6
CONTINUOUS
 62
     3
100
AcDbLine
 10
826.7704616743
 20
300.1726498385
 30
0.0
 11
826.7704625
 21
306.0920925
 31
0.0
  0
LINE
  5
239
330
1F
100
AcDbEntity
  8
図面枠
  6
CENTER
 62
   179
100
AcDbLine
 10
895.5232375
 20
294.8768225
 30
0.0
 11
895.5232375
 21
305.3617375
 31
0.0
  0
LINE
  5
23A
330
1F
100
AcDbEntity
  8
図面枠
  6
CONTINUOUS
 62
     3
100
AcDbLine
 10
903.0287919235
 20
300.1726498385
 30
0.0
 11
903.0287925
 21
306.0920925
 31
0.0
  0
LINE
  5
23B
330
1F
100
AcDbEntity
  8
図面枠
  6
CONTINUOUS
 62
     3
100
AcDbLine
 10
888.0176849245
 20
300.1726498385
 30
0.0
 11
888.0176849245
 21
306.0920925
 31
0.0
  0
LINE
  5
23C
330
1F
100
AcDbEntity
  8
図面枠
  6
CONTINUOUS
 62
     3
100
AcDbLine
 10
903.0287925
 20
306.0920925
 30
0.0
 11
888.0176849245
 21
306.0920925
 31
0.0
  0
LINE
  5
23D
330
1F
100
AcDbEntity
  8
図面枠
  6
CONTINUOUS
 62
     3
100
AcDbLine
 10
901.1524025
 20
299.5920925
 30
0.0
 11
889.8940725
 21
299.5920925
 31
0.0
  0
LINE
  5
23E
330
1F
100
AcDbEntity
  8
図面枠
  6
CONTINUOUS
 62
     3
100
AcDbLine
 10
899.2760151737
 20
300.1726498385
 30
0.0
 11
899.276015
 21
306.0920925
 31
0.0
  0
LINE
  5
23F
330
1F
100
AcDbEntity
  8
図面枠
  6
CONTINUOUS
 62
     3
100
AcDbLine
 10
891.7704616743
 20
300.1726498385
 30
0.0
 11
891.7704625
 21
306.0920925
 31
0.0
  0
LINE
  5
240
330
1F
100
AcDbEntity
  8
図面枠
  6
CENTER
 62
   179
100
AcDbLine
 10
1020.5232375
 20
296.8768225
 30
0.0
 11
1020.5232375
 21
307.3617375
 31
0.0
  0
LINE
  5
241
330
1F
100
AcDbEntity
  8
図面枠
  6
CONTINUOUS
 62
     3
100
AcDbLine
 10
1028.0287919235
 20
302.1726498385
 30
0.0
 11
1028.0287925
 21
308.0920925
 31
0.0
  0
LINE
  5
242
330
1F
100
AcDbEntity
  8
図面枠
  6
CONTINUOUS
 62
     3
100
AcDbLine
 10
1013.0176849245
 20
302.1726498385
 30
0.0
 11
1013.0176849245
 21
308.0920925
 31
0.0
  0
LINE
  5
243
330
1F
100
AcDbEntity
  8
図面枠
  6
CONTINUOUS
 62
     3
100
AcDbLine
 10
1028.0287925
 20
308.0920925
 30
0.0
 11
1013.0176849245
 21
308.0920925
 31
0.0
  0
LINE
  5
244
330
1F
100
AcDbEntity
  8
図面枠
  6
CONTINUOUS
 62
     3
100
AcDbLine
 10
1026.1524025
 20
301.5920925
 30
0.0
 11
1014.8940725
 21
301.5920925
 31
0.0
  0
LINE
  5
245
330
1F
100
AcDbEntity
  8
図面枠
  6
CONTINUOUS
 62
     3
100
AcDbLine
 10
1024.2760151737
 20
302.1726498385
 30
0.0
 11
1024.276015
 21
308.0920925
 31
0.0
  0
LINE
  5
246
330
1F
100
AcDbEntity
  8
図面枠
  6
CONTINUOUS
 62
     3
100
AcDbLine
 10
1016.7704616743
 20
302.1726498385
 30
0.0
 11
1016.7704625
 21
308.0920925
 31
0.0
  0
LINE
  5
247
330
1F
100
AcDbEntity
  8
図面枠
  6
CENTER
 62
   179
100
AcDbLine
 10
955.5232375
 20
296.8768225
 30
0.0
 11
955.5232375
 21
307.3617375
 31
0.0
  0
LINE
  5
248
330
1F
100
AcDbEntity
  8
図面枠
  6
CONTINUOUS
 62
     3
100
AcDbLine
 10
963.0287919235
 20
302.1726498385
 30
0.0
 11
963.0287925
 21
308.0920925
 31
0.0
  0
LINE
  5
249
330
1F
100
AcDbEntity
  8
図面枠
  6
CONTINUOUS
 62
     3
100
AcDbLine
 10
948.0176849245
 20
302.1726498385
 30
0.0
 11
948.0176849245
 21
308.0920925
 31
0.0
  0
LINE
  5
24A
330
1F
100
AcDbEntity
  8
図面枠
  6
CONTINUOUS
 62
     3
100
AcDbLine
 10
963.0287925
 20
308.0920925
 30
0.0
 11
948.0176849245
 21
308.0920925
 31
0.0
  0
LINE
  5
24B
330
1F
100
AcDbEntity
  8
図面枠
  6
CONTINUOUS
 62
     3
100
AcDbLine
 10
961.1524025
 20
301.5920925
 30
0.0
 11
949.8940725
 21
301.5920925
 31
0.0
  0
LINE
  5
24C
330
1F
100
AcDbEntity
  8
図面枠
  6
CONTINUOUS
 62
     3
100
AcDbLine
 10
959.2760151737
 20
302.1726498385
 30
0.0
 11
959.276015
 21
308.0920925
 31
0.0
  0
LINE
  5
24D
330
1F
100
AcDbEntity
  8
図面枠
  6
CONTINUOUS
 62
     3
100
AcDbLine
 10
951.7704616743
 20
302.1726498385
 30
0.0
 11
951.7704625
 21
308.0920925
 31
0.0
  0
LINE
  5
24E
330
1F
100
AcDbEntity
  8
図面枠
  6
CONTINUOUS
 62
     3
100
AcDbLine
 10
1023.517685
 20
588.0017334006
 30
0.0
 11
1023.517685
 21
582.08229
 31
0.0
  0
LINE
  5
24F
330
1F
100
AcDbEntity
  8
図面枠
  6
CONTINUOUS
 62
     3
100
AcDbLine
 10
1038.5287919989
 20
588.0017334006
 30
0.0
 11
1038.5287925755
 21
582.08229
 31
0.0
  0
LINE
  5
250
330
1F
100
AcDbEntity
  8
図面枠
  6
CONTINUOUS
 62
     3
100
AcDbLine
 10
1023.517685
 20
582.08229
 30
0.0
 11
1038.5287925755
 21
582.08229
 31
0.0
  0
LINE
  5
251
330
1F
100
AcDbEntity
  8
図面枠
  6
CONTINUOUS
 62
     3
100
AcDbLine
 10
1025.3940725
 20
588.58229
 30
0.0
 11
1036.6524025
 21
588.58229
 31
0.0
  0
LINE
  5
252
330
1F
100
AcDbEntity
  8
図面枠
  6
CONTINUOUS
 62
     3
100
AcDbLine
 10
1027.2704617497
 20
588.0017334006
 30
0.0
 11
1027.2704625755
 21
582.08229
 31
0.0
  0
LINE
  5
253
330
1F
100
AcDbEntity
  8
図面枠
  6
CONTINUOUS
 62
     3
100
AcDbLine
 10
1034.7760152492
 20
588.0017334006
 30
0.0
 11
1034.7760150755
 21
582.08229
 31
0.0
  0
LINE
  5
254
330
1F
100
AcDbEntity
  8
図面枠
  6
CONTINUOUS
 62
     3
100
AcDbLine
 10
958.517685
 20
588.0017334006
 30
0.0
 11
958.517685
 21
582.08229
 31
0.0
  0
LINE
  5
255
330
1F
100
AcDbEntity
  8
図面枠
  6
CONTINUOUS
 62
     3
100
AcDbLine
 10
973.5287919989
 20
588.0017334006
 30
0.0
 11
973.5287925755
 21
582.08229
 31
0.0
  0
LINE
  5
256
330
1F
100
AcDbEntity
  8
図面枠
  6
CONTINUOUS
 62
     3
100
AcDbLine
 10
958.517685
 20
582.08229
 30
0.0
 11
973.5287925755
 21
582.08229
 31
0.0
  0
LINE
  5
257
330
1F
100
AcDbEntity
  8
図面枠
  6
CONTINUOUS
 62
     3
100
AcDbLine
 10
960.3940725
 20
588.58229
 30
0.0
 11
971.6524025
 21
588.58229
 31
0.0
  0
LINE
  5
258
330
1F
100
AcDbEntity
  8
図面枠
  6
CONTINUOUS
 62
     3
100
AcDbLine
 10
962.2704617497
 20
588.0017334006
 30
0.0
 11
962.2704625755
 21
582.08229
 31
0.0
  0
LINE
  5
259
330
1F
100
AcDbEntity
  8
図面枠
  6
CONTINUOUS
 62
     3
100
AcDbLine
 10
969.7760152492
 20
588.0017334006
 30
0.0
 11
969.7760150755
 21
582.08229
 31
0.0
  0
LINE
  5
25A
330
1F
100
AcDbEntity
  8
図面枠
  6
CENTER
 62
   179
100
AcDbLine
 10
1073.2385075
 20
366.0920925
 30
0.0
 11
1062.753595
 21
366.0920925
 31
0.0
  0
LINE
  5
25B
330
1F
100
AcDbEntity
  8
図面枠
  6
CONTINUOUS
 62
     3
100
AcDbLine
 10
1070.4426818404
 20
373.5976467543
 30
0.0
 11
1064.5232375
 21
373.5976475
 31
0.0
  0
LINE
  5
25C
330
1F
100
AcDbEntity
  8
図面枠
  6
CONTINUOUS
 62
     3
100
AcDbLine
 10
1070.4426818404
 20
358.5865397554
 30
0.0
 11
1064.5232375
 21
358.58654
 31
0.0
  0
LINE
  5
25D
330
1F
100
AcDbEntity
  8
図面枠
  6
CONTINUOUS
 62
     3
100
AcDbLine
 10
1064.5232375
 20
373.5976475
 30
0.0
 11
1064.5232375
 21
358.58654
 31
0.0
  0
LINE
  5
25E
330
1F
100
AcDbEntity
  8
図面枠
  6
CONTINUOUS
 62
     3
100
AcDbLine
 10
1071.0232375
 20
371.7212575
 30
0.0
 11
1071.0232375
 21
360.4629275
 31
0.0
  0
LINE
  5
25F
330
1F
100
AcDbEntity
  8
図面枠
  6
CONTINUOUS
 62
     3
100
AcDbLine
 10
1070.4426818404
 20
369.8448700046
 30
0.0
 11
1064.5232375
 21
369.8448700046
 31
0.0
  0
LINE
  5
260
330
1F
100
AcDbEntity
  8
図面枠
  6
CONTINUOUS
 62
     3
100
AcDbLine
 10
1070.4426818404
 20
362.3393165051
 30
0.0
 11
1064.5232375
 21
362.3393175
 31
0.0
  0
LINE
  5
261
330
1F
100
AcDbEntity
  8
図面枠
  6
CENTER
 62
   179
100
AcDbLine
 10
1073.2385075
 20
431.0920925
 30
0.0
 11
1062.753595
 21
431.0920925
 31
0.0
  0
LINE
  5
262
330
1F
100
AcDbEntity
  8
図面枠
  6
CONTINUOUS
 62
     3
100
AcDbLine
 10
1070.4426818404
 20
438.5976467543
 30
0.0
 11
1064.5232375
 21
438.5976475
 31
0.0
  0
LINE
  5
263
330
1F
100
AcDbEntity
  8
図面枠
  6
CONTINUOUS
 62
     3
100
AcDbLine
 10
1070.4426818404
 20
423.5865397554
 30
0.0
 11
1064.5232375
 21
423.58654
 31
0.0
  0
LINE
  5
264
330
1F
100
AcDbEntity
  8
図面枠
  6
CONTINUOUS
 62
     3
100
AcDbLine
 10
1064.5232375
 20
438.5976475
 30
0.0
 11
1064.5232375
 21
423.58654
 31
0.0
  0
LINE
  5
265
330
1F
100
AcDbEntity
  8
図面枠
  6
CONTINUOUS
 62
     3
100
AcDbLine
 10
1071.0232375
 20
436.7212575
 30
0.0
 11
1071.0232375
 21
425.4629275
 31
0.0
  0
LINE
  5
266
330
1F
100
AcDbEntity
  8
図面枠
  6
CONTINUOUS
 62
     3
100
AcDbLine
 10
1070.4426818404
 20
434.8448700046
 30
0.0
 11
1064.5232375
 21
434.8448700046
 31
0.0
  0
LINE
  5
267
330
1F
100
AcDbEntity
  8
図面枠
  6
CONTINUOUS
 62
     3
100
AcDbLine
 10
1070.4426818404
 20
427.3393165051
 30
0.0
 11
1064.5232375
 21
427.3393175
 31
0.0
  0
LINE
  5
268
330
1F
100
AcDbEntity
  8
図面枠
  6
CONTINUOUS
 62
     1
100
AcDbLine
 10
905.5232375
 20
307.5920925
 30
0.0
 11
820.5232375
 21
307.5920925
 31
0.0
  0
LINE
  5
269
330
1F
100
AcDbEntity
  8
図面枠
  6
CENTER
 62
   179
100
AcDbLine
 10
895.5232375
 20
300.215355
 30
0.0
 11
895.5232375
 21
311.10955
 31
0.0
  0
LINE
  5
26A
330
1F
100
AcDbEntity
  8
図面枠
  6
CONTINUOUS
 62
     1
100
AcDbLine
 10
905.5232375
 20
306.0920925
 30
0.0
 11
820.5232375
 21
306.0920925
 31
0.0
  0
LINE
  5
26B
330
1F
100
AcDbEntity
  8
図面枠
  6
CONTINUOUS
 62
     1
100
AcDbLine
 10
905.5232375
 20
306.0920925
 30
0.0
 11
905.5232375
 21
307.5920925
 31
0.0
  0
LINE
  5
26C
330
1F
100
AcDbEntity
  8
図面枠
  6
CENTER
 62
   179
100
AcDbLine
 10
830.5232375
 20
311.10955
 30
0.0
 11
830.5232375
 21
300.215355
 31
0.0
  0
LINE
  5
26D
330
1F
100
AcDbEntity
  8
図面枠
  6
CONTINUOUS
 62
     1
100
AcDbLine
 10
820.5232375
 20
307.5920925
 30
0.0
 11
820.5232375
 21
306.0920925
 31
0.0
  0
LINE
  5
26E
330
1F
100
AcDbEntity
  8
図面枠
  6
CENTER
 62
   179
100
AcDbLine
 10
863.0232375
 20
298.2740975
 30
0.0
 11
863.0232375
 21
315.6932425
 31
0.0
  0
LINE
  5
26F
330
1F
100
AcDbEntity
  8
図面枠
  6
CONTINUOUS
 62
     1
100
AcDbLine
 10
1030.5232375
 20
309.5920925
 30
0.0
 11
945.5232375
 21
309.5920925
 31
0.0
  0
LINE
  5
270
330
1F
100
AcDbEntity
  8
図面枠
  6
CENTER
 62
   179
100
AcDbLine
 10
1020.5232375
 20
302.215355
 30
0.0
 11
1020.5232375
 21
313.10955
 31
0.0
  0
LINE
  5
271
330
1F
100
AcDbEntity
  8
図面枠
  6
CONTINUOUS
 62
     1
100
AcDbLine
 10
1030.5232375
 20
308.0920925
 30
0.0
 11
945.5232375
 21
308.0920925
 31
0.0
  0
LINE
  5
272
330
1F
100
AcDbEntity
  8
図面枠
  6
CONTINUOUS
 62
     1
100
AcDbLine
 10
1030.5232375
 20
308.0920925
 30
0.0
 11
1030.5232375
 21
309.5920925
 31
0.0
  0
LINE
  5
273
330
1F
100
AcDbEntity
  8
図面枠
  6
CENTER
 62
   179
100
AcDbLine
 10
955.5232375
 20
313.10955
 30
0.0
 11
955.5232375
 21
302.215355
 31
0.0
  0
LINE
  5
274
330
1F
100
AcDbEntity
  8
図面枠
  6
CONTINUOUS
 62
     1
100
AcDbLine
 10
945.5232375
 20
309.5920925
 30
0.0
 11
945.5232375
 21
308.0920925
 31
0.0
  0
LINE
  5
275
330
1F
100
AcDbEntity
  8
図面枠
  6
CENTER
 62
   179
100
AcDbLine
 10
988.0232375
 20
315.6412
 30
0.0
 11
988.0232375
 21
299.546635
 31
0.0
  0
LINE
  5
276
330
1F
100
AcDbEntity
  8
図面枠
  6
CONTINUOUS
 62
     1
100
AcDbLine
 10
1060.5232375
 20
441.0920925
 30
0.0
 11
1060.5232375
 21
356.0920925
 31
0.0
  0
LINE
  5
277
330
1F
100
AcDbEntity
  8
図面枠
  6
CENTER
 62
   179
100
AcDbLine
 10
1067.8999775
 20
431.0920925
 30
0.0
 11
1057.0057825
 21
431.0920925
 31
0.0
  0
LINE
  5
278
330
1F
100
AcDbEntity
  8
図面枠
  6
CONTINUOUS
 62
     1
100
AcDbLine
 10
1080.5232375
 20
416.5920925
 30
0.0
 11
1066.5232375
 21
416.5920925
 31
0.0
  0
LINE
  5
279
330
1F
100
AcDbEntity
  8
図面枠
  6
CONTINUOUS
 62
     1
100
AcDbLine
 10
1064.5232375
 20
440.0920925
 30
0.0
 11
1064.5232375
 21
357.0920925
 31
0.0
  0
LINE
  5
27A
330
1F
100
AcDbEntity
  8
図面枠
  6
CONTINUOUS
 62
     1
100
AcDbLine
 10
1063.52324
 20
441.0920925
 30
0.0
 11
1060.5232375
 21
441.0920925
 31
0.0
  0
LINE
  5
27B
330
1F
100
AcDbEntity
  8
図面枠
  6
CENTER
 62
   179
100
AcDbLine
 10
1057.0057825
 20
366.0920925
 30
0.0
 11
1067.8999775
 21
366.0920925
 31
0.0
  0
LINE
  5
27C
330
1F
100
AcDbEntity
  8
図面枠
  6
CONTINUOUS
 62
     1
100
AcDbLine
 10
1080.5232375
 20
380.5920925
 30
0.0
 11
1066.5232375
 21
380.5920925
 31
0.0
  0
LINE
  5
27D
330
1F
100
AcDbEntity
  8
図面枠
  6
CONTINUOUS
 62
     1
100
AcDbLine
 10
1060.5232375
 20
356.0920925
 30
0.0
 11
1063.5232375
 21
356.0920925
 31
0.0
  0
LINE
  5
27E
330
1F
100
AcDbEntity
  8
図面枠
  6
CENTER
 62
   179
100
AcDbLine
 10
1085.26993
 20
398.5920925
 30
0.0
 11
928.0232375
 21
398.5920925
 31
0.0
  0
LINE
  5
27F
330
1F
100
AcDbEntity
  8
図面枠
  6
CONTINUOUS
 62
     1
100
AcDbLine
 10
1081.5232375
 20
415.5920925
 30
0.0
 11
1081.5232375
 21
381.5920925
 31
0.0
  0
LINE
  5
280
330
1F
100
AcDbEntity
  8
図面枠
  6
CONTINUOUS
 62
     1
100
AcDbLine
 10
956.0232375
 20
580.58229
 30
0.0
 11
1041.0232375
 21
580.58229
 31
0.0
  0
LINE
  5
281
330
1F
100
AcDbEntity
  8
図面枠
  6
CENTER
 62
   179
100
AcDbLine
 10
966.0232375
 20
591.10275
 30
0.0
 11
966.0232375
 21
577.064835
 31
0.0
  0
LINE
  5
282
330
1F
100
AcDbEntity
  8
図面枠
  6
CONTINUOUS
 62
     1
100
AcDbLine
 10
956.0232375
 20
582.08229
 30
0.0
 11
1041.0232375
 21
582.08229
 31
0.0
  0
LINE
  5
283
330
1F
100
AcDbEntity
  8
図面枠
  6
CONTINUOUS
 62
     1
100
AcDbLine
 10
956.0232375
 20
582.08229
 30
0.0
 11
956.0232375
 21
580.58229
 31
0.0
  0
LINE
  5
284
330
1F
100
AcDbEntity
  8
図面枠
  6
CENTER
 62
   179
100
AcDbLine
 10
1031.0232375
 20
577.064835
 30
0.0
 11
1031.0232375
 21
593.3666625
 31
0.0
  0
LINE
  5
285
330
1F
100
AcDbEntity
  8
図面枠
  6
CONTINUOUS
 62
     1
100
AcDbLine
 10
1041.0232375
 20
580.58229
 30
0.0
 11
1041.0232375
 21
582.08229
 31
0.0
  0
LINE
  5
286
330
1F
100
AcDbEntity
  8
図面枠
  6
CENTER
 62
   179
100
AcDbLine
 10
1027.9881075
 20
545.0920925
 30
0.0
 11
1045.32564
 21
545.0920925
 31
0.0
  0
LINE
  5
287
330
1F
100
AcDbEntity
  8
図面枠
  6
CENTER
 62
   179
100
AcDbLine
 10
1036.0232375
 20
562.80143
 30
0.0
 11
1036.0232375
 21
535.7472975
 31
0.0
  0
LINE
  5
288
330
1F
100
AcDbEntity
  8
図面枠
  6
CENTER
 62
   179
100
AcDbLine
 10
811.9881075
 20
545.0920925
 30
0.0
 11
829.32564
 21
545.0920925
 31
0.0
  0
LINE
  5
289
330
1F
100
AcDbEntity
  8
図面枠
  6
CENTER
 62
   179
100
AcDbLine
 10
820.0232375
 20
561.461535
 30
0.0
 11
820.0232375
 21
535.7472975
 31
0.0
  0
LINE
  5
28A
330
1F
100
AcDbEntity
  8
図面枠
  6
CONTINUOUS
 62
     1
100
AcDbLine
 10
956.0649775
 20
577.77727
 30
0.0
 11
956.0649775
 21
579.0920925
 31
0.0
  0
LINE
  5
28B
330
1F
100
AcDbEntity
  8
図面枠
  6
CONTINUOUS
 62
     1
100
AcDbLine
 10
1040.9815
 20
570.5166
 30
0.0
 11
1040.9815
 21
573.4304325
 31
0.0
  0
LINE
  5
28C
330
1F
100
AcDbEntity
  8
図面枠
  6
CONTINUOUS
 62
     1
100
AcDbLine
 10
905.5232375
 20
309.5920925
 30
0.0
 11
905.5232375
 21
315.383595
 31
0.0
  0
LINE
  5
28D
330
1F
100
AcDbEntity
  8
図面枠
  6
CONTINUOUS
 62
     1
100
AcDbLine
 10
820.5232375
 20
309.5920925
 30
0.0
 11
820.5232375
 21
319.47469
 31
0.0
  0
LINE
  5
28E
330
1F
100
AcDbEntity
  8
図面枠
  6
CONTINUOUS
 62
     1
100
AcDbLine
 10
1057.5232375
 20
442.0920925
 30
0.0
 11
1057.5232375
 21
454.0920925
 31
0.0
  0
LINE
  5
28F
330
1F
100
AcDbEntity
  8
図面枠
  6
CONTINUOUS
 62
     1
100
AcDbLine
 10
1030.5232375
 20
318.1070575
 30
0.0
 11
1030.5232375
 21
309.5920925
 31
0.0
  0
LINE
  5
290
330
1F
100
AcDbEntity
  8
図面枠
  6
CONTINUOUS
 62
     1
100
AcDbLine
 10
945.5232375
 20
309.5920925
 30
0.0
 11
1030.5232375
 21
309.5920925
 31
0.0
  0
LINE
  5
291
330
1F
100
AcDbEntity
  8
図面枠
  6
CONTINUOUS
 62
     1
100
AcDbLine
 10
945.5232375
 20
315.3669425
 30
0.0
 11
945.5232375
 21
309.5920925
 31
0.0
  0
LINE
  5
292
330
1F
100
AcDbEntity
  8
図面枠
  6
CONTINUOUS
 62
     3
100
AcDbLine
 10
945.5232375
 20
312.5920925
 30
0.0
 11
905.5232375
 21
312.5920925
 31
0.0
  0
LINE
  5
293
330
1F
100
AcDbEntity
  8
図面枠
  6
CONTINUOUS
 62
     1
100
AcDbLine
 10
945.5232375
 20
314.5920925
 30
0.0
 11
906.0232375
 21
314.5920925
 31
0.0
  0
LINE
  5
294
330
1F
100
AcDbEntity
  8
図面枠
  6
CONTINUOUS
 62
     1
100
AcDbLine
 10
798.023238275
 20
356.1338325
 30
0.0
 11
799.902375775
 21
356.1338325
 31
0.0
  0
LINE
  5
295
330
1F
100
AcDbEntity
  8
図面枠
  6
CONTINUOUS
 62
     1
100
AcDbLine
 10
798.0232375
 20
441.050355
 30
0.0
 11
799.22357
 21
441.050355
 31
0.0
  0
LINE
  5
296
330
1F
100
AcDbEntity
  8
図面枠
  6
CONTINUOUS
 62
     1
100
AcDbLine
 10
796.5232375
 20
356.0920925
 30
0.0
 11
798.22323
 21
356.0920925
 31
0.0
  0
LINE
  5
297
330
1F
100
AcDbEntity
  8
図面枠
  6
CONTINUOUS
 62
     1
100
AcDbLine
 10
796.5232375
 20
441.0920925
 30
0.0
 11
798.2232275
 21
441.0920925
 31
0.0
  0
LINE
  5
298
330
1F
100
AcDbEntity
  8
図面枠
  6
CONTINUOUS
 62
     1
100
AcDbLine
 10
1041.0232375
 20
573.4022925
 30
0.0
 11
1041.0232375
 21
580.58229
 31
0.0
  0
LINE
  5
299
330
1F
100
AcDbEntity
  8
図面枠
  6
CONTINUOUS
 62
     1
100
AcDbLine
 10
956.0232375
 20
578.8921025
 30
0.0
 11
956.0232375
 21
580.58229
 31
0.0
  0
LINE
  5
29A
330
1F
100
AcDbEntity
  8
図面枠
  6
CONTINUOUS
 62
     3
100
AcDbLine
 10
796.5232375
 20
356.0920925
 30
0.0
 11
796.5232375
 21
354.5920925
 31
0.0
  0
LINE
  5
29B
330
1F
100
AcDbEntity
  8
図面枠
  6
CONTINUOUS
 62
     1
100
AcDbLine
 10
798.523238275
 20
355.6338325
 30
0.0
 11
798.523238275
 21
354.5920925
 31
0.0
  0
LINE
  5
29C
330
1F
100
AcDbEntity
  8
図面枠
  6
CONTINUOUS
 62
     3
100
AcDbLine
 10
1059.5232375
 20
354.5920925
 30
0.0
 11
1059.5232375
 21
356.0920925
 31
0.0
  0
LINE
  5
29D
330
1F
100
AcDbEntity
  8
図面枠
  6
CONTINUOUS
 62
     3
100
AcDbLine
 10
796.5232375
 20
538.5920925
 30
0.0
 11
796.5232375
 21
480.287135
 31
0.0
  0
LINE
  5
29E
330
1F
100
AcDbEntity
  8
図面枠
  6
CONTINUOUS
 62
     3
100
AcDbLine
 10
956.0232375
 20
580.5920925
 30
0.0
 11
838.5232375
 21
580.5920925
 31
0.0
  0
LINE
  5
29F
330
1F
100
AcDbEntity
  8
図面枠
  6
CONTINUOUS
 62
     1
100
AcDbLine
 10
1057.5232375
 20
354.5920925
 30
0.0
 11
1057.5232375
 21
355.0920925
 31
0.0
  0
LINE
  5
2A0
330
1F
100
AcDbEntity
  8
図面枠
  6
CONTINUOUS
 62
     1
100
AcDbLine
 10
798.5232375
 20
538.5920925
 30
0.0
 11
798.5232375
 21
484.0920925
 31
0.0
  0
LINE
  5
2A1
330
1F
100
AcDbEntity
  8
図面枠
  6
CONTINUOUS
 62
     1
100
AcDbLine
 10
955.5649775
 20
578.5920925
 30
0.0
 11
838.5232375
 21
578.5920925
 31
0.0
  0
LINE
  5
2A2
330
1F
100
AcDbEntity
  8
図面枠
  6
CONTINUOUS
 62
     1
100
AcDbLine
 10
1058.5232375
 20
356.0920925
 30
0.0
 11
1058.5232375
 21
441.0920925
 31
0.0
  0
LINE
  5
2A3
330
1F
100
AcDbEntity
  8
図面枠
  6
CONTINUOUS
 62
     1
100
AcDbLine
 10
905.5232375
 20
309.5920925
 30
0.0
 11
820.5232375
 21
309.5920925
 31
0.0
  0
LINE
  5
2A4
330
1F
100
AcDbEntity
  8
図面枠
  6
CONTINUOUS
 62
     1
100
AcDbLine
 10
796.5232375
 20
356.0920925
 30
0.0
 11
796.5232375
 21
441.0920925
 31
0.0
  0
LINE
  5
2A5
330
1F
100
AcDbEntity
  8
図面枠
  6
CONTINUOUS
 62
     1
100
AcDbLine
 10
956.0232375
 20
580.58229
 30
0.0
 11
1041.0232375
 21
580.58229
 31
0.0
  0
LINE
  5
2A6
330
1F
100
AcDbEntity
  8
図面枠
  6
CONTINUOUS
 62
     1
100
AcDbLine
 10
945.5232375
 20
311.5920925
 30
0.0
 11
905.5232375
 21
311.5920925
 31
0.0
  0
LINE
  5
2A7
330
1F
100
AcDbEntity
  8
図面枠
  6
CONTINUOUS
 62
     1
100
AcDbLine
 10
1060.5232375
 20
354.5920925
 30
0.0
 11
1060.5232375
 21
356.0920925
 31
0.0
  0
LINE
  5
2A8
330
1F
100
AcDbEntity
  8
図面枠
  6
CONTINUOUS
 62
     1
100
AcDbLine
 10
795.5232375
 20
538.5920925
 30
0.0
 11
795.5232375
 21
441.0920925
 31
0.0
  0
LINE
  5
2A9
330
1F
100
AcDbEntity
  8
図面枠
  6
CONTINUOUS
 62
     1
100
AcDbLine
 10
956.0232375
 20
581.5920925
 30
0.0
 11
838.5232375
 21
581.5920925
 31
0.0
  0
LINE
  5
2AA
330
1F
100
AcDbEntity
  8
図面枠
  6
CENTER
 62
   179
100
AcDbLine
 10
1036.0232375
 20
337.810615
 30
0.0
 11
1036.0232375
 21
357.60884
 31
0.0
  0
LINE
  5
2AB
330
1F
100
AcDbEntity
  8
図面枠
  6
CENTER
 62
   179
100
AcDbLine
 10
1045.7273375
 20
348.0920925
 30
0.0
 11
1026.6556525
 21
348.0920925
 31
0.0
  0
LINE
  5
2AC
330
1F
100
AcDbEntity
  8
図面枠
  6
CENTER
 62
   179
100
AcDbLine
 10
1076.3822875
 20
446.5920925
 30
0.0
 11
782.0479125
 21
446.5920925
 31
0.0
  0
LINE
  5
2AD
330
1F
100
AcDbEntity
  8
図面枠
  6
CENTER
 62
   179
100
AcDbLine
 10
928.0232375
 20
300.494345
 30
0.0
 11
928.0232375
 21
588.504105
 31
0.0
  0
LINE
  5
2AE
330
1F
100
AcDbEntity
  8
図面枠
  6
CONTINUOUS
 62
     1
100
AcDbLine
 10
1058.320135
 20
469.0920925
 30
0.0
 11
1056.82078
 21
469.0920925
 31
0.0
  0
LINE
  5
2AF
330
1F
100
AcDbEntity
  8
図面枠
  6
CONTINUOUS
 62
     1
100
AcDbLine
 10
797.834975
 20
484.0920925
 30
0.0
 11
798.8412375
 21
484.0920925
 31
0.0
  0
LINE
  5
2B0
330
1F
100
AcDbEntity
  8
図面枠
  6
CONTINUOUS
 62
     1
100
AcDbLine
 10
797.76505
 20
469.0920925
 30
0.0
 11
798.76131
 21
469.0920925
 31
0.0
  0
LINE
  5
2B1
330
1F
100
AcDbEntity
  8
図面枠
  6
CENTER
 62
   179
100
AcDbLine
 10
820.0232375
 20
337.810615
 30
0.0
 11
820.0232375
 21
357.60884
 31
0.0
  0
LINE
  5
2B2
330
1F
100
AcDbEntity
  8
図面枠
  6
CENTER
 62
   179
100
AcDbLine
 10
810.31914
 20
348.0920925
 30
0.0
 11
829.3908225
 21
348.0920925
 31
0.0
  0
LINE
  5
2B3
330
1F
100
AcDbEntity
  8
図面枠
  6
CONTINUOUS
 62
     3
100
AcDbLine
 10
777.9232375
 20
439.5920925
 30
0.0
 11
777.9232375
 21
422.5920925
 31
0.0
  0
LINE
  5
2B4
330
1F
100
AcDbEntity
  8
図面枠
  6
CONTINUOUS
 62
     3
100
AcDbLine
 10
777.9232375
 20
439.5920925
 30
0.0
 11
779.5232375
 21
439.5920925
 31
0.0
  0
LINE
  5
2B5
330
1F
100
AcDbEntity
  8
図面枠
  6
CONTINUOUS
 62
     3
100
AcDbLine
 10
777.9232375
 20
422.5920925
 30
0.0
 11
779.5232375
 21
422.5920925
 31
0.0
  0
LINE
  5
2B6
330
1F
100
AcDbEntity
  8
図面枠
  6
CONTINUOUS
 62
     3
100
AcDbLine
 10
777.9232375
 20
374.5920925
 30
0.0
 11
779.5232375
 21
374.5920925
 31
0.0
  0
LINE
  5
2B7
330
1F
100
AcDbEntity
  8
図面枠
  6
CONTINUOUS
 62
     3
100
AcDbLine
 10
777.9232375
 20
374.5920925
 30
0.0
 11
777.9232375
 21
357.5920925
 31
0.0
  0
LINE
  5
2B8
330
1F
100
AcDbEntity
  8
図面枠
  6
CONTINUOUS
 62
     3
100
AcDbLine
 10
777.9232375
 20
357.5920925
 30
0.0
 11
779.5232375
 21
357.5920925
 31
0.0
  0
LINE
  5
2B9
330
1F
100
AcDbEntity
  8
図面枠
  6
CONTINUOUS
 62
     3
100
AcDbLine
 10
1057.6067275
 20
456.8720925
 30
0.0
 11
1057.6067275
 21
466.3120925
 31
0.0
  0
LINE
  5
2BA
330
1F
100
AcDbEntity
  8
図面枠
  6
CONTINUOUS
 62
     3
100
AcDbLine
 10
1060.0067275
 20
458.8208125
 30
0.0
 11
1060.0067275
 21
464.363375
 31
0.0
  0
LINE
  5
2BB
330
1F
100
AcDbEntity
  8
図面枠
  6
CONTINUOUS
 62
     3
100
AcDbLine
 10
1057.6067275
 20
457.8970525
 30
0.0
 11
1057.6067275
 21
465.2871359456
 31
0.0
  0
LINE
  5
2BC
330
1F
100
AcDbEntity
  8
図面枠
  6
CONTINUOUS
 62
     3
100
AcDbLine
 10
1059.720915
 20
457.8970525
 30
0.0
 11
1057.6067275
 21
457.8970525
 31
0.0
  0
LINE
  5
2BD
330
1F
100
AcDbEntity
  8
図面枠
  6
CONTINUOUS
 62
     3
100
AcDbLine
 10
1059.720915
 20
459.7445733614
 30
0.0
 11
1057.6067275
 21
459.7445733614
 31
0.0
  0
LINE
  5
2BE
330
1F
100
AcDbEntity
  8
図面枠
  6
CONTINUOUS
 62
     3
100
AcDbLine
 10
1059.720915
 20
463.4396150842
 30
0.0
 11
1057.6067275
 21
463.4396150842
 31
0.0
  0
LINE
  5
2BF
330
1F
100
AcDbEntity
  8
図面枠
  6
CONTINUOUS
 62
     3
100
AcDbLine
 10
1059.720915
 20
465.2871359456
 30
0.0
 11
1057.6067275
 21
465.2871359456
 31
0.0
  0
LINE
  5
2C0
330
1F
100
AcDbEntity
  8
図面枠
  6
CONTINUOUS
 62
     3
100
AcDbLine
 10
1056.8067275
 20
466.3120925
 30
0.0
 11
1057.6067275
 21
466.3120925
 31
0.0
  0
LINE
  5
2C1
330
1F
100
AcDbEntity
  8
図面枠
  6
CONTINUOUS
 62
     3
100
AcDbLine
 10
1056.8067275
 20
456.8720925
 30
0.0
 11
1057.6067275
 21
456.8720925
 31
0.0
  0
LINE
  5
2C2
330
1F
100
AcDbEntity
  8
図面枠
  6
CONTINUOUS
 62
     3
100
AcDbLine
 10
799.2959525
 20
481.3120925
 30
0.0
 11
798.4959525
 21
481.3120925
 31
0.0
  0
LINE
  5
2C3
330
1F
100
AcDbEntity
  8
図面枠
  6
CONTINUOUS
 62
     3
100
AcDbLine
 10
796.3817642665
 20
480.2871349777
 30
0.0
 11
798.4959525
 21
480.2871349777
 31
0.0
  0
LINE
  5
2C4
330
1F
100
AcDbEntity
  8
図面枠
  6
CONTINUOUS
 62
     3
100
AcDbLine
 10
798.4959525
 20
472.8970525
 30
0.0
 11
798.4959525
 21
480.2871349777
 31
0.0
  0
LINE
  5
2C5
330
1F
100
AcDbEntity
  8
図面枠
  6
CONTINUOUS
 62
     3
100
AcDbLine
 10
798.4959525
 20
471.8720925
 30
0.0
 11
798.4959525
 21
481.3120925
 31
0.0
  0
LINE
  5
2C6
330
1F
100
AcDbEntity
  8
図面枠
  6
CONTINUOUS
 62
     3
100
AcDbLine
 10
796.3817642665
 20
478.4396141163
 30
0.0
 11
798.4959525
 21
478.439615
 31
0.0
  0
LINE
  5
2C7
330
1F
100
AcDbEntity
  8
図面枠
  6
CONTINUOUS
 62
     3
100
AcDbLine
 10
796.0959525
 20
473.8208125
 30
0.0
 11
796.0959525
 21
479.363375
 31
0.0
  0
LINE
  5
2C8
330
1F
100
AcDbEntity
  8
図面枠
  6
CONTINUOUS
 62
     3
100
AcDbLine
 10
796.3817642665
 20
474.7445723935
 30
0.0
 11
798.4959525
 21
474.7445725
 31
0.0
  0
LINE
  5
2C9
330
1F
100
AcDbEntity
  8
図面枠
  6
CONTINUOUS
 62
     3
100
AcDbLine
 10
799.2959525
 20
471.8720925
 30
0.0
 11
798.4959525
 21
471.8720925
 31
0.0
  0
LINE
  5
2CA
330
1F
100
AcDbEntity
  8
図面枠
  6
CONTINUOUS
 62
     3
100
AcDbLine
 10
796.3817642665
 20
472.897051532
 30
0.0
 11
798.4959525
 21
472.8970525
 31
0.0
  0
LINE
  5
2CB
330
1F
100
AcDbEntity
  8
図面枠
  6
CONTINUOUS
 62
     1
100
AcDbLine
 10
244.0457475757
 20
365.2616824069
 30
0.0
 11
253.6600000757
 21
365.2616824069
 31
0.0
  0
LINE
  5
2CC
330
1F
100
AcDbEntity
  8
図面枠
  6
CONTINUOUS
 62
     1
100
AcDbLine
 10
241.7376811595
 20
376.296532832
 30
0.0
 11
241.45823
 21
360.2616825
 31
0.0
  0
LINE
  5
2CD
330
1F
100
AcDbEntity
  8
図面枠
  6
CONTINUOUS
 62
     1
100
AcDbLine
 10
239.9981625
 20
363.066005
 30
0.0
 11
241.5071025
 21
363.066005
 31
0.0
  0
LINE
  5
2CE
330
1F
100
AcDbEntity
  8
図面枠
  6
CONTINUOUS
 62
     1
100
AcDbLine
 10
239.5365109149
 20
364.770815083
 30
0.0
 11
239.4579275
 21
360.2616825
 31
0.0
  0
LINE
  5
2CF
330
1F
100
AcDbEntity
  8
図面枠
  6
CENTER
 62
   179
100
AcDbLine
 10
476.95899
 20
302.2616825
 30
0.0
 11
476.95899
 21
280.6883925
 31
0.0
  0
LINE
  5
2D0
330
1F
100
AcDbEntity
  8
図面枠
  6
CENTER
 62
   179
100
AcDbLine
 10
260.95899
 20
302.2616825
 30
0.0
 11
260.95899
 21
280.6883925
 31
0.0
  0
LINE
  5
2D1
330
1F
100
AcDbEntity
  8
図面枠
  6
CONTINUOUS
 62
     1
100
AcDbLine
 10
496.1802975
 20
376.296535
 30
0.0
 11
496.4597475
 21
360.2616825
 31
0.0
  0
LINE
  5
2D2
330
1F
100
AcDbEntity
  8
図面枠
  6
CONTINUOUS
 62
     1
100
AcDbLine
 10
240.036435
 20
365.2616825
 30
0.0
 11
241.54537
 21
365.2616825
 31
0.0
  0
LINE
  5
2D3
330
1F
100
AcDbEntity
  8
図面枠
  6
CONTINUOUS
 62
     1
100
AcDbLine
 10
354.2579800079
 20
365.2616824309
 30
0.0
 11
378.6600000079
 21
365.2616824309
 31
0.0
  0
LINE
  5
2D4
330
1F
100
AcDbEntity
  8
図面枠
  6
CONTINUOUS
 62
     1
100
AcDbLine
 10
263.8688261041
 20
370.7954917616
 30
0.0
 11
281.9016130293
 21
385.7894438139
 31
0.0
  0
LINE
  5
2D5
330
1F
100
AcDbEntity
  8
図面枠
  6
CONTINUOUS
 62
     1
100
AcDbLine
 10
344.0491539115
 20
370.7954917616
 30
0.0
 11
326.0163669863
 21
385.7894438139
 31
0.0
  0
LINE
  5
2D6
330
1F
100
AcDbEntity
  8
図面枠
  6
CONTINUOUS
 62
     1
100
AcDbLine
 10
388.8688260479
 20
370.7954917816
 30
0.0
 11
406.901612973
 21
385.7894438339
 31
0.0
  0
LINE
  5
2D7
330
1F
100
AcDbEntity
  8
図面枠
  6
CONTINUOUS
 62
     1
100
AcDbLine
 10
469.0491524516
 20
370.7954925106
 30
0.0
 11
451.0163669301
 21
385.7894438339
 31
0.0
  0
LINE
  5
2D8
330
1F
100
AcDbEntity
  8
図面枠
  6
CONTINUOUS
 62
     1
100
AcDbLine
 10
479.2579813853
 20
365.2616828663
 30
0.0
 11
493.8722313853
 21
365.2616828663
 31
0.0
  0
LINE
  5
2D9
330
1F
100
AcDbEntity
  8
図面枠
  6
CONTINUOUS
 62
     1
100
AcDbLine
 10
385.6721047466
 20
374.6400948719
 30
0.0
 11
403.7048899516
 21
389.6340475106
 31
0.0
  0
LINE
  5
2DA
330
1F
100
AcDbEntity
  8
図面枠
  6
CONTINUOUS
 62
     1
100
AcDbLine
 10
472.245875943
 20
374.6400962029
 30
0.0
 11
454.2130892228
 21
389.6340481166
 31
0.0
  0
LINE
  5
2DB
330
1F
100
AcDbEntity
  8
図面枠
  6
CONTINUOUS
 62
     1
100
AcDbLine
 10
347.245875251
 20
374.640094898
 30
0.0
 11
329.2130875461
 21
389.6340475367
 31
0.0
  0
LINE
  5
2DC
330
1F
100
AcDbEntity
  8
図面枠
  6
CONTINUOUS
 62
     1
100
AcDbLine
 10
260.672105
 20
374.640095
 30
0.0
 11
278.7048917202
 21
389.6340469137
 31
0.0
  0
LINE
  5
2DD
330
1F
100
AcDbEntity
  8
図面枠
  6
CONTINUOUS
 62
     1
100
AcDbLine
 10
490.28641
 20
571.01445
 30
0.0
 11
493.95937
 21
360.2616825
 31
0.0
  0
LINE
  5
2DE
330
1F
100
AcDbEntity
  8
図面枠
  6
CONTINUOUS
 62
     1
100
AcDbLine
 10
509.4195875
 20
377.2616825
 30
0.0
 11
509.22348
 21
388.5143475
 31
0.0
  0
LINE
  5
2DF
330
1F
100
AcDbEntity
  8
図面枠
  6
CONTINUOUS
 62
     1
100
AcDbLine
 10
247.6315686689
 20
571.0144512348
 30
0.0
 11
243.95861
 21
360.2616825
 31
0.0
  0
LINE
  5
2E0
330
1F
100
AcDbEntity
  8
図面枠
  6
CONTINUOUS
 62
     1
100
AcDbLine
 10
495.163325
 20
378.2616825
 30
0.0
 11
495.1284675
 21
378.2616825
 31
0.0
  0
LINE
  5
2E1
330
1F
100
AcDbEntity
  8
図面枠
  6
CONTINUOUS
 62
     1
100
AcDbLine
 10
496.3726025
 20
365.2621025
 30
0.0
 11
497.881545
 21
365.2621025
 31
0.0
  0
LINE
  5
2E2
330
1F
100
AcDbEntity
  8
図面枠
  6
CONTINUOUS
 62
     1
100
AcDbLine
 10
497.9198175
 20
363.066005
 30
0.0
 11
496.410875
 21
363.066005
 31
0.0
  0
LINE
  5
2E3
330
1F
100
AcDbEntity
  8
図面枠
  6
CONTINUOUS
 62
     1
100
AcDbLine
 10
498.381468293
 20
364.770815807
 30
0.0
 11
498.460053293
 21
360.261683307
 31
0.0
  0
LINE
  5
2E4
330
1F
100
AcDbEntity
  8
図面枠
  6
CONTINUOUS
 62
     1
100
AcDbLine
 10
500.8803656623
 20
302.2616818261
 30
0.0
 11
237.0376131623
 21
302.2616818261
 31
0.0
  0
LINE
  5
2E5
330
1F
100
AcDbEntity
  8
図面枠
  6
CONTINUOUS
 62
     3
100
AcDbLine
 10
274.45899
 20
379.6010325
 30
0.0
 11
274.45899
 21
375.5459775
 31
0.0
  0
LINE
  5
2E6
330
1F
100
AcDbEntity
  8
図面枠
  6
CONTINUOUS
 62
     3
100
AcDbLine
 10
469.205785
 20
366.2616825
 30
0.0
 11
472.7254875
 21
366.2616825
 31
0.0
  0
LINE
  5
2E7
330
1F
100
AcDbEntity
  8
図面枠
  6
CONTINUOUS
 62
     3
100
AcDbLine
 10
463.724235
 20
371.2616825
 30
0.0
 11
468.48848
 21
371.2616825
 31
0.0
  0
LINE
  5
2E8
330
1F
100
AcDbEntity
  8
図面枠
  6
CONTINUOUS
 62
     3
100
AcDbLine
 10
471.211765
 20
368.5822125
 30
0.0
 11
471.2117660774
 21
366.8422400325
 31
0.0
  0
LINE
  5
2E9
330
1F
100
AcDbEntity
  8
図面枠
  6
CONTINUOUS
 62
     1
100
AcDbLine
 10
484.8455325
 20
292.2616825
 30
0.0
 11
484.9328075
 21
297.2616825
 31
0.0
  0
LINE
  5
2EA
330
1F
100
AcDbEntity
  8
図面枠
  6
CONTINUOUS
 62
     3
100
AcDbLine
 10
469.0724475
 20
292.2616825
 30
0.0
 11
484.9328075
 21
292.2616825
 31
0.0
  0
LINE
  5
2EB
330
1F
100
AcDbEntity
  8
図面枠
  6
CONTINUOUS
 62
     1
100
AcDbLine
 10
469.0724475
 20
292.2616825
 30
0.0
 11
468.9851725
 21
297.2616825
 31
0.0
  0
LINE
  5
2EC
330
1F
100
AcDbEntity
  8
図面枠
  6
CONTINUOUS
 62
     3
100
AcDbLine
 10
463.45899
 20
375.4436175
 30
0.0
 11
463.45899
 21
371.47751
 31
0.0
  0
LINE
  5
2ED
330
1F
100
AcDbEntity
  8
図面枠
  6
CONTINUOUS
 62
   179
100
AcDbLine
 10
463.95899
 20
375.0278775
 30
0.0
 11
463.95899
 21
371.2616825
 31
0.0
  0
LINE
  5
2EE
330
1F
100
AcDbEntity
  8
図面枠
  6
CONTINUOUS
 62
   179
100
AcDbLine
 10
273.95899
 20
379.18529
 30
0.0
 11
273.95899
 21
375.139135
 31
0.0
  0
LINE
  5
2EF
330
1F
100
AcDbEntity
  8
図面枠
  6
CONTINUOUS
 62
     3
100
AcDbLine
 10
253.0724475
 20
292.2616825
 30
0.0
 11
268.9328075
 21
292.2616825
 31
0.0
  0
LINE
  5
2F0
330
1F
100
AcDbEntity
  8
図面枠
  6
CONTINUOUS
 62
     1
100
AcDbLine
 10
268.8455325
 20
292.2616825
 30
0.0
 11
268.9328075
 21
297.2616825
 31
0.0
  0
LINE
  5
2F1
330
1F
100
AcDbEntity
  8
図面枠
  6
CONTINUOUS
 62
     1
100
AcDbLine
 10
253.0724475
 20
292.2616825
 30
0.0
 11
252.9851725
 21
297.2616825
 31
0.0
  0
LINE
  5
2F2
330
1F
100
AcDbEntity
  8
図面枠
  6
CONTINUOUS
 62
     3
100
AcDbLine
 10
212.9396374641
 20
351.7561302082
 30
0.0
 11
218.85908
 21
351.75613
 31
0.0
  0
LINE
  5
2F3
330
1F
100
AcDbEntity
  8
図面枠
  6
CONTINUOUS
 62
     3
100
AcDbLine
 10
212.9396374641
 20
366.7672372071
 30
0.0
 11
218.85908
 21
366.7672375
 31
0.0
  0
LINE
  5
2F4
330
1F
100
AcDbEntity
  8
図面枠
  6
CONTINUOUS
 62
     3
100
AcDbLine
 10
218.85908
 20
351.75613
 30
0.0
 11
218.85908
 21
366.7672375
 31
0.0
  0
LINE
  5
2F5
330
1F
100
AcDbEntity
  8
図面枠
  6
CONTINUOUS
 62
     3
100
AcDbLine
 10
212.35908
 20
353.6325175
 30
0.0
 11
212.35908
 21
364.89085
 31
0.0
  0
LINE
  5
2F6
330
1F
100
AcDbEntity
  8
図面枠
  6
CONTINUOUS
 62
     3
100
AcDbLine
 10
212.9396374641
 20
355.5089069579
 30
0.0
 11
218.85908
 21
355.5089075
 31
0.0
  0
LINE
  5
2F7
330
1F
100
AcDbEntity
  8
図面枠
  6
CONTINUOUS
 62
     3
100
AcDbLine
 10
212.9396374641
 20
363.0144604574
 30
0.0
 11
218.85908
 21
363.01446
 31
0.0
  0
LINE
  5
2F8
330
1F
100
AcDbEntity
  8
図面枠
  6
CENTER
 62
   179
100
AcDbLine
 10
522.8266625
 20
359.2616825
 30
0.0
 11
496.8819775
 21
359.2616825
 31
0.0
  0
LINE
  5
2F9
330
1F
100
AcDbEntity
  8
図面枠
  6
CONTINUOUS
 62
     3
100
AcDbLine
 10
509.3784327441
 20
366.7672372071
 30
0.0
 11
503.45899
 21
366.7672375
 31
0.0
  0
LINE
  5
2FA
330
1F
100
AcDbEntity
  8
図面枠
  6
CONTINUOUS
 62
     3
100
AcDbLine
 10
509.3784327441
 20
351.7561302082
 30
0.0
 11
503.45899
 21
351.75613
 31
0.0
  0
LINE
  5
2FB
330
1F
100
AcDbEntity
  8
図面枠
  6
CONTINUOUS
 62
     3
100
AcDbLine
 10
503.45899
 20
366.7672375
 30
0.0
 11
503.45899
 21
351.75613
 31
0.0
  0
LINE
  5
2FC
330
1F
100
AcDbEntity
  8
図面枠
  6
CONTINUOUS
 62
     3
100
AcDbLine
 10
509.95899
 20
364.89085
 30
0.0
 11
509.95899
 21
353.6325175
 31
0.0
  0
LINE
  5
2FD
330
1F
100
AcDbEntity
  8
図面枠
  6
CONTINUOUS
 62
     3
100
AcDbLine
 10
509.3784327441
 20
363.0144604574
 30
0.0
 11
503.45899
 21
363.01446
 31
0.0
  0
LINE
  5
2FE
330
1F
100
AcDbEntity
  8
図面枠
  6
CONTINUOUS
 62
     3
100
AcDbLine
 10
509.3784327441
 20
355.5089069579
 30
0.0
 11
503.45899
 21
355.5089075
 31
0.0
  0
LINE
  5
2FF
330
1F
100
AcDbEntity
  8
図面枠
  6
CONTINUOUS
 62
     1
100
AcDbLine
 10
346.41725
 20
360.2616825
 30
0.0
 11
386.5007275
 21
360.2616825
 31
0.0
  0
LINE
  5
300
330
1F
100
AcDbEntity
  8
図面枠
  6
CONTINUOUS
 62
     1
100
AcDbLine
 10
471.41725
 20
360.2616825
 30
0.0
 11
499.45899
 21
360.2616825
 31
0.0
  0
LINE
  5
301
330
1F
100
AcDbEntity
  8
図面枠
  6
CONTINUOUS
 62
     1
100
AcDbLine
 10
295.2089375
 20
389.2616675
 30
0.0
 11
286.9222375
 21
389.2616675
 31
0.0
  0
LINE
  5
302
330
1F
100
AcDbEntity
  8
図面枠
  6
CONTINUOUS
 62
     1
100
AcDbLine
 10
276.1876375
 20
381.0383725
 30
0.0
 11
276.11529
 21
376.8936925
 31
0.0
  0
LINE
  5
303
330
1F
100
AcDbEntity
  8
図面枠
  6
CONTINUOUS
 62
     1
100
AcDbLine
 10
261.5007275
 20
360.2616825
 30
0.0
 11
239.45899
 21
360.2616825
 31
0.0
  0
LINE
  5
304
330
1F
100
AcDbEntity
  8
図面枠
  6
CENTER
 62
   179
100
AcDbLine
 10
368.95899
 20
280.99916
 30
0.0
 11
368.95899
 21
606.2196525
 31
0.0
  0
LINE
  5
305
330
1F
100
AcDbEntity
  8
図面枠
  6
CENTER
 62
   179
100
AcDbLine
 10
271.45899
 20
368.161345
 30
0.0
 11
271.45899
 21
349.91689
 31
0.0
  0
LINE
  5
306
330
1F
100
AcDbEntity
  8
図面枠
  6
CONTINUOUS
 62
     3
100
AcDbLine
 10
264.95899
 20
363.01446
 30
0.0
 11
264.95899
 21
355.5089075
 31
0.0
  0
LINE
  5
307
330
1F
100
AcDbEntity
  8
図面枠
  6
CONTINUOUS
 62
     3
100
AcDbLine
 10
277.95899
 20
363.01446
 30
0.0
 11
277.95899
 21
355.5089075
 31
0.0
  0
LINE
  5
308
330
1F
100
AcDbEntity
  8
図面枠
  6
CONTINUOUS
 62
     3
100
AcDbLine
 10
264.95899
 20
363.01446
 30
0.0
 11
271.45899
 21
366.7672375
 31
0.0
  0
LINE
  5
309
330
1F
100
AcDbEntity
  8
図面枠
  6
CONTINUOUS
 62
     3
100
AcDbLine
 10
271.45899
 20
366.7672375
 30
0.0
 11
277.95899
 21
363.01446
 31
0.0
  0
LINE
  5
30A
330
1F
100
AcDbEntity
  8
図面枠
  6
CONTINUOUS
 62
     3
100
AcDbLine
 10
277.95899
 20
355.5089075
 30
0.0
 11
271.45899
 21
351.75613
 31
0.0
  0
LINE
  5
30B
330
1F
100
AcDbEntity
  8
図面枠
  6
CONTINUOUS
 62
     3
100
AcDbLine
 10
271.45899
 20
351.75613
 30
0.0
 11
264.95899
 21
355.5089075
 31
0.0
  0
LINE
  5
30C
330
1F
100
AcDbEntity
  8
図面枠
  6
CENTER
 62
   179
100
AcDbLine
 10
336.45899
 20
368.161345
 30
0.0
 11
336.45899
 21
349.91689
 31
0.0
  0
LINE
  5
30D
330
1F
100
AcDbEntity
  8
図面枠
  6
CONTINUOUS
 62
     3
100
AcDbLine
 10
329.95899
 20
363.01446
 30
0.0
 11
329.95899
 21
355.5089075
 31
0.0
  0
LINE
  5
30E
330
1F
100
AcDbEntity
  8
図面枠
  6
CONTINUOUS
 62
     3
100
AcDbLine
 10
342.95899
 20
363.01446
 30
0.0
 11
342.95899
 21
355.5089075
 31
0.0
  0
LINE
  5
30F
330
1F
100
AcDbEntity
  8
図面枠
  6
CONTINUOUS
 62
     3
100
AcDbLine
 10
329.95899
 20
363.01446
 30
0.0
 11
336.45899
 21
366.7672375
 31
0.0
  0
LINE
  5
310
330
1F
100
AcDbEntity
  8
図面枠
  6
CONTINUOUS
 62
     3
100
AcDbLine
 10
336.45899
 20
366.7672375
 30
0.0
 11
342.95899
 21
363.01446
 31
0.0
  0
LINE
  5
311
330
1F
100
AcDbEntity
  8
図面枠
  6
CONTINUOUS
 62
     3
100
AcDbLine
 10
342.95899
 20
355.5089075
 30
0.0
 11
336.45899
 21
351.75613
 31
0.0
  0
LINE
  5
312
330
1F
100
AcDbEntity
  8
図面枠
  6
CONTINUOUS
 62
     3
100
AcDbLine
 10
336.45899
 20
351.75613
 30
0.0
 11
329.95899
 21
355.5089075
 31
0.0
  0
LINE
  5
313
330
1F
100
AcDbEntity
  8
図面枠
  6
CENTER
 62
   179
100
AcDbLine
 10
262.8559925
 20
359.2616825
 30
0.0
 11
345.76139
 21
359.2616825
 31
0.0
  0
LINE
  5
314
330
1F
100
AcDbEntity
  8
図面枠
  6
CENTER
 62
   179
100
AcDbLine
 10
461.45899
 20
368.161345
 30
0.0
 11
461.45899
 21
349.91689
 31
0.0
  0
LINE
  5
315
330
1F
100
AcDbEntity
  8
図面枠
  6
CONTINUOUS
 62
     3
100
AcDbLine
 10
454.95899
 20
363.01446
 30
0.0
 11
454.95899
 21
355.5089075
 31
0.0
  0
LINE
  5
316
330
1F
100
AcDbEntity
  8
図面枠
  6
CONTINUOUS
 62
     3
100
AcDbLine
 10
467.95899
 20
363.01446
 30
0.0
 11
467.95899
 21
355.5089075
 31
0.0
  0
LINE
  5
317
330
1F
100
AcDbEntity
  8
図面枠
  6
CONTINUOUS
 62
     3
100
AcDbLine
 10
454.95899
 20
363.01446
 30
0.0
 11
461.45899
 21
366.7672375
 31
0.0
  0
LINE
  5
318
330
1F
100
AcDbEntity
  8
図面枠
  6
CONTINUOUS
 62
     3
100
AcDbLine
 10
461.45899
 20
366.7672375
 30
0.0
 11
467.95899
 21
363.01446
 31
0.0
  0
LINE
  5
319
330
1F
100
AcDbEntity
  8
図面枠
  6
CONTINUOUS
 62
     3
100
AcDbLine
 10
467.95899
 20
355.5089075
 30
0.0
 11
461.45899
 21
351.75613
 31
0.0
  0
LINE
  5
31A
330
1F
100
AcDbEntity
  8
図面枠
  6
CONTINUOUS
 62
     3
100
AcDbLine
 10
461.45899
 20
351.75613
 30
0.0
 11
454.95899
 21
355.5089075
 31
0.0
  0
LINE
  5
31B
330
1F
100
AcDbEntity
  8
図面枠
  6
CENTER
 62
   179
100
AcDbLine
 10
387.957115
 20
359.2616825
 30
0.0
 11
470.76139
 21
359.2616825
 31
0.0
  0
LINE
  5
31C
330
1F
100
AcDbEntity
  8
図面枠
  6
CENTER
 62
   179
100
AcDbLine
 10
396.45899
 20
368.161345
 30
0.0
 11
396.45899
 21
349.91689
 31
0.0
  0
LINE
  5
31D
330
1F
100
AcDbEntity
  8
図面枠
  6
CONTINUOUS
 62
     3
100
AcDbLine
 10
389.95899
 20
363.01446
 30
0.0
 11
389.95899
 21
355.5089075
 31
0.0
  0
LINE
  5
31E
330
1F
100
AcDbEntity
  8
図面枠
  6
CONTINUOUS
 62
     3
100
AcDbLine
 10
402.95899
 20
363.01446
 30
0.0
 11
402.95899
 21
355.5089075
 31
0.0
  0
LINE
  5
31F
330
1F
100
AcDbEntity
  8
図面枠
  6
CONTINUOUS
 62
     3
100
AcDbLine
 10
389.95899
 20
363.01446
 30
0.0
 11
396.45899
 21
366.7672375
 31
0.0
  0
LINE
  5
320
330
1F
100
AcDbEntity
  8
図面枠
  6
CONTINUOUS
 62
     3
100
AcDbLine
 10
396.45899
 20
366.7672375
 30
0.0
 11
402.95899
 21
363.01446
 31
0.0
  0
LINE
  5
321
330
1F
100
AcDbEntity
  8
図面枠
  6
CONTINUOUS
 62
     3
100
AcDbLine
 10
402.95899
 20
355.5089075
 30
0.0
 11
396.45899
 21
351.75613
 31
0.0
  0
LINE
  5
322
330
1F
100
AcDbEntity
  8
図面枠
  6
CONTINUOUS
 62
     3
100
AcDbLine
 10
396.45899
 20
351.75613
 30
0.0
 11
389.95899
 21
355.5089075
 31
0.0
  0
LINE
  5
323
330
1F
100
AcDbEntity
  8
図面枠
  6
CENTER
 62
   179
100
AcDbLine
 10
461.45899
 20
366.7616825
 30
0.0
 11
461.45899
 21
351.7616825
 31
0.0
  0
LINE
  5
324
330
1F
100
AcDbEntity
  8
図面枠
  6
CENTER
 62
   179
100
AcDbLine
 10
396.45899
 20
366.7616825
 30
0.0
 11
396.45899
 21
351.7616825
 31
0.0
  0
LINE
  5
325
330
1F
100
AcDbEntity
  8
図面枠
  6
CONTINUOUS
 62
     1
100
AcDbLine
 10
448.6823075
 20
335.0221825
 30
0.0
 11
467.0327175
 21
349.95369
 31
0.0
  0
LINE
  5
326
330
1F
100
AcDbEntity
  8
図面枠
  6
CONTINUOUS
 62
     1
100
AcDbLine
 10
467.0327325
 20
368.5696
 30
0.0
 11
448.6823525
 21
383.5010775
 31
0.0
  0
LINE
  5
327
330
1F
100
AcDbEntity
  8
図面枠
  6
CONTINUOUS
 62
     1
100
AcDbLine
 10
390.8852475
 20
349.9537025
 30
0.0
 11
409.2356575
 21
335.022195
 31
0.0
  0
LINE
  5
328
330
1F
100
AcDbEntity
  8
図面枠
  6
CONTINUOUS
 62
     1
100
AcDbLine
 10
409.235615
 20
383.501105
 30
0.0
 11
390.8852325
 21
368.569615
 31
0.0
  0
LINE
  5
329
330
1F
100
AcDbEntity
  8
図面枠
  6
CENTER
 62
   179
100
AcDbLine
 10
428.95899
 20
392.9929925
 30
0.0
 11
428.95899
 21
325.8417475
 31
0.0
  0
LINE
  5
32A
330
1F
100
AcDbEntity
  8
図面枠
  6
CENTER
 62
   179
100
AcDbLine
 10
336.45899
 20
366.7616825
 30
0.0
 11
336.45899
 21
351.7616825
 31
0.0
  0
LINE
  5
32B
330
1F
100
AcDbEntity
  8
図面枠
  6
CENTER
 62
   179
100
AcDbLine
 10
271.45899
 20
366.7616825
 30
0.0
 11
271.45899
 21
351.7616825
 31
0.0
  0
LINE
  5
32C
330
1F
100
AcDbEntity
  8
図面枠
  6
CONTINUOUS
 62
     1
100
AcDbLine
 10
323.6823075
 20
335.0221825
 30
0.0
 11
342.0327175
 21
349.95369
 31
0.0
  0
LINE
  5
32D
330
1F
100
AcDbEntity
  8
図面枠
  6
CONTINUOUS
 62
     1
100
AcDbLine
 10
342.0327325
 20
368.5696
 30
0.0
 11
323.6823525
 21
383.5010775
 31
0.0
  0
LINE
  5
32E
330
1F
100
AcDbEntity
  8
図面枠
  6
CONTINUOUS
 62
     1
100
AcDbLine
 10
265.8852475
 20
349.9537025
 30
0.0
 11
284.2356575
 21
335.022195
 31
0.0
  0
LINE
  5
32F
330
1F
100
AcDbEntity
  8
図面枠
  6
CONTINUOUS
 62
     1
100
AcDbLine
 10
284.235615
 20
383.501105
 30
0.0
 11
265.8852325
 21
368.569615
 31
0.0
  0
LINE
  5
330
330
1F
100
AcDbEntity
  8
図面枠
  6
CENTER
 62
   179
100
AcDbLine
 10
303.95899
 20
392.9929925
 30
0.0
 11
303.95899
 21
325.8417475
 31
0.0
  0
LINE
  5
331
330
1F
100
AcDbEntity
  8
図面枠
  6
CONTINUOUS
 62
     1
100
AcDbLine
 10
460.28311
 20
374.0616825
 30
0.0
 11
463.45899
 21
374.0616825
 31
0.0
  0
LINE
  5
332
330
1F
100
AcDbEntity
  8
図面枠
  6
CONTINUOUS
 62
     1
100
AcDbLine
 10
327.01027
 20
380.793195
 30
0.0
 11
326.95899
 21
382.2616675
 31
0.0
  0
LINE
  5
333
330
1F
100
AcDbEntity
  8
図面枠
  6
CONTINUOUS
 62
     1
100
AcDbLine
 10
335.6618775
 20
373.7534875
 30
0.0
 11
335.7981575
 21
377.6560525
 31
0.0
  0
LINE
  5
334
330
1F
100
AcDbEntity
  8
図面枠
  6
CONTINUOUS
 62
     1
100
AcDbLine
 10
499.45899
 20
326.7616825
 30
0.0
 11
499.45899
 21
390.7616825
 31
0.0
  0
LINE
  5
335
330
1F
100
AcDbEntity
  8
図面枠
  6
CONTINUOUS
 62
     1
100
AcDbLine
 10
501.38029
 20
301.77041
 30
0.0
 11
501.45899
 21
297.2616825
 31
0.0
  0
LINE
  5
336
330
1F
100
AcDbEntity
  8
図面枠
  6
CONTINUOUS
 62
     1
100
AcDbLine
 10
499.6141625
 20
326.7616825
 30
0.0
 11
500.429275
 21
303.1234125
 31
0.0
  0
LINE
  5
337
330
1F
100
AcDbEntity
  8
図面枠
  6
CONTINUOUS
 62
     1
100
AcDbLine
 10
236.53769
 20
301.77041
 30
0.0
 11
236.45899
 21
297.2616825
 31
0.0
  0
LINE
  5
338
330
1F
100
AcDbEntity
  8
図面枠
  6
CONTINUOUS
 62
     1
100
AcDbLine
 10
239.45899
 20
360.2616825
 30
0.0
 11
237.488705
 21
303.1234125
 31
0.0
  0
LINE
  5
339
330
1F
100
AcDbEntity
  8
図面枠
  6
CONTINUOUS
 62
     1
100
AcDbLine
 10
493.42782
 20
390.7616825
 30
0.0
 11
499.45899
 21
390.7616825
 31
0.0
  0
LINE
  5
33A
330
1F
100
AcDbEntity
  8
図面枠
  6
CONTINUOUS
 62
     1
100
AcDbLine
 10
499.45899
 20
326.7616825
 30
0.0
 11
499.6141625
 21
326.7616825
 31
0.0
  0
LINE
  5
33B
330
1F
100
AcDbEntity
  8
図面枠
  6
CONTINUOUS
 62
     1
100
AcDbLine
 10
237.45899
 20
390.7616825
 30
0.0
 11
244.4901575
 21
390.7616825
 31
0.0
  0
LINE
  5
33C
330
1F
100
AcDbEntity
  8
図面枠
  6
CONTINUOUS
 62
     1
100
AcDbLine
 10
237.45899
 20
327.7616825
 30
0.0
 11
237.82076
 21
327.7616825
 31
0.0
  0
LINE
  5
33D
330
1F
100
AcDbEntity
  8
図面枠
  6
CONTINUOUS
 62
     1
100
AcDbLine
 10
325.205555
 20
382.2616675
 30
0.0
 11
326.95899
 21
382.2616675
 31
0.0
  0
LINE
  5
33E
330
1F
100
AcDbEntity
  8
図面枠
  6
CONTINUOUS
 62
     1
100
AcDbLine
 10
225.45899
 20
327.761745
 30
0.0
 11
237.45899
 21
327.761745
 31
0.0
  0
LINE
  5
33F
330
1F
100
AcDbEntity
  8
図面枠
  6
CONTINUOUS
 62
     1
100
AcDbLine
 10
502.4589906283
 20
390.5116825
 30
0.0
 11
499.45899
 21
390.5116825
 31
0.0
  0
LINE
  5
340
330
1F
100
AcDbEntity
  8
図面枠
  6
CONTINUOUS
 62
     1
100
AcDbLine
 10
499.45899
 20
390.5116825
 30
0.0
 11
499.45899
 21
328.0116825
 31
0.0
  0
LINE
  5
341
330
1F
100
AcDbEntity
  8
図面枠
  6
CONTINUOUS
 62
     1
100
AcDbLine
 10
503.45899
 20
389.5116821858
 30
0.0
 11
503.45899
 21
329.0116825
 31
0.0
  0
LINE
  5
342
330
1F
100
AcDbEntity
  8
図面枠
  6
CONTINUOUS
 62
     1
100
AcDbLine
 10
519.45899
 20
377.2616825
 30
0.0
 11
505.45899
 21
377.2616825
 31
0.0
  0
LINE
  5
343
330
1F
100
AcDbEntity
  8
図面枠
  6
CONTINUOUS
 62
     1
100
AcDbLine
 10
520.45899
 20
376.2616825
 30
0.0
 11
520.45899
 21
342.2616825
 31
0.0
  0
LINE
  5
344
330
1F
100
AcDbEntity
  8
図面枠
  6
CONTINUOUS
 62
     1
100
AcDbLine
 10
519.45899
 20
341.2616825
 30
0.0
 11
505.45899
 21
341.2616825
 31
0.0
  0
LINE
  5
345
330
1F
100
AcDbEntity
  8
図面枠
  6
CONTINUOUS
 62
     1
100
AcDbLine
 10
499.45899
 20
328.0116825
 30
0.0
 11
502.4589906283
 21
328.0116825
 31
0.0
  0
LINE
  5
346
330
1F
100
AcDbEntity
  8
図面枠
  6
CONTINUOUS
 62
     3
100
AcDbLine
 10
456.1688475
 20
377.40941
 30
0.0
 11
461.0947875
 21
377.40941
 31
0.0
  0
LINE
  5
347
330
1F
100
AcDbEntity
  8
図面枠
  6
CONTINUOUS
 62
     3
100
AcDbLine
 10
461.51299
 20
377.0616825
 30
0.0
 11
456.5961925
 21
377.0616825
 31
0.0
  0
LINE
  5
348
330
1F
100
AcDbEntity
  8
図面枠
  6
CONTINUOUS
 62
     3
100
AcDbLine
 10
330.25912
 20
382.2616675
 30
0.0
 11
325.205555
 21
382.2616675
 31
0.0
  0
LINE
  5
349
330
1F
100
AcDbEntity
  8
図面枠
  6
CONTINUOUS
 62
     1
100
AcDbLine
 10
282.7123825
 20
382.2616675
 30
0.0
 11
277.65886
 21
382.2616675
 31
0.0
  0
LINE
  5
34A
330
1F
100
AcDbEntity
  8
図面枠
  6
CONTINUOUS
 62
     1
100
AcDbLine
 10
320.99574
 20
389.2616675
 30
0.0
 11
312.7090425
 21
389.2616675
 31
0.0
  0
LINE
  5
34B
330
1F
100
AcDbEntity
  8
図面枠
  6
CONTINUOUS
 62
     3
100
AcDbLine
 10
414.95899
 20
390.7616825
 30
0.0
 11
415.459005
 21
390.7616825
 31
0.0
  0
LINE
  5
34C
330
1F
100
AcDbEntity
  8
図面枠
  6
CONTINUOUS
 62
     1
100
AcDbLine
 10
501.45899
 20
297.2616825
 30
0.0
 11
236.45899
 21
297.2616825
 31
0.0
  0
LINE
  5
34D
330
1F
100
AcDbEntity
  8
図面枠
  6
CONTINUOUS
 62
     3
100
AcDbLine
 10
393.95899
 20
371.0706925
 30
0.0
 11
393.95899
 21
374.5616675
 31
0.0
  0
LINE
  5
34E
330
1F
100
AcDbEntity
  8
図面枠
  6
CONTINUOUS
 62
     3
100
AcDbLine
 10
218.85908
 20
350.7616825
 30
0.0
 11
220.45908
 21
350.7616825
 31
0.0
  0
LINE
  5
34F
330
1F
100
AcDbEntity
  8
図面枠
  6
CONTINUOUS
 62
     3
100
AcDbLine
 10
218.85908
 20
367.7616825
 30
0.0
 11
218.85908
 21
350.7616825
 31
0.0
  0
LINE
  5
350
330
1F
100
AcDbEntity
  8
図面枠
  6
CONTINUOUS
 62
     3
100
AcDbLine
 10
218.85908
 20
367.7616825
 30
0.0
 11
220.45908
 21
367.7616825
 31
0.0
  0
LINE
  5
351
330
1F
100
AcDbEntity
  8
ケ_シングCV
  6
CONTINUOUS
 62
     3
100
AcDbLine
 10
779.5232375
 20
440.0920925
 30
0.0
 11
779.5232375
 21
398.5920925
 31
0.0
  0
LINE
  5
352
330
1F
100
AcDbEntity
  8
ケ_シングCV
  6
CONTINUOUS
 62
     1
100
AcDbLine
 10
796.5232375
 20
402.5921075
 30
0.0
 11
796.5232375
 21
394.592125
 31
0.0
  0
LINE
  5
353
330
1F
100
AcDbEntity
  8
ケ_シングCV
  6
CONTINUOUS
 62
     1
100
AcDbLine
 10
788.5232375
 20
401.5921075
 30
0.0
 11
788.5232375
 21
395.592125
 31
0.0
  0
LINE
  5
354
330
1F
100
AcDbEntity
  8
ケ_シングCV
  6
CONTINUOUS
 62
     1
100
AcDbLine
 10
796.5232375
 20
402.5921075
 30
0.0
 11
789.5232375
 21
402.5921075
 31
0.0
  0
LINE
  5
355
330
1F
100
AcDbEntity
  8
ケ_シングCV
  6
CONTINUOUS
 62
     1
100
AcDbLine
 10
796.5232375
 20
394.592125
 30
0.0
 11
789.5232375
 21
394.592125
 31
0.0
  0
LINE
  5
356
330
1F
100
AcDbEntity
  8
ケ_シングCV
  6
CONTINUOUS
 62
     3
100
AcDbLine
 10
796.5232375
 20
441.0920925
 30
0.0
 11
796.5232375
 21
356.0920925
 31
0.0
  0
LINE
  5
357
330
1F
100
AcDbEntity
  8
ケ_シングCV
  6
CONTINUOUS
 62
     3
100
AcDbLine
 10
780.5232375
 20
356.0920925
 30
0.0
 11
796.5232375
 21
356.0920925
 31
0.0
  0
LINE
  5
358
330
1F
100
AcDbEntity
  8
ケ_シングCV
  6
CONTINUOUS
 62
     3
100
AcDbLine
 10
765.5232375
 20
414.5920925
 30
0.0
 11
765.5232375
 21
382.5920925
 31
0.0
  0
LINE
  5
359
330
1F
100
AcDbEntity
  8
ケ_シングCV
  6
CONTINUOUS
 62
     3
100
AcDbLine
 10
767.5232375
 20
380.5920925
 30
0.0
 11
777.5232375
 21
380.5920925
 31
0.0
  0
LINE
  5
35A
330
1F
100
AcDbEntity
  8
ケ_シングCV
  6
CONTINUOUS
 62
     3
100
AcDbLine
 10
767.5232375
 20
416.5920925
 30
0.0
 11
777.5232375
 21
416.5920925
 31
0.0
  0
LINE
  5
35B
330
1F
100
AcDbEntity
  8
ケ_シングCV
  6
CONTINUOUS
 62
     3
100
AcDbLine
 10
779.5232375
 20
398.5920925
 30
0.0
 11
779.5232375
 21
357.0920925
 31
0.0
  0
LINE
  5
35C
330
1F
100
AcDbEntity
  8
ケ_シングCV
  6
CONTINUOUS
 62
     3
100
AcDbLine
 10
780.5232381458
 20
441.0920925
 30
0.0
 11
796.5232375
 21
441.0920925
 31
0.0
  0
LINE
  5
35D
330
1F
100
AcDbEntity
  8
ケ_シングCV
  6
CENTER
 62
   179
100
AcDbLine
 10
196.7262475
 20
359.2616825
 30
0.0
 11
242.35806
 21
359.2616825
 31
0.0
  0
LINE
  5
35E
330
1F
100
AcDbEntity
  8
ケ_シングCV
  6
CONTINUOUS
 62
     1
100
AcDbLine
 10
237.459005
 20
327.76171
 30
0.0
 11
221.459005
 21
327.76171
 31
0.0
  0
LINE
  5
35F
330
1F
100
AcDbEntity
  8
ケ_シングCV
  6
CONTINUOUS
 62
     1
100
AcDbLine
 10
237.45899
 20
359.2616825
 30
0.0
 11
237.45899
 21
327.761725
 31
0.0
  0
LINE
  5
360
330
1F
100
AcDbEntity
  8
ケ_シングCV
  6
CONTINUOUS
 62
     1
100
AcDbLine
 10
237.459035
 20
393.261665
 30
0.0
 11
230.459005
 21
393.261665
 31
0.0
  0
LINE
  5
361
330
1F
100
AcDbEntity
  8
ケ_シングCV
  6
CONTINUOUS
 62
     1
100
AcDbLine
 10
237.45899
 20
393.26165
 30
0.0
 11
237.45899
 21
359.2616825
 31
0.0
  0
LINE
  5
362
330
1F
100
AcDbEntity
  8
ケ_シングCV
  6
CONTINUOUS
 62
     1
100
AcDbLine
 10
221.45908
 20
390.7616025
 30
0.0
 11
237.45899
 21
390.7616025
 31
0.0
  0
LINE
  5
363
330
1F
100
AcDbEntity
  8
ケ_シングCV
  6
CONTINUOUS
 62
     1
100
AcDbLine
 10
206.45899
 20
375.26167
 30
0.0
 11
206.45899
 21
343.26168
 31
0.0
  0
LINE
  5
364
330
1F
100
AcDbEntity
  8
ケ_シングCV
  6
CONTINUOUS
 62
     1
100
AcDbLine
 10
208.45899
 20
377.26167
 30
0.0
 11
218.45908
 21
377.26167
 31
0.0
  0
LINE
  5
365
330
1F
100
AcDbEntity
  8
ケ_シングCV
  6
CONTINUOUS
 62
     1
100
AcDbLine
 10
218.4668025
 20
341.26168
 30
0.0
 11
208.45899
 21
341.26168
 31
0.0
  0
LINE
  5
366
330
1F
100
AcDbEntity
  8
ケ_シングCV
  6
CONTINUOUS
 62
     1
100
AcDbLine
 10
229.459005
 20
392.261665
 30
0.0
 11
229.459005
 21
390.7616025
 31
0.0
  0
LINE
  5
367
330
1F
100
AcDbEntity
  8
ケ_シングCV
  6
CONTINUOUS
 62
     1
100
AcDbLine
 10
220.45908
 20
341.26168
 30
0.0
 11
220.45908
 21
389.7615875
 31
0.0
  0
LINE
  5
368
330
1F
100
AcDbEntity
  8
ケ_シングCV
  6
CONTINUOUS
 62
     1
100
AcDbLine
 10
220.45899
 20
341.26168
 30
0.0
 11
220.45899
 21
328.761725
 31
0.0
  0
LINE
  5
369
330
1F
100
AcDbEntity
  8
LAYER001
  6
CONTINUOUS
 62
     1
100
AcDbLine
 10
765.523115
 20
385.138225
 30
0.0
 11
762.5230375
 21
385.044475
 31
0.0
  0
LINE
  5
36A
330
1F
100
AcDbEntity
  8
LAYER001
  6
CONTINUOUS
 62
     1
100
AcDbLine
 10
765.523115
 20
412.0460525
 30
0.0
 11
762.5230525
 21
412.1398025
 31
0.0
  0
LINE
  5
36B
330
1F
100
AcDbEntity
  8
LAYER001
  6
CONTINUOUS
 62
   179
100
AcDbLine
 10
765.5231225
 20
386.3001425
 30
0.0
 11
762.523125
 21
385.044395
 31
0.0
  0
LINE
  5
36C
330
1F
100
AcDbEntity
  8
LAYER001
  6
CONTINUOUS
 62
   179
100
AcDbLine
 10
765.52304
 20
410.88411
 30
0.0
 11
762.5230725
 21
412.13985
 31
0.0
  0
LINE
  5
36D
330
1F
100
AcDbEntity
  8
LAYER001
  6
CONTINUOUS
 62
     1
100
AcDbLine
 10
762.5232375
 20
415.0920925
 30
0.0
 11
750.5232375
 21
415.0920925
 31
0.0
  0
LINE
  5
36E
330
1F
100
AcDbEntity
  8
LAYER001
  6
CONTINUOUS
 62
     1
100
AcDbLine
 10
762.5232375
 20
382.0920925
 30
0.0
 11
750.5232375
 21
382.0920925
 31
0.0
  0
LINE
  5
36F
330
1F
100
AcDbEntity
  8
LAYER001
  6
CONTINUOUS
 62
     1
100
AcDbLine
 10
750.5232375
 20
411.5920925
 30
0.0
 11
733.5232525
 21
411.5920925
 31
0.0
  0
LINE
  5
370
330
1F
100
AcDbEntity
  8
LAYER001
  6
CONTINUOUS
 62
     1
100
AcDbLine
 10
762.5232375
 20
382.0921075
 30
0.0
 11
762.5232375
 21
415.0920775
 31
0.0
  0
LINE
  5
371
330
1F
100
AcDbEntity
  8
LAYER001
  6
CONTINUOUS
 62
     1
100
AcDbLine
 10
750.5232375
 20
385.5920925
 30
0.0
 11
733.5232525
 21
385.5920925
 31
0.0
  0
LINE
  5
372
330
1F
100
AcDbEntity
  8
LAYER001
  6
CONTINUOUS
 62
     1
100
AcDbLine
 10
750.5232375
 20
382.0921075
 30
0.0
 11
750.5232375
 21
415.0920775
 31
0.0
  0
LINE
  5
373
330
1F
100
AcDbEntity
  8
LAYER001
  6
CENTER
 62
   179
100
AcDbLine
 10
733.5232375
 20
375.20246
 30
0.0
 11
733.5232375
 21
422.82743
 31
0.0
  0
LINE
  5
374
330
1F
100
AcDbEntity
  8
LAYER001
  6
CONTINUOUS
 62
     1
100
AcDbLine
 10
762.5232375
 20
398.5920925
 30
0.0
 11
750.5232375
 21
398.5920925
 31
0.0
  0
LINE
  5
375
330
1F
100
AcDbEntity
  8
LAYER001
  6
CONTINUOUS
 62
     1
100
AcDbLine
 10
191.459095
 20
309.2616825
 30
0.0
 11
191.459095
 21
378.31422
 31
0.0
  0
LINE
  5
376
330
1F
100
AcDbEntity
  8
LAYER001
  6
CONTINUOUS
 62
     1
100
AcDbLine
 10
174.459095
 20
372.2616825
 30
0.0
 11
191.459095
 21
372.2616825
 31
0.0
  0
LINE
  5
377
330
1F
100
AcDbEntity
  8
LAYER001
  6
CONTINUOUS
 62
     1
100
AcDbLine
 10
203.459095
 20
340.2091325
 30
0.0
 11
203.459095
 21
378.31422
 31
0.0
  0
LINE
  5
378
330
1F
100
AcDbEntity
  8
LAYER001
  6
CONTINUOUS
 62
     1
100
AcDbLine
 10
203.4589375
 20
372.809385
 30
0.0
 11
206.45899
 21
372.7156325
 31
0.0
  0
LINE
  5
379
330
1F
100
AcDbEntity
  8
LAYER001
  6
CONTINUOUS
 62
   179
100
AcDbLine
 10
203.4589225
 20
372.809335
 30
0.0
 11
206.4589175
 21
371.553585
 31
0.0
  0
LINE
  5
37A
330
1F
100
AcDbEntity
  8
LAYER001
  6
CONTINUOUS
 62
     1
100
AcDbLine
 10
191.459095
 20
368.787975
 30
0.0
 11
203.459095
 21
368.787975
 31
0.0
  0
LINE
  5
37B
330
1F
100
AcDbEntity
  8
LAYER001
  6
CONTINUOUS
 62
     1
100
AcDbLine
 10
191.459095
 20
378.31422
 30
0.0
 11
203.459095
 21
378.31422
 31
0.0
  0
LINE
  5
37C
330
1F
100
AcDbEntity
  8
LAYER001
  6
CONTINUOUS
 62
     1
100
AcDbLine
 10
203.4589175
 20
345.7141
 30
0.0
 11
206.45899
 21
345.8078525
 31
0.0
  0
LINE
  5
37D
330
1F
100
AcDbEntity
  8
LAYER001
  6
CONTINUOUS
 62
   179
100
AcDbLine
 10
203.4589
 20
345.71408
 30
0.0
 11
206.4588975
 21
346.9698325
 31
0.0
  0
LINE
  5
37E
330
1F
100
AcDbEntity
  8
LAYER001
  6
CONTINUOUS
 62
     1
100
AcDbLine
 10
191.459095
 20
349.7354075
 30
0.0
 11
203.459095
 21
349.7354075
 31
0.0
  0
LINE
  5
37F
330
1F
100
AcDbEntity
  8
LAYER001
  6
CONTINUOUS
 62
     1
100
AcDbLine
 10
191.459095
 20
340.2091325
 30
0.0
 11
203.459095
 21
340.2091325
 31
0.0
  0
LINE
  5
380
330
1F
100
AcDbEntity
  8
LAYER001
  6
CENTER
 62
   179
100
AcDbLine
 10
174.459095
 20
296.1728175
 30
0.0
 11
174.459095
 21
375.1118725
 31
0.0
  0
LINE
  5
381
330
1F
100
AcDbEntity
  8
LAYER001
  6
HIDDEN
 62
     3
100
AcDbLine
 10
161.2634575
 20
309.566305
 30
0.0
 11
160.95911
 21
309.261905
 31
0.0
  0
LINE
  5
382
330
1F
100
AcDbEntity
  8
LAYER001
  6
HIDDEN
 62
     3
100
AcDbLine
 10
187.6546925
 20
309.56626
 30
0.0
 11
187.959045
 21
309.2618625
 31
0.0
  0
LINE
  5
383
330
1F
100
AcDbEntity
  8
LAYER001
  6
CONTINUOUS
 62
     1
100
AcDbLine
 10
159.459095
 20
354.2616825
 30
0.0
 11
159.459095
 21
357.2616919248
 31
0.0
  0
LINE
  5
384
330
1F
100
AcDbEntity
  8
LAYER001
  6
CONTINUOUS
 62
     1
100
AcDbLine
 10
157.4590425
 20
349.261785
 30
0.0
 11
159.4590325
 21
354.26176
 31
0.0
  0
LINE
  5
385
330
1F
100
AcDbEntity
  8
LAYER001
  6
CONTINUOUS
 62
     1
100
AcDbLine
 10
157.459095
 20
309.2616825
 30
0.0
 11
157.459095
 21
349.2616825
 31
0.0
  0
LINE
  5
386
330
1F
100
AcDbEntity
  8
LAYER001
  6
CONTINUOUS
 62
     1
100
AcDbLine
 10
159.459095
 20
354.2616825
 30
0.0
 11
181.9424175
 21
354.2616825
 31
0.0
  0
LINE
  5
387
330
1F
100
AcDbEntity
  8
LAYER001
  6
CONTINUOUS
 62
     1
100
AcDbLine
 10
157.459095
 20
349.2616825
 30
0.0
 11
185.459095
 21
349.2616825
 31
0.0
  0
LINE
  5
388
330
1F
100
AcDbEntity
  8
LAYER001
  6
CONTINUOUS
 62
     1
100
AcDbLine
 10
157.459095
 20
309.2616825
 30
0.0
 11
191.459095
 21
309.2616825
 31
0.0
  0
ARC
  5
389
330
1F
100
AcDbEntity
  8
図面枠
  6
PHANTOM
 62
   179
100
AcDbCircle
 10
1005.0232375
 20
290.0920925
 30
0.0
 40
0.9999999999999432
100
AcDbArc
 50
270.0
 51
0.0
  0
ARC
  5
38A
330
1F
100
AcDbEntity
  8
図面枠
  6
PHANTOM
 62
   179
100
AcDbCircle
 10
971.0232375
 20
290.0920925
 30
0.0
 40
1.0
100
AcDbArc
 50
180.0
 51
270.0
  0
ARC
  5
38B
330
1F
100
AcDbEntity
  8
図面枠
  6
PHANTOM
 62
   179
100
AcDbCircle
 10
946.5232375
 20
307.0920925
 30
0.0
 40
0.9999999999999925
100
AcDbArc
 50
180.000036
 51
270.000018
  0
ARC
  5
38C
330
1F
100
AcDbEntity
  8
図面枠
  6
PHANTOM
 62
   179
100
AcDbCircle
 10
1029.5232375
 20
307.0920925
 30
0.0
 40
1.000000000000049
100
AcDbArc
 50
270.000018
 51
0.0
  0
ARC
  5
38D
330
1F
100
AcDbEntity
  8
図面枠
  6
PHANTOM
 62
   179
100
AcDbCircle
 10
1008.0232375
 20
304.0920925
 30
0.0
 40
2.0
100
AcDbArc
 50
90.0
 51
180.0
  0
ARC
  5
38E
330
1F
100
AcDbEntity
  8
図面枠
  6
PHANTOM
 62
   179
100
AcDbCircle
 10
968.0232375
 20
304.0920925
 30
0.0
 40
2.0
100
AcDbArc
 50
0.0
 51
90.0
  0
ARC
  5
38F
330
1F
100
AcDbEntity
  8
図面枠
  6
PHANTOM
 62
   179
100
AcDbCircle
 10
1015.5232375
 20
602.08229
 30
0.0
 40
0.9999999999998863
100
AcDbArc
 50
0.0
 51
90.0
  0
ARC
  5
390
330
1F
100
AcDbEntity
  8
図面枠
  6
PHANTOM
 62
   179
100
AcDbCircle
 10
981.5232375
 20
602.08229
 30
0.0
 40
0.9999999999998863
100
AcDbArc
 50
90.0
 51
180.0
  0
ARC
  5
391
330
1F
100
AcDbEntity
  8
図面枠
  6
PHANTOM
 62
   179
100
AcDbCircle
 10
957.0232375
 20
585.08229
 30
0.0
 40
0.99999999999997
100
AcDbArc
 50
89.999982
 51
179.999964
  0
ARC
  5
392
330
1F
100
AcDbEntity
  8
図面枠
  6
PHANTOM
 62
   179
100
AcDbCircle
 10
1040.0232375
 20
585.08229
 30
0.0
 40
1.000000000000049
100
AcDbArc
 50
0.0
 51
89.999982
  0
ARC
  5
393
330
1F
100
AcDbEntity
  8
図面枠
  6
PHANTOM
 62
   179
100
AcDbCircle
 10
1018.5232375
 20
588.08229
 30
0.0
 40
2.0
100
AcDbArc
 50
180.0
 51
270.0
  0
ARC
  5
394
330
1F
100
AcDbEntity
  8
図面枠
  6
PHANTOM
 62
   179
100
AcDbCircle
 10
978.5232375
 20
588.08229
 30
0.0
 40
2.0
100
AcDbArc
 50
270.0
 51
0.0
  0
CIRCLE
  5
395
330
1F
100
AcDbEntity
  8
図面枠
  6
CONTINUOUS
 62
     3
100
AcDbCircle
 10
990.854315
 20
703.29875
 30
0.0
 40
2.475000000000023
  0
ARC
  5
396
330
1F
100
AcDbEntity
  8
図面枠
  6
CONTINUOUS
 62
     3
100
AcDbCircle
 10
989.59987
 20
703.2985325
 30
0.0
 40
0.5913650000000825
100
AcDbArc
 50
314.999981
 51
44.999963
  0
ARC
  5
397
330
1F
100
AcDbEntity
  8
図面枠
  6
CONTINUOUS
 62
     3
100
AcDbCircle
 10
990.85433
 20
702.0441125
 30
0.0
 40
0.5913650000001416
100
AcDbArc
 50
45.000072
 51
135.000054
  0
ARC
  5
398
330
1F
100
AcDbEntity
  8
図面枠
  6
CONTINUOUS
 62
     3
100
AcDbCircle
 10
992.1088175
 20
703.29875
 30
0.0
 40
0.59136500000004
100
AcDbArc
 50
135.000054
 51
225.000002
  0
ARC
  5
399
330
1F
100
AcDbEntity
  8
図面枠
  6
CONTINUOUS
 62
     3
100
AcDbCircle
 10
990.854315
 20
704.55317
 30
0.0
 40
0.5913649999999114
100
AcDbArc
 50
224.999999
 51
314.999981
  0
CIRCLE
  5
39A
330
1F
100
AcDbEntity
  8
図面枠
  6
CONTINUOUS
 62
     3
100
AcDbCircle
 10
990.854315
 20
703.29875
 30
0.0
 40
2.475000000000023
  0
ARC
  5
39B
330
1F
100
AcDbEntity
  8
図面枠
  6
CONTINUOUS
 62
     3
100
AcDbCircle
 10
989.59987
 20
703.2985325
 30
0.0
 40
0.5913650000000825
100
AcDbArc
 50
314.999981
 51
44.999963
  0
ARC
  5
39C
330
1F
100
AcDbEntity
  8
図面枠
  6
CONTINUOUS
 62
     3
100
AcDbCircle
 10
990.85433
 20
702.0441125
 30
0.0
 40
0.5913650000001416
100
AcDbArc
 50
45.000072
 51
135.000054
  0
ARC
  5
39D
330
1F
100
AcDbEntity
  8
図面枠
  6
CONTINUOUS
 62
     3
100
AcDbCircle
 10
992.1088175
 20
703.29875
 30
0.0
 40
0.59136500000004
100
AcDbArc
 50
135.000054
 51
225.000002
  0
ARC
  5
39E
330
1F
100
AcDbEntity
  8
図面枠
  6
CONTINUOUS
 62
     3
100
AcDbCircle
 10
990.854315
 20
704.55317
 30
0.0
 40
0.5913649999999114
100
AcDbArc
 50
224.999999
 51
314.999981
  0
ARC
  5
39F
330
1F
100
AcDbEntity
  8
図面枠
  6
CONTINUOUS
 62
     3
100
AcDbCircle
 10
1011.104315
 20
719.49875
 30
0.0
 40
0.8999999999999773
100
AcDbArc
 50
0.0
 51
90.0
  0
ARC
  5
3A0
330
1F
100
AcDbEntity
  8
図面枠
  6
CONTINUOUS
 62
     3
100
AcDbCircle
 10
1011.104315
 20
687.09875
 30
0.0
 40
0.8999999999999773
100
AcDbArc
 50
270.0
 51
0.0
  0
ARC
  5
3A1
330
1F
100
AcDbEntity
  8
図面枠
  6
CONTINUOUS
 62
     3
100
AcDbCircle
 10
1016.504315
 20
703.29875
 30
0.0
 40
62.99999999999991
100
AcDbArc
 50
162.505008
 51
197.495028
  0
ARC
  5
3A2
330
1F
100
AcDbEntity
  8
図面枠
  6
CONTINUOUS
 62
     3
100
AcDbCircle
 10
961.397045
 20
685.9287075
 30
0.0
 40
5.220000000000112
100
AcDbArc
 50
197.494991
 51
270.000017
  0
ARC
  5
3A3
330
1F
100
AcDbEntity
  8
図面枠
  6
CONTINUOUS
 62
     3
100
AcDbCircle
 10
961.397045
 20
720.668575
 30
0.0
 40
5.220000000000133
100
AcDbArc
 50
89.999981
 51
162.505008
  0
ARC
  5
3A4
330
1F
100
AcDbEntity
  8
図面枠
  6
CONTINUOUS
 62
     3
100
AcDbCircle
 10
1060.0783175
 20
690.69875
 30
0.0
 40
9.0
100
AcDbArc
 50
0.0
 51
90.0
  0
ARC
  5
3A5
330
1F
100
AcDbEntity
  8
図面枠
  6
CONTINUOUS
 62
     3
100
AcDbCircle
 10
1060.0783175
 20
690.69875
 30
0.0
 40
16.19999999999996
100
AcDbArc
 50
0.000054
 51
90.000036
  0
ARC
  5
3A6
330
1F
100
AcDbEntity
  8
図面枠
  6
CONTINUOUS
 62
     3
100
AcDbCircle
 10
868.2487
 20
660.353835
 30
0.0
 40
0.3000000000000682
100
AcDbArc
 50
180.0
 51
278.130103
  0
ARC
  5
3A7
330
1F
100
AcDbEntity
  8
図面枠
  6
CONTINUOUS
 62
     3
100
AcDbCircle
 10
868.24871
 20
673.2334575
 30
0.0
 40
0.3000000000000682
100
AcDbArc
 50
81.869897
 51
180.0
  0
ARC
  5
3A8
330
1F
100
AcDbEntity
  8
図面枠
  6
CONTINUOUS
 62
     3
100
AcDbCircle
 10
825.9487125
 20
679.793645
 30
0.0
 40
0.5000000000001137
100
AcDbArc
 50
0.0
 51
90.0
  0
ARC
  5
3A9
330
1F
100
AcDbEntity
  8
図面枠
  6
CONTINUOUS
 62
     3
100
AcDbCircle
 10
821.9487125
 20
679.793645
 30
0.0
 40
0.5000000000063637
100
AcDbArc
 50
90.0
 51
179.9997135211
  0
ARC
  5
3AA
330
1F
100
AcDbEntity
  8
図面枠
  6
CONTINUOUS
 62
     3
100
AcDbCircle
 10
825.9486975
 20
653.793645
 30
0.0
 40
0.5000000000001137
100
AcDbArc
 50
270.0
 51
0.0
  0
ARC
  5
3AB
330
1F
100
AcDbEntity
  8
図面枠
  6
CONTINUOUS
 62
     3
100
AcDbCircle
 10
821.9486975
 20
653.793645
 30
0.0
 40
0.5000000000061363
100
AcDbArc
 50
179.9997135211
 51
270.0
  0
ARC
  5
3AC
330
1F
100
AcDbEntity
  8
図面枠
  6
CONTINUOUS
 62
     3
100
AcDbCircle
 10
855.9487108739
 20
676.2936454618
 30
0.0
 40
0.5000000000001288
100
AcDbArc
 50
0.0000334822
 51
90.000103193
  0
ARC
  5
3AD
330
1F
100
AcDbEntity
  8
図面枠
  6
CONTINUOUS
 62
     3
100
AcDbCircle
 10
855.9487008739
 20
657.293645754
 30
0.0
 40
0.5
100
AcDbArc
 50
270.0
 51
0.0
  0
ARC
  5
3AE
330
1F
100
AcDbEntity
  8
図面枠
  6
CONTINUOUS
 62
     3
100
AcDbCircle
 10
853.9487
 20
657.293645
 30
0.0
 40
0.50000000000625
100
AcDbArc
 50
179.9997135211
 51
270.0
  0
ARC
  5
3AF
330
1F
100
AcDbEntity
  8
図面枠
  6
CONTINUOUS
 62
     3
100
AcDbCircle
 10
853.94871
 20
676.293645
 30
0.0
 40
0.5
100
AcDbArc
 50
90.0
 51
180.0
  0
ARC
  5
3B0
330
1F
100
AcDbEntity
  8
図面枠
  6
CONTINUOUS
 62
     3
100
AcDbCircle
 10
827.8093799993
 20
629.3121632155
 30
0.0
 40
49.99999911886625
100
AcDbArc
 50
90.053062
 51
90.2994
  0
ARC
  5
3B1
330
1F
100
AcDbEntity
  8
図面枠
  6
CONTINUOUS
 62
     3
100
AcDbCircle
 10
847.4487100723
 20
684.793650149
 30
0.0
 40
10.00000500000006
100
AcDbArc
 50
244.10405
 51
305.096795
  0
ARC
  5
3B2
330
1F
100
AcDbEntity
  8
図面枠
  6
CONTINUOUS
 62
     3
100
AcDbCircle
 10
827.79549
 20
644.3121575
 30
0.0
 40
34.99999840333104
100
AcDbArc
 50
64.1040508586
 51
90.0530646167
  0
ARC
  5
3B3
330
1F
100
AcDbEntity
  8
図面枠
  6
CONTINUOUS
 62
     3
100
AcDbCircle
 10
847.4487103848
 20
648.7936417073
 30
0.0
 40
10.00000500000011
100
AcDbArc
 50
54.903205
 51
115.89595
  0
ARC
  5
3B4
330
1F
100
AcDbEntity
  8
図面枠
  6
CONTINUOUS
 62
     3
100
AcDbCircle
 10
827.79549
 20
689.275135
 30
0.0
 40
34.99999911886658
100
AcDbArc
 50
269.946938
 51
295.8959491414
  0
ARC
  5
3B5
330
1F
100
AcDbEntity
  8
図面枠
  6
CONTINUOUS
 62
     3
100
AcDbCircle
 10
827.8093800002
 20
704.2751276661
 30
0.0
 40
49.99999821608283
100
AcDbArc
 50
269.7006
 51
269.946939829
  0
ARC
  5
3B6
330
1F
100
AcDbEntity
  8
図面枠
  6
CONTINUOUS
 62
     3
100
AcDbCircle
 10
827.5414050043
 20
680.5938947579
 30
0.0
 40
1.282432576464601
100
AcDbArc
 50
206.677299
 51
270.2993579345
  0
ARC
  5
3B7
330
1F
100
AcDbEntity
  8
図面枠
  6
CONTINUOUS
 62
     3
100
AcDbCircle
 10
827.5414050033
 20
652.9933982765
 30
0.0
 40
1.282431326481675
100
AcDbArc
 50
89.7006414819
 51
153.322701
  0
ARC
  5
3B8
330
1F
100
AcDbEntity
  8
図面枠
  6
CONTINUOUS
 62
     3
100
AcDbCircle
 10
853.7732674734
 20
675.7936452897
 30
0.0
 40
1.000000172063778
100
AcDbArc
 50
90.0
 51
125.0968009687
  0
ARC
  5
3B9
330
1F
100
AcDbEntity
  8
図面枠
  6
CONTINUOUS
 62
     3
100
AcDbCircle
 10
853.7732683739
 20
657.7936449033
 30
0.0
 40
0.9999991493368725
100
AcDbArc
 50
234.9031166742
 51
270.0
  0
ARC
  5
3BA
330
1F
100
AcDbEntity
  8
図面枠
  6
CONTINUOUS
 62
     3
100
AcDbCircle
 10
827.79549
 20
644.3121575
 30
0.0
 40
31.00000000000022
100
AcDbArc
 50
64.10405
 51
90.053062
  0
ARC
  5
3BB
330
1F
100
AcDbEntity
  8
図面枠
  6
CONTINUOUS
 62
     3
100
AcDbCircle
 10
827.8093799993
 20
629.3121632155
 30
0.0
 40
46.00000071553546
100
AcDbArc
 50
90.053060009
 51
91.694985
  0
ARC
  5
3BC
330
1F
100
AcDbEntity
  8
図面枠
  6
CONTINUOUS
 62
     3
100
AcDbCircle
 10
847.4487100723
 20
684.793650149
 30
0.0
 40
14.00000340333107
100
AcDbArc
 50
244.1040521465
 51
295.376919
  0
ARC
  5
3BD
330
1F
100
AcDbEntity
  8
図面枠
  6
CONTINUOUS
 62
     3
100
AcDbCircle
 10
847.4487103848
 20
648.7936417073
 30
0.0
 40
14.00000500000007
100
AcDbArc
 50
64.623083365
 51
115.89595
  0
ARC
  5
3BE
330
1F
100
AcDbEntity
  8
図面枠
  6
CONTINUOUS
 62
     3
100
AcDbCircle
 10
827.79549
 20
689.275135
 30
0.0
 40
30.9999991188666
100
AcDbArc
 50
269.946938
 51
295.8959490306
  0
ARC
  5
3BF
330
1F
100
AcDbEntity
  8
図面枠
  6
CONTINUOUS
 62
     3
100
AcDbCircle
 10
827.8093800002
 20
704.2751276661
 30
0.0
 40
45.99999821608285
100
AcDbArc
 50
268.3050149079
 51
269.9469399881
  0
CIRCLE
  5
3C0
330
1F
100
AcDbEntity
  8
図面枠
  6
CONTINUOUS
 62
     3
100
AcDbCircle
 10
837.948705
 20
666.7936475
 30
0.0
 40
5.5
  0
ARC
  5
3C1
330
1F
100
AcDbEntity
  8
図面枠
  6
CONTINUOUS
 62
     3
100
AcDbCircle
 10
858.94871
 20
674.2936475
 30
0.0
 40
0.50000000000625
100
AcDbArc
 50
359.9997135211
 51
90.0
  0
ARC
  5
3C2
330
1F
100
AcDbEntity
  8
図面枠
  6
CONTINUOUS
 62
     3
100
AcDbCircle
 10
858.9487
 20
659.2936475
 30
0.0
 40
0.50000000000625
100
AcDbArc
 50
270.0
 51
359.9997135211
  0
ARC
  5
3C3
330
1F
100
AcDbEntity
  8
図面枠
  6
CONTINUOUS
 62
     3
100
AcDbCircle
 10
858.3982
 20
676.7936475
 30
0.0
 40
2.0
100
AcDbArc
 50
191.536966
 51
270.0
  0
ARC
  5
3C4
330
1F
100
AcDbEntity
  8
図面枠
  6
CONTINUOUS
 62
     3
100
AcDbCircle
 10
858.3982
 20
656.7936475
 30
0.0
 40
1.999999999999992
100
AcDbArc
 50
90.0
 51
168.463034
  0
ARC
  5
3C5
330
1F
100
AcDbEntity
  8
図面枠
  6
CONTINUOUS
 62
     3
100
AcDbCircle
 10
862.64871
 20
674.0334575
 30
0.0
 40
0.3000000000000682
100
AcDbArc
 50
0.0
 51
81.869897
  0
ARC
  5
3C6
330
1F
100
AcDbEntity
  8
図面枠
  6
CONTINUOUS
 62
     3
100
AcDbCircle
 10
861.24871
 20
674.2334575
 30
0.0
 40
0.3000000000000682
100
AcDbArc
 50
81.869897
 51
180.0
  0
ARC
  5
3C7
330
1F
100
AcDbEntity
  8
図面枠
  6
CONTINUOUS
 62
     3
100
AcDbCircle
 10
866.1487099757
 20
673.5334575
 30
0.0
 40
0.2999999757082605
100
AcDbArc
 50
0.0
 51
81.8701677408
  0
ARC
  5
3C8
330
1F
100
AcDbEntity
  8
図面枠
  6
CONTINUOUS
 62
     3
100
AcDbCircle
 10
864.7487099757
 20
673.7334575
 30
0.0
 40
0.2999999757084455
100
AcDbArc
 50
81.8701677408
 51
180.0
  0
ARC
  5
3C9
330
1F
100
AcDbEntity
  8
図面枠
  6
CONTINUOUS
 62
     3
100
AcDbCircle
 10
866.1487105863
 20
660.053835676
 30
0.0
 40
0.299999999999906
100
AcDbArc
 50
278.130103
 51
0.0
  0
ARC
  5
3CA
330
1F
100
AcDbEntity
  8
図面枠
  6
CONTINUOUS
 62
     3
100
AcDbCircle
 10
862.6487095239
 20
659.553834451
 30
0.0
 40
0.2999999999999545
100
AcDbArc
 50
278.130103
 51
0.0
  0
ARC
  5
3CB
330
1F
100
AcDbEntity
  8
図面枠
  6
CONTINUOUS
 62
     3
100
AcDbCircle
 10
864.7487006829
 20
659.853835
 30
0.0
 40
0.300000682873474
100
AcDbArc
 50
180.0
 51
278.1317229161
  0
ARC
  5
3CC
330
1F
100
AcDbEntity
  8
図面枠
  6
CONTINUOUS
 62
     3
100
AcDbCircle
 10
861.2486994454
 20
659.3538325
 30
0.0
 40
0.2999994454470312
100
AcDbArc
 50
179.9995225352
 51
278.1317904535
  0
ARC
  5
3CD
330
1F
100
AcDbEntity
  8
図面枠
  6
CONTINUOUS
 62
     3
100
AcDbCircle
 10
867.448705
 20
668.2936475
 30
0.0
 40
0.5
100
AcDbArc
 50
270.0
 51
0.0
  0
ARC
  5
3CE
330
1F
100
AcDbEntity
  8
図面枠
  6
CONTINUOUS
 62
     3
100
AcDbCircle
 10
866.948705
 20
668.2936475
 30
0.0
 40
0.5
100
AcDbArc
 50
180.0
 51
270.0
  0
ARC
  5
3CF
330
1F
100
AcDbEntity
  8
図面枠
  6
CONTINUOUS
 62
     3
100
AcDbCircle
 10
866.948705
 20
665.2936475
 30
0.0
 40
0.5
100
AcDbArc
 50
90.0
 51
180.0
  0
ARC
  5
3D0
330
1F
100
AcDbEntity
  8
図面枠
  6
CONTINUOUS
 62
     3
100
AcDbCircle
 10
867.448705
 20
665.2936475
 30
0.0
 40
0.5
100
AcDbArc
 50
0.0
 51
90.0
  0
ARC
  5
3D1
330
1F
100
AcDbEntity
  8
図面枠
  6
CONTINUOUS
 62
     3
100
AcDbCircle
 10
863.948705
 20
668.2936475
 30
0.0
 40
0.5
100
AcDbArc
 50
270.0
 51
0.0
  0
ARC
  5
3D2
330
1F
100
AcDbEntity
  8
図面枠
  6
CONTINUOUS
 62
     3
100
AcDbCircle
 10
863.448705
 20
668.2936475
 30
0.0
 40
0.5
100
AcDbArc
 50
180.0
 51
270.0
  0
ARC
  5
3D3
330
1F
100
AcDbEntity
  8
図面枠
  6
CONTINUOUS
 62
     3
100
AcDbCircle
 10
863.448705
 20
665.2936475
 30
0.0
 40
0.5
100
AcDbArc
 50
90.0
 51
180.0
  0
ARC
  5
3D4
330
1F
100
AcDbEntity
  8
図面枠
  6
CONTINUOUS
 62
     3
100
AcDbCircle
 10
863.948705
 20
665.2936475
 30
0.0
 40
0.4999999999998863
100
AcDbArc
 50
0.0
 51
90.0
  0
ARC
  5
3D5
330
1F
100
AcDbEntity
  8
図面枠
  6
CONTINUOUS
 62
     3
100
AcDbCircle
 10
860.448705
 20
668.2936475
 30
0.0
 40
0.5
100
AcDbArc
 50
270.0
 51
0.0
  0
ARC
  5
3D6
330
1F
100
AcDbEntity
  8
図面枠
  6
CONTINUOUS
 62
     3
100
AcDbCircle
 10
859.948705
 20
668.2936475
 30
0.0
 40
0.5000000000001137
100
AcDbArc
 50
180.0
 51
270.0
  0
ARC
  5
3D7
330
1F
100
AcDbEntity
  8
図面枠
  6
CONTINUOUS
 62
     3
100
AcDbCircle
 10
859.948705
 20
665.2936475
 30
0.0
 40
0.5000000000001137
100
AcDbArc
 50
90.0
 51
180.0
  0
ARC
  5
3D8
330
1F
100
AcDbEntity
  8
図面枠
  6
CONTINUOUS
 62
     3
100
AcDbCircle
 10
860.448705
 20
665.2936475
 30
0.0
 40
0.5
100
AcDbArc
 50
0.0
 51
90.0
  0
ARC
  5
3D9
330
1F
100
AcDbEntity
  8
図面枠
  6
CONTINUOUS
 62
     3
100
AcDbCircle
 10
867.23994
 20
673.672075
 30
0.0
 40
0.7999999999999613
100
AcDbArc
 50
187.239439
 51
336.500355
  0
ARC
  5
3DA
330
1F
100
AcDbEntity
  8
図面枠
  6
CONTINUOUS
 62
     3
100
AcDbCircle
 10
863.73756
 20
674.1665575
 30
0.0
 40
0.8000000000000412
100
AcDbArc
 50
184.361308
 51
336.813354
  0
ARC
  5
3DB
330
1F
100
AcDbEntity
  8
図面枠
  6
CONTINUOUS
 62
     3
100
AcDbCircle
 10
860.211885
 20
674.6008725
 30
0.0
 40
0.8000000000001456
100
AcDbArc
 50
193.669951
 51
340.48739
  0
ARC
  5
3DC
330
1F
100
AcDbEntity
  8
図面枠
  6
CONTINUOUS
 62
     3
100
AcDbCircle
 10
867.23994
 20
659.9152175
 30
0.0
 40
0.8000000000000741
100
AcDbArc
 50
23.499645
 51
172.760561
  0
ARC
  5
3DD
330
1F
100
AcDbEntity
  8
図面枠
  6
CONTINUOUS
 62
     3
100
AcDbCircle
 10
863.73756
 20
659.420735
 30
0.0
 40
0.8000000000001904
100
AcDbArc
 50
23.186646
 51
175.638692
  0
ARC
  5
3DE
330
1F
100
AcDbEntity
  8
図面枠
  6
CONTINUOUS
 62
     3
100
AcDbCircle
 10
860.211885
 20
658.98642
 30
0.0
 40
0.8000000000001993
100
AcDbArc
 50
19.51261
 51
166.330049
  0
ARC
  5
3DF
330
1F
100
AcDbEntity
  8
図面枠
  6
CONTINUOUS
 62
     3
100
AcDbCircle
 10
869.64871
 20
673.0334575
 30
0.0
 40
0.3000000000001819
100
AcDbArc
 50
0.0
 51
81.869897
  0
ARC
  5
3E0
330
1F
100
AcDbEntity
  8
図面枠
  6
CONTINUOUS
 62
     3
100
AcDbCircle
 10
869.64871
 20
660.553835
 30
0.0
 40
0.3000000000000682
100
AcDbArc
 50
278.130103
 51
0.0
  0
ARC
  5
3E1
330
1F
100
AcDbEntity
  8
図面枠
  6
CONTINUOUS
 62
     3
100
AcDbCircle
 10
871.9487018703
 20
661.084435
 30
0.0
 40
0.4999993702805631
100
AcDbArc
 50
180.0
 51
278.1309126409
  0
ARC
  5
3E2
330
1F
100
AcDbEntity
  8
図面枠
  6
CONTINUOUS
 62
     3
100
AcDbCircle
 10
871.9487077541
 20
672.502855
 30
0.0
 40
0.5000002541405593
100
AcDbArc
 50
81.8696950749
 51
180.0
  0
ARC
  5
3E3
330
1F
100
AcDbEntity
  8
図面枠
  6
CONTINUOUS
 62
     3
100
AcDbCircle
 10
870.948705
 20
668.2936475
 30
0.0
 40
0.5
100
AcDbArc
 50
270.0
 51
0.0
  0
ARC
  5
3E4
330
1F
100
AcDbEntity
  8
図面枠
  6
CONTINUOUS
 62
     3
100
AcDbCircle
 10
870.448705
 20
668.2936475
 30
0.0
 40
0.5
100
AcDbArc
 50
180.0
 51
270.0
  0
ARC
  5
3E5
330
1F
100
AcDbEntity
  8
図面枠
  6
CONTINUOUS
 62
     3
100
AcDbCircle
 10
870.948705
 20
665.2936475
 30
0.0
 40
0.5
100
AcDbArc
 50
0.0
 51
90.0
  0
ARC
  5
3E6
330
1F
100
AcDbEntity
  8
図面枠
  6
CONTINUOUS
 62
     3
100
AcDbCircle
 10
870.448705
 20
665.2936475
 30
0.0
 40
0.5
100
AcDbArc
 50
90.0
 51
180.0
  0
ARC
  5
3E7
330
1F
100
AcDbEntity
  8
図面枠
  6
CONTINUOUS
 62
     3
100
AcDbCircle
 10
870.7482525
 20
673.00176
 30
0.0
 40
0.8000000000002165
100
AcDbArc
 50
178.348667
 51
337.432503
  0
ARC
  5
3E8
330
1F
100
AcDbEntity
  8
図面枠
  6
CONTINUOUS
 62
     3
100
AcDbCircle
 10
870.7482525
 20
660.585535
 30
0.0
 40
0.799999999999986
100
AcDbArc
 50
22.567497
 51
181.651333
  0
ARC
  5
3E9
330
1F
100
AcDbEntity
  8
図面枠
  6
CONTINUOUS
 62
     3
100
AcDbCircle
 10
872.448705392
 20
671.9263504156
 30
0.0
 40
1.000000331501455
100
AcDbArc
 50
0.0000018817
 51
81.8696995274
  0
ARC
  5
3EA
330
1F
100
AcDbEntity
  8
図面枠
  6
CONTINUOUS
 62
     3
100
AcDbCircle
 10
872.4487018062
 20
661.6609404484
 30
0.0
 40
0.9999989172878259
100
AcDbArc
 50
278.1300415827
 51
0.0
  0
ARC
  5
3EB
330
1F
100
AcDbEntity
  8
図面枠
  6
CONTINUOUS
 62
     1
100
AcDbCircle
 10
1059.2521175
 20
529.5920925
 30
0.0
 40
12.00000000000005
100
AcDbArc
 50
0.791561
 51
90.0
  0
ARC
  5
3EC
330
1F
100
AcDbEntity
  8
図面枠
  6
CONTINUOUS
 62
     1
100
AcDbCircle
 10
1059.71153
 20
483.5920925
 30
0.0
 40
12.00000000000006
100
AcDbArc
 50
270.0
 51
0.352856
  0
ARC
  5
3ED
330
1F
100
AcDbEntity
  8
図面枠
  6
CONTINUOUS
 62
     1
100
AcDbCircle
 10
1056.95629
 20
542.5920925
 30
0.0
 40
1.000000000000005
100
AcDbArc
 50
185.04471
 51
270.0
  0
ARC
  5
3EE
330
1F
100
AcDbEntity
  8
図面枠
  6
CONTINUOUS
 62
     1
100
AcDbCircle
 10
1057.77751
 20
470.5920925
 30
0.0
 40
1.0
100
AcDbArc
 50
90.0
 51
180.228955
  0
ARC
  5
3EF
330
1F
100
AcDbEntity
  8
図面枠
  6
CONTINUOUS
 62
     1
100
AcDbCircle
 10
-4948.1745375
 20
446.5920925
 30
0.0
 40
6020.000000000001
100
AcDbArc
 50
0.352856
 51
0.791561
  0
ARC
  5
3F0
330
1F
100
AcDbEntity
  8
図面枠
  6
CONTINUOUS
 62
     1
100
AcDbCircle
 10
1058.2851725
 20
468.5920925
 30
0.0
 40
0.5
100
AcDbArc
 50
0.209858
 51
90.0
  0
ARC
  5
3F1
330
1F
100
AcDbEntity
  8
図面枠
  6
CONTINUOUS
 62
     1
100
AcDbCircle
 10
1058.320135
 20
454.5920925
 30
0.0
 40
0.5000000000000037
100
AcDbArc
 50
270.0
 51
0.076312
  0
LINE
  5
3F2
330
1F
100
AcDbEntity
  8
図面枠
  6
CONTINUOUS
 62
     1
100
AcDbLine
 10
1058.8201344538
 20
454.5927873568
 30
0.0
 11
1058.8148246614
 21
457.897086099
 31
0.0
  0
ARC
  5
3F3
330
1F
100
AcDbEntity
  8
図面枠
  6
CONTINUOUS
 62
     1
100
AcDbCircle
 10
1057.28142
 20
469.5920925
 30
0.0
 40
0.5000000000000568
100
AcDbArc
 50
180.219433
 51
270.0
  0
ARC
  5
3F4
330
1F
100
AcDbEntity
  8
図面枠
  6
CENTER
 62
   179
100
AcDbCircle
 10
1057.3213825
 20
453.5920925
 30
0.0
 40
0.5
100
AcDbArc
 50
90.0
 51
180.066784
  0
ARC
  5
3F5
330
1F
100
AcDbEntity
  8
図面枠
  6
CONTINUOUS
 62
     1
100
AcDbCircle
 10
-4948.1745375
 20
446.5920925
 30
0.0
 40
6005.000000000001
100
AcDbArc
 50
359.111091
 51
0.915184
  0
LINE
  5
3F6
330
1F
100
AcDbEntity
  8
図面枠
  6
CONTINUOUS
 62
     1
100
AcDbLine
 10
1058.7963709059
 20
465.2871604252
 30
0.0
 11
1058.78516919
 21
468.593960667
 31
0.0
  0
LINE
  5
3F7
330
1F
100
AcDbEntity
  8
図面枠
  6
CONTINUOUS
 62
     1
100
AcDbLine
 10
797.3349855397
 20
483.595187974
 30
0.0
 11
797.3155186657
 21
480.2871679346
 31
0.0
  0
ARC
  5
3F8
330
1F
100
AcDbEntity
  8
図面枠
  6
CONTINUOUS
 62
     1
100
AcDbCircle
 10
6804.221015
 20
446.5920925
 30
0.0
 40
6005.0
100
AcDbArc
 50
179.111091
 51
179.685134
  0
ARC
  5
3F9
330
1F
100
AcDbEntity
  8
図面枠
  6
CONTINUOUS
 62
     1
100
AcDbCircle
 10
797.834975
 20
483.5920925
 30
0.0
 40
0.5
100
AcDbArc
 50
90.0
 51
179.647056
  0
ARC
  5
3FA
330
1F
100
AcDbEntity
  8
図面枠
  6
CONTINUOUS
 62
     1
100
AcDbCircle
 10
798.8412375
 20
484.5920925
 30
0.0
 40
0.5
100
AcDbArc
 50
270.0
 51
359.637457
  0
ARC
  5
3FB
330
1F
100
AcDbEntity
  8
図面枠
  6
CONTINUOUS
 62
     1
100
AcDbCircle
 10
797.76505
 20
469.5920925
 30
0.0
 40
0.5
100
AcDbArc
 50
179.780603
 51
270.0
  0
ARC
  5
3FC
330
1F
100
AcDbEntity
  8
図面枠
  6
CONTINUOUS
 62
     1
100
AcDbCircle
 10
798.76131
 20
468.5920925
 30
0.0
 40
0.5
100
AcDbArc
 50
359.790107
 51
90.0
  0
LINE
  5
3FD
330
1F
100
AcDbEntity
  8
図面枠
  6
CONTINUOUS
 62
     1
100
AcDbLine
 10
797.2786106818
 20
472.8970578892
 30
0.0
 11
797.2650545842
 21
469.594040802
 31
0.0
  0
ARC
  5
3FE
330
1F
100
AcDbEntity
  8
図面枠
  6
CONTINUOUS
 62
     1
100
AcDbCircle
 10
1018.1073604975
 20
539.1627025439
 30
0.0
 40
38.00000049946819
100
AcDbArc
 50
5.0447094832
 51
89.13497
  0
ARC
  5
3FF
330
1F
100
AcDbEntity
  8
図面枠
  6
CONTINUOUS
 62
     1
100
AcDbCircle
 10
928.0232375
 20
-5427.157255
 30
0.0
 40
6005.0
100
AcDbArc
 50
89.13497
 51
90.86503
  0
ARC
  5
400
330
1F
100
AcDbEntity
  8
図面枠
  6
CONTINUOUS
 62
     1
100
AcDbCircle
 10
837.939115
 20
539.1627025
 30
0.0
 40
37.99999999999996
100
AcDbArc
 50
90.86503
 51
179.111091
  0
ARC
  5
401
330
1F
100
AcDbEntity
  8
図面枠
  6
CONTINUOUS
 62
     1
100
AcDbCircle
 10
6804.221015
 20
446.5920925
 30
0.0
 40
6005.000000000001
100
AcDbArc
 50
179.742383
 51
180.888909
  0
ARC
  5
402
330
1F
100
AcDbEntity
  8
図面枠
  6
CONTINUOUS
 62
     1
100
AcDbCircle
 10
837.939115
 20
354.0214825
 30
0.0
 40
37.99999999999996
100
AcDbArc
 50
180.888909
 51
269.13497
  0
LINE
  5
403
330
1F
100
AcDbEntity
  8
図面枠
  6
CENTER
 62
   179
100
AcDbLine
 10
1056.7984850701
 20
464.5920426597
 30
0.0
 11
1056.7775181497
 21
470.5881202642
 31
0.0
  0
ARC
  5
404
330
1F
100
AcDbEntity
  8
図面枠
  6
CONTINUOUS
 62
     1
100
AcDbCircle
 10
1018.10736
 20
354.0214825
 30
0.0
 40
38.00000000000007
100
AcDbArc
 50
270.86503
 51
359.111091
  0
ARC
  5
405
330
1F
100
AcDbEntity
  8
図面枠
  6
CONTINUOUS
 62
     1
100
AcDbCircle
 10
928.0232375
 20
6320.3414425
 30
0.0
 40
6005.0
100
AcDbArc
 50
269.13497
 51
270.86503
  0
ARC
  5
406
330
1F
100
AcDbEntity
  8
図面枠
  6
CONTINUOUS
 62
     3
100
AcDbCircle
 10
1017.7283175
 20
576.2936475
 30
0.0
 40
59.00000000000023
100
AcDbArc
 50
0.0
 51
90.0
  0
ARC
  5
407
330
1F
100
AcDbEntity
  8
図面枠
  6
CONTINUOUS
 62
     3
100
AcDbCircle
 10
1017.7283175
 20
576.2936475
 30
0.0
 40
50.0
100
AcDbArc
 50
0.0
 51
90.0
  0
ARC
  5
408
330
1F
100
AcDbEntity
  8
図面枠
  6
CONTINUOUS
 62
     3
100
AcDbCircle
 10
1062.7283175
 20
539.378535
 30
0.0
 40
14.00000000000023
100
AcDbArc
 50
307.603943
 51
0.0
  0
ARC
  5
409
330
1F
100
AcDbEntity
  8
図面枠
  6
CONTINUOUS
 62
     3
100
AcDbCircle
 10
1062.7283175
 20
539.378535
 30
0.0
 40
5.000000000000306
100
AcDbArc
 50
346.60323
 51
360.0
  0
ARC
  5
40A
330
1F
100
AcDbEntity
  8
図面枠
  6
CONTINUOUS
 62
     3
100
AcDbCircle
 10
930.923325
 20
619.9343475
 30
0.0
 40
2.50000000000005
100
AcDbArc
 50
180.000055
 51
239.998568
  0
ARC
  5
40B
330
1F
100
AcDbEntity
  8
図面枠
  6
CONTINUOUS
 62
     3
100
AcDbCircle
 10
928.923325
 20
621.66645
 30
0.0
 40
0.4999999999998893
100
AcDbArc
 50
180.000055
 51
239.992776
  0
ARC
  5
40C
330
1F
100
AcDbEntity
  8
図面枠
  6
CONTINUOUS
 62
     3
100
AcDbCircle
 10
928.923325
 20
623.1663875
 30
0.0
 40
0.4999999999998893
100
AcDbArc
 50
180.000055
 51
239.992776
  0
ARC
  5
40D
330
1F
100
AcDbEntity
  8
図面枠
  6
CONTINUOUS
 62
     3
100
AcDbCircle
 10
929.423325
 20
621.72306
 30
0.0
 40
0.5000000000000246
100
AcDbArc
 50
359.999982
 51
60.003522
  0
ARC
  5
40E
330
1F
100
AcDbEntity
  8
図面枠
  6
CONTINUOUS
 62
     3
100
AcDbCircle
 10
929.423325
 20
623.2229225
 30
0.0
 40
0.5000000000000715
100
AcDbArc
 50
359.999982
 51
60.007893
  0
ARC
  5
40F
330
1F
100
AcDbEntity
  8
図面枠
  6
CONTINUOUS
 62
     3
100
AcDbCircle
 10
925.423325
 20
626.08074
 30
0.0
 40
4.99999999999994
100
AcDbArc
 50
345.492551
 51
359.999982
  0
ARC
  5
410
330
1F
100
AcDbEntity
  8
図面枠
  6
CONTINUOUS
 62
     3
100
AcDbCircle
 10
930.423325
 20
626.109655
 30
0.0
 40
2.500000000000148
100
AcDbArc
 50
180.000055
 51
239.998568
  0
ARC
  5
411
330
1F
100
AcDbEntity
  8
図面枠
  6
CONTINUOUS
 62
     3
100
AcDbCircle
 10
971.30203
 20
668.2936475
 30
0.0
 40
3.0
100
AcDbArc
 50
0.0
 51
90.0
  0
ARC
  5
412
330
1F
100
AcDbEntity
  8
図面枠
  6
CONTINUOUS
 62
     3
100
AcDbCircle
 10
971.30203
 20
665.2936475
 30
0.0
 40
3.0
100
AcDbArc
 50
270.0
 51
0.0
  0
ARC
  5
413
330
1F
100
AcDbEntity
  8
図面枠
  6
CONTINUOUS
 62
     3
100
AcDbCircle
 10
971.30203
 20
659.2936475
 30
0.0
 40
3.0
100
AcDbArc
 50
0.0
 51
90.0
  0
ARC
  5
414
330
1F
100
AcDbEntity
  8
図面枠
  6
CONTINUOUS
 62
     3
100
AcDbCircle
 10
971.30203
 20
656.2936475
 30
0.0
 40
3.000000000000114
100
AcDbArc
 50
270.0
 51
0.0
  0
ARC
  5
415
330
1F
100
AcDbEntity
  8
図面枠
  6
CONTINUOUS
 62
     3
100
AcDbCircle
 10
971.30203
 20
650.2936475
 30
0.0
 40
3.0
100
AcDbArc
 50
0.0
 51
90.0
  0
ARC
  5
416
330
1F
100
AcDbEntity
  8
図面枠
  6
CONTINUOUS
 62
     3
100
AcDbCircle
 10
971.30203
 20
647.2936475
 30
0.0
 40
3.0
100
AcDbArc
 50
270.0
 51
0.0
  0
ARC
  5
417
330
1F
100
AcDbEntity
  8
図面枠
  6
CONTINUOUS
 62
     3
100
AcDbCircle
 10
971.30203
 20
641.2936475
 30
0.0
 40
3.000000000000114
100
AcDbArc
 50
0.0
 51
90.0
  0
ARC
  5
418
330
1F
100
AcDbEntity
  8
図面枠
  6
CONTINUOUS
 62
     3
100
AcDbCircle
 10
971.30203
 20
638.2936475
 30
0.0
 40
3.0
100
AcDbArc
 50
270.0
 51
0.0
  0
ARC
  5
419
330
1F
100
AcDbEntity
  8
図面枠
  6
CONTINUOUS
 62
     3
100
AcDbCircle
 10
887.30203
 20
629.2936475
 30
0.0
 40
3.000000000000114
100
AcDbArc
 50
180.0
 51
270.0
  0
ARC
  5
41A
330
1F
100
AcDbEntity
  8
図面枠
  6
CONTINUOUS
 62
     3
100
AcDbCircle
 10
887.30203
 20
638.2936475
 30
0.0
 40
2.999999999999886
100
AcDbArc
 50
180.0
 51
270.0
  0
ARC
  5
41B
330
1F
100
AcDbEntity
  8
図面枠
  6
CONTINUOUS
 62
     3
100
AcDbCircle
 10
887.30203
 20
632.2936475
 30
0.0
 40
3.0
100
AcDbArc
 50
90.0
 51
180.0
  0
ARC
  5
41C
330
1F
100
AcDbEntity
  8
図面枠
  6
CONTINUOUS
 62
     3
100
AcDbCircle
 10
887.30203
 20
641.2936475
 30
0.0
 40
3.000000000000114
100
AcDbArc
 50
90.0
 51
180.0
  0
ARC
  5
41D
330
1F
100
AcDbEntity
  8
図面枠
  6
CONTINUOUS
 62
     3
100
AcDbCircle
 10
887.30203
 20
647.2936475
 30
0.0
 40
3.0
100
AcDbArc
 50
180.0
 51
270.0
  0
ARC
  5
41E
330
1F
100
AcDbEntity
  8
図面枠
  6
CONTINUOUS
 62
     3
100
AcDbCircle
 10
887.30203
 20
650.2936475
 30
0.0
 40
2.999999999999886
100
AcDbArc
 50
90.0
 51
180.0
  0
ARC
  5
41F
330
1F
100
AcDbEntity
  8
図面枠
  6
CONTINUOUS
 62
     3
100
AcDbCircle
 10
887.30203
 20
656.2936475
 30
0.0
 40
3.000000000000114
100
AcDbArc
 50
180.0
 51
270.0
  0
ARC
  5
420
330
1F
100
AcDbEntity
  8
図面枠
  6
CONTINUOUS
 62
     3
100
AcDbCircle
 10
887.30203
 20
659.2936475
 30
0.0
 40
3.0
100
AcDbArc
 50
90.0
 51
180.0
  0
ARC
  5
421
330
1F
100
AcDbEntity
  8
図面枠
  6
CONTINUOUS
 62
     1
100
AcDbCircle
 10
1066.5232375
 20
418.5920925
 30
0.0
 40
2.0
100
AcDbArc
 50
180.0
 51
270.0
  0
ARC
  5
422
330
1F
100
AcDbEntity
  8
図面枠
  6
CONTINUOUS
 62
     1
100
AcDbCircle
 10
1063.5232375
 20
440.0920925
 30
0.0
 40
1.000000000003182
100
AcDbArc
 50
0.0
 51
89.9998567606
  0
ARC
  5
423
330
1F
100
AcDbEntity
  8
図面枠
  6
CONTINUOUS
 62
     1
100
AcDbCircle
 10
1066.5232375
 20
378.5920925
 30
0.0
 40
2.0
100
AcDbArc
 50
90.0
 51
180.0
  0
ARC
  5
424
330
1F
100
AcDbEntity
  8
図面枠
  6
CONTINUOUS
 62
     1
100
AcDbCircle
 10
1063.5232375
 20
357.0920925
 30
0.0
 40
1.0
100
AcDbArc
 50
270.0
 51
0.0
  0
ARC
  5
425
330
1F
100
AcDbEntity
  8
図面枠
  6
CONTINUOUS
 62
     1
100
AcDbCircle
 10
1080.5232375
 20
415.5920925
 30
0.0
 40
1.000000000000114
100
AcDbArc
 50
0.0
 51
90.0
  0
ARC
  5
426
330
1F
100
AcDbEntity
  8
図面枠
  6
CONTINUOUS
 62
     1
100
AcDbCircle
 10
1080.5232375
 20
381.5920925
 30
0.0
 40
1.000000000000114
100
AcDbArc
 50
270.0
 51
0.0
  0
ARC
  5
427
330
1F
100
AcDbEntity
  8
図面枠
  6
CONTINUOUS
 62
     1
100
AcDbCircle
 10
906.0232375
 20
314.0920925
 30
0.0
 40
0.5
100
AcDbArc
 50
90.0
 51
180.0
  0
ARC
  5
428
330
1F
100
AcDbEntity
  8
図面枠
  6
CONTINUOUS
 62
     1
100
AcDbCircle
 10
798.023238275
 20
355.6338325
 30
0.0
 40
0.5
100
AcDbArc
 50
0.0
 51
90.0
  0
ARC
  5
429
330
1F
100
AcDbEntity
  8
図面枠
  6
CONTINUOUS
 62
     1
100
AcDbCircle
 10
798.0232375
 20
441.550355
 30
0.0
 40
0.5
100
AcDbArc
 50
270.0
 51
0.0
  0
ARC
  5
42A
330
1F
100
AcDbEntity
  8
図面枠
  6
CONTINUOUS
 62
     1
100
AcDbCircle
 10
955.5649775
 20
579.0920925
 30
0.0
 40
0.5
100
AcDbArc
 50
270.0
 51
0.0
  0
ARC
  5
42B
330
1F
100
AcDbEntity
  8
図面枠
  6
CONTINUOUS
 62
     1
100
AcDbCircle
 10
1058.5232375
 20
355.0920925
 30
0.0
 40
1.000000000000057
100
AcDbArc
 50
90.0
 51
180.0
  0
ARC
  5
42C
330
1F
100
AcDbEntity
  8
図面枠
  6
CONTINUOUS
 62
     1
100
AcDbCircle
 10
1058.5232375
 20
442.0920925
 30
0.0
 40
1.0
100
AcDbArc
 50
180.0
 51
270.0
  0
ARC
  5
42D
330
1F
100
AcDbEntity
  8
図面枠
  6
CONTINUOUS
 62
     1
100
AcDbCircle
 10
819.5232371409
 20
318.2602893132
 30
0.0
 40
1.0
100
AcDbArc
 50
0.0
 51
62.392332
  0
ARC
  5
42E
330
1F
100
AcDbEntity
  8
図面枠
  6
CONTINUOUS
 62
     1
100
AcDbCircle
 10
821.5232375
 20
319.47469
 30
0.0
 40
0.9999999999998995
100
AcDbArc
 50
139.457509
 51
180.0
  0
ARC
  5
42F
330
1F
100
AcDbEntity
  8
図面枠
  6
CONTINUOUS
 62
     1
100
AcDbCircle
 10
1017.5232375448
 20
538.5920925665
 30
0.0
 40
40.00000000000005
100
AcDbArc
 50
4.301222
 51
54.094045
  0
ARC
  5
430
330
1F
100
AcDbEntity
  8
図面枠
  6
CONTINUOUS
 62
     1
100
AcDbCircle
 10
1017.5232375
 20
354.5920925
 30
0.0
 40
43.00000000000011
100
AcDbArc
 50
287.597337
 51
0.0
  0
ARC
  5
431
330
1F
100
AcDbEntity
  8
図面枠
  6
CONTINUOUS
 62
     1
100
AcDbCircle
 10
1039.9815
 20
570.5166
 30
0.0
 40
0.9999999999998622
100
AcDbArc
 50
311.061709
 51
0.0
  0
ARC
  5
432
330
1F
100
AcDbEntity
  8
図面枠
  6
CONTINUOUS
 62
     3
100
AcDbCircle
 10
838.5232375
 20
354.5920925
 30
0.0
 40
42.00000000000004
100
AcDbArc
 50
180.0
 51
244.623066
  0
ARC
  5
433
330
1F
100
AcDbEntity
  8
図面枠
  6
CONTINUOUS
 62
     3
100
AcDbCircle
 10
1017.5232375
 20
354.5920925
 30
0.0
 40
42.00000000000004
100
AcDbArc
 50
288.030535
 51
0.0
  0
ARC
  5
434
330
1F
100
AcDbEntity
  8
図面枠
  6
CONTINUOUS
 62
     3
100
AcDbCircle
 10
1017.5232375448
 20
538.5920925665
 30
0.0
 40
42.00000008020528
100
AcDbArc
 50
4.096044
 51
56.0457977454
  0
ARC
  5
435
330
1F
100
AcDbEntity
  8
図面枠
  6
CONTINUOUS
 62
     3
100
AcDbCircle
 10
838.5232375
 20
538.5920925
 30
0.0
 40
41.99999999999989
100
AcDbArc
 50
90.0
 51
180.0
  0
ARC
  5
436
330
1F
100
AcDbEntity
  8
図面枠
  6
CONTINUOUS
 62
     1
100
AcDbCircle
 10
838.5232375
 20
354.5920925
 30
0.0
 40
39.99999922499383
100
AcDbArc
 50
180.0
 51
242.3923307783
  0
ARC
  5
437
330
1F
100
AcDbEntity
  8
図面枠
  6
CONTINUOUS
 62
     1
100
AcDbCircle
 10
1017.5232375
 20
354.5920925
 30
0.0
 40
40.00000000000011
100
AcDbArc
 50
288.965575
 51
0.0
  0
ARC
  5
438
330
1F
100
AcDbEntity
  8
図面枠
  6
CONTINUOUS
 62
     1
100
AcDbCircle
 10
838.5232375
 20
538.5920925
 30
0.0
 40
40.00000000000011
100
AcDbArc
 50
90.0
 51
180.0
  0
ARC
  5
439
330
1F
100
AcDbEntity
  8
図面枠
  6
CONTINUOUS
 62
     1
100
AcDbCircle
 10
1017.5232375448
 20
538.5920925665
 30
0.0
 40
42.99999999999996
100
AcDbArc
 50
3.924226
 51
56.871976
  0
ARC
  5
43A
330
1F
100
AcDbEntity
  8
図面枠
  6
CONTINUOUS
 62
     1
100
AcDbCircle
 10
838.5232375
 20
354.5920925
 30
0.0
 40
43.00000000000001
100
AcDbArc
 50
180.0
 51
245.253475
  0
ARC
  5
43B
330
1F
100
AcDbEntity
  8
図面枠
  6
CONTINUOUS
 62
     1
100
AcDbCircle
 10
838.5232375
 20
538.5920925
 30
0.0
 40
43.00000000000011
100
AcDbArc
 50
90.0
 51
180.0
  0
ARC
  5
43C
330
1F
100
AcDbEntity
  8
図面枠
  6
CONTINUOUS
 62
     1
100
AcDbCircle
 10
243.7373775
 20
376.2616825
 30
0.0
 40
1.999999999999964
100
AcDbArc
 50
98.59563
 51
179.001561
  0
ARC
  5
43D
330
1F
100
AcDbEntity
  8
図面枠
  6
CONTINUOUS
 62
     1
100
AcDbCircle
 10
243.2890000963
 20
379.2279868626
 30
0.0
 40
1.000000644628548
100
AcDbArc
 50
278.5954861919
 51
359.001561
  0
ARC
  5
43E
330
1F
100
AcDbEntity
  8
図面枠
  6
CONTINUOUS
 62
     1
100
AcDbCircle
 10
239.9981625
 20
362.566005
 30
0.0
 40
0.5
100
AcDbArc
 50
90.0
 51
179.001561
  0
ARC
  5
43F
330
1F
100
AcDbEntity
  8
図面枠
  6
CONTINUOUS
 62
     1
100
AcDbCircle
 10
240.036435
 20
364.7621025
 30
0.0
 40
0.4999999999999837
100
AcDbArc
 50
90.0
 51
179.001561
  0
ARC
  5
440
330
1F
100
AcDbEntity
  8
図面枠
  6
CONTINUOUS
 62
     1
100
AcDbCircle
 10
303.9589900078
 20
359.2616824906
 30
0.0
 40
34.49999999999998
100
AcDbArc
 50
50.25706
 51
129.74294
  0
ARC
  5
441
330
1F
100
AcDbEntity
  8
図面枠
  6
CONTINUOUS
 62
     1
100
AcDbCircle
 10
273.4589900078
 20
359.2616824906
 30
0.0
 40
14.99999999999992
100
AcDbArc
 50
129.74294
 51
172.819244
  0
ARC
  5
442
330
1F
100
AcDbEntity
  8
図面枠
  6
CONTINUOUS
 62
     1
100
AcDbCircle
 10
334.4589900078
 20
359.2616824906
 30
0.0
 40
15.00000000000012
100
AcDbArc
 50
7.180756
 51
50.25706
  0
ARC
  5
443
330
1F
100
AcDbEntity
  8
図面枠
  6
CONTINUOUS
 62
     1
100
AcDbCircle
 10
398.4589899516
 20
359.2616825106
 30
0.0
 40
14.99999999999995
100
AcDbArc
 50
129.74294
 51
172.819244
  0
ARC
  5
444
330
1F
100
AcDbEntity
  8
図面枠
  6
CONTINUOUS
 62
     1
100
AcDbCircle
 10
428.9589899516
 20
359.2616825106
 30
0.0
 40
34.49999999999998
100
AcDbArc
 50
50.25706
 51
129.74294
  0
ARC
  5
445
330
1F
100
AcDbEntity
  8
図面枠
  6
CONTINUOUS
 62
     1
100
AcDbCircle
 10
459.4589898439
 20
359.261682381
 30
0.0
 40
14.9999998315418
100
AcDbArc
 50
7.180756
 51
50.2570659031
  0
ARC
  5
446
330
1F
100
AcDbEntity
  8
図面枠
  6
CONTINUOUS
 62
     1
100
AcDbCircle
 10
398.4589899516
 20
359.2616825106
 30
0.0
 40
20.00000000000007
100
AcDbArc
 50
129.74294
 51
160.528779
  0
ARC
  5
447
330
1F
100
AcDbEntity
  8
図面枠
  6
CONTINUOUS
 62
     1
100
AcDbCircle
 10
428.9589899516
 20
359.2616825106
 30
0.0
 40
39.50000155067369
100
AcDbArc
 50
50.25706
 51
129.7429413749
  0
ARC
  5
448
330
1F
100
AcDbEntity
  8
図面枠
  6
CONTINUOUS
 62
     1
100
AcDbCircle
 10
459.4589898439
 20
359.261682381
 30
0.0
 40
20.00000169471656
100
AcDbArc
 50
19.471221
 51
50.2570607054
  0
ARC
  5
449
330
1F
100
AcDbEntity
  8
図面枠
  6
CONTINUOUS
 62
     1
100
AcDbCircle
 10
334.4589900078
 20
359.2616824906
 30
0.0
 40
20.00000005989474
100
AcDbArc
 50
19.471221
 51
50.25706
  0
ARC
  5
44A
330
1F
100
AcDbEntity
  8
図面枠
  6
CONTINUOUS
 62
     1
100
AcDbCircle
 10
303.9589900078
 20
359.2616824906
 30
0.0
 40
39.5000000122077
100
AcDbArc
 50
50.2570614135
 51
129.74294
  0
ARC
  5
44B
330
1F
100
AcDbEntity
  8
図面枠
  6
CONTINUOUS
 62
     1
100
AcDbCircle
 10
273.4589900078
 20
359.2616824906
 30
0.0
 40
19.99999998779228
100
AcDbArc
 50
129.7429392946
 51
160.528779
  0
ARC
  5
44C
330
1F
100
AcDbEntity
  8
図面枠
  6
CONTINUOUS
 62
     1
100
AcDbCircle
 10
253.6600000757
 20
366.2616824666
 30
0.0
 40
1.000000059763124
100
AcDbArc
 50
270.0
 51
340.528789097
  0
ARC
  5
44D
330
1F
100
AcDbEntity
  8
図面枠
  6
CONTINUOUS
 62
     1
100
AcDbCircle
 10
354.2579800079
 20
366.2616824907
 30
0.0
 40
1.000000059763155
100
AcDbArc
 50
199.4712109031
 51
270.0
  0
ARC
  5
44E
330
1F
100
AcDbEntity
  8
図面枠
  6
CONTINUOUS
 62
     1
100
AcDbCircle
 10
479.2579813853
 20
366.261682926
 30
0.0
 40
1.000000059763181
100
AcDbArc
 50
199.4712109031
 51
270.0
  0
ARC
  5
44F
330
1F
100
AcDbEntity
  8
図面枠
  6
CONTINUOUS
 62
     1
100
AcDbCircle
 10
378.6600000079
 20
366.2616824907
 30
0.0
 40
1.000000059763124
100
AcDbArc
 50
270.0
 51
340.528789097
  0
ARC
  5
450
330
1F
100
AcDbEntity
  8
図面枠
  6
CONTINUOUS
 62
     1
100
AcDbCircle
 10
257.5844823275
 20
361.2616825133
 30
0.0
 40
0.9999998182430719
100
AcDbArc
 50
270.0
 51
352.8192448726
  0
ARC
  5
451
330
1F
100
AcDbEntity
  8
図面枠
  6
CONTINUOUS
 62
     1
100
AcDbCircle
 10
350.3334976881
 20
361.2616825133
 30
0.0
 40
0.9999998182431113
100
AcDbArc
 50
187.1807551274
 51
270.0
  0
ARC
  5
452
330
1F
100
AcDbEntity
  8
図面枠
  6
CONTINUOUS
 62
     1
100
AcDbCircle
 10
382.5844822713
 20
361.2616825333
 30
0.0
 40
0.9999998182430719
100
AcDbArc
 50
270.0
 51
352.8192448726
  0
ARC
  5
453
330
1F
100
AcDbEntity
  8
図面枠
  6
CONTINUOUS
 62
     1
100
AcDbCircle
 10
475.3334973571
 20
361.2616823827
 30
0.0
 40
0.9999998182431212
100
AcDbArc
 50
187.1807551274
 51
270.0
  0
ARC
  5
454
330
1F
100
AcDbEntity
  8
図面枠
  6
CONTINUOUS
 62
     1
100
AcDbCircle
 10
494.7256807661
 20
388.2616825134
 30
0.0
 40
14.50000076624524
100
AcDbArc
 50
0.9984392625
 51
91.93776
  0
ARC
  5
455
330
1F
100
AcDbEntity
  8
図面枠
  6
CONTINUOUS
 62
     1
100
AcDbCircle
 10
494.2015657607
 20
403.7528201734
 30
0.0
 40
1.000000606082795
100
AcDbArc
 50
180.998439
 51
271.9377806018
  0
ARC
  5
456
330
1F
100
AcDbEntity
  8
図面枠
  6
CONTINUOUS
 62
     3
100
AcDbCircle
 10
467.7898268239
 20
570.6223849882
 30
0.0
 40
22.49999932381693
100
AcDbArc
 50
0.9984359152
 51
88.099454
  0
ARC
  5
457
330
1F
100
AcDbEntity
  8
図面枠
  6
CONTINUOUS
 62
     3
100
AcDbCircle
 10
368.95899
 20
-2407.7383175
 30
0.0
 40
3002.5
100
AcDbArc
 50
88.099454
 51
91.900546
  0
ARC
  5
458
330
1F
100
AcDbEntity
  8
図面枠
  6
CONTINUOUS
 62
     3
100
AcDbCircle
 10
270.1281525
 20
570.622385
 30
0.0
 40
22.50000000000002
100
AcDbArc
 50
91.900546
 51
179.001561
  0
ARC
  5
459
330
1F
100
AcDbEntity
  8
図面枠
  6
CONTINUOUS
 62
     1
100
AcDbCircle
 10
494.6289797323
 20
379.2279872656
 30
0.0
 40
1.000000000000025
100
AcDbArc
 50
180.998439
 51
261.40437
  0
ARC
  5
45A
330
1F
100
AcDbEntity
  8
図面枠
  6
CONTINUOUS
 62
     1
100
AcDbCircle
 10
494.1805997671
 20
376.2616824959
 30
0.0
 40
2.000001429984452
100
AcDbArc
 50
0.9985005209
 51
81.4043710889
  0
ARC
  5
45B
330
1F
100
AcDbEntity
  8
図面枠
  6
CONTINUOUS
 62
     1
100
AcDbCircle
 10
497.881545
 20
364.7621032932
 30
0.0
 40
0.4999992068300268
100
AcDbArc
 50
0.998432656
 51
90.0
  0
ARC
  5
45C
330
1F
100
AcDbEntity
  8
図面枠
  6
CONTINUOUS
 62
     1
100
AcDbCircle
 10
497.9198175
 20
362.566005
 30
0.0
 40
0.5000000000000435
100
AcDbArc
 50
0.998439
 51
90.0
  0
CIRCLE
  5
45D
330
1F
100
AcDbEntity
  8
図面枠
  6
CONTINUOUS
 62
     3
100
AcDbCircle
 10
271.45899
 20
359.2616825
 30
0.0
 40
6.5
  0
CIRCLE
  5
45E
330
1F
100
AcDbEntity
  8
図面枠
  6
CONTINUOUS
 62
     3
100
AcDbCircle
 10
336.45899
 20
359.2616825
 30
0.0
 40
6.5
  0
CIRCLE
  5
45F
330
1F
100
AcDbEntity
  8
図面枠
  6
CONTINUOUS
 62
     3
100
AcDbCircle
 10
461.45899
 20
359.2616825
 30
0.0
 40
6.5
  0
CIRCLE
  5
460
330
1F
100
AcDbEntity
  8
図面枠
  6
CONTINUOUS
 62
     3
100
AcDbCircle
 10
396.45899
 20
359.2616825
 30
0.0
 40
6.5
  0
ARC
  5
461
330
1F
100
AcDbEntity
  8
図面枠
  6
CONTINUOUS
 62
     1
100
AcDbCircle
 10
459.4589898439
 20
359.261682381
 30
0.0
 40
12.00000000000001
100
AcDbArc
 50
309.134854
 51
50.865166
  0
ARC
  5
462
330
1F
100
AcDbEntity
  8
図面枠
  6
CONTINUOUS
 62
     1
100
AcDbCircle
 10
398.4589899516
 20
359.2616825106
 30
0.0
 40
11.99999999999999
100
AcDbArc
 50
129.134835
 51
230.865148
  0
ARC
  5
463
330
1F
100
AcDbEntity
  8
図面枠
  6
CONTINUOUS
 62
     1
100
AcDbCircle
 10
428.9589899516
 20
359.2616825106
 30
0.0
 40
31.24999999999997
100
AcDbArc
 50
230.865202
 51
309.134854
  0
ARC
  5
464
330
1F
100
AcDbEntity
  8
図面枠
  6
CONTINUOUS
 62
     1
100
AcDbCircle
 10
428.9589899516
 20
359.2616825106
 30
0.0
 40
31.24999999999996
100
AcDbArc
 50
50.865163
 51
129.055222
  0
CIRCLE
  5
465
330
1F
100
AcDbEntity
  8
図面枠
  6
CONTINUOUS
 62
     1
100
AcDbCircle
 10
428.9589899516
 20
359.2616825106
 30
0.0
 40
12.26215250000005
  0
ARC
  5
466
330
1F
100
AcDbEntity
  8
図面枠
  6
CONTINUOUS
 62
     1
100
AcDbCircle
 10
334.4589900078
 20
359.2616824906
 30
0.0
 40
12.00000000000006
100
AcDbArc
 50
309.134854
 51
50.865166
  0
ARC
  5
467
330
1F
100
AcDbEntity
  8
図面枠
  6
CONTINUOUS
 62
     1
100
AcDbCircle
 10
273.4589900078
 20
359.2616824906
 30
0.0
 40
11.99999999999996
100
AcDbArc
 50
129.134835
 51
230.865148
  0
ARC
  5
468
330
1F
100
AcDbEntity
  8
図面枠
  6
CONTINUOUS
 62
     1
100
AcDbCircle
 10
303.9589900078
 20
359.2616824906
 30
0.0
 40
31.24999999999997
100
AcDbArc
 50
230.865202
 51
309.134854
  0
ARC
  5
469
330
1F
100
AcDbEntity
  8
図面枠
  6
CONTINUOUS
 62
     1
100
AcDbCircle
 10
303.9589900078
 20
359.2616824906
 30
0.0
 40
31.25000000000004
100
AcDbArc
 50
50.865163
 51
129.055222
  0
CIRCLE
  5
46A
330
1F
100
AcDbEntity
  8
図面枠
  6
CONTINUOUS
 62
     1
100
AcDbCircle
 10
303.9589900078
 20
359.2616824906
 30
0.0
 40
12.26215249219507
  0
ARC
  5
46B
330
1F
100
AcDbEntity
  8
図面枠
  6
CONTINUOUS
 62
     1
100
AcDbCircle
 10
501.4286804952
 20
303.1578750171
 30
0.0
 40
0.9999995044825546
100
AcDbArc
 50
181.97494882
 51
248.558969
  0
ARC
  5
46C
330
1F
100
AcDbEntity
  8
図面枠
  6
CONTINUOUS
 62
     1
100
AcDbCircle
 10
500.8803656096
 20
301.7616812386
 30
0.0
 40
0.5000005874399635
100
AcDbArc
 50
1.000292012
 51
89.9999939591
  0
ARC
  5
46D
330
1F
100
AcDbEntity
  8
図面枠
  6
CONTINUOUS
 62
     1
100
AcDbCircle
 10
237.0376131623
 20
301.7616824884
 30
0.0
 40
0.4999993376304008
100
AcDbArc
 50
90.0
 51
178.999848727
  0
ARC
  5
46E
330
1F
100
AcDbEntity
  8
図面枠
  6
CONTINUOUS
 62
     1
100
AcDbCircle
 10
236.4892982533
 20
303.157874974
 30
0.0
 40
1.000000753740093
100
AcDbArc
 50
291.441031
 51
358.0250561164
  0
ARC
  5
46F
330
1F
100
AcDbEntity
  8
図面枠
  6
CONTINUOUS
 62
     1
100
AcDbCircle
 10
237.82076
 20
327.2616825
 30
0.0
 40
0.5
100
AcDbArc
 50
358.025066
 51
90.0
  0
ARC
  5
470
330
1F
100
AcDbEntity
  8
図面枠
  6
CONTINUOUS
 62
     1
100
AcDbCircle
 10
502.45899
 20
389.5116825
 30
0.0
 40
1.000000000000049
100
AcDbArc
 50
359.999982
 51
89.999964
  0
ARC
  5
471
330
1F
100
AcDbEntity
  8
図面枠
  6
CONTINUOUS
 62
     1
100
AcDbCircle
 10
505.45899
 20
379.2616825
 30
0.0
 40
1.999999999999886
100
AcDbArc
 50
180.0
 51
270.0
  0
ARC
  5
472
330
1F
100
AcDbEntity
  8
図面枠
  6
CONTINUOUS
 62
     1
100
AcDbCircle
 10
519.45899
 20
376.2616825
 30
0.0
 40
0.9999999999999432
100
AcDbArc
 50
0.0
 51
90.0
  0
ARC
  5
473
330
1F
100
AcDbEntity
  8
図面枠
  6
CONTINUOUS
 62
     1
100
AcDbCircle
 10
519.45899
 20
342.2616825
 30
0.0
 40
0.9999999999999432
100
AcDbArc
 50
270.0
 51
0.0
  0
ARC
  5
474
330
1F
100
AcDbEntity
  8
図面枠
  6
CONTINUOUS
 62
     1
100
AcDbCircle
 10
505.45899
 20
339.2616825
 30
0.0
 40
2.000000000000057
100
AcDbArc
 50
90.0
 51
180.0
  0
ARC
  5
475
330
1F
100
AcDbEntity
  8
図面枠
  6
CONTINUOUS
 62
     1
100
AcDbCircle
 10
502.45899
 20
329.0116825
 30
0.0
 40
1.000000000000114
100
AcDbArc
 50
270.000036
 51
0.0
  0
ARC
  5
476
330
1F
100
AcDbEntity
  8
図面枠
  6
CONTINUOUS
 62
     3
100
AcDbCircle
 10
459.95899
 20
372.4616825
 30
0.0
 40
7.700000000000059
100
AcDbArc
 50
104.214472
 51
130.044013
  0
ARC
  5
477
330
1F
100
AcDbEntity
  8
図面枠
  6
CONTINUOUS
 62
     3
100
AcDbCircle
 10
396.20899
 20
373.5616675
 30
0.0
 40
1.999999999999988
100
AcDbArc
 50
30.0
 51
90.0
  0
ARC
  5
478
330
1F
100
AcDbEntity
  8
ケ_シングCV
  6
CONTINUOUS
 62
     3
100
AcDbCircle
 10
777.5232375
 20
418.5920925
 30
0.0
 40
2.0
100
AcDbArc
 50
270.0
 51
359.999982
  0
ARC
  5
479
330
1F
100
AcDbEntity
  8
ケ_シングCV
  6
CONTINUOUS
 62
     1
100
AcDbCircle
 10
789.5232375
 20
401.5921075
 30
0.0
 40
1.000000000000114
100
AcDbArc
 50
90.0
 51
180.0
  0
ARC
  5
47A
330
1F
100
AcDbEntity
  8
ケ_シングCV
  6
CONTINUOUS
 62
     1
100
AcDbCircle
 10
789.5232375
 20
395.592125
 30
0.0
 40
1.000000000000114
100
AcDbArc
 50
180.0
 51
270.0
  0
ARC
  5
47B
330
1F
100
AcDbEntity
  8
ケ_シングCV
  6
CONTINUOUS
 62
     3
100
AcDbCircle
 10
767.5232375
 20
382.5920925
 30
0.0
 40
2.000000000000057
100
AcDbArc
 50
180.0
 51
270.0
  0
ARC
  5
47C
330
1F
100
AcDbEntity
  8
ケ_シングCV
  6
CONTINUOUS
 62
     3
100
AcDbCircle
 10
767.5232375
 20
414.5920925
 30
0.0
 40
2.0
100
AcDbArc
 50
90.0
 51
180.0
  0
ARC
  5
47D
330
1F
100
AcDbEntity
  8
ケ_シングCV
  6
CONTINUOUS
 62
     3
100
AcDbCircle
 10
777.5232375
 20
378.5920925
 30
0.0
 40
1.999999999999985
100
AcDbArc
 50
359.999982
 51
90.0
  0
ARC
  5
47E
330
1F
100
AcDbEntity
  8
ケ_シングCV
  6
CONTINUOUS
 62
     3
100
AcDbCircle
 10
780.5232375
 20
357.0920925
 30
0.0
 40
1.0
100
AcDbArc
 50
180.0
 51
270.0
  0
ARC
  5
47F
330
1F
100
AcDbEntity
  8
ケ_シングCV
  6
CONTINUOUS
 62
     3
100
AcDbCircle
 10
780.5232375
 20
440.0920925
 30
0.0
 40
1.000000000000038
100
AcDbArc
 50
89.999963
 51
180.0
  0
ARC
  5
480
330
1F
100
AcDbEntity
  8
ケ_シングCV
  6
CONTINUOUS
 62
     1
100
AcDbCircle
 10
208.458975
 20
375.26167
 30
0.0
 40
2.000000000000032
100
AcDbArc
 50
90.000035
 51
180.000017
  0
ARC
  5
481
330
1F
100
AcDbEntity
  8
ケ_シングCV
  6
CONTINUOUS
 62
     1
100
AcDbCircle
 10
208.45896
 20
343.261695
 30
0.0
 40
1.999999999999974
100
AcDbArc
 50
180.000017
 51
269.99989
  0
ARC
  5
482
330
1F
100
AcDbEntity
  8
ケ_シングCV
  6
CONTINUOUS
 62
     1
100
AcDbCircle
 10
230.459005
 20
392.261665
 30
0.0
 40
1.0
100
AcDbArc
 50
90.0
 51
180.0
  0
ARC
  5
483
330
1F
100
AcDbEntity
  8
ケ_シングCV
  6
CONTINUOUS
 62
     1
100
AcDbCircle
 10
221.45899
 20
328.761725
 30
0.0
 40
1.000000000000006
100
AcDbArc
 50
179.999088
 51
269.999945
  0
ARC
  5
484
330
1F
100
AcDbEntity
  8
ケ_シングCV
  6
CONTINUOUS
 62
     1
100
AcDbCircle
 10
221.45908
 20
389.7616025
 30
0.0
 40
1.000000000000072
100
AcDbArc
 50
90.0
 51
179.99999
  0
ARC
  5
485
330
1F
100
AcDbEntity
  8
ケ_シングCV
  6
CONTINUOUS
 62
     1
100
AcDbCircle
 10
218.45908
 20
379.26167
 30
0.0
 40
2.000000000000057
100
AcDbArc
 50
270.0
 51
359.999981
  0
ARC
  5
486
330
1F
100
AcDbEntity
  8
ケ_シングCV
  6
CONTINUOUS
 62
     1
100
AcDbCircle
 10
218.45899
 20
339.261695
 30
0.0
 40
2.000000000000025
100
AcDbArc
 50
0.000473
 51
90.000018
  0
ARC
  5
487
330
1F
100
AcDbEntity
  8
LAYER001
  6
CONTINUOUS
 62
     1
100
AcDbCircle
 10
741.76947
 20
382.5922
 30
0.0
 40
2.999999999999994
100
AcDbArc
 50
90.000019
 51
117.266079
  0
ARC
  5
488
330
1F
100
AcDbEntity
  8
LAYER001
  6
CONTINUOUS
 62
     1
100
AcDbCircle
 10
741.769455
 20
414.592185
 30
0.0
 40
3.000000000000018
100
AcDbArc
 50
242.733813
 51
269.999983
  0
ARC
  5
489
330
1F
100
AcDbEntity
  8
LAYER001
  6
CONTINUOUS
 62
     1
100
AcDbCircle
 10
733.5232375
 20
398.592185
 30
0.0
 40
13.0
100
AcDbArc
 50
90.000019
 51
269.999983
  0
ARC
  5
48A
330
1F
100
AcDbEntity
  8
LAYER001
  6
CONTINUOUS
 62
     1
100
AcDbCircle
 10
733.5232375
 20
398.592185
 30
0.0
 40
14.99999999999997
100
AcDbArc
 50
62.733849
 51
297.266043
  0
ARC
  5
48B
330
1F
100
AcDbEntity
  8
LAYER001
  6
CONTINUOUS
 62
     1
100
AcDbCircle
 10
733.5232375
 20
398.592185
 30
0.0
 40
17.00000000000004
100
AcDbArc
 50
49.880744
 51
310.119148
  0
ARC
  5
48C
330
1F
100
AcDbEntity
  8
LAYER001
  6
CONTINUOUS
 62
     1
100
AcDbCircle
 10
174.459095
 20
357.2616825
 30
0.0
 40
15.00000000000001
100
AcDbArc
 50
90.0
 51
179.999964
  0
SPLINE
  5
48D
330
1F
100
AcDbEntity
  8
図面枠
  6
PHANTOM
 62
   179
100
AcDbSpline
210
0.0
220
0.0
230
1.0
 70
     8
 71
     3
 72
    11
 73
     7
 74
     0
 42
0.00000001
 43
0.00000001
 40
0.0
 40
0.0
 40
0.0
 40
0.0
 40
0.9925358580733988
 40
1.982577329258751
 40
2.972618800444103
 40
3.965154658517398
 40
3.965154658517398
 40
3.965154658517398
 40
3.965154658517398
 10
948.017685
 20
300.17265
 30
0.0
 10
948.2990221177603
 20
299.9985579856657
 30
0.0
 10
948.9015861612577
 20
299.7115434262425
 30
0.0
 10
949.8940733748664
 20
299.5324435547101
 30
0.0
 10
950.8865605884748
 20
299.7115434262424
 30
0.0
 10
951.4891246319723
 20
299.9985579856657
 30
0.0
 10
951.7704617497326
 20
300.17265
 30
0.0
  0
SPLINE
  5
48E
330
1F
100
AcDbEntity
  8
図面枠
  6
PHANTOM
 62
   179
100
AcDbSpline
210
0.0
220
0.0
230
1.0
 70
     8
 71
     3
 72
    11
 73
     7
 74
     0
 42
0.00000001
 43
0.00000001
 40
0.0
 40
0.0
 40
0.0
 40
0.0
 40
0.9925358580731928
 40
1.982577329258433
 40
2.972618800443897
 40
3.965154658517192
 40
3.965154658517192
 40
3.965154658517192
 40
3.965154658517192
 10
1024.276015249198
 20
300.17265
 30
0.0
 10
1024.557352366958
 20
299.9985579856657
 30
0.0
 10
1025.159916410455
 20
299.7115434262424
 30
0.0
 10
1026.152403624064
 20
299.5324435547101
 30
0.0
 10
1027.144890837673
 20
299.7115434262424
 30
0.0
 10
1027.74745488117
 20
299.9985579856657
 30
0.0
 10
1028.02879199893
 20
300.17265
 30
0.0
  0
SPLINE
  5
48F
330
1F
100
AcDbEntity
  8
図面枠
  6
PHANTOM
 62
   179
100
AcDbSpline
210
0.0
220
0.0
230
1.0
 70
     8
 71
     3
 72
    11
 73
     7
 74
     0
 42
0.00000001
 43
0.00000001
 40
0.0
 40
0.0
 40
0.0
 40
0.0
 40
1.902315857768556
 40
3.80805806683753
 40
5.713800275906505
 40
7.616116133675392
 40
7.616116133675392
 40
7.616116133675392
 40
7.616116133675392
 10
1016.770461749733
 20
300.17265
 30
0.0
 10
1017.376234579359
 20
299.9852232342427
 30
0.0
 10
1018.617199953618
 20
299.6951242352384
 30
0.0
 10
1020.523238499465
 20
299.5405316552994
 30
0.0
 10
1022.429277045313
 20
299.6951242352384
 30
0.0
 10
1023.670242419572
 20
299.9852232342427
 30
0.0
 10
1024.276015249198
 20
300.17265
 30
0.0
  0
SPLINE
  5
490
330
1F
100
AcDbEntity
  8
図面枠
  6
PHANTOM
 62
   179
100
AcDbSpline
210
0.0
220
0.0
230
1.0
 70
     8
 71
     3
 72
    11
 73
     7
 74
     0
 42
0.00000001
 43
0.00000001
 40
0.0
 40
0.0
 40
0.0
 40
0.0
 40
0.9925358580733988
 40
1.982577329258751
 40
2.972618800444215
 40
3.96515465851751
 40
3.96515465851751
 40
3.96515465851751
 40
3.96515465851751
 10
1013.017685
 20
300.17265
 30
0.0
 10
1013.29902211776
 20
299.9985579856657
 30
0.0
 10
1013.901586161258
 20
299.7115434262425
 30
0.0
 10
1014.894073374866
 20
299.5324435547101
 30
0.0
 10
1015.886560588475
 20
299.7115434262424
 30
0.0
 10
1016.489124631972
 20
299.9985579856657
 30
0.0
 10
1016.770461749733
 20
300.17265
 30
0.0
  0
SPLINE
  5
491
330
1F
100
AcDbEntity
  8
図面枠
  6
PHANTOM
 62
   179
100
AcDbSpline
210
0.0
220
0.0
230
1.0
 70
     8
 71
     3
 72
    11
 73
     7
 74
     0
 42
0.00000001
 43
0.00000001
 40
0.0
 40
0.0
 40
0.0
 40
0.0
 40
0.9925358580733988
 40
1.982577329258639
 40
2.972618800444103
 40
3.965154658517398
 40
3.965154658517398
 40
3.965154658517398
 40
3.965154658517398
 10
959.2760152491977
 20
300.17265
 30
0.0
 10
959.557352366958
 20
299.9985579856657
 30
0.0
 10
960.1599164104553
 20
299.7115434262425
 30
0.0
 10
961.1524036240642
 20
299.5324435547101
 30
0.0
 10
962.1448908376726
 20
299.7115434262424
 30
0.0
 10
962.74745488117
 20
299.9985579856657
 30
0.0
 10
963.0287919989302
 20
300.17265
 30
0.0
  0
SPLINE
  5
492
330
1F
100
AcDbEntity
  8
図面枠
  6
PHANTOM
 62
   179
100
AcDbSpline
210
0.0
220
0.0
230
1.0
 70
     8
 71
     3
 72
    11
 73
     7
 74
     0
 42
0.00000001
 43
0.00000001
 40
0.0
 40
0.0
 40
0.0
 40
0.0
 40
1.902315857768667
 40
3.808058066837641
 40
5.713800275906616
 40
7.616116133675282
 40
7.616116133675282
 40
7.616116133675282
 40
7.616116133675282
 10
951.7704617497326
 20
300.17265
 30
0.0
 10
952.3762345793585
 20
299.9852232342427
 30
0.0
 10
953.6171999536176
 20
299.6951242352384
 30
0.0
 10
955.5232384994652
 20
299.5405316552994
 30
0.0
 10
957.4292770453128
 20
299.6951242352384
 30
0.0
 10
958.6702424195718
 20
299.9852232342427
 30
0.0
 10
959.2760152491977
 20
300.17265
 30
0.0
  0
SPLINE
  5
493
330
1F
100
AcDbEntity
  8
図面枠
  6
PHANTOM
 62
   179
100
AcDbSpline
210
0.0
220
0.0
230
1.0
 70
     8
 71
     3
 72
    11
 73
     7
 74
     0
 42
0.00000001
 43
0.00000001
 40
0.0
 40
0.0
 40
0.0
 40
0.0
 40
0.9925358580733747
 40
1.982577329258755
 40
2.972618800444134
 40
3.965154658517406
 40
3.965154658517406
 40
3.965154658517406
 40
3.965154658517406
 10
958.517685
 20
592.0017325000001
 30
0.0
 10
958.7990221177603
 20
592.1758245143344
 30
0.0
 10
959.4015861612577
 20
592.4628390737574
 30
0.0
 10
960.3940733748664
 20
592.6419389452902
 30
0.0
 10
961.3865605884749
 20
592.4628390737574
 30
0.0
 10
961.9891246319722
 20
592.1758245143344
 30
0.0
 10
962.2704617497325
 20
592.0017325000001
 30
0.0
  0
SPLINE
  5
494
330
1F
100
AcDbEntity
  8
図面枠
  6
PHANTOM
 62
   179
100
AcDbSpline
210
0.0
220
0.0
230
1.0
 70
     8
 71
     3
 72
    11
 73
     7
 74
     0
 42
0.00000001
 43
0.00000001
 40
0.0
 40
0.0
 40
0.0
 40
0.0
 40
0.9925358580732717
 40
1.982577329258539
 40
2.972618800443919
 40
3.965154658517294
 40
3.965154658517294
 40
3.965154658517294
 40
3.965154658517294
 10
1034.776015249198
 20
592.0017325000001
 30
0.0
 10
1035.057352366958
 20
592.1758245143344
 30
0.0
 10
1035.659916410455
 20
592.4628390737574
 30
0.0
 10
1036.652403624064
 20
592.6419389452901
 30
0.0
 10
1037.644890837673
 20
592.4628390737574
 30
0.0
 10
1038.24745488117
 20
592.1758245143344
 30
0.0
 10
1038.52879199893
 20
592.0017325000001
 30
0.0
  0
SPLINE
  5
495
330
1F
100
AcDbEntity
  8
図面枠
  6
PHANTOM
 62
   179
100
AcDbSpline
210
0.0
220
0.0
230
1.0
 70
     8
 71
     3
 72
    11
 73
     7
 74
     0
 42
0.00000001
 43
0.00000001
 40
0.0
 40
0.0
 40
0.0
 40
0.0
 40
1.902315857768699
 40
3.808058066837558
 40
5.71380027590653
 40
7.616116133675339
 40
7.616116133675339
 40
7.616116133675339
 40
7.616116133675339
 10
1027.270461749732
 20
592.0017325000001
 30
0.0
 10
1027.876234579359
 20
592.1891592657574
 30
0.0
 10
1029.117199953618
 20
592.4792582647619
 30
0.0
 10
1031.023238499466
 20
592.6338508447009
 30
0.0
 10
1032.929277045313
 20
592.4792582647619
 30
0.0
 10
1034.170242419572
 20
592.1891592657576
 30
0.0
 10
1034.776015249198
 20
592.0017325000001
 30
0.0
  0
SPLINE
  5
496
330
1F
100
AcDbEntity
  8
図面枠
  6
PHANTOM
 62
   179
100
AcDbSpline
210
0.0
220
0.0
230
1.0
 70
     8
 71
     3
 72
    11
 73
     7
 74
     0
 42
0.00000001
 43
0.00000001
 40
0.0
 40
0.0
 40
0.0
 40
0.0
 40
0.9925358580733747
 40
1.982577329258755
 40
2.972618800444134
 40
3.965154658517509
 40
3.965154658517509
 40
3.965154658517509
 40
3.965154658517509
 10
1023.517685
 20
592.0017325000001
 30
0.0
 10
1023.79902211776
 20
592.1758245143344
 30
0.0
 10
1024.401586161258
 20
592.4628390737574
 30
0.0
 10
1025.394073374866
 20
592.6419389452902
 30
0.0
 10
1026.386560588475
 20
592.4628390737573
 30
0.0
 10
1026.989124631972
 20
592.1758245143344
 30
0.0
 10
1027.270461749732
 20
592.0017325000001
 30
0.0
  0
SPLINE
  5
497
330
1F
100
AcDbEntity
  8
図面枠
  6
PHANTOM
 62
   179
100
AcDbSpline
210
0.0
220
0.0
230
1.0
 70
     8
 71
     3
 72
    11
 73
     7
 74
     0
 42
0.00000001
 43
0.00000001
 40
0.0
 40
0.0
 40
0.0
 40
0.0
 40
0.9925358580732717
 40
1.982577329258651
 40
2.972618800444143
 40
3.965154658517415
 40
3.965154658517415
 40
3.965154658517415
 40
3.965154658517415
 10
969.7760152491976
 20
592.0017325000001
 30
0.0
 10
970.0573523669578
 20
592.1758245143344
 30
0.0
 10
970.6599164104553
 20
592.4628390737576
 30
0.0
 10
971.6524036240642
 20
592.6419389452901
 30
0.0
 10
972.6448908376725
 20
592.4628390737576
 30
0.0
 10
973.24745488117
 20
592.1758245143344
 30
0.0
 10
973.5287919989303
 20
592.0017325000001
 30
0.0
  0
SPLINE
  5
498
330
1F
100
AcDbEntity
  8
図面枠
  6
PHANTOM
 62
   179
100
AcDbSpline
210
0.0
220
0.0
230
1.0
 70
     8
 71
     3
 72
    11
 73
     7
 74
     0
 42
0.00000001
 43
0.00000001
 40
0.0
 40
0.0
 40
0.0
 40
0.0
 40
1.90231585776881
 40
3.808058066837669
 40
5.713800275906641
 40
7.616116133675339
 40
7.616116133675339
 40
7.616116133675339
 40
7.616116133675339
 10
962.2704617497325
 20
592.0017325000001
 30
0.0
 10
962.8762345793587
 20
592.1891592657576
 30
0.0
 10
964.1171999536174
 20
592.4792582647619
 30
0.0
 10
966.0232384994653
 20
592.6338508447009
 30
0.0
 10
967.9292770453125
 20
592.4792582647619
 30
0.0
 10
969.1702424195717
 20
592.1891592657574
 30
0.0
 10
969.7760152491976
 20
592.0017325000001
 30
0.0
  0
SPLINE
  5
499
330
1F
100
AcDbEntity
  8
図面枠
  6
CONTINUOUS
 62
     3
100
AcDbSpline
210
0.0
220
0.0
230
1.0
 70
     8
 71
     3
 72
    11
 73
     7
 74
     0
 42
0.00000001
 43
0.00000001
 40
0.0
 40
0.0
 40
0.0
 40
0.0
 40
0.0000880003511912
 40
0.0001760011313646
 40
0.4481877217422869
 40
0.9004024962898532
 40
0.9004024962898532
 40
0.9004024962898532
 40
0.9004024962898532
 10
998.5044912141635
 20
703.2987535816584
 30
0.0
 10
998.5044618832933
 20
703.2987531926053
 30
0.0
 10
998.5044032214093
 20
703.2987524145453
 30
0.0
 10
998.3550204491123
 20
703.2967713298606
 30
0.0
 10
998.0549351067539
 20
703.2940160172063
 30
0.0
 10
997.7549022946333
 20
703.2866845193057
 30
0.0
 10
997.6043083349493
 20
703.2800904472281
 30
0.0
  0
SPLINE
  5
49A
330
1F
100
AcDbEntity
  8
図面枠
  6
CONTINUOUS
 62
   179
100
AcDbSpline
210
0.0
220
0.0
230
1.0
 70
     8
 71
     3
 72
    71
 73
    67
 74
     0
 42
0.00000001
 43
0.00000001
 40
0.0
 40
0.0
 40
0.0
 40
0.0
 40
0.1038223746320611
 40
0.207367199828136
 40
0.3106307562014347
 40
0.4136090071970159
 40
0.5162976014546282
 40
0.6186918753317235
 40
0.7207868555599037
 40
0.8225772620123584
 40
0.9240575105583846
 40
1.025221715982823
 40
1.126063694949905
 40
1.226576968990831
 40
1.326754767495101
 40
1.426590030688197
 40
1.526075412576888
 40
1.625203283845998
 40
1.841710689844052
 40
2.057516316349518
 40
2.272662261557566
 40
2.487190315862223
 40
2.701141985610431
 40
2.914558516263581
 40
3.127480914894887
 40
3.339949971967863
 40
3.552006282361597
 40
3.763690265613663
 40
3.975042185378962
 40
4.186102168102614
 40
4.396910220925526
 40
4.607506248846913
 40
4.817930071176449
 40
5.028221437317157
 40
5.236737797247859
 40
5.441775944665763
 40
5.643279257317224
 40
5.841182315693234
 40
6.035413521378816
 40
6.225898137991139
 40
6.412561775756019
 40
6.595334350293252
 40
6.774154551971325
 40
6.948974862688887
 40
7.119767150291284
 40
7.286528854805641
 40
7.449289752942104
 40
7.608119245592013
 40
7.763134055840856
 40
7.914506152236203
 40
8.037055736383737
 40
8.160873108124804
 40
8.28596024888059
 40
8.412309654482426
 40
8.53990505521439
 40
8.668722105752249
 40
8.798729040181668
 40
8.929887288888468
 40
9.062152055458357
 40
9.195472852830592
 40
9.329793998844352
 40
9.465055071995627
 40
9.601191328743479
 40
9.738134084068037
 40
9.875811057222643
 40
10.01414668476371
 40
10.01414668476371
 40
10.01414668476371
 40
10.01414668476371
 10
1067.728346668439
 20
675.7172698988696
 30
0.0
 10
1067.762652691649
 20
675.7127121652932
 30
0.0
 10
1067.831200559741
 20
675.703814824038
 30
0.0
 10
1067.93395964246
 20
675.6910885556962
 30
0.0
 10
1068.036510129701
 20
675.6789808896519
 30
0.0
 10
1068.138842427549
 20
675.6674731913444
 30
0.0
 10
1068.24094700875
 20
675.6565470069498
 30
0.0
 10
1068.342814323622
 20
675.6461840696652
 30
0.0
 10
1068.444434810668
 20
675.6363662927085
 30
0.0
 10
1068.545798881247
 20
675.6270757657683
 30
0.0
 10
1068.646896911806
 20
675.618294750481
 30
0.0
 10
1068.747719234615
 20
675.6100056761519
 30
0.0
 10
1068.848256129655
 20
675.6021911354402
 30
0.0
 10
1068.948497815931
 20
675.5948338800717
 30
0.0
 10
1069.048434446186
 20
675.5879168167692
 30
0.0
 10
1069.148056090782
 20
675.5814230027065
 30
0.0
 10
1069.247352763222
 20
675.5753356431826
 30
0.0
 10
1069.385497792125
 20
675.5673821503896
 30
0.0
 10
1069.562408999968
 20
675.5582079163371
 30
0.0
 10
1069.778020668958
 20
675.5486890090518
 30
0.0
 10
1069.993038665018
 20
675.54082129397
 30
0.0
 10
1070.207491114938
 20
675.5345612643936
 30
0.0
 10
1070.421406817565
 20
675.5298651794253
 30
0.0
 10
1070.634815118834
 20
675.5266891152996
 30
0.0
 10
1070.847745972945
 20
675.524988996862
 30
0.0
 10
1071.060229949275
 20
675.5247206345654
 30
0.0
 10
1071.272298249188
 20
675.5258397598722
 30
0.0
 10
1071.483982715812
 20
675.5283020603747
 30
0.0
 10
1071.695315841046
 20
675.5320632147108
 30
0.0
 10
1071.906330770229
 20
675.5370789240087
 30
0.0
 10
1072.117061299401
 20
675.5433049513125
 30
0.0
 10
1072.327541885887
 20
675.5506971251111
 30
0.0
 10
1072.53780759563
 20
675.5592114696018
 30
0.0
 10
1072.747334106487
 20
675.5687782778846
 30
0.0
 10
1072.955017592863
 20
675.5792873182687
 30
0.0
 10
1073.159744120381
 20
675.5902409997454
 30
0.0
 10
1073.360928677748
 20
675.6011755355493
 30
0.0
 10
1073.558529122517
 20
675.6116776185004
 30
0.0
 10
1073.75249466853
 20
675.6213560158949
 30
0.0
 10
1073.942766600475
 20
675.6298417872647
 30
0.0
 10
1074.129279708746
 20
675.6367886161636
 30
0.0
 10
1074.31196439501
 20
675.6418733414325
 30
0.0
 10
1074.490749510383
 20
675.6447965613482
 30
0.0
 10
1074.665565968678
 20
675.6452831977734
 30
0.0
 10
1074.836351166215
 20
675.6430828591185
 30
0.0
 10
1075.003054252385
 20
675.6379697999422
 30
0.0
 10
1075.165642119018
 20
675.6297422525465
 30
0.0
 10
1075.324106395353
 20
675.6182208119781
 30
0.0
 10
1075.478469902943
 20
675.6032457601912
 30
0.0
 10
1075.620388379339
 20
675.5857113517678
 30
0.0
 10
1075.751514108912
 20
675.5660538438661
 30
0.0
 10
1075.87353137989
 20
675.5449541476064
 30
0.0
 10
1075.996301878481
 20
675.5209544584978
 30
0.0
 10
1076.119765582649
 20
675.4940872642381
 30
0.0
 10
1076.243857412543
 20
675.4643891364053
 30
0.0
 10
1076.368508024728
 20
675.4319008030494
 30
0.0
 10
1076.493644482354
 20
675.3966671955421
 30
0.0
 10
1076.619190888961
 20
675.3587374190889
 30
0.0
 10
1076.745068958452
 20
675.318164676251
 30
0.0
 10
1076.871198528964
 20
675.2750061490535
 30
0.0
 10
1076.997498015538
 20
675.2293228526712
 30
0.0
 10
1077.12388482127
 20
675.1811794608842
 30
0.0
 10
1077.250275646198
 20
675.1306441401535
 30
0.0
 10
1077.376586937478
 20
675.0777882869481
 30
0.0
 10
1077.502734581177
 20
675.0226865928635
 30
0.0
 10
1077.586485056764
 20
674.9845897883246
 30
0.0
 10
1077.6283175
 20
674.9651900000001
 30
0.0
  0
SPLINE
  5
49B
330
1F
100
AcDbEntity
  8
図面枠
  6
CONTINUOUS
 62
   179
100
AcDbSpline
210
0.0
220
0.0
230
1.0
 70
     8
 71
     3
 72
    15
 73
    11
 74
     0
 42
0.00000001
 43
0.00000001
 40
0.0
 40
0.0
 40
0.0
 40
0.0
 40
0.8646908355669305
 40
1.727046382938989
 40
3.337657284190416
 40
4.942822950994486
 40
6.556812523027525
 40
8.160944364088273
 40
9.064347789253093
 40
9.973312710762462
 40
9.973312710762462
 40
9.973312710762462
 40
9.973312710762462
 10
1067.728304556072
 20
677.535005931642
 30
0.0
 10
1068.013379303108
 20
677.4924726263489
 30
0.0
 10
1068.585372094877
 20
677.4245326847879
 30
0.0
 10
1069.695236178319
 20
677.3440573008725
 30
0.0
 10
1071.054969632209
 20
677.3107995504831
 30
0.0
 10
1072.665123278827
 20
677.3563954345643
 30
0.0
 10
1074.268231700522
 20
677.465716943285
 30
0.0
 10
1075.649016981253
 20
677.4327586508649
 30
0.0
 10
1076.767947528577
 20
677.2048226929159
 30
0.0
 10
1077.344351964007
 20
677.0203595469404
 30
0.0
 10
1077.628342261457
 20
676.9147592380587
 30
0.0
  0
SPLINE
  5
49C
330
1F
100
AcDbEntity
  8
図面枠
  6
CONTINUOUS
 62
     3
100
AcDbSpline
210
0.0
220
0.0
230
1.0
 70
     8
 71
     3
 72
    11
 73
     7
 74
     0
 42
0.00000001
 43
0.00000001
 40
0.0
 40
0.0
 40
0.0
 40
0.0
 40
0.9925358580734006
 40
1.982577329258715
 40
2.972618800444029
 40
3.96515465851743
 40
3.96515465851743
 40
3.96515465851743
 40
3.96515465851743
 10
772.0037950076136
 20
358.5865397553978
 30
0.0
 10
771.8297029932794
 20
358.867876873158
 30
0.0
 10
771.5426884338561
 20
359.4704409166555
 30
0.0
 10
771.3635885623236
 20
360.4629281302642
 30
0.0
 10
771.5426884338564
 20
361.4554153438727
 30
0.0
 10
771.8297029932794
 20
362.0579793873702
 30
0.0
 10
772.0037950076136
 20
362.3393165051305
 30
0.0
  0
SPLINE
  5
49D
330
1F
100
AcDbEntity
  8
図面枠
  6
CONTINUOUS
 62
     3
100
AcDbSpline
210
0.0
220
0.0
230
1.0
 70
     8
 71
     3
 72
    11
 73
     7
 74
     0
 42
0.00000001
 43
0.00000001
 40
0.0
 40
0.0
 40
0.0
 40
0.0
 40
0.9925358580732717
 40
1.982577329258726
 40
2.972618800444041
 40
3.965154658517312
 40
3.965154658517312
 40
3.965154658517312
 40
3.965154658517312
 10
772.0037950076136
 20
434.8448700045955
 30
0.0
 10
771.8297029932794
 20
435.1262071223557
 30
0.0
 10
771.5426884338563
 20
435.7287711658532
 30
0.0
 10
771.3635885623235
 20
436.7212583794618
 30
0.0
 10
771.5426884338564
 20
437.7137455930703
 30
0.0
 10
771.8297029932794
 20
438.3163096365678
 30
0.0
 10
772.0037950076136
 20
438.597646754328
 30
0.0
  0
SPLINE
  5
49E
330
1F
100
AcDbEntity
  8
図面枠
  6
CONTINUOUS
 62
     3
100
AcDbSpline
210
0.0
220
0.0
230
1.0
 70
     8
 71
     3
 72
    11
 73
     7
 74
     0
 42
0.00000001
 43
0.00000001
 40
0.0
 40
0.0
 40
0.0
 40
0.0
 40
1.902315857768617
 40
3.808058066837566
 40
5.713800275906514
 40
7.61611613367527
 40
7.61611613367527
 40
7.61611613367527
 40
7.61611613367527
 10
772.0037950076136
 20
427.3393165051305
 30
0.0
 10
771.8163682418563
 20
427.9450893347564
 30
0.0
 10
771.5262692428519
 20
429.1860547090154
 30
0.0
 10
771.3716766629127
 20
431.0920932548629
 30
0.0
 10
771.5262692428521
 20
432.9981318007106
 30
0.0
 10
771.8163682418563
 20
434.2390971749695
 30
0.0
 10
772.0037950076136
 20
434.8448700045955
 30
0.0
  0
SPLINE
  5
49F
330
1F
100
AcDbEntity
  8
図面枠
  6
CONTINUOUS
 62
     3
100
AcDbSpline
210
0.0
220
0.0
230
1.0
 70
     8
 71
     3
 72
    11
 73
     7
 74
     0
 42
0.00000001
 43
0.00000001
 40
0.0
 40
0.0
 40
0.0
 40
0.0
 40
0.9925358580734006
 40
1.982577329258715
 40
2.972618800444029
 40
3.96515465851743
 40
3.96515465851743
 40
3.96515465851743
 40
3.96515465851743
 10
772.0037950076136
 20
423.5865397553978
 30
0.0
 10
771.8297029932794
 20
423.867876873158
 30
0.0
 10
771.5426884338561
 20
424.4704409166555
 30
0.0
 10
771.3635885623236
 20
425.4629281302642
 30
0.0
 10
771.5426884338564
 20
426.4554153438727
 30
0.0
 10
771.8297029932794
 20
427.0579793873702
 30
0.0
 10
772.0037950076136
 20
427.3393165051305
 30
0.0
  0
SPLINE
  5
4A0
330
1F
100
AcDbEntity
  8
図面枠
  6
CONTINUOUS
 62
     3
100
AcDbSpline
210
0.0
220
0.0
230
1.0
 70
     8
 71
     3
 72
    11
 73
     7
 74
     0
 42
0.00000001
 43
0.00000001
 40
0.0
 40
0.0
 40
0.0
 40
0.0
 40
0.9925358580732717
 40
1.982577329258726
 40
2.97261880044418
 40
3.965154658517452
 40
3.965154658517452
 40
3.965154658517452
 40
3.965154658517452
 10
772.0037950076136
 20
369.8448700045955
 30
0.0
 10
771.8297029932794
 20
370.1262071223557
 30
0.0
 10
771.5426884338563
 20
370.7287711658532
 30
0.0
 10
771.3635885623235
 20
371.7212583794618
 30
0.0
 10
771.5426884338563
 20
372.7137455930705
 30
0.0
 10
771.8297029932794
 20
373.316309636568
 30
0.0
 10
772.0037950076136
 20
373.5976467543281
 30
0.0
  0
SPLINE
  5
4A1
330
1F
100
AcDbEntity
  8
図面枠
  6
CONTINUOUS
 62
     3
100
AcDbSpline
210
0.0
220
0.0
230
1.0
 70
     8
 71
     3
 72
    11
 73
     7
 74
     0
 42
0.00000001
 43
0.00000001
 40
0.0
 40
0.0
 40
0.0
 40
0.0
 40
1.902315857768756
 40
3.808058066837563
 40
5.713800275906653
 40
7.616116133675271
 40
7.616116133675271
 40
7.616116133675271
 40
7.616116133675271
 10
772.0037950076136
 20
362.3393165051305
 30
0.0
 10
771.8163682418563
 20
362.9450893347565
 30
0.0
 10
771.5262692428519
 20
364.1860547090154
 30
0.0
 10
771.3716766629129
 20
366.092093254863
 30
0.0
 10
771.5262692428518
 20
367.9981318007106
 30
0.0
 10
771.8163682418563
 20
369.2390971749695
 30
0.0
 10
772.0037950076136
 20
369.8448700045955
 30
0.0
  0
SPLINE
  5
4A2
330
1F
100
AcDbEntity
  8
図面枠
  6
CONTINUOUS
 62
     3
100
AcDbSpline
210
0.0
220
0.0
230
1.0
 70
     8
 71
     3
 72
    11
 73
     7
 74
     0
 42
0.00000001
 43
0.00000001
 40
0.0
 40
0.0
 40
0.0
 40
0.0
 40
0.9925358580733988
 40
1.982577329258751
 40
2.972618800444103
 40
3.965154658517501
 40
3.965154658517501
 40
3.965154658517501
 40
3.965154658517501
 10
838.0287919234788
 20
300.1726498384636
 30
0.0
 10
837.7474548057186
 20
299.9985578241293
 30
0.0
 10
837.1448907622209
 20
299.7115432647061
 30
0.0
 10
836.1524035486127
 20
299.5324433931737
 30
0.0
 10
835.1599163350039
 20
299.7115432647061
 30
0.0
 10
834.5573522915064
 20
299.9985578241293
 30
0.0
 10
834.2760151737461
 20
300.1726498384636
 30
0.0
  0
SPLINE
  5
4A3
330
1F
100
AcDbEntity
  8
図面枠
  6
CONTINUOUS
 62
     3
100
AcDbSpline
210
0.0
220
0.0
230
1.0
 70
     8
 71
     3
 72
    11
 73
     7
 74
     0
 42
0.00000001
 43
0.00000001
 40
0.0
 40
0.0
 40
0.0
 40
0.0
 40
1.902315857768634
 40
3.808058066837507
 40
5.713800275906379
 40
7.616116133675013
 40
7.616116133675013
 40
7.616116133675013
 40
7.616116133675013
 10
834.2760151737461
 20
300.1726498384636
 30
0.0
 10
833.6702423441202
 20
299.9852230727063
 30
0.0
 10
832.4292769698612
 20
299.6951240737022
 30
0.0
 10
830.5232384240137
 20
299.5405314937628
 30
0.0
 10
828.6171998781662
 20
299.6951240737022
 30
0.0
 10
827.3762345039072
 20
299.9852230727063
 30
0.0
 10
826.7704616742813
 20
300.1726498384636
 30
0.0
  0
SPLINE
  5
4A4
330
1F
100
AcDbEntity
  8
図面枠
  6
CONTINUOUS
 62
     3
100
AcDbSpline
210
0.0
220
0.0
230
1.0
 70
     8
 71
     3
 72
    11
 73
     7
 74
     0
 42
0.00000001
 43
0.00000001
 40
0.0
 40
0.0
 40
0.0
 40
0.0
 40
0.9925358580733988
 40
1.982577329258751
 40
2.972618800444126
 40
3.965154658517525
 40
3.965154658517525
 40
3.965154658517525
 40
3.965154658517525
 10
826.7704616742813
 20
300.1726498384636
 30
0.0
 10
826.489124556521
 20
299.9985578241293
 30
0.0
 10
825.8865605130235
 20
299.7115432647061
 30
0.0
 10
824.8940732994149
 20
299.5324433931737
 30
0.0
 10
823.9015860858062
 20
299.7115432647063
 30
0.0
 10
823.2990220423088
 20
299.9985578241294
 30
0.0
 10
823.0176849245486
 20
300.1726498384637
 30
0.0
  0
SPLINE
  5
4A5
330
1F
100
AcDbEntity
  8
図面枠
  6
CONTINUOUS
 62
     3
100
AcDbSpline
210
0.0
220
0.0
230
1.0
 70
     8
 71
     3
 72
    11
 73
     7
 74
     0
 42
0.00000001
 43
0.00000001
 40
0.0
 40
0.0
 40
0.0
 40
0.0
 40
0.9925358580733988
 40
1.982577329258751
 40
2.972618800444103
 40
3.965154658517501
 40
3.965154658517501
 40
3.965154658517501
 40
3.965154658517501
 10
903.0287919234788
 20
300.1726498384636
 30
0.0
 10
902.7474548057186
 20
299.9985578241293
 30
0.0
 10
902.144890762221
 20
299.7115432647061
 30
0.0
 10
901.1524035486127
 20
299.5324433931737
 30
0.0
 10
900.1599163350038
 20
299.7115432647061
 30
0.0
 10
899.5573522915065
 20
299.9985578241293
 30
0.0
 10
899.2760151737461
 20
300.1726498384636
 30
0.0
  0
SPLINE
  5
4A6
330
1F
100
AcDbEntity
  8
図面枠
  6
CONTINUOUS
 62
     3
100
AcDbSpline
210
0.0
220
0.0
230
1.0
 70
     8
 71
     3
 72
    11
 73
     7
 74
     0
 42
0.00000001
 43
0.00000001
 40
0.0
 40
0.0
 40
0.0
 40
0.0
 40
1.902315857768634
 40
3.808058066837507
 40
5.713800275906379
 40
7.616116133675013
 40
7.616116133675013
 40
7.616116133675013
 40
7.616116133675013
 10
899.2760151737461
 20
300.1726498384636
 30
0.0
 10
898.6702423441202
 20
299.9852230727063
 30
0.0
 10
897.4292769698615
 20
299.6951240737022
 30
0.0
 10
895.5232384240136
 20
299.5405314937628
 30
0.0
 10
893.617199878166
 20
299.6951240737022
 30
0.0
 10
892.3762345039072
 20
299.9852230727063
 30
0.0
 10
891.7704616742814
 20
300.1726498384636
 30
0.0
  0
SPLINE
  5
4A7
330
1F
100
AcDbEntity
  8
図面枠
  6
CONTINUOUS
 62
     3
100
AcDbSpline
210
0.0
220
0.0
230
1.0
 70
     8
 71
     3
 72
    11
 73
     7
 74
     0
 42
0.00000001
 43
0.00000001
 40
0.0
 40
0.0
 40
0.0
 40
0.0
 40
0.9925358580733988
 40
1.982577329258751
 40
2.972618800444126
 40
3.965154658517525
 40
3.965154658517525
 40
3.965154658517525
 40
3.965154658517525
 10
891.7704616742814
 20
300.1726498384636
 30
0.0
 10
891.4891245565211
 20
299.9985578241293
 30
0.0
 10
890.8865605130234
 20
299.7115432647061
 30
0.0
 10
889.894073299415
 20
299.5324433931737
 30
0.0
 10
888.9015860858063
 20
299.7115432647063
 30
0.0
 10
888.2990220423088
 20
299.9985578241294
 30
0.0
 10
888.0176849245486
 20
300.1726498384637
 30
0.0
  0
SPLINE
  5
4A8
330
1F
100
AcDbEntity
  8
図面枠
  6
CONTINUOUS
 62
     3
100
AcDbSpline
210
0.0
220
0.0
230
1.0
 70
     8
 71
     3
 72
    11
 73
     7
 74
     0
 42
0.00000001
 43
0.00000001
 40
0.0
 40
0.0
 40
0.0
 40
0.0
 40
0.9925358580732958
 40
1.98257732925876
 40
2.972618800444112
 40
3.96515465851751
 40
3.96515465851751
 40
3.96515465851751
 40
3.96515465851751
 10
1028.028791923479
 20
302.1726498384636
 30
0.0
 10
1027.747454805718
 20
301.9985578241294
 30
0.0
 10
1027.144890762221
 20
301.7115432647061
 30
0.0
 10
1026.152403548612
 20
301.5324433931737
 30
0.0
 10
1025.159916335004
 20
301.7115432647061
 30
0.0
 10
1024.557352291507
 20
301.9985578241293
 30
0.0
 10
1024.276015173746
 20
302.1726498384636
 30
0.0
  0
SPLINE
  5
4A9
330
1F
100
AcDbEntity
  8
図面枠
  6
CONTINUOUS
 62
     3
100
AcDbSpline
210
0.0
220
0.0
230
1.0
 70
     8
 71
     3
 72
    11
 73
     7
 74
     0
 42
0.00000001
 43
0.00000001
 40
0.0
 40
0.0
 40
0.0
 40
0.0
 40
1.902315857768556
 40
3.80805806683753
 40
5.713800275906505
 40
7.61611613367506
 40
7.61611613367506
 40
7.61611613367506
 40
7.61611613367506
 10
1024.276015173746
 20
302.1726498384636
 30
0.0
 10
1023.67024234412
 20
301.9852230727063
 30
0.0
 10
1022.429276969861
 20
301.6951240737019
 30
0.0
 10
1020.523238424014
 20
301.5405314937631
 30
0.0
 10
1018.617199878166
 20
301.6951240737019
 30
0.0
 10
1017.376234503907
 20
301.9852230727063
 30
0.0
 10
1016.770461674281
 20
302.1726498384636
 30
0.0
  0
SPLINE
  5
4AA
330
1F
100
AcDbEntity
  8
図面枠
  6
CONTINUOUS
 62
     3
100
AcDbSpline
210
0.0
220
0.0
230
1.0
 70
     8
 71
     3
 72
    11
 73
     7
 74
     0
 42
0.00000001
 43
0.00000001
 40
0.0
 40
0.0
 40
0.0
 40
0.0
 40
0.9925358580733988
 40
1.982577329258863
 40
2.972618800444126
 40
3.965154658517525
 40
3.965154658517525
 40
3.965154658517525
 40
3.965154658517525
 10
1016.770461674281
 20
302.1726498384636
 30
0.0
 10
1016.489124556521
 20
301.9985578241293
 30
0.0
 10
1015.886560513023
 20
301.7115432647061
 30
0.0
 10
1014.894073299415
 20
301.5324433931737
 30
0.0
 10
1013.901586085806
 20
301.7115432647063
 30
0.0
 10
1013.299022042309
 20
301.9985578241295
 30
0.0
 10
1013.017684924549
 20
302.1726498384638
 30
0.0
  0
SPLINE
  5
4AB
330
1F
100
AcDbEntity
  8
図面枠
  6
CONTINUOUS
 62
     3
100
AcDbSpline
210
0.0
220
0.0
230
1.0
 70
     8
 71
     3
 72
    11
 73
     7
 74
     0
 42
0.00000001
 43
0.00000001
 40
0.0
 40
0.0
 40
0.0
 40
0.0
 40
0.9925358580733988
 40
1.982577329258751
 40
2.972618800444103
 40
3.965154658517501
 40
3.965154658517501
 40
3.965154658517501
 40
3.965154658517501
 10
963.0287919234788
 20
302.1726498384636
 30
0.0
 10
962.7474548057186
 20
301.9985578241293
 30
0.0
 10
962.144890762221
 20
301.7115432647061
 30
0.0
 10
961.1524035486127
 20
301.5324433931737
 30
0.0
 10
960.1599163350037
 20
301.7115432647061
 30
0.0
 10
959.5573522915064
 20
301.9985578241293
 30
0.0
 10
959.2760151737461
 20
302.1726498384636
 30
0.0
  0
SPLINE
  5
4AC
330
1F
100
AcDbEntity
  8
図面枠
  6
CONTINUOUS
 62
     3
100
AcDbSpline
210
0.0
220
0.0
230
1.0
 70
     8
 71
     3
 72
    11
 73
     7
 74
     0
 42
0.00000001
 43
0.00000001
 40
0.0
 40
0.0
 40
0.0
 40
0.0
 40
1.902315857768667
 40
3.808058066837527
 40
5.713800275906502
 40
7.616116133675058
 40
7.616116133675058
 40
7.616116133675058
 40
7.616116133675058
 10
959.2760151737461
 20
302.1726498384636
 30
0.0
 10
958.6702423441202
 20
301.9852230727063
 30
0.0
 10
957.4292769698611
 20
301.695124073702
 30
0.0
 10
955.5232384240139
 20
301.540531493763
 30
0.0
 10
953.6171998781663
 20
301.6951240737019
 30
0.0
 10
952.3762345039072
 20
301.9852230727063
 30
0.0
 10
951.7704616742813
 20
302.1726498384636
 30
0.0
  0
SPLINE
  5
4AD
330
1F
100
AcDbEntity
  8
図面枠
  6
CONTINUOUS
 62
     3
100
AcDbSpline
210
0.0
220
0.0
230
1.0
 70
     8
 71
     3
 72
    11
 73
     7
 74
     0
 42
0.00000001
 43
0.00000001
 40
0.0
 40
0.0
 40
0.0
 40
0.0
 40
0.9925358580733988
 40
1.982577329258975
 40
2.972618800444238
 40
3.965154658517533
 40
3.965154658517533
 40
3.965154658517533
 40
3.965154658517533
 10
951.7704616742813
 20
302.1726498384636
 30
0.0
 10
951.489124556521
 20
301.9985578241293
 30
0.0
 10
950.8865605130234
 20
301.7115432647061
 30
0.0
 10
949.8940732994148
 20
301.5324433931737
 30
0.0
 10
948.901586085806
 20
301.7115432647063
 30
0.0
 10
948.2990220423088
 20
301.9985578241295
 30
0.0
 10
948.0176849245486
 20
302.1726498384638
 30
0.0
  0
SPLINE
  5
4AE
330
1F
100
AcDbEntity
  8
図面枠
  6
CONTINUOUS
 62
     3
100
AcDbSpline
210
0.0
220
0.0
230
1.0
 70
     8
 71
     3
 72
    11
 73
     7
 74
     0
 42
0.00000001
 43
0.00000001
 40
0.0
 40
0.0
 40
0.0
 40
0.0
 40
0.9925358580733988
 40
1.982577329258751
 40
2.972618800444103
 40
3.965154658517501
 40
3.965154658517501
 40
3.965154658517501
 40
3.965154658517501
 10
1023.517685
 20
588.0017334006438
 30
0.0
 10
1023.79902211776
 20
588.1758254149781
 30
0.0
 10
1024.401586161258
 20
588.4628399744015
 30
0.0
 10
1025.394073374867
 20
588.6419398459338
 30
0.0
 10
1026.386560588475
 20
588.4628399744014
 30
0.0
 10
1026.989124631972
 20
588.1758254149781
 30
0.0
 10
1027.270461749732
 20
588.0017334006438
 30
0.0
  0
SPLINE
  5
4AF
330
1F
100
AcDbEntity
  8
図面枠
  6
CONTINUOUS
 62
     3
100
AcDbSpline
210
0.0
220
0.0
230
1.0
 70
     8
 71
     3
 72
    11
 73
     7
 74
     0
 42
0.00000001
 43
0.00000001
 40
0.0
 40
0.0
 40
0.0
 40
0.0
 40
1.90231585776866
 40
3.808058066837523
 40
5.713800275906387
 40
7.616116133675047
 40
7.616116133675047
 40
7.616116133675047
 40
7.616116133675047
 10
1027.270461749732
 20
588.0017334006438
 30
0.0
 10
1027.876234579359
 20
588.1891601664013
 30
0.0
 10
1029.117199953618
 20
588.4792591654054
 30
0.0
 10
1031.023238499465
 20
588.6338517453446
 30
0.0
 10
1032.929277045312
 20
588.4792591654054
 30
0.0
 10
1034.170242419572
 20
588.1891601664013
 30
0.0
 10
1034.776015249198
 20
588.0017334006438
 30
0.0
  0
SPLINE
  5
4B0
330
1F
100
AcDbEntity
  8
図面枠
  6
CONTINUOUS
 62
     3
100
AcDbSpline
210
0.0
220
0.0
230
1.0
 70
     8
 71
     3
 72
    11
 73
     7
 74
     0
 42
0.00000001
 43
0.00000001
 40
0.0
 40
0.0
 40
0.0
 40
0.0
 40
0.9925358580733988
 40
1.982577329258751
 40
2.972618800444103
 40
3.965154658517501
 40
3.965154658517501
 40
3.965154658517501
 40
3.965154658517501
 10
1034.776015249198
 20
588.0017334006438
 30
0.0
 10
1035.057352366958
 20
588.1758254149781
 30
0.0
 10
1035.659916410455
 20
588.4628399744015
 30
0.0
 10
1036.652403624064
 20
588.6419398459338
 30
0.0
 10
1037.644890837672
 20
588.4628399744014
 30
0.0
 10
1038.24745488117
 20
588.1758254149781
 30
0.0
 10
1038.52879199893
 20
588.0017334006438
 30
0.0
  0
SPLINE
  5
4B1
330
1F
100
AcDbEntity
  8
図面枠
  6
CONTINUOUS
 62
     3
100
AcDbSpline
210
0.0
220
0.0
230
1.0
 70
     8
 71
     3
 72
    11
 73
     7
 74
     0
 42
0.00000001
 43
0.00000001
 40
0.0
 40
0.0
 40
0.0
 40
0.0
 40
0.9925358580733988
 40
1.982577329258751
 40
2.972618800444103
 40
3.965154658517501
 40
3.965154658517501
 40
3.965154658517501
 40
3.965154658517501
 10
958.517685
 20
588.0017334006438
 30
0.0
 10
958.7990221177603
 20
588.1758254149781
 30
0.0
 10
959.4015861612577
 20
588.4628399744015
 30
0.0
 10
960.3940733748666
 20
588.6419398459338
 30
0.0
 10
961.3865605884748
 20
588.4628399744014
 30
0.0
 10
961.9891246319723
 20
588.1758254149781
 30
0.0
 10
962.2704617497326
 20
588.0017334006438
 30
0.0
  0
SPLINE
  5
4B2
330
1F
100
AcDbEntity
  8
図面枠
  6
CONTINUOUS
 62
     3
100
AcDbSpline
210
0.0
220
0.0
230
1.0
 70
     8
 71
     3
 72
    11
 73
     7
 74
     0
 42
0.00000001
 43
0.00000001
 40
0.0
 40
0.0
 40
0.0
 40
0.0
 40
1.90231585776866
 40
3.808058066837523
 40
5.713800275906387
 40
7.616116133675047
 40
7.616116133675047
 40
7.616116133675047
 40
7.616116133675047
 10
962.2704617497326
 20
588.0017334006438
 30
0.0
 10
962.8762345793587
 20
588.1891601664013
 30
0.0
 10
964.1171999536174
 20
588.4792591654054
 30
0.0
 10
966.0232384994652
 20
588.6338517453446
 30
0.0
 10
967.9292770453125
 20
588.4792591654054
 30
0.0
 10
969.1702424195717
 20
588.1891601664013
 30
0.0
 10
969.7760152491976
 20
588.0017334006438
 30
0.0
  0
SPLINE
  5
4B3
330
1F
100
AcDbEntity
  8
図面枠
  6
CONTINUOUS
 62
     3
100
AcDbSpline
210
0.0
220
0.0
230
1.0
 70
     8
 71
     3
 72
    11
 73
     7
 74
     0
 42
0.00000001
 43
0.00000001
 40
0.0
 40
0.0
 40
0.0
 40
0.0
 40
0.9925358580733988
 40
1.982577329258751
 40
2.972618800444215
 40
3.96515465851751
 40
3.96515465851751
 40
3.96515465851751
 40
3.96515465851751
 10
969.7760152491976
 20
588.0017334006438
 30
0.0
 10
970.0573523669577
 20
588.1758254149781
 30
0.0
 10
970.6599164104553
 20
588.4628399744014
 30
0.0
 10
971.652403624064
 20
588.6419398459338
 30
0.0
 10
972.6448908376726
 20
588.4628399744015
 30
0.0
 10
973.24745488117
 20
588.1758254149781
 30
0.0
 10
973.5287919989303
 20
588.0017334006438
 30
0.0
  0
SPLINE
  5
4B4
330
1F
100
AcDbEntity
  8
図面枠
  6
CONTINUOUS
 62
     3
100
AcDbSpline
210
0.0
220
0.0
230
1.0
 70
     8
 71
     3
 72
    11
 73
     7
 74
     0
 42
0.00000001
 43
0.00000001
 40
0.0
 40
0.0
 40
0.0
 40
0.0
 40
0.9925358580734006
 40
1.982577329258696
 40
2.972618800443992
 40
3.965154658517264
 40
3.965154658517264
 40
3.965154658517264
 40
3.965154658517264
 10
1070.442681840412
 20
373.597646754328
 30
0.0
 10
1070.616773854746
 20
373.3163096365678
 30
0.0
 10
1070.903788414169
 20
372.7137455930703
 30
0.0
 10
1071.082888285702
 20
371.7212583794617
 30
0.0
 10
1070.903788414169
 20
370.7287711658531
 30
0.0
 10
1070.616773854746
 20
370.1262071223557
 30
0.0
 10
1070.442681840412
 20
369.8448700045955
 30
0.0
  0
SPLINE
  5
4B5
330
1F
100
AcDbEntity
  8
図面枠
  6
CONTINUOUS
 62
     3
100
AcDbSpline
210
0.0
220
0.0
230
1.0
 70
     8
 71
     3
 72
    11
 73
     7
 74
     0
 42
0.00000001
 43
0.00000001
 40
0.0
 40
0.0
 40
0.0
 40
0.0
 40
1.902315857768756
 40
3.808058066837695
 40
5.713800275906634
 40
7.616116133675391
 40
7.616116133675391
 40
7.616116133675391
 40
7.616116133675391
 10
1070.442681840412
 20
369.8448700045955
 30
0.0
 10
1070.630108606169
 20
369.2390971749695
 30
0.0
 10
1070.920207605174
 20
367.9981318007106
 30
0.0
 10
1071.074800185112
 20
366.0920932548629
 30
0.0
 10
1070.920207605174
 20
364.1860547090153
 30
0.0
 10
1070.630108606169
 20
362.9450893347563
 30
0.0
 10
1070.442681840412
 20
362.3393165051303
 30
0.0
  0
SPLINE
  5
4B6
330
1F
100
AcDbEntity
  8
図面枠
  6
CONTINUOUS
 62
     3
100
AcDbSpline
210
0.0
220
0.0
230
1.0
 70
     8
 71
     3
 72
    11
 73
     7
 74
     0
 42
0.00000001
 43
0.00000001
 40
0.0
 40
0.0
 40
0.0
 40
0.0
 40
0.9925358580732717
 40
1.982577329258568
 40
2.972618800444003
 40
3.965154658517275
 40
3.965154658517275
 40
3.965154658517275
 40
3.965154658517275
 10
1070.442681840412
 20
362.3393165051303
 30
0.0
 10
1070.616773854746
 20
362.0579793873701
 30
0.0
 10
1070.90378841417
 20
361.4554153438727
 30
0.0
 10
1071.082888285702
 20
360.4629281302641
 30
0.0
 10
1070.90378841417
 20
359.4704409166555
 30
0.0
 10
1070.616773854746
 20
358.867876873158
 30
0.0
 10
1070.442681840412
 20
358.5865397553978
 30
0.0
  0
SPLINE
  5
4B7
330
1F
100
AcDbEntity
  8
図面枠
  6
CONTINUOUS
 62
     3
100
AcDbSpline
210
0.0
220
0.0
230
1.0
 70
     8
 71
     3
 72
    11
 73
     7
 74
     0
 42
0.00000001
 43
0.00000001
 40
0.0
 40
0.0
 40
0.0
 40
0.0
 40
0.9925358580734006
 40
1.982577329258696
 40
2.972618800443992
 40
3.965154658517264
 40
3.965154658517264
 40
3.965154658517264
 40
3.965154658517264
 10
1070.442681840412
 20
438.597646754328
 30
0.0
 10
1070.616773854746
 20
438.3163096365678
 30
0.0
 10
1070.903788414169
 20
437.7137455930703
 30
0.0
 10
1071.082888285702
 20
436.7212583794617
 30
0.0
 10
1070.903788414169
 20
435.7287711658531
 30
0.0
 10
1070.616773854746
 20
435.1262071223557
 30
0.0
 10
1070.442681840412
 20
434.8448700045955
 30
0.0
  0
SPLINE
  5
4B8
330
1F
100
AcDbEntity
  8
図面枠
  6
CONTINUOUS
 62
     3
100
AcDbSpline
210
0.0
220
0.0
230
1.0
 70
     8
 71
     3
 72
    11
 73
     7
 74
     0
 42
0.00000001
 43
0.00000001
 40
0.0
 40
0.0
 40
0.0
 40
0.0
 40
1.902315857768756
 40
3.808058066837695
 40
5.713800275906634
 40
7.616116133675391
 40
7.616116133675391
 40
7.616116133675391
 40
7.616116133675391
 10
1070.442681840412
 20
434.8448700045955
 30
0.0
 10
1070.630108606169
 20
434.2390971749695
 30
0.0
 10
1070.920207605174
 20
432.9981318007106
 30
0.0
 10
1071.074800185112
 20
431.0920932548628
 30
0.0
 10
1070.920207605174
 20
429.1860547090153
 30
0.0
 10
1070.630108606169
 20
427.9450893347563
 30
0.0
 10
1070.442681840412
 20
427.3393165051303
 30
0.0
  0
SPLINE
  5
4B9
330
1F
100
AcDbEntity
  8
図面枠
  6
CONTINUOUS
 62
     3
100
AcDbSpline
210
0.0
220
0.0
230
1.0
 70
     8
 71
     3
 72
    11
 73
     7
 74
     0
 42
0.00000001
 43
0.00000001
 40
0.0
 40
0.0
 40
0.0
 40
0.0
 40
0.9925358580732717
 40
1.982577329258568
 40
2.972618800444003
 40
3.965154658517275
 40
3.965154658517275
 40
3.965154658517275
 40
3.965154658517275
 10
1070.442681840412
 20
427.3393165051303
 30
0.0
 10
1070.616773854746
 20
427.0579793873701
 30
0.0
 10
1070.90378841417
 20
426.4554153438727
 30
0.0
 10
1071.082888285702
 20
425.4629281302641
 30
0.0
 10
1070.90378841417
 20
424.4704409166555
 30
0.0
 10
1070.616773854746
 20
423.867876873158
 30
0.0
 10
1070.442681840412
 20
423.5865397553978
 30
0.0
  0
SPLINE
  5
4BA
330
1F
100
AcDbEntity
  8
図面枠
  6
CONTINUOUS
 62
     3
100
AcDbSpline
210
0.0
220
0.0
230
1.0
 70
     8
 71
     3
 72
    11
 73
     7
 74
     0
 42
0.00000001
 43
0.00000001
 40
0.0
 40
0.0
 40
0.0
 40
0.0
 40
0.488633037820646
 40
0.9760380697886968
 40
1.463443101756888
 40
1.952076139577663
 40
1.952076139577663
 40
1.952076139577663
 40
1.952076139577663
 10
1059.720915
 20
457.8970525
 30
0.0
 10
1059.806621837826
 20
458.0355569272049
 30
0.0
 10
1059.947921313235
 20
458.3322038409267
 30
0.0
 10
1060.036093557681
 20
458.8208129307031
 30
0.0
 10
1059.947921313234
 20
459.3094220204798
 30
0.0
 10
1059.806621837826
 20
459.6060689342015
 30
0.0
 10
1059.720915
 20
459.7445733614066
 30
0.0
  0
SPLINE
  5
4BB
330
1F
100
AcDbEntity
  8
図面枠
  6
CONTINUOUS
 62
     3
100
AcDbSpline
210
0.0
220
0.0
230
1.0
 70
     8
 71
     3
 72
    11
 73
     7
 74
     0
 42
0.00000001
 43
0.00000001
 40
0.0
 40
0.0
 40
0.0
 40
0.0
 40
0.488633037820646
 40
0.9760380697888371
 40
1.463443101757168
 40
1.952076139577943
 40
1.952076139577943
 40
1.952076139577943
 40
1.952076139577943
 10
1059.720915
 20
463.4396150842203
 30
0.0
 10
1059.806621837826
 20
463.5781195114253
 30
0.0
 10
1059.947921313234
 20
463.874766425147
 30
0.0
 10
1060.036093557682
 20
464.3633755149236
 30
0.0
 10
1059.947921313234
 20
464.8519846047002
 30
0.0
 10
1059.806621837826
 20
465.1486315184221
 30
0.0
 10
1059.720915
 20
465.2871359456271
 30
0.0
  0
SPLINE
  5
4BC
330
1F
100
AcDbEntity
  8
図面枠
  6
CONTINUOUS
 62
     3
100
AcDbSpline
210
0.0
220
0.0
230
1.0
 70
     8
 71
     3
 72
    11
 73
     7
 74
     0
 42
0.00000001
 43
0.00000001
 40
0.0
 40
0.0
 40
0.0
 40
0.0
 40
0.9365247299785328
 40
1.874736279058643
 40
2.812947828138754
 40
3.749472558117148
 40
3.749472558117148
 40
3.749472558117148
 40
3.749472558117148
 10
1059.720915
 20
459.7445733614066
 30
0.0
 10
1059.813186638527
 20
460.0427999852225
 30
0.0
 10
1059.956004607267
 20
460.6537367848576
 30
0.0
 10
1060.032111723545
 20
461.5920942228135
 30
0.0
 10
1059.956004607267
 20
462.5304516607693
 30
0.0
 10
1059.813186638527
 20
463.1413884604044
 30
0.0
 10
1059.720915
 20
463.4396150842203
 30
0.0
  0
SPLINE
  5
4BD
330
1F
100
AcDbEntity
  8
図面枠
  6
HIDDEN
 62
   179
100
AcDbSpline
210
0.0
220
0.0
230
1.0
 70
     8
 71
     3
 72
    11
 73
     7
 74
     0
 42
0.00000001
 43
0.00000001
 40
0.0
 40
0.0
 40
0.0
 40
0.0
 40
1.642121087165104
 40
2.990178135233811
 40
4.338235183302635
 40
5.980356270467739
 40
5.980356270467739
 40
5.980356270467739
 40
5.980356270467739
 10
1060.006728655866
 20
463.5520932548628
 30
0.0
 10
1059.508265447618
 20
463.3259243074118
 30
0.0
 10
1058.675396367983
 20
462.8982121302524
 30
0.0
 10
1057.473340511892
 20
461.5920932548628
 30
0.0
 10
1058.675396367983
 20
460.2859743794731
 30
0.0
 10
1059.508265447618
 20
459.8582622023139
 30
0.0
 10
1060.006728655866
 20
459.6320932548629
 30
0.0
  0
SPLINE
  5
4BE
330
1F
100
AcDbEntity
  8
図面枠
  6
HIDDEN
 62
   179
100
AcDbSpline
210
0.0
220
0.0
230
1.0
 70
     8
 71
     3
 72
    11
 73
     7
 74
     0
 42
0.00000001
 43
0.00000001
 40
0.0
 40
0.0
 40
0.0
 40
0.0
 40
1.642121087165104
 40
2.990178135233811
 40
4.338235183302635
 40
5.980356270467739
 40
5.980356270467739
 40
5.980356270467739
 40
5.980356270467739
 10
796.0959517945519
 20
478.5520932548627
 30
0.0
 10
796.5944150027999
 20
478.3259243074118
 30
0.0
 10
797.4272840824349
 20
477.8982121302525
 30
0.0
 10
798.6293399385249
 20
476.5920932548628
 30
0.0
 10
797.4272840824352
 20
475.2859743794732
 30
0.0
 10
796.5944150027999
 20
474.8582622023139
 30
0.0
 10
796.0959517945519
 20
474.6320932548629
 30
0.0
  0
SPLINE
  5
4BF
330
1F
100
AcDbEntity
  8
図面枠
  6
CONTINUOUS
 62
     3
100
AcDbSpline
210
0.0
220
0.0
230
1.0
 70
     8
 71
     3
 72
    11
 73
     7
 74
     0
 42
0.00000001
 43
0.00000001
 40
0.0
 40
0.0
 40
0.0
 40
0.0
 40
0.9365247299785328
 40
1.874736279058643
 40
2.812947828138754
 40
3.749472558117148
 40
3.749472558117148
 40
3.749472558117148
 40
3.749472558117148
 10
796.3817642664784
 20
474.744572393456
 30
0.0
 10
796.2894926279517
 20
475.0427990172719
 30
0.0
 10
796.1466746592109
 20
475.653735816907
 30
0.0
 10
796.0705675429338
 20
476.5920932548629
 30
0.0
 10
796.1466746592112
 20
477.5304506928186
 30
0.0
 10
796.2894926279517
 20
478.1413874924538
 30
0.0
 10
796.3817642664784
 20
478.4396141162697
 30
0.0
  0
SPLINE
  5
4C0
330
1F
100
AcDbEntity
  8
図面枠
  6
CONTINUOUS
 62
     3
100
AcDbSpline
210
0.0
220
0.0
230
1.0
 70
     8
 71
     3
 72
    11
 73
     7
 74
     0
 42
0.00000001
 43
0.00000001
 40
0.0
 40
0.0
 40
0.0
 40
0.0
 40
0.488633037820646
 40
0.9760380697888371
 40
1.463443101757168
 40
1.952076139577943
 40
1.952076139577943
 40
1.952076139577943
 40
1.952076139577943
 10
796.3817642664784
 20
478.4396141162697
 30
0.0
 10
796.2960574286523
 20
478.5781185434747
 30
0.0
 10
796.1547579532439
 20
478.8747654571964
 30
0.0
 10
796.0665857087974
 20
479.363374546973
 30
0.0
 10
796.1547579532439
 20
479.8519836367497
 30
0.0
 10
796.2960574286523
 20
480.1486305504715
 30
0.0
 10
796.3817642664784
 20
480.2871349776765
 30
0.0
  0
SPLINE
  5
4C1
330
1F
100
AcDbEntity
  8
図面枠
  6
CONTINUOUS
 62
     3
100
AcDbSpline
210
0.0
220
0.0
230
1.0
 70
     8
 71
     3
 72
    11
 73
     7
 74
     0
 42
0.00000001
 43
0.00000001
 40
0.0
 40
0.0
 40
0.0
 40
0.0
 40
0.488633037820646
 40
0.9760380697886968
 40
1.463443101756888
 40
1.952076139577663
 40
1.952076139577663
 40
1.952076139577663
 40
1.952076139577663
 10
796.3817642664784
 20
472.8970515320493
 30
0.0
 10
796.2960574286523
 20
473.0355559592543
 30
0.0
 10
796.154757953244
 20
473.332202872976
 30
0.0
 10
796.0665857087973
 20
473.8208119627526
 30
0.0
 10
796.154757953244
 20
474.3094210525291
 30
0.0
 10
796.2960574286523
 20
474.6060679662509
 30
0.0
 10
796.3817642664784
 20
474.744572393456
 30
0.0
  0
SPLINE
  5
4C2
330
1F
100
AcDbEntity
  8
図面枠
  6
CONTINUOUS
 62
     3
100
AcDbSpline
210
0.0
220
0.0
230
1.0
 70
     8
 71
     3
 72
    11
 73
     7
 74
     0
 42
0.00000001
 43
0.00000001
 40
0.0
 40
0.0
 40
0.0
 40
0.0
 40
1.622496714148952
 40
3.246571633579432
 40
3.778597137870319
 40
4.310649976333877
 40
4.310649976333877
 40
4.310649976333877
 40
4.310649976333877
 10
464.2472068028329
 20
370.836147214602
 30
0.0
 10
464.7701376885199
 20
370.974142861303
 30
0.0
 10
465.8344147222768
 20
371.1868472504809
 30
0.0
 10
467.0950195622443
 20
371.2739420571246
 30
0.0
 10
467.9910498930478
 20
371.2536540674645
 30
0.0
 10
468.3450948202916
 20
371.2299876433335
 30
0.0
 10
468.5217551494455
 20
371.21435158868
 30
0.0
  0
SPLINE
  5
4C3
330
1F
100
AcDbEntity
  8
図面枠
  6
CONTINUOUS
 62
     3
100
AcDbSpline
210
0.0
220
0.0
230
1.0
 70
     8
 71
     3
 72
     9
 73
     5
 74
     0
 42
0.00000001
 43
0.00000001
 40
0.0
 40
0.0
 40
0.0
 40
0.0
 40
1.070163374252747
 40
2.142711433954863
 40
2.142711433954863
 40
2.142711433954863
 40
2.142711433954863
 10
471.2117660774202
 20
366.8422400324885
 30
0.0
 10
470.8709836081285
 20
366.7368015695491
 30
0.0
 10
470.179986565047
 20
366.552736146198
 30
0.0
 10
469.4762235483665
 20
366.4255162795307
 30
0.0
 10
469.1220359101491
 20
366.3768457399857
 30
0.0
  0
SPLINE
  5
4C4
330
1F
100
AcDbEntity
  8
図面枠
  6
CONTINUOUS
 62
     3
100
AcDbSpline
210
0.0
220
0.0
230
1.0
 70
     8
 71
     3
 72
     9
 73
     5
 74
     0
 42
0.00000001
 43
0.00000001
 40
0.0
 40
0.0
 40
0.0
 40
0.0
 40
0.8054994296194069
 40
1.609134590286865
 40
1.609134590286865
 40
1.609134590286865
 40
1.609134590286865
 10
472.712407995885
 20
366.2864178641895
 30
0.0
 10
472.446142166633
 20
366.3209816613567
 30
0.0
 10
471.9221476154105
 20
366.4595674935479
 30
0.0
 10
471.4395587541219
 20
366.70128143359
 30
0.0
 10
471.2117660774202
 20
366.8422400324885
 30
0.0
  0
SPLINE
  5
4C5
330
1F
100
AcDbEntity
  8
図面枠
  6
CONTINUOUS
 62
     3
100
AcDbSpline
210
0.0
220
0.0
230
1.0
 70
     8
 71
     3
 72
    11
 73
     7
 74
     0
 42
0.00000001
 43
0.00000001
 40
0.0
 40
0.0
 40
0.0
 40
0.0
 40
0.9925358580734246
 40
1.98257732925872
 40
2.972618800444016
 40
3.965154658517441
 40
3.965154658517441
 40
3.965154658517441
 40
3.965154658517441
 10
212.9396374640651
 20
351.7561302082111
 30
0.0
 10
212.7655454497308
 20
352.0374673259713
 30
0.0
 10
212.4785308903076
 20
352.6400313694687
 30
0.0
 10
212.2994310187752
 20
353.6325185830774
 30
0.0
 10
212.4785308903076
 20
354.6250057966859
 30
0.0
 10
212.7655454497308
 20
355.2275698401834
 30
0.0
 10
212.9396374640651
 20
355.5089069579436
 30
0.0
  0
SPLINE
  5
4C6
330
1F
100
AcDbEntity
  8
図面枠
  6
CONTINUOUS
 62
     3
100
AcDbSpline
210
0.0
220
0.0
230
1.0
 70
     8
 71
     3
 72
    11
 73
     7
 74
     0
 42
0.00000001
 43
0.00000001
 40
0.0
 40
0.0
 40
0.0
 40
0.0
 40
1.90231585776875
 40
3.808058066837554
 40
5.713800275906642
 40
7.616116133675254
 40
7.616116133675254
 40
7.616116133675254
 40
7.616116133675254
 10
212.9396374640651
 20
355.5089069579436
 30
0.0
 10
212.7522106983078
 20
356.1146797875697
 30
0.0
 10
212.4621116993035
 20
357.3556451618286
 30
0.0
 10
212.3075191193645
 20
359.2616837076762
 30
0.0
 10
212.4621116993034
 20
361.1677222535238
 30
0.0
 10
212.7522106983078
 20
362.4086876277827
 30
0.0
 10
212.9396374640651
 20
363.0144604574087
 30
0.0
  0
SPLINE
  5
4C7
330
1F
100
AcDbEntity
  8
図面枠
  6
CONTINUOUS
 62
     3
100
AcDbSpline
210
0.0
220
0.0
230
1.0
 70
     8
 71
     3
 72
    11
 73
     7
 74
     0
 42
0.00000001
 43
0.00000001
 40
0.0
 40
0.0
 40
0.0
 40
0.0
 40
0.9925358580732958
 40
1.982577329258732
 40
2.972618800444168
 40
3.965154658517463
 40
3.965154658517463
 40
3.965154658517463
 40
3.965154658517463
 10
212.9396374640651
 20
363.0144604574087
 30
0.0
 10
212.7655454497308
 20
363.2957975751689
 30
0.0
 10
212.4785308903076
 20
363.8983616186664
 30
0.0
 10
212.2994310187752
 20
364.8908488322751
 30
0.0
 10
212.4785308903076
 20
365.8833360458837
 30
0.0
 10
212.7655454497308
 20
366.4859000893812
 30
0.0
 10
212.9396374640651
 20
366.7672372071414
 30
0.0
  0
SPLINE
  5
4C8
330
1F
100
AcDbEntity
  8
図面枠
  6
CONTINUOUS
 62
     3
100
AcDbSpline
210
0.0
220
0.0
230
1.0
 70
     8
 71
     3
 72
    11
 73
     7
 74
     0
 42
0.00000001
 43
0.00000001
 40
0.0
 40
0.0
 40
0.0
 40
0.0
 40
0.9925358580734246
 40
1.98257732925873
 40
2.972618800444175
 40
3.96515465851747
 40
3.96515465851747
 40
3.96515465851747
 40
3.96515465851747
 10
509.3784327441292
 20
366.7672372071414
 30
0.0
 10
509.5525247584634
 20
366.4859000893811
 30
0.0
 10
509.8395393178867
 20
365.8833360458837
 30
0.0
 10
510.0186391894192
 20
364.890848832275
 30
0.0
 10
509.8395393178867
 20
363.8983616186664
 30
0.0
 10
509.5525247584634
 20
363.2957975751689
 30
0.0
 10
509.3784327441292
 20
363.0144604574087
 30
0.0
  0
SPLINE
  5
4C9
330
1F
100
AcDbEntity
  8
図面枠
  6
CONTINUOUS
 62
     3
100
AcDbSpline
210
0.0
220
0.0
230
1.0
 70
     8
 71
     3
 72
    11
 73
     7
 74
     0
 42
0.00000001
 43
0.00000001
 40
0.0
 40
0.0
 40
0.0
 40
0.0
 40
1.902315857768617
 40
3.808058066837708
 40
5.713800275906515
 40
7.616116133675271
 40
7.616116133675271
 40
7.616116133675271
 40
7.616116133675271
 10
509.3784327441292
 20
363.0144604574087
 30
0.0
 10
509.5658595098865
 20
362.4086876277827
 30
0.0
 10
509.8559585088909
 20
361.1677222535238
 30
0.0
 10
510.0105510888299
 20
359.2616837076762
 30
0.0
 10
509.8559585088909
 20
357.3556451618286
 30
0.0
 10
509.5658595098865
 20
356.1146797875697
 30
0.0
 10
509.3784327441292
 20
355.5089069579436
 30
0.0
  0
SPLINE
  5
4CA
330
1F
100
AcDbEntity
  8
図面枠
  6
CONTINUOUS
 62
     3
100
AcDbSpline
210
0.0
220
0.0
230
1.0
 70
     8
 71
     3
 72
    11
 73
     7
 74
     0
 42
0.00000001
 43
0.00000001
 40
0.0
 40
0.0
 40
0.0
 40
0.0
 40
0.9925358580734246
 40
1.98257732925873
 40
2.972618800444035
 40
3.965154658517459
 40
3.965154658517459
 40
3.965154658517459
 40
3.965154658517459
 10
509.3784327441292
 20
355.5089069579436
 30
0.0
 10
509.5525247584634
 20
355.2275698401834
 30
0.0
 10
509.8395393178866
 20
354.625005796686
 30
0.0
 10
510.0186391894194
 20
353.6325185830774
 30
0.0
 10
509.8395393178865
 20
352.6400313694688
 30
0.0
 10
509.5525247584634
 20
352.0374673259712
 30
0.0
 10
509.3784327441292
 20
351.7561302082111
 30
0.0
  0
SPLINE
  5
4CB
330
1F
100
AcDbEntity
  8
LAYER001
  6
CONTINUOUS
 62
     1
100
AcDbSpline
210
0.0
220
0.0
230
1.0
 70
     8
 71
     3
 72
    13
 73
     9
 74
     0
 42
0.00000001
 43
0.00000001
 40
0.0
 40
0.0
 40
0.0
 40
0.0
 40
3.423310054142602
 40
6.77537384623218
 40
9.836429863223387
 40
12.8882418915498
 40
14.75307875782805
 40
16.66922712172115
 40
16.66922712172115
 40
16.66922712172115
 40
16.66922712172115
 10
191.4590961392535
 20
346.2616837076762
 30
0.0
 10
190.3491471771704
 20
346.5265047040176
 30
0.0
 10
188.1848465067213
 20
347.192808927444
 30
0.0
 10
185.3386660667574
 20
349.0267170417975
 30
0.0
 10
183.7054284817293
 20
351.767581362749
 30
0.0
 10
182.3234827896017
 20
354.0700611820305
 30
0.0
 10
180.5070094214698
 20
355.4976002394259
 30
0.0
 10
179.3648103981398
 20
356.0454877609069
 30
0.0
 10
178.769563550551
 20
356.2770897342169
 30
0.0
  0
INSERT
  5
4CC
330
1F
100
AcDbEntity
  8
0
  6
CONTINUOUS
 62
     7
100
AcDbBlockReference
  2
_OPEN30
 10
776.305335
 20
432.6436475
 30
0.0
 41
6.925
 42
6.925
 43
6.925
 50
220.161347
  0
POINT
  5
4CD
330
1F
100
AcDbEntity
  8
図面枠
100
AcDbPoint
 10
988.0232375
 20
311.5920925
 30
0.0
  0
POINT
  5
4CE
330
1F
100
AcDbEntity
  8
図面枠
100
AcDbPoint
 10
998.5232375
 20
580.58229
 30
0.0
  0
MTEXT
  5
4D0
330
1F
100
AcDbEntity
  8
図面枠
 62
   179
100
AcDbMText
 10
379.57244
 20
333.101873984
 30
0.0
 40
10.5
 41
0.0
 71
     1
 72
     1
  1
吐出
  7
SLDTEXTSTYLE0
  0
MTEXT
  5
4D1
330
1F
100
AcDbEntity
  8
図面枠
 62
   179
100
AcDbMText
 10
334.57244
 20
333.101873984
 30
0.0
 40
10.5
 41
0.0
 71
     1
 72
     1
  1
吸込
  7
SLDTEXTSTYLE0
  0
ENDSEC
  0
SECTION
  2
OBJECTS
  0
DICTIONARY
  5
C
330
0
100
AcDbDictionary
  3
ACAD_GROUP
350
D
  3
ACAD_MLINESTYLE
350
17
  0
DICTIONARY
  5
D
102
{ACAD_REACTORS
330
C
102
}
330
C
100
AcDbDictionary
  0
DICTIONARY
  5
17
102
{ACAD_REACTORS
330
C
102
}
330
C
100
AcDbDictionary
  3
STANDARD
350
18
  0
MLINESTYLE
  5
18
102
{ACAD_REACTORS
330
17
102
}
330
17
100
AcDbMlineStyle
  2
Standard
 70
     0
  3

 62
   256
 51
90.0
 52
90.0
 71
     2
 49
0.5
 62
   256
  6
BYLAYER
 49
-0.5
 62
   256
  6
BYLAYER
  0
ENDSEC
  0
EOF
