  0
SECTION
  2
HEADER
  9
$ACADVER
  1
AC1014
  9
$ACADMAINTVER
 70
     9
  9
$DWGCODEPAGE
  3
DOS932
  9
$INSBASE
 10
0.0
 20
0.0
 30
0.0
  9
$EXTMIN
 10
0.0
 20
0.0
 30
0.0
  9
$EXTMAX
 10
1189.0
 20
841.0
 30
0.0
  9
$LIMMIN
 10
0.0
 20
0.0
  9
$LIMMAX
 10
1189.0
 20
841.0
  9
$ORTHOMODE
 70
     0
  9
$REGENMODE
 70
     1
  9
$FILLMODE
 70
     1
  9
$QTEXTMODE
 70
     0
  9
$MIRRTEXT
 70
     1
  9
$DRAGMODE
 70
     2
  9
$LTSCALE
 40
1.0
  9
$OSMODE
 70
    37
  9
$ATTMODE
 70
     1
  9
$TEXTSIZE
 40
3.5
  9
$TRACEWID
 40
1.0
  9
$TEXTSTYLE
  7
STANDARD
  9
$CLAYER
  8
0
  9
$CELTYPE
  6
BYLAYER
  9
$CECOLOR
 62
   256
  9
$CELTSCALE
 40
1.0
  9
$DELOBJ
 70
     1
  9
$DISPSILH
 70
     0
  9
$DIMSCALE
 40
1.0
  9
$DIMASZ
 40
6.0
  9
$DIMEXO
 40
1.0
  9
$DIMDLI
 40
3.75
  9
$DIMRND
 40
0.0
  9
$DIMDLE
 40
0.0
  9
$DIMEXE
 40
1.0
  9
$DIMTP
 40
0.0
  9
$DIMTM
 40
0.0
  9
$DIMTXT
 40
3.5
  9
$DIMCEN
 40
2.5
  9
$DIMTSZ
 40
0.0
  9
$DIMTOL
 70
     0
  9
$DIMLIM
 70
     0
  9
$DIMTIH
 70
     1
  9
$DIMTOH
 70
     1
  9
$DIMSE1
 70
     0
  9
$DIMSE2
 70
     0
  9
$DIMTAD
 70
     1
  9
$DIMZIN
 70
     1
  9
$DIMBLK
  1

  9
$DIMASO
 70
     1
  9
$DIMSHO
 70
     1
  9
$DIMPOST
  1

  9
$DIMAPOST
  1

  9
$DIMALT
 70
     0
  9
$DIMALTD
 70
     3
  9
$DIMALTF
 40
0.0393700787
  9
$DIMLFAC
 40
1.0
  9
$DIMTOFL
 70
     1
  9
$DIMTVP
 40
0.0
  9
$DIMTIX
 70
     0
  9
$DIMSOXD
 70
     0
  9
$DIMSAH
 70
     0
  9
$DIMBLK1
  1

  9
$DIMBLK2
  1

  9
$DIMSTYLE
  2
ISO-25
  9
$DIMCLRD
 70
     0
  9
$DIMCLRE
 70
     0
  9
$DIMCLRT
 70
     0
  9
$DIMTFAC
 40
1.0
  9
$DIMGAP
 40
1.524
  9
$DIMJUST
 70
     0
  9
$DIMSD1
 70
     0
  9
$DIMSD2
 70
     0
  9
$DIMTOLJ
 70
     0
  9
$DIMTZIN
 70
     1
  9
$DIMALTZ
 70
     0
  9
$DIMALTTZ
 70
     0
  9
$DIMFIT
 70
     3
  9
$DIMUPT
 70
     0
  9
$DIMUNIT
 70
     2
  9
$DIMDEC
 70
     4
  9
$DIMTDEC
 70
     4
  9
$DIMALTU
 70
     2
  9
$DIMALTTD
 70
     3
  9
$DIMTXSTY
  7
STANDARD
  9
$DIMAUNIT
 70
     0
  9
$LUNITS
 70
     2
  9
$LUPREC
 70
     4
  9
$SKETCHINC
 40
1.0
  9
$FILLETRAD
 40
10.0
  9
$AUNITS
 70
     0
  9
$AUPREC
 70
     0
  9
$MENU
  1
.
  9
$ELEVATION
 40
0.0
  9
$PELEVATION
 40
0.0
  9
$THICKNESS
 40
0.0
  9
$LIMCHECK
 70
     0
  9
$CHAMFERA
 40
10.0
  9
$CHAMFERB
 40
10.0
  9
$CHAMFERC
 40
20.0
  9
$CHAMFERD
 40
0.0
  9
$SKPOLY
 70
     0
  9
$TDCREATE
 40
2456451.58254919
  9
$TDUPDATE
 40
2456451.582549201
  9
$TDINDWG
 40
0.0000000116
  9
$TDUSRTIMER
 40
0.0000000116
  9
$USRTIMER
 70
     1
  9
$ANGBASE
 50
0.0
  9
$ANGDIR
 70
     0
  9
$PDMODE
 70
     0
  9
$PDSIZE
 40
-1.0
  9
$PLINEWID
 40
0.0
  9
$COORDS
 70
     1
  9
$SPLFRAME
 70
     0
  9
$SPLINETYPE
 70
     6
  9
$SPLINESEGS
 70
     8
  9
$ATTDIA
 70
     0
  9
$ATTREQ
 70
     1
  9
$HANDLING
 70
     1
  9
$HANDSEED
  5
237
  9
$SURFTAB1
 70
     6
  9
$SURFTAB2
 70
     6
  9
$SURFTYPE
 70
     6
  9
$SURFU
 70
     6
  9
$SURFV
 70
     6
  9
$UCSNAME
  2

  9
$UCSORG
 10
0.0
 20
0.0
 30
0.0
  9
$UCSXDIR
 10
1.0
 20
0.0
 30
0.0
  9
$UCSYDIR
 10
0.0
 20
1.0
 30
0.0
  9
$PUCSNAME
  2

  9
$PUCSORG
 10
0.0
 20
0.0
 30
0.0
  9
$PUCSXDIR
 10
1.0
 20
0.0
 30
0.0
  9
$PUCSYDIR
 10
0.0
 20
1.0
 30
0.0
  9
$USERI1
 70
     0
  9
$USERI2
 70
     0
  9
$USERI3
 70
     0
  9
$USERI4
 70
     0
  9
$USERI5
 70
     0
  9
$USERR1
 40
0.0
  9
$USERR2
 40
0.0
  9
$USERR3
 40
0.0
  9
$USERR4
 40
0.0
  9
$USERR5
 40
0.0
  9
$WORLDVIEW
 70
     1
  9
$SHADEDGE
 70
     3
  9
$SHADEDIF
 70
    70
  9
$TILEMODE
 70
     1
  9
$MAXACTVP
 70
    64
  9
$PINSBASE
 10
0.0
 20
0.0
 30
0.0
  9
$PLIMCHECK
 70
     0
  9
$PEXTMIN
 10
1.0000000000E+20
 20
1.0000000000E+20
 30
1.0000000000E+20
  9
$PEXTMAX
 10
-1.0000000000E+20
 20
-1.0000000000E+20
 30
-1.0000000000E+20
  9
$PLIMMIN
 10
0.0
 20
0.0
  9
$PLIMMAX
 10
420.0
 20
297.0
  9
$UNITMODE
 70
     0
  9
$VISRETAIN
 70
     1
  9
$PLINEGEN
 70
     0
  9
$PSLTSCALE
 70
     1
  9
$TREEDEPTH
 70
  3020
  9
$PICKSTYLE
 70
     1
  9
$CMLSTYLE
  2
STANDARD
  9
$CMLJUST
 70
     0
  9
$CMLSCALE
 40
20.0
  9
$PROXYGRAPHICS
 70
     1
  9
$MEASUREMENT
 70
     1
  0
ENDSEC
  0
SECTION
  2
CLASSES
  0
CLASS
  1
ACDBDICTIONARYWDFLT
  2
AcDbDictionaryWithDefault
  3
ObjectDBX Classes
 90
        0
280
     0
281
     0
  0
CLASS
  1
VISUALSTYLE
  2
AcDbVisualStyle
  3
ObjectDBX Classes
 90
     4095
280
     0
281
     0
  0
CLASS
  1
MATERIAL
  2
AcDbMaterial
  3
ObjectDBX Classes
 90
     1153
280
     0
281
     0
  0
CLASS
  1
XRECORD
  2
AcDbXrecord
  3
AutoCAD 2000
 90
        0
280
     0
281
     0
  0
CLASS
  1
LWPOLYLINE
  2
AcDbPolyline
  3
AutoCAD 2000
 90
        0
280
     0
281
     1
  0
CLASS
  1
HATCH
  2
AcDbHatch
  3
AutoCAD 2000
 90
        0
280
     0
281
     1
  0
ENDSEC
  0
SECTION
  2
TABLES
  0
TABLE
  2
VPORT
  5
8
330
0
100
AcDbSymbolTable
 70
     1
  0
VPORT
  5
29
330
8
100
AcDbSymbolTableRecord
100
AcDbViewportTableRecord
  2
*ACTIVE
 70
     0
 10
0.0
 20
0.0
 11
1.0
 21
1.0
 12
594.5
 22
420.5
 13
0.0
 23
0.0
 14
10.0
 24
10.0
 15
10.0
 25
10.0
 16
0.0
 26
0.0
 36
1.0
 17
0.0
 27
0.0
 37
0.0
 40
841.0
 41
1.4137931034
 42
50.0
 43
0.0
 44
0.0
 50
0.0
 51
0.0
 71
     0
 72
  2000
 73
     1
 74
     3
 75
     0
 76
     0
 77
     0
 78
     0
  0
ENDTAB
  0
TABLE
  2
LTYPE
  5
5
330
0
100
AcDbSymbolTable
 70
     6
  0
LTYPE
  5
14
330
5
100
AcDbSymbolTableRecord
100
AcDbLinetypeTableRecord
  2
BYBLOCK
 70
     0
  3

 72
    65
 73
     0
 40
0.0
  0
LTYPE
  5
15
330
5
100
AcDbSymbolTableRecord
100
AcDbLinetypeTableRecord
  2
BYLAYER
 70
     0
  3

 72
    65
 73
     0
 40
0.0
  0
LTYPE
  5
16
330
5
100
AcDbSymbolTableRecord
100
AcDbLinetypeTableRecord
  2
CONTINUOUS
 70
     0
  3
Solid line
 72
    65
 73
     0
 40
0.0
  0
LTYPE
  5
3F
330
5
100
AcDbSymbolTableRecord
100
AcDbLinetypeTableRecord
  2
HIDDEN
 70
     0
  3
Hidden __ __ __ __ __ __ __ __ __ __ __ __ __ __
 72
    65
 73
     2
 40
1.905
 49
1.27
 74
     0
 49
-0.635
 74
     0
  0
LTYPE
  5
40
330
5
100
AcDbSymbolTableRecord
100
AcDbLinetypeTableRecord
  2
PHANTOM
 70
     0
  3
Phantom ______  __  __  ______  __  __  ______
 72
    65
 73
     6
 40
12.7
 49
6.35
 74
     0
 49
-1.27
 74
     0
 49
1.27
 74
     0
 49
-1.27
 74
     0
 49
1.27
 74
     0
 49
-1.27
 74
     0
  0
LTYPE
  5
41
330
5
100
AcDbSymbolTableRecord
100
AcDbLinetypeTableRecord
  2
CENTER
 70
     0
  3
Center ____ _ ____ _ ____ _ ____ _ ____ _ ____
 72
    65
 73
     4
 40
10.16
 49
6.35
 74
     0
 49
-1.27
 74
     0
 49
1.27
 74
     0
 49
-1.27
 74
     0
  0
LTYPE
  5
42
330
5
100
AcDbSymbolTableRecord
100
AcDbLinetypeTableRecord
  2
CENTERX2
 70
     0
  3
Center (2x) ________  __  ________  __  _____
 72
    65
 73
     4
 40
20.32
 49
12.7
 74
     0
 49
-2.54
 74
     0
 49
2.54
 74
     0
 49
-2.54
 74
     0
  0
LTYPE
  5
43
330
5
100
AcDbSymbolTableRecord
100
AcDbLinetypeTableRecord
  2
DOT2
 70
     0
  3
Dot (.5x) ........................................
 72
    65
 73
     2
 40
0.635
 49
0.0
 74
     0
 49
-0.635
 74
     0
  0
ENDTAB
  0
TABLE
  2
LAYER
  5
2
330
0
100
AcDbSymbolTable
 70
   259
  0
LAYER
  5
10
330
2
100
AcDbSymbolTableRecord
100
AcDbLayerTableRecord
  2
0
 70
     0
 62
     7
  6
CONTINUOUS
  0
LAYER
  5
44
330
2
100
AcDbSymbolTableRecord
100
AcDbLayerTableRecord
  2
SLD-0
 70
     0
 62
   179
  6
CONTINUOUS
  0
LAYER
  5
45
330
2
100
AcDbSymbolTableRecord
100
AcDbLayerTableRecord
  2
SLD-DEFPOINTS
 70
     0
 62
   179
  6
CONTINUOUS
  0
LAYER
  5
46
330
2
100
AcDbSymbolTableRecord
100
AcDbLayerTableRecord
  2
LAYER001
 70
     0
 62
     2
  6
CONTINUOUS
  0
LAYER
  5
47
330
2
100
AcDbSymbolTableRecord
100
AcDbLayerTableRecord
  2
LAYER002
 70
     0
 62
     2
  6
CONTINUOUS
  0
LAYER
  5
48
330
2
100
AcDbSymbolTableRecord
100
AcDbLayerTableRecord
  2
LAYER003
 70
     0
 62
     2
  6
CONTINUOUS
  0
LAYER
  5
49
330
2
100
AcDbSymbolTableRecord
100
AcDbLayerTableRecord
  2
LAYER004
 70
     0
 62
     2
  6
CONTINUOUS
  0
LAYER
  5
4A
330
2
100
AcDbSymbolTableRecord
100
AcDbLayerTableRecord
  2
LAYER005
 70
     0
 62
     2
  6
CONTINUOUS
  0
LAYER
  5
4B
330
2
100
AcDbSymbolTableRecord
100
AcDbLayerTableRecord
  2
LAYER006
 70
     0
 62
     2
  6
CONTINUOUS
  0
LAYER
  5
4C
330
2
100
AcDbSymbolTableRecord
100
AcDbLayerTableRecord
  2
LAYER007
 70
     0
 62
     2
  6
CONTINUOUS
  0
LAYER
  5
4D
330
2
100
AcDbSymbolTableRecord
100
AcDbLayerTableRecord
  2
LAYER008
 70
     0
 62
     2
  6
CONTINUOUS
  0
LAYER
  5
4E
330
2
100
AcDbSymbolTableRecord
100
AcDbLayerTableRecord
  2
LAYER009
 70
     0
 62
     2
  6
CONTINUOUS
  0
LAYER
  5
4F
330
2
100
AcDbSymbolTableRecord
100
AcDbLayerTableRecord
  2
LAYER010
 70
     0
 62
     2
  6
CONTINUOUS
  0
LAYER
  5
50
330
2
100
AcDbSymbolTableRecord
100
AcDbLayerTableRecord
  2
LAYER011
 70
     0
 62
     3
  6
CONTINUOUS
  0
LAYER
  5
51
330
2
100
AcDbSymbolTableRecord
100
AcDbLayerTableRecord
  2
LAYER012
 70
     0
 62
     3
  6
CONTINUOUS
  0
LAYER
  5
52
330
2
100
AcDbSymbolTableRecord
100
AcDbLayerTableRecord
  2
LAYER013
 70
     0
 62
     3
  6
CONTINUOUS
  0
LAYER
  5
53
330
2
100
AcDbSymbolTableRecord
100
AcDbLayerTableRecord
  2
LAYER014
 70
     0
 62
     3
  6
CONTINUOUS
  0
LAYER
  5
54
330
2
100
AcDbSymbolTableRecord
100
AcDbLayerTableRecord
  2
LAYER015
 70
     0
 62
     3
  6
CONTINUOUS
  0
LAYER
  5
55
330
2
100
AcDbSymbolTableRecord
100
AcDbLayerTableRecord
  2
LAYER016
 70
     0
 62
     3
  6
CONTINUOUS
  0
LAYER
  5
56
330
2
100
AcDbSymbolTableRecord
100
AcDbLayerTableRecord
  2
LAYER017
 70
     0
 62
     3
  6
CONTINUOUS
  0
LAYER
  5
57
330
2
100
AcDbSymbolTableRecord
100
AcDbLayerTableRecord
  2
LAYER018
 70
     0
 62
     3
  6
CONTINUOUS
  0
LAYER
  5
58
330
2
100
AcDbSymbolTableRecord
100
AcDbLayerTableRecord
  2
LAYER019
 70
     0
 62
     3
  6
CONTINUOUS
  0
LAYER
  5
59
330
2
100
AcDbSymbolTableRecord
100
AcDbLayerTableRecord
  2
LAYER020
 70
     0
 62
     3
  6
CONTINUOUS
  0
LAYER
  5
5A
330
2
100
AcDbSymbolTableRecord
100
AcDbLayerTableRecord
  2
LAYER021
 70
     0
 62
   160
  6
CONTINUOUS
  0
LAYER
  5
5B
330
2
100
AcDbSymbolTableRecord
100
AcDbLayerTableRecord
  2
LAYER022
 70
     0
 62
   160
  6
CONTINUOUS
  0
LAYER
  5
5C
330
2
100
AcDbSymbolTableRecord
100
AcDbLayerTableRecord
  2
LAYER023
 70
     0
 62
   160
  6
CONTINUOUS
  0
LAYER
  5
5D
330
2
100
AcDbSymbolTableRecord
100
AcDbLayerTableRecord
  2
LAYER024
 70
     0
 62
   160
  6
CONTINUOUS
  0
LAYER
  5
5E
330
2
100
AcDbSymbolTableRecord
100
AcDbLayerTableRecord
  2
LAYER025
 70
     0
 62
   160
  6
CONTINUOUS
  0
LAYER
  5
5F
330
2
100
AcDbSymbolTableRecord
100
AcDbLayerTableRecord
  2
LAYER026
 70
     0
 62
   160
  6
CONTINUOUS
  0
LAYER
  5
60
330
2
100
AcDbSymbolTableRecord
100
AcDbLayerTableRecord
  2
LAYER027
 70
     0
 62
   160
  6
CONTINUOUS
  0
LAYER
  5
61
330
2
100
AcDbSymbolTableRecord
100
AcDbLayerTableRecord
  2
LAYER028
 70
     0
 62
   160
  6
CONTINUOUS
  0
LAYER
  5
62
330
2
100
AcDbSymbolTableRecord
100
AcDbLayerTableRecord
  2
LAYER029
 70
     0
 62
   160
  6
CONTINUOUS
  0
LAYER
  5
63
330
2
100
AcDbSymbolTableRecord
100
AcDbLayerTableRecord
  2
LAYER030
 70
     0
 62
   160
  6
CONTINUOUS
  0
LAYER
  5
64
330
2
100
AcDbSymbolTableRecord
100
AcDbLayerTableRecord
  2
LAYER031
 70
     0
 62
   120
  6
CONTINUOUS
  0
LAYER
  5
65
330
2
100
AcDbSymbolTableRecord
100
AcDbLayerTableRecord
  2
LAYER032
 70
     0
 62
   120
  6
CONTINUOUS
  0
LAYER
  5
66
330
2
100
AcDbSymbolTableRecord
100
AcDbLayerTableRecord
  2
LAYER033
 70
     0
 62
   120
  6
CONTINUOUS
  0
LAYER
  5
67
330
2
100
AcDbSymbolTableRecord
100
AcDbLayerTableRecord
  2
LAYER034
 70
     0
 62
   120
  6
CONTINUOUS
  0
LAYER
  5
68
330
2
100
AcDbSymbolTableRecord
100
AcDbLayerTableRecord
  2
LAYER035
 70
     0
 62
   120
  6
CONTINUOUS
  0
LAYER
  5
69
330
2
100
AcDbSymbolTableRecord
100
AcDbLayerTableRecord
  2
LAYER036
 70
     0
 62
   120
  6
CONTINUOUS
  0
LAYER
  5
6A
330
2
100
AcDbSymbolTableRecord
100
AcDbLayerTableRecord
  2
LAYER037
 70
     0
 62
   120
  6
CONTINUOUS
  0
LAYER
  5
6B
330
2
100
AcDbSymbolTableRecord
100
AcDbLayerTableRecord
  2
LAYER038
 70
     0
 62
   120
  6
CONTINUOUS
  0
LAYER
  5
6C
330
2
100
AcDbSymbolTableRecord
100
AcDbLayerTableRecord
  2
LAYER039
 70
     0
 62
   120
  6
CONTINUOUS
  0
LAYER
  5
6D
330
2
100
AcDbSymbolTableRecord
100
AcDbLayerTableRecord
  2
LAYER040
 70
     0
 62
   120
  6
CONTINUOUS
  0
LAYER
  5
6E
330
2
100
AcDbSymbolTableRecord
100
AcDbLayerTableRecord
  2
LAYER041
 70
     0
 62
   162
  6
CONTINUOUS
  0
LAYER
  5
6F
330
2
100
AcDbSymbolTableRecord
100
AcDbLayerTableRecord
  2
LAYER042
 70
     0
 62
   162
  6
CONTINUOUS
  0
LAYER
  5
70
330
2
100
AcDbSymbolTableRecord
100
AcDbLayerTableRecord
  2
LAYER043
 70
     0
 62
   162
  6
CONTINUOUS
  0
LAYER
  5
71
330
2
100
AcDbSymbolTableRecord
100
AcDbLayerTableRecord
  2
LAYER044
 70
     0
 62
   162
  6
CONTINUOUS
  0
LAYER
  5
72
330
2
100
AcDbSymbolTableRecord
100
AcDbLayerTableRecord
  2
LAYER045
 70
     0
 62
   162
  6
CONTINUOUS
  0
LAYER
  5
73
330
2
100
AcDbSymbolTableRecord
100
AcDbLayerTableRecord
  2
LAYER046
 70
     0
 62
   162
  6
CONTINUOUS
  0
LAYER
  5
74
330
2
100
AcDbSymbolTableRecord
100
AcDbLayerTableRecord
  2
LAYER047
 70
     0
 62
   162
  6
CONTINUOUS
  0
LAYER
  5
75
330
2
100
AcDbSymbolTableRecord
100
AcDbLayerTableRecord
  2
LAYER048
 70
     0
 62
   162
  6
CONTINUOUS
  0
LAYER
  5
76
330
2
100
AcDbSymbolTableRecord
100
AcDbLayerTableRecord
  2
LAYER049
 70
     0
 62
   162
  6
CONTINUOUS
  0
LAYER
  5
77
330
2
100
AcDbSymbolTableRecord
100
AcDbLayerTableRecord
  2
LAYER050
 70
     0
 62
   162
  6
CONTINUOUS
  0
LAYER
  5
78
330
2
100
AcDbSymbolTableRecord
100
AcDbLayerTableRecord
  2
LAYER051
 70
     0
 62
    20
  6
CONTINUOUS
  0
LAYER
  5
79
330
2
100
AcDbSymbolTableRecord
100
AcDbLayerTableRecord
  2
LAYER052
 70
     0
 62
    20
  6
CONTINUOUS
  0
LAYER
  5
7A
330
2
100
AcDbSymbolTableRecord
100
AcDbLayerTableRecord
  2
LAYER053
 70
     0
 62
    20
  6
CONTINUOUS
  0
LAYER
  5
7B
330
2
100
AcDbSymbolTableRecord
100
AcDbLayerTableRecord
  2
LAYER054
 70
     0
 62
    20
  6
CONTINUOUS
  0
LAYER
  5
7C
330
2
100
AcDbSymbolTableRecord
100
AcDbLayerTableRecord
  2
LAYER055
 70
     0
 62
    20
  6
CONTINUOUS
  0
LAYER
  5
7D
330
2
100
AcDbSymbolTableRecord
100
AcDbLayerTableRecord
  2
LAYER056
 70
     0
 62
    20
  6
CONTINUOUS
  0
LAYER
  5
7E
330
2
100
AcDbSymbolTableRecord
100
AcDbLayerTableRecord
  2
LAYER057
 70
     0
 62
    20
  6
CONTINUOUS
  0
LAYER
  5
7F
330
2
100
AcDbSymbolTableRecord
100
AcDbLayerTableRecord
  2
LAYER058
 70
     0
 62
    20
  6
CONTINUOUS
  0
LAYER
  5
80
330
2
100
AcDbSymbolTableRecord
100
AcDbLayerTableRecord
  2
LAYER059
 70
     0
 62
    20
  6
CONTINUOUS
  0
LAYER
  5
81
330
2
100
AcDbSymbolTableRecord
100
AcDbLayerTableRecord
  2
LAYER060
 70
     0
 62
    20
  6
CONTINUOUS
  0
LAYER
  5
82
330
2
100
AcDbSymbolTableRecord
100
AcDbLayerTableRecord
  2
LAYER061
 70
     0
 62
     3
  6
CONTINUOUS
  0
LAYER
  5
83
330
2
100
AcDbSymbolTableRecord
100
AcDbLayerTableRecord
  2
LAYER062
 70
     0
 62
     3
  6
CONTINUOUS
  0
LAYER
  5
84
330
2
100
AcDbSymbolTableRecord
100
AcDbLayerTableRecord
  2
LAYER063
 70
     0
 62
     3
  6
CONTINUOUS
  0
LAYER
  5
85
330
2
100
AcDbSymbolTableRecord
100
AcDbLayerTableRecord
  2
LAYER064
 70
     0
 62
     3
  6
CONTINUOUS
  0
LAYER
  5
86
330
2
100
AcDbSymbolTableRecord
100
AcDbLayerTableRecord
  2
LAYER065
 70
     0
 62
     3
  6
CONTINUOUS
  0
LAYER
  5
87
330
2
100
AcDbSymbolTableRecord
100
AcDbLayerTableRecord
  2
LAYER066
 70
     0
 62
     3
  6
CONTINUOUS
  0
LAYER
  5
88
330
2
100
AcDbSymbolTableRecord
100
AcDbLayerTableRecord
  2
LAYER067
 70
     0
 62
     3
  6
CONTINUOUS
  0
LAYER
  5
89
330
2
100
AcDbSymbolTableRecord
100
AcDbLayerTableRecord
  2
LAYER068
 70
     0
 62
     3
  6
CONTINUOUS
  0
LAYER
  5
8A
330
2
100
AcDbSymbolTableRecord
100
AcDbLayerTableRecord
  2
LAYER069
 70
     0
 62
     3
  6
CONTINUOUS
  0
LAYER
  5
8B
330
2
100
AcDbSymbolTableRecord
100
AcDbLayerTableRecord
  2
LAYER070
 70
     0
 62
     3
  6
CONTINUOUS
  0
LAYER
  5
8C
330
2
100
AcDbSymbolTableRecord
100
AcDbLayerTableRecord
  2
LAYER071
 70
     0
 62
   230
  6
CONTINUOUS
  0
LAYER
  5
8D
330
2
100
AcDbSymbolTableRecord
100
AcDbLayerTableRecord
  2
LAYER072
 70
     0
 62
   230
  6
CONTINUOUS
  0
LAYER
  5
8E
330
2
100
AcDbSymbolTableRecord
100
AcDbLayerTableRecord
  2
LAYER073
 70
     0
 62
   230
  6
CONTINUOUS
  0
LAYER
  5
8F
330
2
100
AcDbSymbolTableRecord
100
AcDbLayerTableRecord
  2
LAYER074
 70
     0
 62
   230
  6
CONTINUOUS
  0
LAYER
  5
90
330
2
100
AcDbSymbolTableRecord
100
AcDbLayerTableRecord
  2
LAYER075
 70
     0
 62
   230
  6
CONTINUOUS
  0
LAYER
  5
91
330
2
100
AcDbSymbolTableRecord
100
AcDbLayerTableRecord
  2
LAYER076
 70
     0
 62
   230
  6
CONTINUOUS
  0
LAYER
  5
92
330
2
100
AcDbSymbolTableRecord
100
AcDbLayerTableRecord
  2
LAYER077
 70
     0
 62
   230
  6
CONTINUOUS
  0
LAYER
  5
93
330
2
100
AcDbSymbolTableRecord
100
AcDbLayerTableRecord
  2
LAYER078
 70
     0
 62
   230
  6
CONTINUOUS
  0
LAYER
  5
94
330
2
100
AcDbSymbolTableRecord
100
AcDbLayerTableRecord
  2
LAYER079
 70
     0
 62
   230
  6
CONTINUOUS
  0
LAYER
  5
95
330
2
100
AcDbSymbolTableRecord
100
AcDbLayerTableRecord
  2
LAYER080
 70
     0
 62
   230
  6
CONTINUOUS
  0
LAYER
  5
96
330
2
100
AcDbSymbolTableRecord
100
AcDbLayerTableRecord
  2
LAYER081
 70
     0
 62
   190
  6
CONTINUOUS
  0
LAYER
  5
97
330
2
100
AcDbSymbolTableRecord
100
AcDbLayerTableRecord
  2
LAYER082
 70
     0
 62
   190
  6
CONTINUOUS
  0
LAYER
  5
98
330
2
100
AcDbSymbolTableRecord
100
AcDbLayerTableRecord
  2
LAYER083
 70
     0
 62
   190
  6
CONTINUOUS
  0
LAYER
  5
99
330
2
100
AcDbSymbolTableRecord
100
AcDbLayerTableRecord
  2
LAYER084
 70
     0
 62
   190
  6
CONTINUOUS
  0
LAYER
  5
9A
330
2
100
AcDbSymbolTableRecord
100
AcDbLayerTableRecord
  2
LAYER085
 70
     0
 62
   190
  6
CONTINUOUS
  0
LAYER
  5
9B
330
2
100
AcDbSymbolTableRecord
100
AcDbLayerTableRecord
  2
LAYER086
 70
     0
 62
   190
  6
CONTINUOUS
  0
LAYER
  5
9C
330
2
100
AcDbSymbolTableRecord
100
AcDbLayerTableRecord
  2
LAYER087
 70
     0
 62
   190
  6
CONTINUOUS
  0
LAYER
  5
9D
330
2
100
AcDbSymbolTableRecord
100
AcDbLayerTableRecord
  2
LAYER088
 70
     0
 62
   190
  6
CONTINUOUS
  0
LAYER
  5
9E
330
2
100
AcDbSymbolTableRecord
100
AcDbLayerTableRecord
  2
LAYER089
 70
     0
 62
   190
  6
CONTINUOUS
  0
LAYER
  5
9F
330
2
100
AcDbSymbolTableRecord
100
AcDbLayerTableRecord
  2
LAYER090
 70
     0
 62
   190
  6
CONTINUOUS
  0
LAYER
  5
A0
330
2
100
AcDbSymbolTableRecord
100
AcDbLayerTableRecord
  2
LAYER091
 70
     0
 62
   214
  6
CONTINUOUS
  0
LAYER
  5
A1
330
2
100
AcDbSymbolTableRecord
100
AcDbLayerTableRecord
  2
LAYER092
 70
     0
 62
   214
  6
CONTINUOUS
  0
LAYER
  5
A2
330
2
100
AcDbSymbolTableRecord
100
AcDbLayerTableRecord
  2
LAYER093
 70
     0
 62
   214
  6
CONTINUOUS
  0
LAYER
  5
A3
330
2
100
AcDbSymbolTableRecord
100
AcDbLayerTableRecord
  2
LAYER094
 70
     0
 62
   214
  6
CONTINUOUS
  0
LAYER
  5
A4
330
2
100
AcDbSymbolTableRecord
100
AcDbLayerTableRecord
  2
LAYER095
 70
     0
 62
   214
  6
CONTINUOUS
  0
LAYER
  5
A5
330
2
100
AcDbSymbolTableRecord
100
AcDbLayerTableRecord
  2
LAYER096
 70
     0
 62
   214
  6
CONTINUOUS
  0
LAYER
  5
A6
330
2
100
AcDbSymbolTableRecord
100
AcDbLayerTableRecord
  2
LAYER097
 70
     0
 62
   214
  6
CONTINUOUS
  0
LAYER
  5
A7
330
2
100
AcDbSymbolTableRecord
100
AcDbLayerTableRecord
  2
LAYER098
 70
     0
 62
   214
  6
CONTINUOUS
  0
LAYER
  5
A8
330
2
100
AcDbSymbolTableRecord
100
AcDbLayerTableRecord
  2
LAYER099
 70
     0
 62
   214
  6
CONTINUOUS
  0
LAYER
  5
A9
330
2
100
AcDbSymbolTableRecord
100
AcDbLayerTableRecord
  2
LAYER100
 70
     0
 62
   214
  6
CONTINUOUS
  0
LAYER
  5
AA
330
2
100
AcDbSymbolTableRecord
100
AcDbLayerTableRecord
  2
LAYER101
 70
     0
 62
   164
  6
CONTINUOUS
  0
LAYER
  5
AB
330
2
100
AcDbSymbolTableRecord
100
AcDbLayerTableRecord
  2
LAYER102
 70
     0
 62
   164
  6
CONTINUOUS
  0
LAYER
  5
AC
330
2
100
AcDbSymbolTableRecord
100
AcDbLayerTableRecord
  2
LAYER103
 70
     0
 62
   164
  6
CONTINUOUS
  0
LAYER
  5
AD
330
2
100
AcDbSymbolTableRecord
100
AcDbLayerTableRecord
  2
LAYER104
 70
     0
 62
   164
  6
CONTINUOUS
  0
LAYER
  5
AE
330
2
100
AcDbSymbolTableRecord
100
AcDbLayerTableRecord
  2
LAYER105
 70
     0
 62
   164
  6
CONTINUOUS
  0
LAYER
  5
AF
330
2
100
AcDbSymbolTableRecord
100
AcDbLayerTableRecord
  2
LAYER106
 70
     0
 62
   164
  6
CONTINUOUS
  0
LAYER
  5
B0
330
2
100
AcDbSymbolTableRecord
100
AcDbLayerTableRecord
  2
LAYER107
 70
     0
 62
   164
  6
CONTINUOUS
  0
LAYER
  5
B1
330
2
100
AcDbSymbolTableRecord
100
AcDbLayerTableRecord
  2
LAYER108
 70
     0
 62
   164
  6
CONTINUOUS
  0
LAYER
  5
B2
330
2
100
AcDbSymbolTableRecord
100
AcDbLayerTableRecord
  2
LAYER109
 70
     0
 62
   164
  6
CONTINUOUS
  0
LAYER
  5
B3
330
2
100
AcDbSymbolTableRecord
100
AcDbLayerTableRecord
  2
LAYER110
 70
     0
 62
   164
  6
CONTINUOUS
  0
LAYER
  5
B4
330
2
100
AcDbSymbolTableRecord
100
AcDbLayerTableRecord
  2
LAYER111
 70
     0
 62
   232
  6
CONTINUOUS
  0
LAYER
  5
B5
330
2
100
AcDbSymbolTableRecord
100
AcDbLayerTableRecord
  2
LAYER112
 70
     0
 62
   232
  6
CONTINUOUS
  0
LAYER
  5
B6
330
2
100
AcDbSymbolTableRecord
100
AcDbLayerTableRecord
  2
LAYER113
 70
     0
 62
   232
  6
CONTINUOUS
  0
LAYER
  5
B7
330
2
100
AcDbSymbolTableRecord
100
AcDbLayerTableRecord
  2
LAYER114
 70
     0
 62
   232
  6
CONTINUOUS
  0
LAYER
  5
B8
330
2
100
AcDbSymbolTableRecord
100
AcDbLayerTableRecord
  2
LAYER115
 70
     0
 62
   232
  6
CONTINUOUS
  0
LAYER
  5
B9
330
2
100
AcDbSymbolTableRecord
100
AcDbLayerTableRecord
  2
LAYER116
 70
     0
 62
   232
  6
CONTINUOUS
  0
LAYER
  5
BA
330
2
100
AcDbSymbolTableRecord
100
AcDbLayerTableRecord
  2
LAYER117
 70
     0
 62
   232
  6
CONTINUOUS
  0
LAYER
  5
BB
330
2
100
AcDbSymbolTableRecord
100
AcDbLayerTableRecord
  2
LAYER118
 70
     0
 62
   232
  6
CONTINUOUS
  0
LAYER
  5
BC
330
2
100
AcDbSymbolTableRecord
100
AcDbLayerTableRecord
  2
LAYER119
 70
     0
 62
   232
  6
CONTINUOUS
  0
LAYER
  5
BD
330
2
100
AcDbSymbolTableRecord
100
AcDbLayerTableRecord
  2
LAYER120
 70
     0
 62
   232
  6
CONTINUOUS
  0
LAYER
  5
BE
330
2
100
AcDbSymbolTableRecord
100
AcDbLayerTableRecord
  2
LAYER121
 70
     0
 62
   254
  6
CONTINUOUS
  0
LAYER
  5
BF
330
2
100
AcDbSymbolTableRecord
100
AcDbLayerTableRecord
  2
LAYER122
 70
     0
 62
   254
  6
CONTINUOUS
  0
LAYER
  5
C0
330
2
100
AcDbSymbolTableRecord
100
AcDbLayerTableRecord
  2
LAYER123
 70
     0
 62
   254
  6
CONTINUOUS
  0
LAYER
  5
C1
330
2
100
AcDbSymbolTableRecord
100
AcDbLayerTableRecord
  2
LAYER124
 70
     0
 62
   254
  6
CONTINUOUS
  0
LAYER
  5
C2
330
2
100
AcDbSymbolTableRecord
100
AcDbLayerTableRecord
  2
LAYER125
 70
     0
 62
   254
  6
CONTINUOUS
  0
LAYER
  5
C3
330
2
100
AcDbSymbolTableRecord
100
AcDbLayerTableRecord
  2
LAYER126
 70
     0
 62
   254
  6
CONTINUOUS
  0
LAYER
  5
C4
330
2
100
AcDbSymbolTableRecord
100
AcDbLayerTableRecord
  2
LAYER127
 70
     0
 62
   254
  6
CONTINUOUS
  0
LAYER
  5
C5
330
2
100
AcDbSymbolTableRecord
100
AcDbLayerTableRecord
  2
LAYER128
 70
     0
 62
   254
  6
CONTINUOUS
  0
LAYER
  5
C6
330
2
100
AcDbSymbolTableRecord
100
AcDbLayerTableRecord
  2
LAYER129
 70
     0
 62
   254
  6
CONTINUOUS
  0
LAYER
  5
C7
330
2
100
AcDbSymbolTableRecord
100
AcDbLayerTableRecord
  2
LAYER130
 70
     0
 62
   254
  6
CONTINUOUS
  0
LAYER
  5
C8
330
2
100
AcDbSymbolTableRecord
100
AcDbLayerTableRecord
  2
LAYER131
 70
     0
 62
     2
  6
CONTINUOUS
  0
LAYER
  5
C9
330
2
100
AcDbSymbolTableRecord
100
AcDbLayerTableRecord
  2
LAYER132
 70
     0
 62
     2
  6
CONTINUOUS
  0
LAYER
  5
CA
330
2
100
AcDbSymbolTableRecord
100
AcDbLayerTableRecord
  2
LAYER133
 70
     0
 62
     2
  6
CONTINUOUS
  0
LAYER
  5
CB
330
2
100
AcDbSymbolTableRecord
100
AcDbLayerTableRecord
  2
LAYER134
 70
     0
 62
     2
  6
CONTINUOUS
  0
LAYER
  5
CC
330
2
100
AcDbSymbolTableRecord
100
AcDbLayerTableRecord
  2
LAYER135
 70
     0
 62
     2
  6
CONTINUOUS
  0
LAYER
  5
CD
330
2
100
AcDbSymbolTableRecord
100
AcDbLayerTableRecord
  2
LAYER136
 70
     0
 62
     2
  6
CONTINUOUS
  0
LAYER
  5
CE
330
2
100
AcDbSymbolTableRecord
100
AcDbLayerTableRecord
  2
LAYER137
 70
     0
 62
     2
  6
CONTINUOUS
  0
LAYER
  5
CF
330
2
100
AcDbSymbolTableRecord
100
AcDbLayerTableRecord
  2
LAYER138
 70
     0
 62
     2
  6
CONTINUOUS
  0
LAYER
  5
D0
330
2
100
AcDbSymbolTableRecord
100
AcDbLayerTableRecord
  2
LAYER139
 70
     0
 62
     2
  6
CONTINUOUS
  0
LAYER
  5
D1
330
2
100
AcDbSymbolTableRecord
100
AcDbLayerTableRecord
  2
LAYER140
 70
     0
 62
     2
  6
CONTINUOUS
  0
LAYER
  5
D2
330
2
100
AcDbSymbolTableRecord
100
AcDbLayerTableRecord
  2
LAYER141
 70
     0
 62
     3
  6
CONTINUOUS
  0
LAYER
  5
D3
330
2
100
AcDbSymbolTableRecord
100
AcDbLayerTableRecord
  2
LAYER142
 70
     0
 62
     3
  6
CONTINUOUS
  0
LAYER
  5
D4
330
2
100
AcDbSymbolTableRecord
100
AcDbLayerTableRecord
  2
LAYER143
 70
     0
 62
     3
  6
CONTINUOUS
  0
LAYER
  5
D5
330
2
100
AcDbSymbolTableRecord
100
AcDbLayerTableRecord
  2
LAYER144
 70
     0
 62
     3
  6
CONTINUOUS
  0
LAYER
  5
D6
330
2
100
AcDbSymbolTableRecord
100
AcDbLayerTableRecord
  2
LAYER145
 70
     0
 62
     3
  6
CONTINUOUS
  0
LAYER
  5
D7
330
2
100
AcDbSymbolTableRecord
100
AcDbLayerTableRecord
  2
LAYER146
 70
     0
 62
     3
  6
CONTINUOUS
  0
LAYER
  5
D8
330
2
100
AcDbSymbolTableRecord
100
AcDbLayerTableRecord
  2
LAYER147
 70
     0
 62
     3
  6
CONTINUOUS
  0
LAYER
  5
D9
330
2
100
AcDbSymbolTableRecord
100
AcDbLayerTableRecord
  2
LAYER148
 70
     0
 62
     3
  6
CONTINUOUS
  0
LAYER
  5
DA
330
2
100
AcDbSymbolTableRecord
100
AcDbLayerTableRecord
  2
LAYER149
 70
     0
 62
     3
  6
CONTINUOUS
  0
LAYER
  5
DB
330
2
100
AcDbSymbolTableRecord
100
AcDbLayerTableRecord
  2
LAYER150
 70
     0
 62
     3
  6
CONTINUOUS
  0
LAYER
  5
DC
330
2
100
AcDbSymbolTableRecord
100
AcDbLayerTableRecord
  2
LAYER151
 70
     0
 62
   160
  6
CONTINUOUS
  0
LAYER
  5
DD
330
2
100
AcDbSymbolTableRecord
100
AcDbLayerTableRecord
  2
LAYER152
 70
     0
 62
   160
  6
CONTINUOUS
  0
LAYER
  5
DE
330
2
100
AcDbSymbolTableRecord
100
AcDbLayerTableRecord
  2
LAYER153
 70
     0
 62
   160
  6
CONTINUOUS
  0
LAYER
  5
DF
330
2
100
AcDbSymbolTableRecord
100
AcDbLayerTableRecord
  2
LAYER154
 70
     0
 62
   160
  6
CONTINUOUS
  0
LAYER
  5
E0
330
2
100
AcDbSymbolTableRecord
100
AcDbLayerTableRecord
  2
LAYER155
 70
     0
 62
   160
  6
CONTINUOUS
  0
LAYER
  5
E1
330
2
100
AcDbSymbolTableRecord
100
AcDbLayerTableRecord
  2
LAYER156
 70
     0
 62
   160
  6
CONTINUOUS
  0
LAYER
  5
E2
330
2
100
AcDbSymbolTableRecord
100
AcDbLayerTableRecord
  2
LAYER157
 70
     0
 62
   160
  6
CONTINUOUS
  0
LAYER
  5
E3
330
2
100
AcDbSymbolTableRecord
100
AcDbLayerTableRecord
  2
LAYER158
 70
     0
 62
   160
  6
CONTINUOUS
  0
LAYER
  5
E4
330
2
100
AcDbSymbolTableRecord
100
AcDbLayerTableRecord
  2
LAYER159
 70
     0
 62
   160
  6
CONTINUOUS
  0
LAYER
  5
E5
330
2
100
AcDbSymbolTableRecord
100
AcDbLayerTableRecord
  2
LAYER160
 70
     0
 62
   160
  6
CONTINUOUS
  0
LAYER
  5
E6
330
2
100
AcDbSymbolTableRecord
100
AcDbLayerTableRecord
  2
LAYER161
 70
     0
 62
   120
  6
CONTINUOUS
  0
LAYER
  5
E7
330
2
100
AcDbSymbolTableRecord
100
AcDbLayerTableRecord
  2
LAYER162
 70
     0
 62
   120
  6
CONTINUOUS
  0
LAYER
  5
E8
330
2
100
AcDbSymbolTableRecord
100
AcDbLayerTableRecord
  2
LAYER163
 70
     0
 62
   120
  6
CONTINUOUS
  0
LAYER
  5
E9
330
2
100
AcDbSymbolTableRecord
100
AcDbLayerTableRecord
  2
LAYER164
 70
     0
 62
   120
  6
CONTINUOUS
  0
LAYER
  5
EA
330
2
100
AcDbSymbolTableRecord
100
AcDbLayerTableRecord
  2
LAYER165
 70
     0
 62
   120
  6
CONTINUOUS
  0
LAYER
  5
EB
330
2
100
AcDbSymbolTableRecord
100
AcDbLayerTableRecord
  2
LAYER166
 70
     0
 62
   120
  6
CONTINUOUS
  0
LAYER
  5
EC
330
2
100
AcDbSymbolTableRecord
100
AcDbLayerTableRecord
  2
LAYER167
 70
     0
 62
   120
  6
CONTINUOUS
  0
LAYER
  5
ED
330
2
100
AcDbSymbolTableRecord
100
AcDbLayerTableRecord
  2
LAYER168
 70
     0
 62
   120
  6
CONTINUOUS
  0
LAYER
  5
EE
330
2
100
AcDbSymbolTableRecord
100
AcDbLayerTableRecord
  2
LAYER169
 70
     0
 62
   120
  6
CONTINUOUS
  0
LAYER
  5
EF
330
2
100
AcDbSymbolTableRecord
100
AcDbLayerTableRecord
  2
LAYER170
 70
     0
 62
   120
  6
CONTINUOUS
  0
LAYER
  5
F0
330
2
100
AcDbSymbolTableRecord
100
AcDbLayerTableRecord
  2
LAYER171
 70
     0
 62
   162
  6
CONTINUOUS
  0
LAYER
  5
F1
330
2
100
AcDbSymbolTableRecord
100
AcDbLayerTableRecord
  2
LAYER172
 70
     0
 62
   162
  6
CONTINUOUS
  0
LAYER
  5
F2
330
2
100
AcDbSymbolTableRecord
100
AcDbLayerTableRecord
  2
LAYER173
 70
     0
 62
   162
  6
CONTINUOUS
  0
LAYER
  5
F3
330
2
100
AcDbSymbolTableRecord
100
AcDbLayerTableRecord
  2
LAYER174
 70
     0
 62
   162
  6
CONTINUOUS
  0
LAYER
  5
F4
330
2
100
AcDbSymbolTableRecord
100
AcDbLayerTableRecord
  2
LAYER175
 70
     0
 62
   162
  6
CONTINUOUS
  0
LAYER
  5
F5
330
2
100
AcDbSymbolTableRecord
100
AcDbLayerTableRecord
  2
LAYER176
 70
     0
 62
   162
  6
CONTINUOUS
  0
LAYER
  5
F6
330
2
100
AcDbSymbolTableRecord
100
AcDbLayerTableRecord
  2
LAYER177
 70
     0
 62
   162
  6
CONTINUOUS
  0
LAYER
  5
F7
330
2
100
AcDbSymbolTableRecord
100
AcDbLayerTableRecord
  2
LAYER178
 70
     0
 62
   162
  6
CONTINUOUS
  0
LAYER
  5
F8
330
2
100
AcDbSymbolTableRecord
100
AcDbLayerTableRecord
  2
LAYER179
 70
     0
 62
   162
  6
CONTINUOUS
  0
LAYER
  5
F9
330
2
100
AcDbSymbolTableRecord
100
AcDbLayerTableRecord
  2
LAYER180
 70
     0
 62
   162
  6
CONTINUOUS
  0
LAYER
  5
FA
330
2
100
AcDbSymbolTableRecord
100
AcDbLayerTableRecord
  2
LAYER181
 70
     0
 62
    20
  6
CONTINUOUS
  0
LAYER
  5
FB
330
2
100
AcDbSymbolTableRecord
100
AcDbLayerTableRecord
  2
LAYER182
 70
     0
 62
    20
  6
CONTINUOUS
  0
LAYER
  5
FC
330
2
100
AcDbSymbolTableRecord
100
AcDbLayerTableRecord
  2
LAYER183
 70
     0
 62
    20
  6
CONTINUOUS
  0
LAYER
  5
FD
330
2
100
AcDbSymbolTableRecord
100
AcDbLayerTableRecord
  2
LAYER184
 70
     0
 62
    20
  6
CONTINUOUS
  0
LAYER
  5
FE
330
2
100
AcDbSymbolTableRecord
100
AcDbLayerTableRecord
  2
LAYER185
 70
     0
 62
    20
  6
CONTINUOUS
  0
LAYER
  5
FF
330
2
100
AcDbSymbolTableRecord
100
AcDbLayerTableRecord
  2
LAYER186
 70
     0
 62
    20
  6
CONTINUOUS
  0
LAYER
  5
100
330
2
100
AcDbSymbolTableRecord
100
AcDbLayerTableRecord
  2
LAYER187
 70
     0
 62
    20
  6
CONTINUOUS
  0
LAYER
  5
101
330
2
100
AcDbSymbolTableRecord
100
AcDbLayerTableRecord
  2
LAYER188
 70
     0
 62
    20
  6
CONTINUOUS
  0
LAYER
  5
102
330
2
100
AcDbSymbolTableRecord
100
AcDbLayerTableRecord
  2
LAYER189
 70
     0
 62
    20
  6
CONTINUOUS
  0
LAYER
  5
103
330
2
100
AcDbSymbolTableRecord
100
AcDbLayerTableRecord
  2
LAYER190
 70
     0
 62
    20
  6
CONTINUOUS
  0
LAYER
  5
104
330
2
100
AcDbSymbolTableRecord
100
AcDbLayerTableRecord
  2
LAYER191
 70
     0
 62
     3
  6
CONTINUOUS
  0
LAYER
  5
105
330
2
100
AcDbSymbolTableRecord
100
AcDbLayerTableRecord
  2
LAYER192
 70
     0
 62
     3
  6
CONTINUOUS
  0
LAYER
  5
106
330
2
100
AcDbSymbolTableRecord
100
AcDbLayerTableRecord
  2
LAYER193
 70
     0
 62
     3
  6
CONTINUOUS
  0
LAYER
  5
107
330
2
100
AcDbSymbolTableRecord
100
AcDbLayerTableRecord
  2
LAYER194
 70
     0
 62
     3
  6
CONTINUOUS
  0
LAYER
  5
108
330
2
100
AcDbSymbolTableRecord
100
AcDbLayerTableRecord
  2
LAYER195
 70
     0
 62
     3
  6
CONTINUOUS
  0
LAYER
  5
109
330
2
100
AcDbSymbolTableRecord
100
AcDbLayerTableRecord
  2
LAYER196
 70
     0
 62
     3
  6
CONTINUOUS
  0
LAYER
  5
10A
330
2
100
AcDbSymbolTableRecord
100
AcDbLayerTableRecord
  2
LAYER197
 70
     0
 62
     3
  6
CONTINUOUS
  0
LAYER
  5
10B
330
2
100
AcDbSymbolTableRecord
100
AcDbLayerTableRecord
  2
LAYER198
 70
     0
 62
     3
  6
CONTINUOUS
  0
LAYER
  5
10C
330
2
100
AcDbSymbolTableRecord
100
AcDbLayerTableRecord
  2
LAYER199
 70
     0
 62
     3
  6
CONTINUOUS
  0
LAYER
  5
10D
330
2
100
AcDbSymbolTableRecord
100
AcDbLayerTableRecord
  2
LAYER200
 70
     0
 62
     3
  6
CONTINUOUS
  0
LAYER
  5
10E
330
2
100
AcDbSymbolTableRecord
100
AcDbLayerTableRecord
  2
LAYER201
 70
     0
 62
   230
  6
CONTINUOUS
  0
LAYER
  5
10F
330
2
100
AcDbSymbolTableRecord
100
AcDbLayerTableRecord
  2
LAYER202
 70
     0
 62
   230
  6
CONTINUOUS
  0
LAYER
  5
110
330
2
100
AcDbSymbolTableRecord
100
AcDbLayerTableRecord
  2
LAYER203
 70
     0
 62
   230
  6
CONTINUOUS
  0
LAYER
  5
111
330
2
100
AcDbSymbolTableRecord
100
AcDbLayerTableRecord
  2
LAYER204
 70
     0
 62
   230
  6
CONTINUOUS
  0
LAYER
  5
112
330
2
100
AcDbSymbolTableRecord
100
AcDbLayerTableRecord
  2
LAYER205
 70
     0
 62
   230
  6
CONTINUOUS
  0
LAYER
  5
113
330
2
100
AcDbSymbolTableRecord
100
AcDbLayerTableRecord
  2
LAYER206
 70
     0
 62
   230
  6
CONTINUOUS
  0
LAYER
  5
114
330
2
100
AcDbSymbolTableRecord
100
AcDbLayerTableRecord
  2
LAYER207
 70
     0
 62
   230
  6
CONTINUOUS
  0
LAYER
  5
115
330
2
100
AcDbSymbolTableRecord
100
AcDbLayerTableRecord
  2
LAYER208
 70
     0
 62
   230
  6
CONTINUOUS
  0
LAYER
  5
116
330
2
100
AcDbSymbolTableRecord
100
AcDbLayerTableRecord
  2
LAYER209
 70
     0
 62
   230
  6
CONTINUOUS
  0
LAYER
  5
117
330
2
100
AcDbSymbolTableRecord
100
AcDbLayerTableRecord
  2
LAYER210
 70
     0
 62
   230
  6
CONTINUOUS
  0
LAYER
  5
118
330
2
100
AcDbSymbolTableRecord
100
AcDbLayerTableRecord
  2
LAYER211
 70
     0
 62
   190
  6
CONTINUOUS
  0
LAYER
  5
119
330
2
100
AcDbSymbolTableRecord
100
AcDbLayerTableRecord
  2
LAYER212
 70
     0
 62
   190
  6
CONTINUOUS
  0
LAYER
  5
11A
330
2
100
AcDbSymbolTableRecord
100
AcDbLayerTableRecord
  2
LAYER213
 70
     0
 62
   190
  6
CONTINUOUS
  0
LAYER
  5
11B
330
2
100
AcDbSymbolTableRecord
100
AcDbLayerTableRecord
  2
LAYER214
 70
     0
 62
   190
  6
CONTINUOUS
  0
LAYER
  5
11C
330
2
100
AcDbSymbolTableRecord
100
AcDbLayerTableRecord
  2
LAYER215
 70
     0
 62
   190
  6
CONTINUOUS
  0
LAYER
  5
11D
330
2
100
AcDbSymbolTableRecord
100
AcDbLayerTableRecord
  2
LAYER216
 70
     0
 62
   190
  6
CONTINUOUS
  0
LAYER
  5
11E
330
2
100
AcDbSymbolTableRecord
100
AcDbLayerTableRecord
  2
LAYER217
 70
     0
 62
   190
  6
CONTINUOUS
  0
LAYER
  5
11F
330
2
100
AcDbSymbolTableRecord
100
AcDbLayerTableRecord
  2
LAYER218
 70
     0
 62
   190
  6
CONTINUOUS
  0
LAYER
  5
120
330
2
100
AcDbSymbolTableRecord
100
AcDbLayerTableRecord
  2
LAYER219
 70
     0
 62
   190
  6
CONTINUOUS
  0
LAYER
  5
121
330
2
100
AcDbSymbolTableRecord
100
AcDbLayerTableRecord
  2
LAYER220
 70
     0
 62
   190
  6
CONTINUOUS
  0
LAYER
  5
122
330
2
100
AcDbSymbolTableRecord
100
AcDbLayerTableRecord
  2
LAYER221
 70
     0
 62
   214
  6
CONTINUOUS
  0
LAYER
  5
123
330
2
100
AcDbSymbolTableRecord
100
AcDbLayerTableRecord
  2
LAYER222
 70
     0
 62
   214
  6
CONTINUOUS
  0
LAYER
  5
124
330
2
100
AcDbSymbolTableRecord
100
AcDbLayerTableRecord
  2
LAYER223
 70
     0
 62
   214
  6
CONTINUOUS
  0
LAYER
  5
125
330
2
100
AcDbSymbolTableRecord
100
AcDbLayerTableRecord
  2
LAYER224
 70
     0
 62
   214
  6
CONTINUOUS
  0
LAYER
  5
126
330
2
100
AcDbSymbolTableRecord
100
AcDbLayerTableRecord
  2
LAYER225
 70
     0
 62
   214
  6
CONTINUOUS
  0
LAYER
  5
127
330
2
100
AcDbSymbolTableRecord
100
AcDbLayerTableRecord
  2
LAYER226
 70
     0
 62
   214
  6
CONTINUOUS
  0
LAYER
  5
128
330
2
100
AcDbSymbolTableRecord
100
AcDbLayerTableRecord
  2
LAYER227
 70
     0
 62
   214
  6
CONTINUOUS
  0
LAYER
  5
129
330
2
100
AcDbSymbolTableRecord
100
AcDbLayerTableRecord
  2
LAYER228
 70
     0
 62
   214
  6
CONTINUOUS
  0
LAYER
  5
12A
330
2
100
AcDbSymbolTableRecord
100
AcDbLayerTableRecord
  2
LAYER229
 70
     0
 62
   214
  6
CONTINUOUS
  0
LAYER
  5
12B
330
2
100
AcDbSymbolTableRecord
100
AcDbLayerTableRecord
  2
LAYER230
 70
     0
 62
   214
  6
CONTINUOUS
  0
LAYER
  5
12C
330
2
100
AcDbSymbolTableRecord
100
AcDbLayerTableRecord
  2
LAYER231
 70
     0
 62
   164
  6
CONTINUOUS
  0
LAYER
  5
12D
330
2
100
AcDbSymbolTableRecord
100
AcDbLayerTableRecord
  2
LAYER232
 70
     0
 62
   164
  6
CONTINUOUS
  0
LAYER
  5
12E
330
2
100
AcDbSymbolTableRecord
100
AcDbLayerTableRecord
  2
LAYER233
 70
     0
 62
   164
  6
CONTINUOUS
  0
LAYER
  5
12F
330
2
100
AcDbSymbolTableRecord
100
AcDbLayerTableRecord
  2
LAYER234
 70
     0
 62
   164
  6
CONTINUOUS
  0
LAYER
  5
130
330
2
100
AcDbSymbolTableRecord
100
AcDbLayerTableRecord
  2
LAYER235
 70
     0
 62
   164
  6
CONTINUOUS
  0
LAYER
  5
131
330
2
100
AcDbSymbolTableRecord
100
AcDbLayerTableRecord
  2
LAYER236
 70
     0
 62
   164
  6
CONTINUOUS
  0
LAYER
  5
132
330
2
100
AcDbSymbolTableRecord
100
AcDbLayerTableRecord
  2
LAYER237
 70
     0
 62
   164
  6
CONTINUOUS
  0
LAYER
  5
133
330
2
100
AcDbSymbolTableRecord
100
AcDbLayerTableRecord
  2
LAYER238
 70
     0
 62
   164
  6
CONTINUOUS
  0
LAYER
  5
134
330
2
100
AcDbSymbolTableRecord
100
AcDbLayerTableRecord
  2
LAYER239
 70
     0
 62
   164
  6
CONTINUOUS
  0
LAYER
  5
135
330
2
100
AcDbSymbolTableRecord
100
AcDbLayerTableRecord
  2
LAYER240
 70
     0
 62
   164
  6
CONTINUOUS
  0
LAYER
  5
136
330
2
100
AcDbSymbolTableRecord
100
AcDbLayerTableRecord
  2
LAYER241
 70
     0
 62
   232
  6
CONTINUOUS
  0
LAYER
  5
137
330
2
100
AcDbSymbolTableRecord
100
AcDbLayerTableRecord
  2
LAYER242
 70
     0
 62
   232
  6
CONTINUOUS
  0
LAYER
  5
138
330
2
100
AcDbSymbolTableRecord
100
AcDbLayerTableRecord
  2
LAYER243
 70
     0
 62
   232
  6
CONTINUOUS
  0
LAYER
  5
139
330
2
100
AcDbSymbolTableRecord
100
AcDbLayerTableRecord
  2
LAYER244
 70
     0
 62
   232
  6
CONTINUOUS
  0
LAYER
  5
13A
330
2
100
AcDbSymbolTableRecord
100
AcDbLayerTableRecord
  2
LAYER245
 70
     0
 62
   232
  6
CONTINUOUS
  0
LAYER
  5
13B
330
2
100
AcDbSymbolTableRecord
100
AcDbLayerTableRecord
  2
LAYER246
 70
     0
 62
   232
  6
CONTINUOUS
  0
LAYER
  5
13C
330
2
100
AcDbSymbolTableRecord
100
AcDbLayerTableRecord
  2
LAYER247
 70
     0
 62
   232
  6
CONTINUOUS
  0
LAYER
  5
13D
330
2
100
AcDbSymbolTableRecord
100
AcDbLayerTableRecord
  2
LAYER248
 70
     0
 62
   232
  6
CONTINUOUS
  0
LAYER
  5
13E
330
2
100
AcDbSymbolTableRecord
100
AcDbLayerTableRecord
  2
LAYER249
 70
     0
 62
   232
  6
CONTINUOUS
  0
LAYER
  5
13F
330
2
100
AcDbSymbolTableRecord
100
AcDbLayerTableRecord
  2
LAYER250
 70
     0
 62
   232
  6
CONTINUOUS
  0
LAYER
  5
140
330
2
100
AcDbSymbolTableRecord
100
AcDbLayerTableRecord
  2
LAYER251
 70
     0
 62
   254
  6
CONTINUOUS
  0
LAYER
  5
141
330
2
100
AcDbSymbolTableRecord
100
AcDbLayerTableRecord
  2
LAYER252
 70
     0
 62
   254
  6
CONTINUOUS
  0
LAYER
  5
142
330
2
100
AcDbSymbolTableRecord
100
AcDbLayerTableRecord
  2
LAYER253
 70
     0
 62
   254
  6
CONTINUOUS
  0
LAYER
  5
143
330
2
100
AcDbSymbolTableRecord
100
AcDbLayerTableRecord
  2
LAYER254
 70
     0
 62
   254
  6
CONTINUOUS
  0
LAYER
  5
144
330
2
100
AcDbSymbolTableRecord
100
AcDbLayerTableRecord
  2
LAYER255
 70
     0
 62
   254
  6
CONTINUOUS
  0
LAYER
  5
145
330
2
100
AcDbSymbolTableRecord
100
AcDbLayerTableRecord
  2
LAYER256
 70
     0
 62
   254
  6
CONTINUOUS
  0
ENDTAB
  0
TABLE
  2
STYLE
  5
3
330
0
100
AcDbSymbolTable
 70
     1
  0
STYLE
  5
11
330
3
100
AcDbSymbolTableRecord
100
AcDbTextStyleTableRecord
  2
STANDARD
 70
     0
 40
0.0
 41
1.0
 50
0.0
 71
     0
 42
2.5
  3
txt
  4
bigfont
  0
ENDTAB
  0
TABLE
  2
VIEW
  5
6
330
0
100
AcDbSymbolTable
 70
     0
  0
ENDTAB
  0
TABLE
  2
UCS
  5
7
330
0
100
AcDbSymbolTable
 70
     0
  0
ENDTAB
  0
TABLE
  2
APPID
  5
9
330
0
100
AcDbSymbolTable
 70
     1
  0
APPID
  5
12
330
9
100
AcDbSymbolTableRecord
100
AcDbRegAppTableRecord
  2
ACAD
 70
     0
  0
ENDTAB
  0
TABLE
  2
DIMSTYLE
  5
A
330
0
100
AcDbSymbolTable
 70
     1
  0
DIMSTYLE
105
27
330
A
100
AcDbSymbolTableRecord
100
AcDbDimStyleTableRecord
  2
ISO-25
 70
     0
  3

  4

  5

  6

  7

 40
1.0
 41
2.5
 42
0.625
 43
3.75
 44
1.25
 45
0.0
 46
0.0
 47
0.0
 48
0.0
140
2.5
141
2.5
142
0.0
143
0.0393700787
144
1.0
145
0.0
146
1.0
147
0.625
 71
     0
 72
     0
 73
     0
 74
     0
 75
     0
 76
     0
 77
     1
 78
     8
170
     0
171
     3
172
     1
173
     0
174
     0
175
     0
176
     0
177
     0
178
     0
270
     2
271
     2
272
     2
273
     2
274
     3
340
11
275
     0
280
     0
281
     0
282
     0
283
     0
284
     8
285
     0
286
     0
287
     3
288
     0
  0
ENDTAB
  0
TABLE
  2
BLOCK_RECORD
  5
1
330
0
100
AcDbSymbolTable
 70
     1
  0
BLOCK_RECORD
  5
1F
330
1
100
AcDbSymbolTableRecord
100
AcDbBlockTableRecord
  2
*MODEL_SPACE
  0
BLOCK_RECORD
  5
1B
330
1
100
AcDbSymbolTableRecord
100
AcDbBlockTableRecord
  2
*PAPER_SPACE
  0
BLOCK_RECORD
  5
23
330
1
100
AcDbSymbolTableRecord
100
AcDbBlockTableRecord
  2
*PAPER_SPACE0
  0
ENDTAB
  0
ENDSEC
  0
SECTION
  2
BLOCKS
  0
BLOCK
  5
20
330
1F
100
AcDbEntity
  8
0
100
AcDbBlockBegin
  2
*MODEL_SPACE
 70
     0
 10
0.0
 20
0.0
 30
0.0
  3
*MODEL_SPACE
  1

  0
ENDBLK
  5
21
330
1F
100
AcDbEntity
  8
0
100
AcDbBlockEnd
  0
BLOCK
  5
1C
330
1B
100
AcDbEntity
 67
     1
  8
0
100
AcDbBlockBegin
  2
*PAPER_SPACE
 70
     0
 10
0.0
 20
0.0
 30
0.0
  3
*PAPER_SPACE
  1

  0
ENDBLK
  5
1D
330
1B
100
AcDbEntity
 67
     1
  8
0
100
AcDbBlockEnd
  0
BLOCK
  5
24
330
23
100
AcDbEntity
  8
0
100
AcDbBlockBegin
  2
*PAPER_SPACE0
 70
     0
 10
0.0
 20
0.0
 30
0.0
  3
*PAPER_SPACE0
  1

  0
ENDBLK
  5
25
330
23
100
AcDbEntity
  8
0
100
AcDbBlockEnd
  0
ENDSEC
  0
SECTION
  2
ENTITIES
  0
LINE
  5
146
330
1F
100
AcDbEntity
  8
SLD-0
  6
CONTINUOUS
 62
     3
100
AcDbLine
 10
501.4518163407
 20
538.5420352459
 30
0.0
 11
501.4518163407
 21
572.9151821984
 31
0.0
  0
LINE
  5
147
330
1F
100
AcDbEntity
  8
SLD-0
  6
CONTINUOUS
 62
     3
100
AcDbLine
 10
501.4518163407
 20
572.9151821984
 30
0.0
 11
501.4518163407
 21
645.871137788
 31
0.0
  0
LINE
  5
148
330
1F
100
AcDbEntity
  8
SLD-0
  6
CONTINUOUS
 62
     3
100
AcDbLine
 10
501.5133223311
 20
655.6726772145
 30
0.0
 11
501.5133223311
 21
706.5737441034
 31
0.0
  0
LINE
  5
149
330
1F
100
AcDbEntity
  8
SLD-0
  6
CONTINUOUS
 62
     3
100
AcDbLine
 10
706.4411403454
 20
533.4336962906
 30
0.0
 11
706.4411403454
 21
524.3318578232
 31
0.0
  0
LINE
  5
14A
330
1F
100
AcDbEntity
  8
SLD-0
  6
CONTINUOUS
 62
     3
100
AcDbLine
 10
706.1443411215
 20
523.9361233262
 30
0.0
 11
705.4518095992
 21
523.9361233262
 31
0.0
  0
LINE
  5
14B
330
1F
100
AcDbEntity
  8
SLD-0
  6
CONTINUOUS
 62
     3
100
AcDbLine
 10
706.1443411215
 20
533.8294307876
 30
0.0
 11
705.4518095992
 21
533.8294307876
 31
0.0
  0
LINE
  5
14C
330
1F
100
AcDbEntity
  8
SLD-0
  6
CONTINUOUS
 62
     3
100
AcDbLine
 10
705.4518095992
 20
533.8294307876
 30
0.0
 11
705.4518095992
 21
523.9361233262
 31
0.0
  0
LINE
  5
14D
330
1F
100
AcDbEntity
  8
SLD-0
  6
CONTINUOUS
 62
     3
100
AcDbLine
 10
710.3984633299
 20
525.0243893455
 30
0.0
 11
709.9986286066
 21
524.3318578232
 31
0.0
  0
LINE
  5
14E
330
1F
100
AcDbEntity
  8
SLD-0
  6
CONTINUOUS
 62
     3
100
AcDbLine
 10
709.9986286066
 20
533.4336962906
 30
0.0
 11
710.3984633299
 21
532.7411669668
 31
0.0
  0
LINE
  5
14F
330
1F
100
AcDbEntity
  8
SLD-0
  6
CONTINUOUS
 62
     3
100
AcDbLine
 10
710.3984633299
 20
532.7411669668
 30
0.0
 11
710.3984633299
 21
525.0243893455
 31
0.0
  0
LINE
  5
150
330
1F
100
AcDbEntity
  8
SLD-0
  6
CONTINUOUS
 62
     3
100
AcDbLine
 10
706.4411423267
 20
526.6172102636
 30
0.0
 11
709.9037977248
 21
526.6172096372
 31
0.0
  0
LINE
  5
151
330
1F
100
AcDbEntity
  8
SLD-0
  6
CONTINUOUS
 62
     3
100
AcDbLine
 10
706.4411395823
 20
531.1483450809
 30
0.0
 11
709.9037969758
 21
531.148348599
 31
0.0
  0
LINE
  5
152
330
1F
100
AcDbEntity
  8
SLD-0
  6
CONTINUOUS
 62
     3
100
AcDbLine
 10
706.4411403454
 20
524.3318578232
 30
0.0
 11
709.9986286066
 21
524.3318578232
 31
0.0
  0
LINE
  5
153
330
1F
100
AcDbEntity
  8
SLD-0
  6
CONTINUOUS
 62
     3
100
AcDbLine
 10
706.4411403454
 20
533.4336962906
 30
0.0
 11
709.9986286066
 21
533.4336962906
 31
0.0
  0
LINE
  5
154
330
1F
100
AcDbEntity
  8
SLD-0
  6
CONTINUOUS
 62
     3
100
AcDbLine
 10
500.4623580808
 20
683.9115271562
 30
0.0
 11
500.4623580808
 21
674.6118181424
 31
0.0
  0
LINE
  5
155
330
1F
100
AcDbEntity
  8
SLD-0
  6
CONTINUOUS
 62
     3
100
AcDbLine
 10
500.7591573047
 20
674.3150189186
 30
0.0
 11
501.4516888269
 21
674.3150189186
 31
0.0
  0
LINE
  5
156
330
1F
100
AcDbEntity
  8
SLD-0
  6
CONTINUOUS
 62
     3
100
AcDbLine
 10
500.7591573047
 20
684.20832638
 30
0.0
 11
501.4516888269
 21
684.20832638
 31
0.0
  0
LINE
  5
157
330
1F
100
AcDbEntity
  8
SLD-0
  6
CONTINUOUS
 62
     3
100
AcDbLine
 10
496.5050372758
 20
683.1200637036
 30
0.0
 11
496.5050372758
 21
675.4032873069
 31
0.0
  0
LINE
  5
158
330
1F
100
AcDbEntity
  8
SLD-0
  6
CONTINUOUS
 62
     3
100
AcDbLine
 10
496.9048698195
 20
683.812591883
 30
0.0
 11
496.5050372758
 21
683.1200637036
 31
0.0
  0
LINE
  5
159
330
1F
100
AcDbEntity
  8
SLD-0
  6
CONTINUOUS
 62
     3
100
AcDbLine
 10
496.5050372758
 20
675.4032873069
 30
0.0
 11
496.9048698257
 21
674.7107534156
 31
0.0
  0
LINE
  5
15A
330
1F
100
AcDbEntity
  8
SLD-0
  6
CONTINUOUS
 62
     3
100
AcDbLine
 10
500.4623580808
 20
683.8125940815
 30
0.0
 11
496.9048698195
 21
683.812591883
 31
0.0
  0
LINE
  5
15B
330
1F
100
AcDbEntity
  8
SLD-0
  6
CONTINUOUS
 62
     3
100
AcDbLine
 10
500.462358087
 20
674.7107534156
 30
0.0
 11
496.9048698257
 21
674.7107534156
 31
0.0
  0
LINE
  5
15C
330
1F
100
AcDbEntity
  8
SLD-0
  6
CONTINUOUS
 62
     3
100
AcDbLine
 10
500.4623590678
 20
681.5272403645
 30
0.0
 11
496.9997019873
 21
681.5272415225
 31
0.0
  0
LINE
  5
15D
330
1F
100
AcDbEntity
  8
SLD-0
  6
CONTINUOUS
 62
     3
100
AcDbLine
 10
500.4623592734
 20
676.9961048722
 30
0.0
 11
496.9997014812
 21
676.9961052664
 31
0.0
  0
LINE
  5
15E
330
1F
100
AcDbEntity
  8
SLD-0
  6
CONTINUOUS
 62
     1
100
AcDbLine
 10
436.2371385988
 20
571.6859277537
 30
0.0
 11
434.3194638507
 21
588.9445256075
 31
0.0
  0
LINE
  5
15F
330
1F
100
AcDbEntity
  8
SLD-0
  6
CONTINUOUS
 62
     1
100
AcDbLine
 10
436.2371847676
 20
557.8352115658
 30
0.0
 11
436.2372001571
 21
588.99909929
 31
0.0
  0
LINE
  5
160
330
1F
100
AcDbEntity
  8
SLD-0
  6
CONTINUOUS
 62
     3
100
AcDbLine
 10
501.5133223311
 20
706.5737441034
 30
0.0
 11
705.5133221852
 21
706.5737441034
 31
0.0
  0
LINE
  5
161
330
1F
100
AcDbEntity
  8
SLD-0
  6
CONTINUOUS
 62
     3
100
AcDbLine
 10
501.5133223311
 20
501.5737441034
 30
0.0
 11
705.5133221852
 21
501.5737441034
 31
0.0
  0
LINE
  5
162
330
1F
100
AcDbEntity
  8
SLD-0
  6
CONTINUOUS
 62
     3
100
AcDbLine
 10
705.5133221852
 20
501.5737441034
 30
0.0
 11
705.5133221852
 21
706.5737441034
 31
0.0
  0
LINE
  5
163
330
1F
100
AcDbEntity
  8
SLD-0
  6
CONTINUOUS
 62
     3
100
AcDbLine
 10
501.5133223311
 20
501.5737441034
 30
0.0
 11
501.5133223311
 21
531.6855841077
 31
0.0
  0
LINE
  5
164
330
1F
100
AcDbEntity
  8
SLD-0
  6
CONTINUOUS
 62
     3
100
AcDbLine
 10
501.1178670452
 20
572.5737441034
 30
0.0
 11
511.0111745066
 21
572.5737441034
 31
0.0
  0
LINE
  5
165
330
1F
100
AcDbEntity
  8
SLD-0
  6
CONTINUOUS
 62
     3
100
AcDbLine
 10
500.0670307749
 20
573.5630740416
 30
0.0
 11
500.0670241031
 21
603.586326856
 31
0.0
  0
LINE
  5
166
330
1F
100
AcDbEntity
  8
SLD-0
  6
CONTINUOUS
 62
     3
100
AcDbLine
 10
501.1178604497
 20
604.5737441034
 30
0.0
 11
511.0111679111
 21
604.5737441034
 31
0.0
  0
LINE
  5
167
330
1F
100
AcDbEntity
  8
SLD-0
  6
CONTINUOUS
 62
     3
100
AcDbLine
 10
705.4139999738
 20
572.5737441034
 30
0.0
 11
695.5206925124
 21
572.5737441034
 31
0.0
  0
LINE
  5
168
330
1F
100
AcDbEntity
  8
SLD-0
  6
CONTINUOUS
 62
     3
100
AcDbLine
 10
706.4033241244
 20
603.4136756156
 30
0.0
 11
706.4033307199
 21
573.7338125912
 31
0.0
  0
LINE
  5
169
330
1F
100
AcDbEntity
  8
SLD-0
  6
CENTER
 62
   179
100
AcDbLine
 10
718.2088095642
 20
588.5737441034
 30
0.0
 11
672.4779581609
 21
588.5737441034
 31
0.0
  0
LINE
  5
16A
330
1F
100
AcDbEntity
  8
SLD-0
  6
CONTINUOUS
 62
     3
100
AcDbLine
 10
705.4139933782
 20
604.5737441034
 30
0.0
 11
695.5206859168
 21
604.5737441034
 31
0.0
  0
LINE
  5
16B
330
1F
100
AcDbEntity
  8
SLD-0
  6
CENTER
 62
   179
100
AcDbLine
 10
603.4518162677
 20
711.0967091606
 30
0.0
 11
603.4518162677
 21
497.7081517963
 31
0.0
  0
LINE
  5
16C
330
1F
100
AcDbEntity
  8
SLD-0
  6
CENTER
 62
   179
100
AcDbLine
 10
497.0676784841
 20
588.7444675411
 30
0.0
 11
527.1347875477
 21
588.7444609455
 31
0.0
  0
LINE
  5
16D
330
1F
100
AcDbEntity
  8
SLD-0
  6
CONTINUOUS
 62
     1
100
AcDbLine
 10
460.9704468255
 20
571.6859277537
 30
0.0
 11
462.8881215736
 21
588.9445256075
 31
0.0
  0
LINE
  5
16E
330
1F
100
AcDbEntity
  8
SLD-0
  6
CONTINUOUS
 62
     1
100
AcDbLine
 10
444.1518351337
 20
607.301707101
 30
0.0
 11
444.1518351337
 21
624.0136997176
 31
0.0
  0
LINE
  5
16F
330
1F
100
AcDbEntity
  8
SLD-0
  6
CONTINUOUS
 62
     1
100
AcDbLine
 10
453.055796753
 20
607.3017068955
 30
0.0
 11
453.055796753
 21
623.1029524063
 31
0.0
  0
LINE
  5
170
330
1F
100
AcDbEntity
  8
SLD-0
  6
CONTINUOUS
 62
     1
100
AcDbLine
 10
455.133338262
 20
541.0165932784
 30
0.0
 11
454.6386728889
 21
541.0165932784
 31
0.0
  0
LINE
  5
171
330
1F
100
AcDbEntity
  8
SLD-0
  6
CONTINUOUS
 62
     1
100
AcDbLine
 10
454.5665023102
 20
607.3017180936
 30
0.0
 11
442.6411094962
 21
607.3017246891
 31
0.0
  0
LINE
  5
172
330
1F
100
AcDbEntity
  8
SLD-0
  6
CONTINUOUS
 62
     1
100
AcDbLine
 10
455.8258917694
 20
542.0059460097
 30
0.0
 11
455.825907159
 21
557.8352379479
 31
0.0
  0
LINE
  5
173
330
1F
100
AcDbEntity
  8
SLD-0
  6
CONTINUOUS
 62
     1
100
AcDbLine
 10
453.9461545577
 20
542.0059482082
 30
0.0
 11
453.9461699473
 21
557.8352401464
 31
0.0
  0
LINE
  5
174
330
1F
100
AcDbEntity
  8
SLD-0
  6
CONTINUOUS
 62
     1
100
AcDbLine
 10
443.2614132785
 20
542.0059679948
 30
0.0
 11
443.2614132785
 21
557.8352599331
 31
0.0
  0
LINE
  5
175
330
1F
100
AcDbEntity
  8
SLD-0
  6
CONTINUOUS
 62
     1
100
AcDbLine
 10
441.3816760668
 20
542.0059679948
 30
0.0
 11
441.3816760668
 21
557.8352599331
 31
0.0
  0
LINE
  5
176
330
1F
100
AcDbEntity
  8
SLD-0
  6
CONTINUOUS
 62
     1
100
AcDbLine
 10
442.5688553741
 20
541.016608668
 30
0.0
 11
442.0741746114
 21
541.016608668
 31
0.0
  0
LINE
  5
177
330
1F
100
AcDbEntity
  8
SLD-0
  6
CONTINUOUS
 62
     1
100
AcDbLine
 10
455.8258653872
 20
542.0059240246
 30
0.0
 11
453.9461435651
 21
542.0059240246
 31
0.0
  0
LINE
  5
178
330
1F
100
AcDbEntity
  8
SLD-0
  6
CONTINUOUS
 62
     1
100
AcDbLine
 10
443.2613978889
 20
542.0059394141
 30
0.0
 11
441.3816760668
 21
542.0059394141
 31
0.0
  0
LINE
  5
179
330
1F
100
AcDbEntity
  8
SLD-0
  6
CONTINUOUS
 62
     1
100
AcDbLine
 10
455.1334152099
 20
541.0167229907
 30
0.0
 11
455.8259709158
 21
542.00609331
 31
0.0
  0
LINE
  5
17A
330
1F
100
AcDbEntity
  8
SLD-0
  6
CONTINUOUS
 62
     1
100
AcDbLine
 10
454.6387894101
 20
541.0167691594
 30
0.0
 11
453.9462622848
 21
542.0060999056
 31
0.0
  0
LINE
  5
17B
330
1F
100
AcDbEntity
  8
SLD-0
  6
CONTINUOUS
 62
     1
100
AcDbLine
 10
442.5690444462
 20
541.0169032687
 30
0.0
 11
443.2616001521
 21
542.0062757866
 31
0.0
  0
LINE
  5
17C
330
1F
100
AcDbEntity
  8
SLD-0
  6
CONTINUOUS
 62
     1
100
AcDbLine
 10
442.0742647504
 20
541.0167405788
 30
0.0
 11
441.3817376252
 21
542.0060713249
 31
0.0
  0
LINE
  5
17D
330
1F
100
AcDbEntity
  8
SLD-0
  6
CONTINUOUS
 62
     1
100
AcDbLine
 10
458.9916995912
 20
588.009786132
 30
0.0
 11
438.2157693119
 21
588.0098015216
 31
0.0
  0
LINE
  5
17E
330
1F
100
AcDbEntity
  8
SLD-0
  6
CONTINUOUS
 62
     1
100
AcDbLine
 10
455.5558352549
 20
594.9350925609
 30
0.0
 11
441.6517809486
 21
594.9350991564
 31
0.0
  0
LINE
  5
17F
330
1F
100
AcDbEntity
  8
SLD-0
  6
CONTINUOUS
 62
     1
100
AcDbLine
 10
455.116132701
 20
596.4190974742
 30
0.0
 11
442.0914791054
 21
596.4191040697
 31
0.0
  0
LINE
  5
180
330
1F
100
AcDbEntity
  8
SLD-0
  6
CONTINUOUS
 62
     1
100
AcDbLine
 10
455.0611676833
 20
598.3977589664
 30
0.0
 11
442.1464441232
 21
598.3977677605
 31
0.0
  0
LINE
  5
181
330
1F
100
AcDbEntity
  8
SLD-0
  6
CONTINUOUS
 62
     1
100
AcDbLine
 10
454.9237474441
 20
599.8817594827
 30
0.0
 11
442.2838467742
 21
599.8817660782
 31
0.0
  0
LINE
  5
182
330
1F
100
AcDbEntity
  8
SLD-0
  6
CONTINUOUS
 62
     1
100
AcDbLine
 10
454.8688000145
 20
601.860420975
 30
0.0
 11
442.3387964024
 21
601.860429769
 31
0.0
  0
LINE
  5
183
330
1F
100
AcDbEntity
  8
SLD-0
  6
CONTINUOUS
 62
     1
100
AcDbLine
 10
454.7313951649
 20
603.3444061016
 30
0.0
 11
442.476214443
 21
603.3444126971
 31
0.0
  0
LINE
  5
184
330
1F
100
AcDbEntity
  8
SLD-0
  6
CONTINUOUS
 62
     1
100
AcDbLine
 10
442.1472641684
 20
606.8345319316
 30
0.0
 11
441.9823713137
 21
603.8665440902
 31
0.0
  0
LINE
  5
185
330
1F
100
AcDbEntity
  8
SLD-0
  6
CONTINUOUS
 62
     1
100
AcDbLine
 10
455.0604201889
 20
606.834507748
 30
0.0
 11
455.2252976541
 21
603.8665155096
 31
0.0
  0
LINE
  5
186
330
1F
100
AcDbEntity
  8
SLD-0
  6
CONTINUOUS
 62
     1
100
AcDbLine
 10
441.6525680162
 20
597.9305574149
 30
0.0
 11
441.5976029984
 21
596.9412420583
 31
0.0
  0
LINE
  5
187
330
1F
100
AcDbEntity
  8
SLD-0
  6
CONTINUOUS
 62
     1
100
AcDbLine
 10
441.8449642656
 20
601.3932370115
 30
0.0
 11
441.7899992479
 21
600.4038754862
 31
0.0
  0
LINE
  5
188
330
1F
100
AcDbEntity
  8
SLD-0
  6
CONTINUOUS
 62
     1
100
AcDbLine
 10
441.1579070401
 20
594.4679217885
 30
0.0
 11
441.0892211042
 21
593.2316408971
 31
0.0
  0
LINE
  5
189
330
1F
100
AcDbEntity
  8
SLD-0
  6
CONTINUOUS
 62
     1
100
AcDbLine
 10
455.5550679739
 20
597.9305332312
 30
0.0
 11
455.6100154035
 21
596.9412024851
 31
0.0
  0
LINE
  5
18A
330
1F
100
AcDbEntity
  8
SLD-0
  6
CONTINUOUS
 62
     1
100
AcDbLine
 10
455.3627112977
 20
601.3931798502
 30
0.0
 11
455.4176763154
 21
600.403849104
 31
0.0
  0
LINE
  5
18B
330
1F
100
AcDbEntity
  8
SLD-0
  6
CONTINUOUS
 62
     1
100
AcDbLine
 10
456.0497201559
 20
594.4678778183
 30
0.0
 11
456.1184060918
 21
593.2316123164
 31
0.0
  0
LINE
  5
18C
330
1F
100
AcDbEntity
  8
SLD-0
  6
CONTINUOUS
 62
     1
100
AcDbLine
 10
442.4472710224
 20
603.3169950444
 30
0.0
 11
442.3648179995
 21
601.8329923296
 31
0.0
  0
LINE
  5
18D
330
1F
100
AcDbEntity
  8
SLD-0
  6
CONTINUOUS
 62
     1
100
AcDbLine
 10
442.2549011551
 20
599.8543352344
 30
0.0
 11
442.1724459337
 21
598.3703479092
 31
0.0
  0
LINE
  5
18E
330
1F
100
AcDbEntity
  8
SLD-0
  6
CONTINUOUS
 62
     1
100
AcDbLine
 10
442.0625005086
 20
596.3917084021
 30
0.0
 11
441.9800606768
 21
594.9077056873
 31
0.0
  0
LINE
  5
18F
330
1F
100
AcDbEntity
  8
SLD-0
  6
CONTINUOUS
 62
     1
100
AcDbLine
 10
454.8428509683
 20
601.8329571534
 30
0.0
 11
454.7603979454
 21
603.3169598682
 31
0.0
  0
LINE
  5
190
330
1F
100
AcDbEntity
  8
SLD-0
  6
CONTINUOUS
 62
     1
100
AcDbLine
 10
455.0351834609
 20
598.3703017405
 30
0.0
 11
454.9527458276
 21
599.8543044552
 31
0.0
  0
LINE
  5
191
330
1F
100
AcDbEntity
  8
SLD-0
  6
CONTINUOUS
 62
     1
100
AcDbLine
 10
455.2275533282
 20
594.9076551215
 30
0.0
 11
455.1451288859
 21
596.3916578363
 31
0.0
  0
LINE
  5
192
330
1F
100
AcDbEntity
  8
SLD-0
  6
CONTINUOUS
 62
     1
100
AcDbLine
 10
445.6358312529
 20
599.3870919111
 30
0.0
 11
445.6358312529
 21
598.892426538
 31
0.0
  0
LINE
  5
193
330
1F
100
AcDbEntity
  8
SLD-0
  6
CONTINUOUS
 62
     1
100
AcDbLine
 10
445.6358312529
 20
602.8497495226
 30
0.0
 11
445.6358312529
 21
602.3550841495
 31
0.0
  0
LINE
  5
194
330
1F
100
AcDbEntity
  8
SLD-0
  6
CONTINUOUS
 62
     1
100
AcDbLine
 10
445.6358312529
 20
595.9244342996
 30
0.0
 11
445.6358312529
 21
595.4297689265
 31
0.0
  0
LINE
  5
195
330
1F
100
AcDbEntity
  8
SLD-0
  6
CONTINUOUS
 62
     1
100
AcDbLine
 10
451.5718157297
 20
599.3870919111
 30
0.0
 11
451.5718157297
 21
598.892426538
 31
0.0
  0
LINE
  5
196
330
1F
100
AcDbEntity
  8
SLD-0
  6
CONTINUOUS
 62
     1
100
AcDbLine
 10
451.5718157297
 20
602.8497495226
 30
0.0
 11
451.5718157297
 21
602.3550841495
 31
0.0
  0
LINE
  5
197
330
1F
100
AcDbEntity
  8
SLD-0
  6
CONTINUOUS
 62
     1
100
AcDbLine
 10
451.5718157297
 20
595.9244342996
 30
0.0
 11
451.5718157297
 21
595.4297689265
 31
0.0
  0
LINE
  5
198
330
1F
100
AcDbEntity
  8
SLD-0
  6
CONTINUOUS
 62
     1
100
AcDbLine
 10
460.9704006567
 20
557.8352115658
 30
0.0
 11
460.9703852672
 21
588.99909929
 31
0.0
  0
LINE
  5
199
330
1F
100
AcDbEntity
  8
SLD-0
  6
CONTINUOUS
 62
     1
100
AcDbLine
 10
459.4864089346
 20
566.739179487
 30
0.0
 11
459.486393545
 21
587.5151097663
 31
0.0
  0
LINE
  5
19A
330
1F
100
AcDbEntity
  8
SLD-0
  6
CONTINUOUS
 62
     1
100
AcDbLine
 10
437.7211457106
 20
566.7392080676
 30
0.0
 11
437.7211325195
 21
587.515138347
 31
0.0
  0
LINE
  5
19B
330
1F
100
AcDbEntity
  8
SLD-0
  6
CONTINUOUS
 62
     1
100
AcDbLine
 10
458.9916995912
 20
566.2445097169
 30
0.0
 11
438.2157847015
 21
566.2445251065
 31
0.0
  0
LINE
  5
19C
330
1F
100
AcDbEntity
  8
SLD-0
  6
CONTINUOUS
 62
     1
100
AcDbLine
 10
444.1518351337
 20
599.8817572842
 30
0.0
 11
444.1518351337
 21
598.3977611649
 31
0.0
  0
LINE
  5
19D
330
1F
100
AcDbEntity
  8
SLD-0
  6
CONTINUOUS
 62
     1
100
AcDbLine
 10
444.1518351337
 20
596.4190996727
 30
0.0
 11
444.1518351337
 21
594.935118943
 31
0.0
  0
LINE
  5
19E
330
1F
100
AcDbEntity
  8
SLD-0
  6
CONTINUOUS
 62
     1
100
AcDbLine
 10
444.1518351337
 20
603.3444302852
 30
0.0
 11
444.1518351337
 21
601.860434166
 31
0.0
  0
LINE
  5
19F
330
1F
100
AcDbEntity
  8
SLD-0
  6
CONTINUOUS
 62
     1
100
AcDbLine
 10
453.055811849
 20
599.8817572842
 30
0.0
 11
453.055811849
 21
598.3977611649
 31
0.0
  0
LINE
  5
1A0
330
1F
100
AcDbEntity
  8
SLD-0
  6
CONTINUOUS
 62
     1
100
AcDbLine
 10
453.055811849
 20
603.3444148956
 30
0.0
 11
453.055811849
 21
601.8604187764
 31
0.0
  0
LINE
  5
1A1
330
1F
100
AcDbEntity
  8
SLD-0
  6
CONTINUOUS
 62
     1
100
AcDbLine
 10
453.055811849
 20
596.4190996727
 30
0.0
 11
453.055811849
 21
594.9351035535
 31
0.0
  0
LINE
  5
1A2
330
1F
100
AcDbEntity
  8
SLD-0
  6
CONTINUOUS
 62
   179
100
AcDbLine
 10
445.4822453494
 20
558.7664576046
 30
0.0
 11
443.5035838571
 21
558.7664576046
 31
0.0
  0
LINE
  5
1A3
330
1F
100
AcDbEntity
  8
SLD-0
  6
CONTINUOUS
 62
     1
100
AcDbLine
 10
460.9479098711
 20
655.0224405942
 30
0.0
 11
481.2205126371
 21
655.0224405942
 31
0.0
  0
LINE
  5
1A4
330
1F
100
AcDbEntity
  8
SLD-0
  6
CONTINUOUS
 62
     1
100
AcDbLine
 10
460.9704427221
 20
646.118479063
 30
0.0
 11
481.2205129307
 21
646.118479063
 31
0.0
  0
LINE
  5
1A5
330
1F
100
AcDbEntity
  8
SLD-0
  6
CONTINUOUS
 62
     3
100
AcDbLine
 10
481.2205126371
 20
655.2697798763
 30
0.0
 11
481.2205126371
 21
645.871137788
 31
0.0
  0
LINE
  5
1A6
330
1F
100
AcDbEntity
  8
SLD-0
  6
CONTINUOUS
 62
     3
100
AcDbLine
 10
481.2205126371
 20
655.2697798763
 30
0.0
 11
505.0134971658
 21
655.2697798763
 31
0.0
  0
LINE
  5
1A7
330
1F
100
AcDbEntity
  8
SLD-0
  6
CONTINUOUS
 62
     3
100
AcDbLine
 10
481.2205126371
 20
645.871137788
 30
0.0
 11
505.0134971658
 21
645.871137788
 31
0.0
  0
LINE
  5
1A8
330
1F
100
AcDbEntity
  8
SLD-0
  6
CONTINUOUS
 62
     1
100
AcDbLine
 10
444.1518351337
 20
625.9923612099
 30
0.0
 11
444.1518351337
 21
638.2263658568
 31
0.0
  0
LINE
  5
1A9
330
1F
100
AcDbEntity
  8
SLD-0
  6
CONTINUOUS
 62
     1
100
AcDbLine
 10
453.055796753
 20
625.0816138986
 30
0.0
 11
453.055796753
 21
638.2038330939
 31
0.0
  0
LINE
  5
1AA
330
1F
100
AcDbEntity
  8
SLD-0
  6
CONTINUOUS
 62
     1
100
AcDbLine
 10
460.9704204434
 20
557.8352159628
 30
0.0
 11
436.2371649809
 21
557.8352313524
 31
0.0
  0
LINE
  5
1AB
330
1F
100
AcDbEntity
  8
SLD-0
  6
CONTINUOUS
 62
     1
100
AcDbLine
 10
462.3964000091
 20
589.4937844497
 30
0.0
 11
434.8111656286
 21
589.4937998393
 31
0.0
  0
LINE
  5
1AC
330
1F
100
AcDbEntity
  8
SLD-0
  6
HIDDEN
 62
     3
100
AcDbLine
 10
502.2782069148
 20
536.5529659942
 30
0.0
 11
500.6965462629
 21
537.3415527379
 31
0.0
  0
LINE
  5
1AD
330
1F
100
AcDbEntity
  8
SLD-0
  6
HIDDEN
 62
     3
100
AcDbLine
 10
500.696543661
 20
533.2853010757
 30
0.0
 11
502.2782077579
 21
534.0738874307
 31
0.0
  0
LINE
  5
1AE
330
1F
100
AcDbEntity
  8
SLD-0
  6
CONTINUOUS
 62
     1
100
AcDbLine
 10
503.0347455345
 20
531.8507714938
 30
0.0
 11
501.9272783514
 21
531.947659905
 31
0.0
  0
LINE
  5
1AF
330
1F
100
AcDbEntity
  8
SLD-0
  6
CONTINUOUS
 62
     1
100
AcDbLine
 10
501.9272762941
 20
538.6791937286
 30
0.0
 11
503.0347455345
 21
538.7760845183
 31
0.0
  0
LINE
  5
1B0
330
1F
100
AcDbEntity
  8
SLD-0
  6
CONTINUOUS
 62
     1
100
AcDbLine
 10
503.0347455345
 20
538.7760845183
 30
0.0
 11
503.0347455345
 21
531.8507714938
 31
0.0
  0
LINE
  5
1B1
330
1F
100
AcDbEntity
  8
SLD-0
  6
CONTINUOUS
 62
     3
100
AcDbLine
 10
705.5133221852
 20
249.7294330491
 30
0.0
 11
705.5133221852
 21
459.3099951024
 31
0.0
  0
LINE
  5
1B2
330
1F
100
AcDbEntity
  8
SLD-0
  6
CONTINUOUS
 62
     3
100
AcDbLine
 10
501.4517481868
 20
281.3439865453
 30
0.0
 11
501.4517481868
 21
283.9162442868
 31
0.0
  0
LINE
  5
1B3
330
1F
100
AcDbEntity
  8
SLD-0
  6
CONTINUOUS
 62
     3
100
AcDbLine
 10
603.5133222581
 20
459.3099951024
 30
0.0
 11
705.5133221852
 21
459.3099951024
 31
0.0
  0
LINE
  5
1B4
330
1F
100
AcDbEntity
  8
SLD-0
  6
CONTINUOUS
 62
     3
100
AcDbLine
 10
604.5026531502
 20
222.1817268352
 30
0.0
 11
705.5133223311
 21
222.1817268352
 31
0.0
  0
LINE
  5
1B5
330
1F
100
AcDbEntity
  8
SLD-0
  6
CONTINUOUS
 62
     3
100
AcDbLine
 10
705.5133223311
 20
222.1817268352
 30
0.0
 11
705.5133223311
 21
249.7244969416
 31
0.0
  0
LINE
  5
1B6
330
1F
100
AcDbEntity
  8
SLD-0
  6
CONTINUOUS
 62
     3
100
AcDbLine
 10
603.5133222581
 20
459.3099951024
 30
0.0
 11
501.5133223311
 21
459.3099951024
 31
0.0
  0
LINE
  5
1B7
330
1F
100
AcDbEntity
  8
SLD-0
  6
CONTINUOUS
 62
     3
100
AcDbLine
 10
602.523991512
 20
222.1817209753
 30
0.0
 11
501.5133223311
 21
222.1817209753
 31
0.0
  0
LINE
  5
1B8
330
1F
100
AcDbEntity
  8
SLD-0
  6
CONTINUOUS
 62
     3
100
AcDbLine
 10
501.5133223311
 20
222.1817209753
 30
0.0
 11
501.5133223311
 21
249.6849200503
 31
0.0
  0
LINE
  5
1B9
330
1F
100
AcDbEntity
  8
SLD-0
  6
CONTINUOUS
 62
     3
100
AcDbLine
 10
501.5133223311
 20
249.6849200503
 30
0.0
 11
501.5133223311
 21
459.3099951024
 31
0.0
  0
LINE
  5
1BA
330
1F
100
AcDbEntity
  8
SLD-0
  6
CENTER
 62
   179
100
AcDbLine
 10
603.4517481138
 20
219.1570324353
 30
0.0
 11
603.4517481138
 21
475.1731079068
 31
0.0
  0
LINE
  5
1BB
330
1F
100
AcDbEntity
  8
SLD-0
  6
CONTINUOUS
 62
     3
100
AcDbLine
 10
515.8960430358
 20
222.1822035938
 30
0.0
 11
691.0075851026
 21
222.1822035938
 31
0.0
  0
LINE
  5
1BC
330
1F
100
AcDbEntity
  8
SLD-0
  6
CONTINUOUS
 62
     3
100
AcDbLine
 10
499.5026529313
 20
281.3435039268
 30
0.0
 11
507.4172923049
 21
281.3435039268
 31
0.0
  0
LINE
  5
1BD
330
1F
100
AcDbEntity
  8
SLD-0
  6
CENTER
 62
   179
100
AcDbLine
 10
496.4745021509
 20
265.5146924086
 30
0.0
 11
540.7231793905
 21
265.5146924086
 31
0.0
  0
LINE
  5
1BE
330
1F
100
AcDbEntity
  8
SLD-0
  6
CONTINUOUS
 62
     3
100
AcDbLine
 10
499.5026529313
 20
249.6849200503
 30
0.0
 11
507.4551726799
 21
249.6849200503
 31
0.0
  0
LINE
  5
1BF
330
1F
100
AcDbEntity
  8
SLD-0
  6
CENTER
 62
   179
100
AcDbLine
 10
709.9343440933
 20
265.5542656384
 30
0.0
 11
668.0044536609
 21
265.5542656384
 31
0.0
  0
LINE
  5
1C0
330
1F
100
AcDbEntity
  8
SLD-0
  6
CONTINUOUS
 62
     3
100
AcDbLine
 10
706.523991439
 20
281.3830749581
 30
0.0
 11
698.5718124599
 21
281.3830749581
 31
0.0
  0
LINE
  5
1C1
330
1F
100
AcDbEntity
  8
SLD-0
  6
CONTINUOUS
 62
     3
100
AcDbLine
 10
706.523991439
 20
249.7244910817
 30
0.0
 11
698.6096906364
 21
249.7244910817
 31
0.0
  0
LINE
  5
1C2
330
1F
100
AcDbEntity
  8
SLD-0
  6
CONTINUOUS
 62
     3
100
AcDbLine
 10
707.5133221852
 20
250.7138218278
 30
0.0
 11
707.5133221852
 21
280.393744212
 31
0.0
  0
LINE
  5
1C3
330
1F
100
AcDbEntity
  8
SLD-0
  6
CONTINUOUS
 62
     3
100
AcDbLine
 10
498.5133221852
 20
280.3541731807
 30
0.0
 11
498.5133221852
 21
250.6742507965
 31
0.0
  0
LINE
  5
1C4
330
1F
100
AcDbEntity
  8
SLD-0
  6
CONTINUOUS
 62
     3
100
AcDbLine
 10
706.1442795632
 20
227.7225525067
 30
0.0
 11
705.4517480409
 21
227.7225525067
 31
0.0
  0
LINE
  5
1C5
330
1F
100
AcDbEntity
  8
SLD-0
  6
CONTINUOUS
 62
     3
100
AcDbLine
 10
706.1442795632
 20
237.6158599681
 30
0.0
 11
705.4517480409
 21
237.6158599681
 31
0.0
  0
LINE
  5
1C6
330
1F
100
AcDbEntity
  8
SLD-0
  6
CONTINUOUS
 62
     3
100
AcDbLine
 10
710.398399592
 20
236.5275950932
 30
0.0
 11
710.398399592
 21
228.8108186965
 31
0.0
  0
LINE
  5
1C7
330
1F
100
AcDbEntity
  8
SLD-0
  6
CONTINUOUS
 62
     3
100
AcDbLine
 10
705.4517480409
 20
237.3190607443
 30
0.0
 11
705.4517480409
 21
228.0193517306
 31
0.0
  0
LINE
  5
1C8
330
1F
100
AcDbEntity
  8
SLD-0
  6
CONTINUOUS
 62
     3
100
AcDbLine
 10
706.4410764562
 20
230.4036381069
 30
0.0
 11
709.9037342485
 21
230.4036385011
 31
0.0
  0
LINE
  5
1C9
330
1F
100
AcDbEntity
  8
SLD-0
  6
CONTINUOUS
 62
     3
100
AcDbLine
 10
706.4410764562
 20
234.9347729242
 30
0.0
 11
709.9037335367
 21
234.9347740822
 31
0.0
  0
LINE
  5
1CA
330
1F
100
AcDbEntity
  8
SLD-0
  6
CONTINUOUS
 62
     3
100
AcDbLine
 10
706.4410787808
 20
228.1182870037
 30
0.0
 11
709.9985670421
 21
228.1182870037
 31
0.0
  0
LINE
  5
1CB
330
1F
100
AcDbEntity
  8
SLD-0
  6
CONTINUOUS
 62
     3
100
AcDbLine
 10
706.441078787
 20
237.2201254712
 30
0.0
 11
709.9985692468
 21
237.2201254712
 31
0.0
  0
LINE
  5
1CC
330
1F
100
AcDbEntity
  8
SLD-0
  6
CONTINUOUS
 62
     3
100
AcDbLine
 10
709.9985692468
 20
237.2201254712
 30
0.0
 11
710.398399592
 21
236.5275950932
 31
0.0
  0
LINE
  5
1CD
330
1F
100
AcDbEntity
  8
SLD-0
  6
CONTINUOUS
 62
     3
100
AcDbLine
 10
710.398399592
 20
228.8108186965
 30
0.0
 11
709.9985670421
 21
228.1182870037
 31
0.0
  0
LINE
  5
1CE
330
1F
100
AcDbEntity
  8
SLD-0
  6
CONTINUOUS
 62
     3
100
AcDbLine
 10
705.4517480409
 20
237.6158599681
 30
0.0
 11
705.4517480409
 21
227.7225525067
 31
0.0
  0
LINE
  5
1CF
330
1F
100
AcDbEntity
  8
SLD-0
  6
CONTINUOUS
 62
     3
100
AcDbLine
 10
500.7592166645
 20
227.7225525067
 30
0.0
 11
501.4517481868
 21
227.7225525067
 31
0.0
  0
LINE
  5
1D0
330
1F
100
AcDbEntity
  8
SLD-0
  6
CONTINUOUS
 62
     3
100
AcDbLine
 10
500.7592166645
 20
237.6158599681
 30
0.0
 11
501.4517481868
 21
237.6158599681
 31
0.0
  0
LINE
  5
1D1
330
1F
100
AcDbEntity
  8
SLD-0
  6
CONTINUOUS
 62
     3
100
AcDbLine
 10
496.5050944561
 20
228.8108163275
 30
0.0
 11
496.9049291794
 21
228.1182870037
 31
0.0
  0
LINE
  5
1D2
330
1F
100
AcDbEntity
  8
SLD-0
  6
CONTINUOUS
 62
     3
100
AcDbLine
 10
496.9049291794
 20
237.2201254712
 30
0.0
 11
496.5050944561
 21
236.5275939489
 31
0.0
  0
LINE
  5
1D3
330
1F
100
AcDbEntity
  8
SLD-0
  6
CONTINUOUS
 62
     3
100
AcDbLine
 10
500.4624174407
 20
237.2201254712
 30
0.0
 11
496.9049291794
 21
237.2201254712
 31
0.0
  0
LINE
  5
1D4
330
1F
100
AcDbEntity
  8
SLD-0
  6
CONTINUOUS
 62
     3
100
AcDbLine
 10
500.4624174407
 20
228.1182870037
 30
0.0
 11
496.9049291794
 21
228.1182870037
 31
0.0
  0
LINE
  5
1D5
330
1F
100
AcDbEntity
  8
SLD-0
  6
CONTINUOUS
 62
     3
100
AcDbLine
 10
500.4624163025
 20
234.9347732926
 30
0.0
 11
496.999758691
 21
234.9347732926
 31
0.0
  0
LINE
  5
1D6
330
1F
100
AcDbEntity
  8
SLD-0
  6
CONTINUOUS
 62
     3
100
AcDbLine
 10
500.4624174407
 20
230.4036388288
 30
0.0
 11
496.9997598292
 21
230.4036388288
 31
0.0
  0
LINE
  5
1D7
330
1F
100
AcDbEntity
  8
SLD-0
  6
CONTINUOUS
 62
     3
100
AcDbLine
 10
500.4624174407
 20
237.3190607443
 30
0.0
 11
500.4624174407
 21
228.0193517306
 31
0.0
  0
LINE
  5
1D8
330
1F
100
AcDbEntity
  8
SLD-0
  6
CONTINUOUS
 62
     3
100
AcDbLine
 10
496.5050944561
 20
236.5275939489
 30
0.0
 11
496.5050944561
 21
228.8108163275
 31
0.0
  0
LINE
  5
1D9
330
1F
100
AcDbEntity
  8
SLD-0
  6
CONTINUOUS
 62
     3
100
AcDbLine
 10
501.4517481868
 20
237.6158599681
 30
0.0
 11
501.4517481868
 21
227.7225525067
 31
0.0
  0
LINE
  5
1DA
330
1F
100
AcDbEntity
  8
SLD-0
  6
CENTER
 62
   179
100
AcDbLine
 10
713.7557202394
 20
604.0737441034
 30
0.0
 11
481.2820186275
 21
604.0737441034
 31
0.0
  0
ARC
  5
1DB
330
1F
100
AcDbEntity
  8
SLD-0
  6
CONTINUOUS
 62
     3
100
AcDbCircle
 10
706.1443411215
 20
524.23292255
 30
0.0
 40
0.296799223842072
100
AcDbArc
 50
270.0
 51
0.0
  0
ARC
  5
1DC
330
1F
100
AcDbEntity
  8
SLD-0
  6
CONTINUOUS
 62
     3
100
AcDbCircle
 10
706.1443411215
 20
533.5326315638
 30
0.0
 40
0.2967992238419583
100
AcDbArc
 50
0.0
 51
90.0
  0
ARC
  5
1DD
330
1F
100
AcDbEntity
  8
SLD-0
  6
CONTINUOUS
 62
     3
100
AcDbCircle
 10
707.6026157209
 20
532.7362255158
 30
0.0
 40
2.795851975856577
100
AcDbArc
 50
325.393281179
 51
0.1012658905
  0
ARC
  5
1DE
330
1F
100
AcDbEntity
  8
SLD-0
  6
CONTINUOUS
 62
     3
100
AcDbCircle
 10
707.6026157281
 20
525.0293337988
 30
0.0
 40
2.795851973912185
100
AcDbArc
 50
359.8986725849
 51
34.606692
  0
ARC
  5
1DF
330
1F
100
AcDbEntity
  8
SLD-0
  6
CONTINUOUS
 62
     3
100
AcDbCircle
 10
704.9629818867
 20
528.8827783014
 30
0.0
 40
5.435481811015191
100
AcDbArc
 50
335.3665837025
 51
24.6334352386
  0
ARC
  5
1E0
330
1F
100
AcDbEntity
  8
SLD-0
  6
CONTINUOUS
 62
     3
100
AcDbCircle
 10
500.7591573047
 20
674.6118181424
 30
0.0
 40
0.296799223842072
100
AcDbArc
 50
180.0
 51
270.0
  0
ARC
  5
1E1
330
1F
100
AcDbEntity
  8
SLD-0
  6
CONTINUOUS
 62
     3
100
AcDbCircle
 10
500.7591573047
 20
683.9115271562
 30
0.0
 40
0.296799223842072
100
AcDbArc
 50
90.0
 51
180.0
  0
ARC
  5
1E2
330
1F
100
AcDbEntity
  8
SLD-0
  6
CONTINUOUS
 62
     3
100
AcDbCircle
 10
501.9405180837
 20
679.2616728425
 30
0.0
 40
5.435482052367787
100
AcDbArc
 50
155.3665846864
 51
204.6334025136
  0
ARC
  5
1E3
330
1F
100
AcDbEntity
  8
SLD-0
  6
CONTINUOUS
 62
     3
100
AcDbCircle
 10
499.3008844418
 20
675.4082315927
 30
0.0
 40
2.795851537873649
100
AcDbArc
 50
145.3933557346
 51
180.101324
  0
ARC
  5
1E4
330
1F
100
AcDbEntity
  8
SLD-0
  6
CONTINUOUS
 62
     3
100
AcDbCircle
 10
499.3008843262
 20
683.1151159046
 30
0.0
 40
2.79585142849606
100
AcDbArc
 50
179.898604
 51
214.6066634508
  0
ARC
  5
1E5
330
1F
100
AcDbEntity
  8
SLD-0
  6
CONTINUOUS
 62
     1
100
AcDbCircle
 10
434.8112052018
 20
588.999103687
 30
0.0
 40
0.4946653730700281
100
AcDbArc
 50
90.000017
 51
186.33918
  0
ARC
  5
1E6
330
1F
100
AcDbEntity
  8
SLD-0
  6
CONTINUOUS
 62
     1
100
AcDbCircle
 10
435.3028674064
 20
580.0951423614
 30
0.0
 40
0.4946653730701441
100
AcDbArc
 50
180.000054
 51
276.335883
  0
ARC
  5
1E7
330
1F
100
AcDbEntity
  8
SLD-0
  6
CONTINUOUS
 62
     1
100
AcDbCircle
 10
435.8525109883
 20
575.1484886307
 30
0.0
 40
0.494665373070006
100
AcDbArc
 50
180.000054
 51
276.335883
  0
ARC
  5
1E8
330
1F
100
AcDbEntity
  8
SLD-0
  6
CONTINUOUS
 62
     1
100
AcDbCircle
 10
435.5776880981
 20
577.621815496
 30
0.0
 40
0.4946653730699987
100
AcDbArc
 50
180.000054
 51
276.337577
  0
ARC
  5
1E9
330
1F
100
AcDbEntity
  8
SLD-0
  6
CONTINUOUS
 62
     1
100
AcDbCircle
 10
435.0280445162
 20
582.5684692267
 30
0.0
 40
0.4946653730699987
100
AcDbArc
 50
180.000054
 51
276.337577
  0
ARC
  5
1EA
330
1F
100
AcDbEntity
  8
SLD-0
  6
CONTINUOUS
 62
     1
100
AcDbCircle
 10
434.7532370156
 20
585.0417960921
 30
0.0
 40
0.4946653730700122
100
AcDbArc
 50
180.000054
 51
276.335883
  0
ARC
  5
1EB
330
1F
100
AcDbEntity
  8
SLD-0
  6
CONTINUOUS
 62
     1
100
AcDbCircle
 10
435.8525109883
 20
575.1484886307
 30
0.0
 40
0.4946653730699995
100
AcDbArc
 50
96.344225
 51
180.000054
  0
ARC
  5
1EC
330
1F
100
AcDbEntity
  8
SLD-0
  6
CONTINUOUS
 62
     1
100
AcDbCircle
 10
435.5776880981
 20
577.621815496
 30
0.0
 40
0.4946653730700132
100
AcDbArc
 50
96.342476
 51
180.000054
  0
ARC
  5
1ED
330
1F
100
AcDbEntity
  8
SLD-0
  6
CONTINUOUS
 62
     1
100
AcDbCircle
 10
435.3028674064
 20
580.0951423614
 30
0.0
 40
0.4946653730699987
100
AcDbArc
 50
96.344225
 51
180.000054
  0
ARC
  5
1EE
330
1F
100
AcDbEntity
  8
SLD-0
  6
CONTINUOUS
 62
     1
100
AcDbCircle
 10
435.0280445162
 20
582.5684692267
 30
0.0
 40
0.4946653730699987
100
AcDbArc
 50
96.342476
 51
180.000054
  0
ARC
  5
1EF
330
1F
100
AcDbEntity
  8
SLD-0
  6
CONTINUOUS
 62
     1
100
AcDbCircle
 10
434.7532370156
 20
585.0417960921
 30
0.0
 40
0.4946653730702255
100
AcDbArc
 50
96.344225
 51
180.000054
  0
ARC
  5
1F0
330
1F
100
AcDbEntity
  8
SLD-0
  6
CONTINUOUS
 62
     1
100
AcDbCircle
 10
436.7318985079
 20
588.999103687
 30
0.0
 40
0.4946653730701095
100
AcDbArc
 50
89.999963
 51
179.998142
  0
ARC
  5
1F1
330
1F
100
AcDbEntity
  8
SLD-0
  6
CONTINUOUS
 62
     3
100
AcDbCircle
 10
501.0563596715
 20
573.5611610205
 30
0.0
 40
0.9893307461399081
100
AcDbArc
 50
179.8892098508
 51
273.5644167803
  0
ARC
  5
1F2
330
1F
100
AcDbEntity
  8
SLD-0
  6
CONTINUOUS
 62
     3
100
AcDbCircle
 10
501.0563548492
 20
603.5863270758
 30
0.0
 40
0.9893307461399234
100
AcDbArc
 50
86.4356861142
 51
180.0000127324
  0
ARC
  5
1F3
330
1F
100
AcDbEntity
  8
SLD-0
  6
CONTINUOUS
 62
     3
100
AcDbCircle
 10
705.352522564
 20
573.904596488
 30
0.0
 40
0.9893307461399112
100
AcDbArc
 50
270.000009
 51
359.999991
  0
ARC
  5
1F4
330
1F
100
AcDbEntity
  8
SLD-0
  6
CONTINUOUS
 62
     3
100
AcDbCircle
 10
705.352518167
 20
603.5845188722
 30
0.0
 40
0.9893307461401226
100
AcDbArc
 50
0.000046
 51
89.999973
  0
ARC
  5
1F5
330
1F
100
AcDbEntity
  8
SLD-0
  6
CONTINUOUS
 62
     1
100
AcDbCircle
 10
442.4761968549
 20
603.8390956583
 30
0.0
 40
0.4946653730699965
100
AcDbArc
 50
176.820065
 51
269.998215
  0
ARC
  5
1F6
330
1F
100
AcDbEntity
  8
SLD-0
  6
CONTINUOUS
 62
     1
100
AcDbCircle
 10
454.7313907679
 20
603.8390494895
 30
0.0
 40
0.4946653730700528
100
AcDbArc
 50
269.998161
 51
3.179809
  0
ARC
  5
1F7
330
1F
100
AcDbEntity
  8
SLD-0
  6
CONTINUOUS
 62
     1
100
AcDbCircle
 10
454.8687956175
 20
601.3657226242
 30
0.0
 40
0.494665373070069
100
AcDbArc
 50
3.179973
 51
90.000037
  0
ARC
  5
1F8
330
1F
100
AcDbEntity
  8
SLD-0
  6
CONTINUOUS
 62
     1
100
AcDbCircle
 10
442.3387766158
 20
601.365768793
 30
0.0
 40
0.4946653730700308
100
AcDbArc
 50
90.000018
 51
176.82001
  0
ARC
  5
1F9
330
1F
100
AcDbEntity
  8
SLD-0
  6
CONTINUOUS
 62
     1
100
AcDbCircle
 10
442.2838137965
 20
600.3764380468
 30
0.0
 40
0.4946653730701099
100
AcDbArc
 50
176.82001
 51
269.998215
  0
ARC
  5
1FA
330
1F
100
AcDbEntity
  8
SLD-0
  6
CONTINUOUS
 62
     1
100
AcDbCircle
 10
454.9237452456
 20
600.3763918781
 30
0.0
 40
0.4946653730700023
100
AcDbArc
 50
269.998161
 51
3.179809
  0
ARC
  5
1FB
330
1F
100
AcDbEntity
  8
SLD-0
  6
CONTINUOUS
 62
     1
100
AcDbCircle
 10
442.146408947
 20
597.9031111815
 30
0.0
 40
0.4946653730700308
100
AcDbArc
 50
90.000018
 51
176.820065
  0
ARC
  5
1FC
330
1F
100
AcDbEntity
  8
SLD-0
  6
CONTINUOUS
 62
     1
100
AcDbCircle
 10
455.0611478967
 20
597.9030650127
 30
0.0
 40
0.4946653730701095
100
AcDbArc
 50
3.179973
 51
90.000037
  0
ARC
  5
1FD
330
1F
100
AcDbEntity
  8
SLD-0
  6
CONTINUOUS
 62
     1
100
AcDbCircle
 10
442.0914439292
 20
596.9137804353
 30
0.0
 40
0.4946653730699558
100
AcDbArc
 50
176.820065
 51
269.998215
  0
ARC
  5
1FE
330
1F
100
AcDbEntity
  8
SLD-0
  6
CONTINUOUS
 62
     1
100
AcDbCircle
 10
455.1161129144
 20
596.9137342666
 30
0.0
 40
0.494665373070148
100
AcDbArc
 50
269.998161
 51
3.179809
  0
ARC
  5
1FF
330
1F
100
AcDbEntity
  8
SLD-0
  6
CONTINUOUS
 62
     1
100
AcDbCircle
 10
455.5557978801
 20
594.4404074012
 30
0.0
 40
0.4946653730700363
100
AcDbArc
 50
3.179864
 51
90.000037
  0
ARC
  5
200
330
1F
100
AcDbEntity
  8
SLD-0
  6
CONTINUOUS
 62
     1
100
AcDbCircle
 10
441.6517435739
 20
594.44045357
 30
0.0
 40
0.4946653730700531
100
AcDbArc
 50
90.000018
 51
176.82001
  0
ARC
  5
201
330
1F
100
AcDbEntity
  8
SLD-0
  6
CONTINUOUS
 62
     1
100
AcDbCircle
 10
445.1411372992
 20
602.8497649122
 30
0.0
 40
0.4946653730701095
100
AcDbArc
 50
0.00011
 51
90.000037
  0
ARC
  5
202
330
1F
100
AcDbEntity
  8
SLD-0
  6
CONTINUOUS
 62
     1
100
AcDbCircle
 10
445.1411372992
 20
602.3550995391
 30
0.0
 40
0.4946653730700555
100
AcDbArc
 50
269.998161
 51
359.999946
  0
ARC
  5
203
330
1F
100
AcDbEntity
  8
SLD-0
  6
CONTINUOUS
 62
     1
100
AcDbCircle
 10
452.0664525222
 20
602.8497187434
 30
0.0
 40
0.4946653730699141
100
AcDbArc
 50
90.000018
 51
179.999873
  0
ARC
  5
204
330
1F
100
AcDbEntity
  8
SLD-0
  6
CONTINUOUS
 62
     1
100
AcDbCircle
 10
452.0664525222
 20
602.3550533703
 30
0.0
 40
0.4946653730700278
100
AcDbArc
 50
179.999873
 51
269.998215
  0
ARC
  5
205
330
1F
100
AcDbEntity
  8
SLD-0
  6
CONTINUOUS
 62
     1
100
AcDbCircle
 10
452.0664525222
 20
599.3870611319
 30
0.0
 40
0.4946653730700847
100
AcDbArc
 50
90.000018
 51
179.999873
  0
ARC
  5
206
330
1F
100
AcDbEntity
  8
SLD-0
  6
CONTINUOUS
 62
     1
100
AcDbCircle
 10
452.0664525222
 20
598.8923957588
 30
0.0
 40
0.4946653730700278
100
AcDbArc
 50
179.999873
 51
269.998215
  0
ARC
  5
207
330
1F
100
AcDbEntity
  8
SLD-0
  6
CONTINUOUS
 62
     1
100
AcDbCircle
 10
445.1411372992
 20
599.3871073007
 30
0.0
 40
0.4946653730701095
100
AcDbArc
 50
0.00011
 51
90.000037
  0
ARC
  5
208
330
1F
100
AcDbEntity
  8
SLD-0
  6
CONTINUOUS
 62
     1
100
AcDbCircle
 10
445.1411372992
 20
598.8924419276
 30
0.0
 40
0.4946653730701692
100
AcDbArc
 50
269.998161
 51
359.999946
  0
ARC
  5
209
330
1F
100
AcDbEntity
  8
SLD-0
  6
CONTINUOUS
 62
     1
100
AcDbCircle
 10
445.1411372992
 20
595.9244496892
 30
0.0
 40
0.4946653730700085
100
AcDbArc
 50
0.00011
 51
90.000037
  0
ARC
  5
20A
330
1F
100
AcDbEntity
  8
SLD-0
  6
CONTINUOUS
 62
     1
100
AcDbCircle
 10
445.1411372992
 20
595.4297843161
 30
0.0
 40
0.4946653730700555
100
AcDbArc
 50
269.998161
 51
359.999946
  0
ARC
  5
20B
330
1F
100
AcDbEntity
  8
SLD-0
  6
CONTINUOUS
 62
     1
100
AcDbCircle
 10
452.0664525222
 20
595.9244035204
 30
0.0
 40
0.4946653730700308
100
AcDbArc
 50
90.000018
 51
179.999873
  0
ARC
  5
20C
330
1F
100
AcDbEntity
  8
SLD-0
  6
CONTINUOUS
 62
     1
100
AcDbCircle
 10
452.0664525222
 20
595.4297381474
 30
0.0
 40
0.4946653730700695
100
AcDbArc
 50
179.999873
 51
269.998215
  0
ARC
  5
20D
330
1F
100
AcDbEntity
  8
SLD-0
  6
CONTINUOUS
 62
     1
100
AcDbCircle
 10
442.6410897096
 20
606.8070571176
 30
0.0
 40
0.4946653730700308
100
AcDbArc
 50
90.000018
 51
176.820065
  0
ARC
  5
20E
330
1F
100
AcDbEntity
  8
SLD-0
  6
CONTINUOUS
 62
     1
100
AcDbCircle
 10
454.5664979132
 20
606.8070263384
 30
0.0
 40
0.4946653730701095
100
AcDbArc
 50
3.179973
 51
90.000037
  0
ARC
  5
20F
330
1F
100
AcDbEntity
  8
SLD-0
  6
CONTINUOUS
 62
     1
100
AcDbCircle
 10
437.1379374342
 20
593.4511228238
 30
0.0
 40
3.957322984560023
100
AcDbArc
 50
269.999691
 51
356.820083
  0
ARC
  5
210
330
1F
100
AcDbEntity
  8
SLD-0
  6
CONTINUOUS
 62
     1
100
AcDbCircle
 10
460.0696194094
 20
593.4510766551
 30
0.0
 40
3.957322984560188
100
AcDbArc
 50
183.179626
 51
269.999691
  0
ARC
  5
211
330
1F
100
AcDbEntity
  8
SLD-0
  6
CONTINUOUS
 62
     1
100
AcDbCircle
 10
438.2157451282
 20
566.7392080676
 30
0.0
 40
0.4946653730699558
100
AcDbArc
 50
179.999982
 51
269.998215
  0
ARC
  5
212
330
1F
100
AcDbEntity
  8
SLD-0
  6
CONTINUOUS
 62
     1
100
AcDbCircle
 10
458.9916907972
 20
566.7391618989
 30
0.0
 40
0.4946653730701193
100
AcDbArc
 50
269.998161
 51
0.001695
  0
ARC
  5
213
330
1F
100
AcDbEntity
  8
SLD-0
  6
CONTINUOUS
 62
     1
100
AcDbCircle
 10
458.9916907972
 20
587.5151075678
 30
0.0
 40
0.4946653730701095
100
AcDbArc
 50
0.001858
 51
90.000037
  0
ARC
  5
214
330
1F
100
AcDbEntity
  8
SLD-0
  6
CONTINUOUS
 62
     1
100
AcDbCircle
 10
438.2157451282
 20
587.5151537366
 30
0.0
 40
0.4946653730698602
100
AcDbArc
 50
90.000018
 51
179.999982
  0
ARC
  5
215
330
1F
100
AcDbEntity
  8
SLD-0
  6
CONTINUOUS
 62
     1
100
AcDbCircle
 10
460.4756869164
 20
588.999103687
 30
0.0
 40
0.4946653730701095
100
AcDbArc
 50
0.001858
 51
90.000037
  0
ARC
  5
216
330
1F
100
AcDbEntity
  8
SLD-0
  6
CONTINUOUS
 62
     1
100
AcDbCircle
 10
462.4543484087
 20
585.0417960921
 30
0.0
 40
0.494665373069987
100
AcDbArc
 50
0.00011
 51
83.655775
  0
ARC
  5
217
330
1F
100
AcDbEntity
  8
SLD-0
  6
CONTINUOUS
 62
     1
100
AcDbCircle
 10
462.1795409081
 20
582.5684692267
 30
0.0
 40
0.4946653730700085
100
AcDbArc
 50
0.00011
 51
83.657524
  0
ARC
  5
218
330
1F
100
AcDbEntity
  8
SLD-0
  6
CONTINUOUS
 62
     1
100
AcDbCircle
 10
461.9047180179
 20
580.0951423614
 30
0.0
 40
0.4946653730698948
100
AcDbArc
 50
0.00011
 51
83.655775
  0
ARC
  5
219
330
1F
100
AcDbEntity
  8
SLD-0
  6
CONTINUOUS
 62
     1
100
AcDbCircle
 10
461.6298973262
 20
577.621815496
 30
0.0
 40
0.4946653730700195
100
AcDbArc
 50
0.00011
 51
83.657524
  0
ARC
  5
21A
330
1F
100
AcDbEntity
  8
SLD-0
  6
CONTINUOUS
 62
     1
100
AcDbCircle
 10
461.355074436
 20
575.1484886307
 30
0.0
 40
0.494665373069987
100
AcDbArc
 50
0.00011
 51
83.655775
  0
ARC
  5
21B
330
1F
100
AcDbEntity
  8
SLD-0
  6
CONTINUOUS
 62
     1
100
AcDbCircle
 10
462.4543484087
 20
585.0417960921
 30
0.0
 40
0.4946653730699517
100
AcDbArc
 50
263.664117
 51
0.00011
  0
ARC
  5
21C
330
1F
100
AcDbEntity
  8
SLD-0
  6
CONTINUOUS
 62
     1
100
AcDbCircle
 10
462.1795409081
 20
582.5684692267
 30
0.0
 40
0.4946653730700085
100
AcDbArc
 50
263.662423
 51
0.00011
  0
ARC
  5
21D
330
1F
100
AcDbEntity
  8
SLD-0
  6
CONTINUOUS
 62
     1
100
AcDbCircle
 10
461.6298973262
 20
577.621815496
 30
0.0
 40
0.4946653730699517
100
AcDbArc
 50
263.662423
 51
0.00011
  0
ARC
  5
21E
330
1F
100
AcDbEntity
  8
SLD-0
  6
CONTINUOUS
 62
     1
100
AcDbCircle
 10
461.355074436
 20
575.1484886307
 30
0.0
 40
0.4946653730700248
100
AcDbArc
 50
263.664117
 51
0.00011
  0
ARC
  5
21F
330
1F
100
AcDbEntity
  8
SLD-0
  6
CONTINUOUS
 62
     1
100
AcDbCircle
 10
461.9047180179
 20
580.0951423614
 30
0.0
 40
0.4946653730699055
100
AcDbArc
 50
263.664117
 51
0.00011
  0
ARC
  5
220
330
1F
100
AcDbEntity
  8
SLD-0
  6
CONTINUOUS
 62
     1
100
AcDbCircle
 10
462.3963802225
 20
588.999103687
 30
0.0
 40
0.4946653730700281
100
AcDbArc
 50
353.66082
 51
89.999983
  0
ARC
  5
221
330
1F
100
AcDbEntity
  8
SLD-0
  6
CONTINUOUS
 62
     1
100
AcDbCircle
 10
460.9704427221
 20
638.2038330939
 30
0.0
 40
7.914645969119988
100
AcDbArc
 50
90.0
 51
180.0
  0
ARC
  5
222
330
1F
100
AcDbEntity
  8
SLD-0
  6
CONTINUOUS
 62
     3
100
AcDbCircle
 10
460.9704427221
 20
638.2038330939
 30
0.0
 40
16.8186226843801
100
AcDbArc
 50
90.0
 51
180.0
  0
ARC
  5
223
330
1F
100
AcDbEntity
  8
SLD-0
  6
HIDDEN
 62
     3
100
AcDbCircle
 10
501.6601937812
 20
535.3134265023
 30
0.0
 40
1.385062592582356
100
AcDbArc
 50
296.500096
 51
63.4999429675
  0
ARC
  5
224
330
1F
100
AcDbEntity
  8
SLD-0
  6
CONTINUOUS
 62
     1
100
AcDbCircle
 10
502.0393688783
 20
533.2288960321
 30
0.0
 40
1.286129969982042
100
AcDbArc
 50
195.880919
 51
265.000138
  0
ARC
  5
225
330
1F
100
AcDbEntity
  8
SLD-0
  6
CONTINUOUS
 62
     1
100
AcDbCircle
 10
502.0393688783
 20
537.3979577815
 30
0.0
 40
1.28612996998204
100
AcDbArc
 50
94.999954
 51
164.119119
  0
ARC
  5
226
330
1F
100
AcDbEntity
  8
SLD-0
  6
CONTINUOUS
 62
     1
100
AcDbCircle
 10
509.3664623098
 20
535.3134269068
 30
0.0
 40
8.903975277034249
100
AcDbArc
 50
164.1191405158
 51
195.880864973
  0
ARC
  5
227
330
1F
100
AcDbEntity
  8
SLD-0
  6
CONTINUOUS
 62
     3
100
AcDbCircle
 10
706.523991439
 20
280.393744212
 30
0.0
 40
0.9893307461400696
100
AcDbArc
 50
0.0
 51
90.0
  0
ARC
  5
228
330
1F
100
AcDbEntity
  8
SLD-0
  6
CONTINUOUS
 62
     3
100
AcDbCircle
 10
706.523991439
 20
250.7138218278
 30
0.0
 40
0.9893307461399274
100
AcDbArc
 50
270.0
 51
0.0
  0
ARC
  5
229
330
1F
100
AcDbEntity
  8
SLD-0
  6
CONTINUOUS
 62
     3
100
AcDbCircle
 10
499.5026529313
 20
280.3541731807
 30
0.0
 40
0.9893307461400127
100
AcDbArc
 50
90.0
 51
180.0
  0
ARC
  5
22A
330
1F
100
AcDbEntity
  8
SLD-0
  6
CONTINUOUS
 62
     3
100
AcDbCircle
 10
499.5026529313
 20
250.6742507965
 30
0.0
 40
0.9893307461400696
100
AcDbArc
 50
180.0
 51
270.0
  0
ARC
  5
22B
330
1F
100
AcDbEntity
  8
SLD-0
  6
CONTINUOUS
 62
     3
100
AcDbCircle
 10
706.1442795632
 20
228.0193517306
 30
0.0
 40
0.296799223842072
100
AcDbArc
 50
270.0
 51
0.0
  0
ARC
  5
22C
330
1F
100
AcDbEntity
  8
SLD-0
  6
CONTINUOUS
 62
     3
100
AcDbCircle
 10
706.1442795632
 20
237.3190607443
 30
0.0
 40
0.2967992238419583
100
AcDbArc
 50
0.0
 51
90.0
  0
ARC
  5
22D
330
1F
100
AcDbEntity
  8
SLD-0
  6
CONTINUOUS
 62
     3
100
AcDbCircle
 10
704.9629173884
 20
232.6692055155
 30
0.0
 40
5.435482052367872
100
AcDbArc
 50
335.366604
 51
24.633414
  0
ARC
  5
22E
330
1F
100
AcDbEntity
  8
SLD-0
  6
CONTINUOUS
 62
     3
100
AcDbCircle
 10
707.6025518017
 20
228.8157629835
 30
0.0
 40
2.795852162184729
100
AcDbArc
 50
359.898676
 51
34.6066813483
  0
ARC
  5
22F
330
1F
100
AcDbEntity
  8
SLD-0
  6
CONTINUOUS
 62
     3
100
AcDbCircle
 10
707.6025531607
 20
236.5226502097
 30
0.0
 40
2.795850804185328
100
AcDbArc
 50
325.3932842615
 51
0.1013362738
  0
ARC
  5
230
330
1F
100
AcDbEntity
  8
SLD-0
  6
CONTINUOUS
 62
     3
100
AcDbCircle
 10
499.3009425204
 20
236.5226472962
 30
0.0
 40
2.795852440297782
100
AcDbArc
 50
179.8986275306
 51
214.6066397201
  0
ARC
  5
231
330
1F
100
AcDbEntity
  8
SLD-0
  6
CONTINUOUS
 62
     3
100
AcDbCircle
 10
499.3009431447
 20
228.8157629812
 30
0.0
 40
2.795853064608787
100
AcDbArc
 50
145.3933231969
 51
180.1013724694
  0
ARC
  5
232
330
1F
100
AcDbEntity
  8
SLD-0
  6
CONTINUOUS
 62
     3
100
AcDbCircle
 10
501.9405760204
 20
232.6692073018
 30
0.0
 40
5.43548205236783
100
AcDbArc
 50
155.3666158701
 51
204.6334129138
  0
ARC
  5
233
330
1F
100
AcDbEntity
  8
SLD-0
  6
CONTINUOUS
 62
     3
100
AcDbCircle
 10
500.7592166645
 20
237.3190607443
 30
0.0
 40
0.296799223842072
100
AcDbArc
 50
90.0
 51
180.0
  0
ARC
  5
234
330
1F
100
AcDbEntity
  8
SLD-0
  6
CONTINUOUS
 62
     3
100
AcDbCircle
 10
500.7592166645
 20
228.0193517306
 30
0.0
 40
0.296799223842072
100
AcDbArc
 50
180.0
 51
270.0
  0
SPLINE
  5
235
330
1F
100
AcDbEntity
  8
SLD-0
  6
CONTINUOUS
 62
   179
100
AcDbSpline
210
0.0
220
0.0
230
1.0
 70
     8
 71
     3
 72
    13
 73
     9
 74
     0
 42
0.00000001
 43
0.00000001
 40
0.0
 40
0.0
 40
0.0
 40
0.0
 40
1.463705003234333
 40
2.532354962673486
 40
4.948746785250765
 40
7.657927730927836
 40
9.340661745382407
 40
11.59235503264058
 40
11.59235503264058
 40
11.59235503264058
 40
11.59235503264058
 10
444.1518351336992
 20
625.9923612098721
 30
0.0
 10
444.4497701513458
 20
626.3783159012842
 30
0.0
 10
444.9678117601896
 20
627.0448057910398
 30
0.0
 10
446.7184176847421
 20
627.6982727960705
 30
0.0
 10
447.9890885715058
 20
625.4888868497393
 30
0.0
 10
449.0902601456044
 20
623.2919382664912
 30
0.0
 10
451.626446295378
 20
623.536723105959
 30
0.0
 10
452.5416758871195
 20
624.5354771995206
 30
0.0
 10
453.05579675297
 20
625.0816138986048
 30
0.0
  0
SPLINE
  5
236
330
1F
100
AcDbEntity
  8
SLD-0
  6
CONTINUOUS
 62
   179
100
AcDbSpline
210
0.0
220
0.0
230
1.0
 70
     8
 71
     3
 72
    13
 73
     9
 74
     0
 42
0.00000001
 43
0.00000001
 40
0.0
 40
0.0
 40
0.0
 40
0.0
 40
1.463705003234333
 40
2.532354962673452
 40
4.94874678525073
 40
7.657927730927716
 40
9.340661745382278
 40
11.59235503264038
 40
11.59235503264038
 40
11.59235503264038
 40
11.59235503264038
 10
444.1518351336992
 20
624.013699717592
 30
0.0
 10
444.4497701513458
 20
624.399654409004
 30
0.0
 10
444.9678117601894
 20
625.0661442987595
 30
0.0
 10
446.7184176847422
 20
625.7196113037902
 30
0.0
 10
447.9890885715056
 20
623.5102253574591
 30
0.0
 10
449.0902601456044
 20
621.3132767742109
 30
0.0
 10
451.626446295378
 20
621.5580616136787
 30
0.0
 10
452.5416758871195
 20
622.5568157072403
 30
0.0
 10
453.05579675297
 20
623.1029524063243
 30
0.0
  0
ENDSEC
  0
SECTION
  2
OBJECTS
  0
DICTIONARY
  5
C
330
0
100
AcDbDictionary
  3
ACAD_GROUP
350
D
  3
ACAD_MLINESTYLE
350
17
  0
DICTIONARY
  5
D
102
{ACAD_REACTORS
330
C
102
}
330
C
100
AcDbDictionary
  0
DICTIONARY
  5
17
102
{ACAD_REACTORS
330
C
102
}
330
C
100
AcDbDictionary
  3
STANDARD
350
18
  0
MLINESTYLE
  5
18
102
{ACAD_REACTORS
330
17
102
}
330
17
100
AcDbMlineStyle
  2
Standard
 70
     0
  3

 62
   256
 51
90.0
 52
90.0
 71
     2
 49
0.5
 62
   256
  6
BYLAYER
 49
-0.5
 62
   256
  6
BYLAYER
  0
ENDSEC
  0
EOF
