  0
SECTION
  2
HEADER
  9
$ACADVER
  1
AC1015
  9
$ACADMAINTVER
 70
     6
  9
$DWGCODEPAGE
  3
DOS932
  9
$INSBASE
 10
0.0
 20
0.0
 30
0.0
  9
$EXTMIN
 10
0.0
 20
0.0
 30
0.0
  9
$EXTMAX
 10
210.0
 20
297.0
 30
0.0
  9
$LIMMIN
 10
0.0
 20
0.0
  9
$LIMMAX
 10
210.0
 20
297.0
  9
$ORTHOMODE
 70
     0
  9
$REGENMODE
 70
     1
  9
$FILLMODE
 70
     1
  9
$QTEXTMODE
 70
     0
  9
$MIRRTEXT
 70
     1
  9
$LTSCALE
 40
1.0
  9
$ATTMODE
 70
     1
  9
$TEXTSIZE
 40
3.5
  9
$TRACEWID
 40
1.0
  9
$TEXTSTYLE
  7
Standard
  9
$CLAYER
  8
0
  9
$CELTYPE
  6
ByLayer
  9
$CECOLOR
 62
   256
  9
$CELTSCALE
 40
1.0
  9
$DISPSILH
 70
     0
  9
$DIMSCALE
 40
1.0
  9
$DIMASZ
 40
4.0
  9
$DIMEXO
 40
1.0
  9
$DIMDLI
 40
3.75
  9
$DIMRND
 40
0.0
  9
$DIMDLE
 40
0.0
  9
$DIMEXE
 40
1.0
  9
$DIMTP
 40
0.0
  9
$DIMTM
 40
0.0
  9
$DIMTXT
 40
3.5
  9
$DIMCEN
 40
2.5
  9
$DIMTSZ
 40
0.0
  9
$DIMTOL
 70
     0
  9
$DIMLIM
 70
     0
  9
$DIMTIH
 70
     1
  9
$DIMTOH
 70
     1
  9
$DIMSE1
 70
     0
  9
$DIMSE2
 70
     0
  9
$DIMTAD
 70
     1
  9
$DIMZIN
 70
     0
  9
$DIMBLK
  1

  9
$DIMASO
 70
     1
  9
$DIMSHO
 70
     1
  9
$DIMPOST
  1

  9
$DIMAPOST
  1

  9
$DIMALT
 70
     0
  9
$DIMALTD
 70
     3
  9
$DIMALTF
 40
0.0393700787
  9
$DIMLFAC
 40
10.0
  9
$DIMTOFL
 70
     1
  9
$DIMTVP
 40
0.0
  9
$DIMTIX
 70
     0
  9
$DIMSOXD
 70
     0
  9
$DIMSAH
 70
     0
  9
$DIMBLK1
  1

  9
$DIMBLK2
  1

  9
$DIMSTYLE
  2
ISO-25
  9
$DIMCLRD
 70
     0
  9
$DIMCLRE
 70
     0
  9
$DIMCLRT
 70
     0
  9
$DIMTFAC
 40
1.0
  9
$DIMGAP
 40
1.524
  9
$DIMJUST
 70
     0
  9
$DIMSD1
 70
     0
  9
$DIMSD2
 70
     0
  9
$DIMTOLJ
 70
     0
  9
$DIMTZIN
 70
     0
  9
$DIMALTZ
 70
     0
  9
$DIMALTTZ
 70
     0
  9
$DIMUPT
 70
     0
  9
$DIMDEC
 70
     2
  9
$DIMTDEC
 70
     2
  9
$DIMALTU
 70
     2
  9
$DIMALTTD
 70
     3
  9
$DIMTXSTY
  7
Standard
  9
$DIMAUNIT
 70
     0
  9
$DIMADEC
 70
     2
  9
$DIMALTRND
 40
0.0
  9
$DIMAZIN
 70
     0
  9
$DIMDSEP
 70
    44
  9
$DIMATFIT
 70
     3
  9
$DIMFRAC
 70
     0
  9
$DIMLDRBLK
  1

  9
$DIMLUNIT
 70
     2
  9
$DIMLWD
 70
    -2
  9
$DIMLWE
 70
    -2
  9
$DIMTMOVE
 70
     0
  9
$LUNITS
 70
     2
  9
$LUPREC
 70
     2
  9
$SKETCHINC
 40
1.0
  9
$FILLETRAD
 40
10.0
  9
$AUNITS
 70
     0
  9
$AUPREC
 70
     2
  9
$MENU
  1
.
  9
$ELEVATION
 40
0.0
  9
$PELEVATION
 40
0.0
  9
$THICKNESS
 40
0.0
  9
$LIMCHECK
 70
     0
  9
$CHAMFERA
 40
10.0
  9
$CHAMFERB
 40
10.0
  9
$CHAMFERC
 40
20.0
  9
$CHAMFERD
 40
0.0
  9
$SKPOLY
 70
     0
  9
$TDCREATE
 40
2456457.612843866
  9
$TDUCREATE
 40
2456457.237843866
  9
$TDUPDATE
 40
2456457.612844768
  9
$TDUUPDATE
 40
2456457.237844768
  9
$TDINDWG
 40
0.0000000116
  9
$TDUSRTIMER
 40
0.0000000116
  9
$USRTIMER
 70
     1
  9
$ANGBASE
 50
0.0
  9
$ANGDIR
 70
     0
  9
$PDMODE
 70
     0
  9
$PDSIZE
 40
-1.0
  9
$PLINEWID
 40
0.0
  9
$SPLFRAME
 70
     0
  9
$SPLINETYPE
 70
     6
  9
$SPLINESEGS
 70
     8
  9
$HANDSEED
  5
417
  9
$SURFTAB1
 70
     6
  9
$SURFTAB2
 70
     6
  9
$SURFTYPE
 70
     6
  9
$SURFU
 70
     6
  9
$SURFV
 70
     6
  9
$UCSBASE
  2

  9
$UCSNAME
  2

  9
$UCSORG
 10
0.0
 20
0.0
 30
0.0
  9
$UCSXDIR
 10
1.0
 20
0.0
 30
0.0
  9
$UCSYDIR
 10
0.0
 20
1.0
 30
0.0
  9
$UCSORTHOREF
  2

  9
$UCSORTHOVIEW
 70
     0
  9
$UCSORGTOP
 10
0.0
 20
0.0
 30
0.0
  9
$UCSORGBOTTOM
 10
0.0
 20
0.0
 30
0.0
  9
$UCSORGLEFT
 10
0.0
 20
0.0
 30
0.0
  9
$UCSORGRIGHT
 10
0.0
 20
0.0
 30
0.0
  9
$UCSORGFRONT
 10
0.0
 20
0.0
 30
0.0
  9
$UCSORGBACK
 10
0.0
 20
0.0
 30
0.0
  9
$PUCSBASE
  2

  9
$PUCSNAME
  2

  9
$PUCSORG
 10
0.0
 20
0.0
 30
0.0
  9
$PUCSXDIR
 10
1.0
 20
0.0
 30
0.0
  9
$PUCSYDIR
 10
0.0
 20
1.0
 30
0.0
  9
$PUCSORTHOREF
  2

  9
$PUCSORTHOVIEW
 70
     0
  9
$PUCSORGTOP
 10
0.0
 20
0.0
 30
0.0
  9
$PUCSORGBOTTOM
 10
0.0
 20
0.0
 30
0.0
  9
$PUCSORGLEFT
 10
0.0
 20
0.0
 30
0.0
  9
$PUCSORGRIGHT
 10
0.0
 20
0.0
 30
0.0
  9
$PUCSORGFRONT
 10
0.0
 20
0.0
 30
0.0
  9
$PUCSORGBACK
 10
0.0
 20
0.0
 30
0.0
  9
$USERI1
 70
     0
  9
$USERI2
 70
     0
  9
$USERI3
 70
     0
  9
$USERI4
 70
     0
  9
$USERI5
 70
     0
  9
$USERR1
 40
0.0
  9
$USERR2
 40
0.0
  9
$USERR3
 40
0.0
  9
$USERR4
 40
0.0
  9
$USERR5
 40
0.0
  9
$WORLDVIEW
 70
     1
  9
$SHADEDGE
 70
     3
  9
$SHADEDIF
 70
    70
  9
$TILEMODE
 70
     1
  9
$MAXACTVP
 70
    64
  9
$PINSBASE
 10
0.0
 20
0.0
 30
0.0
  9
$PLIMCHECK
 70
     0
  9
$PEXTMIN
 10
1.0000000000E+20
 20
1.0000000000E+20
 30
1.0000000000E+20
  9
$PEXTMAX
 10
-1.0000000000E+20
 20
-1.0000000000E+20
 30
-1.0000000000E+20
  9
$PLIMMIN
 10
0.0
 20
0.0
  9
$PLIMMAX
 10
420.0
 20
297.0
  9
$UNITMODE
 70
     0
  9
$VISRETAIN
 70
     1
  9
$PLINEGEN
 70
     0
  9
$PSLTSCALE
 70
     1
  9
$TREEDEPTH
 70
  3020
  9
$CMLSTYLE
  2
Standard
  9
$CMLJUST
 70
     0
  9
$CMLSCALE
 40
20.0
  9
$PROXYGRAPHICS
 70
     1
  9
$MEASUREMENT
 70
     1
  9
$CELWEIGHT
370
    -1
  9
$ENDCAPS
280
     0
  9
$JOINSTYLE
280
     0
  9
$LWDISPLAY
290
     1
  9
$INSUNITS
 70
     4
  9
$HYPERLINKBASE
  1

  9
$STYLESHEET
  1

  9
$XEDIT
290
     1
  9
$CEPSNTYPE
380
     0
  9
$PSTYLEMODE
290
     1
  9
$FINGERPRINTGUID
  2
{21DF4109-B515-4223-AF6B-239EC9E82384}
  9
$VERSIONGUID
  2
{FAEB1C32-E019-11D5-929B-00C0DF256EC4}
  9
$EXTNAMES
290
     1
  9
$PSVPSCALE
 40
0.0
  9
$OLESTARTUP
290
     0
  0
ENDSEC
  0
SECTION
  2
CLASSES
  0
CLASS
  1
ACDBDICTIONARYWDFLT
  2
AcDbDictionaryWithDefault
  3
ObjectDBX Classes
 90
        0
280
     0
281
     0
  0
CLASS
  1
VISUALSTYLE
  2
AcDbVisualStyle
  3
ObjectDBX Classes
 90
     4095
280
     0
281
     0
  0
CLASS
  1
MATERIAL
  2
AcDbMaterial
  3
ObjectDBX Classes
 90
     1153
280
     0
281
     0
  0
CLASS
  1
ACDBPLACEHOLDER
  2
AcDbPlaceHolder
  3
ObjectDBX Classes
 90
        0
280
     0
281
     0
  0
CLASS
  1
LAYOUT
  2
AcDbLayout
  3
ObjectDBX Classes
 90
        0
280
     0
281
     0
  0
ENDSEC
  0
SECTION
  2
TABLES
  0
TABLE
  2
VPORT
  5
8
330
0
100
AcDbSymbolTable
 70
     1
  0
VPORT
  5
29
330
8
100
AcDbSymbolTableRecord
100
AcDbViewportTableRecord
  2
*Active
 70
     0
 10
0.0
 20
0.0
 11
1.0
 21
1.0
 12
105.0
 22
148.5
 13
0.0
 23
0.0
 14
10.0
 24
10.0
 15
10.0
 25
10.0
 16
0.0
 26
0.0
 36
1.0
 17
0.0
 27
0.0
 37
0.0
 40
297.0
 41
0.7070707071
 42
50.0
 43
0.0
 44
0.0
 50
0.0
 51
0.0
 71
     0
 72
  2000
 73
     1
 74
     3
 75
     0
 76
     0
 77
     0
 78
     0
281
     0
 65
     1
110
0.0
120
0.0
130
0.0
111
1.0
121
0.0
131
0.0
112
0.0
122
1.0
132
0.0
 79
     0
146
0.0
  0
ENDTAB
  0
TABLE
  2
LTYPE
  5
5
330
0
100
AcDbSymbolTable
 70
     6
  0
LTYPE
  5
14
330
5
100
AcDbSymbolTableRecord
100
AcDbLinetypeTableRecord
  2
ByBlock
 70
     0
  3

 72
    65
 73
     0
 40
0.0
  0
LTYPE
  5
15
330
5
100
AcDbSymbolTableRecord
100
AcDbLinetypeTableRecord
  2
ByLayer
 70
     0
  3

 72
    65
 73
     0
 40
0.0
  0
LTYPE
  5
16
330
5
100
AcDbSymbolTableRecord
100
AcDbLinetypeTableRecord
  2
Continuous
 70
     0
  3
Solid line
 72
    65
 73
     0
 40
0.0
  0
LTYPE
  5
3F
330
5
100
AcDbSymbolTableRecord
100
AcDbLinetypeTableRecord
  2
HIDDEN
 70
     0
  3
Hidden __ __ __ __ __ __ __ __ __ __ __ __ __ __
 72
    65
 73
     2
 40
1.905
 49
1.27
 74
     0
 49
-0.635
 74
     0
  0
LTYPE
  5
40
330
5
100
AcDbSymbolTableRecord
100
AcDbLinetypeTableRecord
  2
PHANTOM
 70
     0
  3
Phantom ______  __  __  ______  __  __  ______
 72
    65
 73
     6
 40
12.7
 49
6.35
 74
     0
 49
-1.27
 74
     0
 49
1.27
 74
     0
 49
-1.27
 74
     0
 49
1.27
 74
     0
 49
-1.27
 74
     0
  0
LTYPE
  5
41
330
5
100
AcDbSymbolTableRecord
100
AcDbLinetypeTableRecord
  2
CENTER
 70
     0
  3
Center ____ _ ____ _ ____ _ ____ _ ____ _ ____
 72
    65
 73
     4
 40
10.16
 49
6.35
 74
     0
 49
-1.27
 74
     0
 49
1.27
 74
     0
 49
-1.27
 74
     0
  0
LTYPE
  5
42
330
5
100
AcDbSymbolTableRecord
100
AcDbLinetypeTableRecord
  2
CENTERX2
 70
     0
  3
Center (2x) ________  __  ________  __  _____
 72
    65
 73
     4
 40
20.32
 49
12.7
 74
     0
 49
-2.54
 74
     0
 49
2.54
 74
     0
 49
-2.54
 74
     0
  0
LTYPE
  5
43
330
5
100
AcDbSymbolTableRecord
100
AcDbLinetypeTableRecord
  2
DOT2
 70
     0
  3
Dot (.5x) ........................................
 72
    65
 73
     2
 40
0.635
 49
0.0
 74
     0
 49
-0.635
 74
     0
  0
ENDTAB
  0
TABLE
  2
LAYER
  5
2
330
0
100
AcDbSymbolTable
 70
   264
  0
LAYER
  5
10
330
2
100
AcDbSymbolTableRecord
100
AcDbLayerTableRecord
  2
0
 70
     0
 62
     7
  6
Continuous
370
    -3
390
F
  0
LAYER
  5
44
330
2
100
AcDbSymbolTableRecord
100
AcDbLayerTableRecord
  2
SLD-0_1
 70
     0
 62
   179
  6
Continuous
370
    -3
390
F
  0
LAYER
  5
45
330
2
100
AcDbSymbolTableRecord
100
AcDbLayerTableRecord
  2
図面枠
 70
     0
 62
   255
  6
Continuous
370
    -3
390
F
  0
LAYER
  5
46
330
2
100
AcDbSymbolTableRecord
100
AcDbLayerTableRecord
  2
ベ_ス
 70
     0
 62
   254
  6
Continuous
370
    -3
390
F
  0
LAYER
  5
47
330
2
100
AcDbSymbolTableRecord
100
AcDbLayerTableRecord
  2
ケ_シングCV
 70
     0
 62
   250
  6
Continuous
370
    -3
390
F
  0
LAYER
  5
48
330
2
100
AcDbSymbolTableRecord
100
AcDbLayerTableRecord
  2
固定金具A
 70
     0
 62
     6
  6
Continuous
370
    -3
390
F
  0
LAYER
  5
49
330
2
100
AcDbSymbolTableRecord
100
AcDbLayerTableRecord
  2
固定金具B
 70
     0
 62
     6
  6
Continuous
370
    -3
390
F
  0
LAYER
  5
4A
330
2
100
AcDbSymbolTableRecord
100
AcDbLayerTableRecord
  2
水栓
 70
     0
 62
    32
  6
Continuous
370
    -3
390
F
  0
LAYER
  5
4B
330
2
100
AcDbSymbolTableRecord
100
AcDbLayerTableRecord
  2
制御箱
 70
     0
 62
   140
  6
Continuous
370
    -3
390
F
  0
LAYER
  5
4C
330
2
100
AcDbSymbolTableRecord
100
AcDbLayerTableRecord
  2
P板完成A
 70
     0
 62
     4
  6
Continuous
370
    -3
390
F
  0
LAYER
  5
4D
330
2
100
AcDbSymbolTableRecord
100
AcDbLayerTableRecord
  2
P板完成B
 70
     0
 62
     3
  6
Continuous
370
    -3
390
F
  0
LAYER
  5
4E
330
2
100
AcDbSymbolTableRecord
100
AcDbLayerTableRecord
  2
制御箱蓋
 70
     0
 62
    23
  6
Continuous
370
    -3
390
F
  0
LAYER
  5
4F
330
2
100
AcDbSymbolTableRecord
100
AcDbLayerTableRecord
  2
フランジ
 70
     0
 62
    28
  6
Continuous
370
    -3
390
F
  0
LAYER
  5
50
330
2
100
AcDbSymbolTableRecord
100
AcDbLayerTableRecord
  2
パッキン
 70
     0
 62
   110
  6
Continuous
370
    -3
390
F
  0
LAYER
  5
51
330
2
100
AcDbSymbolTableRecord
100
AcDbLayerTableRecord
  2
逆止弁弁体
 70
     0
 62
    21
  6
Continuous
370
    -3
390
F
  0
LAYER
  5
52
330
2
100
AcDbSymbolTableRecord
100
AcDbLayerTableRecord
  2
逆止弁弁座
 70
     0
 62
   168
  6
Continuous
370
    -3
390
F
  0
LAYER
  5
53
330
2
100
AcDbSymbolTableRecord
100
AcDbLayerTableRecord
  2
アキュムレ_タ
 70
     0
 62
    22
  6
Continuous
370
    -3
390
F
  0
LAYER
  5
54
330
2
100
AcDbSymbolTableRecord
100
AcDbLayerTableRecord
  2
固定金具C
 70
     0
 62
     6
  6
Continuous
370
    -3
390
F
  0
LAYER
  5
55
330
2
100
AcDbSymbolTableRecord
100
AcDbLayerTableRecord
  2
ボルト_ナット_ネジ
 70
     0
 62
     1
  6
Continuous
370
    -3
390
F
  0
LAYER
  5
56
330
2
100
AcDbSymbolTableRecord
100
AcDbLayerTableRecord
  2
Oリング
 70
     0
 62
   110
  6
Continuous
370
    -3
390
F
  0
LAYER
  5
57
330
2
100
AcDbSymbolTableRecord
100
AcDbLayerTableRecord
  2
ポンプカバ_
 70
     0
 62
   215
  6
Continuous
370
    -3
390
F
  0
LAYER
  5
58
330
2
100
AcDbSymbolTableRecord
100
AcDbLayerTableRecord
  2
補強板
 70
     0
 62
     6
  6
Continuous
370
    -3
390
F
  0
LAYER
  5
59
330
2
100
AcDbSymbolTableRecord
100
AcDbLayerTableRecord
  2
防振ゴム
 70
     0
 62
   252
  6
Continuous
370
    -3
390
F
  0
LAYER
  5
5A
330
2
100
AcDbSymbolTableRecord
100
AcDbLayerTableRecord
  2
キャップA
 70
     0
 62
   255
  6
Continuous
370
    -3
390
F
  0
LAYER
  5
5B
330
2
100
AcDbSymbolTableRecord
100
AcDbLayerTableRecord
  2
ア_スリ_ド線
 70
     0
 62
    40
  6
Continuous
370
    -3
390
F
  0
LAYER
  5
5C
330
2
100
AcDbSymbolTableRecord
100
AcDbLayerTableRecord
  2
表の文字
 70
     0
 62
   255
  6
Continuous
370
    -3
390
F
  0
LAYER
  5
5D
330
2
100
AcDbSymbolTableRecord
100
AcDbLayerTableRecord
  2
ボ_ドスペ_サ
 70
     0
 62
   219
  6
Continuous
370
    -3
390
F
  0
LAYER
  5
5E
330
2
100
AcDbSymbolTableRecord
100
AcDbLayerTableRecord
  2
LAYER060
 70
     0
 62
    31
  6
Continuous
370
    -3
390
F
  0
LAYER
  5
5F
330
2
100
AcDbSymbolTableRecord
100
AcDbLayerTableRecord
  2
LAYER061
 70
     0
 62
    71
  6
Continuous
370
    -3
390
F
  0
LAYER
  5
60
330
2
100
AcDbSymbolTableRecord
100
AcDbLayerTableRecord
  2
LAYER062
 70
     0
 62
    71
  6
Continuous
370
    -3
390
F
  0
LAYER
  5
61
330
2
100
AcDbSymbolTableRecord
100
AcDbLayerTableRecord
  2
LAYER063
 70
     0
 62
    71
  6
Continuous
370
    -3
390
F
  0
LAYER
  5
62
330
2
100
AcDbSymbolTableRecord
100
AcDbLayerTableRecord
  2
LAYER064
 70
     0
 62
    71
  6
Continuous
370
    -3
390
F
  0
LAYER
  5
63
330
2
100
AcDbSymbolTableRecord
100
AcDbLayerTableRecord
  2
LAYER065
 70
     0
 62
    71
  6
Continuous
370
    -3
390
F
  0
LAYER
  5
64
330
2
100
AcDbSymbolTableRecord
100
AcDbLayerTableRecord
  2
LAYER066
 70
     0
 62
    71
  6
Continuous
370
    -3
390
F
  0
LAYER
  5
65
330
2
100
AcDbSymbolTableRecord
100
AcDbLayerTableRecord
  2
LAYER067
 70
     0
 62
    71
  6
Continuous
370
    -3
390
F
  0
LAYER
  5
66
330
2
100
AcDbSymbolTableRecord
100
AcDbLayerTableRecord
  2
LAYER068
 70
     0
 62
    71
  6
Continuous
370
    -3
390
F
  0
LAYER
  5
67
330
2
100
AcDbSymbolTableRecord
100
AcDbLayerTableRecord
  2
LAYER069
 70
     0
 62
    71
  6
Continuous
370
    -3
390
F
  0
LAYER
  5
68
330
2
100
AcDbSymbolTableRecord
100
AcDbLayerTableRecord
  2
LAYER070
 70
     0
 62
    71
  6
Continuous
370
    -3
390
F
  0
LAYER
  5
69
330
2
100
AcDbSymbolTableRecord
100
AcDbLayerTableRecord
  2
LAYER071
 70
     0
 62
   241
  6
Continuous
370
    -3
390
F
  0
LAYER
  5
6A
330
2
100
AcDbSymbolTableRecord
100
AcDbLayerTableRecord
  2
LAYER072
 70
     0
 62
   241
  6
Continuous
370
    -3
390
F
  0
LAYER
  5
6B
330
2
100
AcDbSymbolTableRecord
100
AcDbLayerTableRecord
  2
LAYER073
 70
     0
 62
   241
  6
Continuous
370
    -3
390
F
  0
LAYER
  5
6C
330
2
100
AcDbSymbolTableRecord
100
AcDbLayerTableRecord
  2
LAYER074
 70
     0
 62
   241
  6
Continuous
370
    -3
390
F
  0
LAYER
  5
6D
330
2
100
AcDbSymbolTableRecord
100
AcDbLayerTableRecord
  2
LAYER075
 70
     0
 62
   241
  6
Continuous
370
    -3
390
F
  0
LAYER
  5
6E
330
2
100
AcDbSymbolTableRecord
100
AcDbLayerTableRecord
  2
LAYER076
 70
     0
 62
   241
  6
Continuous
370
    -3
390
F
  0
LAYER
  5
6F
330
2
100
AcDbSymbolTableRecord
100
AcDbLayerTableRecord
  2
LAYER077
 70
     0
 62
   241
  6
Continuous
370
    -3
390
F
  0
LAYER
  5
70
330
2
100
AcDbSymbolTableRecord
100
AcDbLayerTableRecord
  2
LAYER078
 70
     0
 62
   241
  6
Continuous
370
    -3
390
F
  0
LAYER
  5
71
330
2
100
AcDbSymbolTableRecord
100
AcDbLayerTableRecord
  2
LAYER079
 70
     0
 62
   241
  6
Continuous
370
    -3
390
F
  0
LAYER
  5
72
330
2
100
AcDbSymbolTableRecord
100
AcDbLayerTableRecord
  2
LAYER080
 70
     0
 62
   241
  6
Continuous
370
    -3
390
F
  0
LAYER
  5
73
330
2
100
AcDbSymbolTableRecord
100
AcDbLayerTableRecord
  2
LAYER081
 70
     0
 62
   191
  6
Continuous
370
    -3
390
F
  0
LAYER
  5
74
330
2
100
AcDbSymbolTableRecord
100
AcDbLayerTableRecord
  2
LAYER082
 70
     0
 62
   191
  6
Continuous
370
    -3
390
F
  0
LAYER
  5
75
330
2
100
AcDbSymbolTableRecord
100
AcDbLayerTableRecord
  2
LAYER083
 70
     0
 62
   191
  6
Continuous
370
    -3
390
F
  0
LAYER
  5
76
330
2
100
AcDbSymbolTableRecord
100
AcDbLayerTableRecord
  2
LAYER084
 70
     0
 62
   191
  6
Continuous
370
    -3
390
F
  0
LAYER
  5
77
330
2
100
AcDbSymbolTableRecord
100
AcDbLayerTableRecord
  2
LAYER085
 70
     0
 62
   191
  6
Continuous
370
    -3
390
F
  0
LAYER
  5
78
330
2
100
AcDbSymbolTableRecord
100
AcDbLayerTableRecord
  2
LAYER086
 70
     0
 62
   191
  6
Continuous
370
    -3
390
F
  0
LAYER
  5
79
330
2
100
AcDbSymbolTableRecord
100
AcDbLayerTableRecord
  2
LAYER087
 70
     0
 62
   191
  6
Continuous
370
    -3
390
F
  0
LAYER
  5
7A
330
2
100
AcDbSymbolTableRecord
100
AcDbLayerTableRecord
  2
LAYER088
 70
     0
 62
   191
  6
Continuous
370
    -3
390
F
  0
LAYER
  5
7B
330
2
100
AcDbSymbolTableRecord
100
AcDbLayerTableRecord
  2
LAYER089
 70
     0
 62
   191
  6
Continuous
370
    -3
390
F
  0
LAYER
  5
7C
330
2
100
AcDbSymbolTableRecord
100
AcDbLayerTableRecord
  2
LAYER090
 70
     0
 62
   191
  6
Continuous
370
    -3
390
F
  0
LAYER
  5
7D
330
2
100
AcDbSymbolTableRecord
100
AcDbLayerTableRecord
  2
LAYER091
 70
     0
 62
   215
  6
Continuous
370
    -3
390
F
  0
LAYER
  5
7E
330
2
100
AcDbSymbolTableRecord
100
AcDbLayerTableRecord
  2
LAYER092
 70
     0
 62
   215
  6
Continuous
370
    -3
390
F
  0
LAYER
  5
7F
330
2
100
AcDbSymbolTableRecord
100
AcDbLayerTableRecord
  2
LAYER093
 70
     0
 62
   215
  6
Continuous
370
    -3
390
F
  0
LAYER
  5
80
330
2
100
AcDbSymbolTableRecord
100
AcDbLayerTableRecord
  2
LAYER094
 70
     0
 62
   215
  6
Continuous
370
    -3
390
F
  0
LAYER
  5
81
330
2
100
AcDbSymbolTableRecord
100
AcDbLayerTableRecord
  2
LAYER095
 70
     0
 62
   215
  6
Continuous
370
    -3
390
F
  0
LAYER
  5
82
330
2
100
AcDbSymbolTableRecord
100
AcDbLayerTableRecord
  2
LAYER096
 70
     0
 62
   215
  6
Continuous
370
    -3
390
F
  0
LAYER
  5
83
330
2
100
AcDbSymbolTableRecord
100
AcDbLayerTableRecord
  2
LAYER097
 70
     0
 62
   215
  6
Continuous
370
    -3
390
F
  0
LAYER
  5
84
330
2
100
AcDbSymbolTableRecord
100
AcDbLayerTableRecord
  2
LAYER098
 70
     0
 62
   215
  6
Continuous
370
    -3
390
F
  0
LAYER
  5
85
330
2
100
AcDbSymbolTableRecord
100
AcDbLayerTableRecord
  2
LAYER099
 70
     0
 62
   215
  6
Continuous
370
    -3
390
F
  0
LAYER
  5
86
330
2
100
AcDbSymbolTableRecord
100
AcDbLayerTableRecord
  2
LAYER100
 70
     0
 62
   215
  6
Continuous
370
    -3
390
F
  0
LAYER
  5
87
330
2
100
AcDbSymbolTableRecord
100
AcDbLayerTableRecord
  2
LAYER101
 70
     0
 62
   155
  6
Continuous
370
    -3
390
F
  0
LAYER
  5
88
330
2
100
AcDbSymbolTableRecord
100
AcDbLayerTableRecord
  2
LAYER102
 70
     0
 62
   155
  6
Continuous
370
    -3
390
F
  0
LAYER
  5
89
330
2
100
AcDbSymbolTableRecord
100
AcDbLayerTableRecord
  2
LAYER103
 70
     0
 62
   155
  6
Continuous
370
    -3
390
F
  0
LAYER
  5
8A
330
2
100
AcDbSymbolTableRecord
100
AcDbLayerTableRecord
  2
LAYER104
 70
     0
 62
   155
  6
Continuous
370
    -3
390
F
  0
LAYER
  5
8B
330
2
100
AcDbSymbolTableRecord
100
AcDbLayerTableRecord
  2
LAYER105
 70
     0
 62
   155
  6
Continuous
370
    -3
390
F
  0
LAYER
  5
8C
330
2
100
AcDbSymbolTableRecord
100
AcDbLayerTableRecord
  2
LAYER106
 70
     0
 62
   155
  6
Continuous
370
    -3
390
F
  0
LAYER
  5
8D
330
2
100
AcDbSymbolTableRecord
100
AcDbLayerTableRecord
  2
LAYER107
 70
     0
 62
   155
  6
Continuous
370
    -3
390
F
  0
LAYER
  5
8E
330
2
100
AcDbSymbolTableRecord
100
AcDbLayerTableRecord
  2
LAYER108
 70
     0
 62
   155
  6
Continuous
370
    -3
390
F
  0
LAYER
  5
8F
330
2
100
AcDbSymbolTableRecord
100
AcDbLayerTableRecord
  2
LAYER109
 70
     0
 62
   155
  6
Continuous
370
    -3
390
F
  0
LAYER
  5
90
330
2
100
AcDbSymbolTableRecord
100
AcDbLayerTableRecord
  2
LAYER110
 70
     0
 62
   155
  6
Continuous
370
    -3
390
F
  0
LAYER
  5
91
330
2
100
AcDbSymbolTableRecord
100
AcDbLayerTableRecord
  2
LAYER111
 70
     0
 62
   232
  6
Continuous
370
    -3
390
F
  0
LAYER
  5
92
330
2
100
AcDbSymbolTableRecord
100
AcDbLayerTableRecord
  2
LAYER112
 70
     0
 62
   232
  6
Continuous
370
    -3
390
F
  0
LAYER
  5
93
330
2
100
AcDbSymbolTableRecord
100
AcDbLayerTableRecord
  2
LAYER113
 70
     0
 62
   232
  6
Continuous
370
    -3
390
F
  0
LAYER
  5
94
330
2
100
AcDbSymbolTableRecord
100
AcDbLayerTableRecord
  2
LAYER114
 70
     0
 62
   232
  6
Continuous
370
    -3
390
F
  0
LAYER
  5
95
330
2
100
AcDbSymbolTableRecord
100
AcDbLayerTableRecord
  2
LAYER115
 70
     0
 62
   232
  6
Continuous
370
    -3
390
F
  0
LAYER
  5
96
330
2
100
AcDbSymbolTableRecord
100
AcDbLayerTableRecord
  2
LAYER116
 70
     0
 62
   232
  6
Continuous
370
    -3
390
F
  0
LAYER
  5
97
330
2
100
AcDbSymbolTableRecord
100
AcDbLayerTableRecord
  2
LAYER117
 70
     0
 62
   232
  6
Continuous
370
    -3
390
F
  0
LAYER
  5
98
330
2
100
AcDbSymbolTableRecord
100
AcDbLayerTableRecord
  2
LAYER118
 70
     0
 62
   232
  6
Continuous
370
    -3
390
F
  0
LAYER
  5
99
330
2
100
AcDbSymbolTableRecord
100
AcDbLayerTableRecord
  2
LAYER119
 70
     0
 62
   232
  6
Continuous
370
    -3
390
F
  0
LAYER
  5
9A
330
2
100
AcDbSymbolTableRecord
100
AcDbLayerTableRecord
  2
LAYER120
 70
     0
 62
   232
  6
Continuous
370
    -3
390
F
  0
LAYER
  5
9B
330
2
100
AcDbSymbolTableRecord
100
AcDbLayerTableRecord
  2
LAYER121
 70
     0
 62
   254
  6
Continuous
370
    -3
390
F
  0
LAYER
  5
9C
330
2
100
AcDbSymbolTableRecord
100
AcDbLayerTableRecord
  2
LAYER122
 70
     0
 62
   254
  6
Continuous
370
    -3
390
F
  0
LAYER
  5
9D
330
2
100
AcDbSymbolTableRecord
100
AcDbLayerTableRecord
  2
LAYER123
 70
     0
 62
   254
  6
Continuous
370
    -3
390
F
  0
LAYER
  5
9E
330
2
100
AcDbSymbolTableRecord
100
AcDbLayerTableRecord
  2
LAYER124
 70
     0
 62
   254
  6
Continuous
370
    -3
390
F
  0
LAYER
  5
9F
330
2
100
AcDbSymbolTableRecord
100
AcDbLayerTableRecord
  2
LAYER125
 70
     0
 62
   254
  6
Continuous
370
    -3
390
F
  0
LAYER
  5
A0
330
2
100
AcDbSymbolTableRecord
100
AcDbLayerTableRecord
  2
LAYER126
 70
     0
 62
   254
  6
Continuous
370
    -3
390
F
  0
LAYER
  5
A1
330
2
100
AcDbSymbolTableRecord
100
AcDbLayerTableRecord
  2
LAYER127
 70
     0
 62
   254
  6
Continuous
370
    -3
390
F
  0
LAYER
  5
A2
330
2
100
AcDbSymbolTableRecord
100
AcDbLayerTableRecord
  2
LAYER128
 70
     0
 62
   254
  6
Continuous
370
    -3
390
F
  0
LAYER
  5
A3
330
2
100
AcDbSymbolTableRecord
100
AcDbLayerTableRecord
  2
LAYER129
 70
     0
 62
   254
  6
Continuous
370
    -3
390
F
  0
LAYER
  5
A4
330
2
100
AcDbSymbolTableRecord
100
AcDbLayerTableRecord
  2
LAYER130
 70
     0
 62
   254
  6
Continuous
370
    -3
390
F
  0
LAYER
  5
A5
330
2
100
AcDbSymbolTableRecord
100
AcDbLayerTableRecord
  2
LAYER131
 70
     0
 62
     2
  6
Continuous
370
    -3
390
F
  0
LAYER
  5
A6
330
2
100
AcDbSymbolTableRecord
100
AcDbLayerTableRecord
  2
LAYER132
 70
     0
 62
     2
  6
Continuous
370
    -3
390
F
  0
LAYER
  5
A7
330
2
100
AcDbSymbolTableRecord
100
AcDbLayerTableRecord
  2
LAYER133
 70
     0
 62
     2
  6
Continuous
370
    -3
390
F
  0
LAYER
  5
A8
330
2
100
AcDbSymbolTableRecord
100
AcDbLayerTableRecord
  2
LAYER134
 70
     0
 62
     2
  6
Continuous
370
    -3
390
F
  0
LAYER
  5
A9
330
2
100
AcDbSymbolTableRecord
100
AcDbLayerTableRecord
  2
LAYER135
 70
     0
 62
     2
  6
Continuous
370
    -3
390
F
  0
LAYER
  5
AA
330
2
100
AcDbSymbolTableRecord
100
AcDbLayerTableRecord
  2
LAYER136
 70
     0
 62
     2
  6
Continuous
370
    -3
390
F
  0
LAYER
  5
AB
330
2
100
AcDbSymbolTableRecord
100
AcDbLayerTableRecord
  2
LAYER137
 70
     0
 62
     2
  6
Continuous
370
    -3
390
F
  0
LAYER
  5
AC
330
2
100
AcDbSymbolTableRecord
100
AcDbLayerTableRecord
  2
LAYER138
 70
     0
 62
     2
  6
Continuous
370
    -3
390
F
  0
LAYER
  5
AD
330
2
100
AcDbSymbolTableRecord
100
AcDbLayerTableRecord
  2
LAYER139
 70
     0
 62
     2
  6
Continuous
370
    -3
390
F
  0
LAYER
  5
AE
330
2
100
AcDbSymbolTableRecord
100
AcDbLayerTableRecord
  2
LAYER140
 70
     0
 62
     2
  6
Continuous
370
    -3
390
F
  0
LAYER
  5
AF
330
2
100
AcDbSymbolTableRecord
100
AcDbLayerTableRecord
  2
LAYER141
 70
     0
 62
     3
  6
Continuous
370
    -3
390
F
  0
LAYER
  5
B0
330
2
100
AcDbSymbolTableRecord
100
AcDbLayerTableRecord
  2
LAYER142
 70
     0
 62
     3
  6
Continuous
370
    -3
390
F
  0
LAYER
  5
B1
330
2
100
AcDbSymbolTableRecord
100
AcDbLayerTableRecord
  2
LAYER143
 70
     0
 62
     3
  6
Continuous
370
    -3
390
F
  0
LAYER
  5
B2
330
2
100
AcDbSymbolTableRecord
100
AcDbLayerTableRecord
  2
LAYER144
 70
     0
 62
     3
  6
Continuous
370
    -3
390
F
  0
LAYER
  5
B3
330
2
100
AcDbSymbolTableRecord
100
AcDbLayerTableRecord
  2
LAYER145
 70
     0
 62
     3
  6
Continuous
370
    -3
390
F
  0
LAYER
  5
B4
330
2
100
AcDbSymbolTableRecord
100
AcDbLayerTableRecord
  2
LAYER146
 70
     0
 62
     3
  6
Continuous
370
    -3
390
F
  0
LAYER
  5
B5
330
2
100
AcDbSymbolTableRecord
100
AcDbLayerTableRecord
  2
LAYER147
 70
     0
 62
     3
  6
Continuous
370
    -3
390
F
  0
LAYER
  5
B6
330
2
100
AcDbSymbolTableRecord
100
AcDbLayerTableRecord
  2
LAYER148
 70
     0
 62
     3
  6
Continuous
370
    -3
390
F
  0
LAYER
  5
B7
330
2
100
AcDbSymbolTableRecord
100
AcDbLayerTableRecord
  2
LAYER149
 70
     0
 62
     3
  6
Continuous
370
    -3
390
F
  0
LAYER
  5
B8
330
2
100
AcDbSymbolTableRecord
100
AcDbLayerTableRecord
  2
LAYER150
 70
     0
 62
     3
  6
Continuous
370
    -3
390
F
  0
LAYER
  5
B9
330
2
100
AcDbSymbolTableRecord
100
AcDbLayerTableRecord
  2
LAYER151
 70
     0
 62
     5
  6
Continuous
370
    -3
390
F
  0
LAYER
  5
BA
330
2
100
AcDbSymbolTableRecord
100
AcDbLayerTableRecord
  2
LAYER152
 70
     0
 62
     5
  6
Continuous
370
    -3
390
F
  0
LAYER
  5
BB
330
2
100
AcDbSymbolTableRecord
100
AcDbLayerTableRecord
  2
LAYER153
 70
     0
 62
     5
  6
Continuous
370
    -3
390
F
  0
LAYER
  5
BC
330
2
100
AcDbSymbolTableRecord
100
AcDbLayerTableRecord
  2
LAYER154
 70
     0
 62
     5
  6
Continuous
370
    -3
390
F
  0
LAYER
  5
BD
330
2
100
AcDbSymbolTableRecord
100
AcDbLayerTableRecord
  2
LAYER155
 70
     0
 62
     5
  6
Continuous
370
    -3
390
F
  0
LAYER
  5
BE
330
2
100
AcDbSymbolTableRecord
100
AcDbLayerTableRecord
  2
LAYER156
 70
     0
 62
     5
  6
Continuous
370
    -3
390
F
  0
LAYER
  5
BF
330
2
100
AcDbSymbolTableRecord
100
AcDbLayerTableRecord
  2
LAYER157
 70
     0
 62
     5
  6
Continuous
370
    -3
390
F
  0
LAYER
  5
C0
330
2
100
AcDbSymbolTableRecord
100
AcDbLayerTableRecord
  2
LAYER158
 70
     0
 62
     5
  6
Continuous
370
    -3
390
F
  0
LAYER
  5
C1
330
2
100
AcDbSymbolTableRecord
100
AcDbLayerTableRecord
  2
LAYER159
 70
     0
 62
     5
  6
Continuous
370
    -3
390
F
  0
LAYER
  5
C2
330
2
100
AcDbSymbolTableRecord
100
AcDbLayerTableRecord
  2
LAYER160
 70
     0
 62
     5
  6
Continuous
370
    -3
390
F
  0
LAYER
  5
C3
330
2
100
AcDbSymbolTableRecord
100
AcDbLayerTableRecord
  2
LAYER161
 70
     0
 62
     4
  6
Continuous
370
    -3
390
F
  0
LAYER
  5
C4
330
2
100
AcDbSymbolTableRecord
100
AcDbLayerTableRecord
  2
LAYER162
 70
     0
 62
     4
  6
Continuous
370
    -3
390
F
  0
LAYER
  5
C5
330
2
100
AcDbSymbolTableRecord
100
AcDbLayerTableRecord
  2
LAYER163
 70
     0
 62
     4
  6
Continuous
370
    -3
390
F
  0
LAYER
  5
C6
330
2
100
AcDbSymbolTableRecord
100
AcDbLayerTableRecord
  2
LAYER164
 70
     0
 62
     4
  6
Continuous
370
    -3
390
F
  0
LAYER
  5
C7
330
2
100
AcDbSymbolTableRecord
100
AcDbLayerTableRecord
  2
LAYER165
 70
     0
 62
     4
  6
Continuous
370
    -3
390
F
  0
LAYER
  5
C8
330
2
100
AcDbSymbolTableRecord
100
AcDbLayerTableRecord
  2
LAYER166
 70
     0
 62
     4
  6
Continuous
370
    -3
390
F
  0
LAYER
  5
C9
330
2
100
AcDbSymbolTableRecord
100
AcDbLayerTableRecord
  2
LAYER167
 70
     0
 62
     4
  6
Continuous
370
    -3
390
F
  0
LAYER
  5
CA
330
2
100
AcDbSymbolTableRecord
100
AcDbLayerTableRecord
  2
LAYER168
 70
     0
 62
     4
  6
Continuous
370
    -3
390
F
  0
LAYER
  5
CB
330
2
100
AcDbSymbolTableRecord
100
AcDbLayerTableRecord
  2
LAYER169
 70
     0
 62
     4
  6
Continuous
370
    -3
390
F
  0
LAYER
  5
CC
330
2
100
AcDbSymbolTableRecord
100
AcDbLayerTableRecord
  2
LAYER170
 70
     0
 62
     4
  6
Continuous
370
    -3
390
F
  0
LAYER
  5
CD
330
2
100
AcDbSymbolTableRecord
100
AcDbLayerTableRecord
  2
LAYER171
 70
     0
 62
   163
  6
Continuous
370
    -3
390
F
  0
LAYER
  5
CE
330
2
100
AcDbSymbolTableRecord
100
AcDbLayerTableRecord
  2
LAYER172
 70
     0
 62
   163
  6
Continuous
370
    -3
390
F
  0
LAYER
  5
CF
330
2
100
AcDbSymbolTableRecord
100
AcDbLayerTableRecord
  2
LAYER173
 70
     0
 62
   163
  6
Continuous
370
    -3
390
F
  0
LAYER
  5
D0
330
2
100
AcDbSymbolTableRecord
100
AcDbLayerTableRecord
  2
LAYER174
 70
     0
 62
   163
  6
Continuous
370
    -3
390
F
  0
LAYER
  5
D1
330
2
100
AcDbSymbolTableRecord
100
AcDbLayerTableRecord
  2
LAYER175
 70
     0
 62
   163
  6
Continuous
370
    -3
390
F
  0
LAYER
  5
D2
330
2
100
AcDbSymbolTableRecord
100
AcDbLayerTableRecord
  2
LAYER176
 70
     0
 62
   163
  6
Continuous
370
    -3
390
F
  0
LAYER
  5
D3
330
2
100
AcDbSymbolTableRecord
100
AcDbLayerTableRecord
  2
LAYER177
 70
     0
 62
   163
  6
Continuous
370
    -3
390
F
  0
LAYER
  5
D4
330
2
100
AcDbSymbolTableRecord
100
AcDbLayerTableRecord
  2
LAYER178
 70
     0
 62
   163
  6
Continuous
370
    -3
390
F
  0
LAYER
  5
D5
330
2
100
AcDbSymbolTableRecord
100
AcDbLayerTableRecord
  2
LAYER179
 70
     0
 62
   163
  6
Continuous
370
    -3
390
F
  0
LAYER
  5
D6
330
2
100
AcDbSymbolTableRecord
100
AcDbLayerTableRecord
  2
LAYER180
 70
     0
 62
   163
  6
Continuous
370
    -3
390
F
  0
LAYER
  5
D7
330
2
100
AcDbSymbolTableRecord
100
AcDbLayerTableRecord
  2
LAYER181
 70
     0
 62
    31
  6
Continuous
370
    -3
390
F
  0
LAYER
  5
D8
330
2
100
AcDbSymbolTableRecord
100
AcDbLayerTableRecord
  2
LAYER182
 70
     0
 62
    31
  6
Continuous
370
    -3
390
F
  0
LAYER
  5
D9
330
2
100
AcDbSymbolTableRecord
100
AcDbLayerTableRecord
  2
LAYER183
 70
     0
 62
    31
  6
Continuous
370
    -3
390
F
  0
LAYER
  5
DA
330
2
100
AcDbSymbolTableRecord
100
AcDbLayerTableRecord
  2
LAYER184
 70
     0
 62
    31
  6
Continuous
370
    -3
390
F
  0
LAYER
  5
DB
330
2
100
AcDbSymbolTableRecord
100
AcDbLayerTableRecord
  2
LAYER185
 70
     0
 62
    31
  6
Continuous
370
    -3
390
F
  0
LAYER
  5
DC
330
2
100
AcDbSymbolTableRecord
100
AcDbLayerTableRecord
  2
LAYER186
 70
     0
 62
    31
  6
Continuous
370
    -3
390
F
  0
LAYER
  5
DD
330
2
100
AcDbSymbolTableRecord
100
AcDbLayerTableRecord
  2
LAYER187
 70
     0
 62
    31
  6
Continuous
370
    -3
390
F
  0
LAYER
  5
DE
330
2
100
AcDbSymbolTableRecord
100
AcDbLayerTableRecord
  2
LAYER188
 70
     0
 62
    31
  6
Continuous
370
    -3
390
F
  0
LAYER
  5
DF
330
2
100
AcDbSymbolTableRecord
100
AcDbLayerTableRecord
  2
LAYER189
 70
     0
 62
    31
  6
Continuous
370
    -3
390
F
  0
LAYER
  5
E0
330
2
100
AcDbSymbolTableRecord
100
AcDbLayerTableRecord
  2
LAYER190
 70
     0
 62
    31
  6
Continuous
370
    -3
390
F
  0
LAYER
  5
E1
330
2
100
AcDbSymbolTableRecord
100
AcDbLayerTableRecord
  2
LAYER191
 70
     0
 62
    71
  6
Continuous
370
    -3
390
F
  0
LAYER
  5
E2
330
2
100
AcDbSymbolTableRecord
100
AcDbLayerTableRecord
  2
LAYER192
 70
     0
 62
    71
  6
Continuous
370
    -3
390
F
  0
LAYER
  5
E3
330
2
100
AcDbSymbolTableRecord
100
AcDbLayerTableRecord
  2
LAYER193
 70
     0
 62
    71
  6
Continuous
370
    -3
390
F
  0
LAYER
  5
E4
330
2
100
AcDbSymbolTableRecord
100
AcDbLayerTableRecord
  2
LAYER194
 70
     0
 62
    71
  6
Continuous
370
    -3
390
F
  0
LAYER
  5
E5
330
2
100
AcDbSymbolTableRecord
100
AcDbLayerTableRecord
  2
LAYER195
 70
     0
 62
    71
  6
Continuous
370
    -3
390
F
  0
LAYER
  5
E6
330
2
100
AcDbSymbolTableRecord
100
AcDbLayerTableRecord
  2
LAYER196
 70
     0
 62
    71
  6
Continuous
370
    -3
390
F
  0
LAYER
  5
E7
330
2
100
AcDbSymbolTableRecord
100
AcDbLayerTableRecord
  2
LAYER197
 70
     0
 62
    71
  6
Continuous
370
    -3
390
F
  0
LAYER
  5
E8
330
2
100
AcDbSymbolTableRecord
100
AcDbLayerTableRecord
  2
LAYER198
 70
     0
 62
    71
  6
Continuous
370
    -3
390
F
  0
LAYER
  5
E9
330
2
100
AcDbSymbolTableRecord
100
AcDbLayerTableRecord
  2
LAYER199
 70
     0
 62
    71
  6
Continuous
370
    -3
390
F
  0
LAYER
  5
EA
330
2
100
AcDbSymbolTableRecord
100
AcDbLayerTableRecord
  2
LAYER200
 70
     0
 62
    71
  6
Continuous
370
    -3
390
F
  0
LAYER
  5
EB
330
2
100
AcDbSymbolTableRecord
100
AcDbLayerTableRecord
  2
LAYER201
 70
     0
 62
   241
  6
Continuous
370
    -3
390
F
  0
LAYER
  5
EC
330
2
100
AcDbSymbolTableRecord
100
AcDbLayerTableRecord
  2
LAYER202
 70
     0
 62
   241
  6
Continuous
370
    -3
390
F
  0
LAYER
  5
ED
330
2
100
AcDbSymbolTableRecord
100
AcDbLayerTableRecord
  2
LAYER203
 70
     0
 62
   241
  6
Continuous
370
    -3
390
F
  0
LAYER
  5
EE
330
2
100
AcDbSymbolTableRecord
100
AcDbLayerTableRecord
  2
LAYER204
 70
     0
 62
   241
  6
Continuous
370
    -3
390
F
  0
LAYER
  5
EF
330
2
100
AcDbSymbolTableRecord
100
AcDbLayerTableRecord
  2
LAYER205
 70
     0
 62
   241
  6
Continuous
370
    -3
390
F
  0
LAYER
  5
F0
330
2
100
AcDbSymbolTableRecord
100
AcDbLayerTableRecord
  2
LAYER206
 70
     0
 62
   241
  6
Continuous
370
    -3
390
F
  0
LAYER
  5
F1
330
2
100
AcDbSymbolTableRecord
100
AcDbLayerTableRecord
  2
LAYER207
 70
     0
 62
   241
  6
Continuous
370
    -3
390
F
  0
LAYER
  5
F2
330
2
100
AcDbSymbolTableRecord
100
AcDbLayerTableRecord
  2
LAYER208
 70
     0
 62
   241
  6
Continuous
370
    -3
390
F
  0
LAYER
  5
F3
330
2
100
AcDbSymbolTableRecord
100
AcDbLayerTableRecord
  2
LAYER209
 70
     0
 62
   241
  6
Continuous
370
    -3
390
F
  0
LAYER
  5
F4
330
2
100
AcDbSymbolTableRecord
100
AcDbLayerTableRecord
  2
LAYER210
 70
     0
 62
   241
  6
Continuous
370
    -3
390
F
  0
LAYER
  5
F5
330
2
100
AcDbSymbolTableRecord
100
AcDbLayerTableRecord
  2
LAYER211
 70
     0
 62
   191
  6
Continuous
370
    -3
390
F
  0
LAYER
  5
F6
330
2
100
AcDbSymbolTableRecord
100
AcDbLayerTableRecord
  2
LAYER212
 70
     0
 62
   191
  6
Continuous
370
    -3
390
F
  0
LAYER
  5
F7
330
2
100
AcDbSymbolTableRecord
100
AcDbLayerTableRecord
  2
LAYER213
 70
     0
 62
   191
  6
Continuous
370
    -3
390
F
  0
LAYER
  5
F8
330
2
100
AcDbSymbolTableRecord
100
AcDbLayerTableRecord
  2
LAYER214
 70
     0
 62
   191
  6
Continuous
370
    -3
390
F
  0
LAYER
  5
F9
330
2
100
AcDbSymbolTableRecord
100
AcDbLayerTableRecord
  2
LAYER215
 70
     0
 62
   191
  6
Continuous
370
    -3
390
F
  0
LAYER
  5
FA
330
2
100
AcDbSymbolTableRecord
100
AcDbLayerTableRecord
  2
LAYER216
 70
     0
 62
   191
  6
Continuous
370
    -3
390
F
  0
LAYER
  5
FB
330
2
100
AcDbSymbolTableRecord
100
AcDbLayerTableRecord
  2
LAYER217
 70
     0
 62
   191
  6
Continuous
370
    -3
390
F
  0
LAYER
  5
FC
330
2
100
AcDbSymbolTableRecord
100
AcDbLayerTableRecord
  2
LAYER218
 70
     0
 62
   191
  6
Continuous
370
    -3
390
F
  0
LAYER
  5
FD
330
2
100
AcDbSymbolTableRecord
100
AcDbLayerTableRecord
  2
LAYER219
 70
     0
 62
   191
  6
Continuous
370
    -3
390
F
  0
LAYER
  5
FE
330
2
100
AcDbSymbolTableRecord
100
AcDbLayerTableRecord
  2
LAYER220
 70
     0
 62
   191
  6
Continuous
370
    -3
390
F
  0
LAYER
  5
FF
330
2
100
AcDbSymbolTableRecord
100
AcDbLayerTableRecord
  2
LAYER221
 70
     0
 62
   215
  6
Continuous
370
    -3
390
F
  0
LAYER
  5
100
330
2
100
AcDbSymbolTableRecord
100
AcDbLayerTableRecord
  2
LAYER222
 70
     0
 62
   215
  6
Continuous
370
    -3
390
F
  0
LAYER
  5
101
330
2
100
AcDbSymbolTableRecord
100
AcDbLayerTableRecord
  2
LAYER223
 70
     0
 62
   215
  6
Continuous
370
    -3
390
F
  0
LAYER
  5
102
330
2
100
AcDbSymbolTableRecord
100
AcDbLayerTableRecord
  2
LAYER224
 70
     0
 62
   215
  6
Continuous
370
    -3
390
F
  0
LAYER
  5
103
330
2
100
AcDbSymbolTableRecord
100
AcDbLayerTableRecord
  2
LAYER225
 70
     0
 62
   215
  6
Continuous
370
    -3
390
F
  0
LAYER
  5
104
330
2
100
AcDbSymbolTableRecord
100
AcDbLayerTableRecord
  2
LAYER226
 70
     0
 62
   215
  6
Continuous
370
    -3
390
F
  0
LAYER
  5
105
330
2
100
AcDbSymbolTableRecord
100
AcDbLayerTableRecord
  2
LAYER227
 70
     0
 62
   215
  6
Continuous
370
    -3
390
F
  0
LAYER
  5
106
330
2
100
AcDbSymbolTableRecord
100
AcDbLayerTableRecord
  2
LAYER228
 70
     0
 62
   215
  6
Continuous
370
    -3
390
F
  0
LAYER
  5
107
330
2
100
AcDbSymbolTableRecord
100
AcDbLayerTableRecord
  2
LAYER229
 70
     0
 62
   215
  6
Continuous
370
    -3
390
F
  0
LAYER
  5
108
330
2
100
AcDbSymbolTableRecord
100
AcDbLayerTableRecord
  2
LAYER230
 70
     0
 62
   215
  6
Continuous
370
    -3
390
F
  0
LAYER
  5
109
330
2
100
AcDbSymbolTableRecord
100
AcDbLayerTableRecord
  2
LAYER231
 70
     0
 62
   155
  6
Continuous
370
    -3
390
F
  0
LAYER
  5
10A
330
2
100
AcDbSymbolTableRecord
100
AcDbLayerTableRecord
  2
LAYER232
 70
     0
 62
   155
  6
Continuous
370
    -3
390
F
  0
LAYER
  5
10B
330
2
100
AcDbSymbolTableRecord
100
AcDbLayerTableRecord
  2
LAYER233
 70
     0
 62
   155
  6
Continuous
370
    -3
390
F
  0
LAYER
  5
10C
330
2
100
AcDbSymbolTableRecord
100
AcDbLayerTableRecord
  2
LAYER234
 70
     0
 62
   155
  6
Continuous
370
    -3
390
F
  0
LAYER
  5
10D
330
2
100
AcDbSymbolTableRecord
100
AcDbLayerTableRecord
  2
LAYER235
 70
     0
 62
   155
  6
Continuous
370
    -3
390
F
  0
LAYER
  5
10E
330
2
100
AcDbSymbolTableRecord
100
AcDbLayerTableRecord
  2
LAYER236
 70
     0
 62
   155
  6
Continuous
370
    -3
390
F
  0
LAYER
  5
10F
330
2
100
AcDbSymbolTableRecord
100
AcDbLayerTableRecord
  2
LAYER237
 70
     0
 62
   155
  6
Continuous
370
    -3
390
F
  0
LAYER
  5
110
330
2
100
AcDbSymbolTableRecord
100
AcDbLayerTableRecord
  2
LAYER238
 70
     0
 62
   155
  6
Continuous
370
    -3
390
F
  0
LAYER
  5
111
330
2
100
AcDbSymbolTableRecord
100
AcDbLayerTableRecord
  2
LAYER239
 70
     0
 62
   155
  6
Continuous
370
    -3
390
F
  0
LAYER
  5
112
330
2
100
AcDbSymbolTableRecord
100
AcDbLayerTableRecord
  2
LAYER240
 70
     0
 62
   155
  6
Continuous
370
    -3
390
F
  0
LAYER
  5
113
330
2
100
AcDbSymbolTableRecord
100
AcDbLayerTableRecord
  2
LAYER241
 70
     0
 62
   232
  6
Continuous
370
    -3
390
F
  0
LAYER
  5
114
330
2
100
AcDbSymbolTableRecord
100
AcDbLayerTableRecord
  2
LAYER242
 70
     0
 62
   232
  6
Continuous
370
    -3
390
F
  0
LAYER
  5
115
330
2
100
AcDbSymbolTableRecord
100
AcDbLayerTableRecord
  2
LAYER243
 70
     0
 62
   232
  6
Continuous
370
    -3
390
F
  0
LAYER
  5
116
330
2
100
AcDbSymbolTableRecord
100
AcDbLayerTableRecord
  2
LAYER244
 70
     0
 62
   232
  6
Continuous
370
    -3
390
F
  0
LAYER
  5
117
330
2
100
AcDbSymbolTableRecord
100
AcDbLayerTableRecord
  2
LAYER245
 70
     0
 62
   232
  6
Continuous
370
    -3
390
F
  0
LAYER
  5
118
330
2
100
AcDbSymbolTableRecord
100
AcDbLayerTableRecord
  2
LAYER246
 70
     0
 62
   232
  6
Continuous
370
    -3
390
F
  0
LAYER
  5
119
330
2
100
AcDbSymbolTableRecord
100
AcDbLayerTableRecord
  2
LAYER247
 70
     0
 62
   232
  6
Continuous
370
    -3
390
F
  0
LAYER
  5
11A
330
2
100
AcDbSymbolTableRecord
100
AcDbLayerTableRecord
  2
LAYER248
 70
     0
 62
   232
  6
Continuous
370
    -3
390
F
  0
LAYER
  5
11B
330
2
100
AcDbSymbolTableRecord
100
AcDbLayerTableRecord
  2
LAYER249
 70
     0
 62
   232
  6
Continuous
370
    -3
390
F
  0
LAYER
  5
11C
330
2
100
AcDbSymbolTableRecord
100
AcDbLayerTableRecord
  2
LAYER250
 70
     0
 62
   232
  6
Continuous
370
    -3
390
F
  0
LAYER
  5
11D
330
2
100
AcDbSymbolTableRecord
100
AcDbLayerTableRecord
  2
LAYER251
 70
     0
 62
   254
  6
Continuous
370
    -3
390
F
  0
LAYER
  5
11E
330
2
100
AcDbSymbolTableRecord
100
AcDbLayerTableRecord
  2
LAYER252
 70
     0
 62
   254
  6
Continuous
370
    -3
390
F
  0
LAYER
  5
11F
330
2
100
AcDbSymbolTableRecord
100
AcDbLayerTableRecord
  2
LAYER253
 70
     0
 62
   254
  6
Continuous
370
    -3
390
F
  0
LAYER
  5
120
330
2
100
AcDbSymbolTableRecord
100
AcDbLayerTableRecord
  2
LAYER256
 70
     0
 62
   254
  6
Continuous
370
    -3
390
F
  0
LAYER
  5
121
330
2
100
AcDbSymbolTableRecord
100
AcDbLayerTableRecord
  2
ケ_シングカバ_
 70
     0
 62
   150
  6
Continuous
370
    -3
390
F
  0
LAYER
  5
122
330
2
100
AcDbSymbolTableRecord
100
AcDbLayerTableRecord
  2
制御箱カバ_
 70
     0
 62
   110
  6
Continuous
370
    -3
390
F
  0
LAYER
  5
123
330
2
100
AcDbSymbolTableRecord
100
AcDbLayerTableRecord
  2
ネジ_ボルト
 70
     0
 62
     1
  6
Continuous
370
    -3
390
F
  0
LAYER
  5
124
330
2
100
AcDbSymbolTableRecord
100
AcDbLayerTableRecord
  2
逆止弁フランジ
 70
     0
 62
   160
  6
Continuous
370
    -3
390
F
  0
LAYER
  5
125
330
2
100
AcDbSymbolTableRecord
100
AcDbLayerTableRecord
  2
30AフランジPK
 70
     0
 62
   172
  6
Continuous
370
    -3
390
F
  0
LAYER
  5
126
330
2
100
AcDbSymbolTableRecord
100
AcDbLayerTableRecord
  2
30Aフランジ
 70
     0
 62
   162
  6
Continuous
370
    -3
390
F
  0
LAYER
  5
127
330
2
100
AcDbSymbolTableRecord
100
AcDbLayerTableRecord
  2
25AフランジPK
 70
     0
 62
    23
  6
Continuous
370
    -3
390
F
  0
LAYER
  5
128
330
2
100
AcDbSymbolTableRecord
100
AcDbLayerTableRecord
  2
25Aフランジ
 70
     0
 62
    21
  6
Continuous
370
    -3
390
F
  0
LAYER
  5
129
330
2
100
AcDbSymbolTableRecord
100
AcDbLayerTableRecord
  2
電源コ_ド
 70
     0
 62
   129
  6
Continuous
370
    -3
390
F
  0
LAYER
  5
12A
330
2
100
AcDbSymbolTableRecord
100
AcDbLayerTableRecord
  2
ロ_タ完成
 70
     0
 62
   255
  6
Continuous
370
    -3
390
F
  0
LAYER
  5
12B
330
2
100
AcDbSymbolTableRecord
100
AcDbLayerTableRecord
  2
パッキンA
 70
     0
 62
    30
  6
Continuous
370
    -3
390
F
  0
LAYER
  5
12C
330
2
100
AcDbSymbolTableRecord
100
AcDbLayerTableRecord
  2
仕切板
 70
     0
 62
   191
  6
Continuous
370
    -3
390
F
  0
LAYER
  5
12D
330
2
100
AcDbSymbolTableRecord
100
AcDbLayerTableRecord
  2
羽根車
 70
     0
 62
    31
  6
Continuous
370
    -3
390
F
  0
LAYER
  5
12E
330
2
100
AcDbSymbolTableRecord
100
AcDbLayerTableRecord
  2
枠内文字
 70
     0
 62
   255
  6
Continuous
370
    -3
390
F
  0
LAYER
  5
12F
330
2
100
AcDbSymbolTableRecord
100
AcDbLayerTableRecord
  2
吸気用仕切板
 70
     0
 62
   167
  6
Continuous
370
    -3
390
F
  0
LAYER
  5
130
330
2
100
AcDbSymbolTableRecord
100
AcDbLayerTableRecord
  2
トランス
 70
     0
 62
   250
  6
Continuous
370
    -3
390
F
  0
LAYER
  5
131
330
2
100
AcDbSymbolTableRecord
100
AcDbLayerTableRecord
  2
ノズルキャップ
 70
     0
 62
     1
  6
Continuous
370
    -3
390
F
  0
LAYER
  5
132
330
2
100
AcDbSymbolTableRecord
100
AcDbLayerTableRecord
  2
ノズル
 70
     0
 62
     3
  6
Continuous
370
    -3
390
F
  0
LAYER
  5
133
330
2
100
AcDbSymbolTableRecord
100
AcDbLayerTableRecord
  2
ベ_スキャップ
 70
     0
 62
   215
  6
Continuous
370
    -3
390
F
  0
LAYER
  5
134
330
2
100
AcDbSymbolTableRecord
100
AcDbLayerTableRecord
  2
モ_タファン
 70
     0
 62
    93
  6
Continuous
370
    -3
390
F
  0
LAYER
  5
135
330
2
100
AcDbSymbolTableRecord
100
AcDbLayerTableRecord
  2
固定金具
 70
     0
 62
   164
  6
Continuous
370
    -3
390
F
  0
LAYER
  5
136
330
2
100
AcDbSymbolTableRecord
100
AcDbLayerTableRecord
  2
圧力センサ_
 70
     0
 62
   169
  6
Continuous
370
    -3
390
F
  0
LAYER
  5
137
330
2
100
AcDbSymbolTableRecord
100
AcDbLayerTableRecord
  2
ケ_シング
 70
     0
 62
    18
  6
Continuous
370
    -3
390
F
  0
LAYER
  5
138
330
2
100
AcDbSymbolTableRecord
100
AcDbLayerTableRecord
  2
サ_ミスタ
 70
     0
 62
   160
  6
Continuous
370
    -3
390
F
  0
LAYER
  5
139
330
2
100
AcDbSymbolTableRecord
100
AcDbLayerTableRecord
  2
結束バンド
 70
     0
 62
   168
  6
Continuous
370
    -3
390
F
  0
LAYER
  5
13A
330
2
100
AcDbSymbolTableRecord
100
AcDbLayerTableRecord
  2
センサ_リ_ド線
 70
     0
 62
   166
  6
Continuous
370
    -3
390
F
  0
LAYER
  5
13B
330
2
100
AcDbSymbolTableRecord
100
AcDbLayerTableRecord
  2
ファンカバ_
 70
     0
 62
    97
  6
Continuous
370
    -3
390
F
  0
LAYER
  5
13C
330
2
100
AcDbSymbolTableRecord
100
AcDbLayerTableRecord
  2
ACC完成
 70
     0
 62
    27
  6
Continuous
370
    -3
390
F
  0
LAYER
  5
13D
330
2
100
AcDbSymbolTableRecord
100
AcDbLayerTableRecord
  2
モ_タフレ_ム
 70
     0
 62
     4
  6
Continuous
370
    -3
390
F
  0
LAYER
  5
13E
330
2
100
AcDbSymbolTableRecord
100
AcDbLayerTableRecord
  2
防振スペ_サ
 70
     0
 62
   161
  6
Continuous
370
    -3
390
F
  0
LAYER
  5
13F
330
2
100
AcDbSymbolTableRecord
100
AcDbLayerTableRecord
  2
案内羽根
 70
     0
 62
   254
  6
Continuous
370
    -3
390
F
  0
LAYER
  5
140
330
2
100
AcDbSymbolTableRecord
100
AcDbLayerTableRecord
  2
弁体用フタ
 70
     0
 62
   252
  6
Continuous
370
    -3
390
F
  0
LAYER
  5
141
330
2
100
AcDbSymbolTableRecord
100
AcDbLayerTableRecord
  2
パッキンB
 70
     0
 62
   232
  6
Continuous
370
    -3
390
F
  0
LAYER
  5
142
330
2
100
AcDbSymbolTableRecord
100
AcDbLayerTableRecord
  2
メカニカルシ_ル
 70
     0
 62
   241
  6
Continuous
370
    -3
390
F
  0
LAYER
  5
143
330
2
100
AcDbSymbolTableRecord
100
AcDbLayerTableRecord
  2
モ_タ基板
 70
     0
 62
     5
  6
Continuous
370
    -3
390
F
  0
LAYER
  5
144
330
2
100
AcDbSymbolTableRecord
100
AcDbLayerTableRecord
  2
インシュレ_タ完成
 70
     0
 62
     6
  6
Continuous
370
    -3
390
F
  0
LAYER
  5
145
330
2
100
AcDbSymbolTableRecord
100
AcDbLayerTableRecord
  2
モ_タカバ_
 70
     0
 62
     1
  6
Continuous
370
    -3
390
F
  0
LAYER
  5
146
330
2
100
AcDbSymbolTableRecord
100
AcDbLayerTableRecord
  2
SLD-DEFPOINTS_0
 70
     0
 62
   179
  6
Continuous
370
    -3
390
F
  0
LAYER
  5
147
330
2
100
AcDbSymbolTableRecord
100
AcDbLayerTableRecord
  2
SLD-0_0
 70
     0
 62
   179
  6
Continuous
370
    -3
390
F
  0
LAYER
  5
148
330
2
100
AcDbSymbolTableRecord
100
AcDbLayerTableRecord
  2
SLD-0
 70
     0
 62
   179
  6
Continuous
370
    -3
390
F
  0
LAYER
  5
149
330
2
100
AcDbSymbolTableRecord
100
AcDbLayerTableRecord
  2
SLD-DEFPOINTS
 70
     0
 62
   179
  6
Continuous
370
    -3
390
F
  0
LAYER
  5
14A
330
2
100
AcDbSymbolTableRecord
100
AcDbLayerTableRecord
  2
FORMAT
 70
     0
 62
   179
  6
Continuous
370
    -3
390
F
  0
ENDTAB
  0
TABLE
  2
STYLE
  5
3
330
0
100
AcDbSymbolTable
 70
     2
  0
STYLE
  5
11
330
3
100
AcDbSymbolTableRecord
100
AcDbTextStyleTableRecord
  2
Standard
 70
     0
 40
0.0
 41
1.0
 50
0.0
 71
     0
 42
3.5
  3
txt
  4
bigfont
  0
STYLE
  5
2A9
330
3
100
AcDbSymbolTableRecord
100
AcDbTextStyleTableRecord
  2
SLDTEXTSTYLE0
 70
     0
 40
0.0
 41
0.7
 50
0.0
 71
     0
 42
0.2
  3
TXT
  4
bigfont
  0
ENDTAB
  0
TABLE
  2
VIEW
  5
6
330
0
100
AcDbSymbolTable
 70
     0
  0
ENDTAB
  0
TABLE
  2
UCS
  5
7
330
0
100
AcDbSymbolTable
 70
     0
  0
ENDTAB
  0
TABLE
  2
APPID
  5
9
330
0
100
AcDbSymbolTable
 70
     1
  0
APPID
  5
12
330
9
100
AcDbSymbolTableRecord
100
AcDbRegAppTableRecord
  2
ACAD
 70
     0
  0
ENDTAB
  0
TABLE
  2
DIMSTYLE
  5
A
330
0
100
AcDbSymbolTable
 70
     1
100
AcDbDimStyleTable
  0
DIMSTYLE
105
27
330
A
100
AcDbSymbolTableRecord
100
AcDbDimStyleTableRecord
  2
ISO-25
 70
     0
 41
2.5
 42
0.625
 43
3.75
 44
1.25
 73
     0
 74
     0
 77
     1
 78
     8
140
2.5
141
2.5
143
0.0393700787
147
0.625
171
     3
172
     1
178
     0
271
     2
272
     2
274
     3
278
    44
283
     0
284
     8
340
11
  0
ENDTAB
  0
TABLE
  2
BLOCK_RECORD
  5
1
330
0
100
AcDbSymbolTable
 70
     4
  0
BLOCK_RECORD
  5
1F
330
1
100
AcDbSymbolTableRecord
100
AcDbBlockTableRecord
  2
*Model_Space
340
22
  0
BLOCK_RECORD
  5
1B
330
1
100
AcDbSymbolTableRecord
100
AcDbBlockTableRecord
  2
*Paper_Space
340
1E
  0
BLOCK_RECORD
  5
23
330
1
100
AcDbSymbolTableRecord
100
AcDbBlockTableRecord
  2
*Paper_Space0
340
26
  0
BLOCK_RECORD
  5
2AB
330
1
100
AcDbSymbolTableRecord
100
AcDbBlockTableRecord
  2
SW_CENTERMARKSYMBOL_0
340
0
102
{BLKREFS
331
2B6
102
}
  0
BLOCK_RECORD
  5
2B7
330
1
100
AcDbSymbolTableRecord
100
AcDbBlockTableRecord
  2
SW_CENTERMARKSYMBOL_1
340
0
102
{BLKREFS
331
2C2
102
}
  0
BLOCK_RECORD
  5
3F3
330
1
100
AcDbSymbolTableRecord
100
AcDbBlockTableRecord
  2
SW_CENTERMARKSYMBOL_2
340
0
102
{BLKREFS
331
416
102
}
  0
ENDTAB
  0
ENDSEC
  0
SECTION
  2
BLOCKS
  0
BLOCK
  5
20
330
1F
100
AcDbEntity
  8
0
100
AcDbBlockBegin
  2
*Model_Space
 70
     0
 10
0.0
 20
0.0
 30
0.0
  3
*Model_Space
  1

  0
ENDBLK
  5
21
330
1F
100
AcDbEntity
  8
0
100
AcDbBlockEnd
  0
BLOCK
  5
1C
330
1B
100
AcDbEntity
 67
     1
  8
0
100
AcDbBlockBegin
  2
*Paper_Space
 70
     0
 10
0.0
 20
0.0
 30
0.0
  3
*Paper_Space
  1

  0
ENDBLK
  5
1D
330
1B
100
AcDbEntity
 67
     1
  8
0
100
AcDbBlockEnd
  0
BLOCK
  5
24
330
23
100
AcDbEntity
  8
0
100
AcDbBlockBegin
  2
*Paper_Space0
 70
     0
 10
0.0
 20
0.0
 30
0.0
  3
*Paper_Space0
  1

  0
ENDBLK
  5
25
330
23
100
AcDbEntity
  8
0
100
AcDbBlockEnd
  0
BLOCK
  5
2AC
330
2AB
100
AcDbEntity
  8
0
100
AcDbBlockBegin
  2
SW_CENTERMARKSYMBOL_0
 70
     0
 10
0.0
 20
0.0
 30
0.0
  3
SW_CENTERMARKSYMBOL_0
  1

  0
LINE
  5
2AE
330
2AB
100
AcDbEntity
  8
0
  6
Continuous
 62
     0
370
     0
100
AcDbLine
 10
0.0
 20
0.0
 30
0.0
 11
0.0
 21
2.5
 31
0.0
  0
LINE
  5
2AF
330
2AB
100
AcDbEntity
  8
0
  6
Continuous
 62
     0
370
     0
100
AcDbLine
 10
0.0
 20
0.0
 30
0.0
 11
-2.5
 21
0.0
 31
0.0
  0
LINE
  5
2B0
330
2AB
100
AcDbEntity
  8
0
  6
Continuous
 62
     0
370
     0
100
AcDbLine
 10
0.0
 20
0.0
 30
0.0
 11
0.0
 21
-2.5
 31
0.0
  0
LINE
  5
2B1
330
2AB
100
AcDbEntity
  8
0
  6
Continuous
 62
     0
370
     0
100
AcDbLine
 10
0.0
 20
0.0
 30
0.0
 11
2.5
 21
0.0
 31
0.0
  0
LINE
  5
2B2
330
2AB
100
AcDbEntity
  8
0
  6
Continuous
 62
     0
370
     0
100
AcDbLine
 10
0.0
 20
5.0
 30
0.0
 11
0.0
 21
32.0
 31
0.0
  0
LINE
  5
2B3
330
2AB
100
AcDbEntity
  8
0
  6
Continuous
 62
     0
370
     0
100
AcDbLine
 10
-5.0
 20
0.0
 30
0.0
 11
-32.0
 21
0.0
 31
0.0
  0
LINE
  5
2B4
330
2AB
100
AcDbEntity
  8
0
  6
Continuous
 62
     0
370
     0
100
AcDbLine
 10
0.0
 20
-5.0
 30
0.0
 11
0.0
 21
-32.0
 31
0.0
  0
LINE
  5
2B5
330
2AB
100
AcDbEntity
  8
0
  6
Continuous
 62
     0
370
     0
100
AcDbLine
 10
5.0
 20
0.0
 30
0.0
 11
32.0
 21
0.0
 31
0.0
  0
ENDBLK
  5
2AD
330
2AB
100
AcDbEntity
  8
0
100
AcDbBlockEnd
  0
BLOCK
  5
2B8
330
2B7
100
AcDbEntity
  8
0
100
AcDbBlockBegin
  2
SW_CENTERMARKSYMBOL_1
 70
     0
 10
0.0
 20
0.0
 30
0.0
  3
SW_CENTERMARKSYMBOL_1
  1

  0
LINE
  5
2BA
330
2B7
100
AcDbEntity
  8
0
  6
Continuous
 62
     0
370
     0
100
AcDbLine
 10
0.0
 20
0.0
 30
0.0
 11
0.0
 21
2.5
 31
0.0
  0
LINE
  5
2BB
330
2B7
100
AcDbEntity
  8
0
  6
Continuous
 62
     0
370
     0
100
AcDbLine
 10
0.0
 20
0.0
 30
0.0
 11
-2.5
 21
0.0
 31
0.0
  0
LINE
  5
2BC
330
2B7
100
AcDbEntity
  8
0
  6
Continuous
 62
     0
370
     0
100
AcDbLine
 10
0.0
 20
0.0
 30
0.0
 11
0.0
 21
-2.5
 31
0.0
  0
LINE
  5
2BD
330
2B7
100
AcDbEntity
  8
0
  6
Continuous
 62
     0
370
     0
100
AcDbLine
 10
0.0
 20
0.0
 30
0.0
 11
2.5
 21
0.0
 31
0.0
  0
LINE
  5
2BE
330
2B7
100
AcDbEntity
  8
0
  6
Continuous
 62
     0
370
     0
100
AcDbLine
 10
0.0
 20
5.0
 30
0.0
 11
0.0
 21
29.0
 31
0.0
  0
LINE
  5
2BF
330
2B7
100
AcDbEntity
  8
0
  6
Continuous
 62
     0
370
     0
100
AcDbLine
 10
-5.0
 20
0.0
 30
0.0
 11
-29.0
 21
0.0
 31
0.0
  0
LINE
  5
2C0
330
2B7
100
AcDbEntity
  8
0
  6
Continuous
 62
     0
370
     0
100
AcDbLine
 10
0.0
 20
-5.0
 30
0.0
 11
0.0
 21
-29.0
 31
0.0
  0
LINE
  5
2C1
330
2B7
100
AcDbEntity
  8
0
  6
Continuous
 62
     0
370
     0
100
AcDbLine
 10
5.0
 20
0.0
 30
0.0
 11
29.0
 21
0.0
 31
0.0
  0
ENDBLK
  5
2B9
330
2B7
100
AcDbEntity
  8
0
100
AcDbBlockEnd
  0
BLOCK
  5
3F4
330
3F3
100
AcDbEntity
  8
0
100
AcDbBlockBegin
  2
SW_CENTERMARKSYMBOL_2
 70
     0
 10
0.0
 20
0.0
 30
0.0
  3
SW_CENTERMARKSYMBOL_2
  1

  0
ARC
  5
3F6
330
3F3
100
AcDbEntity
  8
0
  6
Continuous
 62
     0
370
     0
100
AcDbCircle
 10
-130.8147545195
 20
-130.8147545195
 30
0.0
 40
185.0
100
AcDbArc
 50
45.0
 51
45.7742672907
  0
ARC
  5
3F7
330
3F3
100
AcDbEntity
  8
0
  6
Continuous
 62
     0
370
     0
100
AcDbCircle
 10
-130.8147545195
 20
-130.8147545195
 30
0.0
 40
185.0
100
AcDbArc
 50
44.2257327093
 51
45.0
  0
ARC
  5
3F8
330
3F3
100
AcDbEntity
  8
0
  6
Continuous
 62
     0
370
     0
100
AcDbCircle
 10
-130.8147545195
 20
-130.8147545195
 30
0.0
 40
185.0
100
AcDbArc
 50
46.5485345814
 51
53.0351395472
  0
ARC
  5
3F9
330
3F3
100
AcDbEntity
  8
0
  6
Continuous
 62
     0
370
     0
100
AcDbCircle
 10
-130.8147545195
 20
-130.8147545195
 30
0.0
 40
185.0
100
AcDbArc
 50
42.3674912116
 51
43.4514654186
  0
ARC
  5
3FA
330
3F3
100
AcDbEntity
  8
0
  6
Continuous
 62
     0
370
     0
100
AcDbCircle
 10
-130.8147545195
 20
-130.8147545195
 30
0.0
 40
185.0
100
AcDbArc
 50
315.0
 51
315.7742672907
  0
ARC
  5
3FB
330
3F3
100
AcDbEntity
  8
0
  6
Continuous
 62
     0
370
     0
100
AcDbCircle
 10
-130.8147545195
 20
-130.8147545195
 30
0.0
 40
185.0
100
AcDbArc
 50
314.2257327093
 51
315.0
  0
ARC
  5
3FC
330
3F3
100
AcDbEntity
  8
0
  6
Continuous
 62
     0
370
     0
100
AcDbCircle
 10
-130.8147545195
 20
-130.8147545195
 30
0.0
 40
185.0
100
AcDbArc
 50
316.5485345814
 51
317.6325087884
  0
ARC
  5
3FD
330
3F3
100
AcDbEntity
  8
0
  6
Continuous
 62
     0
370
     0
100
AcDbCircle
 10
-130.8147545195
 20
-130.8147545195
 30
0.0
 40
185.0
100
AcDbArc
 50
312.3674912116
 51
313.4514654186
  0
ARC
  5
3FE
330
3F3
100
AcDbEntity
  8
0
  6
Continuous
 62
     0
370
     0
100
AcDbCircle
 10
-130.8147545195
 20
-130.8147545195
 30
0.0
 40
184.9999999999999
100
AcDbArc
 50
225.0
 51
225.7742672907
  0
ARC
  5
3FF
330
3F3
100
AcDbEntity
  8
0
  6
Continuous
 62
     0
370
     0
100
AcDbCircle
 10
-130.8147545195
 20
-130.8147545195
 30
0.0
 40
184.9999999999999
100
AcDbArc
 50
224.2257327093
 51
225.0
  0
ARC
  5
400
330
3F3
100
AcDbEntity
  8
0
  6
Continuous
 62
     0
370
     0
100
AcDbCircle
 10
-130.8147545195
 20
-130.8147545195
 30
0.0
 40
184.9999999999999
100
AcDbArc
 50
226.5485345814
 51
227.6325087884
  0
ARC
  5
401
330
3F3
100
AcDbEntity
  8
0
  6
Continuous
 62
     0
370
     0
100
AcDbCircle
 10
-130.8147545195
 20
-130.8147545195
 30
0.0
 40
185.0
100
AcDbArc
 50
222.3674912116
 51
223.4514654186
  0
ARC
  5
402
330
3F3
100
AcDbEntity
  8
0
  6
Continuous
 62
     0
370
     0
100
AcDbCircle
 10
-130.8147545195
 20
-130.8147545195
 30
0.0
 40
185.0
100
AcDbArc
 50
135.0
 51
135.7742672907
  0
ARC
  5
403
330
3F3
100
AcDbEntity
  8
0
  6
Continuous
 62
     0
370
     0
100
AcDbCircle
 10
-130.8147545195
 20
-130.8147545195
 30
0.0
 40
185.0
100
AcDbArc
 50
134.2257327093
 51
135.0
  0
ARC
  5
404
330
3F3
100
AcDbEntity
  8
0
  6
Continuous
 62
     0
370
     0
100
AcDbCircle
 10
-130.8147545195
 20
-130.8147545195
 30
0.0
 40
185.0
100
AcDbArc
 50
136.5485345814
 51
137.6325087884
  0
ARC
  5
405
330
3F3
100
AcDbEntity
  8
0
  6
Continuous
 62
     0
370
     0
100
AcDbCircle
 10
-130.8147545195
 20
-130.8147545195
 30
0.0
 40
185.0000000000001
100
AcDbArc
 50
132.3674912116
 51
133.4514654186
  0
LINE
  5
406
330
3F3
100
AcDbEntity
  8
0
  6
Continuous
 62
     0
370
     0
100
AcDbLine
 10
0.0
 20
0.0
 30
0.0
 11
1.767766953
 21
1.767766953
 31
0.0
  0
LINE
  5
407
330
3F3
100
AcDbEntity
  8
0
  6
Continuous
 62
     0
370
     0
100
AcDbLine
 10
0.0
 20
0.0
 30
0.0
 11
-1.767766953
 21
-1.767766953
 31
0.0
  0
LINE
  5
408
330
3F3
100
AcDbEntity
  8
0
  6
Continuous
 62
     0
370
     0
100
AcDbLine
 10
3.5355339059
 20
3.5355339059
 30
0.0
 11
6.0104076401
 21
6.0104076401
 31
0.0
  0
LINE
  5
409
330
3F3
100
AcDbEntity
  8
0
  6
Continuous
 62
     0
370
     0
100
AcDbLine
 10
-3.5355339059
 20
-3.5355339059
 30
0.0
 11
-6.0104076401
 21
-6.0104076401
 31
0.0
  0
LINE
  5
40A
330
3F3
100
AcDbEntity
  8
0
  6
Continuous
 62
     0
370
     0
100
AcDbLine
 10
0.0
 20
-261.629509039
 30
0.0
 11
1.767766953
 21
-263.397275992
 31
0.0
  0
LINE
  5
40B
330
3F3
100
AcDbEntity
  8
0
  6
Continuous
 62
     0
370
     0
100
AcDbLine
 10
0.0
 20
-261.629509039
 30
0.0
 11
-1.767766953
 21
-259.8617420861
 31
0.0
  0
LINE
  5
40C
330
3F3
100
AcDbEntity
  8
0
  6
Continuous
 62
     0
370
     0
100
AcDbLine
 10
3.5355339059
 20
-265.165042945
 30
0.0
 11
6.0104076401
 21
-267.6399166791
 31
0.0
  0
LINE
  5
40D
330
3F3
100
AcDbEntity
  8
0
  6
Continuous
 62
     0
370
     0
100
AcDbLine
 10
-3.5355339059
 20
-258.0939751331
 30
0.0
 11
-6.0104076401
 21
-255.6191013989
 31
0.0
  0
LINE
  5
40E
330
3F3
100
AcDbEntity
  8
0
  6
Continuous
 62
     0
370
     0
100
AcDbLine
 10
-261.629509039
 20
-261.629509039
 30
0.0
 11
-263.397275992
 21
-263.397275992
 31
0.0
  0
LINE
  5
40F
330
3F3
100
AcDbEntity
  8
0
  6
Continuous
 62
     0
370
     0
100
AcDbLine
 10
-261.629509039
 20
-261.629509039
 30
0.0
 11
-259.8617420861
 21
-259.8617420861
 31
0.0
  0
LINE
  5
410
330
3F3
100
AcDbEntity
  8
0
  6
Continuous
 62
     0
370
     0
100
AcDbLine
 10
-265.165042945
 20
-265.165042945
 30
0.0
 11
-267.6399166791
 21
-267.6399166791
 31
0.0
  0
LINE
  5
411
330
3F3
100
AcDbEntity
  8
0
  6
Continuous
 62
     0
370
     0
100
AcDbLine
 10
-258.0939751331
 20
-258.0939751331
 30
0.0
 11
-255.6191013989
 21
-255.6191013989
 31
0.0
  0
LINE
  5
412
330
3F3
100
AcDbEntity
  8
0
  6
Continuous
 62
     0
370
     0
100
AcDbLine
 10
-261.629509039
 20
0.0
 30
0.0
 11
-263.397275992
 21
1.767766953
 31
0.0
  0
LINE
  5
413
330
3F3
100
AcDbEntity
  8
0
  6
Continuous
 62
     0
370
     0
100
AcDbLine
 10
-261.629509039
 20
0.0
 30
0.0
 11
-259.8617420861
 21
-1.767766953
 31
0.0
  0
LINE
  5
414
330
3F3
100
AcDbEntity
  8
0
  6
Continuous
 62
     0
370
     0
100
AcDbLine
 10
-265.165042945
 20
3.5355339059
 30
0.0
 11
-267.6399166791
 21
6.0104076401
 31
0.0
  0
LINE
  5
415
330
3F3
100
AcDbEntity
  8
0
  6
Continuous
 62
     0
370
     0
100
AcDbLine
 10
-258.0939751331
 20
-3.5355339059
 30
0.0
 11
-255.6191013989
 21
-6.0104076401
 31
0.0
  0
ENDBLK
  5
3F5
330
3F3
100
AcDbEntity
  8
0
100
AcDbBlockEnd
  0
ENDSEC
  0
SECTION
  2
ENTITIES
  0
LINE
  5
14B
330
1F
100
AcDbEntity
  8
0
  6
Continuous
 62
     7
370
    15
100
AcDbLine
 10
266.0624691269
 20
-284.1086430144
 30
0.0
 11
266.0624691269
 21
-130.1086512995
 31
0.0
  0
LINE
  5
14C
330
1F
100
AcDbEntity
  8
0
  6
Continuous
 62
     7
370
    15
100
AcDbLine
 10
266.0624691269
 20
-365.6086368155
 30
0.0
 11
266.0624691269
 21
-345.1086623263
 31
0.0
  0
LINE
  5
14D
330
1F
100
AcDbEntity
  8
0
  6
Continuous
 62
     7
370
    15
100
AcDbLine
 10
-73.9375344493
 20
-345.1086623263
 30
0.0
 11
-73.9375344493
 21
-365.6086368155
 31
0.0
  0
LINE
  5
14E
330
1F
100
AcDbEntity
  8
0
  6
Continuous
 62
     7
370
    15
100
AcDbLine
 10
-73.9375344493
 20
-130.1086512995
 30
0.0
 11
-73.9375344493
 21
-284.1086430144
 31
0.0
  0
LINE
  5
14F
330
1F
100
AcDbEntity
  8
0
  6
Continuous
 62
     7
370
    15
100
AcDbLine
 10
125.0792154095
 20
-73.1316027832
 30
0.0
 11
118.817652481
 21
-72.8469421756
 31
0.0
  0
ARC
  5
150
330
1F
100
AcDbEntity
  8
0
  6
Continuous
 62
     7
370
    15
100
AcDbCircle
 10
197.8286578271
 20
-78.2086482596
 30
0.0
 40
6.600000000000009
100
AcDbArc
 50
78.4950370881
 51
90.0
  0
SPLINE
  5
151
330
1F
100
AcDbEntity
  8
0
  6
Continuous
 62
     7
370
    15
100
AcDbSpline
210
0.0
220
0.0
230
1.0
 70
     8
 71
     3
 72
    12
 73
     8
 74
     0
 42
0.00000001
 43
0.00000001
 12
1.0
 22
0.0
 32
0.0
 13
1.0
 23
0.0
 33
0.0
 40
0.0
 40
0.0
 40
0.0
 40
0.0
 40
0.1381066287138396
 40
0.3943849325913349
 40
0.6281577670352939
 40
0.8580229078146401
 40
1.0
 40
1.0
 40
1.0
 40
1.0
 10
95.998000833659
 20
-74.55329742697732
 30
0.0
 10
96.00456846604489
 20
-74.55532774150089
 30
0.0
 10
96.02332336057756
 20
-74.56112562002403
 30
0.0
 10
95.83085784889738
 20
-74.49210665738329
 30
0.0
 10
95.43447193343812
 20
-74.28235273213154
 30
0.0
 10
94.9446389177194
 20
-73.97115479277207
 30
0.0
 10
94.61616031173847
 20
-73.63869886034803
 30
0.0
 10
94.49074035352007
 20
-73.5117602762367
 30
0.0
  0
SPLINE
  5
152
330
1F
100
AcDbEntity
  8
0
  6
Continuous
 62
     7
370
    15
100
AcDbSpline
210
0.0
220
0.0
230
1.0
 70
     8
 71
     3
 72
    13
 73
     9
 74
     0
 42
0.00000001
 43
0.00000001
 12
1.0
 22
0.0
 32
0.0
 13
1.0
 23
0.0
 33
0.0
 40
0.0
 40
0.0
 40
0.0
 40
0.0
 40
0.1115980877266403
 40
0.3193938316305682
 40
0.5295444030694163
 40
0.7494521680003285
 40
0.9905166305554604
 40
1.0
 40
1.0
 40
1.0
 40
1.0
 10
124.1168015620662
 20
-74.02712997464197
 30
0.0
 10
124.0105514941993
 20
-74.1362609705895
 30
0.0
 10
123.706463700418
 20
-74.44859398323683
 30
0.0
 10
123.2271798307027
 20
-74.7603793358377
 30
0.0
 10
122.7579064814202
 20
-75.01159827698983
 30
0.0
 10
122.4881206179408
 20
-75.11552512260104
 30
0.0
 10
122.3842305914282
 20
-75.14255067204509
 30
0.0
 10
122.4154226482034
 20
-75.13534771725672
 30
0.0
 10
122.4166032842352
 20
-75.13507508156555
 30
0.0
  0
ARC
  5
153
330
1F
100
AcDbEntity
  8
0
  6
Continuous
 62
     7
370
    15
100
AcDbCircle
 10
-75.9375326612
 20
-334.8222642772
 30
0.0
 40
2.0
100
AcDbArc
 50
0.0
 51
28.9550243719
  0
ARC
  5
154
330
1F
100
AcDbEntity
  8
0
  6
Continuous
 62
     7
370
    15
100
AcDbCircle
 10
-75.9375326612
 20
-294.395032242
 30
0.0
 40
2.000000000000013
100
AcDbArc
 50
331.0449756281
 51
0.0
  0
ARC
  5
155
330
1F
100
AcDbEntity
  8
0
  6
Continuous
 62
     7
370
    15
100
AcDbCircle
 10
268.0624673388
 20
-294.395032242
 30
0.0
 40
2.0
100
AcDbArc
 50
180.0
 51
208.9550243719
  0
ARC
  5
156
330
1F
100
AcDbEntity
  8
0
  6
Continuous
 62
     7
370
    15
100
AcDbCircle
 10
268.0624673388
 20
-334.8222642772
 30
0.0
 40
2.0
100
AcDbArc
 50
151.0449756281
 51
180.0
  0
ARC
  5
157
330
1F
100
AcDbEntity
  8
0
  6
Continuous
 62
     7
370
    15
100
AcDbCircle
 10
-72.4375326612
 20
-296.3315239152
 30
0.0
 40
2.0
100
AcDbArc
 50
151.0449756281
 51
180.0
  0
ARC
  5
158
330
1F
100
AcDbEntity
  8
0
  6
Continuous
 62
     7
370
    15
100
AcDbCircle
 10
-72.4375326612
 20
-332.8857726041
 30
0.0
 40
2.000000000000018
100
AcDbArc
 50
180.0
 51
208.9550243719
  0
ARC
  5
159
330
1F
100
AcDbEntity
  8
0
  6
Continuous
 62
     7
370
    15
100
AcDbCircle
 10
264.5624673388
 20
-332.8857726041
 30
0.0
 40
2.000000000000043
100
AcDbArc
 50
331.0449756281
 51
0.0
  0
ARC
  5
15A
330
1F
100
AcDbEntity
  8
0
  6
Continuous
 62
     7
370
    15
100
AcDbCircle
 10
264.5624673388
 20
-296.3315239152
 30
0.0
 40
2.000000000000016
100
AcDbArc
 50
0.0
 51
28.9550243719
  0
LINE
  5
15B
330
1F
100
AcDbEntity
  8
0
  6
Continuous
 62
     7
370
    15
100
AcDbLine
 10
-73.9375344493
 20
156.5580772567
 30
0.0
 11
-73.9375344493
 21
-101.7046166253
 31
0.0
  0
LINE
  5
15C
330
1F
100
AcDbEntity
  8
0
  6
Continuous
 62
     7
370
    15
100
AcDbLine
 10
266.0624691269
 20
-101.7046166253
 30
0.0
 11
266.0624691269
 21
156.5580772567
 31
0.0
  0
ARC
  5
15D
330
1F
100
AcDbEntity
  8
0
  6
Continuous
 62
     7
370
    15
100
AcDbCircle
 10
-48.9375326612
 20
156.5580796028
 30
0.0
 40
25.0
100
AcDbArc
 50
101.2907132618
 51
180.0
  0
ARC
  5
15E
330
1F
100
AcDbEntity
  8
0
  6
Continuous
 62
     7
370
    15
100
AcDbCircle
 10
241.0624673388
 20
156.5580796028
 30
0.0
 40
25.00000000000006
100
AcDbArc
 50
0.0
 51
78.7092867382
  0
ARC
  5
15F
330
1F
100
AcDbEntity
  8
0
  6
Continuous
 62
     7
370
    15
100
AcDbCircle
 10
96.0624673388
 20
-569.7086482596
 30
0.0
 40
765.6
100
AcDbArc
 50
78.7092867382
 51
101.2907132618
  0
ARC
  5
160
330
1F
100
AcDbEntity
  8
0
  6
Continuous
 62
     7
370
    15
100
AcDbCircle
 10
-76.4875326612
 20
-106.947323487
 30
0.0
 40
1.250000000020628
100
AcDbArc
 50
180.0
 51
251.6823015917
  0
ARC
  5
161
330
1F
100
AcDbEntity
  8
0
  6
Continuous
 62
     7
370
    15
100
AcDbCircle
 10
-76.4875326612
 20
-128.8186151467
 30
0.0
 40
1.250000000071532
100
AcDbArc
 50
103.0503049255
 51
180.0
  0
ARC
  5
162
330
1F
100
AcDbEntity
  8
0
  6
Continuous
 62
     7
370
    15
100
AcDbCircle
 10
-76.4875326612
 20
-106.3586482596
 30
0.0
 40
1.250000000026413
100
AcDbArc
 50
101.5369590269
 51
180.0
  0
LINE
  5
163
330
1F
100
AcDbEntity
  8
0
  6
Continuous
 62
     7
370
    15
100
AcDbLine
 10
-77.73753917
 20
-129.9086479139
 30
0.0
 11
-77.5375357845
 21
-130.1086512995
 31
0.0
  0
LINE
  5
164
330
1F
100
AcDbEntity
  8
0
  6
Continuous
 62
     7
370
    15
100
AcDbLine
 10
-77.73753917
 20
-106.3586478722
 30
0.0
 11
-77.73753917
 21
-106.9473219704
 31
0.0
  0
LINE
  5
165
330
1F
100
AcDbEntity
  8
0
  6
Continuous
 62
     7
370
    15
100
AcDbLine
 10
-77.73753917
 20
-128.8186130714
 30
0.0
 11
-77.73753917
 21
-129.9086479139
 31
0.0
  0
ARC
  5
166
330
1F
100
AcDbEntity
  8
0
  6
Continuous
 62
     7
370
    15
100
AcDbCircle
 10
-77.0375326612
 20
-108.6086482596
 30
0.0
 40
0.5000000000000568
100
AcDbArc
 50
0.0
 51
71.6823015817
  0
ARC
  5
167
330
1F
100
AcDbEntity
  8
0
  6
Continuous
 62
     7
370
    15
100
AcDbCircle
 10
-77.4375326612
 20
-101.7046177483
 30
0.0
 40
3.5
100
AcDbArc
 50
281.5369590349
 51
0.0
  0
ARC
  5
168
330
1F
100
AcDbEntity
  8
0
  6
Continuous
 62
     7
370
    15
100
AcDbCircle
 10
-76.8375326612
 20
-127.3086482596
 30
0.0
 40
0.300000000000054
100
AcDbArc
 50
283.0503049986
 51
0.0
  0
LINE
  5
169
330
1F
100
AcDbEntity
  8
0
  6
Continuous
 62
     7
370
    15
100
AcDbLine
 10
-76.5375337579
 20
-108.6086487067
 30
0.0
 11
-76.5375337579
 21
-127.3086486053
 31
0.0
  0
ARC
  5
16A
330
1F
100
AcDbEntity
  8
0
  6
Continuous
 62
     7
370
    15
100
AcDbCircle
 10
268.6124673388
 20
-106.3586482596
 30
0.0
 40
1.250000000026422
100
AcDbArc
 50
0.0
 51
78.4630409731
  0
ARC
  5
16B
330
1F
100
AcDbEntity
  8
0
  6
Continuous
 62
     7
370
    15
100
AcDbCircle
 10
268.6124673388
 20
-128.8186151467
 30
0.0
 40
1.250000000071539
100
AcDbArc
 50
0.0
 51
76.9496950745
  0
ARC
  5
16C
330
1F
100
AcDbEntity
  8
0
  6
Continuous
 62
     7
370
    15
100
AcDbCircle
 10
268.6124673388
 20
-106.947323487
 30
0.0
 40
1.250000000020623
100
AcDbArc
 50
288.3176984083
 51
0.0
  0
LINE
  5
16D
330
1F
100
AcDbEntity
  8
0
  6
Continuous
 62
     7
370
    15
100
AcDbLine
 10
269.6624704621
 20
-130.1086512995
 30
0.0
 11
269.8624738476
 21
-129.9086479139
 31
0.0
  0
LINE
  5
16E
330
1F
100
AcDbEntity
  8
0
  6
Continuous
 62
     7
370
    15
100
AcDbLine
 10
269.8624738476
 20
-129.9086479139
 30
0.0
 11
269.8624738476
 21
-128.8186130714
 31
0.0
  0
LINE
  5
16F
330
1F
100
AcDbEntity
  8
0
  6
Continuous
 62
     7
370
    15
100
AcDbLine
 10
269.8624738476
 20
-106.9473219704
 30
0.0
 11
269.8624738476
 21
-106.3586478722
 31
0.0
  0
ARC
  5
170
330
1F
100
AcDbEntity
  8
0
  6
Continuous
 62
     7
370
    15
100
AcDbCircle
 10
269.5624673388
 20
-101.7046177483
 30
0.0
 40
3.5
100
AcDbArc
 50
180.0
 51
258.4630409651
  0
ARC
  5
171
330
1F
100
AcDbEntity
  8
0
  6
Continuous
 62
     7
370
    15
100
AcDbCircle
 10
269.1624673388
 20
-108.6086482596
 30
0.0
 40
0.5000000000000568
100
AcDbArc
 50
108.3176984183
 51
180.0
  0
ARC
  5
172
330
1F
100
AcDbEntity
  8
0
  6
Continuous
 62
     7
370
    15
100
AcDbCircle
 10
268.9624673388
 20
-127.3086482596
 30
0.0
 40
0.3000000000000114
100
AcDbArc
 50
180.0
 51
256.9496950014
  0
LINE
  5
173
330
1F
100
AcDbEntity
  8
0
  6
Continuous
 62
     7
370
    15
100
AcDbLine
 10
268.6624684355
 20
-127.3086486053
 30
0.0
 11
268.6624684355
 21
-108.6086487067
 31
0.0
  0
LINE
  5
174
330
1F
100
AcDbEntity
  8
0
  6
Continuous
 62
     7
370
    15
100
AcDbLine
 10
237.3160281203
 20
-375.1086337161
 30
0.0
 11
237.3160281203
 21
-375.9086472583
 31
0.0
  0
LINE
  5
175
330
1F
100
AcDbEntity
  8
0
  6
Continuous
 62
     7
370
    15
100
AcDbLine
 10
246.3160314581
 20
-375.9086472583
 30
0.0
 11
246.3160314581
 21
-375.1086337161
 31
0.0
  0
ARC
  5
176
330
1F
100
AcDbEntity
  8
0
  6
Continuous
 62
     7
370
    15
100
AcDbCircle
 10
243.8160259022
 20
-374.0086482596
 30
0.0
 40
2.000000000000057
100
AcDbArc
 50
0.0
 51
42.3072493592
  0
ARC
  5
177
330
1F
100
AcDbEntity
  8
0
  6
Continuous
 62
     7
370
    15
100
AcDbCircle
 10
239.8160259022
 20
-374.0086482596
 30
0.0
 40
2.000000000000057
100
AcDbArc
 50
137.7525973771
 51
180.0
  0
LINE
  5
178
330
1F
100
AcDbEntity
  8
0
  6
Continuous
 62
     7
370
    15
100
AcDbLine
 10
245.8160229943
 20
-375.1086337161
 30
0.0
 11
245.8160229943
 21
-374.0086597991
 31
0.0
  0
LINE
  5
179
330
1F
100
AcDbEntity
  8
0
  6
Continuous
 62
     7
370
    15
100
AcDbLine
 10
237.816021683
 20
-374.0086597991
 30
0.0
 11
237.816021683
 21
-375.1086337161
 31
0.0
  0
LINE
  5
17A
330
1F
100
AcDbEntity
  8
0
  6
Continuous
 62
     7
370
    15
100
AcDbLine
 10
266.5624626896
 20
-310.6086445641
 30
0.0
 11
266.0624691269
 21
-310.6086445641
 31
0.0
  0
LINE
  5
17B
330
1F
100
AcDbEntity
  8
0
  6
Continuous
 62
     7
370
    15
100
AcDbLine
 10
266.0624691269
 20
-318.6086458754
 30
0.0
 11
266.5624626896
 21
-318.6086458754
 31
0.0
  0
LINE
  5
17C
330
1F
100
AcDbEntity
  8
0
  6
Continuous
 62
     7
370
    15
100
AcDbLine
 10
-74.437528012
 20
-318.6086458754
 30
0.0
 11
-73.9375344493
 21
-318.6086458754
 31
0.0
  0
LINE
  5
17D
330
1F
100
AcDbEntity
  8
0
  6
Continuous
 62
     7
370
    15
100
AcDbLine
 10
-73.9375344493
 20
-310.6086445641
 30
0.0
 11
-74.437528012
 21
-310.6086445641
 31
0.0
  0
LINE
  5
17E
330
1F
100
AcDbEntity
  8
0
  6
Continuous
 62
     7
370
    15
100
AcDbLine
 10
-74.437528012
 20
-291.1086422992
 30
0.0
 11
-77.6375374773
 21
-291.1086422992
 31
0.0
  0
LINE
  5
17F
330
1F
100
AcDbEntity
  8
0
  6
Continuous
 62
     7
370
    15
100
AcDbLine
 10
-77.6375374773
 20
-338.1086630416
 30
0.0
 11
-74.437528012
 21
-338.1086630416
 31
0.0
  0
LINE
  5
180
330
1F
100
AcDbEntity
  8
0
  6
Continuous
 62
     7
370
    15
100
AcDbLine
 10
269.7624721549
 20
-291.1086422992
 30
0.0
 11
266.5624626896
 21
-291.1086422992
 31
0.0
  0
LINE
  5
181
330
1F
100
AcDbEntity
  8
0
  6
Continuous
 62
     7
370
    15
100
AcDbLine
 10
266.5624626896
 20
-338.1086630416
 30
0.0
 11
269.7624721549
 21
-338.1086630416
 31
0.0
  0
LINE
  5
182
330
1F
100
AcDbEntity
  8
0
  6
Continuous
 62
     7
370
    15
100
AcDbLine
 10
274.5731183312
 20
-298.6086500478
 30
0.0
 11
269.7624721549
 21
-298.6086500478
 31
0.0
  0
LINE
  5
183
330
1F
100
AcDbEntity
  8
0
  6
Continuous
 62
     7
370
    15
100
AcDbLine
 10
269.7624721549
 20
-330.6086403918
 30
0.0
 11
274.5731183312
 21
-330.6086403918
 31
0.0
  0
ARC
  5
184
330
1F
100
AcDbEntity
  8
0
  6
Continuous
 62
     7
370
    15
100
AcDbCircle
 10
281.2624673388
 20
-318.7121818402
 30
0.0
 40
1.0
100
AcDbArc
 50
270.0
 51
0.0
  0
LINE
  5
185
330
1F
100
AcDbEntity
  8
0
  6
Continuous
 62
     7
370
    15
100
AcDbLine
 10
276.7624714396
 20
-319.7121960711
 30
0.0
 11
281.2624731085
 21
-319.7121960711
 31
0.0
  0
LINE
  5
186
330
1F
100
AcDbEntity
  8
0
  6
Continuous
 62
     7
370
    15
100
AcDbLine
 10
281.2624731085
 20
-298.6405385327
 30
0.0
 11
276.2624629757
 21
-298.6405385327
 31
0.0
  0
LINE
  5
187
330
1F
100
AcDbEntity
  8
0
  6
Continuous
 62
     7
370
    15
100
AcDbLine
 10
276.2624629757
 20
-330.5767519069
 30
0.0
 11
281.2624731085
 21
-330.5767519069
 31
0.0
  0
ARC
  5
188
330
1F
100
AcDbEntity
  8
0
  6
Continuous
 62
     7
370
    15
100
AcDbCircle
 10
281.2624673388
 20
-329.5767520942
 30
0.0
 40
1.0
100
AcDbArc
 50
270.0
 51
0.0
  0
LINE
  5
189
330
1F
100
AcDbEntity
  8
0
  6
Continuous
 62
     7
370
    15
100
AcDbLine
 10
-74.437528012
 20
-291.1086422992
 30
0.0
 11
-77.6375374773
 21
-291.1086422992
 31
0.0
  0
LINE
  5
18A
330
1F
100
AcDbEntity
  8
0
  6
Continuous
 62
     7
370
    15
100
AcDbLine
 10
-77.6375374773
 20
-338.1086630416
 30
0.0
 11
-74.437528012
 21
-338.1086630416
 31
0.0
  0
LINE
  5
18B
330
1F
100
AcDbEntity
  8
0
  6
Continuous
 62
     7
370
    15
100
AcDbLine
 10
273.0727502129
 20
-390.1086492133
 30
0.0
 11
273.0727502129
 21
-388.1086451602
 31
0.0
  0
LINE
  5
18C
330
1F
100
AcDbEntity
  8
0
  6
Continuous
 62
     7
370
    15
100
AcDbLine
 10
-80.9478155353
 20
-388.1086451602
 30
0.0
 11
-80.9478155353
 21
-390.1086492133
 31
0.0
  0
ARC
  5
18D
330
1F
100
AcDbEntity
  8
0
  6
Continuous
 62
     7
370
    15
100
AcDbCircle
 10
272.0727517569
 20
-386.1086482596
 30
0.0
 40
2.0
100
AcDbArc
 50
180.0
 51
270.0
  0
ARC
  5
18E
330
1F
100
AcDbEntity
  8
0
  6
Continuous
 62
     7
370
    15
100
AcDbCircle
 10
-79.9478170793
 20
-386.1086482596
 30
0.0
 40
2.0
100
AcDbArc
 50
270.0
 51
0.0
  0
LINE
  5
18F
330
1F
100
AcDbEntity
  8
0
  6
Continuous
 62
     7
370
    15
100
AcDbLine
 10
270.0727590344
 20
-386.1086411071
 30
0.0
 11
270.0727590344
 21
-368.9506394458
 31
0.0
  0
LINE
  5
190
330
1F
100
AcDbEntity
  8
0
  6
Continuous
 62
     7
370
    15
100
AcDbLine
 10
-77.9478243568
 20
-368.9506394458
 30
0.0
 11
-77.9478243568
 21
-386.1086411071
 31
0.0
  0
SPLINE
  5
191
330
1F
100
AcDbEntity
  8
0
  6
Continuous
 62
     7
370
    15
100
AcDbSpline
210
0.0
220
0.0
230
1.0
 70
     8
 71
     3
 72
    11
 73
     7
 74
     0
 42
0.00000001
 43
0.00000001
 12
1.0
 22
0.0
 32
0.0
 13
1.0
 23
0.0
 33
0.0
 40
0.0
 40
0.0
 40
0.0
 40
0.0
 40
0.2407142534914086
 40
0.5283151594948723
 40
0.8222013817658925
 40
1.0
 40
1.0
 40
1.0
 40
1.0
 10
270.0622239134265
 20
-368.9512950968529
 30
0.0
 10
270.0483577009856
 20
-368.6585984522998
 30
0.0
 10
270.0179243962225
 20
-368.0161933092397
 30
0.0
 10
269.6499168779116
 20
-367.0776108306733
 30
0.0
 10
269.1385549210598
 20
-366.2927213440966
 30
0.0
 10
268.6806298571823
 20
-365.9471979192996
 30
0.0
 10
268.508017899747
 20
-365.8169550490166
 30
0.0
  0
SPLINE
  5
192
330
1F
100
AcDbEntity
  8
0
  6
Continuous
 62
     7
370
    15
100
AcDbSpline
210
0.0
220
0.0
230
1.0
 70
     8
 71
     3
 72
    11
 73
     7
 74
     0
 42
0.00000001
 43
0.00000001
 12
1.0
 22
0.0
 32
0.0
 13
1.0
 23
0.0
 33
0.0
 40
0.0
 40
0.0
 40
0.0
 40
0.0
 40
0.2528255458472302
 40
0.5672549493448749
 40
0.8387068489786621
 40
0.9999999999999999
 40
0.9999999999999999
 40
0.9999999999999999
 40
0.9999999999999999
 10
-76.3954809882687
 20
-365.8044678759362
 30
0.0
 10
-76.62954634809435
 20
-366.0042219158703
 30
0.0
 10
-77.15470978989117
 20
-366.4524023694102
 30
0.0
 10
-77.65817138477344
 20
-367.3544170302649
 30
0.0
 10
-77.92715639206548
 20
-368.2302237323041
 30
0.0
 10
-77.92683077550464
 20
-368.7555316335544
 30
0.0
 10
-77.9267094113873
 20
-368.9513248991753
 30
0.0
  0
ARC
  5
193
330
1F
100
AcDbEntity
  8
0
  6
Continuous
 62
     7
370
    15
100
AcDbCircle
 10
267.9515201338
 20
-366.6086482596
 30
0.0
 40
1.0
100
AcDbArc
 50
54.9410027925
 51
89.9999999962
  0
ARC
  5
194
330
1F
100
AcDbEntity
  8
0
  6
Continuous
 62
     7
370
    15
100
AcDbCircle
 10
-75.8265854562
 20
-366.6086482596
 30
0.0
 40
1.000000000000014
100
AcDbArc
 50
90.0000000038
 51
124.9407088748
  0
LINE
  5
195
330
1F
100
AcDbEntity
  8
0
  6
Continuous
 62
     7
370
    15
100
AcDbLine
 10
94.3305640466
 20
-12.8516299319
 30
0.0
 11
85.8305635846
 21
-7.9441522848
 31
0.0
  0
LINE
  5
196
330
1F
100
AcDbEntity
  8
0
  6
Continuous
 62
     7
370
    15
100
AcDbLine
 10
85.8305635846
 20
-27.5740591478
 30
0.0
 11
94.3305640466
 21
-22.6665815007
 31
0.0
  0
LINE
  5
197
330
1F
100
AcDbEntity
  8
0
  6
Continuous
 62
     7
370
    15
100
AcDbLine
 10
77.330564054
 20
-22.6665815007
 30
0.0
 11
85.8305635846
 21
-27.5740591478
 31
0.0
  0
LINE
  5
198
330
1F
100
AcDbEntity
  8
0
  6
Continuous
 62
     7
370
    15
100
AcDbLine
 10
94.3305640466
 20
-22.6665815007
 30
0.0
 11
94.3305640466
 21
-12.8516299319
 31
0.0
  0
LINE
  5
199
330
1F
100
AcDbEntity
  8
0
  6
Continuous
 62
     7
370
    15
100
AcDbLine
 10
85.8305635846
 20
-7.9441522848
 30
0.0
 11
77.330564054
 21
-12.8516299319
 31
0.0
  0
LINE
  5
19A
330
1F
100
AcDbEntity
  8
0
  6
Continuous
 62
     7
370
    15
100
AcDbLine
 10
77.330564054
 20
-12.8516299319
 30
0.0
 11
77.330564054
 21
-22.6665815007
 31
0.0
  0
LINE
  5
19B
330
1F
100
AcDbEntity
  8
0
  6
Continuous
 62
     7
370
    15
100
AcDbLine
 10
120.2943705938
 20
77.3567663837
 30
0.0
 11
111.7943701318
 21
72.4492924619
 31
0.0
  0
LINE
  5
19C
330
1F
100
AcDbEntity
  8
0
  6
Continuous
 62
     7
370
    15
100
AcDbLine
 10
111.7943701318
 20
72.4492924619
 30
0.0
 11
111.7943701318
 21
62.6343297172
 31
0.0
  0
LINE
  5
19D
330
1F
100
AcDbEntity
  8
0
  6
Continuous
 62
     7
370
    15
100
AcDbLine
 10
120.2943705938
 20
57.7268557954
 30
0.0
 11
128.7943691931
 21
62.6343297172
 31
0.0
  0
LINE
  5
19E
330
1F
100
AcDbEntity
  8
0
  6
Continuous
 62
     7
370
    15
100
AcDbLine
 10
128.7943691931
 20
72.4492924619
 30
0.0
 11
120.2943705938
 21
77.3567663837
 31
0.0
  0
LINE
  5
19F
330
1F
100
AcDbEntity
  8
0
  6
Continuous
 62
     7
370
    15
100
AcDbLine
 10
128.7943691931
 20
62.6343297172
 30
0.0
 11
128.7943691931
 21
72.4492924619
 31
0.0
  0
LINE
  5
1A0
330
1F
100
AcDbEntity
  8
0
  6
Continuous
 62
     7
370
    15
100
AcDbLine
 10
111.7943701318
 20
62.6343297172
 30
0.0
 11
120.2943705938
 21
57.7268557954
 31
0.0
  0
LINE
  5
1A1
330
1F
100
AcDbEntity
  8
0
  6
Continuous
 62
     7
370
    15
100
AcDbLine
 10
178.4012549541
 20
-1.9417075109
 30
0.0
 11
169.9012526295
 21
-6.8491814327
 31
0.0
  0
LINE
  5
1A2
330
1F
100
AcDbEntity
  8
0
  6
Continuous
 62
     7
370
    15
100
AcDbLine
 10
186.9012498281
 20
-6.8491814327
 30
0.0
 11
178.4012549541
 21
-1.9417075109
 31
0.0
  0
LINE
  5
1A3
330
1F
100
AcDbEntity
  8
0
  6
Continuous
 62
     7
370
    15
100
AcDbLine
 10
186.9012498281
 20
-16.6641367268
 30
0.0
 11
186.9012498281
 21
-6.8491814327
 31
0.0
  0
LINE
  5
1A4
330
1F
100
AcDbEntity
  8
0
  6
Continuous
 62
     7
370
    15
100
AcDbLine
 10
178.4012549541
 20
-21.5716143739
 30
0.0
 11
186.9012498281
 21
-16.6641367268
 31
0.0
  0
LINE
  5
1A5
330
1F
100
AcDbEntity
  8
0
  6
Continuous
 62
     7
370
    15
100
AcDbLine
 10
169.9012526295
 20
-16.6641367268
 30
0.0
 11
178.4012549541
 21
-21.5716143739
 31
0.0
  0
LINE
  5
1A6
330
1F
100
AcDbEntity
  8
0
  6
Continuous
 62
     7
370
    15
100
AcDbLine
 10
169.9012526295
 20
-6.8491814327
 30
0.0
 11
169.9012526295
 21
-16.6641367268
 31
0.0
  0
LINE
  5
1A7
330
1F
100
AcDbEntity
  8
0
  6
Continuous
 62
     7
370
    15
100
AcDbLine
 10
151.7236799917
 20
51.7244072962
 30
0.0
 11
160.223678591
 21
56.6318886686
 31
0.0
  0
LINE
  5
1A8
330
1F
100
AcDbEntity
  8
0
  6
Continuous
 62
     7
370
    15
100
AcDbLine
 10
160.223678591
 20
66.4468365121
 30
0.0
 11
151.7236799917
 21
71.354325335
 31
0.0
  0
LINE
  5
1A9
330
1F
100
AcDbEntity
  8
0
  6
Continuous
 62
     7
370
    15
100
AcDbLine
 10
151.7236799917
 20
71.354325335
 30
0.0
 11
143.2236813924
 21
66.4468365121
 31
0.0
  0
LINE
  5
1AA
330
1F
100
AcDbEntity
  8
0
  6
Continuous
 62
     7
370
    15
100
AcDbLine
 10
160.223678591
 20
56.6318886686
 30
0.0
 11
160.223678591
 21
66.4468365121
 31
0.0
  0
LINE
  5
1AB
330
1F
100
AcDbEntity
  8
0
  6
Continuous
 62
     7
370
    15
100
AcDbLine
 10
143.2236813924
 20
66.4468365121
 30
0.0
 11
143.2236813924
 21
56.6318886686
 31
0.0
  0
LINE
  5
1AC
330
1F
100
AcDbEntity
  8
0
  6
Continuous
 62
     7
370
    15
100
AcDbLine
 10
143.2236813924
 20
56.6318886686
 30
0.0
 11
151.7236799917
 21
51.7244072962
 31
0.0
  0
LINE
  5
1AD
330
1F
100
AcDbEntity
  8
0
  6
Continuous
 62
     7
370
    15
100
AcDbLine
 10
175.1873576066
 20
-37.4185857963
 30
0.0
 11
166.6873627326
 21
-42.3260634434
 31
0.0
  0
LINE
  5
1AE
330
1F
100
AcDbEntity
  8
0
  6
Continuous
 62
     7
370
    15
100
AcDbLine
 10
166.6873627326
 20
-42.3260634434
 30
0.0
 11
166.6873627326
 21
-52.1410168749
 31
0.0
  0
LINE
  5
1AF
330
1F
100
AcDbEntity
  8
0
  6
Continuous
 62
     7
370
    15
100
AcDbLine
 10
166.6873627326
 20
-52.1410168749
 30
0.0
 11
175.1873576066
 21
-57.048494522
 31
0.0
  0
LINE
  5
1B0
330
1F
100
AcDbEntity
  8
0
  6
Continuous
 62
     7
370
    15
100
AcDbLine
 10
175.1873576066
 20
-57.048494522
 30
0.0
 11
183.6873599312
 21
-52.1410168749
 31
0.0
  0
LINE
  5
1B1
330
1F
100
AcDbEntity
  8
0
  6
Continuous
 62
     7
370
    15
100
AcDbLine
 10
183.6873599312
 20
-42.3260634434
 30
0.0
 11
175.1873576066
 21
-37.4185857963
 31
0.0
  0
LINE
  5
1B2
330
1F
100
AcDbEntity
  8
0
  6
Continuous
 62
     7
370
    15
100
AcDbLine
 10
183.6873599312
 20
-52.1410168749
 30
0.0
 11
183.6873599312
 21
-42.3260634434
 31
0.0
  0
CIRCLE
  5
1B3
330
1F
100
AcDbEntity
  8
0
  6
Continuous
 62
     7
370
    15
100
AcDbCircle
 10
165.0624673388
 20
24.8913517404
 30
0.0
 40
26.5
  0
CIRCLE
  5
1B4
330
1F
100
AcDbEntity
  8
0
  6
Continuous
 62
     7
370
    15
100
AcDbCircle
 10
165.0624673388
 20
24.8913517404
 30
0.0
 40
19.50000000000004
  0
CIRCLE
  5
1B5
330
1F
100
AcDbEntity
  8
0
  6
Continuous
 62
     7
370
    15
100
AcDbCircle
 10
165.0624673388
 20
24.8913517404
 30
0.0
 40
17.5
  0
SPLINE
  5
1B6
330
1F
100
AcDbEntity
  8
0
  6
Continuous
 62
     7
370
    15
100
AcDbSpline
210
0.0
220
0.0
230
1.0
 70
     8
 71
     3
 72
    11
 73
     7
 74
     0
 42
0.00000001
 43
0.00000001
 12
1.0
 22
0.0
 32
0.0
 13
1.0
 23
0.0
 33
0.0
 40
0.0
 40
0.0
 40
0.0
 40
0.0
 40
0.626134233220994
 40
0.7964204911980335
 40
0.9348659923067302
 40
1.0
 40
1.0
 40
1.0
 40
1.0
 10
176.7809697411014
 20
-21.92399330852286
 30
0.0
 10
176.4624958026046
 20
-22.04544192357679
 30
0.0
 10
176.0574082717302
 20
-22.19992024551584
 30
0.0
 10
175.6743076891959
 20
-22.51064876900405
 30
0.0
 10
175.5576661794977
 20
-22.66464427297858
 30
0.0
 10
175.5282070500369
 20
-22.75686047891651
 30
0.0
 10
175.5187817833377
 20
-22.78636448500411
 30
0.0
  0
SPLINE
  5
1B7
330
1F
100
AcDbEntity
  8
0
  6
Continuous
 62
     7
370
    15
100
AcDbSpline
210
0.0
220
0.0
230
1.0
 70
     8
 71
     3
 72
    12
 73
     8
 74
     0
 42
0.00000001
 43
0.00000001
 12
1.0
 22
0.0
 32
0.0
 13
1.0
 23
0.0
 33
0.0
 40
0.0
 40
0.0
 40
0.0
 40
0.0
 40
0.3168960380037335
 40
0.6337021243822748
 40
0.952682450538787
 40
0.9918104899681135
 40
1.0
 40
1.0
 40
1.0
 40
1.0
 10
175.5187817833377
 20
-22.78636448500411
 30
0.0
 10
175.4696764218878
 20
-22.96758020567631
 30
0.0
 10
175.3714796376508
 20
-23.32996020854676
 30
0.0
 10
175.2235154553506
 20
-23.66718288221359
 30
0.0
 10
175.133493308271
 20
-23.76136641878691
 30
0.0
 10
175.0923154265306
 20
-23.76273547087303
 30
0.0
 10
175.0871285905909
 20
-23.76203177354229
 30
0.0
 10
175.0862308762027
 20
-23.76190998075263
 30
0.0
  0
ARC
  5
1B8
330
1F
100
AcDbEntity
  8
0
  6
Continuous
 62
     7
370
    15
100
AcDbCircle
 10
177.3751924985
 20
-8.9375826079
 30
0.0
 40
14.99999999999999
100
AcDbArc
 50
220.3175076348
 51
261.2225308299
  0
LINE
  5
1B9
330
1F
100
AcDbEntity
  8
0
  6
Continuous
 62
     7
370
    15
100
AcDbLine
 10
176.7809697411
 20
-21.9239933085
 30
0.0
 11
178.149104955
 21
-21.4260374796
 31
0.0
  0
LINE
  5
1BA
330
1F
100
AcDbEntity
  8
0
  6
Continuous
 62
     7
370
    15
100
AcDbLine
 10
179.5136117361
 20
-20.9293966782
 30
0.0
 11
186.1778953097
 21
-18.5037931096
 31
0.0
  0
SPLINE
  5
1BB
330
1F
100
AcDbEntity
  8
0
  6
Continuous
 62
     7
370
    15
100
AcDbSpline
210
0.0
220
0.0
230
1.0
 70
     8
 71
     3
 72
    11
 73
     7
 74
     0
 42
0.00000001
 43
0.00000001
 12
1.0
 22
0.0
 32
0.0
 13
1.0
 23
0.0
 33
0.0
 40
0.0
 40
0.0
 40
0.0
 40
0.0
 40
0.1429671095850814
 40
0.3308107896027663
 40
0.8051832936856836
 40
1.0
 40
1.0
 40
1.0
 40
1.0
 10
187.6991101524784
 20
-18.35308649060981
 30
0.0
 10
187.6375983855376
 20
-18.32065567020057
 30
0.0
 10
187.4952666544799
 20
-18.24561417752313
 30
0.0
 10
187.0628985776653
 20
-18.23675137790419
 30
0.0
 10
186.6145597927137
 20
-18.3504427503155
 30
0.0
 10
186.276354746942
 20
-18.46921555485499
 30
0.0
 10
186.177895309682
 20
-18.50379310963408
 30
0.0
  0
SPLINE
  5
1BC
330
1F
100
AcDbEntity
  8
0
  6
Continuous
 62
     7
370
    15
100
AcDbSpline
210
0.0
220
0.0
230
1.0
 70
     8
 71
     3
 72
    12
 73
     8
 74
     0
 42
0.00000001
 43
0.00000001
 12
1.0
 22
0.0
 32
0.0
 13
1.0
 23
0.0
 33
0.0
 40
0.0
 40
0.0
 40
0.0
 40
0.0
 40
0.0081895386540041
 40
0.0473172774054426
 40
0.3662970751867798
 40
0.6831071702930864
 40
1.0
 40
1.0
 40
1.0
 40
1.0
 10
155.0387003443195
 20
73.54461721660836
 30
0.0
 10
155.0378026066876
 20
73.54474036171415
 30
0.0
 10
155.0326156844003
 20
73.54545186591223
 30
0.0
 10
154.9914550267206
 20
73.54405766155298
 30
0.0
 10
154.9014207281045
 20
73.44990515344122
 30
0.0
 10
154.7534511968772
 20
73.11265331288683
 30
0.0
 10
154.6552567806112
 20
72.75027887156253
 30
0.0
 10
154.6061531624748
 20
72.56906799556954
 30
0.0
  0
ARC
  5
1BD
330
1F
100
AcDbEntity
  8
0
  6
Continuous
 62
     7
370
    15
100
AcDbCircle
 10
152.7497421791
 20
58.7202860887
 30
0.0
 40
14.99999999999999
100
AcDbArc
 50
40.3175076348
 51
81.2225308299
  0
SPLINE
  5
1BE
330
1F
100
AcDbEntity
  8
0
  6
Continuous
 62
     7
370
    15
100
AcDbSpline
210
0.0
220
0.0
230
1.0
 70
     8
 71
     3
 72
    11
 73
     7
 74
     0
 42
0.00000001
 43
0.00000001
 12
1.0
 22
0.0
 32
0.0
 13
1.0
 23
0.0
 33
0.0
 40
0.0
 40
0.0
 40
0.0
 40
0.0
 40
0.6261321703185162
 40
0.7964222442092782
 40
0.9348629269489708
 40
0.9999999999999999
 40
0.9999999999999999
 40
0.9999999999999999
 40
0.9999999999999999
 10
153.3439652047111
 20
71.706693093798
 30
0.0
 10
153.6624481292571
 20
71.82813066934678
 30
0.0
 10
154.0675493164077
 20
71.98259579833179
 30
0.0
 10
154.4506116164179
 20
72.29336437717188
 30
0.0
 10
154.5672790824674
 20
72.4473402387348
 30
0.0
 10
154.5967299988922
 20
72.53956091617441
 30
0.0
 10
154.6061531624748
 20
72.56906799556954
 30
0.0
  0
SPLINE
  5
1BF
330
1F
100
AcDbEntity
  8
0
  6
Continuous
 62
     7
370
    15
100
AcDbSpline
210
0.0
220
0.0
230
1.0
 70
     8
 71
     3
 72
    11
 73
     7
 74
     0
 42
0.00000001
 43
0.00000001
 12
1.0
 22
0.0
 32
0.0
 13
1.0
 23
0.0
 33
0.0
 40
0.0
 40
0.0
 40
0.0
 40
0.0
 40
0.1429714369971554
 40
0.3308146039717975
 40
0.80518711922049
 40
1.0
 40
1.0
 40
1.0
 40
1.0
 10
142.4258247933342
 20
68.13579372646556
 30
0.0
 10
142.4873374925921
 20
68.10335781938613
 30
0.0
 10
142.6296687139301
 20
68.02830596301314
 30
0.0
 10
143.0620414958875
 20
68.01946470721666
 30
0.0
 10
143.5103779258006
 20
68.13314459062818
 30
0.0
 10
143.8485790015333
 20
68.2519248326899
 30
0.0
 10
143.9470359108402
 20
68.28650407078011
 30
0.0
  0
LINE
  5
1C0
330
1F
100
AcDbEntity
  8
0
  6
Continuous
 62
     7
370
    15
100
AcDbLine
 10
143.9470359108
 20
68.2865040708
 30
0.0
 11
150.611326935
 21
70.7121001888
 31
0.0
  0
LINE
  5
1C1
330
1F
100
AcDbEntity
  8
0
  6
Continuous
 62
     7
370
    15
100
AcDbLine
 10
151.9758337161
 20
71.2087409902
 30
0.0
 11
153.3439652047
 21
71.7066930938
 31
0.0
  0
ARC
  5
1C2
330
1F
100
AcDbEntity
  8
0
  6
Continuous
 62
     7
370
    15
100
AcDbCircle
 10
177.3751924985
 20
-8.9375826079
 30
0.0
 40
15.00000000000001
100
AcDbArc
 50
318.7774691702
 51
359.6824923652
  0
SPLINE
  5
1C3
330
1F
100
AcDbEntity
  8
0
  6
Continuous
 62
     7
370
    15
100
AcDbSpline
210
0.0
220
0.0
230
1.0
 70
     8
 71
     3
 72
    12
 73
     8
 74
     0
 42
0.00000001
 43
0.00000001
 12
1.0
 22
0.0
 32
0.0
 13
1.0
 23
0.0
 33
0.0
 40
0.0
 40
0.0
 40
0.0
 40
0.0
 40
0.3168961998640498
 40
0.6337028970705119
 40
0.9526828077991516
 40
0.9918105367391031
 40
1.0
 40
1.0
 40
1.0
 40
1.0
 10
187.6991101524784
 20
-18.35308649060981
 30
0.0
 10
187.8532103253093
 20
-18.46034270541626
 30
0.0
 10
188.1613671476501
 20
-18.67482484209328
 30
0.0
 10
188.49147732392
 20
-18.83803416283945
 30
0.0
 10
188.6209971084076
 20
-18.85232712135808
 30
0.0
 10
188.6534009795866
 20
-18.82690391971399
 30
0.0
 10
188.6569212201049
 20
-18.82303152714292
 30
0.0
 10
188.6575304887249
 20
-18.82236130950706
 30
0.0
  0
ARC
  5
1C4
330
1F
100
AcDbEntity
  8
0
  6
Continuous
 62
     7
370
    15
100
AcDbCircle
 10
152.7497421791
 20
58.7202860887
 30
0.0
 40
15.00000000000004
100
AcDbArc
 50
138.7774691701
 51
179.6824923652
  0
SPLINE
  5
1C5
330
1F
100
AcDbEntity
  8
0
  6
Continuous
 62
     7
370
    15
100
AcDbSpline
210
0.0
220
0.0
230
1.0
 70
     8
 71
     3
 72
    12
 73
     8
 74
     0
 42
0.00000001
 43
0.00000001
 12
1.0
 22
0.0
 32
0.0
 13
1.0
 23
0.0
 33
0.0
 40
0.0
 40
0.0
 40
0.0
 40
0.0
 40
0.0081896602732746
 40
0.0473177673792274
 40
0.3662971039738923
 40
0.6831050018716014
 40
1.0
 40
1.0
 40
1.0
 40
1.0
 10
141.4674044570877
 20
68.60506109478219
 30
0.0
 10
141.4680137000794
 20
68.60573263950339
 30
0.0
 10
141.4715337506311
 20
68.60961265355057
 30
0.0
 10
141.5039555033207
 20
68.63502850750298
 30
0.0
 10
141.6334496635549
 20
68.62075002856493
 30
0.0
 10
141.9635737714926
 20
68.457530920936
 30
0.0
 10
142.271727001195
 20
68.24304928453746
 30
0.0
 10
142.4258247933342
 20
68.13579372646554
 30
0.0
  0
LINE
  5
1C6
330
1F
100
AcDbEntity
  8
0
  6
Continuous
 62
     7
370
    15
100
AcDbLine
 10
165.9381323478
 20
-18.6429252517
 30
0.0
 11
148.7602711639
 21
1.5999706793
 31
0.0
  0
LINE
  5
1C7
330
1F
100
AcDbEntity
  8
0
  6
Continuous
 62
     7
370
    15
100
AcDbLine
 10
164.1867988727
 20
68.4256213117
 30
0.0
 11
181.3646637819
 21
48.182729106
 31
0.0
  0
ARC
  5
1C8
330
1F
100
AcDbEntity
  8
0
  6
Continuous
 62
     7
370
    15
100
AcDbCircle
 10
165.0624673388
 20
24.8913517404
 30
0.0
 40
27.50000000000001
100
AcDbArc
 50
179.6824923652
 51
220.3175076348
  0
SPLINE
  5
1C9
330
1F
100
AcDbEntity
  8
0
  6
Continuous
 62
     7
370
    15
100
AcDbSpline
210
0.0
220
0.0
230
1.0
 70
     8
 71
     3
 72
    10
 73
     6
 74
     0
 42
0.00000001
 43
0.00000001
 12
1.0
 22
0.0
 32
0.0
 13
1.0
 23
0.0
 33
0.0
 40
0.0
 40
0.0
 40
0.0
 40
0.0
 40
0.1744700070591539
 40
0.698439493542736
 40
0.9999999999999999
 40
0.9999999999999999
 40
0.9999999999999999
 40
0.9999999999999999
 10
137.5628904423668
 20
25.04374406816705
 30
0.0
 10
137.5652167622504
 20
25.46347747401895
 30
0.0
 10
137.5745295014926
 20
27.14375703809767
 30
0.0
 10
137.5878289301704
 20
29.54405038253229
 30
0.0
 10
137.5988322084744
 20
31.52947441416073
 30
0.0
 10
137.6028516313984
 20
32.2547363448356
 30
0.0
  0
LINE
  5
1CA
330
1F
100
AcDbEntity
  8
0
  6
Continuous
 62
     7
370
    15
100
AcDbLine
 10
137.6028516314
 20
32.2547363448
 30
0.0
 11
137.7499707959
 21
58.8034125376
 31
0.0
  0
ARC
  5
1CB
330
1F
100
AcDbEntity
  8
0
  6
Continuous
 62
     7
370
    15
100
AcDbCircle
 10
165.0624673388
 20
24.8913517404
 30
0.0
 40
27.50000000000003
100
AcDbArc
 50
359.6824923652
 51
40.3175076348
  0
SPLINE
  5
1CC
330
1F
100
AcDbEntity
  8
0
  6
Continuous
 62
     7
370
    15
100
AcDbSpline
210
0.0
220
0.0
230
1.0
 70
     8
 71
     3
 72
    10
 73
     6
 74
     0
 42
0.00000001
 43
0.00000001
 12
1.0
 22
0.0
 32
0.0
 13
1.0
 23
0.0
 33
0.0
 40
0.0
 40
0.0
 40
0.0
 40
0.0
 40
0.3015600955780046
 40
0.8255297624213126
 40
1.0
 40
1.0
 40
1.0
 40
1.0
 10
181.3646637818767
 20
48.1827291059707
 30
0.0
 10
181.8339317972859
 20
47.62973103445233
 30
0.0
 10
183.1185669958858
 20
46.11588230813128
 30
0.0
 10
184.6716400966282
 20
44.28570575355044
 30
0.0
 10
185.7588308862085
 20
43.00451712389229
 30
0.0
 10
186.0304110667659
 20
42.684476296923
 30
0.0
  0
LINE
  5
1CD
330
1F
100
AcDbEntity
  8
0
  6
Continuous
 62
     7
370
    15
100
AcDbLine
 10
192.5220870397
 20
17.527970891
 30
0.0
 11
192.3749604247
 21
-9.0207053017
 31
0.0
  0
SPLINE
  5
1CE
330
1F
100
AcDbEntity
  8
0
  6
Continuous
 62
     7
370
    15
100
AcDbSpline
210
0.0
220
0.0
230
1.0
 70
     8
 71
     3
 72
    10
 73
     6
 74
     0
 42
0.00000001
 43
0.00000001
 12
1.0
 22
0.0
 32
0.0
 13
1.0
 23
0.0
 33
0.0
 40
0.0
 40
0.0
 40
0.0
 40
0.0
 40
0.3015608823729856
 40
0.825530215576084
 40
1.0
 40
1.0
 40
1.0
 40
1.0
 10
148.7602711639358
 20
1.599970679304438
 30
0.0
 10
148.2910030214162
 20
2.152971128411077
 30
0.0
 10
147.0063701213904
 20
3.666823244681316
 30
0.0
 10
145.4533041065846
 20
5.497005800996393
 30
0.0
 10
144.3661055902894
 20
6.77818539036465
 30
0.0
 10
144.0945238790466
 20
7.098223488352137
 30
0.0
  0
SPLINE
  5
1CF
330
1F
100
AcDbEntity
  8
0
  6
Continuous
 62
     7
370
    15
100
AcDbSpline
210
0.0
220
0.0
230
1.0
 70
     8
 71
     3
 72
    10
 73
     6
 74
     0
 42
0.00000001
 43
0.00000001
 12
1.0
 22
0.0
 32
0.0
 13
1.0
 23
0.0
 33
0.0
 40
0.0
 40
0.0
 40
0.0
 40
0.0
 40
0.1744700046982807
 40
0.6984394926803252
 40
1.0
 40
1.0
 40
1.0
 40
1.0
 10
192.5620445034458
 20
24.7389631676887
 30
0.0
 10
192.5597196013736
 20
24.31922976086379
 30
0.0
 10
192.5504125378089
 20
22.6389501722276
 30
0.0
 10
192.537109117103
 20
20.23865685678056
 30
0.0
 10
192.5261062957188
 20
18.25323282261998
 30
0.0
 10
192.5220870397045
 20
17.52797089102014
 30
0.0
  0
ARC
  5
1D0
330
1F
100
AcDbEntity
  8
0
  6
Continuous
 62
     7
370
    15
100
AcDbCircle
 10
177.3751924985
 20
-8.9375826079
 30
0.0
 40
14.99999999999999
100
AcDbArc
 50
261.2225308299
 51
318.7774691702
  0
ARC
  5
1D1
330
1F
100
AcDbEntity
  8
0
  6
Continuous
 62
     7
370
    15
100
AcDbCircle
 10
152.7497421791
 20
58.7202860887
 30
0.0
 40
15.00000000000001
100
AcDbArc
 50
81.2225308299
 51
138.7774691701
  0
CIRCLE
  5
1D2
330
1F
100
AcDbEntity
  8
0
  6
Continuous
 62
     7
370
    15
100
AcDbCircle
 10
103.0624673388
 20
24.8913517404
 30
0.0
 40
22.00000000000005
  0
CIRCLE
  5
1D3
330
1F
100
AcDbEntity
  8
0
  6
Continuous
 62
     7
370
    15
100
AcDbCircle
 10
103.0624673388
 20
24.8913517404
 30
0.0
 40
20.0
  0
CIRCLE
  5
1D4
330
1F
100
AcDbEntity
  8
0
  6
Continuous
 62
     7
370
    15
100
AcDbCircle
 10
103.0624673388
 20
24.8913517404
 30
0.0
 40
31.50000000000001
  0
LINE
  5
1D5
330
1F
100
AcDbEntity
  8
0
  6
Continuous
 62
     7
370
    15
100
AcDbLine
 10
71.5797794036
 20
-15.9111028206
 30
0.0
 11
71.5624698422
 21
24.877983551
 31
0.0
  0
LINE
  5
1D6
330
1F
100
AcDbEntity
  8
0
  6
Continuous
 62
     7
370
    15
100
AcDbLine
 10
125.7123843751
 20
3.0000018287
 30
0.0
 11
97.3654516491
 21
-26.3291900646
 31
0.0
  0
LINE
  5
1D7
330
1F
100
AcDbEntity
  8
0
  6
Continuous
 62
     7
370
    15
100
AcDbLine
 10
134.5451557062
 20
65.6938063312
 30
0.0
 11
134.5624634049
 21
24.9047162342
 31
0.0
  0
LINE
  5
1D8
330
1F
100
AcDbEntity
  8
0
  6
Continuous
 62
     7
370
    15
100
AcDbLine
 10
80.4125507346
 20
46.7827054072
 30
0.0
 11
108.7594832278
 21
76.1118935752
 31
0.0
  0
SPLINE
  5
1D9
330
1F
100
AcDbEntity
  8
0
  6
Continuous
 62
     7
370
    15
100
AcDbSpline
210
0.0
220
0.0
230
1.0
 70
     8
 71
     3
 72
    10
 73
     6
 74
     0
 42
0.00000001
 43
0.00000001
 12
1.0
 22
0.0
 32
0.0
 13
1.0
 23
0.0
 33
0.0
 40
0.0
 40
0.0
 40
0.0
 40
0.0
 40
0.2847068103304133
 40
0.6647890585088546
 40
1.0
 40
1.0
 40
1.0
 40
1.0
 10
115.085692050214
 20
78.48208717586739
 30
0.0
 10
115.1163325665893
 20
78.42769181778765
 30
0.0
 10
115.1878780277244
 20
78.30067891337873
 30
0.0
 10
115.375241539143
 20
78.1665998800286
 30
0.0
 10
115.5211009023819
 20
78.10150134766037
 30
0.0
 10
115.5894556066944
 20
78.07099394085152
 30
0.0
  0
ARC
  5
1DA
330
1F
100
AcDbEntity
  8
0
  6
Continuous
 62
     7
370
    15
100
AcDbCircle
 10
119.5451574491
 20
65.6874413413
 30
0.0
 40
14.99999999999999
100
AcDbArc
 50
110.3024166942
 51
135.975687163
  0
SPLINE
  5
1DB
330
1F
100
AcDbEntity
  8
0
  6
Continuous
 62
     7
370
    15
100
AcDbSpline
210
0.0
220
0.0
230
1.0
 70
     8
 71
     3
 72
    12
 73
     8
 74
     0
 42
0.00000001
 43
0.00000001
 12
1.0
 22
0.0
 32
0.0
 13
1.0
 23
0.0
 33
0.0
 40
0.0
 40
0.0
 40
0.0
 40
0.0
 40
0.259571524073584
 40
0.5190890064594434
 40
0.7799968971741664
 40
0.9926732418247749
 40
1.0
 40
1.0
 40
1.0
 40
1.0
 10
115.085692050214
 20
78.48208717586739
 30
0.0
 10
115.0023233344691
 20
78.67526106737587
 30
0.0
 10
114.8356032599916
 20
79.06156863240994
 30
0.0
 10
114.6066288070237
 20
79.4893669155481
 30
0.0
 10
114.4376051777059
 20
79.72589220500866
 30
0.0
 10
114.3649036964698
 20
79.76386070469484
 30
0.0
 10
114.3413152479415
 20
79.75582299239893
 30
0.0
 10
114.3405296823932
 20
79.7555553126548
 30
0.0
  0
ARC
  5
1DC
330
1F
100
AcDbEntity
  8
0
  6
Continuous
 62
     7
370
    15
100
AcDbCircle
 10
86.5797772285
 20
-15.9047378606
 30
0.0
 40
15.0
100
AcDbArc
 50
290.3024166942
 51
315.975687163
  0
SPLINE
  5
1DD
330
1F
100
AcDbEntity
  8
0
  6
Continuous
 62
     7
370
    15
100
AcDbSpline
210
0.0
220
0.0
230
1.0
 70
     8
 71
     3
 72
    12
 73
     8
 74
     0
 42
0.00000001
 43
0.00000001
 12
1.0
 22
0.0
 32
0.0
 13
1.0
 23
0.0
 33
0.0
 40
0.0
 40
0.0
 40
0.0
 40
0.0
 40
0.0073269143853895
 40
0.2200032913987368
 40
0.480910987111843
 40
0.740426476135541
 40
1.0
 40
1.0
 40
1.0
 40
1.0
 10
91.78440542733208
 20
-29.97285180208938
 30
0.0
 10
91.78361954583251
 20
-29.97312201441881
 30
0.0
 10
91.76002209300908
 20
-29.98123560749845
 30
0.0
 10
91.68733443786084
 20
-29.94314522443554
 30
0.0
 10
91.51830516482676
 20
-29.70667492208788
 30
0.0
 10
91.28932814049197
 20
-29.27886915123186
 30
0.0
 10
91.12261065580938
 20
-28.89255989057467
 30
0.0
 10
91.03924259385005
 20
-28.69938366530196
 30
0.0
  0
SPLINE
  5
1DE
330
1F
100
AcDbEntity
  8
0
  6
Continuous
 62
     7
370
    15
100
AcDbSpline
210
0.0
220
0.0
230
1.0
 70
     8
 71
     3
 72
    10
 73
     6
 74
     0
 42
0.00000001
 43
0.00000001
 12
1.0
 22
0.0
 32
0.0
 13
1.0
 23
0.0
 33
0.0
 40
0.0
 40
0.0
 40
0.0
 40
0.0
 40
0.2847067562967214
 40
0.6647922838502263
 40
0.9999999999999999
 40
0.9999999999999999
 40
0.9999999999999999
 40
0.9999999999999999
 10
91.03924259385005
 20
-28.69938366530196
 30
0.0
 10
91.00860203912593
 20
-28.64498860790328
 30
0.0
 10
90.93705612775229
 20
-28.51797576525565
 30
0.0
 10
90.74969680670293
 20
-28.38389065176346
 30
0.0
 10
90.6038344715493
 20
-28.31879834775082
 30
0.0
 10
90.53547903736964
 20
-28.28829415557639
 30
0.0
  0
SPLINE
  5
1DF
330
1F
100
AcDbEntity
  8
0
  6
Continuous
 62
     7
370
    15
100
AcDbSpline
210
0.0
220
0.0
230
1.0
 70
     8
 71
     3
 72
    10
 73
     6
 74
     0
 42
0.00000001
 43
0.00000001
 12
1.0
 22
0.0
 32
0.0
 13
1.0
 23
0.0
 33
0.0
 40
0.0
 40
0.0
 40
0.0
 40
0.0
 40
0.4161054402244283
 40
0.7671189164825009
 40
1.0
 40
1.0
 40
1.0
 40
1.0
 10
130.9929908237411
 20
71.84756867172463
 30
0.0
 10
131.0807412362593
 20
71.81627214168827
 30
0.0
 10
131.2425151398533
 20
71.75857484218119
 30
0.0
 10
131.4711601417006
 20
71.73860902861027
 30
0.0
 10
131.5925305301894
 20
71.77772671018435
 30
0.0
 10
131.6409380159332
 20
71.79332844497902
 30
0.0
  0
LINE
  5
1E0
330
1F
100
AcDbEntity
  8
0
  6
Continuous
 62
     7
370
    15
100
AcDbLine
 10
115.5894556067
 20
78.0709939409
 30
0.0
 11
119.0851748905
 21
76.6586320806
 31
0.0
  0
LINE
  5
1E1
330
1F
100
AcDbEntity
  8
0
  6
Continuous
 62
     7
370
    15
100
AcDbLine
 10
127.1409493855
 20
73.4038906503
 30
0.0
 11
130.9929908237
 21
71.8475686717
 31
0.0
  0
SPLINE
  5
1E2
330
1F
100
AcDbEntity
  8
0
  6
Continuous
 62
     7
370
    15
100
AcDbSpline
210
0.0
220
0.0
230
1.0
 70
     8
 71
     3
 72
    10
 73
     6
 74
     0
 42
0.00000001
 43
0.00000001
 12
1.0
 22
0.0
 32
0.0
 13
1.0
 23
0.0
 33
0.0
 40
0.0
 40
0.0
 40
0.0
 40
0.0
 40
0.416104811660347
 40
0.7671177576815086
 40
1.0
 40
1.0
 40
1.0
 40
1.0
 10
75.13194428598419
 20
-22.0648614358689
 30
0.0
 10
75.044194019042
 20
-22.03356546996175
 30
0.0
 10
74.88242038382722
 20
-21.97586921046559
 30
0.0
 10
74.65377345150512
 20
-21.95589722428318
 30
0.0
 10
74.53240561364379
 20
-21.99502611762981
 30
0.0
 10
74.48399895643726
 20
-22.01063238499419
 30
0.0
  0
LINE
  5
1E3
330
1F
100
AcDbEntity
  8
0
  6
Continuous
 62
     7
370
    15
100
AcDbLine
 10
75.131944286
 20
-22.0648614359
 30
0.0
 11
78.9839857242
 21
-23.6211871397
 31
0.0
  0
LINE
  5
1E4
330
1F
100
AcDbEntity
  8
0
  6
Continuous
 62
     7
370
    15
100
AcDbLine
 10
87.0397602192
 20
-26.8759322953
 30
0.0
 11
90.5354790374
 21
-28.2882941556
 31
0.0
  0
SPLINE
  5
1E5
330
1F
100
AcDbEntity
  8
0
  6
Continuous
 62
     7
370
    15
100
AcDbSpline
210
0.0
220
0.0
230
1.0
 70
     8
 71
     3
 72
    12
 73
     8
 74
     0
 42
0.00000001
 43
0.00000001
 12
1.0
 22
0.0
 32
0.0
 13
1.0
 23
0.0
 33
0.0
 40
0.0
 40
0.0
 40
0.0
 40
0.0
 40
0.2595735208755541
 40
0.5190894002224423
 40
0.7799967778946956
 40
0.9926731518855888
 40
1.0
 40
1.0
 40
1.0
 40
1.0
 10
131.6409380159332
 20
71.79332844497902
 30
0.0
 10
131.8350986054913
 20
71.87437782298618
 30
0.0
 10
132.2233766688339
 20
72.03645858097813
 30
0.0
 10
132.6852630668272
 20
72.18514320726065
 30
0.0
 10
132.9711341410154
 20
72.2378204858279
 30
0.0
 10
133.0498506191027
 20
72.21469772284082
 30
0.0
 10
133.061210330482
 20
72.19249511459762
 30
0.0
 10
133.0615886471225
 20
72.19175569298012
 30
0.0
  0
ARC
  5
1E6
330
1F
100
AcDbEntity
  8
0
  6
Continuous
 62
     7
370
    15
100
AcDbCircle
 10
119.5451574491
 20
65.6874413413
 30
0.0
 40
14.99999999999999
100
AcDbArc
 50
0.024312837
 51
25.6975833058
  0
SPLINE
  5
1E7
330
1F
100
AcDbEntity
  8
0
  6
Continuous
 62
     7
370
    15
100
AcDbSpline
210
0.0
220
0.0
230
1.0
 70
     8
 71
     3
 72
    12
 73
     8
 74
     0
 42
0.00000001
 43
0.00000001
 12
1.0
 22
0.0
 32
0.0
 13
1.0
 23
0.0
 33
0.0
 40
0.0
 40
0.0
 40
0.0
 40
0.0
 40
0.0073269726420359
 40
0.2200033242052704
 40
0.4809112077501039
 40
0.7404272965981642
 40
1.0
 40
1.0
 40
1.0
 40
1.0
 10
73.06334832524792
 20
-22.40905218241469
 30
0.0
 10
73.0637260093175
 20
-22.40979286729713
 30
0.0
 10
73.07506653901098
 20
-22.43203303991524
 30
0.0
 10
73.15380848062536
 20
-22.4551116482314
 30
0.0
 10
73.43966692662354
 20
-22.40243111715433
 30
0.0
 10
73.9015580045628
 20
-22.25375023003514
 30
0.0
 10
74.28983785653152
 20
-22.09167755884049
 30
0.0
 10
74.48399895643726
 20
-22.01063238499419
 30
0.0
  0
ARC
  5
1E8
330
1F
100
AcDbEntity
  8
0
  6
Continuous
 62
     7
370
    15
100
AcDbCircle
 10
86.5797772285
 20
-15.9047378606
 30
0.0
 40
15.00000000000001
100
AcDbArc
 50
180.024312837
 51
205.6975833058
  0
ARC
  5
1E9
330
1F
100
AcDbEntity
  8
0
  6
Continuous
 62
     7
370
    15
100
AcDbCircle
 10
119.5451574491
 20
65.6874413413
 30
0.0
 40
15.0
100
AcDbArc
 50
108.7504936605
 51
110.3024166942
  0
ARC
  5
1EA
330
1F
100
AcDbEntity
  8
0
  6
Continuous
 62
     7
370
    15
100
AcDbCircle
 10
119.5451574491
 20
65.6874413413
 30
0.0
 40
15.0
100
AcDbArc
 50
25.6975833058
 51
71.2495063395
  0
ARC
  5
1EB
330
1F
100
AcDbEntity
  8
0
  6
Continuous
 62
     7
370
    15
100
AcDbCircle
 10
86.5797772285
 20
-15.9047378606
 30
0.0
 40
14.99999999999999
100
AcDbArc
 50
205.6975833058
 51
290.3024166942
  0
CIRCLE
  5
1EC
330
1F
100
AcDbEntity
  8
0
  6
Continuous
 62
     7
370
    15
100
AcDbCircle
 10
165.0624673388
 20
24.8913517404
 30
0.0
 40
16.00000000000003
  0
LWPOLYLINE
  5
1ED
330
1F
100
AcDbEntity
  8
0
  6
Continuous
 62
     7
370
    15
100
AcDbPolyline
 90
        3
 70
   128
 43
0.0
 10
125.1642563364
 20
79.595203917
 10
124.9623735419
 20
79.6748059201
 10
124.3550096623
 20
79.8913495946
  0
ARC
  5
1EE
330
1F
100
AcDbEntity
  8
0
  6
Continuous
 62
     7
370
    15
100
AcDbCircle
 10
137.8759332202
 20
71.4003913154
 30
0.0
 40
5.000000000000004
100
AcDbArc
 50
225.860859519
 51
298.1829043044
  0
LINE
  5
1EF
330
1F
100
AcDbEntity
  8
0
  6
Continuous
 62
     7
370
    15
100
AcDbLine
 10
169.9157514594
 20
61.6744714189
 30
0.0
 11
185.3367843649
 21
48.3424099493
 31
0.0
  0
ARC
  5
1F0
330
1F
100
AcDbEntity
  8
0
  6
Continuous
 62
     7
370
    15
100
AcDbCircle
 10
165.0624673388
 20
24.8913517404
 30
0.0
 40
31.00000000000001
100
AcDbArc
 50
350.8446345737
 51
49.1553654263
  0
LINE
  5
1F1
330
1F
100
AcDbEntity
  8
0
  6
Continuous
 62
     7
370
    15
100
AcDbLine
 10
195.6675433538
 20
19.9588718224
 30
0.0
 11
192.4240299485
 21
-0.1665172767
 31
0.0
  0
LINE
  5
1F2
330
1F
100
AcDbEntity
  8
0
  6
Continuous
 62
     7
370
    15
100
AcDbLine
 10
144.7881543062
 20
1.440289836
 30
0.0
 11
160.2091797612
 21
-11.8917604577
 31
0.0
  0
ARC
  5
1F3
330
1F
100
AcDbEntity
  8
0
  6
Continuous
 62
     7
370
    15
100
AcDbCircle
 10
165.0624673388
 20
24.8913517404
 30
0.0
 40
31.0
100
AcDbArc
 50
210.5584317859
 51
229.1553654263
  0
ARC
  5
1F4
330
1F
100
AcDbEntity
  8
0
  6
Continuous
 62
     7
370
    15
100
AcDbCircle
 10
134.0624673388
 20
6.5883465227
 30
0.0
 40
5.000000000000004
100
AcDbArc
 50
30.5584317859
 51
125.3921698529
  0
LINE
  5
1F5
330
1F
100
AcDbEntity
  8
0
  6
Continuous
 62
     7
370
    15
100
AcDbLine
 10
84.9697011507
 20
51.497768085
 30
0.0
 11
76.2753960661
 21
46.4781033206
 31
0.0
  0
CIRCLE
  5
1F6
330
1F
100
AcDbEntity
  8
0
  6
Continuous
 62
     7
370
    15
100
AcDbCircle
 10
103.0624673388
 20
24.8913517404
 30
0.0
 40
18.5
  0
LINE
  5
1F7
330
1F
100
AcDbEntity
  8
0
  6
Continuous
 62
     7
370
    15
100
AcDbLine
 10
77.8422065995
 20
43.7643112946
 30
0.0
 11
76.2753960661
 21
46.4781033206
 31
0.0
  0
LWPOLYLINE
  5
1F8
330
1F
100
AcDbEntity
  8
0
  6
Continuous
 62
     7
370
    15
100
AcDbPolyline
 90
       16
 70
   128
 43
0.0
 10
95.1620251507
 20
62.0432602573
 10
94.9771179802
 20
62.0356010604
 10
93.7309755462
 20
61.8721502233
 10
92.2570050678
 20
61.5109162736
 10
90.597147493
 20
60.962210815
 10
88.7986336819
 20
60.241620462
 10
86.9126402757
 20
59.3696641135
 10
84.9928314782
 20
58.3711522031
 10
83.0938358775
 20
57.274501245
 10
81.2696878782
 20
56.1109068203
 10
79.5722928814
 20
54.9134793091
 10
78.0499511383
 20
53.716297667
 10
76.7459784619
 20
52.5534259486
 10
75.6974806062
 20
51.4579447317
 10
74.9342915586
 20
50.4610421467
 10
74.4781278989
 20
49.5910676527
  0
LWPOLYLINE
  5
1F9
330
1F
100
AcDbEntity
  8
0
  6
Continuous
 62
     7
370
    15
100
AcDbPolyline
 90
       22
 70
   128
 43
0.0
 10
82.2601643375
 20
52.9219987202
 10
82.5666411764
 20
52.7465822506
 10
83.1536863915
 20
52.764463644
 10
83.9691393993
 20
52.9740484762
 10
84.9405433035
 20
53.3567177463
 10
85.9815840594
 20
53.8784670043
 10
86.999760846
 20
54.4929461885
 10
87.9046040571
 20
55.145542543
 10
88.6157149433
 20
55.7782756496
 10
89.0699079244
 20
56.3349234271
 10
89.2268259994
 20
56.7660289216
 10
89.0725263379
 20
57.0332886982
 10
88.6207184738
 20
57.1129428554
 10
87.9115489296
 20
56.9979282427
 10
87.0080291278
 20
56.6984521556
 10
85.990440937
 20
56.2411355186
 10
84.9492027408
 20
55.6666063476
 10
83.9768311924
 20
55.0259160209
 10
83.159727881
 20
54.3759869743
 10
82.5704949892
 20
53.7745761085
 10
82.2614877469
 20
53.2751189876
 10
82.2601643375
 20
52.9219987202
  0
LINE
  5
1FA
330
1F
100
AcDbEntity
  8
0
  6
Continuous
 62
     7
370
    15
100
AcDbLine
 10
74.4781278989
 20
49.5910676527
 30
0.0
 11
76.2753960661
 21
46.4781033206
 31
0.0
  0
SPLINE
  5
1FB
330
1F
100
AcDbEntity
  8
0
  6
Continuous
 62
     7
370
    15
100
AcDbSpline
210
0.0
220
0.0
230
1.0
 70
     8
 71
     3
 72
     9
 73
     5
 74
     0
 42
0.00000001
 43
0.00000001
 12
1.0
 22
0.0
 32
0.0
 13
1.0
 23
0.0
 33
0.0
 40
0.0
 40
0.0
 40
0.0
 40
0.0
 40
0.5042658813471887
 40
1.0
 40
1.0
 40
1.0
 40
1.0
 10
91.54547042986289
 20
67.64913670303567
 30
0.0
 10
90.30764732929569
 20
69.0680773370878
 30
0.0
 10
87.85294407382212
 20
71.8819513002862
 30
0.0
 10
84.94009445599195
 20
74.21292931267908
 30
0.0
 10
83.49609551792875
 20
75.36847464325173
 30
0.0
  0
SPLINE
  5
1FC
330
1F
100
AcDbEntity
  8
0
  6
Continuous
 62
     7
370
    15
100
AcDbSpline
210
0.0
220
0.0
230
1.0
 70
     8
 71
     3
 72
    10
 73
     6
 74
     0
 42
0.00000001
 43
0.00000001
 12
1.0
 22
0.0
 32
0.0
 13
1.0
 23
0.0
 33
0.0
 40
0.0
 40
0.0
 40
0.0
 40
0.0
 40
0.1790585571050483
 40
0.6258221428210502
 40
1.0
 40
1.0
 40
1.0
 40
1.0
 10
70.45343601917759
 20
60.5602817940925
 30
0.0
 10
70.62825028766039
 20
59.88464563274655
 30
0.0
 10
71.23923834579284
 20
57.5232501367869
 30
0.0
 10
72.63891186123166
 20
53.8738937812555
 30
0.0
 10
73.90229089601729
 20
50.93197035870871
 30
0.0
 10
74.47812789892689
 20
49.59106765272363
 30
0.0
  0
SPLINE
  5
1FD
330
1F
100
AcDbEntity
  8
0
  6
Continuous
 62
     7
370
    15
100
AcDbSpline
210
0.0
220
0.0
230
1.0
 70
     8
 71
     3
 72
    11
 73
     7
 74
     0
 42
0.00000001
 43
0.00000001
 12
1.0
 22
0.0
 32
0.0
 13
1.0
 23
0.0
 33
0.0
 40
0.0
 40
0.0
 40
0.0
 40
0.0
 40
0.2081992030992002
 40
0.5068236026063964
 40
0.8141892983338254
 40
0.9999999999999999
 40
0.9999999999999999
 40
0.9999999999999999
 40
0.9999999999999999
 10
96.08966933215763
 20
62.85836867573007
 30
0.0
 10
95.96169564160328
 20
63.07540301698365
 30
0.0
 10
95.65016665436367
 20
63.60373417813143
 30
0.0
 10
94.34599138714006
 20
64.81721383874768
 30
0.0
 10
92.83219116180122
 20
66.2163239015826
 30
0.0
 10
91.89759270491192
 20
67.25703506758053
 30
0.0
 10
91.54547042986289
 20
67.64913670303567
 30
0.0
  0
ARC
  5
1FE
330
1F
100
AcDbEntity
  8
0
  6
Continuous
 62
     7
370
    15
100
AcDbCircle
 10
70.846300305
 20
-54.8464597524
 30
0.0
 40
9.000000000000014
100
AcDbArc
 50
0.0
 51
106.3462334081
  0
ARC
  5
1FF
330
1F
100
AcDbEntity
  8
0
  6
Continuous
 62
     7
370
    15
100
AcDbCircle
 10
70.846300305
 20
-54.8464597524
 30
0.0
 40
9.000000000000014
100
AcDbArc
 50
253.6537665919
 51
0.0
  0
ARC
  5
200
330
1F
100
AcDbEntity
  8
0
  6
Continuous
 62
     7
370
    15
100
AcDbCircle
 10
103.0624673388
 20
24.8913517404
 30
0.0
 40
95.00000000000001
100
AcDbArc
 50
340.0889479278
 51
33.9807580472
  0
ARC
  5
201
330
1F
100
AcDbEntity
  8
0
  6
Continuous
 62
     7
370
    15
100
AcDbCircle
 10
103.0624673388
 20
24.8913517404
 30
0.0
 40
95.0
100
AcDbArc
 50
324.9489834013
 51
331.0728952791
  0
ARC
  5
202
330
1F
100
AcDbEntity
  8
0
  6
Continuous
 62
     7
370
    15
100
AcDbCircle
 10
103.0624673388
 20
24.8913517404
 30
0.0
 40
95.0
100
AcDbArc
 50
248.5443828998
 51
305.0510165987
  0
LINE
  5
203
330
1F
100
AcDbEntity
  8
0
  6
Continuous
 62
     7
370
    15
100
AcDbLine
 10
184.846618118
 20
-44.6453490895
 30
0.0
 11
180.8333628795
 21
-29.6676797461
 31
0.0
  0
ARC
  5
204
330
1F
100
AcDbEntity
  8
0
  6
Continuous
 62
     7
370
    15
100
AcDbCircle
 10
175.1873590198
 20
-47.2335399406
 30
0.0
 40
10.0
100
AcDbArc
 50
255.0
 51
15.0
  0
LINE
  5
205
330
1F
100
AcDbEntity
  8
0
  6
Continuous
 62
     7
370
    15
100
AcDbLine
 10
172.5991674683
 20
-56.8927978766
 30
0.0
 11
157.6214999876
 21
-52.8795435694
 31
0.0
  0
ARC
  5
206
330
1F
100
AcDbEntity
  8
0
  6
Continuous
 62
     7
370
    15
100
AcDbCircle
 10
103.0624673388
 20
24.8913517404
 30
0.0
 40
94.99999999999999
100
AcDbArc
 50
305.0510165987
 51
312.0466694267
  0
ARC
  5
207
330
1F
100
AcDbEntity
  8
0
  6
Continuous
 62
     7
370
    15
100
AcDbCircle
 10
103.0624673388
 20
24.8913517404
 30
0.0
 40
95.00000000000001
100
AcDbArc
 50
318.6256321132
 51
324.9489834013
  0
ARC
  5
208
330
1F
100
AcDbEntity
  8
0
  6
Continuous
 62
     7
370
    15
100
AcDbCircle
 10
103.0624673388
 20
24.8913517404
 30
0.0
 40
99.0
100
AcDbArc
 50
323.0363739571
 51
346.0558545223
  0
ARC
  5
209
330
1F
100
AcDbEntity
  8
0
  6
Continuous
 62
     7
370
    15
100
AcDbCircle
 10
103.0624673388
 20
24.8913517404
 30
0.0
 40
99.0
100
AcDbArc
 50
13.9441454777
 51
29.2202980268
  0
ARC
  5
20A
330
1F
100
AcDbEntity
  8
0
  6
Continuous
 62
     7
370
    15
100
AcDbCircle
 10
103.0624673388
 20
24.8913517404
 30
0.0
 40
98.99999999999999
100
AcDbArc
 50
249.4514235393
 51
306.9636260429
  0
LINE
  5
20B
330
1F
100
AcDbEntity
  8
0
  6
Continuous
 62
     7
370
    15
100
AcDbLine
 10
240.9195759318
 20
-365.6086368155
 30
0.0
 11
185.036719682
 21
-365.6086368155
 31
0.0
  0
LINE
  5
20C
330
1F
100
AcDbEntity
  8
0
  6
Continuous
 62
     7
370
    15
100
AcDbLine
 10
7.0882149956
 20
-365.6086368155
 30
0.0
 11
-48.7946412542
 21
-365.6086368155
 31
0.0
  0
LINE
  5
20D
330
1F
100
AcDbEntity
  8
0
  6
Continuous
 62
     7
370
    15
100
AcDbLine
 10
75.5624667726
 20
-71.6086482298
 30
0.0
 11
80.9547760508
 21
-71.6086482298
 31
0.0
  0
LINE
  5
20E
330
1F
100
AcDbEntity
  8
0
  6
Continuous
 62
     7
370
    15
100
AcDbLine
 10
68.3133312485
 20
-71.6086482298
 30
0.0
 11
75.5624667726
 21
-71.6086482298
 31
0.0
  0
LINE
  5
20F
330
1F
100
AcDbEntity
  8
0
  6
Continuous
 62
     7
370
    15
100
AcDbLine
 10
154.2367123983
 20
-71.6086482298
 30
0.0
 11
192.2784456036
 21
-71.6086482298
 31
0.0
  0
LINE
  5
210
330
1F
100
AcDbEntity
  8
0
  6
Continuous
 62
     7
370
    15
100
AcDbLine
 10
143.5624667427
 20
-71.6086482298
 30
0.0
 11
154.2367123983
 21
-71.6086482298
 31
0.0
  0
LINE
  5
211
330
1F
100
AcDbEntity
  8
0
  6
Continuous
 62
     7
370
    15
100
AcDbLine
 10
129.296277555
 20
-71.6086482298
 30
0.0
 11
143.5624667427
 21
-71.6086482298
 31
0.0
  0
ARC
  5
212
330
1F
100
AcDbEntity
  8
0
  6
Continuous
 62
     7
370
    15
100
AcDbCircle
 10
129.2962768505
 20
-78.2086482596
 30
0.0
 40
6.600000000000009
100
AcDbArc
 50
90.0
 51
135.0
  0
LINE
  5
213
330
1F
100
AcDbEntity
  8
0
  6
Continuous
 62
     7
370
    15
100
AcDbLine
 10
192.2784456036
 20
-71.6086482298
 30
0.0
 11
197.8286587617
 21
-71.6086482298
 31
0.0
  0
LINE
  5
214
330
1F
100
AcDbEntity
  8
0
  6
Continuous
 62
     7
370
    15
100
AcDbLine
 10
-73.9375344493
 20
-330.2161140036
 30
0.0
 11
-73.9375344493
 21
-299.0011764359
 31
0.0
  0
LINE
  5
215
330
1F
100
AcDbEntity
  8
0
  6
Continuous
 62
     7
370
    15
100
AcDbLine
 10
266.0624691269
 20
-299.0011764359
 30
0.0
 11
266.0624691269
 21
-330.2161140036
 31
0.0
  0
LINE
  5
216
330
1F
100
AcDbEntity
  8
0
  6
Continuous
 62
     7
370
    15
100
AcDbLine
 10
75.6679353288
 20
-71.6086482298
 30
0.0
 11
75.5670656434
 21
-71.6086482298
 31
0.0
  0
LINE
  5
217
330
1F
100
AcDbEntity
  8
0
  6
Continuous
 62
     7
370
    15
100
AcDbLine
 10
-73.9375344493
 20
-340.3465194297
 30
0.0
 11
-73.9375344493
 21
-330.2161140036
 31
0.0
  0
LINE
  5
218
330
1F
100
AcDbEntity
  8
0
  6
Continuous
 62
     7
370
    15
100
AcDbLine
 10
-73.9375344493
 20
-299.0011764359
 30
0.0
 11
-73.9375344493
 21
-288.8707859111
 31
0.0
  0
LINE
  5
219
330
1F
100
AcDbEntity
  8
0
  6
Continuous
 62
     7
370
    15
100
AcDbLine
 10
266.0624691269
 20
-288.8707859111
 30
0.0
 11
266.0624691269
 21
-299.0011764359
 31
0.0
  0
LINE
  5
21A
330
1F
100
AcDbEntity
  8
0
  6
Continuous
 62
     7
370
    15
100
AcDbLine
 10
266.0624691269
 20
-330.2161140036
 30
0.0
 11
266.0624691269
 21
-340.3465194297
 31
0.0
  0
LINE
  5
21B
330
1F
100
AcDbEntity
  8
0
  6
Continuous
 62
     7
370
    15
100
AcDbLine
 10
-73.9375344493
 20
-341.8324632239
 30
0.0
 11
-73.9375344493
 21
-340.3465194297
 31
0.0
  0
SPLINE
  5
21C
330
1F
100
AcDbEntity
  8
0
  6
Continuous
 62
     7
370
    15
100
AcDbSpline
210
0.0
220
0.0
230
1.0
 70
    24
 71
     3
 72
     8
 73
     4
 74
     0
 42
0.00000001
 43
0.00000001
 12
1.0
 22
0.0
 32
0.0
 13
1.0
 23
0.0
 33
0.0
 40
0.0
 40
0.0
 40
0.0
 40
0.0
 40
1.0
 40
1.0
 40
1.0
 40
1.0
 10
-73.93753266120409
 20
-288.8707906161047
 30
0.0
 10
-73.93753266120409
 20
-288.3947553159085
 30
0.0
 10
-73.93753266120412
 20
-287.8987404801
 30
0.0
 10
-73.93753266120412
 20
-287.3848426660505
 30
0.0
  0
SPLINE
  5
21D
330
1F
100
AcDbEntity
  8
0
  6
Continuous
 62
     7
370
    15
100
AcDbSpline
210
0.0
220
0.0
230
1.0
 70
    24
 71
     3
 72
     8
 73
     4
 74
     0
 42
0.00000001
 43
0.00000001
 12
1.0
 22
0.0
 32
0.0
 13
1.0
 23
0.0
 33
0.0
 40
0.0
 40
0.0
 40
0.0
 40
0.0
 40
1.0
 40
1.0
 40
1.0
 40
1.0
 10
266.0624673387959
 20
-287.3848426660506
 30
0.0
 10
266.0624673387959
 20
-287.8987404801001
 30
0.0
 10
266.0624673387959
 20
-288.3947553159085
 30
0.0
 10
266.0624673387959
 20
-288.8707906161048
 30
0.0
  0
LINE
  5
21E
330
1F
100
AcDbEntity
  8
0
  6
Continuous
 62
     7
370
    15
100
AcDbLine
 10
266.0624691269
 20
-340.3465194297
 30
0.0
 11
266.0624691269
 21
-341.8324632239
 31
0.0
  0
SPLINE
  5
21F
330
1F
100
AcDbEntity
  8
0
  6
Continuous
 62
     7
370
    15
100
AcDbSpline
210
0.0
220
0.0
230
1.0
 70
    24
 71
     3
 72
    12
 73
     8
 74
     0
 42
0.00000001
 43
0.00000001
 12
1.0
 22
0.0
 32
0.0
 13
1.0
 23
0.0
 33
0.0
 40
0.0
 40
0.0
 40
0.0
 40
0.0
 40
0.5
 40
0.5
 40
0.75
 40
0.75
 40
1.0
 40
1.0
 40
1.0
 40
1.0
 10
266.0624673387959
 20
-287.3848426660489
 30
0.0
 10
266.0624673387959
 20
-286.5682163568418
 30
0.0
 10
266.0624673387958
 20
-285.8803085427697
 30
0.0
 10
266.0624673387959
 20
-285.0555242376158
 30
0.0
 10
266.0624673387959
 20
-284.8155106997812
 30
0.0
 10
266.0624673387959
 20
-284.407277562658
 30
0.0
 10
266.0624673387959
 20
-284.2402907026739
 30
0.0
 10
266.0624673387958
 20
-284.1086482596185
 30
0.0
  0
SPLINE
  5
220
330
1F
100
AcDbEntity
  8
0
  6
Continuous
 62
     7
370
    15
100
AcDbSpline
210
0.0
220
0.0
230
1.0
 70
    24
 71
     3
 72
    15
 73
    11
 74
     0
 42
0.00000001
 43
0.00000001
 12
1.0
 22
0.0
 32
0.0
 13
1.0
 23
0.0
 33
0.0
 40
0.0
 40
0.0
 40
0.0
 40
0.0
 40
0.0069300231530752
 40
0.0557019060685139
 40
0.1044632255186854
 40
0.2728009925105586
 40
0.5146910884199236
 40
0.5465695701115637
 40
0.8547042848394641
 40
1.0
 40
1.0
 40
1.0
 40
1.0
 10
-73.93753444934353
 20
-345.1086623263146
 30
0.0
 10
-73.93753444934353
 20
-345.1050162073678
 30
0.0
 10
-73.93753444934356
 20
-345.0757095556284
 30
0.0
 10
-73.93753444934353
 20
-345.0172466325589
 30
0.0
 10
-73.93753444934367
 20
-344.8530520401308
 30
0.0
 10
-73.93753444934345
 20
-344.5108400126618
 30
0.0
 10
-73.93753444934342
 20
-344.0769763252413
 30
0.0
 10
-73.93753444934367
 20
-343.4171584211454
 30
0.0
 10
-73.93753444934353
 20
-342.7829828335075
 30
0.0
 10
-73.93753444934353
 20
-342.063130328719
 30
0.0
 10
-73.93753444934353
 20
-341.8324632239128
 30
0.0
  0
SPLINE
  5
221
330
1F
100
AcDbEntity
  8
0
  6
Continuous
 62
     7
370
    15
100
AcDbSpline
210
0.0
220
0.0
230
1.0
 70
    24
 71
     3
 72
    14
 73
    10
 74
     0
 42
0.00000001
 43
0.00000001
 12
1.0
 22
0.0
 32
0.0
 13
1.0
 23
0.0
 33
0.0
 40
0.0
 40
0.0
 40
0.0
 40
0.0
 40
0.25
 40
0.25
 40
0.5
 40
0.5
 40
0.75
 40
0.75
 40
1.0
 40
1.0
 40
1.0
 40
1.0
 10
-73.93753266120412
 20
-287.3848426660489
 30
0.0
 10
-73.93753266120414
 20
-286.9765075416158
 30
0.0
 10
-73.93753266120412
 20
-286.6008099061987
 30
0.0
 10
-73.93753266120409
 20
-285.9152753870629
 30
0.0
 10
-73.93753266120417
 20
-285.6054704493771
 30
0.0
 10
-73.9375326612042
 20
-285.0555725045787
 30
0.0
 10
-73.9375326612042
 20
-284.8155418859623
 30
0.0
 10
-73.9375326612042
 20
-284.4072822380493
 30
0.0
 10
-73.93753266120403
 20
-284.2401779793057
 30
0.0
 10
-73.93753266120423
 20
-284.1086482596185
 30
0.0
  0
SPLINE
  5
222
330
1F
100
AcDbEntity
  8
0
  6
Continuous
 62
     7
370
    15
100
AcDbSpline
210
0.0
220
0.0
230
1.0
 70
    24
 71
     3
 72
    15
 73
    11
 74
     0
 42
0.00000001
 43
0.00000001
 12
1.0
 22
0.0
 32
0.0
 13
1.0
 23
0.0
 33
0.0
 40
0.0
 40
0.0
 40
0.0
 40
0.0
 40
0.1399644362895275
 40
0.4489538661285266
 40
0.4852988259052781
 40
0.6444784495628519
 40
0.8421642204721664
 40
0.9577026236425528
 40
0.9930701244203728
 40
1.0
 40
1.0
 40
1.0
 40
1.0
 10
266.0624691269351
 20
-341.8324632239128
 30
0.0
 10
266.0624691269351
 20
-342.0548744938395
 30
0.0
 10
266.0624691269351
 20
-342.7682871445902
 30
0.0
 10
266.0624691269352
 20
-343.4053298574114
 30
0.0
 10
266.0624691269351
 20
-343.9785890516475
 30
0.0
 10
266.0624691269352
 20
-344.382414665513
 30
0.0
 10
266.0624691269352
 20
-344.772148377851
 30
0.0
 10
266.0624691269351
 20
-344.9956626965301
 30
0.0
 10
266.0624691269352
 20
-345.0827623390949
 30
0.0
 10
266.0624691269351
 20
-345.1050163033927
 30
0.0
 10
266.0624691269351
 20
-345.1086623263146
 30
0.0
  0
LINE
  5
223
330
1F
100
AcDbEntity
  8
0
  6
Continuous
 62
     7
370
    15
100
AcDbLine
 10
199.3032553217
 20
-101.7046166253
 30
0.0
 11
199.3032553217
 21
49.8913484025
 31
0.0
  0
SPLINE
  5
224
330
1F
100
AcDbEntity
  8
0
  6
Continuous
 62
     7
370
    15
100
AcDbSpline
210
0.0
220
0.0
230
1.0
 70
     8
 71
     3
 72
    17
 73
    13
 74
     0
 42
0.00000001
 43
0.00000001
 12
1.0
 22
0.0
 32
0.0
 13
1.0
 23
0.0
 33
0.0
 40
0.0
 40
0.0
 40
0.0
 40
0.0
 40
0.0992476901049463
 40
0.1985136533022819
 40
0.2975500674788362
 40
0.3966183655610553
 40
0.4999494564073115
 40
0.6033006117746499
 40
0.713791192898901
 40
0.8242769127349735
 40
0.9121426347067156
 40
1.0
 40
1.0
 40
1.0
 40
1.0
 10
199.3032553217365
 20
49.89134840252145
 30
0.0
 10
199.2378242055522
 20
51.48839433498047
 30
0.0
 10
199.1069499262651
 20
54.68278024168273
 30
0.0
 10
198.0920055667922
 20
59.3300912266355
 30
0.0
 10
196.4995164531251
 20
63.69682683445184
 30
0.0
 10
194.3121364022074
 20
67.74770178016635
 30
0.0
 10
191.5559146106283
 20
71.36599529510372
 30
0.0
 10
188.2103916930997
 20
74.53959953039184
 30
0.0
 10
184.334154420656
 20
77.09057691427094
 30
0.0
 10
180.2925242535434
 20
78.77971490445205
 30
0.0
 10
176.3343512848436
 20
79.72423035826134
 30
0.0
 10
173.8195473222925
 20
79.83564494863892
 30
0.0
 10
172.5622051379634
 20
79.89134959461434
 30
0.0
  0
LINE
  5
225
330
1F
100
AcDbEntity
  8
0
  6
Continuous
 62
     7
370
    15
100
AcDbLine
 10
172.562205138
 20
79.8913495946
 30
0.0
 11
99.790026339
 21
79.8913495946
 31
0.0
  0
SPLINE
  5
226
330
1F
100
AcDbEntity
  8
0
  6
Continuous
 62
     7
370
    15
100
AcDbSpline
210
0.0
220
0.0
230
1.0
 70
     8
 71
     3
 72
    16
 73
    12
 74
     0
 42
0.00000001
 43
0.00000001
 12
1.0
 22
0.0
 32
0.0
 13
1.0
 23
0.0
 33
0.0
 40
0.0
 40
0.0
 40
0.0
 40
0.0
 40
0.1112531478349097
 40
0.2225264578258998
 40
0.3336824537950206
 40
0.4448370439286752
 40
0.5578263948465704
 40
0.6707774089221775
 40
0.7800393879445021
 40
0.8892561946310633
 40
1.0
 40
1.0
 40
1.0
 40
1.0
 10
99.79002633904949
 20
79.89134959461434
 30
0.0
 10
98.0003197831631
 20
79.80149489219511
 30
0.0
 10
94.42058232692351
 20
79.62176920319231
 30
0.0
 10
89.20230121401357
 20
78.2341341911877
 30
0.0
 10
84.28740186397133
 20
76.06418659823329
 30
0.0
 10
79.770133810101
 20
73.1008932145746
 30
0.0
 10
75.80738507159636
 20
69.3959713621378
 30
0.0
 10
72.54663189990303
 20
65.08971704436141
 30
0.0
 10
70.16667360396764
 20
60.31375620439959
 30
0.0
 10
68.60715946664943
 20
55.21485610723208
 30
0.0
 10
68.41172622991526
 20
51.67404458094553
 30
0.0
 10
68.31333124851719
 20
49.89134840252145
 30
0.0
  0
LINE
  5
227
330
1F
100
AcDbEntity
  8
0
  6
Continuous
 62
     7
370
    15
100
AcDbLine
 10
68.3133312485
 20
49.8913484025
 30
0.0
 11
68.3133312485
 21
-101.7046166253
 31
0.0
  0
SPLINE
  5
228
330
1F
100
AcDbEntity
  8
0
  6
Continuous
 62
     7
370
    15
100
AcDbSpline
210
0.0
220
0.0
230
1.0
 70
     8
 71
     3
 72
    17
 73
    13
 74
     0
 42
0.00000001
 43
0.00000001
 12
1.0
 22
0.0
 32
0.0
 13
1.0
 23
0.0
 33
0.0
 40
0.0
 40
0.0
 40
0.0
 40
0.0
 40
0.0991886827263726
 40
0.1983957834935168
 40
0.297371966766893
 40
0.3963802550738608
 40
0.4996783894531145
 40
0.60299703604712
 40
0.7135084032729826
 40
0.8240150892087041
 40
0.9120116645138993
 40
1.0
 40
1.0
 40
1.0
 40
1.0
 10
199.1450496933414
 20
49.89134840252145
 30
0.0
 10
199.0797023485834
 20
51.48774140487135
 30
0.0
 10
198.9489955249205
 20
54.68082383886728
 30
0.0
 10
197.9354347335305
 20
59.326154279589
 30
0.0
 10
196.3451947340281
 20
63.69096281112961
 30
0.0
 10
194.1608180094454
 20
67.74051236063929
 30
0.0
 10
191.4080819274567
 20
71.35821957060402
 30
0.0
 10
188.0657860867791
 20
74.53259685750972
 30
0.0
 10
184.1922166462238
 20
77.08523026439799
 30
0.0
 10
180.1506767353843
 20
78.77695122334457
 30
0.0
 10
176.1902193337869
 20
79.72373438935924
 30
0.0
 10
173.6722820403134
 20
79.83547960354313
 30
0.0
 10
172.4133723399593
 20
79.89134959461434
 30
0.0
  0
LINE
  5
229
330
1F
100
AcDbEntity
  8
0
  6
Continuous
 62
     7
370
    15
100
AcDbLine
 10
199.1450496933
 20
-101.7046166253
 30
0.0
 11
199.1450496933
 21
49.8913484025
 31
0.0
  0
SPLINE
  5
22A
330
1F
100
AcDbEntity
  8
0
  6
Continuous
 62
     7
370
    15
100
AcDbSpline
210
0.0
220
0.0
230
1.0
 70
     8
 71
     3
 72
    11
 73
     7
 74
     0
 42
0.00000001
 43
0.00000001
 12
1.0
 22
0.0
 32
0.0
 13
1.0
 23
0.0
 33
0.0
 40
0.0
 40
0.0
 40
0.0
 40
0.0
 40
0.2867621217608045
 40
0.5746256581680652
 40
0.8444489877277566
 40
1.0
 40
1.0
 40
1.0
 40
1.0
 10
69.08780978834167
 20
-108.1339833926942
 30
0.0
 10
69.12257197847566
 20
-108.0751754491948
 30
0.0
 10
69.19222987562907
 20
-107.9573336888139
 30
0.0
 10
69.26916926768824
 20
-107.6175402175041
 30
0.0
 10
69.30802778120821
 20
-107.2593791393267
 30
0.0
 10
69.31162078012922
 20
-107.0308797083918
 30
0.0
 10
69.31293466901317
 20
-106.9473219704415
 30
0.0
  0
SPLINE
  5
22B
330
1F
100
AcDbEntity
  8
0
  6
Continuous
 62
     7
370
    15
100
AcDbSpline
210
0.0
220
0.0
230
1.0
 70
     8
 71
     3
 72
    12
 73
     8
 74
     0
 42
0.00000001
 43
0.00000001
 12
1.0
 22
0.0
 32
0.0
 13
1.0
 23
0.0
 33
0.0
 40
0.0
 40
0.0
 40
0.0
 40
0.0
 40
0.2280904412522111
 40
0.456027534113743
 40
0.6913972583742832
 40
0.9443744412159701
 40
1.0
 40
1.0
 40
1.0
 40
1.0
 10
69.31293466901317
 20
-128.8186130714204
 30
0.0
 10
69.309698565071
 20
-128.686265345078
 30
0.0
 10
69.3032285328646
 20
-128.4216588716188
 30
0.0
 10
69.2532786024387
 20
-128.0667741463286
 30
0.0
 10
69.1787509540148
 20
-127.7838758451766
 30
0.0
 10
69.10827899590025
 20
-127.6490681674534
 30
0.0
 10
69.0663115555826
 20
-127.6082574712313
 30
0.0
 10
69.05874693607822
 20
-127.60090135453
 30
0.0
  0
SPLINE
  5
22C
330
1F
100
AcDbEntity
  8
0
  6
Continuous
 62
     7
370
    15
100
AcDbSpline
210
0.0
220
0.0
230
1.0
 70
     8
 71
     3
 72
    12
 73
     8
 74
     0
 42
0.00000001
 43
0.00000001
 12
1.0
 22
0.0
 32
0.0
 13
1.0
 23
0.0
 33
0.0
 40
0.0
 40
0.0
 40
0.0
 40
0.0
 40
0.2234872852576552
 40
0.4468204005968798
 40
0.6774379217657271
 40
0.925308281693647
 40
1.0
 40
1.0
 40
1.0
 40
1.0
 10
69.31293466901317
 20
-106.3586478721883
 30
0.0
 10
69.30969843646287
 20
-106.2263016544837
 30
0.0
 10
69.30322820383694
 20
-105.9617005164636
 30
0.0
 10
69.25328102030349
 20
-105.6067731269751
 30
0.0
 10
69.1787399324253
 20
-105.3240519084481
 30
0.0
 10
69.10564046028293
 20
-105.1835938252405
 30
0.0
 10
69.06067928066123
 20
-105.1432457198639
 30
0.0
 10
69.05026817535892
 20
-105.1339028072144
 30
0.0
  0
LINE
  5
22D
330
1F
100
AcDbEntity
  8
0
  6
Continuous
 62
     7
370
    15
100
AcDbLine
 10
-77.73753917
 20
-129.9086479139
 30
0.0
 11
69.312934669
 21
-129.9086479139
 31
0.0
  0
LINE
  5
22E
330
1F
100
AcDbEntity
  8
0
  6
Continuous
 62
     7
370
    15
100
AcDbLine
 10
69.260422977
 20
-130.1086512995
 30
0.0
 11
69.312934669
 21
-129.9086479139
 31
0.0
  0
LINE
  5
22F
330
1F
100
AcDbEntity
  8
0
  6
Continuous
 62
     7
370
    15
100
AcDbLine
 10
69.260422977
 20
-130.1086512995
 30
0.0
 11
-77.5375357845
 21
-130.1086512995
 31
0.0
  0
LINE
  5
230
330
1F
100
AcDbEntity
  8
0
  6
Continuous
 62
     7
370
    15
100
AcDbLine
 10
69.312934669
 20
-106.3586478722
 30
0.0
 11
69.312934669
 21
-106.9473219704
 31
0.0
  0
LINE
  5
231
330
1F
100
AcDbEntity
  8
0
  6
Continuous
 62
     7
370
    15
100
AcDbLine
 10
69.312934669
 20
-128.8186130714
 30
0.0
 11
69.312934669
 21
-129.9086479139
 31
0.0
  0
SPLINE
  5
232
330
1F
100
AcDbEntity
  8
0
  6
Continuous
 62
     7
370
    15
100
AcDbSpline
210
0.0
220
0.0
230
1.0
 70
     8
 71
     3
 72
    11
 73
     7
 74
     0
 42
0.00000001
 43
0.00000001
 12
1.0
 22
0.0
 32
0.0
 13
1.0
 23
0.0
 33
0.0
 40
0.0
 40
0.0
 40
0.0
 40
0.0
 40
0.2864176149452242
 40
0.574575138363791
 40
0.8446093974302845
 40
1.0
 40
1.0
 40
1.0
 40
1.0
 10
69.08780978834167
 20
-108.1339833926942
 30
0.0
 10
69.07391786338354
 20
-108.1574749109271
 30
0.0
 10
69.04604962383242
 20
-108.2046006519248
 30
0.0
 10
69.01523801812779
 20
-108.3404745480217
 30
0.0
 10
68.9996658882331
 20
-108.483823185054
 30
0.0
 10
68.99822775783365
 20
-108.5752530513845
 30
0.0
 10
68.99770246660248
 20
-108.6086487066533
 30
0.0
  0
SPLINE
  5
233
330
1F
100
AcDbEntity
  8
0
  6
Continuous
 62
     7
370
    15
100
AcDbSpline
210
0.0
220
0.0
230
1.0
 70
     8
 71
     3
 72
    12
 73
     8
 74
     0
 42
0.00000001
 43
0.00000001
 12
1.0
 22
0.0
 32
0.0
 13
1.0
 23
0.0
 33
0.0
 40
0.0
 40
0.0
 40
0.0
 40
0.0
 40
0.2228572516877242
 40
0.4454706302419995
 40
0.6758063896135214
 40
0.9241521745445701
 40
1.0
 40
1.0
 40
1.0
 40
1.0
 10
68.31333124851719
 20
-101.7046166252877
 30
0.0
 10
68.32239493605006
 20
-102.0744350178776
 30
0.0
 10
68.34051239270455
 20
-102.8136671100553
 30
0.0
 10
68.48024805436143
 20
-103.8055541245907
 30
0.0
 10
68.68882422082767
 20
-104.5975791006938
 30
0.0
 10
68.89405065473306
 20
-104.9934296970458
 30
0.0
 10
69.02064934546803
 20
-105.1072691163348
 30
0.0
 10
69.05026817535892
 20
-105.1339028072144
 30
0.0
  0
SPLINE
  5
234
330
1F
100
AcDbEntity
  8
0
  6
Continuous
 62
     7
370
    15
100
AcDbSpline
210
0.0
220
0.0
230
1.0
 70
     8
 71
     3
 72
    12
 73
     8
 74
     0
 42
0.00000001
 43
0.00000001
 12
1.0
 22
0.0
 32
0.0
 13
1.0
 23
0.0
 33
0.0
 40
0.0
 40
0.0
 40
0.0
 40
0.0
 40
0.2275002946243669
 40
0.4552099886519052
 40
0.6904530070814163
 40
0.9435694725492828
 40
1.0
 40
1.0
 40
1.0
 40
1.0
 10
68.99770246660248
 20
-127.3086486053254
 30
0.0
 10
68.9984769314499
 20
-127.3403374083525
 30
0.0
 10
69.00002657398989
 20
-127.4037441819138
 30
0.0
 10
69.01198752989129
 20
-127.4888287803136
 30
0.0
 10
69.02986812568479
 20
-127.5567886166965
 30
0.0
 10
69.04679234049466
 20
-127.589253499627
 30
0.0
 10
69.05690364216892
 20
-127.5991053573464
 30
0.0
 10
69.05874693607822
 20
-127.60090135453
 30
0.0
  0
LINE
  5
235
330
1F
100
AcDbEntity
  8
0
  6
Continuous
 62
     7
370
    15
100
AcDbLine
 10
68.9977024666
 20
-108.6086487067
 30
0.0
 11
68.9977024666
 21
-127.3086486053
 31
0.0
  0
SPLINE
  5
236
330
1F
100
AcDbEntity
  8
0
  6
Continuous
 62
     7
370
    15
100
AcDbSpline
210
0.0
220
0.0
230
1.0
 70
     8
 71
     3
 72
    11
 73
     7
 74
     0
 42
0.00000001
 43
0.00000001
 12
1.0
 22
0.0
 32
0.0
 13
1.0
 23
0.0
 33
0.0
 40
0.0
 40
0.0
 40
0.0
 40
0.0
 40
0.2670389182039003
 40
0.5352500954671091
 40
0.7875018267088857
 40
1.0
 40
1.0
 40
1.0
 40
1.0
 10
200.0401922485782
 20
-105.1339028072144
 30
0.0
 10
200.0771395807368
 20
-105.1776740932518
 30
0.0
 10
200.1511964380599
 20
-105.2654088144221
 30
0.0
 10
200.2386207427088
 20
-105.5755337755764
 30
0.0
 10
200.293501935616
 20
-105.9578678612264
 30
0.0
 10
200.2999203276289
 20
-106.232896285717
 30
0.0
 10
200.3028550169422
 20
-106.3586478721883
 30
0.0
  0
SPLINE
  5
237
330
1F
100
AcDbEntity
  8
0
  6
Continuous
 62
     7
370
    15
100
AcDbSpline
210
0.0
220
0.0
230
1.0
 70
     8
 71
     3
 72
    11
 73
     7
 74
     0
 42
0.00000001
 43
0.00000001
 12
1.0
 22
0.0
 32
0.0
 13
1.0
 23
0.0
 33
0.0
 40
0.0
 40
0.0
 40
0.0
 40
0.0
 40
0.2712231528007038
 40
0.5435948841245254
 40
0.7994708193047295
 40
1.0
 40
1.0
 40
1.0
 40
1.0
 10
200.0486710092975
 20
-127.60090135453
 30
0.0
 10
200.085176050056
 20
-127.648147206533
 30
0.0
 10
200.1583407234854
 20
-127.7428389877462
 30
0.0
 10
200.243502108447
 20
-128.0601190732601
 30
0.0
 10
200.2946243175239
 20
-128.4379083146454
 30
0.0
 10
200.3003425961118
 20
-128.7024029521415
 30
0.0
 10
200.3028550169422
 20
-128.8186130714203
 30
0.0
  0
SPLINE
  5
238
330
1F
100
AcDbEntity
  8
0
  6
Continuous
 62
     7
370
    15
100
AcDbSpline
210
0.0
220
0.0
230
1.0
 70
     8
 71
     3
 72
    11
 73
     7
 74
     0
 42
0.00000001
 43
0.00000001
 12
1.0
 22
0.0
 32
0.0
 13
1.0
 23
0.0
 33
0.0
 40
0.0
 40
0.0
 40
0.0
 40
0.0
 40
0.245642701118639
 40
0.4911156769337313
 40
0.7445972449243281
 40
1.0
 40
1.0
 40
1.0
 40
1.0
 10
200.3028550169422
 20
-106.9473219704415
 30
0.0
 10
200.2996254652595
 20
-107.0797894525481
 30
0.0
 10
200.2931685933329
 20
-107.3446328891748
 30
0.0
 10
200.2431201172329
 20
-107.6977238868497
 30
0.0
 10
200.1706460126245
 20
-107.981421252015
 30
0.0
 10
200.1087836698218
 20
-108.0830015140728
 30
0.0
 10
200.0777357242061
 20
-108.1339833926942
 30
0.0
  0
LINE
  5
239
330
1F
100
AcDbEntity
  8
0
  6
Continuous
 62
     7
370
    15
100
AcDbLine
 10
269.6624704621
 20
-130.1086512995
 30
0.0
 11
200.2503433249
 21
-130.1086512995
 31
0.0
  0
LINE
  5
23A
330
1F
100
AcDbEntity
  8
0
  6
Continuous
 62
     7
370
    15
100
AcDbLine
 10
200.3028550169
 20
-129.9086479139
 30
0.0
 11
200.2503433249
 21
-130.1086512995
 31
0.0
  0
LINE
  5
23B
330
1F
100
AcDbEntity
  8
0
  6
Continuous
 62
     7
370
    15
100
AcDbLine
 10
200.3028550169
 20
-129.9086479139
 30
0.0
 11
269.8624738476
 21
-129.9086479139
 31
0.0
  0
LINE
  5
23C
330
1F
100
AcDbEntity
  8
0
  6
Continuous
 62
     7
370
    15
100
AcDbLine
 10
200.3028550169
 20
-129.9086479139
 30
0.0
 11
200.3028550169
 21
-128.8186130714
 31
0.0
  0
LINE
  5
23D
330
1F
100
AcDbEntity
  8
0
  6
Continuous
 62
     7
370
    15
100
AcDbLine
 10
200.3028550169
 20
-106.9473219704
 30
0.0
 11
200.3028550169
 21
-106.3586478722
 31
0.0
  0
LINE
  5
23E
330
1F
100
AcDbEntity
  8
0
  6
Continuous
 62
     7
370
    15
100
AcDbLine
 10
200.1978241823
 20
-130.1086512995
 30
0.0
 11
200.1452901385
 21
-129.9086479139
 31
0.0
  0
SPLINE
  5
23F
330
1F
100
AcDbEntity
  8
0
  6
Continuous
 62
     7
370
    15
100
AcDbSpline
210
0.0
220
0.0
230
1.0
 70
     8
 71
     3
 72
    11
 73
     7
 74
     0
 42
0.00000001
 43
0.00000001
 12
1.0
 22
0.0
 32
0.0
 13
1.0
 23
0.0
 33
0.0
 40
0.0
 40
0.0
 40
0.0
 40
0.0
 40
0.2666330281377068
 40
0.5349914117321551
 40
0.7873658593657442
 40
0.9999999999999999
 40
0.9999999999999999
 40
0.9999999999999999
 40
0.9999999999999999
 10
200.0086539409114
 20
-105.7217796933438
 30
0.0
 10
200.0278391514741
 20
-105.7444944810376
 30
0.0
 10
200.0663337181637
 20
-105.7900710415273
 30
0.0
 10
200.1118193614459
 20
-105.9511914773254
 30
0.0
 10
200.1404141602153
 20
-106.1500899305902
 30
0.0
 10
200.1437601295172
 20
-106.2932055132685
 30
0.0
 10
200.1452901384784
 20
-106.3586478721883
 30
0.0
  0
SPLINE
  5
240
330
1F
100
AcDbEntity
  8
0
  6
Continuous
 62
     7
370
    15
100
AcDbSpline
210
0.0
220
0.0
230
1.0
 70
     8
 71
     3
 72
    11
 73
     7
 74
     0
 42
0.00000001
 43
0.00000001
 12
1.0
 22
0.0
 32
0.0
 13
1.0
 23
0.0
 33
0.0
 40
0.0
 40
0.0
 40
0.0
 40
0.0
 40
0.2708691471588784
 40
0.5433893166136823
 40
0.7993846087978699
 40
1.0
 40
1.0
 40
1.0
 40
1.0
 10
200.0130646846248
 20
-128.185403127649
 30
0.0
 10
200.0320267293088
 20
-128.209929272959
 30
0.0
 10
200.0700663975786
 20
-128.2591310572115
 30
0.0
 10
200.114376180176
 20
-128.424009724225
 30
0.0
 10
200.1410004859694
 20
-128.620530450592
 30
0.0
 10
200.1439807407696
 20
-128.7581492158244
 30
0.0
 10
200.1452901384784
 20
-128.8186130714203
 30
0.0
  0
SPLINE
  5
241
330
1F
100
AcDbEntity
  8
0
  6
Continuous
 62
     7
370
    15
100
AcDbSpline
210
0.0
220
0.0
230
1.0
 70
     8
 71
     3
 72
    11
 73
     7
 74
     0
 42
0.00000001
 43
0.00000001
 12
1.0
 22
0.0
 32
0.0
 13
1.0
 23
0.0
 33
0.0
 40
0.0
 40
0.0
 40
0.0
 40
0.0
 40
0.2453935597098471
 40
0.4907310440741753
 40
0.7441311297333192
 40
1.0
 40
1.0
 40
1.0
 40
1.0
 10
200.1452901384784
 20
-106.9473219704415
 30
0.0
 10
200.143614204217
 20
-107.0161459839954
 30
0.0
 10
200.1402627186652
 20
-107.1537782839981
 30
0.0
 10
200.1142536477417
 20
-107.3373048591792
 30
0.0
 10
200.0765498521681
 20
-107.4849477615093
 30
0.0
 10
200.044351621259
 20
-107.53782148584
 30
0.0
 10
200.0281744620754
 20
-107.5643865060593
 30
0.0
  0
LINE
  5
242
330
1F
100
AcDbEntity
  8
0
  6
Continuous
 62
     7
370
    15
100
AcDbLine
 10
200.1452901385
 20
-129.9086479139
 30
0.0
 11
200.1452901385
 21
-128.8186130714
 31
0.0
  0
LINE
  5
243
330
1F
100
AcDbEntity
  8
0
  6
Continuous
 62
     7
370
    15
100
AcDbLine
 10
200.1452901385
 20
-106.9473219704
 30
0.0
 11
200.1452901385
 21
-106.3586478722
 31
0.0
  0
SPLINE
  5
244
330
1F
100
AcDbEntity
  8
0
  6
Continuous
 62
     7
370
    15
100
AcDbSpline
210
0.0
220
0.0
230
1.0
 70
     8
 71
     3
 72
    11
 73
     7
 74
     0
 42
0.00000001
 43
0.00000001
 12
1.0
 22
0.0
 32
0.0
 13
1.0
 23
0.0
 33
0.0
 40
0.0
 40
0.0
 40
0.0
 40
0.0
 40
0.2680457642611483
 40
0.5368684446591085
 40
0.7897187643186814
 40
1.0
 40
1.0
 40
1.0
 40
1.0
 10
200.0401922485782
 20
-105.1339028072144
 30
0.0
 10
199.9362790126829
 20
-105.0106503097581
 30
0.0
 10
199.7281513540035
 20
-104.763788074154
 30
0.0
 10
199.4825856009132
 20
-103.8918915593655
 30
0.0
 10
199.3292023860344
 20
-102.8212184122058
 30
0.0
 10
199.3113576043418
 20
-102.0532889502679
 30
0.0
 10
199.3032553217365
 20
-101.7046166252877
 30
0.0
  0
SPLINE
  5
245
330
1F
100
AcDbEntity
  8
0
  6
Continuous
 62
     7
370
    15
100
AcDbSpline
210
0.0
220
0.0
230
1.0
 70
     8
 71
     3
 72
    11
 73
     7
 74
     0
 42
0.00000001
 43
0.00000001
 12
1.0
 22
0.0
 32
0.0
 13
1.0
 23
0.0
 33
0.0
 40
0.0
 40
0.0
 40
0.0
 40
0.0
 40
0.2452253673058591
 40
0.4904596698992187
 40
0.743843783624413
 40
1.0
 40
1.0
 40
1.0
 40
1.0
 10
199.9876284024669
 20
-108.6086487066533
 30
0.0
 10
199.9889170922764
 20
-108.5557404276629
 30
0.0
 10
199.9914945188512
 20
-108.449921941861
 30
0.0
 10
200.0114996739182
 20
-108.3087892140376
 30
0.0
 10
200.0404928816298
 20
-108.195161938392
 30
0.0
 10
200.0652764990923
 20
-108.1544500708599
 30
0.0
 10
200.0777357242061
 20
-108.1339833926942
 30
0.0
  0
SPLINE
  5
246
330
1F
100
AcDbEntity
  8
0
  6
Continuous
 62
     7
370
    15
100
AcDbSpline
210
0.0
220
0.0
230
1.0
 70
     8
 71
     3
 72
    11
 73
     7
 74
     0
 42
0.00000001
 43
0.00000001
 12
1.0
 22
0.0
 32
0.0
 13
1.0
 23
0.0
 33
0.0
 40
0.0
 40
0.0
 40
0.0
 40
0.0
 40
0.2726407232510092
 40
0.54482991654675
 40
0.7972680882703911
 40
1.0
 40
1.0
 40
1.0
 40
1.0
 10
200.0086539409114
 20
-105.7217796933438
 30
0.0
 10
199.8848382416951
 20
-105.5740698241797
 30
0.0
 10
199.6374118988259
 20
-105.2788947133958
 30
0.0
 10
199.3487412055209
 20
-104.2367120340876
 30
0.0
 10
199.1737152688357
 20
-102.9822596725295
 30
0.0
 10
199.1538829648063
 20
-102.0983211882346
 30
0.0
 10
199.1450496933414
 20
-101.7046166252877
 30
0.0
  0
SPLINE
  5
247
330
1F
100
AcDbEntity
  8
0
  6
Continuous
 62
     7
370
    15
100
AcDbSpline
210
0.0
220
0.0
230
1.0
 70
     8
 71
     3
 72
    11
 73
     7
 74
     0
 42
0.00000001
 43
0.00000001
 12
1.0
 22
0.0
 32
0.0
 13
1.0
 23
0.0
 33
0.0
 40
0.0
 40
0.0
 40
0.0
 40
0.0
 40
0.2697912741923905
 40
0.5424820932002635
 40
0.7986841319474804
 40
1.0
 40
1.0
 40
1.0
 40
1.0
 10
200.0486710092975
 20
-127.60090135453
 30
0.0
 10
200.039951624109
 20
-127.589635867517
 30
0.0
 10
200.0224191433323
 20
-127.5669838192104
 30
0.0
 10
200.001967874263
 20
-127.4910835166901
 30
0.0
 10
199.9896183333064
 20
-127.4003039239353
 30
0.0
 10
199.9882364536471
 20
-127.3366551689411
 30
0.0
 10
199.9876284024669
 20
-127.3086486053254
 30
0.0
  0
SPLINE
  5
248
330
1F
100
AcDbEntity
  8
0
  6
Continuous
 62
     7
370
    15
100
AcDbSpline
210
0.0
220
0.0
230
1.0
 70
     8
 71
     3
 72
    11
 73
     7
 74
     0
 42
0.00000001
 43
0.00000001
 12
1.0
 22
0.0
 32
0.0
 13
1.0
 23
0.0
 33
0.0
 40
0.0
 40
0.0
 40
0.0
 40
0.0
 40
0.2452655441488491
 40
0.4903697905208533
 40
0.7437071144490908
 40
0.9999999999999999
 40
0.9999999999999999
 40
0.9999999999999999
 40
0.9999999999999999
 10
199.8298623583271
 20
-108.6086487066533
 30
0.0
 10
199.8327038379696
 20
-108.4922125209865
 30
0.0
 10
199.8383849285685
 20
-108.2594167233843
 30
0.0
 10
199.882407779268
 20
-107.9489880577676
 30
0.0
 10
199.9462064422484
 20
-107.6990357473026
 30
0.0
 10
200.0007463554408
 20
-107.6094427823348
 30
0.0
 10
200.0281744620754
 20
-107.5643865060593
 30
0.0
  0
SPLINE
  5
249
330
1F
100
AcDbEntity
  8
0
  6
Continuous
 62
     7
370
    15
100
AcDbSpline
210
0.0
220
0.0
230
1.0
 70
     8
 71
     3
 72
    11
 73
     7
 74
     0
 42
0.00000001
 43
0.00000001
 12
1.0
 22
0.0
 32
0.0
 13
1.0
 23
0.0
 33
0.0
 40
0.0
 40
0.0
 40
0.0
 40
0.0
 40
0.2713639456355608
 40
0.5440672755958453
 40
0.8002338813619632
 40
1.0
 40
1.0
 40
1.0
 40
1.0
 10
200.0130646846248
 20
-128.185403127649
 30
0.0
 10
199.9867567317878
 20
-128.1513600176463
 30
0.0
 10
199.9340109766619
 20
-128.0831057693946
 30
0.0
 10
199.8725964708394
 20
-127.8544194631719
 30
0.0
 10
199.835774373026
 20
-127.5823436913072
 30
0.0
 10
199.8316635209222
 20
-127.3920329296948
 30
0.0
 10
199.8298623583271
 20
-127.3086486053254
 30
0.0
  0
LINE
  5
24A
330
1F
100
AcDbEntity
  8
0
  6
Continuous
 62
     7
370
    15
100
AcDbLine
 10
199.9876284025
 20
-127.3086486053
 30
0.0
 11
199.9876284025
 21
-108.6086487067
 31
0.0
  0
LINE
  5
24B
330
1F
100
AcDbEntity
  8
0
  6
Continuous
 62
     7
370
    15
100
AcDbLine
 10
199.8298623583
 20
-127.3086486053
 30
0.0
 11
199.8298623583
 21
-108.6086487067
 31
0.0
  0
LINE
  5
24C
330
1F
100
AcDbEntity
  8
0
  6
Continuous
 62
     7
370
    15
100
AcDbLine
 10
200.2503433249
 20
-130.1086512995
 30
0.0
 11
200.1978241823
 21
-130.1086512995
 31
0.0
  0
LINE
  5
24D
330
1F
100
AcDbEntity
  8
0
  6
Continuous
 62
     7
370
    15
100
AcDbLine
 10
246.3160314581
 20
-375.1086337161
 30
0.0
 11
237.3160281203
 21
-375.1086337161
 31
0.0
  0
SPLINE
  5
24E
330
1F
100
AcDbEntity
  8
0
  6
Continuous
 62
     7
370
    15
100
AcDbSpline
210
0.0
220
0.0
230
1.0
 70
     8
 71
     3
 72
    10
 73
     6
 74
     0
 42
0.00000001
 43
0.00000001
 12
1.0
 22
0.0
 32
0.0
 13
1.0
 23
0.0
 33
0.0
 40
0.0
 40
0.0
 40
0.0
 40
0.0
 40
0.3971551627464459
 40
0.7941270068958134
 40
0.9999999999999999
 40
0.9999999999999999
 40
0.9999999999999999
 40
0.9999999999999999
 10
238.3579173109486
 20
-372.6790887903954
 30
0.0
 10
238.5262666276511
 20
-372.5259432216939
 30
0.0
 10
238.8628875544987
 20
-372.2197227731133
 30
0.0
 10
239.420300480641
 20
-372.0323456335714
 30
0.0
 10
239.7626285934701
 20
-372.0146864131307
 30
0.0
 10
239.8795344850971
 20
-372.0086557459618
 30
0.0
  0
LINE
  5
24F
330
1F
100
AcDbEntity
  8
0
  6
Continuous
 62
     7
370
    15
100
AcDbLine
 10
239.8795344851
 20
-372.008655746
 30
0.0
 11
241.3160213253
 21
-372.008655746
 31
0.0
  0
SPLINE
  5
250
330
1F
100
AcDbEntity
  8
0
  6
Continuous
 62
     7
370
    15
100
AcDbSpline
210
0.0
220
0.0
230
1.0
 70
    24
 71
     3
 72
    10
 73
     6
 74
     0
 42
0.00000001
 43
0.00000001
 12
1.0
 22
0.0
 32
0.0
 13
1.0
 23
0.0
 33
0.0
 40
0.0
 40
0.0
 40
0.0
 40
0.0
 40
0.4119477543375938
 40
0.8219666491244644
 40
1.0
 40
1.0
 40
1.0
 40
1.0
 10
241.3160213253452
 20
-372.0086557459618
 30
0.0
 10
241.3160213253452
 20
-372.0316634347985
 30
0.0
 10
241.3160213253452
 20
-372.0775710837618
 30
0.0
 10
241.3160213253452
 20
-372.3695761310965
 30
0.0
 10
241.3160213253452
 20
-372.6071600449362
 30
0.0
 10
241.3160213253452
 20
-372.6790887903954
 30
0.0
  0
LINE
  5
251
330
1F
100
AcDbEntity
  8
0
  6
Continuous
 62
     7
370
    15
100
AcDbLine
 10
241.3160213253
 20
-372.6790887904
 30
0.0
 11
242.3160233519
 21
-372.6790887904
 31
0.0
  0
SPLINE
  5
252
330
1F
100
AcDbEntity
  8
0
  6
Continuous
 62
     7
370
    15
100
AcDbSpline
210
0.0
220
0.0
230
1.0
 70
    24
 71
     3
 72
    10
 73
     6
 74
     0
 42
0.00000001
 43
0.00000001
 12
1.0
 22
0.0
 32
0.0
 13
1.0
 23
0.0
 33
0.0
 40
0.0
 40
0.0
 40
0.0
 40
0.0
 40
0.3971608446820787
 40
0.7941232618021328
 40
1.0
 40
1.0
 40
1.0
 40
1.0
 10
242.3160233519031
 20
-372.6790887903954
 30
0.0
 10
242.3160233519031
 20
-372.5259439637947
 30
0.0
 10
242.3160233519032
 20
-372.2197308240636
 30
0.0
 10
242.3160233519031
 20
-372.0323432547162
 30
0.0
 10
242.3160233519031
 20
-372.0146859316891
 30
0.0
 10
242.3160233519031
 20
-372.0086557459618
 30
0.0
  0
LINE
  5
253
330
1F
100
AcDbEntity
  8
0
  6
Continuous
 62
     7
370
    15
100
AcDbLine
 10
242.3160233519
 20
-372.008655746
 30
0.0
 11
243.7525101922
 21
-372.008655746
 31
0.0
  0
SPLINE
  5
254
330
1F
100
AcDbEntity
  8
0
  6
Continuous
 62
     7
370
    15
100
AcDbSpline
210
0.0
220
0.0
230
1.0
 70
     8
 71
     3
 72
    10
 73
     6
 74
     0
 42
0.00000001
 43
0.00000001
 12
1.0
 22
0.0
 32
0.0
 13
1.0
 23
0.0
 33
0.0
 40
0.0
 40
0.0
 40
0.0
 40
0.0
 40
0.4119546550284572
 40
0.8219642306047416
 40
1.0
 40
1.0
 40
1.0
 40
1.0
 10
243.7525101921512
 20
-372.0086557459618
 30
0.0
 10
243.9874165325593
 20
-372.0316614838287
 30
0.0
 10
244.4561200828186
 20
-372.077564335986
 30
0.0
 10
244.9678915330691
 20
-372.3695834536606
 30
0.0
 10
245.2029701890703
 20
-372.6071603487146
 30
0.0
 10
245.274142267461
 20
-372.6790887903954
 30
0.0
  0
LINE
  5
255
330
1F
100
AcDbEntity
  8
0
  6
Continuous
 62
     7
370
    15
100
AcDbLine
 10
276.7624714396
 20
-308.0356312585
 30
0.0
 11
269.7624721549
 21
-308.0356312585
 31
0.0
  0
LINE
  5
256
330
1F
100
AcDbEntity
  8
0
  6
Continuous
 62
     7
370
    15
100
AcDbLine
 10
276.7624714396
 20
-308.0356312585
 30
0.0
 11
276.7624714396
 21
-314.4600582909
 31
0.0
  0
LINE
  5
257
330
1F
100
AcDbEntity
  8
0
  6
Continuous
 62
     7
370
    15
100
AcDbLine
 10
276.7624714396
 20
-314.4600582909
 30
0.0
 11
269.7624721549
 21
-314.4600582909
 31
0.0
  0
LINE
  5
258
330
1F
100
AcDbEntity
  8
0
  6
Continuous
 62
     7
370
    15
100
AcDbLine
 10
276.7624714396
 20
-321.0330648017
 30
0.0
 11
269.7624721549
 21
-321.0330648017
 31
0.0
  0
LINE
  5
259
330
1F
100
AcDbEntity
  8
0
  6
Continuous
 62
     7
370
    15
100
AcDbLine
 10
276.7624714396
 20
-314.4600582909
 30
0.0
 11
276.7624714396
 21
-321.0330648017
 31
0.0
  0
LINE
  5
25A
330
1F
100
AcDbEntity
  8
0
  6
Continuous
 62
     7
370
    15
100
AcDbLine
 10
276.7624714396
 20
-321.1816591811
 30
0.0
 11
269.7624721549
 21
-321.1816591811
 31
0.0
  0
LINE
  5
25B
330
1F
100
AcDbEntity
  8
0
  6
Continuous
 62
     7
370
    15
100
AcDbLine
 10
276.7624714396
 20
-321.0330648017
 30
0.0
 11
276.7624714396
 21
-321.1816591811
 31
0.0
  0
LINE
  5
25C
330
1F
100
AcDbEntity
  8
0
  6
Continuous
 62
     7
370
    15
100
AcDbLine
 10
-84.637536762
 20
-322.1104485583
 30
0.0
 11
-77.6375374773
 21
-322.1104485583
 31
0.0
  0
LINE
  5
25D
330
1F
100
AcDbEntity
  8
0
  6
Continuous
 62
     7
370
    15
100
AcDbLine
 10
-84.637536762
 20
-322.1104485583
 30
0.0
 11
-84.637536762
 21
-318.1537134242
 31
0.0
  0
LINE
  5
25E
330
1F
100
AcDbEntity
  8
0
  6
Continuous
 62
     7
370
    15
100
AcDbLine
 10
-84.637536762
 20
-318.1537134242
 30
0.0
 11
-77.6375374773
 21
-318.1537134242
 31
0.0
  0
LINE
  5
25F
330
1F
100
AcDbEntity
  8
0
  6
Continuous
 62
     7
370
    15
100
AcDbLine
 10
-84.637536762
 20
-310.6519324374
 30
0.0
 11
-77.6375374773
 21
-310.6519324374
 31
0.0
  0
LINE
  5
260
330
1F
100
AcDbEntity
  8
0
  6
Continuous
 62
     7
370
    15
100
AcDbLine
 10
-84.637536762
 20
-318.1537134242
 30
0.0
 11
-84.637536762
 21
-310.6519324374
 31
0.0
  0
LINE
  5
261
330
1F
100
AcDbEntity
  8
0
  6
Continuous
 62
     7
370
    15
100
AcDbLine
 10
-84.637536762
 20
-307.1068567824
 30
0.0
 11
-77.6375374773
 21
-307.1068567824
 31
0.0
  0
LINE
  5
262
330
1F
100
AcDbEntity
  8
0
  6
Continuous
 62
     7
370
    15
100
AcDbLine
 10
-84.637536762
 20
-310.6519324374
 30
0.0
 11
-84.637536762
 21
-307.1068567824
 31
0.0
  0
LINE
  5
263
330
1F
100
AcDbEntity
  8
0
  6
Continuous
 62
     7
370
    15
100
AcDbLine
 10
-77.6375374773
 20
-303.4943235707
 30
0.0
 11
-77.6375374773
 21
-325.7229668689
 31
0.0
  0
LINE
  5
264
330
1F
100
AcDbEntity
  8
0
  6
Continuous
 62
     7
370
    15
100
AcDbLine
 10
-74.437528012
 20
-303.4943235707
 30
0.0
 11
-74.437528012
 21
-325.7229668689
 31
0.0
  0
LINE
  5
265
330
1F
100
AcDbEntity
  8
0
  6
Continuous
 62
     7
370
    15
100
AcDbLine
 10
-77.6375374773
 20
-292.8431076598
 30
0.0
 11
-77.6375374773
 21
-303.4943235707
 31
0.0
  0
LINE
  5
266
330
1F
100
AcDbEntity
  8
0
  6
Continuous
 62
     7
370
    15
100
AcDbLine
 10
-74.437528012
 20
-292.8431076598
 30
0.0
 11
-74.437528012
 21
-303.4943235707
 31
0.0
  0
LINE
  5
267
330
1F
100
AcDbEntity
  8
0
  6
Continuous
 62
     7
370
    15
100
AcDbLine
 10
-77.6375374773
 20
-325.7229668689
 30
0.0
 11
-77.6375374773
 21
-336.3741976809
 31
0.0
  0
LINE
  5
268
330
1F
100
AcDbEntity
  8
0
  6
Continuous
 62
     7
370
    15
100
AcDbLine
 10
-74.437528012
 20
-325.7229668689
 30
0.0
 11
-74.437528012
 21
-336.3741976809
 31
0.0
  0
LINE
  5
269
330
1F
100
AcDbEntity
  8
0
  6
Continuous
 62
     7
370
    15
100
AcDbLine
 10
-77.6375374773
 20
-291.1086422992
 30
0.0
 11
-77.6375374773
 21
-292.8431076598
 31
0.0
  0
LINE
  5
26A
330
1F
100
AcDbEntity
  8
0
  6
Continuous
 62
     7
370
    15
100
AcDbLine
 10
-74.437528012
 20
-291.1086422992
 30
0.0
 11
-74.437528012
 21
-292.8431076598
 31
0.0
  0
LINE
  5
26B
330
1F
100
AcDbEntity
  8
0
  6
Continuous
 62
     7
370
    15
100
AcDbLine
 10
-77.6375374773
 20
-336.3741976809
 30
0.0
 11
-77.6375374773
 21
-338.1086630416
 31
0.0
  0
LINE
  5
26C
330
1F
100
AcDbEntity
  8
0
  6
Continuous
 62
     7
370
    15
100
AcDbLine
 10
-74.437528012
 20
-336.3741976809
 30
0.0
 11
-74.437528012
 21
-338.1086630416
 31
0.0
  0
LINE
  5
26D
330
1F
100
AcDbEntity
  8
0
  6
Continuous
 62
     7
370
    15
100
AcDbLine
 10
269.7624721549
 20
-303.4943235707
 30
0.0
 11
269.7624721549
 21
-325.7229668689
 31
0.0
  0
LINE
  5
26E
330
1F
100
AcDbEntity
  8
0
  6
Continuous
 62
     7
370
    15
100
AcDbLine
 10
266.5624626896
 20
-303.4943235707
 30
0.0
 11
266.5624626896
 21
-325.7229668689
 31
0.0
  0
LINE
  5
26F
330
1F
100
AcDbEntity
  8
0
  6
Continuous
 62
     7
370
    15
100
AcDbLine
 10
269.7624721549
 20
-292.8431076598
 30
0.0
 11
269.7624721549
 21
-303.4943235707
 31
0.0
  0
LINE
  5
270
330
1F
100
AcDbEntity
  8
0
  6
Continuous
 62
     7
370
    15
100
AcDbLine
 10
266.5624626896
 20
-292.8431076598
 30
0.0
 11
266.5624626896
 21
-303.4943235707
 31
0.0
  0
LINE
  5
271
330
1F
100
AcDbEntity
  8
0
  6
Continuous
 62
     7
370
    15
100
AcDbLine
 10
269.7624721549
 20
-325.7229668689
 30
0.0
 11
269.7624721549
 21
-336.3741976809
 31
0.0
  0
LINE
  5
272
330
1F
100
AcDbEntity
  8
0
  6
Continuous
 62
     7
370
    15
100
AcDbLine
 10
266.5624626896
 20
-325.7229668689
 30
0.0
 11
266.5624626896
 21
-336.3741976809
 31
0.0
  0
LINE
  5
273
330
1F
100
AcDbEntity
  8
0
  6
Continuous
 62
     7
370
    15
100
AcDbLine
 10
269.7624721549
 20
-291.1086422992
 30
0.0
 11
269.7624721549
 21
-292.8431076598
 31
0.0
  0
LINE
  5
274
330
1F
100
AcDbEntity
  8
0
  6
Continuous
 62
     7
370
    15
100
AcDbLine
 10
266.5624626896
 20
-291.1086422992
 30
0.0
 11
266.5624626896
 21
-292.8431076598
 31
0.0
  0
LINE
  5
275
330
1F
100
AcDbEntity
  8
0
  6
Continuous
 62
     7
370
    15
100
AcDbLine
 10
269.7624721549
 20
-336.3741976809
 30
0.0
 11
269.7624721549
 21
-338.1086630416
 31
0.0
  0
LINE
  5
276
330
1F
100
AcDbEntity
  8
0
  6
Continuous
 62
     7
370
    15
100
AcDbLine
 10
266.5624626896
 20
-336.3741976809
 30
0.0
 11
266.5624626896
 21
-338.1086630416
 31
0.0
  0
SPLINE
  5
277
330
1F
100
AcDbEntity
  8
0
  6
Continuous
 62
     7
370
    15
100
AcDbSpline
210
0.0
220
0.0
230
1.0
 70
     8
 71
     3
 72
    11
 73
     7
 74
     0
 42
0.00000001
 43
0.00000001
 12
1.0
 22
0.0
 32
0.0
 13
1.0
 23
0.0
 33
0.0
 40
0.0
 40
0.0
 40
0.0
 40
0.0
 40
0.3155011455183101
 40
0.6351777684942586
 40
0.9687306136339137
 40
1.0
 40
1.0
 40
1.0
 40
1.0
 10
276.2624629757358
 20
-298.6426693987633
 30
0.0
 10
276.0419628381927
 20
-298.6409008820387
 30
0.0
 10
275.5980443697281
 20
-298.6373404432807
 30
0.0
 10
275.0272647086646
 20
-298.6196639495052
 30
0.0
 10
274.6733807653252
 20
-298.6050143234754
 30
0.0
 10
274.5810335322426
 20
-298.609419835061
 30
0.0
 10
274.5731183311893
 20
-298.6097974371697
 30
0.0
  0
SPLINE
  5
278
330
1F
100
AcDbEntity
  8
0
  6
Continuous
 62
     7
370
    15
100
AcDbSpline
210
0.0
220
0.0
230
1.0
 70
     8
 71
     3
 72
    11
 73
     7
 74
     0
 42
0.00000001
 43
0.00000001
 12
1.0
 22
0.0
 32
0.0
 13
1.0
 23
0.0
 33
0.0
 40
0.0
 40
0.0
 40
0.0
 40
0.0
 40
0.3155011061230237
 40
0.6351779426000218
 40
0.9687306095996407
 40
1.0
 40
1.0
 40
1.0
 40
1.0
 10
276.2624629757358
 20
-330.5746359419609
 30
0.0
 10
276.0419627831926
 20
-330.5763954835192
 30
0.0
 10
275.5980440268892
 20
-330.5799378545765
 30
0.0
 10
275.0272651904049
 20
-330.5976611264872
 30
0.0
 10
274.6733806976958
 20
-330.6122603548022
 30
0.0
 10
274.5810335313234
 20
-330.6078556356493
 30
0.0
 10
274.5731183311893
 20
-330.6074781012322
 30
0.0
  0
LINE
  5
279
330
1F
100
AcDbEntity
  8
0
  6
Continuous
 62
     7
370
    15
100
AcDbLine
 10
275.2624609492
 20
-301.0524106812
 30
0.0
 11
275.2624609492
 21
-308.0356312585
 31
0.0
  0
LINE
  5
27A
330
1F
100
AcDbEntity
  8
0
  6
Continuous
 62
     7
370
    15
100
AcDbLine
 10
282.2624602339
 20
-315.5075056147
 30
0.0
 11
282.2624602339
 21
-318.7121791434
 31
0.0
  0
LINE
  5
27B
330
1F
100
AcDbEntity
  8
0
  6
Continuous
 62
     7
370
    15
100
AcDbLine
 10
282.2624602339
 20
-312.5256789517
 30
0.0
 11
282.2624602339
 21
-315.5075056147
 31
0.0
  0
LINE
  5
27C
330
1F
100
AcDbEntity
  8
0
  6
Continuous
 62
     7
370
    15
100
AcDbLine
 10
275.2624609492
 20
-321.1816591811
 30
0.0
 11
275.2624609492
 21
-329.5703572821
 31
0.0
  0
LINE
  5
27D
330
1F
100
AcDbEntity
  8
0
  6
Continuous
 62
     7
370
    15
100
AcDbLine
 10
282.2624602339
 20
-305.6455148053
 30
0.0
 11
282.2624602339
 21
-312.5256789517
 31
0.0
  0
LINE
  5
27E
330
1F
100
AcDbEntity
  8
0
  6
Continuous
 62
     7
370
    15
100
AcDbLine
 10
282.2624602339
 20
-300.2026719641
 30
0.0
 11
282.2624602339
 21
-305.6455148053
 31
0.0
  0
ARC
  5
27F
330
1F
100
AcDbEntity
  8
0
  6
Continuous
 62
     7
370
    15
100
AcDbCircle
 10
281.2635303286
 20
-299.6415993057
 30
0.0
 40
0.9989304663600194
100
AcDbArc
 50
0.0607266607
 51
90.0606391171
  0
LINE
  5
280
330
1F
100
AcDbEntity
  8
0
  6
Continuous
 62
     7
370
    15
100
AcDbLine
 10
282.2624602339
 20
-299.6405405593
 30
0.0
 11
282.2624602339
 21
-300.2026719641
 31
0.0
  0
LINE
  5
281
330
1F
100
AcDbEntity
  8
0
  6
Continuous
 62
     7
370
    15
100
AcDbLine
 10
276.2624629757
 20
-298.6405385327
 30
0.0
 11
276.2624629757
 21
-298.6426693988
 31
0.0
  0
LINE
  5
282
330
1F
100
AcDbEntity
  8
0
  6
Continuous
 62
     7
370
    15
100
AcDbLine
 10
281.2624731085
 20
-298.6426693988
 30
0.0
 11
281.2624731085
 21
-298.6405385327
 31
0.0
  0
LINE
  5
283
330
1F
100
AcDbEntity
  8
0
  6
Continuous
 62
     7
370
    15
100
AcDbLine
 10
282.2624602339
 20
-322.9126078677
 30
0.0
 11
282.2624602339
 21
-329.5767647815
 31
0.0
  0
LINE
  5
284
330
1F
100
AcDbEntity
  8
0
  6
Continuous
 62
     7
370
    15
100
AcDbLine
 10
282.2624602339
 20
-318.7121791434
 30
0.0
 11
282.2624602339
 21
-322.9126078677
 31
0.0
  0
LINE
  5
285
330
1F
100
AcDbEntity
  8
0
  6
Continuous
 62
     7
370
    15
100
AcDbLine
 10
7.6741212032
 20
-388.1086451602
 30
0.0
 11
184.4508134744
 21
-388.1086451602
 31
0.0
  0
LINE
  5
286
330
1F
100
AcDbEntity
  8
0
  6
Continuous
 62
     7
370
    15
100
AcDbLine
 10
7.6741212032
 20
-390.1086492133
 30
0.0
 11
184.4508134744
 21
-390.1086492133
 31
0.0
  0
SPLINE
  5
287
330
1F
100
AcDbEntity
  8
0
  6
Continuous
 62
     7
370
    15
100
AcDbSpline
210
0.0
220
0.0
230
1.0
 70
    24
 71
     3
 72
    13
 73
     9
 74
     0
 42
0.00000001
 43
0.00000001
 12
1.0
 22
0.0
 32
0.0
 13
1.0
 23
0.0
 33
0.0
 40
0.0
 40
0.0
 40
0.0
 40
0.0
 40
0.1163831778228673
 40
0.3491371433359481
 40
0.5825794320610629
 40
0.7909414895254109
 40
0.8954894061196542
 40
1.0
 40
1.0
 40
1.0
 40
1.0
 10
70.33189842319027
 20
-365.6086368155266
 30
0.0
 10
72.31798676001388
 20
-365.6086368155266
 30
0.0
 10
78.27604033186952
 20
-365.6086368155266
 30
0.0
 10
88.29318128664455
 20
-365.6086368155266
 30
0.0
 10
99.89304715877539
 20
-365.6086368155266
 30
0.0
 10
109.2828731728931
 20
-365.6086368155265
 30
0.0
 10
116.4455334489118
 20
-365.6086368155267
 30
0.0
 10
120.0107474822718
 20
-365.6086368155266
 30
0.0
 10
121.7930362544014
 20
-365.6086368155266
 30
0.0
  0
LINE
  5
288
330
1F
100
AcDbEntity
  8
0
  6
Continuous
 62
     7
370
    15
100
AcDbLine
 10
121.7930362544
 20
-365.6086368155
 30
0.0
 11
178.0983665011
 21
-365.6086368155
 31
0.0
  0
LINE
  5
289
330
1F
100
AcDbEntity
  8
0
  6
Continuous
 62
     7
370
    15
100
AcDbLine
 10
14.0265681765
 20
-365.6086368155
 30
0.0
 11
70.3318984232
 21
-365.6086368155
 31
0.0
  0
LINE
  5
28A
330
1F
100
AcDbEntity
  8
0
  6
Continuous
 62
     7
370
    15
100
AcDbLine
 10
184.4508134744
 20
-388.1086451602
 30
0.0
 11
265.1982464812
 21
-388.1086451602
 31
0.0
  0
LINE
  5
28B
330
1F
100
AcDbEntity
  8
0
  6
Continuous
 62
     7
370
    15
100
AcDbLine
 10
184.4508134744
 20
-390.1086492133
 30
0.0
 11
265.1982464812
 21
-390.1086492133
 31
0.0
  0
LINE
  5
28C
330
1F
100
AcDbEntity
  8
0
  6
Continuous
 62
     7
370
    15
100
AcDbLine
 10
-73.0733118036
 20
-388.1086451602
 30
0.0
 11
7.6741212032
 21
-388.1086451602
 31
0.0
  0
LINE
  5
28D
330
1F
100
AcDbEntity
  8
0
  6
Continuous
 62
     7
370
    15
100
AcDbLine
 10
-73.0733118036
 20
-390.1086492133
 30
0.0
 11
7.6741212032
 21
-390.1086492133
 31
0.0
  0
LINE
  5
28E
330
1F
100
AcDbEntity
  8
0
  6
Continuous
 62
     7
370
    15
100
AcDbLine
 10
177.9105671666
 20
-375.9086472583
 30
0.0
 11
183.4785425088
 21
-375.9086472583
 31
0.0
  0
LINE
  5
28F
330
1F
100
AcDbEntity
  8
0
  6
Continuous
 62
     7
370
    15
100
AcDbLine
 10
8.6463921688
 20
-375.9086472583
 30
0.0
 11
14.214367511
 21
-375.9086472583
 31
0.0
  0
LINE
  5
290
330
1F
100
AcDbEntity
  8
0
  6
Continuous
 62
     7
370
    15
100
AcDbLine
 10
183.4785425088
 20
-375.9086472583
 30
0.0
 11
259.7848632357
 21
-375.9086472583
 31
0.0
  0
LINE
  5
291
330
1F
100
AcDbEntity
  8
0
  6
Continuous
 62
     7
370
    15
100
AcDbLine
 10
-67.6599285581
 20
-375.9086472583
 30
0.0
 11
8.6463921688
 21
-375.9086472583
 31
0.0
  0
LINE
  5
292
330
1F
100
AcDbEntity
  8
0
  6
Continuous
 62
     7
370
    15
100
AcDbLine
 10
7.0882149956
 20
-365.6086368155
 30
0.0
 11
14.0265681765
 21
-365.6086368155
 31
0.0
  0
SPLINE
  5
293
330
1F
100
AcDbEntity
  8
0
  6
Continuous
 62
     7
370
    15
100
AcDbSpline
210
0.0
220
0.0
230
1.0
 70
     8
 71
     3
 72
    11
 73
     7
 74
     0
 42
0.00000001
 43
0.00000001
 12
1.0
 22
0.0
 32
0.0
 13
1.0
 23
0.0
 33
0.0
 40
0.0
 40
0.0
 40
0.0
 40
0.0
 40
0.348683207609874
 40
0.6589511473904569
 40
0.846582280770051
 40
1.0
 40
1.0
 40
1.0
 40
1.0
 10
178.0983665010883
 20
-365.6086368155266
 30
0.0
 10
178.2070328980461
 20
-365.610415143606
 30
0.0
 10
178.4123936535838
 20
-365.6137758770821
 30
0.0
 10
178.6837546385051
 20
-365.6455775423908
 30
0.0
 10
178.8839542098391
 20
-365.6888073911379
 30
0.0
 10
178.973983558445
 20
-365.72126304817
 30
0.0
 10
179.0144824407055
 20
-365.7358629297997
 30
0.0
  0
LINE
  5
294
330
1F
100
AcDbEntity
  8
0
  6
Continuous
 62
     7
370
    15
100
AcDbLine
 10
178.0983665011
 20
-365.6086368155
 30
0.0
 11
185.036719682
 21
-365.6086368155
 31
0.0
  0
LINE
  5
295
330
1F
100
AcDbEntity
  8
0
  6
Continuous
 62
     7
370
    15
100
AcDbLine
 10
240.9195759318
 20
-365.6086368155
 30
0.0
 11
247.6009287856
 21
-365.6086368155
 31
0.0
  0
LINE
  5
296
330
1F
100
AcDbEntity
  8
0
  6
Continuous
 62
     7
370
    15
100
AcDbLine
 10
-55.475994108
 20
-365.6086368155
 30
0.0
 11
-48.7946412542
 21
-365.6086368155
 31
0.0
  0
LINE
  5
297
330
1F
100
AcDbEntity
  8
0
  6
Continuous
 62
     7
370
    15
100
AcDbLine
 10
265.1982464812
 20
-388.1086451602
 30
0.0
 11
273.0727502129
 21
-388.1086451602
 31
0.0
  0
LINE
  5
298
330
1F
100
AcDbEntity
  8
0
  6
Continuous
 62
     7
370
    15
100
AcDbLine
 10
265.1982464812
 20
-390.1086492133
 30
0.0
 11
273.0727502129
 21
-390.1086492133
 31
0.0
  0
LINE
  5
299
330
1F
100
AcDbEntity
  8
0
  6
Continuous
 62
     7
370
    15
100
AcDbLine
 10
-80.9478155353
 20
-388.1086451602
 30
0.0
 11
-73.0733118036
 21
-388.1086451602
 31
0.0
  0
LINE
  5
29A
330
1F
100
AcDbEntity
  8
0
  6
Continuous
 62
     7
370
    15
100
AcDbLine
 10
-80.9478155353
 20
-390.1086492133
 30
0.0
 11
-73.0733118036
 21
-390.1086492133
 31
0.0
  0
LINE
  5
29B
330
1F
100
AcDbEntity
  8
0
  6
Continuous
 62
     7
370
    15
100
AcDbLine
 10
259.7848632357
 20
-375.9086472583
 30
0.0
 11
260.7520976088
 21
-375.9086472583
 31
0.0
  0
LINE
  5
29C
330
1F
100
AcDbEntity
  8
0
  6
Continuous
 62
     7
370
    15
100
AcDbLine
 10
-68.6271629312
 20
-375.9086472583
 30
0.0
 11
-67.6599285581
 21
-375.9086472583
 31
0.0
  0
LINE
  5
29D
330
1F
100
AcDbEntity
  8
0
  6
Continuous
 62
     7
370
    15
100
AcDbLine
 10
247.6009287856
 20
-365.6086368155
 30
0.0
 11
266.4494671843
 21
-365.6086368155
 31
0.0
  0
LINE
  5
29E
330
1F
100
AcDbEntity
  8
0
  6
Continuous
 62
     7
370
    15
100
AcDbLine
 10
-74.3245325067
 20
-365.6086368155
 30
0.0
 11
-55.475994108
 21
-365.6086368155
 31
0.0
  0
SPLINE
  5
29F
330
1F
100
AcDbEntity
  8
0
  6
Continuous
 62
     7
370
    15
100
AcDbSpline
210
0.0
220
0.0
230
1.0
 70
    24
 71
     3
 72
    10
 73
     6
 74
     0
 42
0.00000001
 43
0.00000001
 12
1.0
 22
0.0
 32
0.0
 13
1.0
 23
0.0
 33
0.0
 40
0.0
 40
0.0
 40
0.0
 40
0.0
 40
0.2327709637012832
 40
0.698288110347969
 40
1.0
 40
1.0
 40
1.0
 40
1.0
 10
266.4494671843005
 20
-365.6086368155266
 30
0.0
 10
266.6964269766316
 20
-365.6086368155266
 30
0.0
 10
267.4372800623285
 20
-365.6086368155266
 30
0.0
 10
267.8891596470399
 20
-365.6086368155267
 30
0.0
 10
267.8883454628871
 20
-365.6086368155266
 30
0.0
 10
267.8880252859546
 20
-365.6086368155266
 30
0.0
  0
SPLINE
  5
2A0
330
1F
100
AcDbEntity
  8
0
  6
Continuous
 62
     7
370
    15
100
AcDbSpline
210
0.0
220
0.0
230
1.0
 70
    24
 71
     3
 72
    11
 73
     7
 74
     0
 42
0.00000001
 43
0.00000001
 12
1.0
 22
0.0
 32
0.0
 13
1.0
 23
0.0
 33
0.0
 40
0.0
 40
0.0
 40
0.0
 40
0.0
 40
0.1651753907454737
 40
0.5818912561495697
 40
0.7909829500498372
 40
1.0
 40
1.0
 40
1.0
 40
1.0
 10
-75.763090608363
 20
-365.6086368155266
 30
0.0
 10
-75.78097449923236
 20
-365.6086368155266
 30
0.0
 10
-75.84397710316654
 20
-365.6086368155266
 30
0.0
 10
-75.51219395451858
 20
-365.6086368155267
 30
0.0
 10
-75.02483262168005
 20
-365.6086368155266
 30
0.0
 10
-74.5579380938463
 20
-365.6086368155266
 30
0.0
 10
-74.32453250670895
 20
-365.6086368155266
 30
0.0
  0
LINE
  5
2A1
330
1F
100
AcDbEntity
  8
0
  6
Continuous
 62
     7
370
     0
100
AcDbLine
 10
180.4753194393
 20
-55.7210292397
 30
0.0
 11
181.9501641444
 21
-59.3886482596
 31
0.0
  0
LINE
  5
2A2
330
1F
100
AcDbEntity
  8
0
  6
Continuous
 62
     7
370
     0
100
AcDbLine
 10
199.3032533755
 20
-59.3886482596
 30
0.0
 11
181.9501641444
 21
-59.3886482596
 31
0.0
  0
LINE
  5
2A3
330
1F
100
AcDbEntity
  8
0
  6
Continuous
 62
     7
370
     0
100
AcDbLine
 10
181.9501641444
 20
-59.3886482596
 30
0.0
 11
182.287193892
 21
-59.201198542
 31
0.0
  0
LINE
  5
2A4
330
1F
100
AcDbEntity
  8
0
  6
Continuous
 62
     7
370
     0
100
AcDbLine
 10
-77.4557784977
 20
-105.5680788445
 30
0.0
 11
69.2389543815
 21
-105.5680788445
 31
0.0
  0
LINE
  5
2A5
330
1F
100
AcDbEntity
  8
0
  6
Continuous
 62
     7
370
     0
100
AcDbLine
 10
200.0401920091
 20
-105.1339033882
 30
0.0
 11
268.8624673388
 21
-105.1339033882
 31
0.0
  0
LINE
  5
2A6
330
1F
100
AcDbEntity
  8
0
  6
Continuous
 62
     7
370
     0
100
AcDbLine
 10
269.625771693
 20
-107.6792485418
 30
0.0
 11
200.2407094799
 21
-107.6792485418
 31
0.0
  0
LINE
  5
2A7
330
1F
100
AcDbEntity
  8
0
  6
Continuous
 62
     7
370
     0
100
AcDbLine
 10
69.2507861036
 20
-107.6792485418
 30
0.0
 11
-77.5688094237
 21
-107.6792485418
 31
0.0
  0
LINE
  5
2A8
330
1F
100
AcDbEntity
  8
0
  6
Continuous
 62
     7
370
     0
100
AcDbLine
 10
68.9977031769
 20
-111.9586527069
 30
0.0
 11
199.9876262242
 21
-111.9586527069
 31
0.0
  0
MTEXT
  5
2AA
330
1F
100
AcDbEntity
  8
0
  6
Continuous
 62
     7
370
     0
100
AcDbMText
 10
258.6573897905
 20
-414.6654899127
 30
0.0
 40
4.7625
 41
0.0
 71
     1
 72
     1
  1
PG-205/305F
  7
SLDTEXTSTYLE0
 73
     1
 44
1.0
  0
INSERT
  5
2B6
330
1F
100
AcDbEntity
  8
0
  6
Continuous
 62
     7
370
     0
100
AcDbBlockReference
  2
SW_CENTERMARKSYMBOL_0
 10
103.0624673388
 20
24.8913517404
 30
0.0
  0
INSERT
  5
2C2
330
1F
100
AcDbEntity
  8
0
  6
Continuous
 62
     7
370
     0
100
AcDbBlockReference
  2
SW_CENTERMARKSYMBOL_1
 10
165.0624673388
 20
24.8913517404
 30
0.0
  0
LINE
  5
2C3
330
1F
100
AcDbEntity
  8
0
  6
CENTERX2
 62
     7
370
     0
100
AcDbLine
 10
256.5624673388
 20
-314.6086482596
 30
0.0
 11
287.3757715726
 21
-314.6086482596
 31
0.0
  0
LINE
  5
2C4
330
1F
100
AcDbEntity
  8
0
  6
Continuous
 62
     7
370
    15
100
AcDbLine
 10
183.4012501857
 20
346.9937913346
 30
0.0
 11
183.4012501857
 21
349.9937974142
 31
0.0
  0
LINE
  5
2C5
330
1F
100
AcDbEntity
  8
0
  6
Continuous
 62
     7
370
    15
100
AcDbLine
 10
173.4012522719
 20
348.10452389
 30
0.0
 11
173.4012522719
 21
346.9937913346
 31
0.0
  0
LINE
  5
2C6
330
1F
100
AcDbEntity
  8
0
  6
Continuous
 62
     7
370
    15
100
AcDbLine
 10
138.5624677858
 20
334.8920069861
 30
0.0
 11
138.5624677858
 21
328.99379956
 31
0.0
  0
LINE
  5
2C7
330
1F
100
AcDbEntity
  8
0
  6
Continuous
 62
     7
370
    15
100
AcDbLine
 10
191.56246716
 20
328.99379956
 30
0.0
 11
191.56246716
 21
338.9937900233
 31
0.0
  0
ARC
  5
2C8
330
1F
100
AcDbEntity
  8
0
  6
Continuous
 62
     7
370
    15
100
AcDbCircle
 10
189.5624673388
 20
328.9937949108
 30
0.0
 40
2.0
100
AcDbArc
 50
270.0
 51
0.0
  0
ARC
  5
2C9
330
1F
100
AcDbEntity
  8
0
  6
Continuous
 62
     7
370
    15
100
AcDbCircle
 10
140.5624673388
 20
328.9937949108
 30
0.0
 40
2.000000000000028
100
AcDbArc
 50
180.0
 51
270.0
  0
LINE
  5
2CA
330
1F
100
AcDbEntity
  8
0
  6
Continuous
 62
     7
370
    15
100
AcDbLine
 10
192.5624691865
 20
340.7258413958
 30
0.0
 11
192.5624691865
 21
346.9937913346
 31
0.0
  0
ARC
  5
2CB
330
1F
100
AcDbEntity
  8
0
  6
Continuous
 62
     7
370
    15
100
AcDbCircle
 10
190.5624673388
 20
340.7258457184
 30
0.0
 40
2.000000000000016
100
AcDbArc
 50
300.0
 51
0.0
  0
LINE
  5
2CC
330
1F
100
AcDbEntity
  8
0
  6
Continuous
 62
     7
370
    15
100
AcDbLine
 10
71.5624679795
 20
331.2685065197
 30
0.0
 11
71.5624679795
 21
327.9937975335
 31
0.0
  0
LINE
  5
2CD
330
1F
100
AcDbEntity
  8
0
  6
Continuous
 62
     7
370
    15
100
AcDbLine
 10
134.5624671302
 20
327.9937975335
 30
0.0
 11
134.5624671302
 21
333.9107357191
 31
0.0
  0
ARC
  5
2CE
330
1F
100
AcDbEntity
  8
0
  6
Continuous
 62
     7
370
    15
100
AcDbCircle
 10
132.5624673388
 20
327.9937949108
 30
0.0
 40
2.0
100
AcDbArc
 50
270.0
 51
0.0
  0
ARC
  5
2CF
330
1F
100
AcDbEntity
  8
0
  6
Continuous
 62
     7
370
    15
100
AcDbCircle
 10
73.5624673388
 20
327.9937949108
 30
0.0
 40
2.000000000000014
100
AcDbArc
 50
180.0
 51
270.0
  0
LINE
  5
2D0
330
1F
100
AcDbEntity
  8
0
  6
Continuous
 62
     7
370
    15
100
AcDbLine
 10
196.0624688289
 20
349.9937974142
 30
0.0
 11
196.0624688289
 21
362.0165311026
 31
0.0
  0
LINE
  5
2D1
330
1F
100
AcDbEntity
  8
0
  6
Continuous
 62
     7
370
    15
100
AcDbLine
 10
154.393304976
 20
662.9229359555
 30
0.0
 11
147.3989197037
 21
668.7919222044
 31
0.0
  0
LINE
  5
2D2
330
1F
100
AcDbEntity
  8
0
  6
Continuous
 62
     7
370
    15
100
AcDbLine
 10
44.7260149739
 20
668.7919222044
 30
0.0
 11
38.3296915314
 21
663.4247772622
 31
0.0
  0
LINE
  5
2D3
330
1F
100
AcDbEntity
  8
0
  6
Continuous
 62
     7
370
    15
100
AcDbLine
 10
265.3605946324
 20
550.8302472758
 30
0.0
 11
259.9934496901
 21
557.2265707182
 31
0.0
  0
LINE
  5
2D4
330
1F
100
AcDbEntity
  8
0
  6
Continuous
 62
     7
370
    15
100
AcDbLine
 10
-67.8685150125
 20
557.2265707182
 30
0.0
 11
-73.2356599548
 21
550.8302472758
 31
0.0
  0
LINE
  5
2D5
330
1F
100
AcDbEntity
  8
0
  6
Continuous
 62
     7
370
    15
100
AcDbLine
 10
259.9934496901
 20
441.7610191035
 30
0.0
 11
265.3605946324
 21
448.1573425459
 31
0.0
  0
LINE
  5
2D6
330
1F
100
AcDbEntity
  8
0
  6
Continuous
 62
     7
370
    15
100
AcDbLine
 10
-73.2356599548
 20
448.1573425459
 30
0.0
 11
-67.8685150125
 21
441.7610191035
 31
0.0
  0
ARC
  5
2D7
330
1F
100
AcDbEntity
  8
0
  6
Continuous
 62
     7
370
    15
100
AcDbCircle
 10
46.6543780416
 20
666.4937949109
 30
0.0
 40
3.000000000000002
100
AcDbArc
 50
90.0
 51
130.0
  0
ARC
  5
2D8
330
1F
100
AcDbEntity
  8
0
  6
Continuous
 62
     7
370
    15
100
AcDbCircle
 10
145.470556636
 20
666.4937949109
 30
0.0
 40
3.000000000000048
100
AcDbArc
 50
50.0
 51
90.0
  0
ARC
  5
2D9
330
1F
100
AcDbEntity
  8
0
  6
Continuous
 62
     7
370
    15
100
AcDbCircle
 10
263.0624673388
 20
548.9018842081
 30
0.0
 40
3.0
100
AcDbArc
 50
0.0
 51
40.0
  0
ARC
  5
2DA
330
1F
100
AcDbEntity
  8
0
  6
Continuous
 62
     7
370
    15
100
AcDbCircle
 10
-70.9375326612
 20
548.9018842081
 30
0.0
 40
3.000000000000081
100
AcDbArc
 50
140.0
 51
180.0
  0
ARC
  5
2DB
330
1F
100
AcDbEntity
  8
0
  6
Continuous
 62
     7
370
    15
100
AcDbCircle
 10
-70.9375326612
 20
450.0857056137
 30
0.0
 40
3.000000000000005
100
AcDbArc
 50
180.0
 51
220.0
  0
ARC
  5
2DC
330
1F
100
AcDbEntity
  8
0
  6
Continuous
 62
     7
370
    15
100
AcDbCircle
 10
263.0624673388
 20
450.0857056137
 30
0.0
 40
3.0
100
AcDbArc
 50
320.0
 51
0.0
  0
LINE
  5
2DD
330
1F
100
AcDbEntity
  8
0
  6
Continuous
 62
     7
370
    15
100
AcDbLine
 10
-74.437528012
 20
462.9937954473
 30
0.0
 11
-73.9375344493
 21
462.9937954473
 31
0.0
  0
LINE
  5
2DE
330
1F
100
AcDbEntity
  8
0
  6
Continuous
 62
     7
370
    15
100
AcDbLine
 10
266.0624691269
 20
462.9937954473
 30
0.0
 11
266.5624626896
 21
462.9937954473
 31
0.0
  0
LINE
  5
2DF
330
1F
100
AcDbEntity
  8
0
  6
Continuous
 62
     7
370
    15
100
AcDbLine
 10
266.5624626896
 20
535.9937943744
 30
0.0
 11
266.0624691269
 21
535.9937943744
 31
0.0
  0
LINE
  5
2E0
330
1F
100
AcDbEntity
  8
0
  6
Continuous
 62
     7
370
    15
100
AcDbLine
 10
-73.9375344493
 20
535.9937943744
 30
0.0
 11
-74.437528012
 21
535.9937943744
 31
0.0
  0
LINE
  5
2E1
330
1F
100
AcDbEntity
  8
0
  6
Continuous
 62
     7
370
    15
100
AcDbLine
 10
-74.437528012
 20
541.9937953579
 30
0.0
 11
-77.6375374773
 21
541.9937953579
 31
0.0
  0
LINE
  5
2E2
330
1F
100
AcDbEntity
  8
0
  6
Continuous
 62
     7
370
    15
100
AcDbLine
 10
-77.6375374773
 20
456.9937944638
 30
0.0
 11
-74.437528012
 21
456.9937944638
 31
0.0
  0
LINE
  5
2E3
330
1F
100
AcDbEntity
  8
0
  6
Continuous
 62
     7
370
    15
100
AcDbLine
 10
269.7624721549
 20
541.9937953579
 30
0.0
 11
266.5624626896
 21
541.9937953579
 31
0.0
  0
LINE
  5
2E4
330
1F
100
AcDbEntity
  8
0
  6
Continuous
 62
     7
370
    15
100
AcDbLine
 10
266.5624626896
 20
456.9937944638
 30
0.0
 11
269.7624721549
 21
456.9937944638
 31
0.0
  0
LINE
  5
2E5
330
1F
100
AcDbEntity
  8
0
  6
Continuous
 62
     7
370
    15
100
AcDbLine
 10
274.689764621
 20
515.4937956708
 30
0.0
 11
269.7624721549
 21
515.4937956708
 31
0.0
  0
LINE
  5
2E6
330
1F
100
AcDbEntity
  8
0
  6
Continuous
 62
     7
370
    15
100
AcDbLine
 10
269.7624721549
 20
483.4937941509
 30
0.0
 11
274.689764621
 21
483.4937941509
 31
0.0
  0
SPLINE
  5
2E7
330
1F
100
AcDbEntity
  8
0
  6
Continuous
 62
     7
370
    15
100
AcDbSpline
210
0.0
220
0.0
230
1.0
 70
     8
 71
     3
 72
    13
 73
     9
 74
     0
 42
0.00000001
 43
0.00000001
 12
1.0
 22
0.0
 32
0.0
 13
1.0
 23
0.0
 33
0.0
 40
0.0
 40
0.0
 40
0.0
 40
0.0
 40
0.0172164378502149
 40
0.2184217280921621
 40
0.4332234266932122
 40
0.6637562452607043
 40
0.8992013646701376
 40
1.0
 40
1.0
 40
1.0
 40
1.0
 10
276.2608536503269
 20
499.5187595708956
 30
0.0
 10
276.2511344965923
 20
499.5179625876148
 30
0.0
 10
276.127829410327
 20
499.5078514097414
 30
0.0
 10
275.881950356234
 20
499.5781706269342
 30
0.0
 10
275.571522225782
 20
499.7794545090132
 30
0.0
 10
275.3432881210313
 20
500.101397369695
 30
0.0
 10
275.2561503708158
 20
500.4198467656155
 30
0.0
 10
275.2647428788824
 20
500.6081590706531
 30
0.0
 10
275.2673187277271
 20
500.6646110436521
 30
0.0
  0
LINE
  5
2E8
330
1F
100
AcDbEntity
  8
0
  6
Continuous
 62
     7
370
    15
100
AcDbLine
 10
281.2624731085
 20
499.5161100964
 30
0.0
 11
276.2624629757
 21
499.5161100964
 31
0.0
  0
ARC
  5
2E9
330
1F
100
AcDbEntity
  8
0
  6
Continuous
 62
     7
370
    15
100
AcDbCircle
 10
281.2624673388
 20
498.5161100965
 30
0.0
 40
1.0
100
AcDbArc
 50
0.0
 51
90.0
  0
LINE
  5
2EA
330
1F
100
AcDbEntity
  8
0
  6
Continuous
 62
     7
370
    15
100
AcDbLine
 10
281.2624731085
 20
515.4668394702
 30
0.0
 11
276.2624629757
 21
515.4668394702
 31
0.0
  0
ARC
  5
2EB
330
1F
100
AcDbEntity
  8
0
  6
Continuous
 62
     7
370
    15
100
AcDbCircle
 10
281.2624673388
 20
484.5207505401
 30
0.0
 40
1.0
100
AcDbArc
 50
270.0
 51
0.0
  0
LINE
  5
2EC
330
1F
100
AcDbEntity
  8
0
  6
Continuous
 62
     7
370
    15
100
AcDbLine
 10
276.2624629757
 20
483.5207503515
 30
0.0
 11
281.2624731085
 21
483.5207503515
 31
0.0
  0
ARC
  5
2ED
330
1F
100
AcDbEntity
  8
0
  6
Continuous
 62
     7
370
    15
100
AcDbCircle
 10
281.2624673388
 20
500.4714797251
 30
0.0
 40
1.000000000000002
100
AcDbArc
 50
282.1268727649
 51
0.0
  0
LINE
  5
2EE
330
1F
100
AcDbEntity
  8
0
  6
Continuous
 62
     7
370
    15
100
AcDbLine
 10
-74.437528012
 20
541.9937953579
 30
0.0
 11
-77.6375374773
 21
541.9937953579
 31
0.0
  0
LINE
  5
2EF
330
1F
100
AcDbEntity
  8
0
  6
Continuous
 62
     7
370
    15
100
AcDbLine
 10
-77.6375374773
 20
456.9937944638
 30
0.0
 11
-74.437528012
 21
456.9937944638
 31
0.0
  0
LINE
  5
2F0
330
1F
100
AcDbEntity
  8
0
  6
Continuous
 62
     7
370
    15
100
AcDbLine
 10
78.5624672643
 20
692.4937986063
 30
0.0
 11
78.5624672643
 21
679.4938020634
 31
0.0
  0
LINE
  5
2F1
330
1F
100
AcDbEntity
  8
0
  6
Continuous
 62
     7
370
    15
100
AcDbLine
 10
113.5624674133
 20
679.4938020634
 30
0.0
 11
113.5624674133
 21
692.4937986063
 31
0.0
  0
LINE
  5
2F2
330
1F
100
AcDbEntity
  8
0
  6
Continuous
 62
     7
370
    15
100
AcDbLine
 10
53.5624668918
 20
679.4938020634
 30
0.0
 11
53.5624668918
 21
671.4938007521
 31
0.0
  0
LINE
  5
2F3
330
1F
100
AcDbEntity
  8
0
  6
Continuous
 62
     7
370
    15
100
AcDbLine
 10
138.5624677858
 20
671.4938007521
 30
0.0
 11
138.5624677858
 21
679.4938020634
 31
0.0
  0
LINE
  5
2F4
330
1F
100
AcDbEntity
  8
0
  6
Continuous
 62
     7
370
    15
100
AcDbLine
 10
128.7943691931
 20
331.9937907385
 30
0.0
 11
128.7943691931
 21
332.674669497
 31
0.0
  0
LINE
  5
2F5
330
1F
100
AcDbEntity
  8
0
  6
Continuous
 62
     7
370
    15
100
AcDbLine
 10
128.7943691931
 20
331.9937907385
 30
0.0
 11
125.1098428837
 21
331.9937907385
 31
0.0
  0
LINE
  5
2F6
330
1F
100
AcDbEntity
  8
0
  6
Continuous
 62
     7
370
    15
100
AcDbLine
 10
160.223678591
 20
331.9937907385
 30
0.0
 11
160.223678591
 21
338.9937900233
 31
0.0
  0
LINE
  5
2F7
330
1F
100
AcDbEntity
  8
0
  6
Continuous
 62
     7
370
    15
100
AcDbLine
 10
160.223678591
 20
331.9937907385
 30
0.0
 11
151.7236799917
 21
331.9937907385
 31
0.0
  0
LINE
  5
2F8
330
1F
100
AcDbEntity
  8
0
  6
Continuous
 62
     7
370
    15
100
AcDbLine
 10
151.7236799917
 20
331.9937907385
 30
0.0
 11
151.7236799917
 21
338.8643138337
 31
0.0
  0
LINE
  5
2F9
330
1F
100
AcDbEntity
  8
0
  6
Continuous
 62
     7
370
    15
100
AcDbLine
 10
151.7236799917
 20
331.9937907385
 30
0.0
 11
143.2236813924
 21
331.9937907385
 31
0.0
  0
LINE
  5
2FA
330
1F
100
AcDbEntity
  8
0
  6
Continuous
 62
     7
370
    15
100
AcDbLine
 10
143.2236813924
 20
331.9937907385
 30
0.0
 11
143.2236813924
 21
336.1664585995
 31
0.0
  0
SPLINE
  5
2FB
330
1F
100
AcDbEntity
  8
0
  6
Continuous
 62
     7
370
    15
100
AcDbSpline
210
0.0
220
0.0
230
1.0
 70
     8
 71
     3
 72
     9
 73
     5
 74
     0
 42
0.00000001
 43
0.00000001
 12
1.0
 22
0.0
 32
0.0
 13
1.0
 23
0.0
 33
0.0
 40
0.0
 40
0.0
 40
0.0
 40
0.0
 40
0.4409422780407846
 40
1.0
 40
1.0
 40
1.0
 40
1.0
 10
154.8672066054298
 20
340.1165031122617
 30
0.0
 10
154.8294990085001
 20
339.9582906838845
 30
0.0
 10
154.743983060478
 20
339.5994853792986
 30
0.0
 10
154.6555771624398
 20
339.3729127013889
 30
0.0
 10
154.6061531624748
 20
339.2462454962186
 30
0.0
  0
SPLINE
  5
2FC
330
1F
100
AcDbEntity
  8
0
  6
Continuous
 62
     7
370
    15
100
AcDbSpline
210
0.0
220
0.0
230
1.0
 70
     8
 71
     3
 72
    11
 73
     7
 74
     0
 42
0.00000001
 43
0.00000001
 12
1.0
 22
0.0
 32
0.0
 13
1.0
 23
0.0
 33
0.0
 40
0.0
 40
0.0
 40
0.0
 40
0.0
 40
0.6261321703185162
 40
0.7964222442092782
 40
0.9348629269489708
 40
0.9999999999999999
 40
0.9999999999999999
 40
0.9999999999999999
 40
0.9999999999999999
 10
153.3439652047111
 20
338.9937900232725
 30
0.0
 10
153.6624481292571
 20
338.997253698982
 30
0.0
 10
154.0675493164077
 20
339.0016593955947
 30
0.0
 10
154.4506116164179
 20
339.1089829310642
 30
0.0
 10
154.5672790824674
 20
339.1788404750088
 30
0.0
 10
154.5967299988922
 20
339.2299063689383
 30
0.0
 10
154.6061531624748
 20
339.2462454962186
 30
0.0
  0
LINE
  5
2FD
330
1F
100
AcDbEntity
  8
0
  6
Continuous
 62
     7
370
    15
100
AcDbLine
 10
162.6618587396
 20
338.9937900233
 30
0.0
 11
153.3439652047
 21
338.9937900233
 31
0.0
  0
LINE
  5
2FE
330
1F
100
AcDbEntity
  8
0
  6
Continuous
 62
     7
370
    15
100
AcDbLine
 10
152.0959408007
 20
338.9937900233
 30
0.0
 11
153.3439652047
 21
338.9937900233
 31
0.0
  0
LINE
  5
2FF
330
1F
100
AcDbEntity
  8
0
  6
Continuous
 62
     7
370
    15
100
AcDbLine
 10
186.0304110668
 20
346.9937913346
 30
0.0
 11
171.1873644016
 21
346.9937913346
 31
0.0
  0
LINE
  5
300
330
1F
100
AcDbEntity
  8
0
  6
Continuous
 62
     7
370
    15
100
AcDbLine
 10
179.8397236488
 20
338.9937900233
 30
0.0
 11
162.6618587396
 21
338.9937900233
 31
0.0
  0
LINE
  5
301
330
1F
100
AcDbEntity
  8
0
  6
Continuous
 62
     7
370
    15
100
AcDbLine
 10
185.2679410002
 20
338.9937900233
 30
0.0
 11
179.8397236488
 21
338.9937900233
 31
0.0
  0
LINE
  5
302
330
1F
100
AcDbEntity
  8
0
  6
Continuous
 62
     7
370
    15
100
AcDbLine
 10
191.562057378
 20
338.9937900233
 30
0.0
 11
185.2679410002
 21
338.9937900233
 31
0.0
  0
LINE
  5
303
330
1F
100
AcDbEntity
  8
0
  6
Continuous
 62
     7
370
    15
100
AcDbLine
 10
189.5624705574
 20
326.9937955069
 30
0.0
 11
140.5624681137
 21
326.9937955069
 31
0.0
  0
LINE
  5
304
330
1F
100
AcDbEntity
  8
0
  6
Continuous
 62
     7
370
    15
100
AcDbLine
 10
192.5620445034
 20
346.9937913346
 30
0.0
 11
186.0304110668
 21
346.9937913346
 31
0.0
  0
LINE
  5
305
330
1F
100
AcDbEntity
  8
0
  6
Continuous
 62
     7
370
    15
100
AcDbLine
 10
132.5624668024
 20
325.9937934803
 30
0.0
 11
73.5624664447
 21
325.9937934803
 31
0.0
  0
LINE
  5
306
330
1F
100
AcDbEntity
  8
0
  6
Continuous
 62
     7
370
    15
100
AcDbLine
 10
176.9929909131
 20
349.9937974142
 30
0.0
 11
185.3367843649
 21
349.9937974142
 31
0.0
  0
LINE
  5
307
330
1F
100
AcDbEntity
  8
0
  6
Continuous
 62
     7
370
    15
100
AcDbLine
 10
196.0624688289
 20
349.9937974142
 30
0.0
 11
185.3367843649
 21
349.9937974142
 31
0.0
  0
LINE
  5
308
330
1F
100
AcDbEntity
  8
0
  6
Continuous
 62
     7
370
    15
100
AcDbLine
 10
132.2071746907
 20
669.493796699
 30
0.0
 11
135.0655787609
 21
669.493796699
 31
0.0
  0
LINE
  5
309
330
1F
100
AcDbEntity
  8
0
  6
Continuous
 62
     7
370
    15
100
AcDbLine
 10
57.0593559167
 20
669.493796699
 30
0.0
 11
59.9177599869
 21
669.493796699
 31
0.0
  0
LINE
  5
30A
330
1F
100
AcDbEntity
  8
0
  6
Continuous
 62
     7
370
    15
100
AcDbLine
 10
-73.9375344493
 20
535.6385022628
 30
0.0
 11
-73.9375344493
 21
538.4969063329
 31
0.0
  0
LINE
  5
30B
330
1F
100
AcDbEntity
  8
0
  6
Continuous
 62
     7
370
    15
100
AcDbLine
 10
266.0624691269
 20
538.4969063329
 30
0.0
 11
266.0624691269
 21
535.6385022628
 31
0.0
  0
LINE
  5
30C
330
1F
100
AcDbEntity
  8
0
  6
Continuous
 62
     7
370
    15
100
AcDbLine
 10
-73.9375344493
 20
460.4906834888
 30
0.0
 11
-73.9375344493
 21
463.3490875589
 31
0.0
  0
LINE
  5
30D
330
1F
100
AcDbEntity
  8
0
  6
Continuous
 62
     7
370
    15
100
AcDbLine
 10
266.0624691269
 20
463.3490875589
 30
0.0
 11
266.0624691269
 21
460.4906834888
 31
0.0
  0
LINE
  5
30E
330
1F
100
AcDbEntity
  8
0
  6
Continuous
 62
     7
370
    15
100
AcDbLine
 10
46.6543779693
 20
669.493796699
 30
0.0
 11
57.0593559167
 21
669.493796699
 31
0.0
  0
LINE
  5
30F
330
1F
100
AcDbEntity
  8
0
  6
Continuous
 62
     7
370
    15
100
AcDbLine
 10
135.0655787609
 20
669.493796699
 30
0.0
 11
145.4705567083
 21
669.493796699
 31
0.0
  0
LINE
  5
310
330
1F
100
AcDbEntity
  8
0
  6
Continuous
 62
     7
370
    15
100
AcDbLine
 10
266.0624691269
 20
548.9018842804
 30
0.0
 11
266.0624691269
 21
538.4969063329
 31
0.0
  0
LINE
  5
311
330
1F
100
AcDbEntity
  8
0
  6
Continuous
 62
     7
370
    15
100
AcDbLine
 10
-73.9375344493
 20
538.4969063329
 30
0.0
 11
-73.9375344493
 21
548.9018842804
 31
0.0
  0
LINE
  5
312
330
1F
100
AcDbEntity
  8
0
  6
Continuous
 62
     7
370
    15
100
AcDbLine
 10
-73.9375344493
 20
450.0857055413
 30
0.0
 11
-73.9375344493
 21
460.4906834888
 31
0.0
  0
LINE
  5
313
330
1F
100
AcDbEntity
  8
0
  6
Continuous
 62
     7
370
    15
100
AcDbLine
 10
266.0624691269
 20
460.4906834888
 30
0.0
 11
266.0624691269
 21
450.0857055413
 31
0.0
  0
CIRCLE
  5
314
330
1F
100
AcDbEntity
  8
0
  6
Continuous
 62
     7
370
    15
100
AcDbCircle
 10
96.0624673388
 20
499.4937949108
 30
0.0
 40
169.9999999999999
  0
SPLINE
  5
315
330
1F
100
AcDbEntity
  8
0
  6
Continuous
 62
     7
370
    15
100
AcDbSpline
210
0.0
220
0.0
230
1.0
 70
     8
 71
     3
 72
     9
 73
     5
 74
     0
 42
0.00000001
 43
0.00000001
 12
1.0
 22
0.0
 32
0.0
 13
1.0
 23
0.0
 33
0.0
 40
0.0
 40
0.0
 40
0.0
 40
0.0
 40
0.7406546304018756
 40
1.0
 40
1.0
 40
1.0
 40
1.0
 10
138.1805957279159
 20
664.1937069820814
 30
0.0
 10
138.1397097114886
 20
664.2326380619863
 30
0.0
 10
138.0845071720742
 20
664.2852011302598
 30
0.0
 10
138.1334893666529
 20
664.460439142135
 30
0.0
 10
138.1461926720096
 20
664.5058863090925
 30
0.0
  0
SPLINE
  5
316
330
1F
100
AcDbEntity
  8
0
  6
Continuous
 62
     7
370
    15
100
AcDbSpline
210
0.0
220
0.0
230
1.0
 70
     8
 71
     3
 72
     9
 73
     5
 74
     0
 42
0.00000001
 43
0.00000001
 12
1.0
 22
0.0
 32
0.0
 13
1.0
 23
0.0
 33
0.0
 40
0.0
 40
0.0
 40
0.0
 40
0.0
 40
0.7406447504802648
 40
0.9999999999999999
 40
0.9999999999999999
 40
0.9999999999999999
 40
0.9999999999999999
 10
153.4470700643016
 20
659.8279498743467
 30
0.0
 10
153.4025148186616
 20
659.7181658125335
 30
0.0
 10
153.3423574414423
 20
659.5699381207259
 30
0.0
 10
153.2642418318165
 20
659.5845732953147
 30
0.0
 10
153.2439821383907
 20
659.588369004672
 30
0.0
  0
SPLINE
  5
317
330
1F
100
AcDbEntity
  8
0
  6
Continuous
 62
     7
370
    15
100
AcDbSpline
210
0.0
220
0.0
230
1.0
 70
     8
 71
     3
 72
    11
 73
     7
 74
     0
 42
0.00000001
 43
0.00000001
 12
1.0
 22
0.0
 32
0.0
 13
1.0
 23
0.0
 33
0.0
 40
0.0
 40
0.0
 40
0.0
 40
0.0
 40
0.2552638529180527
 40
0.4764536863411655
 40
0.8282869231920745
 40
1.0
 40
1.0
 40
1.0
 40
1.0
 10
154.1805648229076
 20
662.227096431201
 30
0.0
 10
154.100033107409
 20
661.9636945642544
 30
0.0
 10
153.949719491603
 20
661.4720511566148
 30
0.0
 10
153.7196726700258
 20
660.7195920089728
 30
0.0
 10
153.5482076892444
 20
660.1587407299659
 30
0.0
 10
153.472048731254
 20
659.9096476066997
 30
0.0
 10
153.4470700643016
 20
659.8279498743467
 30
0.0
  0
SPLINE
  5
318
330
1F
100
AcDbEntity
  8
0
  6
Continuous
 62
     7
370
    15
100
AcDbSpline
210
0.0
220
0.0
230
1.0
 70
     8
 71
     3
 72
    11
 73
     7
 74
     0
 42
0.00000001
 43
0.00000001
 12
1.0
 22
0.0
 32
0.0
 13
1.0
 23
0.0
 33
0.0
 40
0.0
 40
0.0
 40
0.0
 40
0.0
 40
0.2680457642611483
 40
0.5368684446591085
 40
0.7897187643186814
 40
1.0
 40
1.0
 40
1.0
 40
1.0
 10
200.0401922485782
 20
361.4775859045438
 30
0.0
 10
199.9362790126829
 20
361.8943659316856
 30
0.0
 10
199.7281513540035
 20
362.7291340003152
 30
0.0
 10
199.4825856009132
 20
363.7140219346234
 30
0.0
 10
199.3292023860344
 20
364.3292122118017
 30
0.0
 10
199.3113576043418
 20
364.400791032233
 30
0.0
 10
199.3032553217365
 20
364.4332908319883
 30
0.0
  0
SPLINE
  5
319
330
1F
100
AcDbEntity
  8
0
  6
Continuous
 62
     7
370
    15
100
AcDbSpline
210
0.0
220
0.0
230
1.0
 70
     8
 71
     3
 72
    11
 73
     7
 74
     0
 42
0.00000001
 43
0.00000001
 12
1.0
 22
0.0
 32
0.0
 13
1.0
 23
0.0
 33
0.0
 40
0.0
 40
0.0
 40
0.0
 40
0.0
 40
0.304457873079751
 40
0.5240975753653833
 40
0.8765645356215019
 40
1.0
 40
1.0
 40
1.0
 40
1.0
 10
138.1461926720096
 20
664.5058863090925
 30
0.0
 10
138.1937446127418
 20
664.6614261664746
 30
0.0
 10
138.2756011158749
 20
664.9291744145396
 30
0.0
 10
138.4868605035502
 20
665.6201606476113
 30
0.0
 10
138.6898897798705
 20
666.2842374093492
 30
0.0
 10
138.8405980261458
 20
666.7771899823663
 30
0.0
 10
138.8796874306156
 20
666.9050477671079
 30
0.0
  0
SPLINE
  5
31A
330
1F
100
AcDbEntity
  8
0
  6
Continuous
 62
     7
370
    15
100
AcDbSpline
210
0.0
220
0.0
230
1.0
 70
     8
 71
     3
 72
    12
 73
     8
 74
     0
 42
0.00000001
 43
0.00000001
 12
1.0
 22
0.0
 32
0.0
 13
1.0
 23
0.0
 33
0.0
 40
0.0
 40
0.0
 40
0.0
 40
0.0
 40
0.2228572516877242
 40
0.4454706302419995
 40
0.6758063896135214
 40
0.9241521745445701
 40
1.0
 40
1.0
 40
1.0
 40
1.0
 10
68.31333124851719
 20
331.7738346981458
 30
0.0
 10
68.32239493605006
 20
331.7374829252393
 30
0.0
 10
68.34051239270455
 20
331.6648191592438
 30
0.0
 10
68.48024805436143
 20
331.1043659118387
 30
0.0
 10
68.68882422082767
 20
330.267800472262
 30
0.0
 10
68.89405065473306
 20
329.4447136373399
 30
0.0
 10
69.02064934546803
 20
328.936930023605
 30
0.0
 10
69.05026817535892
 20
328.8181297707014
 30
0.0
  0
ARC
  5
31B
330
1F
100
AcDbEntity
  8
0
  6
Continuous
 62
     7
370
    15
100
AcDbCircle
 10
96.0624673388
 20
499.4937949108
 30
0.0
 40
173.8
100
AcDbArc
 50
306.8535769231
 51
70.3617476901
  0
SPLINE
  5
31C
330
1F
100
AcDbEntity
  8
0
  6
Continuous
 62
     7
370
    15
100
AcDbSpline
210
0.0
220
0.0
230
1.0
 70
     8
 71
     3
 72
    12
 73
     8
 74
     0
 42
0.00000001
 43
0.00000001
 12
1.0
 22
0.0
 32
0.0
 13
1.0
 23
0.0
 33
0.0
 40
0.0
 40
0.0
 40
0.0
 40
0.0
 40
0.2268872788216522
 40
0.4733067415954574
 40
0.6277161942539274
 40
0.8735043581791412
 40
1.0
 40
1.0
 40
1.0
 40
1.0
 10
154.1805648229076
 20
662.227096431201
 30
0.0
 10
154.2169775163154
 20
662.3461997290567
 30
0.0
 10
154.2929375849408
 20
662.5946596432228
 30
0.0
 10
154.3754166739229
 20
662.8644341296416
 30
0.0
 10
154.4377135944072
 20
663.0681890457835
 30
0.0
 10
154.4689391354931
 20
663.1703393482517
 30
0.0
 10
154.4721537199281
 20
663.180850144199
 30
0.0
 10
154.4732459804966
 20
663.1844215320997
 30
0.0
  0
SPLINE
  5
31D
330
1F
100
AcDbEntity
  8
0
  6
Continuous
 62
     7
370
    15
100
AcDbSpline
210
0.0
220
0.0
230
1.0
 70
     8
 71
     3
 72
    11
 73
     7
 74
     0
 42
0.00000001
 43
0.00000001
 12
1.0
 22
0.0
 32
0.0
 13
1.0
 23
0.0
 33
0.0
 40
0.0
 40
0.0
 40
0.0
 40
0.0
 40
0.2670389182039003
 40
0.5352500954671091
 40
0.7875018267088857
 40
1.0
 40
1.0
 40
1.0
 40
1.0
 10
200.0401922485782
 20
361.4775859045438
 30
0.0
 10
200.0771395807368
 20
361.3294002460636
 30
0.0
 10
200.1511964380599
 20
361.0323784172535
 30
0.0
 10
200.2386207427088
 20
360.6817583132685
 30
0.0
 10
200.293501935616
 20
360.4616193323227
 30
0.0
 10
200.2999203276289
 20
360.4358748101534
 30
0.0
 10
200.3028550169422
 20
360.4241036104612
 30
0.0
  0
ARC
  5
31E
330
1F
100
AcDbEntity
  8
0
  6
Continuous
 62
     7
370
    15
100
AcDbCircle
 10
96.0624673388
 20
499.4937949108
 30
0.0
 40
173.8
100
AcDbArc
 50
75.6382523099
 51
261.1464230769
  0
SPLINE
  5
31F
330
1F
100
AcDbEntity
  8
0
  6
Continuous
 62
     7
370
    15
100
AcDbSpline
210
0.0
220
0.0
230
1.0
 70
     8
 71
     3
 72
    12
 73
     8
 74
     0
 42
0.00000001
 43
0.00000001
 12
1.0
 22
0.0
 32
0.0
 13
1.0
 23
0.0
 33
0.0
 40
0.0
 40
0.0
 40
0.0
 40
0.0
 40
0.2190590591427251
 40
0.3724799469028412
 40
0.6185709611393768
 40
0.8646503951629332
 40
1.0
 40
1.0
 40
1.0
 40
1.0
 10
139.1723723134948
 20
667.8623728680067
 30
0.0
 10
139.1692311582429
 20
667.8520938104049
 30
0.0
 10
139.1638900536748
 20
667.8346156798737
 30
0.0
 10
139.1217257423581
 20
667.6967278784635
 30
0.0
 10
139.053418735258
 20
667.4732905104503
 30
0.0
 10
138.9630041324104
 20
667.1775420770332
 30
0.0
 10
138.9015089257601
 20
666.9764168099631
 30
0.0
 10
138.8796874306156
 20
666.9050477671079
 30
0.0
  0
SPLINE
  5
320
330
1F
100
AcDbEntity
  8
0
  6
Continuous
 62
     7
370
    15
100
AcDbSpline
210
0.0
220
0.0
230
1.0
 70
     8
 71
     3
 72
    12
 73
     8
 74
     0
 42
0.00000001
 43
0.00000001
 12
1.0
 22
0.0
 32
0.0
 13
1.0
 23
0.0
 33
0.0
 40
0.0
 40
0.0
 40
0.0
 40
0.0
 40
0.2234872852576552
 40
0.4468204005968798
 40
0.6774379217657271
 40
0.925308281693647
 40
1.0
 40
1.0
 40
1.0
 40
1.0
 10
69.31293466901317
 20
327.7646474766187
 30
0.0
 10
69.30969843646287
 20
327.7776212351922
 30
0.0
 10
69.30322820383694
 20
327.8035598025535
 30
0.0
 10
69.25328102030349
 20
328.0039051594502
 30
0.0
 10
69.1787399324253
 20
328.3028598262624
 30
0.0
 10
69.10564046028293
 20
328.5960741860796
 30
0.0
 10
69.06067928066123
 20
328.7763788464324
 30
0.0
 10
69.05026817535892
 20
328.8181297707014
 30
0.0
  0
CIRCLE
  5
321
330
1F
100
AcDbEntity
  8
0
  6
Continuous
 62
     7
370
    15
100
AcDbCircle
 10
241.8160259022
 20
385.5600415008
 30
0.0
 40
4.000000000000114
  0
LINE
  5
322
330
1F
100
AcDbEntity
  8
0
  6
Continuous
 62
     7
370
    15
100
AcDbLine
 10
238.3579173109
 20
386.0600389766
 30
0.0
 11
238.3579173109
 21
385.0600444006
 31
0.0
  0
SPLINE
  5
323
330
1F
100
AcDbEntity
  8
0
  6
Continuous
 62
     7
370
    15
100
AcDbSpline
210
0.0
220
0.0
230
1.0
 70
    24
 71
     3
 72
    10
 73
     6
 74
     0
 42
0.00000001
 43
0.00000001
 12
1.0
 22
0.0
 32
0.0
 13
1.0
 23
0.0
 33
0.0
 40
0.0
 40
0.0
 40
0.0
 40
0.0
 40
0.3971551627464459
 40
0.7941270068958134
 40
0.9999999999999999
 40
0.9999999999999999
 40
0.9999999999999999
 40
0.9999999999999999
 10
238.3579173109486
 20
385.0600444006375
 30
0.0
 10
238.5262666276511
 20
385.0600444006375
 30
0.0
 10
238.8628875544987
 20
385.0600444006376
 30
0.0
 10
239.420300480641
 20
385.0600444006375
 30
0.0
 10
239.7626285934701
 20
385.0600444006376
 30
0.0
 10
239.8795344850971
 20
385.0600444006375
 30
0.0
  0
SPLINE
  5
324
330
1F
100
AcDbEntity
  8
0
  6
Continuous
 62
     7
370
    15
100
AcDbSpline
210
0.0
220
0.0
230
1.0
 70
    24
 71
     3
 72
    10
 73
     6
 74
     0
 42
0.00000001
 43
0.00000001
 12
1.0
 22
0.0
 32
0.0
 13
1.0
 23
0.0
 33
0.0
 40
0.0
 40
0.0
 40
0.0
 40
0.0
 40
0.4119477543375938
 40
0.8219666491244644
 40
1.0
 40
1.0
 40
1.0
 40
1.0
 10
241.3160213253452
 20
383.6235501098088
 30
0.0
 10
241.3160213253452
 20
383.3886496694019
 30
0.0
 10
241.3160213253452
 20
382.9199486609704
 30
0.0
 10
241.3160213253452
 20
382.4081705546958
 30
0.0
 10
241.3160213253452
 20
382.1730948637748
 30
0.0
 10
241.3160213253452
 20
382.1019254850797
 30
0.0
  0
LINE
  5
325
330
1F
100
AcDbEntity
  8
0
  6
Continuous
 62
     7
370
    15
100
AcDbLine
 10
241.3160213253
 20
382.1019254851
 30
0.0
 11
242.3160233519
 21
382.1019254851
 31
0.0
  0
SPLINE
  5
326
330
1F
100
AcDbEntity
  8
0
  6
Continuous
 62
     7
370
    15
100
AcDbSpline
210
0.0
220
0.0
230
1.0
 70
    24
 71
     3
 72
    10
 73
     6
 74
     0
 42
0.00000001
 43
0.00000001
 12
1.0
 22
0.0
 32
0.0
 13
1.0
 23
0.0
 33
0.0
 40
0.0
 40
0.0
 40
0.0
 40
0.0
 40
0.3971608446820787
 40
0.7941232618021328
 40
1.0
 40
1.0
 40
1.0
 40
1.0
 10
242.3160233519031
 20
382.1019254850797
 30
0.0
 10
242.3160233519031
 20
382.2702801748832
 30
0.0
 10
242.3160233519032
 20
382.6069054419422
 30
0.0
 10
242.3160233519031
 20
383.1643152496679
 30
0.0
 10
242.3160233519031
 20
383.5066415936901
 30
0.0
 10
242.3160233519031
 20
383.6235501098088
 30
0.0
  0
SPLINE
  5
327
330
1F
100
AcDbEntity
  8
0
  6
Continuous
 62
     7
370
    15
100
AcDbSpline
210
0.0
220
0.0
230
1.0
 70
    24
 71
     3
 72
    10
 73
     6
 74
     0
 42
0.00000001
 43
0.00000001
 12
1.0
 22
0.0
 32
0.0
 13
1.0
 23
0.0
 33
0.0
 40
0.0
 40
0.0
 40
0.0
 40
0.0
 40
0.4119546550284572
 40
0.8219642306047416
 40
1.0
 40
1.0
 40
1.0
 40
1.0
 10
243.7525101921512
 20
385.0600444006375
 30
0.0
 10
243.9874165325593
 20
385.0600444006376
 30
0.0
 10
244.4561200828186
 20
385.0600444006376
 30
0.0
 10
244.9678915330691
 20
385.0600444006375
 30
0.0
 10
245.2029701890703
 20
385.0600444006375
 30
0.0
 10
245.274142267461
 20
385.0600444006375
 30
0.0
  0
LINE
  5
328
330
1F
100
AcDbEntity
  8
0
  6
Continuous
 62
     7
370
    15
100
AcDbLine
 10
245.2741422675
 20
385.0600444006
 30
0.0
 11
245.2741422675
 21
386.0600389766
 31
0.0
  0
SPLINE
  5
329
330
1F
100
AcDbEntity
  8
0
  6
Continuous
 62
     7
370
    15
100
AcDbSpline
210
0.0
220
0.0
230
1.0
 70
    24
 71
     3
 72
    10
 73
     6
 74
     0
 42
0.00000001
 43
0.00000001
 12
1.0
 22
0.0
 32
0.0
 13
1.0
 23
0.0
 33
0.0
 40
0.0
 40
0.0
 40
0.0
 40
0.0
 40
0.3971591160950372
 40
0.7941198054916782
 40
1.0
 40
1.0
 40
1.0
 40
1.0
 10
245.274142267461
 20
386.0600389766149
 30
0.0
 10
245.1057875764767
 20
386.0600389766149
 30
0.0
 10
244.7691623070569
 20
386.0600389766149
 30
0.0
 10
244.2117500881322
 20
386.0600389766148
 30
0.0
 10
243.8694212034186
 20
386.0600389766149
 30
0.0
 10
243.7525101921512
 20
386.0600389766149
 30
0.0
  0
SPLINE
  5
32A
330
1F
100
AcDbEntity
  8
0
  6
Continuous
 62
     7
370
    15
100
AcDbSpline
210
0.0
220
0.0
230
1.0
 70
    24
 71
     3
 72
    10
 73
     6
 74
     0
 42
0.00000001
 43
0.00000001
 12
1.0
 22
0.0
 32
0.0
 13
1.0
 23
0.0
 33
0.0
 40
0.0
 40
0.0
 40
0.0
 40
0.0
 40
0.4119477543375938
 40
0.8219666491244644
 40
1.0
 40
1.0
 40
1.0
 40
1.0
 10
242.3160233519031
 20
387.4965332674436
 30
0.0
 10
242.3160233519031
 20
387.7314337078505
 30
0.0
 10
242.3160233519031
 20
388.200134716282
 30
0.0
 10
242.3160233519032
 20
388.7119128225566
 30
0.0
 10
242.3160233519031
 20
388.9469885134777
 30
0.0
 10
242.3160233519031
 20
389.0181578921727
 30
0.0
  0
LINE
  5
32B
330
1F
100
AcDbEntity
  8
0
  6
Continuous
 62
     7
370
    15
100
AcDbLine
 10
242.3160233519
 20
389.0181578922
 30
0.0
 11
241.3160213253
 21
389.0181578922
 31
0.0
  0
SPLINE
  5
32C
330
1F
100
AcDbEntity
  8
0
  6
Continuous
 62
     7
370
    15
100
AcDbSpline
210
0.0
220
0.0
230
1.0
 70
    24
 71
     3
 72
    10
 73
     6
 74
     0
 42
0.00000001
 43
0.00000001
 12
1.0
 22
0.0
 32
0.0
 13
1.0
 23
0.0
 33
0.0
 40
0.0
 40
0.0
 40
0.0
 40
0.0
 40
0.3971608446820787
 40
0.7941232618021328
 40
1.0
 40
1.0
 40
1.0
 40
1.0
 10
241.3160213253452
 20
389.0181578921727
 30
0.0
 10
241.3160213253452
 20
388.8498032023691
 30
0.0
 10
241.3160213253452
 20
388.5131779353101
 30
0.0
 10
241.3160213253452
 20
387.9557681275845
 30
0.0
 10
241.3160213253452
 20
387.6134417835623
 30
0.0
 10
241.3160213253452
 20
387.4965332674436
 30
0.0
  0
SPLINE
  5
32D
330
1F
100
AcDbEntity
  8
0
  6
Continuous
 62
     7
370
    15
100
AcDbSpline
210
0.0
220
0.0
230
1.0
 70
    24
 71
     3
 72
    10
 73
     6
 74
     0
 42
0.00000001
 43
0.00000001
 12
1.0
 22
0.0
 32
0.0
 13
1.0
 23
0.0
 33
0.0
 40
0.0
 40
0.0
 40
0.0
 40
0.0
 40
0.4119490555545057
 40
0.821969245465611
 40
0.9999999999999999
 40
0.9999999999999999
 40
0.9999999999999999
 40
0.9999999999999999
 10
239.8795344850971
 20
386.0600389766149
 30
0.0
 10
239.6446343228856
 20
386.0600389766149
 30
0.0
 10
239.1759338695423
 20
386.0600389766149
 30
0.0
 10
238.6641540127234
 20
386.0600389766149
 30
0.0
 10
238.4290840692143
 20
386.0600389766149
 30
0.0
 10
238.3579173109485
 20
386.0600389766149
 30
0.0
  0
LINE
  5
32E
330
1F
100
AcDbEntity
  8
0
  6
Continuous
 62
     7
370
    15
100
AcDbLine
 10
241.3160213253
 20
387.4965332674
 30
0.0
 11
241.3160213253
 21
386.0600389766
 31
0.0
  0
LINE
  5
32F
330
1F
100
AcDbEntity
  8
0
  6
Continuous
 62
     7
370
    15
100
AcDbLine
 10
241.3160213253
 20
386.0600389766
 30
0.0
 11
239.8795344851
 21
386.0600389766
 31
0.0
  0
LINE
  5
330
330
1F
100
AcDbEntity
  8
0
  6
Continuous
 62
     7
370
    15
100
AcDbLine
 10
242.3160233519
 20
383.6235501098
 30
0.0
 11
242.3160233519
 21
385.0600444006
 31
0.0
  0
LINE
  5
331
330
1F
100
AcDbEntity
  8
0
  6
Continuous
 62
     7
370
    15
100
AcDbLine
 10
242.3160233519
 20
385.0600444006
 30
0.0
 11
243.7525101922
 21
385.0600444006
 31
0.0
  0
LINE
  5
332
330
1F
100
AcDbEntity
  8
0
  6
Continuous
 62
     7
370
    15
100
AcDbLine
 10
243.7525101922
 20
386.0600389766
 30
0.0
 11
242.3160233519
 21
386.0600389766
 31
0.0
  0
LINE
  5
333
330
1F
100
AcDbEntity
  8
0
  6
Continuous
 62
     7
370
    15
100
AcDbLine
 10
242.3160233519
 20
386.0600389766
 30
0.0
 11
242.3160233519
 21
387.4965332674
 31
0.0
  0
LINE
  5
334
330
1F
100
AcDbEntity
  8
0
  6
Continuous
 62
     7
370
    15
100
AcDbLine
 10
239.8795344851
 20
385.0600444006
 30
0.0
 11
241.3160213253
 21
385.0600444006
 31
0.0
  0
LINE
  5
335
330
1F
100
AcDbEntity
  8
0
  6
Continuous
 62
     7
370
    15
100
AcDbLine
 10
241.3160213253
 20
385.0600444006
 30
0.0
 11
241.3160213253
 21
383.6235501098
 31
0.0
  0
CIRCLE
  5
336
330
1F
100
AcDbEntity
  8
0
  6
Continuous
 62
     7
370
    15
100
AcDbCircle
 10
241.8160259022
 20
385.5600415008
 30
0.0
 40
4.500000000000142
  0
LINE
  5
337
330
1F
100
AcDbEntity
  8
0
  6
Continuous
 62
     7
370
    15
100
AcDbLine
 10
-84.637536762
 20
460.6158830451
 30
0.0
 11
-77.6375374773
 21
460.6158830451
 31
0.0
  0
LINE
  5
338
330
1F
100
AcDbEntity
  8
0
  6
Continuous
 62
     7
370
    15
100
AcDbLine
 10
-84.637536762
 20
460.6158830451
 30
0.0
 11
-84.637536762
 21
467.2314547228
 31
0.0
  0
LINE
  5
339
330
1F
100
AcDbEntity
  8
0
  6
Continuous
 62
     7
370
    15
100
AcDbLine
 10
-84.637536762
 20
467.2314547228
 30
0.0
 11
-77.6375374773
 21
467.2314547228
 31
0.0
  0
LINE
  5
33A
330
1F
100
AcDbEntity
  8
0
  6
Continuous
 62
     7
370
    15
100
AcDbLine
 10
-84.637536762
 20
473.609365918
 30
0.0
 11
-77.6375374773
 21
473.609365918
 31
0.0
  0
LINE
  5
33B
330
1F
100
AcDbEntity
  8
0
  6
Continuous
 62
     7
370
    15
100
AcDbLine
 10
-84.637536762
 20
467.2314547228
 30
0.0
 11
-84.637536762
 21
473.609365918
 31
0.0
  0
LINE
  5
33C
330
1F
100
AcDbEntity
  8
0
  6
Continuous
 62
     7
370
    15
100
AcDbLine
 10
-84.637536762
 20
460.3782244253
 30
0.0
 11
-77.6375374773
 21
460.3782244253
 31
0.0
  0
LINE
  5
33D
330
1F
100
AcDbEntity
  8
0
  6
Continuous
 62
     7
370
    15
100
AcDbLine
 10
-84.637536762
 20
460.3782244253
 30
0.0
 11
-84.637536762
 21
460.6158830451
 31
0.0
  0
LINE
  5
33E
330
1F
100
AcDbEntity
  8
0
  6
Continuous
 62
     7
370
    15
100
AcDbLine
 10
276.7624714396
 20
470.8745204138
 30
0.0
 11
269.7624721549
 21
470.8745204138
 31
0.0
  0
LINE
  5
33F
330
1F
100
AcDbEntity
  8
0
  6
Continuous
 62
     7
370
    15
100
AcDbLine
 10
276.7624714396
 20
463.3704371976
 30
0.0
 11
269.7624721549
 21
463.3704371976
 31
0.0
  0
LINE
  5
340
330
1F
100
AcDbEntity
  8
0
  6
Continuous
 62
     7
370
    15
100
AcDbLine
 10
276.7624714396
 20
470.8745204138
 30
0.0
 11
276.7624714396
 21
463.3704371976
 31
0.0
  0
LINE
  5
341
330
1F
100
AcDbEntity
  8
0
  6
Continuous
 62
     7
370
    15
100
AcDbLine
 10
276.7624714396
 20
459.4897128868
 30
0.0
 11
269.7624721549
 21
459.4897128868
 31
0.0
  0
LINE
  5
342
330
1F
100
AcDbEntity
  8
0
  6
Continuous
 62
     7
370
    15
100
AcDbLine
 10
276.7624714396
 20
463.3704371976
 30
0.0
 11
276.7624714396
 21
459.4897128868
 31
0.0
  0
LINE
  5
343
330
1F
100
AcDbEntity
  8
0
  6
Continuous
 62
     7
370
    15
100
AcDbLine
 10
276.7624714396
 20
474.4978774565
 30
0.0
 11
269.7624721549
 21
474.4978774565
 31
0.0
  0
LINE
  5
344
330
1F
100
AcDbEntity
  8
0
  6
Continuous
 62
     7
370
    15
100
AcDbLine
 10
276.7624714396
 20
474.4978774565
 30
0.0
 11
276.7624714396
 21
470.8745204138
 31
0.0
  0
LINE
  5
345
330
1F
100
AcDbEntity
  8
0
  6
Continuous
 62
     7
370
    15
100
AcDbLine
 10
63.5624685309
 20
686.4938013482
 30
0.0
 11
63.5624685309
 21
679.4938020634
 31
0.0
  0
LINE
  5
346
330
1F
100
AcDbEntity
  8
0
  6
Continuous
 62
     7
370
    15
100
AcDbLine
 10
63.5624685309
 20
686.4938013482
 30
0.0
 11
70.0624668024
 21
686.4938013482
 31
0.0
  0
LINE
  5
347
330
1F
100
AcDbEntity
  8
0
  6
Continuous
 62
     7
370
    15
100
AcDbLine
 10
70.0624668024
 20
686.4938013482
 30
0.0
 11
70.0624668024
 21
679.4938020634
 31
0.0
  0
LINE
  5
348
330
1F
100
AcDbEntity
  8
0
  6
Continuous
 62
     7
370
    15
100
AcDbLine
 10
57.0624665341
 20
686.4938013482
 30
0.0
 11
57.0624665341
 21
679.4938020634
 31
0.0
  0
LINE
  5
349
330
1F
100
AcDbEntity
  8
0
  6
Continuous
 62
     7
370
    15
100
AcDbLine
 10
57.0624665341
 20
686.4938013482
 30
0.0
 11
63.5624685309
 21
686.4938013482
 31
0.0
  0
LINE
  5
34A
330
1F
100
AcDbEntity
  8
0
  6
Continuous
 62
     7
370
    15
100
AcDbLine
 10
276.7624714396
 20
538.4937957155
 30
0.0
 11
269.7624721549
 21
538.4937957155
 31
0.0
  0
LINE
  5
34B
330
1F
100
AcDbEntity
  8
0
  6
Continuous
 62
     7
370
    15
100
AcDbLine
 10
276.7624714396
 20
531.9937937188
 30
0.0
 11
269.7624721549
 21
531.9937937188
 31
0.0
  0
LINE
  5
34C
330
1F
100
AcDbEntity
  8
0
  6
Continuous
 62
     7
370
    15
100
AcDbLine
 10
276.7624714396
 20
538.4937957155
 30
0.0
 11
276.7624714396
 21
531.9937937188
 31
0.0
  0
LINE
  5
34D
330
1F
100
AcDbEntity
  8
0
  6
Continuous
 62
     7
370
    15
100
AcDbLine
 10
276.7624714396
 20
525.4937954473
 30
0.0
 11
269.7624721549
 21
525.4937954473
 31
0.0
  0
LINE
  5
34E
330
1F
100
AcDbEntity
  8
0
  6
Continuous
 62
     7
370
    15
100
AcDbLine
 10
276.7624714396
 20
531.9937937188
 30
0.0
 11
276.7624714396
 21
525.4937954473
 31
0.0
  0
LINE
  5
34F
330
1F
100
AcDbEntity
  8
0
  6
Continuous
 62
     7
370
    15
100
AcDbLine
 10
122.0624678752
 20
686.4938013482
 30
0.0
 11
122.0624678752
 21
679.4938020634
 31
0.0
  0
LINE
  5
350
330
1F
100
AcDbEntity
  8
0
  6
Continuous
 62
     7
370
    15
100
AcDbLine
 10
128.5624661467
 20
686.4938013482
 30
0.0
 11
128.5624661467
 21
679.4938020634
 31
0.0
  0
LINE
  5
351
330
1F
100
AcDbEntity
  8
0
  6
Continuous
 62
     7
370
    15
100
AcDbLine
 10
122.0624678752
 20
686.4938013482
 30
0.0
 11
128.5624661467
 21
686.4938013482
 31
0.0
  0
LINE
  5
352
330
1F
100
AcDbEntity
  8
0
  6
Continuous
 62
     7
370
    15
100
AcDbLine
 10
135.0624681435
 20
686.4938013482
 30
0.0
 11
135.0624681435
 21
679.4938020634
 31
0.0
  0
LINE
  5
353
330
1F
100
AcDbEntity
  8
0
  6
Continuous
 62
     7
370
    15
100
AcDbLine
 10
128.5624661467
 20
686.4938013482
 30
0.0
 11
135.0624681435
 21
686.4938013482
 31
0.0
  0
LINE
  5
354
330
1F
100
AcDbEntity
  8
0
  6
Continuous
 62
     7
370
    15
100
AcDbLine
 10
-84.637536762
 20
526.4047239202
 30
0.0
 11
-77.6375374773
 21
526.4047239202
 31
0.0
  0
LINE
  5
355
330
1F
100
AcDbEntity
  8
0
  6
Continuous
 62
     7
370
    15
100
AcDbLine
 10
-84.637536762
 20
526.4047239202
 30
0.0
 11
-84.637536762
 21
533.5376583266
 31
0.0
  0
LINE
  5
356
330
1F
100
AcDbEntity
  8
0
  6
Continuous
 62
     7
370
    15
100
AcDbLine
 10
-84.637536762
 20
533.5376583266
 30
0.0
 11
-77.6375374773
 21
533.5376583266
 31
0.0
  0
LINE
  5
357
330
1F
100
AcDbEntity
  8
0
  6
Continuous
 62
     7
370
    15
100
AcDbLine
 10
-84.637536762
 20
539.1267299878
 30
0.0
 11
-77.6375374773
 21
539.1267299878
 31
0.0
  0
LINE
  5
358
330
1F
100
AcDbEntity
  8
0
  6
Continuous
 62
     7
370
    15
100
AcDbLine
 10
-84.637536762
 20
533.5376583266
 30
0.0
 11
-84.637536762
 21
539.1267299878
 31
0.0
  0
LINE
  5
359
330
1F
100
AcDbEntity
  8
0
  6
Continuous
 62
     7
370
    15
100
AcDbLine
 10
-84.637536762
 20
524.8608593124
 30
0.0
 11
-77.6375374773
 21
524.8608593124
 31
0.0
  0
LINE
  5
35A
330
1F
100
AcDbEntity
  8
0
  6
Continuous
 62
     7
370
    15
100
AcDbLine
 10
-84.637536762
 20
524.8608593124
 30
0.0
 11
-84.637536762
 21
526.4047239202
 31
0.0
  0
LINE
  5
35B
330
1F
100
AcDbEntity
  8
0
  6
Continuous
 62
     7
370
    15
100
AcDbLine
 10
-77.6375374773
 20
508.3544509711
 30
0.0
 11
-77.6375374773
 21
505.3887077833
 31
0.0
  0
LINE
  5
35C
330
1F
100
AcDbEntity
  8
0
  6
Continuous
 62
     7
370
    15
100
AcDbLine
 10
-77.6375374773
 20
493.5988820384
 30
0.0
 11
-77.6375374773
 21
490.6331388506
 31
0.0
  0
LINE
  5
35D
330
1F
100
AcDbEntity
  8
0
  6
Continuous
 62
     7
370
    15
100
AcDbLine
 10
-77.6375374773
 20
534.5183857011
 30
0.0
 11
-77.6375374773
 21
508.3544509711
 31
0.0
  0
LINE
  5
35E
330
1F
100
AcDbEntity
  8
0
  6
Continuous
 62
     7
370
    15
100
AcDbLine
 10
-74.437528012
 20
534.5183857011
 30
0.0
 11
-74.437528012
 21
533.2012124586
 31
0.0
  0
LINE
  5
35F
330
1F
100
AcDbEntity
  8
0
  6
Continuous
 62
     7
370
    15
100
AcDbLine
 10
-77.6375374773
 20
490.6331388506
 30
0.0
 11
-77.6375374773
 21
464.4692041206
 31
0.0
  0
LINE
  5
360
330
1F
100
AcDbEntity
  8
0
  6
Continuous
 62
     7
370
    15
100
AcDbLine
 10
-74.437528012
 20
465.7863773632
 30
0.0
 11
-74.437528012
 21
464.4692041206
 31
0.0
  0
LINE
  5
361
330
1F
100
AcDbEntity
  8
0
  6
Continuous
 62
     7
370
    15
100
AcDbLine
 10
-77.6375374773
 20
541.9937953579
 30
0.0
 11
-77.6375374773
 21
534.5183857011
 31
0.0
  0
LINE
  5
362
330
1F
100
AcDbEntity
  8
0
  6
Continuous
 62
     7
370
    15
100
AcDbLine
 10
-74.437528012
 20
541.9937953579
 30
0.0
 11
-74.437528012
 21
534.5183857011
 31
0.0
  0
LINE
  5
363
330
1F
100
AcDbEntity
  8
0
  6
Continuous
 62
     7
370
    15
100
AcDbLine
 10
-77.6375374773
 20
464.4692041206
 30
0.0
 11
-77.6375374773
 21
456.9937944638
 31
0.0
  0
LINE
  5
364
330
1F
100
AcDbEntity
  8
0
  6
Continuous
 62
     7
370
    15
100
AcDbLine
 10
-74.437528012
 20
464.4692041206
 30
0.0
 11
-74.437528012
 21
456.9937944638
 31
0.0
  0
LINE
  5
365
330
1F
100
AcDbEntity
  8
0
  6
Continuous
 62
     7
370
    15
100
AcDbLine
 10
269.7624721549
 20
508.3544509711
 30
0.0
 11
269.7624721549
 21
505.3887077833
 31
0.0
  0
LINE
  5
366
330
1F
100
AcDbEntity
  8
0
  6
Continuous
 62
     7
370
    15
100
AcDbLine
 10
269.7624721549
 20
493.5988820384
 30
0.0
 11
269.7624721549
 21
490.6331388506
 31
0.0
  0
LINE
  5
367
330
1F
100
AcDbEntity
  8
0
  6
Continuous
 62
     7
370
    15
100
AcDbLine
 10
269.7624721549
 20
534.5183857011
 30
0.0
 11
269.7624721549
 21
508.3544509711
 31
0.0
  0
LINE
  5
368
330
1F
100
AcDbEntity
  8
0
  6
Continuous
 62
     7
370
    15
100
AcDbLine
 10
266.5624626896
 20
534.5183857011
 30
0.0
 11
266.5624626896
 21
533.2012124586
 31
0.0
  0
LINE
  5
369
330
1F
100
AcDbEntity
  8
0
  6
Continuous
 62
     7
370
    15
100
AcDbLine
 10
269.7624721549
 20
490.6331388506
 30
0.0
 11
269.7624721549
 21
464.4692041206
 31
0.0
  0
LINE
  5
36A
330
1F
100
AcDbEntity
  8
0
  6
Continuous
 62
     7
370
    15
100
AcDbLine
 10
266.5624626896
 20
465.7863773632
 30
0.0
 11
266.5624626896
 21
464.4692041206
 31
0.0
  0
LINE
  5
36B
330
1F
100
AcDbEntity
  8
0
  6
Continuous
 62
     7
370
    15
100
AcDbLine
 10
269.7624721549
 20
541.9937953579
 30
0.0
 11
269.7624721549
 21
534.5183857011
 31
0.0
  0
LINE
  5
36C
330
1F
100
AcDbEntity
  8
0
  6
Continuous
 62
     7
370
    15
100
AcDbLine
 10
266.5624626896
 20
541.9937953579
 30
0.0
 11
266.5624626896
 21
534.5183857011
 31
0.0
  0
LINE
  5
36D
330
1F
100
AcDbEntity
  8
0
  6
Continuous
 62
     7
370
    15
100
AcDbLine
 10
269.7624721549
 20
464.4692041206
 30
0.0
 11
269.7624721549
 21
456.9937944638
 31
0.0
  0
LINE
  5
36E
330
1F
100
AcDbEntity
  8
0
  6
Continuous
 62
     7
370
    15
100
AcDbLine
 10
266.5624626896
 20
464.4692041206
 30
0.0
 11
266.5624626896
 21
456.9937944638
 31
0.0
  0
SPLINE
  5
36F
330
1F
100
AcDbEntity
  8
0
  6
Continuous
 62
     7
370
    15
100
AcDbSpline
210
0.0
220
0.0
230
1.0
 70
     8
 71
     3
 72
    11
 73
     7
 74
     0
 42
0.00000001
 43
0.00000001
 12
1.0
 22
0.0
 32
0.0
 13
1.0
 23
0.0
 33
0.0
 40
0.0
 40
0.0
 40
0.0
 40
0.0
 40
0.3159626301488082
 40
0.6359060288973108
 40
0.9747470255920887
 40
1.0
 40
1.0
 40
1.0
 40
1.0
 10
276.2624629757358
 20
483.5225478040628
 30
0.0
 10
276.0583119795714
 20
483.5210073866484
 30
0.0
 10
275.6474379176445
 20
483.5179071443182
 30
0.0
 10
275.1166287735414
 20
483.5029085886131
 30
0.0
 10
274.7916894017589
 20
483.4902726737931
 30
0.0
 10
274.6963754443674
 20
483.4943722177953
 30
0.0
 10
274.6897646210147
 20
483.4946565555982
 30
0.0
  0
SPLINE
  5
370
330
1F
100
AcDbEntity
  8
0
  6
Continuous
 62
     7
370
    15
100
AcDbSpline
210
0.0
220
0.0
230
1.0
 70
     8
 71
     3
 72
    11
 73
     7
 74
     0
 42
0.00000001
 43
0.00000001
 12
1.0
 22
0.0
 32
0.0
 13
1.0
 23
0.0
 33
0.0
 40
0.0
 40
0.0
 40
0.0
 40
0.0
 40
0.3159613791245536
 40
0.6359074704930735
 40
0.9747471255788607
 40
0.9999999999999999
 40
0.9999999999999999
 40
0.9999999999999999
 40
0.9999999999999999
 10
276.2624629757358
 20
515.4650420176439
 30
0.0
 10
276.0583112825727
 20
515.4665824572742
 30
0.0
 10
275.6474332595817
 20
515.4696827636202
 30
0.0
 10
275.1166334083669
 20
515.48468109877
 30
0.0
 10
274.7916893641544
 20
515.4973171487488
 30
0.0
 10
274.6963754419284
 20
515.4932176039655
 30
0.0
 10
274.6897646210147
 20
515.4929332661085
 30
0.0
  0
LINE
  5
371
330
1F
100
AcDbEntity
  8
0
  6
Continuous
 62
     7
370
    15
100
AcDbLine
 10
275.2624609492
 20
513.227871083
 30
0.0
 11
275.2624609492
 21
500.5647738457
 31
0.0
  0
LINE
  5
372
330
1F
100
AcDbEntity
  8
0
  6
Continuous
 62
     7
370
    15
100
AcDbLine
 10
282.2624602339
 20
498.5161100507
 30
0.0
 11
282.2624602339
 21
495.3143479528
 31
0.0
  0
LINE
  5
373
330
1F
100
AcDbEntity
  8
0
  6
Continuous
 62
     7
370
    15
100
AcDbLine
 10
282.2624602339
 20
495.3143479528
 30
0.0
 11
282.2624602339
 21
494.0884419943
 31
0.0
  0
LINE
  5
374
330
1F
100
AcDbEntity
  8
0
  6
Continuous
 62
     7
370
    15
100
AcDbLine
 10
275.2624609492
 20
493.0728566127
 30
0.0
 11
275.2624609492
 21
484.5687639194
 31
0.0
  0
LINE
  5
375
330
1F
100
AcDbEntity
  8
0
  6
Continuous
 62
     7
370
    15
100
AcDbLine
 10
282.2624602339
 20
494.0884419943
 30
0.0
 11
282.2624602339
 21
489.236271404
 31
0.0
  0
LINE
  5
376
330
1F
100
AcDbEntity
  8
0
  6
Continuous
 62
     7
370
    15
100
AcDbLine
 10
282.2624602339
 20
513.9215806725
 30
0.0
 11
282.2624602339
 21
508.1479544046
 31
0.0
  0
ARC
  5
377
330
1F
100
AcDbEntity
  8
0
  6
Continuous
 62
     7
370
    15
100
AcDbCircle
 10
281.2633733381
 20
514.4659551361
 30
0.0
 40
0.9990872871019064
100
AcDbArc
 50
0.0507055059
 51
90.0516264798
  0
LINE
  5
378
330
1F
100
AcDbEntity
  8
0
  6
Continuous
 62
     7
370
    15
100
AcDbLine
 10
282.2624602339
 20
514.4668393063
 30
0.0
 11
282.2624602339
 21
513.9215806725
 31
0.0
  0
LINE
  5
379
330
1F
100
AcDbEntity
  8
0
  6
Continuous
 62
     7
370
    15
100
AcDbLine
 10
282.2624602339
 20
489.236271404
 30
0.0
 11
282.2624602339
 21
484.5207505154
 31
0.0
  0
LINE
  5
37A
330
1F
100
AcDbEntity
  8
0
  6
Continuous
 62
     7
370
    15
100
AcDbLine
 10
282.2624602339
 20
508.1479544046
 30
0.0
 11
282.2624602339
 21
501.9724640756
 31
0.0
  0
LINE
  5
37B
330
1F
100
AcDbEntity
  8
0
  6
Continuous
 62
     7
370
    15
100
AcDbLine
 10
276.2624629757
 20
515.4668394702
 30
0.0
 11
276.2624629757
 21
515.4650420176
 31
0.0
  0
LINE
  5
37C
330
1F
100
AcDbEntity
  8
0
  6
Continuous
 62
     7
370
    15
100
AcDbLine
 10
281.2624731085
 20
515.4650420176
 30
0.0
 11
281.2624731085
 21
515.4668394702
 31
0.0
  0
LINE
  5
37D
330
1F
100
AcDbEntity
  8
0
  6
Continuous
 62
     7
370
    15
100
AcDbLine
 10
282.2624602339
 20
501.9724640756
 30
0.0
 11
282.2624602339
 21
500.471479771
 31
0.0
  0
LINE
  5
37E
330
1F
100
AcDbEntity
  8
0
  6
Continuous
 62
     7
370
    15
100
AcDbLine
 10
104.9231233991
 20
679.4938020634
 30
0.0
 11
87.2018112785
 21
679.4938020634
 31
0.0
  0
LINE
  5
37F
330
1F
100
AcDbEntity
  8
0
  6
Continuous
 62
     7
370
    15
100
AcDbLine
 10
61.0378765485
 20
671.4938007521
 30
0.0
 11
71.1137195102
 21
671.4938007521
 31
0.0
  0
LINE
  5
380
330
1F
100
AcDbEntity
  8
0
  6
Continuous
 62
     7
370
    15
100
AcDbLine
 10
87.2018112785
 20
679.4938020634
 30
0.0
 11
61.0378765485
 21
679.4938020634
 31
0.0
  0
LINE
  5
381
330
1F
100
AcDbEntity
  8
0
  6
Continuous
 62
     7
370
    15
100
AcDbLine
 10
121.0112151674
 20
671.4938007521
 30
0.0
 11
131.0870581291
 21
671.4938007521
 31
0.0
  0
LINE
  5
382
330
1F
100
AcDbEntity
  8
0
  6
Continuous
 62
     7
370
    15
100
AcDbLine
 10
131.0870581291
 20
679.4938020634
 30
0.0
 11
104.9231233991
 21
679.4938020634
 31
0.0
  0
LINE
  5
383
330
1F
100
AcDbEntity
  8
0
  6
Continuous
 62
     7
370
    15
100
AcDbLine
 10
78.5624672643
 20
692.4937986063
 30
0.0
 11
113.5624674133
 21
692.4937986063
 31
0.0
  0
LINE
  5
384
330
1F
100
AcDbEntity
  8
0
  6
Continuous
 62
     7
370
    15
100
AcDbLine
 10
53.5624668918
 20
671.4938007521
 30
0.0
 11
61.0378765485
 21
671.4938007521
 31
0.0
  0
LINE
  5
385
330
1F
100
AcDbEntity
  8
0
  6
Continuous
 62
     7
370
    15
100
AcDbLine
 10
61.0378765485
 20
679.4938020634
 30
0.0
 11
53.5624668918
 21
679.4938020634
 31
0.0
  0
LINE
  5
386
330
1F
100
AcDbEntity
  8
0
  6
Continuous
 62
     7
370
    15
100
AcDbLine
 10
131.0870581291
 20
671.4938007521
 30
0.0
 11
138.5624677858
 21
671.4938007521
 31
0.0
  0
LINE
  5
387
330
1F
100
AcDbEntity
  8
0
  6
Continuous
 62
     7
370
    15
100
AcDbLine
 10
138.5624677858
 20
679.4938020634
 30
0.0
 11
131.0870581291
 21
679.4938020634
 31
0.0
  0
LINE
  5
388
330
1F
100
AcDbEntity
  8
0
  6
Continuous
 62
     7
370
    15
100
AcDbLine
 10
136.0624664447
 20
669.493796699
 30
0.0
 11
136.0624664447
 21
671.4938007521
 31
0.0
  0
LINE
  5
389
330
1F
100
AcDbEntity
  8
0
  6
Continuous
 62
     7
370
    15
100
AcDbLine
 10
136.0624664447
 20
671.4938007521
 30
0.0
 11
131.0870581291
 21
671.4938007521
 31
0.0
  0
LINE
  5
38A
330
1F
100
AcDbEntity
  8
0
  6
Continuous
 62
     7
370
    15
100
AcDbLine
 10
56.0624682329
 20
669.493796699
 30
0.0
 11
56.0624682329
 21
671.4938007521
 31
0.0
  0
LINE
  5
38B
330
1F
100
AcDbEntity
  8
0
  6
Continuous
 62
     7
370
    15
100
AcDbLine
 10
61.0378765485
 20
671.4938007521
 30
0.0
 11
56.0624682329
 21
671.4938007521
 31
0.0
  0
SPLINE
  5
38C
330
1F
100
AcDbEntity
  8
0
  6
Continuous
 62
     7
370
    15
100
AcDbSpline
210
0.0
220
0.0
230
1.0
 70
     8
 71
     3
 72
     9
 73
     5
 74
     0
 42
0.00000001
 43
0.00000001
 12
1.0
 22
0.0
 32
0.0
 13
1.0
 23
0.0
 33
0.0
 40
0.0
 40
0.0
 40
0.0
 40
0.0
 40
0.5626570608477104
 40
1.0
 40
1.0
 40
1.0
 40
1.0
 10
20.29771441435352
 20
667.6951818394117
 30
0.0
 10
26.50863762201157
 20
668.6006428219935
 30
0.0
 10
37.54719670149869
 20
670.2099018993038
 30
0.0
 10
48.68947162699956
 20
671.1918582930736
 30
0.0
 10
53.56246689176098
 20
671.6213099884443
 30
0.0
  0
SPLINE
  5
38D
330
1F
100
AcDbEntity
  8
0
  6
Continuous
 62
     7
370
    15
100
AcDbSpline
210
0.0
220
0.0
230
1.0
 70
     8
 71
     3
 72
     9
 73
     5
 74
     0
 42
0.00000001
 43
0.00000001
 12
1.0
 22
0.0
 32
0.0
 13
1.0
 23
0.0
 33
0.0
 40
0.0
 40
0.0
 40
0.0
 40
0.0
 40
0.4317114250414837
 40
1.0
 40
1.0
 40
1.0
 40
1.0
 10
138.4069592676117
 20
671.629282109683
 30
0.0
 10
143.2400184456634
 20
671.2074922312471
 30
0.0
 10
154.4351337419224
 20
670.2304741261661
 30
0.0
 10
165.5249846781736
 20
668.6138760540788
 30
0.0
 10
171.8272202632381
 20
667.6951818394117
 30
0.0
  0
SPLINE
  5
38E
330
1F
100
AcDbEntity
  8
0
  6
Continuous
 62
     7
370
    15
100
AcDbSpline
210
0.0
220
0.0
230
1.0
 70
     8
 71
     3
 72
     9
 73
     5
 74
     0
 42
0.00000001
 43
0.00000001
 12
1.0
 22
0.0
 32
0.0
 13
1.0
 23
0.0
 33
0.0
 40
0.0
 40
0.0
 40
0.0
 40
0.0
 40
0.5626570608477104
 40
1.0
 40
1.0
 40
1.0
 40
1.0
 10
-72.13891958976254
 20
423.729041986411
 30
0.0
 10
-73.04438057234441
 20
429.9399651940691
 30
0.0
 10
-74.65363964965468
 20
440.9785242735562
 30
0.0
 10
-75.63559604342446
 20
452.120799199057
 30
0.0
 10
-76.06504773879513
 20
456.9937944638185
 30
0.0
  0
SPLINE
  5
38F
330
1F
100
AcDbEntity
  8
0
  6
Continuous
 62
     7
370
    15
100
AcDbSpline
210
0.0
220
0.0
230
1.0
 70
     8
 71
     3
 72
     9
 73
     5
 74
     0
 42
0.00000001
 43
0.00000001
 12
1.0
 22
0.0
 32
0.0
 13
1.0
 23
0.0
 33
0.0
 40
0.0
 40
0.0
 40
0.0
 40
0.0
 40
0.4871280286679916
 40
1.0
 40
1.0
 40
1.0
 40
1.0
 10
-77.63753747725951
 20
483.4878839778356
 30
0.0
 10
-77.7900557713515
 20
488.7449320785559
 30
0.0
 10
-78.10315270915044
 20
499.5368549229369
 30
0.0
 10
-77.79538361783666
 20
510.3292365374881
 30
0.0
 10
-77.63753747725949
 20
515.8643465715103
 30
0.0
  0
SPLINE
  5
390
330
1F
100
AcDbEntity
  8
0
  6
Continuous
 62
     7
370
    15
100
AcDbSpline
210
0.0
220
0.0
230
1.0
 70
     8
 71
     3
 72
     9
 73
     5
 74
     0
 42
0.00000001
 43
0.00000001
 12
1.0
 22
0.0
 32
0.0
 13
1.0
 23
0.0
 33
0.0
 40
0.0
 40
0.0
 40
0.0
 40
0.0
 40
0.4290642814298591
 40
1.0
 40
1.0
 40
1.0
 40
1.0
 10
-76.05814850116238
 20
541.9937953578882
 30
0.0
 10
-75.64064808156328
 20
546.7749084077637
 30
0.0
 10
-74.66759943205142
 20
557.9180243854968
 30
0.0
 10
-73.05793468740457
 20
568.9563649393559
 30
0.0
 10
-72.13891958976257
 20
575.2585478352956
 30
0.0
  0
SPLINE
  5
391
330
1F
100
AcDbEntity
  8
0
  6
Continuous
 62
     7
370
    15
100
AcDbSpline
210
0.0
220
0.0
230
1.0
 70
     8
 71
     3
 72
     9
 73
     5
 74
     0
 42
0.00000001
 43
0.00000001
 12
1.0
 22
0.0
 32
0.0
 13
1.0
 23
0.0
 33
0.0
 40
0.0
 40
0.0
 40
0.0
 40
0.0
 40
0.5626570608477104
 40
1.0
 40
1.0
 40
1.0
 40
1.0
 10
264.2638542673541
 20
575.2585478352956
 30
0.0
 10
265.169315249936
 20
569.0476246276374
 30
0.0
 10
266.7785743272463
 20
558.0090655481505
 30
0.0
 10
267.7605307210161
 20
546.8667906226495
 30
0.0
 10
268.1899824163867
 20
541.9937953578882
 30
0.0
  0
LINE
  5
392
330
1F
100
AcDbEntity
  8
0
  6
Continuous
 62
     7
370
    15
100
AcDbLine
 10
269.7693862936
 20
483.4937941509
 30
0.0
 11
269.7624721549
 21
483.1232432502
 31
0.0
  0
SPLINE
  5
393
330
1F
100
AcDbEntity
  8
0
  6
Continuous
 62
     7
370
    15
100
AcDbSpline
210
0.0
220
0.0
230
1.0
 70
     8
 71
     3
 72
     9
 73
     5
 74
     0
 42
0.00000001
 43
0.00000001
 12
1.0
 22
0.0
 32
0.0
 13
1.0
 23
0.0
 33
0.0
 40
0.0
 40
0.0
 40
0.0
 40
0.0
 40
0.4290642814298591
 40
1.0
 40
1.0
 40
1.0
 40
1.0
 10
268.183083178754
 20
456.9937944638185
 30
0.0
 10
267.7655827591549
 20
452.2126814139429
 30
0.0
 10
266.792534109643
 20
441.0695654362099
 30
0.0
 10
265.1828693649962
 20
430.0312248823506
 30
0.0
 10
264.2638542673542
 20
423.729041986411
 30
0.0
  0
SPLINE
  5
394
330
1F
100
AcDbEntity
  8
0
  6
Continuous
 62
     7
370
    15
100
AcDbSpline
210
0.0
220
0.0
230
1.0
 70
     8
 71
     3
 72
     9
 73
     5
 74
     0
 42
0.00000001
 43
0.00000001
 12
1.0
 22
0.0
 32
0.0
 13
1.0
 23
0.0
 33
0.0
 40
0.0
 40
0.0
 40
0.0
 40
0.0
 40
0.9696810438345199
 40
1.0
 40
1.0
 40
1.0
 40
1.0
 10
139.3390157244159
 20
327.4411879705839
 30
0.0
 10
137.6893404175939
 20
327.2510722237195
 30
0.0
 10
135.9880848167846
 20
327.055012139764
 30
0.0
 10
134.2757796251292
 20
326.9567212624126
 30
0.0
 10
134.2238643190815
 20
326.9537411856107
 30
0.0
  0
SPLINE
  5
395
330
1F
100
AcDbEntity
  8
0
  6
Continuous
 62
     7
370
    15
100
AcDbSpline
210
0.0
220
0.0
230
1.0
 70
     8
 71
     3
 72
    10
 73
     6
 74
     0
 42
0.00000001
 43
0.00000001
 12
1.0
 22
0.0
 32
0.0
 13
1.0
 23
0.0
 33
0.0
 40
0.0
 40
0.0
 40
0.0
 40
0.0
 40
0.2981160948082942
 40
0.6490550922729571
 40
1.0
 40
1.0
 40
1.0
 40
1.0
 10
74.55907286917702
 20
325.9937934803419
 30
0.0
 10
69.13524171536109
 20
326.2642670161001
 30
0.0
 10
57.32653600869094
 20
326.8531390319566
 30
0.0
 10
39.21216209882326
 20
328.6010361149912
 30
0.0
 10
26.60256570250542
 20
330.3952789903446
 30
0.0
 10
20.2977144143535
 20
331.2924079822949
 30
0.0
  0
LINE
  5
396
330
1F
100
AcDbEntity
  8
0
  6
Continuous
 62
     7
370
    15
100
AcDbLine
 10
178.5412513635
 20
655.3896986174
 30
0.0
 11
180.4789313099
 21
651.9816242384
 31
0.0
  0
LINE
  5
397
330
1F
100
AcDbEntity
  8
0
  6
Continuous
 62
     7
370
    15
100
AcDbLine
 10
11.6460033677
 20
651.9816242384
 30
0.0
 11
13.5836833141
 21
655.3896986174
 31
0.0
  0
LINE
  5
398
330
1F
100
AcDbEntity
  8
0
  6
Continuous
 62
     7
370
    15
100
AcDbLine
 10
-59.8334363678
 20
581.9725789356
 30
0.0
 11
-56.4253619888
 21
583.910258882
 31
0.0
  0
LINE
  5
399
330
1F
100
AcDbEntity
  8
0
  6
Continuous
 62
     7
370
    15
100
AcDbLine
 10
248.5502966664
 20
583.910258882
 30
0.0
 11
251.9583710453
 21
581.9725789356
 31
0.0
  0
LINE
  5
39A
330
1F
100
AcDbEntity
  8
0
  6
Continuous
 62
     7
370
    15
100
AcDbLine
 10
251.9583710453
 20
417.0150108861
 30
0.0
 11
248.5502966664
 21
415.0773309397
 31
0.0
  0
LINE
  5
39B
330
1F
100
AcDbEntity
  8
0
  6
Continuous
 62
     7
370
    15
100
AcDbLine
 10
-56.4253619888
 20
415.0773309397
 30
0.0
 11
-59.8334363678
 21
417.0150108861
 31
0.0
  0
LINE
  5
39C
330
1F
100
AcDbEntity
  8
0
  6
Continuous
 62
     7
370
    15
100
AcDbLine
 10
13.5836833141
 20
343.5978912043
 30
0.0
 11
11.6460033677
 21
347.0059655833
 31
0.0
  0
LWPOLYLINE
  5
39D
330
1F
100
AcDbEntity
  8
0
  6
Continuous
 62
     7
370
    15
100
AcDbPolyline
 90
        3
 70
   128
 43
0.0
 10
180.4789313099
 20
651.9816242384
 10
181.0836502335
 20
651.1701815056
 10
181.2153913996
 20
651.0042570757
  0
LWPOLYLINE
  5
39E
330
1F
100
AcDbEntity
  8
0
  6
Continuous
 62
     7
370
    15
100
AcDbPolyline
 90
        3
 70
   128
 43
0.0
 10
-56.4253619888
 20
583.910258882
 10
-55.613919256
 20
584.5149778056
 10
-55.4479948261
 20
584.6467189717
  0
LWPOLYLINE
  5
39F
330
1F
100
AcDbEntity
  8
0
  6
Continuous
 62
     7
370
    15
100
AcDbPolyline
 90
        3
 70
   128
 43
0.0
 10
248.5502966664
 20
415.0773309397
 10
247.7388539336
 20
414.4726120161
 10
247.5729295037
 20
414.34087085
  0
LWPOLYLINE
  5
3A0
330
1F
100
AcDbEntity
  8
0
  6
Continuous
 62
     7
370
    15
100
AcDbPolyline
 90
        3
 70
   128
 43
0.0
 10
11.6460033677
 20
347.0059655833
 10
11.0412844441
 20
347.8174083161
 10
10.909543278
 20
347.983332746
  0
LWPOLYLINE
  5
3A1
330
1F
100
AcDbEntity
  8
0
  6
Continuous
 62
     7
370
    15
100
AcDbPolyline
 90
        3
 70
   128
 43
0.0
 10
10.909543278
 20
651.0042570757
 10
11.0412844441
 20
651.1701815056
 10
11.6460033677
 20
651.9816242384
  0
LWPOLYLINE
  5
3A2
330
1F
100
AcDbEntity
  8
0
  6
Continuous
 62
     7
370
    15
100
AcDbPolyline
 90
        3
 70
   128
 43
0.0
 10
247.5729295037
 20
584.6467189717
 10
247.7388539336
 20
584.5149778056
 10
248.5502966664
 20
583.910258882
  0
LWPOLYLINE
  5
3A3
330
1F
100
AcDbEntity
  8
0
  6
Continuous
 62
     7
370
    15
100
AcDbPolyline
 90
        3
 70
   128
 43
0.0
 10
-55.4479948261
 20
414.34087085
 10
-55.613919256
 20
414.4726120161
 10
-56.4253619888
 20
415.0773309397
  0
LWPOLYLINE
  5
3A4
330
1F
100
AcDbEntity
  8
0
  6
Continuous
 62
     7
370
    15
100
AcDbPolyline
 90
        3
 70
   128
 43
0.0
 10
199.7999482772
 20
361.6722248721
 10
199.7203239224
 20
361.6123371052
 10
196.0624688289
 20
358.9368634152
  0
LINE
  5
3A5
330
1F
100
AcDbEntity
  8
0
  6
Continuous
 62
     7
370
    15
100
AcDbLine
 10
13.5836833141
 20
655.3896986174
 30
0.0
 11
17.9346510193
 21
665.1639513897
 31
0.0
  0
LINE
  5
3A6
330
1F
100
AcDbEntity
  8
0
  6
Continuous
 62
     7
370
    15
100
AcDbLine
 10
174.1902836583
 20
665.1639513897
 30
0.0
 11
178.5412513635
 21
655.3896986174
 31
0.0
  0
LINE
  5
3A7
330
1F
100
AcDbEntity
  8
0
  6
Continuous
 62
     7
370
    15
100
AcDbLine
 10
251.9583710453
 20
581.9725789356
 30
0.0
 11
261.7326238177
 21
577.6216112303
 31
0.0
  0
LINE
  5
3A8
330
1F
100
AcDbEntity
  8
0
  6
Continuous
 62
     7
370
    15
100
AcDbLine
 10
-69.6076891401
 20
577.6216112303
 30
0.0
 11
-59.8334363678
 21
581.9725789356
 31
0.0
  0
LINE
  5
3A9
330
1F
100
AcDbEntity
  8
0
  6
Continuous
 62
     7
370
    15
100
AcDbLine
 10
-59.8334363678
 20
417.0150108861
 30
0.0
 11
-69.6076891401
 21
421.3659785914
 31
0.0
  0
LINE
  5
3AA
330
1F
100
AcDbEntity
  8
0
  6
Continuous
 62
     7
370
    15
100
AcDbLine
 10
261.7326238177
 20
421.3659785914
 30
0.0
 11
251.9583710453
 21
417.0150108861
 31
0.0
  0
LINE
  5
3AB
330
1F
100
AcDbEntity
  8
0
  6
Continuous
 62
     7
370
    15
100
AcDbLine
 10
17.9346510193
 20
333.823638432
 30
0.0
 11
13.5836833141
 21
343.5978912043
 31
0.0
  0
SPLINE
  5
3AC
330
1F
100
AcDbEntity
  8
0
  6
Continuous
 62
     7
370
    15
100
AcDbSpline
210
0.0
220
0.0
230
1.0
 70
     8
 71
     3
 72
     9
 73
     5
 74
     0
 42
0.00000001
 43
0.00000001
 12
1.0
 22
0.0
 32
0.0
 13
1.0
 23
0.0
 33
0.0
 40
0.0
 40
0.0
 40
0.0
 40
0.0
 40
0.7415168135553853
 40
1.0
 40
1.0
 40
1.0
 40
1.0
 10
-69.60768914008605
 20
421.3659785913877
 30
0.0
 10
-69.77692454082232
 20
421.4413198190128
 30
0.0
 10
-70.00515321702028
 20
421.5429240257521
 30
0.0
 10
-70.19290487805571
 20
421.6264875969545
 30
0.0
 10
-70.24143552566036
 20
421.6480873751096
 30
0.0
  0
SPLINE
  5
3AD
330
1F
100
AcDbEntity
  8
0
  6
Continuous
 62
     7
370
    15
100
AcDbSpline
210
0.0
220
0.0
230
1.0
 70
     8
 71
     3
 72
     9
 73
     5
 74
     0
 42
0.00000001
 43
0.00000001
 12
1.0
 22
0.0
 32
0.0
 13
1.0
 23
0.0
 33
0.0
 40
0.0
 40
0.0
 40
0.0
 40
0.0
 40
0.7415168135553853
 40
1.0
 40
1.0
 40
1.0
 40
1.0
 10
17.93465101933016
 20
665.1639513897352
 30
0.0
 10
18.00999224695535
 20
665.3331867904715
 30
0.0
 10
18.11159645369469
 20
665.5614154666694
 30
0.0
 10
18.195160024897
 20
665.7491671277048
 30
0.0
 10
18.2167598030521
 20
665.7976977753095
 30
0.0
  0
SPLINE
  5
3AE
330
1F
100
AcDbEntity
  8
0
  6
Continuous
 62
     7
370
    15
100
AcDbSpline
210
0.0
220
0.0
230
1.0
 70
     8
 71
     3
 72
     9
 73
     5
 74
     0
 42
0.00000001
 43
0.00000001
 12
1.0
 22
0.0
 32
0.0
 13
1.0
 23
0.0
 33
0.0
 40
0.0
 40
0.0
 40
0.0
 40
0.0
 40
0.7412699723273551
 40
1.0
 40
1.0
 40
1.0
 40
1.0
 10
173.9081748745395
 20
665.7976977753095
 30
0.0
 10
173.9735589634902
 20
665.6508101460056
 30
0.0
 10
174.0617644640386
 20
665.4526534220217
 30
0.0
 10
174.1638667348968
 20
665.2232936499184
 30
0.0
 10
174.1902836582614
 20
665.1639513897352
 30
0.0
  0
SPLINE
  5
3AF
330
1F
100
AcDbEntity
  8
0
  6
Continuous
 62
     7
370
    15
100
AcDbSpline
210
0.0
220
0.0
230
1.0
 70
     8
 71
     3
 72
     9
 73
     5
 74
     0
 42
0.00000001
 43
0.00000001
 12
1.0
 22
0.0
 32
0.0
 13
1.0
 23
0.0
 33
0.0
 40
0.0
 40
0.0
 40
0.0
 40
0.0
 40
0.7415168135553853
 40
1.0
 40
1.0
 40
1.0
 40
1.0
 10
261.7326238176777
 20
577.621611230319
 30
0.0
 10
261.9018592184139
 20
577.5462700026937
 30
0.0
 10
262.1300878946119
 20
577.4446657959544
 30
0.0
 10
262.3178395556474
 20
577.3611022247521
 30
0.0
 10
262.366370203252
 20
577.3395024465971
 30
0.0
  0
SPLINE
  5
3B0
330
1F
100
AcDbEntity
  8
0
  6
Continuous
 62
     7
370
    15
100
AcDbSpline
210
0.0
220
0.0
230
1.0
 70
     8
 71
     3
 72
     9
 73
     5
 74
     0
 42
0.00000001
 43
0.00000001
 12
1.0
 22
0.0
 32
0.0
 13
1.0
 23
0.0
 33
0.0
 40
0.0
 40
0.0
 40
0.0
 40
0.0
 40
0.7412699723273551
 40
1.0
 40
1.0
 40
1.0
 40
1.0
 10
-70.24143552566036
 20
577.3395024465971
 30
0.0
 10
-70.09454789635645
 20
577.4048865355477
 30
0.0
 10
-69.8963911723727
 20
577.4930920360961
 30
0.0
 10
-69.66703140026931
 20
577.5951943069542
 30
0.0
 10
-69.60768914008602
 20
577.621611230319
 30
0.0
  0
SPLINE
  5
3B1
330
1F
100
AcDbEntity
  8
0
  6
Continuous
 62
     7
370
    15
100
AcDbSpline
210
0.0
220
0.0
230
1.0
 70
     8
 71
     3
 72
     9
 73
     5
 74
     0
 42
0.00000001
 43
0.00000001
 12
1.0
 22
0.0
 32
0.0
 13
1.0
 23
0.0
 33
0.0
 40
0.0
 40
0.0
 40
0.0
 40
0.0
 40
0.7412699723273551
 40
1.0
 40
1.0
 40
1.0
 40
1.0
 10
262.366370203252
 20
421.6480873751096
 30
0.0
 10
262.2194825739481
 20
421.582703286159
 30
0.0
 10
262.0213258499643
 20
421.4944977856105
 30
0.0
 10
261.7919660778609
 20
421.3923955147523
 30
0.0
 10
261.7326238176776
 20
421.3659785913877
 30
0.0
  0
SPLINE
  5
3B2
330
1F
100
AcDbEntity
  8
0
  6
Continuous
 62
     7
370
    15
100
AcDbSpline
210
0.0
220
0.0
230
1.0
 70
     8
 71
     3
 72
     9
 73
     5
 74
     0
 42
0.00000001
 43
0.00000001
 12
1.0
 22
0.0
 32
0.0
 13
1.0
 23
0.0
 33
0.0
 40
0.0
 40
0.0
 40
0.0
 40
0.0
 40
0.7412699723273551
 40
1.0
 40
1.0
 40
1.0
 40
1.0
 10
18.2167598030521
 20
333.1898920463972
 30
0.0
 10
18.15137571410144
 20
333.3367796757011
 30
0.0
 10
18.06317021355303
 20
333.5349363996848
 30
0.0
 10
17.96106794269478
 20
333.7642961717881
 30
0.0
 10
17.93465101933017
 20
333.8236384319715
 30
0.0
  0
SPLINE
  5
3B3
330
1F
100
AcDbEntity
  8
0
  6
Continuous
 62
     7
370
    15
100
AcDbSpline
210
0.0
220
0.0
230
1.0
 70
     8
 71
     3
 72
    10
 73
     6
 74
     0
 42
0.00000001
 43
0.00000001
 12
1.0
 22
0.0
 32
0.0
 13
1.0
 23
0.0
 33
0.0
 40
0.0
 40
0.0
 40
0.0
 40
0.0
 40
0.3625000683546823
 40
0.7681747872906617
 40
1.0
 40
1.0
 40
1.0
 40
1.0
 10
262.366370203252
 20
577.3395024465971
 30
0.0
 10
262.4267586273953
 20
577.31387818791
 30
0.0
 10
262.5547278856678
 20
577.2595777582417
 30
0.0
 10
262.6268209418278
 20
577.2344782921023
 30
0.0
 10
262.635884663341
 20
577.2311132087667
 30
0.0
 10
262.639180662389
 20
577.2298895048551
 30
0.0
  0
ARC
  5
3B4
330
1F
100
AcDbEntity
  8
0
  6
Continuous
 62
     7
370
    15
100
AcDbCircle
 10
261.7930288484
 20
574.8776333871
 30
0.0
 40
2.499816340417903
100
AcDbArc
 50
8.821724292
 51
70.2153650113
  0
SPLINE
  5
3B5
330
1F
100
AcDbEntity
  8
0
  6
Continuous
 62
     7
370
    15
100
AcDbSpline
210
0.0
220
0.0
230
1.0
 70
     8
 71
     3
 72
    10
 73
     6
 74
     0
 42
0.00000001
 43
0.00000001
 12
1.0
 22
0.0
 32
0.0
 13
1.0
 23
0.0
 33
0.0
 40
0.0
 40
0.0
 40
0.0
 40
0.0
 40
0.3625000683546823
 40
0.7681747872906617
 40
1.0
 40
1.0
 40
1.0
 40
1.0
 10
18.2167598030521
 20
665.7976977753095
 30
0.0
 10
18.24238406173916
 20
665.8580861994527
 30
0.0
 10
18.29668449140738
 20
665.9860554577252
 30
0.0
 10
18.32178395754677
 20
666.0581485138853
 30
0.0
 10
18.32514904088235
 20
666.0672122353985
 30
0.0
 10
18.32637274479402
 20
666.0705082344465
 30
0.0
  0
ARC
  5
3B6
330
1F
100
AcDbEntity
  8
0
  6
Continuous
 62
     7
370
    15
100
AcDbCircle
 10
20.6786288626
 20
665.2243564205
 30
0.0
 40
2.499816340417956
100
AcDbArc
 50
98.821724292
 51
160.2153650113
  0
SPLINE
  5
3B7
330
1F
100
AcDbEntity
  8
0
  6
Continuous
 62
     7
370
    15
100
AcDbSpline
210
0.0
220
0.0
230
1.0
 70
     8
 71
     3
 72
    10
 73
     6
 74
     0
 42
0.00000001
 43
0.00000001
 12
1.0
 22
0.0
 32
0.0
 13
1.0
 23
0.0
 33
0.0
 40
0.0
 40
0.0
 40
0.0
 40
0.0
 40
0.4115584338952435
 40
0.7944357401752777
 40
1.0
 40
1.0
 40
1.0
 40
1.0
 10
-70.51424598479736
 20
577.2298895048551
 30
0.0
 10
-70.50525877577066
 20
577.2331457404596
 30
0.0
 10
-70.48791066802396
 20
577.2394312876131
 30
0.0
 10
-70.38125247830529
 20
577.2789638677483
 30
0.0
 10
-70.27763345701399
 20
577.3238293019607
 30
0.0
 10
-70.24143552566036
 20
577.3395024465971
 30
0.0
  0
ARC
  5
3B8
330
1F
100
AcDbEntity
  8
0
  6
Continuous
 62
     7
370
    15
100
AcDbCircle
 10
-69.6680941708
 20
574.8776333871
 30
0.0
 40
2.499816340417971
100
AcDbArc
 50
109.7846349887
 51
171.178275708
  0
SPLINE
  5
3B9
330
1F
100
AcDbEntity
  8
0
  6
Continuous
 62
     7
370
    15
100
AcDbSpline
210
0.0
220
0.0
230
1.0
 70
     8
 71
     3
 72
    10
 73
     6
 74
     0
 42
0.00000001
 43
0.00000001
 12
1.0
 22
0.0
 32
0.0
 13
1.0
 23
0.0
 33
0.0
 40
0.0
 40
0.0
 40
0.0
 40
0.0
 40
0.3625000683546823
 40
0.7681747872906617
 40
1.0
 40
1.0
 40
1.0
 40
1.0
 10
-70.24143552566036
 20
421.6480873751096
 30
0.0
 10
-70.30182394980363
 20
421.6737116337966
 30
0.0
 10
-70.42979320807622
 20
421.7280120634649
 30
0.0
 10
-70.50188626423612
 20
421.7531115296043
 30
0.0
 10
-70.51094998574942
 20
421.7564766129398
 30
0.0
 10
-70.51424598479736
 20
421.7577003168515
 30
0.0
  0
ARC
  5
3BA
330
1F
100
AcDbEntity
  8
0
  6
Continuous
 62
     7
370
    15
100
AcDbCircle
 10
-69.6680941708
 20
424.1099564346
 30
0.0
 40
2.499816340417948
100
AcDbArc
 50
188.821724292
 51
250.2153650113
  0
SPLINE
  5
3BB
330
1F
100
AcDbEntity
  8
0
  6
Continuous
 62
     7
370
    15
100
AcDbSpline
210
0.0
220
0.0
230
1.0
 70
     8
 71
     3
 72
    10
 73
     6
 74
     0
 42
0.00000001
 43
0.00000001
 12
1.0
 22
0.0
 32
0.0
 13
1.0
 23
0.0
 33
0.0
 40
0.0
 40
0.0
 40
0.0
 40
0.0
 40
0.4115584338952435
 40
0.7944357401752777
 40
1.0
 40
1.0
 40
1.0
 40
1.0
 10
173.7985619327976
 20
666.0705082344465
 30
0.0
 10
173.8018181684021
 20
666.0615210254197
 30
0.0
 10
173.8081037155557
 20
666.044172917673
 30
0.0
 10
173.8476362956909
 20
665.9375147279544
 30
0.0
 10
173.8925017299032
 20
665.833895706663
 30
0.0
 10
173.9081748745395
 20
665.7976977753095
 30
0.0
  0
ARC
  5
3BC
330
1F
100
AcDbEntity
  8
0
  6
Continuous
 62
     7
370
    15
100
AcDbCircle
 10
171.446305815
 20
665.2243564205
 30
0.0
 40
2.499816340417976
100
AcDbArc
 50
19.7846349887
 51
81.178275708
  0
SPLINE
  5
3BD
330
1F
100
AcDbEntity
  8
0
  6
Continuous
 62
     7
370
    15
100
AcDbSpline
210
0.0
220
0.0
230
1.0
 70
     8
 71
     3
 72
    10
 73
     6
 74
     0
 42
0.00000001
 43
0.00000001
 12
1.0
 22
0.0
 32
0.0
 13
1.0
 23
0.0
 33
0.0
 40
0.0
 40
0.0
 40
0.0
 40
0.0
 40
0.4115584338952435
 40
0.7944357401752777
 40
1.0
 40
1.0
 40
1.0
 40
1.0
 10
18.32637274479402
 20
332.9170815872602
 30
0.0
 10
18.32311650918948
 20
332.9260687962868
 30
0.0
 10
18.31683096203596
 20
332.9434169040335
 30
0.0
 10
18.27729838190073
 20
333.0500750937522
 30
0.0
 10
18.23243294768841
 20
333.1536941150435
 30
0.0
 10
18.2167598030521
 20
333.1898920463972
 30
0.0
  0
ARC
  5
3BE
330
1F
100
AcDbEntity
  8
0
  6
Continuous
 62
     7
370
    15
100
AcDbCircle
 10
20.6786288626
 20
333.7632334012
 30
0.0
 40
2.499816340417959
100
AcDbArc
 50
199.7846349887
 51
261.178275708
  0
SPLINE
  5
3BF
330
1F
100
AcDbEntity
  8
0
  6
Continuous
 62
     7
370
    15
100
AcDbSpline
210
0.0
220
0.0
230
1.0
 70
     8
 71
     3
 72
    10
 73
     6
 74
     0
 42
0.00000001
 43
0.00000001
 12
1.0
 22
0.0
 32
0.0
 13
1.0
 23
0.0
 33
0.0
 40
0.0
 40
0.0
 40
0.0
 40
0.0
 40
0.4115584338952435
 40
0.7944357401752777
 40
1.0
 40
1.0
 40
1.0
 40
1.0
 10
262.639180662389
 20
421.7577003168515
 30
0.0
 10
262.6301934533623
 20
421.754444081247
 30
0.0
 10
262.6128453456156
 20
421.7481585340934
 30
0.0
 10
262.5061871558969
 20
421.7086259539582
 30
0.0
 10
262.4025681346056
 20
421.6637605197458
 30
0.0
 10
262.366370203252
 20
421.6480873751096
 30
0.0
  0
ARC
  5
3C0
330
1F
100
AcDbEntity
  8
0
  6
Continuous
 62
     7
370
    15
100
AcDbCircle
 10
261.7930288484
 20
424.1099564346
 30
0.0
 40
2.499816340417976
100
AcDbArc
 50
289.7846349887
 51
351.178275708
  0
ARC
  5
3C1
330
1F
100
AcDbEntity
  8
0
  6
Continuous
 62
     7
370
    15
100
AcDbCircle
 10
20.6788099343
 20
665.2244296136
 30
0.0
 40
2.499970071137696
100
AcDbArc
 50
98.7683566125
 51
160.2173262975
  0
ARC
  5
3C2
330
1F
100
AcDbEntity
  8
0
  6
Continuous
 62
     7
370
    15
100
AcDbCircle
 10
261.7931020416
 20
574.8774523153
 30
0.0
 40
2.499970071137702
100
AcDbArc
 50
8.7683566125
 51
70.2173262975
  0
ARC
  5
3C3
330
1F
100
AcDbEntity
  8
0
  6
Continuous
 62
     7
370
    15
100
AcDbCircle
 10
171.4461247433
 20
665.2244296136
 30
0.0
 40
2.499970071137679
100
AcDbArc
 50
19.7826737025
 51
81.2316433875
  0
ARC
  5
3C4
330
1F
100
AcDbEntity
  8
0
  6
Continuous
 62
     7
370
    15
100
AcDbCircle
 10
-69.668167364
 20
574.8774523153
 30
0.0
 40
2.499970071137712
100
AcDbArc
 50
109.7826737025
 51
171.2316433875
  0
ARC
  5
3C5
330
1F
100
AcDbEntity
  8
0
  6
Continuous
 62
     7
370
    15
100
AcDbCircle
 10
261.7931020416
 20
424.1101375064
 30
0.0
 40
2.499970071137702
100
AcDbArc
 50
289.7826737025
 51
351.2316433875
  0
ARC
  5
3C6
330
1F
100
AcDbEntity
  8
0
  6
Continuous
 62
     7
370
    15
100
AcDbCircle
 10
20.6788099343
 20
333.7631602081
 30
0.0
 40
2.499970071137676
100
AcDbArc
 50
199.7826737025
 51
261.2316433875
  0
ARC
  5
3C7
330
1F
100
AcDbEntity
  8
0
  6
Continuous
 62
     7
370
    15
100
AcDbCircle
 10
-69.668167364
 20
424.1101375064
 30
0.0
 40
2.499970071137712
100
AcDbArc
 50
188.7683566125
 51
250.2173262975
  0
SPLINE
  5
3C8
330
1F
100
AcDbEntity
  8
0
  6
Continuous
 62
     7
370
    15
100
AcDbSpline
210
0.0
220
0.0
230
1.0
 70
     8
 71
     3
 72
     9
 73
     5
 74
     0
 42
0.00000001
 43
0.00000001
 12
1.0
 22
0.0
 32
0.0
 13
1.0
 23
0.0
 33
0.0
 40
0.0
 40
0.0
 40
0.0
 40
0.0
 40
0.5546959762779875
 40
1.0
 40
1.0
 40
1.0
 40
1.0
 10
171.8272202632381
 20
667.6951818394117
 30
0.0
 10
171.8771612314804
 20
667.6875309186769
 30
0.0
 10
171.9671942772893
 20
667.6737379202383
 30
0.0
 10
172.475830465866
 20
667.5946296774407
 30
0.0
 10
172.7023282072498
 20
667.5594024586134
 30
0.0
  0
SPLINE
  5
3C9
330
1F
100
AcDbEntity
  8
0
  6
Continuous
 62
     7
370
    15
100
AcDbSpline
210
0.0
220
0.0
230
1.0
 70
     8
 71
     3
 72
     9
 73
     5
 74
     0
 42
0.00000001
 43
0.00000001
 12
1.0
 22
0.0
 32
0.0
 13
1.0
 23
0.0
 33
0.0
 40
0.0
 40
0.0
 40
0.0
 40
0.0
 40
0.5568919973007546
 40
1.0
 40
1.0
 40
1.0
 40
1.0
 10
19.42260647034183
 20
667.5594024586134
 30
0.0
 10
19.69854151360478
 20
667.6022850996309
 30
0.0
 10
20.19403264043082
 20
667.6792886141817
 30
0.0
 10
20.26587880421672
 20
667.6903018059874
 30
0.0
 10
20.29771441435352
 20
667.6951818394117
 30
0.0
  0
SPLINE
  5
3CA
330
1F
100
AcDbEntity
  8
0
  6
Continuous
 62
     7
370
    15
100
AcDbSpline
210
0.0
220
0.0
230
1.0
 70
     8
 71
     3
 72
     9
 73
     5
 74
     0
 42
0.00000001
 43
0.00000001
 12
1.0
 22
0.0
 32
0.0
 13
1.0
 23
0.0
 33
0.0
 40
0.0
 40
0.0
 40
0.0
 40
0.0
 40
0.5546959762779875
 40
1.0
 40
1.0
 40
1.0
 40
1.0
 10
-72.13891958976254
 20
575.2585478352956
 30
0.0
 10
-72.13126866902783
 20
575.3084888035378
 30
0.0
 10
-72.11747567058922
 20
575.3985218493467
 30
0.0
 10
-72.03836742779154
 20
575.9071580379235
 30
0.0
 10
-72.0031402089642
 20
576.1336557793073
 30
0.0
  0
SPLINE
  5
3CB
330
1F
100
AcDbEntity
  8
0
  6
Continuous
 62
     7
370
    15
100
AcDbSpline
210
0.0
220
0.0
230
1.0
 70
     8
 71
     3
 72
     9
 73
     5
 74
     0
 42
0.00000001
 43
0.00000001
 12
1.0
 22
0.0
 32
0.0
 13
1.0
 23
0.0
 33
0.0
 40
0.0
 40
0.0
 40
0.0
 40
0.0
 40
0.5568919973007546
 40
1.0
 40
1.0
 40
1.0
 40
1.0
 10
264.1280748865558
 20
576.1336557793073
 30
0.0
 10
264.1709575275733
 20
575.8577207360444
 30
0.0
 10
264.2479610421242
 20
575.3622296092183
 30
0.0
 10
264.2589742339298
 20
575.2903834454323
 30
0.0
 10
264.2638542673541
 20
575.2585478352956
 30
0.0
  0
SPLINE
  5
3CC
330
1F
100
AcDbEntity
  8
0
  6
Continuous
 62
     7
370
    15
100
AcDbSpline
210
0.0
220
0.0
230
1.0
 70
     8
 71
     3
 72
     9
 73
     5
 74
     0
 42
0.00000001
 43
0.00000001
 12
1.0
 22
0.0
 32
0.0
 13
1.0
 23
0.0
 33
0.0
 40
0.0
 40
0.0
 40
0.0
 40
0.0
 40
0.5546959762779875
 40
1.0
 40
1.0
 40
1.0
 40
1.0
 10
264.2638542673541
 20
423.729041986411
 30
0.0
 10
264.2562033466195
 20
423.6791010181688
 30
0.0
 10
264.2424103481808
 20
423.5890679723598
 30
0.0
 10
264.1633021053832
 20
423.0804317837831
 30
0.0
 10
264.1280748865558
 20
422.8539340423993
 30
0.0
  0
SPLINE
  5
3CD
330
1F
100
AcDbEntity
  8
0
  6
Continuous
 62
     7
370
    15
100
AcDbSpline
210
0.0
220
0.0
230
1.0
 70
     8
 71
     3
 72
     9
 73
     5
 74
     0
 42
0.00000001
 43
0.00000001
 12
1.0
 22
0.0
 32
0.0
 13
1.0
 23
0.0
 33
0.0
 40
0.0
 40
0.0
 40
0.0
 40
0.0
 40
0.5568919973007546
 40
1.0
 40
1.0
 40
1.0
 40
1.0
 10
-72.0031402089642
 20
422.8539340423993
 30
0.0
 10
-72.04602284998165
 20
423.1298690856622
 30
0.0
 10
-72.12302636453258
 20
423.6253602124883
 30
0.0
 10
-72.13403955633824
 20
423.6972063762742
 30
0.0
 10
-72.13891958976254
 20
423.729041986411
 30
0.0
  0
SPLINE
  5
3CE
330
1F
100
AcDbEntity
  8
0
  6
Continuous
 62
     7
370
    15
100
AcDbSpline
210
0.0
220
0.0
230
1.0
 70
     8
 71
     3
 72
     9
 73
     5
 74
     0
 42
0.00000001
 43
0.00000001
 12
1.0
 22
0.0
 32
0.0
 13
1.0
 23
0.0
 33
0.0
 40
0.0
 40
0.0
 40
0.0
 40
0.0
 40
0.5546959762779875
 40
1.0
 40
1.0
 40
1.0
 40
1.0
 10
20.29771441435352
 20
331.292407982295
 30
0.0
 10
20.24777344611126
 20
331.3000589030297
 30
0.0
 10
20.15774040030236
 20
331.3138519014683
 30
0.0
 10
19.64910421172566
 20
331.3929601442659
 30
0.0
 10
19.42260647034183
 20
331.4281873630933
 30
0.0
  0
SPLINE
  5
3CF
330
1F
100
AcDbEntity
  8
0
  6
Continuous
 62
     7
370
    15
100
AcDbSpline
210
0.0
220
0.0
230
1.0
 70
     8
 71
     3
 72
    10
 73
     6
 74
     0
 42
0.00000001
 43
0.00000001
 12
1.0
 22
0.0
 32
0.0
 13
1.0
 23
0.0
 33
0.0
 40
0.0
 40
0.0
 40
0.0
 40
0.0
 40
0.4311094121184107
 40
0.8289212513178853
 40
1.0
 40
1.0
 40
1.0
 40
1.0
 10
13.80056971525684
 20
666.6489415096693
 30
0.0
 10
14.7268099210045
 20
666.802793402536
 30
0.0
 10
16.50775037089289
 20
667.0986141384511
 30
0.0
 10
18.42581950597345
 20
667.4034188282459
 30
0.0
 10
19.19215223644251
 20
667.5233394990018
 30
0.0
 10
19.42260647034183
 20
667.5594024586134
 30
0.0
  0
SPLINE
  5
3D0
330
1F
100
AcDbEntity
  8
0
  6
Continuous
 62
     7
370
    15
100
AcDbSpline
210
0.0
220
0.0
230
1.0
 70
     8
 71
     3
 72
    10
 73
     6
 74
     0
 42
0.00000001
 43
0.00000001
 12
1.0
 22
0.0
 32
0.0
 13
1.0
 23
0.0
 33
0.0
 40
0.0
 40
0.0
 40
0.0
 40
0.0
 40
0.4311094121184107
 40
0.8289212513178853
 40
1.0
 40
1.0
 40
1.0
 40
1.0
 10
-71.0926792600201
 20
417.2318972873143
 30
0.0
 10
-71.24653115288696
 20
418.158137493062
 30
0.0
 10
-71.542351888802
 20
419.9390779429504
 30
0.0
 10
-71.84715657859681
 20
421.8571470780309
 30
0.0
 10
-71.96707724935281
 20
422.6234798085
 30
0.0
 10
-72.0031402089642
 20
422.8539340423993
 30
0.0
  0
SPLINE
  5
3D1
330
1F
100
AcDbEntity
  8
0
  6
Continuous
 62
     7
370
    15
100
AcDbSpline
210
0.0
220
0.0
230
1.0
 70
     8
 71
     3
 72
    10
 73
     6
 74
     0
 42
0.00000001
 43
0.00000001
 12
1.0
 22
0.0
 32
0.0
 13
1.0
 23
0.0
 33
0.0
 40
0.0
 40
0.0
 40
0.0
 40
0.0
 40
0.4311094121184107
 40
0.8289212513178853
 40
1.0
 40
1.0
 40
1.0
 40
1.0
 10
263.2176139376117
 20
581.7556925343923
 30
0.0
 10
263.3714658304785
 20
580.8294523286446
 30
0.0
 10
263.6672865663936
 20
579.0485118787561
 30
0.0
 10
263.9720912561884
 20
577.1304427436756
 30
0.0
 10
264.0920119269445
 20
576.3641100132066
 30
0.0
 10
264.1280748865558
 20
576.1336557793073
 30
0.0
  0
SPLINE
  5
3D2
330
1F
100
AcDbEntity
  8
0
  6
Continuous
 62
     7
370
    15
100
AcDbSpline
210
0.0
220
0.0
230
1.0
 70
     8
 71
     3
 72
    10
 73
     6
 74
     0
 42
0.00000001
 43
0.00000001
 12
1.0
 22
0.0
 32
0.0
 13
1.0
 23
0.0
 33
0.0
 40
0.0
 40
0.0
 40
0.0
 40
0.0
 40
0.3127332807631187
 40
0.6244278319846872
 40
1.0
 40
1.0
 40
1.0
 40
1.0
 10
172.7023282072498
 20
667.5594024586134
 30
0.0
 10
173.1515363582005
 20
667.4889725128075
 30
0.0
 10
174.0484606354106
 20
667.3483465510967
 30
0.0
 10
176.0425492071972
 20
667.0285165496232
 30
0.0
 10
177.5180466195951
 20
666.7830707952927
 30
0.0
 10
178.3243649623348
 20
666.6489415096693
 30
0.0
  0
SPLINE
  5
3D3
330
1F
100
AcDbEntity
  8
0
  6
Continuous
 62
     7
370
    15
100
AcDbSpline
210
0.0
220
0.0
230
1.0
 70
     8
 71
     3
 72
    10
 73
     6
 74
     0
 42
0.00000001
 43
0.00000001
 12
1.0
 22
0.0
 32
0.0
 13
1.0
 23
0.0
 33
0.0
 40
0.0
 40
0.0
 40
0.0
 40
0.0
 40
0.3127332807631187
 40
0.6244278319846872
 40
1.0
 40
1.0
 40
1.0
 40
1.0
 10
264.1280748865558
 20
422.8539340423993
 30
0.0
 10
264.0576449407501
 20
422.4047258914486
 30
0.0
 10
263.9170189790392
 20
421.5078016142385
 30
0.0
 10
263.5971889775657
 20
419.5137130424519
 30
0.0
 10
263.3517432232352
 20
418.0382156300541
 30
0.0
 10
263.2176139376118
 20
417.2318972873143
 30
0.0
  0
SPLINE
  5
3D4
330
1F
100
AcDbEntity
  8
0
  6
Continuous
 62
     7
370
    15
100
AcDbSpline
210
0.0
220
0.0
230
1.0
 70
     8
 71
     3
 72
    10
 73
     6
 74
     0
 42
0.00000001
 43
0.00000001
 12
1.0
 22
0.0
 32
0.0
 13
1.0
 23
0.0
 33
0.0
 40
0.0
 40
0.0
 40
0.0
 40
0.0
 40
0.3127332807631187
 40
0.6244278319846872
 40
1.0
 40
1.0
 40
1.0
 40
1.0
 10
-72.0031402089642
 20
576.1336557793073
 30
0.0
 10
-71.93271026315846
 20
576.5828639302579
 30
0.0
 10
-71.7920843014476
 20
577.479788207468
 30
0.0
 10
-71.47225429997405
 20
579.4738767792546
 30
0.0
 10
-71.22680854564362
 20
580.9493741916525
 30
0.0
 10
-71.09267926002013
 20
581.7556925343923
 30
0.0
  0
SPLINE
  5
3D5
330
1F
100
AcDbEntity
  8
0
  6
Continuous
 62
     7
370
    15
100
AcDbSpline
210
0.0
220
0.0
230
1.0
 70
     8
 71
     3
 72
    10
 73
     6
 74
     0
 42
0.00000001
 43
0.00000001
 12
1.0
 22
0.0
 32
0.0
 13
1.0
 23
0.0
 33
0.0
 40
0.0
 40
0.0
 40
0.0
 40
0.0
 40
0.3127332807631187
 40
0.6244278319846872
 40
1.0
 40
1.0
 40
1.0
 40
1.0
 10
19.42260647034183
 20
331.4281873630933
 30
0.0
 10
18.97339831939111
 20
331.498617308899
 30
0.0
 10
18.07647404218105
 20
331.6392432706099
 30
0.0
 10
16.08238547039442
 20
331.9590732720834
 30
0.0
 10
14.60688805799655
 20
332.2045190264139
 30
0.0
 10
13.80056971525682
 20
332.3386483120374
 30
0.0
  0
ARC
  5
3D6
330
1F
100
AcDbEntity
  8
0
  6
Continuous
 62
     7
370
    15
100
AcDbCircle
 10
96.0624673388
 20
176.5040793289
 30
0.0
 40
497.0000000000001
100
AcDbArc
 50
79.8179325968
 51
80.4727370637
  0
ARC
  5
3D7
330
1F
100
AcDbEntity
  8
0
  6
Continuous
 62
     7
370
    15
100
AcDbCircle
 10
96.0624673388
 20
176.5040793289
 30
0.0
 40
497.0
100
AcDbArc
 50
99.5272629363
 51
100.1820674032
  0
ARC
  5
3D8
330
1F
100
AcDbEntity
  8
0
  6
Continuous
 62
     7
370
    15
100
AcDbCircle
 10
25.3517892201
 20
570.2044730295
 30
0.0
 40
97.00000000000006
100
AcDbArc
 50
100.1820674032
 51
169.8179325968
  0
CIRCLE
  5
3D9
330
1F
100
AcDbEntity
  8
0
  6
Continuous
 62
     7
370
    15
100
AcDbCircle
 10
-34.7522871807
 20
630.3085494304
 30
0.0
 40
6.0
  0
ARC
  5
3DA
330
1F
100
AcDbEntity
  8
0
  6
Continuous
 62
     7
370
    15
100
AcDbCircle
 10
166.7731454574
 20
570.2044730295
 30
0.0
 40
96.99999999999997
100
AcDbArc
 50
10.1820674032
 51
79.8179325968
  0
CIRCLE
  5
3DB
330
1F
100
AcDbEntity
  8
0
  6
Continuous
 62
     7
370
    15
100
AcDbCircle
 10
226.8772218583
 20
630.3085494304
 30
0.0
 40
6.0
  0
ARC
  5
3DC
330
1F
100
AcDbEntity
  8
0
  6
Continuous
 62
     7
370
    15
100
AcDbCircle
 10
419.0521829207
 20
499.4937949108
 30
0.0
 40
497.0
100
AcDbArc
 50
169.8179325968
 51
170.4727370637
  0
ARC
  5
3DD
330
1F
100
AcDbEntity
  8
0
  6
Continuous
 62
     7
370
    15
100
AcDbCircle
 10
-226.9272482431
 20
499.4937949108
 30
0.0
 40
497.0000000000001
100
AcDbArc
 50
9.5272629363
 51
10.1820674032
  0
CIRCLE
  5
3DE
330
1F
100
AcDbEntity
  8
0
  6
Continuous
 62
     7
370
    15
100
AcDbCircle
 10
-34.7522871807
 20
368.6790403913
 30
0.0
 40
6.000000000000007
  0
ARC
  5
3DF
330
1F
100
AcDbEntity
  8
0
  6
Continuous
 62
     7
370
    15
100
AcDbCircle
 10
166.7731454574
 20
428.7831167922
 30
0.0
 40
97.00000000000003
100
AcDbArc
 50
284.8067714556
 51
349.8179325968
  0
CIRCLE
  5
3E0
330
1F
100
AcDbEntity
  8
0
  6
Continuous
 62
     7
370
    15
100
AcDbCircle
 10
226.8772218583
 20
368.6790403913
 30
0.0
 40
6.0
  0
ARC
  5
3E1
330
1F
100
AcDbEntity
  8
0
  6
Continuous
 62
     7
370
    15
100
AcDbCircle
 10
419.0521829207
 20
499.4937949108
 30
0.0
 40
496.9999999999999
100
AcDbArc
 50
189.5272629363
 51
190.1820674032
  0
ARC
  5
3E2
330
1F
100
AcDbEntity
  8
0
  6
Continuous
 62
     7
370
    15
100
AcDbCircle
 10
25.3517892201
 20
428.7831167922
 30
0.0
 40
97.00000000000001
100
AcDbArc
 50
190.1820674032
 51
259.8179325968
  0
ARC
  5
3E3
330
1F
100
AcDbEntity
  8
0
  6
Continuous
 62
     7
370
    15
100
AcDbCircle
 10
-226.9272482431
 20
499.4937949108
 30
0.0
 40
497.0
100
AcDbArc
 50
349.8179325968
 51
350.4727370637
  0
ARC
  5
3E4
330
1F
100
AcDbEntity
  8
0
  6
Continuous
 62
     7
370
    15
100
AcDbCircle
 10
96.0624673388
 20
822.4835104928
 30
0.0
 40
497.0
100
AcDbArc
 50
259.8179325968
 51
260.4727370637
  0
ARC
  5
3E5
330
1F
100
AcDbEntity
  8
0
  6
Continuous
 62
     7
370
    15
100
AcDbCircle
 10
-226.9272482431
 20
499.4937949108
 30
0.0
 40
500.0000000000001
100
AcDbArc
 50
349.8179325968
 51
355.410964943
  0
LWPOLYLINE
  5
3E6
330
1F
100
AcDbEntity
  8
0
  6
Continuous
 62
     7
370
    15
100
AcDbPolyline
 90
        3
 70
   128
 43
0.0
 10
272.447571995
 20
474.4978774565
 10
272.6523586533
 20
478.9944723474
 10
272.8166886589
 20
483.4937941509
  0
LWPOLYLINE
  5
3E7
330
1F
100
AcDbEntity
  8
0
  6
Continuous
 62
     7
370
    15
100
AcDbPolyline
 90
        3
 70
   128
 43
0.0
 10
272.8166886589
 20
515.4937956708
 10
272.6523586533
 20
519.9931174743
 10
272.3962970993
 20
525.4937954473
  0
ARC
  5
3E8
330
1F
100
AcDbEntity
  8
0
  6
Continuous
 62
     7
370
    15
100
AcDbCircle
 10
-226.9272482431
 20
499.4937949108
 30
0.0
 40
500.0000000000001
100
AcDbArc
 50
4.4736148916
 51
10.1820674032
  0
ARC
  5
3E9
330
1F
100
AcDbEntity
  8
0
  6
Continuous
 62
     7
370
    15
100
AcDbCircle
 10
166.7731454574
 20
428.7831167922
 30
0.0
 40
100.0
100
AcDbArc
 50
284.3528786764
 51
349.8179325968
  0
ARC
  5
3EA
330
1F
100
AcDbEntity
  8
0
  6
Continuous
 62
     7
370
    15
100
AcDbCircle
 10
96.0624673388
 20
822.4835104928
 30
0.0
 40
499.9999999999999
100
AcDbArc
 50
259.8179325968
 51
277.7016113573
  0
ARC
  5
3EB
330
1F
100
AcDbEntity
  8
0
  6
Continuous
 62
     7
370
    15
100
AcDbCircle
 10
25.3517892201
 20
428.7831167922
 30
0.0
 40
100.0
100
AcDbArc
 50
190.1820674032
 51
259.8179325968
  0
ARC
  5
3EC
330
1F
100
AcDbEntity
  8
0
  6
Continuous
 62
     7
370
    15
100
AcDbCircle
 10
419.0521829207
 20
499.4937949108
 30
0.0
 40
500.0000000000001
100
AcDbArc
 50
169.8179325968
 51
175.4536308052
  0
ARC
  5
3ED
330
1F
100
AcDbEntity
  8
0
  6
Continuous
 62
     7
370
    15
100
AcDbCircle
 10
419.0521829207
 20
499.4937949108
 30
0.0
 40
500.0000000000001
100
AcDbArc
 50
177.0919000272
 51
182.9674636479
  0
ARC
  5
3EE
330
1F
100
AcDbEntity
  8
0
  6
Continuous
 62
     7
370
    15
100
AcDbCircle
 10
419.0521829207
 20
499.4937949108
 30
0.0
 40
500.0
100
AcDbArc
 50
184.4868988525
 51
190.1820674032
  0
ARC
  5
3EF
330
1F
100
AcDbEntity
  8
0
  6
Continuous
 62
     7
370
    15
100
AcDbCircle
 10
25.3517892201
 20
570.2044730295
 30
0.0
 40
100.0
100
AcDbArc
 50
100.1820674032
 51
169.8179325968
  0
ARC
  5
3F0
330
1F
100
AcDbEntity
  8
0
  6
Continuous
 62
     7
370
    15
100
AcDbCircle
 10
96.0624673388
 20
176.5040793289
 30
0.0
 40
500.0000000000001
100
AcDbArc
 50
79.8179325968
 51
85.1239751304
  0
ARC
  5
3F1
330
1F
100
AcDbEntity
  8
0
  6
Continuous
 62
     7
370
    15
100
AcDbCircle
 10
96.0624673388
 20
176.5040793289
 30
0.0
 40
500.0000000000001
100
AcDbArc
 50
94.8760248696
 51
100.1820674032
  0
ARC
  5
3F2
330
1F
100
AcDbEntity
  8
0
  6
Continuous
 62
     7
370
    15
100
AcDbCircle
 10
166.7731454574
 20
570.2044730295
 30
0.0
 40
100.0
100
AcDbArc
 50
10.1820674032
 51
79.8179325968
  0
INSERT
  5
416
330
1F
100
AcDbEntity
  8
0
  6
Continuous
 62
     7
370
     0
100
AcDbBlockReference
  2
SW_CENTERMARKSYMBOL_2
 10
226.8772218583
 20
630.3085494304
 30
0.0
  0
ENDSEC
  0
SECTION
  2
OBJECTS
  0
DICTIONARY
  5
C
330
0
100
AcDbDictionary
281
     1
  3
ACAD_GROUP
350
D
  3
ACAD_LAYOUT
350
1A
  3
ACAD_MLINESTYLE
350
17
  3
ACAD_PLOTSETTINGS
350
19
  3
ACAD_PLOTSTYLENAME
350
E
  0
DICTIONARY
  5
D
102
{ACAD_REACTORS
330
C
102
}
330
C
100
AcDbDictionary
281
     1
  0
DICTIONARY
  5
1A
102
{ACAD_REACTORS
330
C
102
}
330
C
100
AcDbDictionary
281
     1
  3
Layout1
350
1E
  3
Layout2
350
26
  3
Model
350
22
  0
DICTIONARY
  5
17
102
{ACAD_REACTORS
330
C
102
}
330
C
100
AcDbDictionary
281
     1
  3
Standard
350
18
  0
DICTIONARY
  5
19
102
{ACAD_REACTORS
330
C
102
}
330
C
100
AcDbDictionary
281
     1
  0
ACDBDICTIONARYWDFLT
  5
E
102
{ACAD_REACTORS
330
C
102
}
330
C
100
AcDbDictionary
281
     1
  3
Normal
350
F
100
AcDbDictionaryWithDefault
340
F
  0
LAYOUT
  5
1E
102
{ACAD_REACTORS
330
1A
102
}
330
1A
100
AcDbPlotSettings
  1

  2
none_device
  4

  6

 40
0.0
 41
0.0
 42
0.0
 43
0.0
 44
0.0
 45
0.0
 46
0.0
 47
0.0
 48
0.0
 49
0.0
140
0.0
141
0.0
142
1.0
143
1.0
 70
   688
 72
     0
 73
     0
 74
     5
  7

 75
    16
147
1.0
148
0.0
149
0.0
100
AcDbLayout
  1
Layout1
 70
     1
 71
     1
 10
0.0
 20
0.0
 11
420.0
 21
297.0
 12
0.0
 22
0.0
 32
0.0
 14
1.0000000000E+20
 24
1.0000000000E+20
 34
1.0000000000E+20
 15
-1.0000000000E+20
 25
-1.0000000000E+20
 35
-1.0000000000E+20
146
0.0
 13
0.0
 23
0.0
 33
0.0
 16
1.0
 26
0.0
 36
0.0
 17
0.0
 27
1.0
 37
0.0
 76
     0
330
1B
  0
LAYOUT
  5
26
102
{ACAD_REACTORS
330
1A
102
}
330
1A
100
AcDbPlotSettings
  1

  2
none_device
  4

  6

 40
0.0
 41
0.0
 42
0.0
 43
0.0
 44
0.0
 45
0.0
 46
0.0
 47
0.0
 48
0.0
 49
0.0
140
0.0
141
0.0
142
1.0
143
1.0
 70
   688
 72
     0
 73
     0
 74
     5
  7

 75
    16
147
1.0
148
0.0
149
0.0
100
AcDbLayout
  1
Layout2
 70
     1
 71
     2
 10
0.0
 20
0.0
 11
0.0
 21
0.0
 12
0.0
 22
0.0
 32
0.0
 14
0.0
 24
0.0
 34
0.0
 15
0.0
 25
0.0
 35
0.0
146
0.0
 13
0.0
 23
0.0
 33
0.0
 16
1.0
 26
0.0
 36
0.0
 17
0.0
 27
1.0
 37
0.0
 76
     0
330
23
  0
LAYOUT
  5
22
102
{ACAD_REACTORS
330
1A
102
}
330
1A
100
AcDbPlotSettings
  1

  2
none_device
  4

  6

 40
0.0
 41
0.0
 42
0.0
 43
0.0
 44
0.0
 45
0.0
 46
0.0
 47
0.0
 48
0.0
 49
0.0
140
0.0
141
0.0
142
1.0
143
1.0
 70
  1712
 72
     0
 73
     0
 74
     0
  7

 75
     0
147
1.0
148
0.0
149
0.0
100
AcDbLayout
  1
Model
 70
     1
 71
     0
 10
0.0
 20
0.0
 11
210.0
 21
297.0
 12
0.0
 22
0.0
 32
0.0
 14
0.0
 24
0.0
 34
0.0
 15
210.0
 25
297.0
 35
0.0
146
0.0
 13
0.0
 23
0.0
 33
0.0
 16
1.0
 26
0.0
 36
0.0
 17
0.0
 27
1.0
 37
0.0
 76
     0
330
1F
331
29
  0
MLINESTYLE
  5
18
102
{ACAD_REACTORS
330
17
102
}
330
17
100
AcDbMlineStyle
  2
Standard
 70
     0
  3

 62
   256
 51
90.0
 52
90.0
 71
     2
 49
0.5
 62
   256
  6
BYLAYER
 49
-0.5
 62
   256
  6
BYLAYER
  0
ACDBPLACEHOLDER
  5
F
102
{ACAD_REACTORS
330
E
102
}
330
E
  0
ENDSEC
  0
EOF
